  0
SECTION
  2
HEADER
  9
$EXTMIN
 10
0.0
 20
0.0
 30
0.0
  9
$EXTMAX
 10
2100.0
 20
1485.0
 30
0.0
  9
$LIMMIN
 10
0.0
 20
0.0
  9
$LIMMAX
 10
2100.0
 20
1485.0
  9
$LTSCALE
 40
1.0
  9
$PDMODE
 70
     0
  0
ENDSEC
  0
SECTION
  2
TABLES
  0
TABLE
  2
LTYPE
 70
     4
  0
LTYPE
  2
CONTINUOUS
 70
    64
  3
Solid line
 72
    65
 73
     0
 40
0.0
  0
LTYPE
  2
LTYPE1
 70
    64
  3
HIDDEN
 72
    65
 73
     2
 40
15.0
 49
9.0
 49
-6.0
  0
LTYPE
  2
LTYPE2
 70
    64
  3
CENTER
 72
    65
 73
     4
 40
75.0
 49
52.5
 49
-7.5
 49
7.5
 49
-7.5
  0
LTYPE
  2
LTYPE3
 70
    64
  3
CENTER
 72
    65
 73
     4
 40
40.0
 49
28.0
 49
-4.0
 49
4.0
 49
-4.0
  0
ENDTAB
  0
TABLE
  2
LAYER
 70
   128
  0
LAYER
  2
0
 70
     0
 62
     7
  6
CONTINUOUS
  0
LAYER
  2
2
 70
     0
 62
     7
  6
CONTINUOUS
  0
LAYER
  2
3
 70
     0
 62
     7
  6
CONTINUOUS
  0
LAYER
  2
4
 70
     0
 62
     7
  6
CONTINUOUS
  0
LAYER
  2
5
 70
     0
 62
     7
  6
CONTINUOUS
  0
LAYER
  2
6
 70
     0
 62
     7
  6
CONTINUOUS
  0
LAYER
  2
7
 70
     0
 62
     7
  6
CONTINUOUS
  0
LAYER
  2
8
 70
     0
 62
     7
  6
CONTINUOUS
  0
LAYER
  2
9
 70
     0
 62
     7
  6
CONTINUOUS
  0
LAYER
  2
10
 70
     0
 62
     7
  6
CONTINUOUS
  0
LAYER
  2
11
 70
     0
 62
     7
  6
CONTINUOUS
  0
LAYER
  2
12
 70
     0
 62
     7
  6
CONTINUOUS
  0
LAYER
  2
13
 70
     0
 62
     7
  6
CONTINUOUS
  0
LAYER
  2
14
 70
     0
 62
     7
  6
CONTINUOUS
  0
LAYER
  2
15
 70
     0
 62
     7
  6
CONTINUOUS
  0
LAYER
  2
16
 70
     0
 62
     7
  6
CONTINUOUS
  0
LAYER
  2
17
 70
     0
 62
     7
  6
CONTINUOUS
  0
LAYER
  2
18
 70
     0
 62
     7
  6
CONTINUOUS
  0
LAYER
  2
19
 70
     0
 62
     7
  6
CONTINUOUS
  0
LAYER
  2
20
 70
     0
 62
     7
  6
CONTINUOUS
  0
LAYER
  2
21
 70
     0
 62
     7
  6
CONTINUOUS
  0
LAYER
  2
22
 70
     0
 62
     7
  6
CONTINUOUS
  0
LAYER
  2
23
 70
     0
 62
     7
  6
CONTINUOUS
  0
LAYER
  2
24
 70
     0
 62
     7
  6
CONTINUOUS
  0
LAYER
  2
25
 70
     0
 62
     7
  6
CONTINUOUS
  0
LAYER
  2
26
 70
     0
 62
     7
  6
CONTINUOUS
  0
LAYER
  2
27
 70
     0
 62
     7
  6
CONTINUOUS
  0
LAYER
  2
28
 70
     0
 62
     7
  6
CONTINUOUS
  0
LAYER
  2
29
 70
     0
 62
     7
  6
CONTINUOUS
  0
LAYER
  2
30
 70
     0
 62
     7
  6
CONTINUOUS
  0
LAYER
  2
31
 70
     0
 62
     7
  6
CONTINUOUS
  0
LAYER
  2
32
 70
     0
 62
     7
  6
CONTINUOUS
  0
LAYER
  2
33
 70
     0
 62
     7
  6
CONTINUOUS
  0
LAYER
  2
34
 70
     0
 62
     7
  6
CONTINUOUS
  0
LAYER
  2
35
 70
     0
 62
     7
  6
CONTINUOUS
  0
LAYER
  2
36
 70
     0
 62
     7
  6
CONTINUOUS
  0
LAYER
  2
37
 70
     0
 62
     7
  6
CONTINUOUS
  0
LAYER
  2
38
 70
     0
 62
     7
  6
CONTINUOUS
  0
LAYER
  2
39
 70
     0
 62
     7
  6
CONTINUOUS
  0
LAYER
  2
40
 70
     0
 62
     7
  6
CONTINUOUS
  0
LAYER
  2
41
 70
     0
 62
     7
  6
CONTINUOUS
  0
LAYER
  2
42
 70
     0
 62
     7
  6
CONTINUOUS
  0
LAYER
  2
43
 70
     0
 62
     7
  6
CONTINUOUS
  0
LAYER
  2
44
 70
     0
 62
     7
  6
CONTINUOUS
  0
LAYER
  2
45
 70
     0
 62
     7
  6
CONTINUOUS
  0
LAYER
  2
46
 70
     0
 62
     7
  6
CONTINUOUS
  0
LAYER
  2
47
 70
     0
 62
     7
  6
CONTINUOUS
  0
LAYER
  2
48
 70
     0
 62
     7
  6
CONTINUOUS
  0
LAYER
  2
49
 70
     0
 62
     7
  6
CONTINUOUS
  0
LAYER
  2
50
 70
     0
 62
     7
  6
CONTINUOUS
  0
LAYER
  2
51
 70
     0
 62
     7
  6
CONTINUOUS
  0
LAYER
  2
52
 70
     0
 62
     7
  6
CONTINUOUS
  0
LAYER
  2
53
 70
     0
 62
     7
  6
CONTINUOUS
  0
LAYER
  2
54
 70
     0
 62
     7
  6
CONTINUOUS
  0
LAYER
  2
55
 70
     0
 62
     7
  6
CONTINUOUS
  0
LAYER
  2
56
 70
     0
 62
     7
  6
CONTINUOUS
  0
LAYER
  2
57
 70
     0
 62
     7
  6
CONTINUOUS
  0
LAYER
  2
58
 70
     0
 62
     7
  6
CONTINUOUS
  0
LAYER
  2
59
 70
     0
 62
     7
  6
CONTINUOUS
  0
LAYER
  2
60
 70
     0
 62
     7
  6
CONTINUOUS
  0
LAYER
  2
61
 70
     0
 62
     7
  6
CONTINUOUS
  0
LAYER
  2
62
 70
     0
 62
     7
  6
CONTINUOUS
  0
LAYER
  2
63
 70
     0
 62
     7
  6
CONTINUOUS
  0
LAYER
  2
64
 70
     0
 62
     7
  6
CONTINUOUS
  0
LAYER
  2
65
 70
     0
 62
     7
  6
CONTINUOUS
  0
LAYER
  2
66
 70
     0
 62
     7
  6
CONTINUOUS
  0
LAYER
  2
67
 70
     0
 62
     7
  6
CONTINUOUS
  0
LAYER
  2
68
 70
     0
 62
     7
  6
CONTINUOUS
  0
LAYER
  2
69
 70
     0
 62
     7
  6
CONTINUOUS
  0
LAYER
  2
70
 70
     0
 62
     7
  6
CONTINUOUS
  0
LAYER
  2
71
 70
     0
 62
     7
  6
CONTINUOUS
  0
LAYER
  2
72
 70
     0
 62
     7
  6
CONTINUOUS
  0
LAYER
  2
73
 70
     0
 62
     7
  6
CONTINUOUS
  0
LAYER
  2
74
 70
     0
 62
     7
  6
CONTINUOUS
  0
LAYER
  2
75
 70
     0
 62
     7
  6
CONTINUOUS
  0
LAYER
  2
76
 70
     0
 62
     7
  6
CONTINUOUS
  0
LAYER
  2
77
 70
     0
 62
     7
  6
CONTINUOUS
  0
LAYER
  2
78
 70
     0
 62
     7
  6
CONTINUOUS
  0
LAYER
  2
79
 70
     0
 62
     7
  6
CONTINUOUS
  0
LAYER
  2
80
 70
     0
 62
     7
  6
CONTINUOUS
  0
LAYER
  2
81
 70
     0
 62
     7
  6
CONTINUOUS
  0
LAYER
  2
82
 70
     0
 62
     7
  6
CONTINUOUS
  0
LAYER
  2
83
 70
     0
 62
     7
  6
CONTINUOUS
  0
LAYER
  2
84
 70
     0
 62
     7
  6
CONTINUOUS
  0
LAYER
  2
85
 70
     0
 62
     7
  6
CONTINUOUS
  0
LAYER
  2
86
 70
     0
 62
     7
  6
CONTINUOUS
  0
LAYER
  2
87
 70
     0
 62
     7
  6
CONTINUOUS
  0
LAYER
  2
88
 70
     0
 62
     7
  6
CONTINUOUS
  0
LAYER
  2
89
 70
     0
 62
     7
  6
CONTINUOUS
  0
LAYER
  2
90
 70
     0
 62
     7
  6
CONTINUOUS
  0
LAYER
  2
91
 70
     0
 62
     7
  6
CONTINUOUS
  0
LAYER
  2
92
 70
     0
 62
     7
  6
CONTINUOUS
  0
LAYER
  2
93
 70
     0
 62
     7
  6
CONTINUOUS
  0
LAYER
  2
94
 70
     0
 62
     7
  6
CONTINUOUS
  0
LAYER
  2
95
 70
     0
 62
     7
  6
CONTINUOUS
  0
LAYER
  2
96
 70
     0
 62
     7
  6
CONTINUOUS
  0
LAYER
  2
97
 70
     0
 62
     7
  6
CONTINUOUS
  0
LAYER
  2
98
 70
     0
 62
     7
  6
CONTINUOUS
  0
LAYER
  2
99
 70
     0
 62
     7
  6
CONTINUOUS
  0
LAYER
  2
100
 70
     0
 62
     7
  6
CONTINUOUS
  0
LAYER
  2
101
 70
     0
 62
     7
  6
CONTINUOUS
  0
LAYER
  2
102
 70
     0
 62
     7
  6
CONTINUOUS
  0
LAYER
  2
103
 70
     0
 62
     7
  6
CONTINUOUS
  0
LAYER
  2
104
 70
     0
 62
     7
  6
CONTINUOUS
  0
LAYER
  2
105
 70
     0
 62
     7
  6
CONTINUOUS
  0
LAYER
  2
106
 70
     0
 62
     7
  6
CONTINUOUS
  0
LAYER
  2
107
 70
     0
 62
     7
  6
CONTINUOUS
  0
LAYER
  2
108
 70
     0
 62
     7
  6
CONTINUOUS
  0
LAYER
  2
109
 70
     0
 62
     7
  6
CONTINUOUS
  0
LAYER
  2
110
 70
     0
 62
     7
  6
CONTINUOUS
  0
LAYER
  2
111
 70
     0
 62
     7
  6
CONTINUOUS
  0
LAYER
  2
112
 70
     0
 62
     7
  6
CONTINUOUS
  0
LAYER
  2
113
 70
     0
 62
     7
  6
CONTINUOUS
  0
LAYER
  2
114
 70
     0
 62
     7
  6
CONTINUOUS
  0
LAYER
  2
115
 70
     0
 62
     7
  6
CONTINUOUS
  0
LAYER
  2
116
 70
     0
 62
     7
  6
CONTINUOUS
  0
LAYER
  2
117
 70
     0
 62
     7
  6
CONTINUOUS
  0
LAYER
  2
118
 70
     0
 62
     7
  6
CONTINUOUS
  0
LAYER
  2
119
 70
     0
 62
     7
  6
CONTINUOUS
  0
LAYER
  2
120
 70
     0
 62
     7
  6
CONTINUOUS
  0
LAYER
  2
121
 70
     0
 62
     7
  6
CONTINUOUS
  0
LAYER
  2
122
 70
     0
 62
     7
  6
CONTINUOUS
  0
LAYER
  2
123
 70
     0
 62
     7
  6
CONTINUOUS
  0
LAYER
  2
124
 70
     0
 62
     7
  6
CONTINUOUS
  0
LAYER
  2
125
 70
     0
 62
     7
  6
CONTINUOUS
  0
LAYER
  2
126
 70
     0
 62
     7
  6
CONTINUOUS
  0
LAYER
  2
127
 70
     0
 62
     7
  6
CONTINUOUS
  0
LAYER
  2
128
 70
     0
 62
     7
  6
CONTINUOUS
  0
ENDTAB
  0
TABLE
  2
STYLE
 70
    40
  0
STYLE
  2
STANDARD
 70
     0
 40
0.0
 41
1.0
 50
0.0
 71
     0
 42
0.2
  3
txt
  4

  0
STYLE
  2
KANJI0
 70
     0
 40
9.999997897
 41
0.6
 50
0.0
 71
     0
 42
9.999997897
  3

  4
bigfont
  0
STYLE
  2
KANJI1
 70
     0
 40
11.999997477
 41
0.9
 50
0.0
 71
     0
 42
11.999997477
  3

  4
bigfont
  0
STYLE
  2
KANJI2
 70
     0
 40
14.999996846
 41
0.9
 50
0.0
 71
     0
 42
14.999996846
  3

  4
bigfont
  0
STYLE
  2
KANJI3
 70
     0
 40
12.999999
 41
0.75
 50
0.0
 71
     0
 42
12.999999
  3

  4
bigfont
  0
STYLE
  2
KANJI4
 70
     0
 40
8.666666
 41
0.6
 50
0.0
 71
     0
 42
8.666666
  3

  4
bigfont
  0
STYLE
  2
KANJI5
 70
     0
 40
10.3999992
 41
0.6
 50
0.0
 71
     0
 42
10.3999992
  3

  4
bigfont
  0
STYLE
  2
KANJI6
 70
     0
 40
43.33333
 41
0.9
 50
0.0
 71
     0
 42
43.33333
  3

  4
bigfont
  0
STYLE
  2
KANJI7
 70
     0
 40
15.1666655
 41
0.42031746
 50
0.0
 71
     0
 42
15.1666655
  3

  4
bigfont
  0
STYLE
  2
KANJI8
 70
     0
 40
25.999998
 41
0.9
 50
0.0
 71
     0
 42
25.999998
  3

  4
bigfont
  0
STYLE
  2
KANJI9
 70
     0
 40
8.666666
 41
0.8
 50
0.0
 71
     0
 42
8.666666
  3

  4
bigfont
  0
STYLE
  2
KANJI10
 70
     0
 40
10.3999992
 41
0.8
 50
0.0
 71
     0
 42
10.3999992
  3

  4
bigfont
  0
STYLE
  2
KANJI11
 70
     0
 40
25.0
 41
1.0
 50
0.0
 71
     0
 42
25.0
  3

  4
bigfont
  0
STYLE
  2
KANJI12
 70
     0
 40
25.0
 41
1.0
 50
0.0
 71
     0
 42
25.0
  3

  4
bigfont
  0
STYLE
  2
KANJI13
 70
     0
 40
18.0
 41
1.111111111
 50
0.0
 71
     0
 42
18.0
  3

  4
bigfont
  0
STYLE
  2
KANJI14
 70
     0
 40
22.5
 41
0.8888888
 50
0.0
 71
     0
 42
22.5
  3

  4
bigfont
  0
STYLE
  2
KANJI15
 70
     0
 40
16.0
 41
1.0
 50
0.0
 71
     0
 42
16.0
  3

  4
bigfont
  0
STYLE
  2
KANJI16
 70
     0
 40
16.0
 41
0.65625
 50
0.0
 71
     0
 42
16.0
  3

  4
bigfont
  0
STYLE
  2
KANJI17
 70
     0
 40
16.0
 41
0.71875
 50
0.0
 71
     0
 42
16.0
  3

  4
bigfont
  0
STYLE
  2
KANJI18
 70
     0
 40
16.0
 41
0.6875
 50
0.0
 71
     0
 42
16.0
  3

  4
bigfont
  0
STYLE
  2
KANJI19
 70
     0
 40
16.0
 41
0.5625
 50
0.0
 71
     0
 42
16.0
  3

  4
bigfont
  0
STYLE
  2
KANJI20
 70
     0
 40
22.5
 41
0.666666667
 50
0.0
 71
     0
 42
22.5
  3

  4
bigfont
  0
STYLE
  2
KANJI21
 70
     0
 40
17.5
 41
0.914285714
 50
0.0
 71
     0
 42
17.5
  3

  4
bigfont
  0
STYLE
  2
KANJI22
 70
     0
 40
15.0
 41
0.9
 50
0.0
 71
     0
 42
15.0
  3

  4
bigfont
  0
STYLE
  2
KANJI23
 70
     0
 40
25.0
 41
1.0
 50
0.0
 71
     0
 42
25.0
  3

  4
bigfont
  0
STYLE
  2
KANJI24
 70
     0
 40
17.5
 41
0.857142857
 50
0.0
 71
     0
 42
17.5
  3

  4
bigfont
  0
STYLE
  2
KANJI25
 70
     0
 40
17.5
 41
0.571428571
 50
0.0
 71
     0
 42
17.5
  3

  4
bigfont
  0
STYLE
  2
KANJI26
 70
     0
 40
16.0
 41
0.53125
 50
0.0
 71
     0
 42
16.0
  3

  4
bigfont
  0
STYLE
  2
KANJI27
 70
     0
 40
16.0
 41
0.53125
 50
0.0
 71
     0
 42
16.0
  3

  4
bigfont
  0
STYLE
  2
KANJI28
 70
     0
 40
16.0
 41
0.78125
 50
0.0
 71
     0
 42
16.0
  3

  4
bigfont
  0
STYLE
  2
KANJI29
 70
     0
 40
16.0
 41
1.0
 50
0.0
 71
     0
 42
16.0
  3

  4
bigfont
  0
STYLE
  2
KANJI30
 70
     0
 40
16.0
 41
0.5625
 50
0.0
 71
     0
 42
16.0
  3

  4
bigfont
  0
STYLE
  2
KANJI31
 70
     0
 40
12.5
 41
0.6
 50
0.0
 71
     0
 42
12.5
  3

  4
bigfont
  0
STYLE
  2
KANJI32
 70
     0
 40
16.0
 41
1.0
 50
0.0
 71
     0
 42
16.0
  3

  4
bigfont
  0
STYLE
  2
KANJI33
 70
     0
 40
25.0
 41
0.8
 50
0.0
 71
     0
 42
25.0
  3

  4
bigfont
  0
STYLE
  2
KANJI34
 70
     0
 40
15.0
 41
1.0
 50
0.0
 71
     0
 42
15.0
  3

  4
bigfont
  0
STYLE
  2
KANJI35
 70
     0
 40
16.0
 41
0.925
 50
0.0
 71
     0
 42
16.0
  3

  4
bigfont
  0
STYLE
  2
KANJI36
 70
     0
 40
12.4
 41
1.0
 50
0.0
 71
     0
 42
12.4
  3

  4
bigfont
  0
STYLE
  2
KANJI37
 70
     0
 40
20.0
 41
1.0
 50
0.0
 71
     0
 42
20.0
  3

  4
bigfont
  0
STYLE
  2
KANJI38
 70
     0
 40
17.5
 41
0.428571429
 50
0.0
 71
     0
 42
17.5
  3

  4
bigfont
  0
ENDTAB
  0
TABLE
  2
VIEW
 70
     0
  0
ENDTAB
  0
ENDSEC
  0
SECTION
  2
BLOCKS
  0
ENDSEC
  0
SECTION
  2
ENTITIES
  0
LINE
  8
0
  6
CONTINUOUS
 62
     6
 10
75.8
 20
42.9
 11
75.8
 21
1387.9
  0
LINE
  8
0
  6
CONTINUOUS
 62
     6
 10
75.8
 20
1387.9
 11
2010.8
 21
1387.9
  0
TEXT
  8
0
  6
CONTINUOUS
 62
     4
 10
90.799996846
 20
67.899994744
 30
0.99999979
 40
9.999997897
  1
ＰＡＲＴＳ　ＬＩＳＴ
 50
0.0
 41
0.6
 51
0.0
  7
KANJI0
  0
TEXT
  8
0
  6
CONTINUOUS
 62
     4
 10
90.799996846
 20
52.899997897
 30
1.199999748
 40
11.999997477
  1
部品表
 50
0.0
 41
0.9
 51
0.0
  7
KANJI1
  0
LINE
  8
0
  6
CONTINUOUS
 62
     6
 10
80.799998949
 20
117.899984231
 11
405.799930615
 21
117.899984231
  0
LINE
  8
0
  6
CONTINUOUS
 62
     6
 10
80.799998949
 20
47.899998949
 11
405.799930615
 21
47.899998949
  0
LINE
  8
0
  6
CONTINUOUS
 62
     6
 10
80.799998949
 20
47.899998949
 11
80.799998949
 21
117.899984231
  0
LINE
  8
0
  6
CONTINUOUS
 62
     6
 10
80.799998949
 20
82.89999159
 11
405.799930615
 21
82.89999159
  0
TEXT
  8
0
  6
CONTINUOUS
 62
     3
 10
90.799996846
 20
92.899989487
 30
1.499999685
 40
14.999996846
  1
ＰＬ
 50
0.0
 41
0.9
 51
0.0
  7
KANJI2
  0
LINE
  8
0
  6
CONTINUOUS
 62
     4
 10
18.883333
 20
46.608333
 11
70.883329
 21
46.608333
  0
LINE
  8
0
  6
CONTINUOUS
 62
     4
 10
18.883333
 20
72.608331
 11
70.883329
 21
72.608331
  0
LINE
  8
0
  6
CONTINUOUS
 62
     4
 10
18.883333
 20
98.608329
 11
70.883329
 21
98.608329
  0
LINE
  8
0
  6
CONTINUOUS
 62
     4
 10
18.883333
 20
124.608327
 11
70.883329
 21
124.608327
  0
LINE
  8
0
  6
CONTINUOUS
 62
     4
 10
18.883333
 20
150.608325
 11
70.883329
 21
150.608325
  0
LINE
  8
0
  6
CONTINUOUS
 62
     4
 10
18.883333
 20
176.608323
 11
70.883329
 21
176.608323
  0
LINE
  8
0
  6
CONTINUOUS
 62
     4
 10
18.883333
 20
202.608321
 11
70.883329
 21
202.608321
  0
LINE
  8
0
  6
CONTINUOUS
 62
     4
 10
18.883333
 20
228.608319
 11
70.883329
 21
228.608319
  0
LINE
  8
0
  6
CONTINUOUS
 62
     4
 10
18.883333
 20
254.608317
 11
70.883329
 21
254.608317
  0
LINE
  8
0
  6
CONTINUOUS
 62
     4
 10
18.883333
 20
280.608315
 11
70.883329
 21
280.608315
  0
LINE
  8
0
  6
CONTINUOUS
 62
     4
 10
70.883329
 20
46.608333
 11
70.883329
 21
280.608315
  0
LINE
  8
0
  6
CONTINUOUS
 62
     4
 10
44.883331
 20
46.608333
 11
44.883331
 21
254.608317
  0
TEXT
  8
0
  6
CONTINUOUS
 62
     4
 10
27.76666565
 20
54.19166575
 30
1.2999999
 40
12.999999
  1
計
 50
0.0
 41
0.75
 51
0.0
  7
KANJI3
  0
TEXT
  8
0
  6
CONTINUOUS
 62
     4
 10
27.76666565
 20
106.62499505
 30
1.2999999
 40
12.999999
  1
設
 50
0.0
 41
0.75
 51
0.0
  7
KANJI3
  0
TEXT
  8
0
  6
CONTINUOUS
 62
     4
 10
27.76666565
 20
132.19165975
 30
1.2999999
 40
12.999999
  1
管
 50
0.0
 41
0.75
 51
0.0
  7
KANJI3
  0
TEXT
  8
0
  6
CONTINUOUS
 62
     4
 10
27.76666565
 20
158.19165775
 30
1.2999999
 40
12.999999
  1
製
 50
0.0
 41
0.75
 51
0.0
  7
KANJI3
  0
TEXT
  8
0
  6
CONTINUOUS
 62
     4
 10
27.76666565
 20
184.19165575
 30
1.2999999
 40
12.999999
  1
資
 50
0.0
 41
0.75
 51
0.0
  7
KANJI3
  0
TEXT
  8
0
  6
CONTINUOUS
 62
     4
 10
27.76666565
 20
210.19165375
 30
1.2999999
 40
12.999999
  1
営
 50
0.0
 41
0.75
 51
0.0
  7
KANJI3
  0
TEXT
  8
0
  6
CONTINUOUS
 62
     4
 10
27.76666565
 20
236.19165175
 30
1.2999999
 40
12.999999
  1
客
 50
0.0
 41
0.75
 51
0.0
  7
KANJI3
  0
TEXT
  8
0
  6
CONTINUOUS
 62
     4
 10
27.549999
 20
263.274983
 30
1.2999999
 40
12.999999
  1
出　図
 50
0.0
 41
0.75
 51
0.0
  7
KANJI3
  0
LINE
  8
0
  6
CONTINUOUS
 62
     4
 10
18.883333
 20
46.608333
 11
18.883333
 21
280.608315
  0
TEXT
  8
0
  6
CONTINUOUS
 62
     4
 10
315.799949538
 20
67.899994744
 30
0.99999979
 40
9.999997897
  1
Ｎ０．
 50
0.0
 41
0.6
 51
0.0
  7
KANJI0
  0
TEXT
  8
0
  6
CONTINUOUS
 62
     4
 10
315.799949538
 20
52.899997897
 30
1.199999748
 40
11.999997477
  1
項番
 50
0.0
 41
0.9
 51
0.0
  7
KANJI1
  0
LINE
  8
0
  6
CONTINUOUS
 62
     6
 10
405.799930615
 20
47.899998949
 11
405.799930615
 21
117.899984231
  0
LINE
  8
0
  6
CONTINUOUS
 62
     6
 10
305.799951641
 20
47.899998949
 11
305.799951641
 21
117.899984231
  0
LINE
  8
0
  6
CONTINUOUS
 62
     6
 10
2010.8
 20
42.9
 11
75.8
 21
42.9
  0
LINE
  8
0
  6
CONTINUOUS
 62
     4
 10
1339.133385
 20
81.899997
 11
1497.3000395
 21
81.899997
  0
TEXT
  8
0
  6
CONTINUOUS
 62
     4
 10
1347.800051
 20
66.7333315
 30
0.8666666
 40
8.666666
  1
ＳＣＡＬＥ
 50
0.0
 41
0.6
 51
0.0
  7
KANJI4
  0
TEXT
  8
0
  6
CONTINUOUS
 62
     4
 10
1347.800051
 20
53.7333325
 30
1.03999992
 40
10.3999992
  1
尺度
 50
0.0
 41
0.6
 51
0.0
  7
KANJI5
  0
LINE
  8
0
  6
CONTINUOUS
 62
     4
 10
1094.3000705
 20
47.233333
 11
1094.3000705
 21
81.899997
  0
LINE
  8
0
  6
CONTINUOUS
 62
     4
 10
1133.3000675
 20
47.233333
 11
1133.3000675
 21
81.899997
  0
TEXT
  8
0
  6
CONTINUOUS
 62
     4
 10
1107.3000695
 20
66.7333315
 30
0.8666666
 40
8.666666
  1
ＢＹ
 50
0.0
 41
0.6
 51
0.0
  7
KANJI4
  0
TEXT
  8
0
  6
CONTINUOUS
 62
     4
 10
1202.6333955
 20
66.7333315
 30
0.8666666
 40
8.666666
  1
ＤＥＳＣＲＩＰＴＩＯＮ
 50
0.0
 41
0.6
 51
0.0
  7
KANJI4
  0
TEXT
  8
0
  6
CONTINUOUS
 62
     4
 10
1107.3000695
 20
53.7333325
 30
1.03999992
 40
10.3999992
  1
担当
 50
0.0
 41
0.6
 51
0.0
  7
KANJI5
  0
TEXT
  8
0
  6
CONTINUOUS
 62
     4
 10
1215.6333945
 20
53.7333325
 30
1.03999992
 40
10.3999992
  1
記　　　　事
 50
0.0
 41
0.6
 51
0.0
  7
KANJI5
  0
LINE
  8
0
  6
CONTINUOUS
 62
     4
 10
1015.21674325
 20
75.3999975
 11
1001.133411
 21
53.7333325
  0
TEXT
  8
0
  6
CONTINUOUS
 62
     4
 10
1050.9667405
 20
66.7333315
 30
0.8666666
 40
8.666666
  1
ＤＡＴＥ
 50
0.0
 41
0.6
 51
0.0
  7
KANJI4
  0
TEXT
  8
0
  6
CONTINUOUS
 62
     4
 10
1057.46674
 20
53.7333325
 30
1.03999992
 40
10.3999992
  1
日付
 50
0.0
 41
0.6
 51
0.0
  7
KANJI5
  0
LINE
  8
0
  6
CONTINUOUS
 62
     4
 10
1001.133411
 20
53.7333325
 11
1029.3000755
 21
53.7333325
  0
LINE
  8
0
  6
CONTINUOUS
 62
     4
 10
1033.6334085
 20
47.233333
 11
1033.6334085
 21
81.899997
  0
LINE
  8
0
  6
CONTINUOUS
 62
     4
 10
1015.21674325
 20
75.3999975
 11
1029.3000755
 21
53.7333325
  0
TEXT
  8
0
  6
CONTINUOUS
 62
     4
 10
1937.133339
 20
-0.43333
 30
4.333333
 40
43.33333
  1
／
 50
0.0
 41
0.9
 51
0.0
  7
KANJI6
  0
LINE
  8
0
  6
CONTINUOUS
 62
     6
 10
996.800078
 20
47.233333
 11
996.800078
 21
81.899997
  0
LINE
  8
0
  6
CONTINUOUS
 62
     6
 10
996.800078
 20
81.899997
 11
1339.133385
 21
81.899997
  0
LINE
  8
0
  6
CONTINUOUS
 62
     6
 10
996.800078
 20
47.233333
 11
2006.466667
 21
47.233333
  0
TEXT
  8
0
  6
CONTINUOUS
 62
     6
 10
1501.6333725
 20
66.7333315
 30
0.0
 40
15.1666655
  1
ＵＮＩＴＥＣ　ＩＮＤＵＳＴＲＹ　ＣＯ．，ＬＴＤ．
 50
0.0
 41
0.42031746
 51
0.0
  7
KANJI7
  0
TEXT
  8
0
  6
CONTINUOUS
 62
     6
 10
1714.345856138
 20
61.0999986
 30
2.5999998
 40
25.999998
  1
ユニテック工業株式会社
 50
0.0
 41
0.9
 51
0.0
  7
KANJI8
  0
LINE
  8
0
  6
CONTINUOUS
 62
     6
 10
2006.466667
 20
47.233333
 11
2006.466667
 21
324.566645
  0
LINE
  8
0
  6
CONTINUOUS
 62
     6
 10
1339.133385
 20
47.233333
 11
1339.133385
 21
324.566645
  0
TEXT
  8
0
  6
CONTINUOUS
 62
     4
 10
1347.800051
 20
136.0666595
 30
0.8666666
 40
8.666666
  1
ＤＲＡＷＮ
 50
0.0
 41
0.6
 51
0.0
  7
KANJI4
  0
TEXT
  8
0
  6
CONTINUOUS
 62
     4
 10
1347.800051
 20
170.7333235
 30
0.8666666
 40
8.666666
  1
ＤＥＳＩＧＮ
 50
0.0
 41
0.6
 51
0.0
  7
KANJI4
  0
TEXT
  8
0
  6
CONTINUOUS
 62
     4
 10
1347.800051
 20
205.3999875
 30
0.8666666
 40
8.666666
  1
ＣＨＥＣＫ
 50
0.0
 41
0.6
 51
0.0
  7
KANJI4
  0
LINE
  8
0
  6
CONTINUOUS
 62
     4
 10
1339.133385
 20
185.899989
 11
1497.3000395
 21
185.899989
  0
LINE
  8
0
  6
CONTINUOUS
 62
     4
 10
1339.133385
 20
151.233325
 11
1497.3000395
 21
151.233325
  0
LINE
  8
0
  6
CONTINUOUS
 62
     4
 10
1339.133385
 20
220.566653
 11
1497.3000395
 21
220.566653
  0
TEXT
  8
0
  6
CONTINUOUS
 62
     4
 10
1347.800051
 20
157.7333245
 30
1.03999992
 40
10.3999992
  1
設計
 50
0.0
 41
0.6
 51
0.0
  7
KANJI5
  0
TEXT
  8
0
  6
CONTINUOUS
 62
     4
 10
1347.800051
 20
192.3999885
 30
1.03999992
 40
10.3999992
  1
検図
 50
0.0
 41
0.6
 51
0.0
  7
KANJI5
  0
LINE
  8
0
  6
CONTINUOUS
 62
     4
 10
1510.08337185
 20
220.566653
 11
2006.466667
 21
220.566653
  0
LINE
  8
0
  6
CONTINUOUS
 62
     4
 10
1497.3000395
 20
151.233325
 11
2006.466667
 21
151.233325
  0
TEXT
  8
0
  6
CONTINUOUS
 62
     4
 10
1505.9667055
 20
136.0666595
 30
0.8666666
 40
8.666666
  1
ＤＲＡＷＩＮＧ　ＮＯ．
 50
0.0
 41
0.8
 51
0.0
  7
KANJI9
  0
TEXT
  8
0
  6
CONTINUOUS
 62
     4
 10
1505.9667055
 20
170.7333235
 30
0.8666666
 40
8.666666
  1
ＭＦＧ　ＮＯ．
 50
0.0
 41
0.8
 51
0.0
  7
KANJI9
  0
TEXT
  8
0
  6
CONTINUOUS
 62
     4
 10
1505.9667055
 20
205.3999875
 30
0.8666666
 40
8.666666
  1
ＴＹＰＥ
 50
0.0
 41
0.8
 51
0.0
  7
KANJI9
  0
LINE
  8
0
  6
CONTINUOUS
 62
     4
 10
1510.3000385
 20
185.899989
 11
1709.6333565
 21
185.899989
  0
TEXT
  8
0
  6
CONTINUOUS
 62
     4
 10
1505.9667055
 20
120.899994
 30
1.03999992
 40
10.3999992
  1
図　面　番　号
 50
0.0
 41
0.8
 51
0.0
  7
KANJI10
  0
TEXT
  8
0
  6
CONTINUOUS
 62
     4
 10
1505.9667055
 20
155.566658
 30
1.03999992
 40
10.3999992
  1
製番
 50
0.0
 41
0.8
 51
0.0
  7
KANJI10
  0
TEXT
  8
0
  6
CONTINUOUS
 62
     4
 10
1505.9667055
 20
190.233322
 30
1.03999992
 40
10.3999992
  1
機種
 50
0.0
 41
0.8
 51
0.0
  7
KANJI10
  0
LINE
  8
0
  6
CONTINUOUS
 62
     4
 10
1339.133385
 20
116.566661
 11
1497.3000395
 21
116.566661
  0
TEXT
  8
0
  6
CONTINUOUS
 62
     4
 10
1347.800051
 20
101.3999955
 30
0.8666666
 40
8.666666
  1
ＤＡＴＥ
 50
0.0
 41
0.6
 51
0.0
  7
KANJI4
  0
TEXT
  8
0
  6
CONTINUOUS
 62
     4
 10
1347.800051
 20
88.3999965
 30
1.03999992
 40
10.3999992
  1
日付
 50
0.0
 41
0.6
 51
0.0
  7
KANJI5
  0
TEXT
  8
0
  6
CONTINUOUS
 62
     4
 10
1347.800051
 20
123.0666605
 30
1.03999992
 40
10.3999992
  1
作図
 50
0.0
 41
0.6
 51
0.0
  7
KANJI5
  0
LINE
  8
0
  6
CONTINUOUS
 62
     4
 10
1497.3000395
 20
101.3999955
 11
2006.466667
 21
101.3999955
  0
LINE
  8
0
  6
LTYPE1
 62
     4
 10
1861.3000115
 20
107.899995
 11
1861.3000115
 21
142.566659
  0
LINE
  8
0
  6
LTYPE1
 62
     4
 10
1830.9666805
 20
107.899995
 11
1830.9666805
 21
142.566659
  0
LINE
  8
0
  6
LTYPE1
 62
     4
 10
1800.6333495
 20
107.899995
 11
1800.6333495
 21
142.566659
  0
LINE
  8
0
  6
LTYPE1
 62
     4
 10
1770.3000185
 20
107.899995
 11
1770.3000185
 21
142.566659
  0
LINE
  8
0
  6
LTYPE1
 62
     4
 10
1739.9666875
 20
107.899995
 11
1739.9666875
 21
142.566659
  0
LINE
  8
0
  6
LTYPE1
 62
     4
 10
1709.6333565
 20
107.899995
 11
1709.6333565
 21
142.566659
  0
LINE
  8
0
  6
LTYPE1
 62
     4
 10
1679.3000255
 20
107.899995
 11
1679.3000255
 21
142.566659
  0
LINE
  8
0
  6
LTYPE1
 62
     4
 10
1648.9666945
 20
107.899995
 11
1648.9666945
 21
142.566659
  0
LINE
  8
0
  6
LTYPE1
 62
     4
 10
1648.9666945
 20
142.566659
 11
1861.3000115
 21
142.566659
  0
LINE
  8
0
  6
LTYPE1
 62
     4
 10
1648.9666945
 20
107.899995
 11
1861.3000115
 21
107.899995
  0
LINE
  8
0
  6
CONTINUOUS
 62
     4
 10
1932.800006
 20
113.31666125
 11
1902.466675
 21
113.31666125
  0
LINE
  8
0
  6
CONTINUOUS
 62
     4
 10
1902.466675
 20
113.31666125
 11
1917.6333405
 21
139.31665925
  0
LINE
  8
0
  6
CONTINUOUS
 62
     4
 10
1917.6333405
 20
139.31665925
 11
1932.800006
 21
113.31666125
  0
TEXT
  8
0
  6
CONTINUOUS
 62
     4
 10
1722.6333555
 20
205.3999875
 30
0.8666666
 40
8.666666
  1
ＴＩＴＬＥ
 50
0.0
 41
0.8
 51
0.0
  7
KANJI9
  0
TEXT
  8
0
  6
CONTINUOUS
 62
     4
 10
1722.6333555
 20
190.233322
 30
1.03999992
 40
10.3999992
  1
名称
 50
0.0
 41
0.8
 51
0.0
  7
KANJI10
  0
LINE
  8
0
  6
CONTINUOUS
 62
     4
 10
1878.6333435
 20
126.31666025
 11
1887.3000095
 21
126.31666025
  0
TEXT
  8
0
  6
CONTINUOUS
 62
     3
 10
1800.8
 20
157.9
 30
12.5
 40
25.0
  1
外形寸法図
 50
0.0
 41
1.0
 51
0.0
  7
KANJI11
  0
LINE
  8
0
  6
CONTINUOUS
 62
     6
 10
1679.70335371
 20
69.97999832
 11
1668.26335459
 21
69.97999832
  0
LINE
  8
0
  6
CONTINUOUS
 62
     6
 10
1679.70335371
 20
72.05999816
 11
1668.26335459
 21
72.05999816
  0
LINE
  8
0
  6
CONTINUOUS
 62
     6
 10
1679.70335371
 20
69.97999832
 11
1691.14335283
 21
69.97999832
  0
LINE
  8
0
  6
CONTINUOUS
 62
     6
 10
1679.70335371
 20
72.05999816
 11
1691.14335283
 21
72.05999816
  0
LINE
  8
0
  6
CONTINUOUS
 62
     6
 10
1691.14335283
 20
72.05999816
 11
1691.14335283
 21
69.97999832
  0
ARC
  8
0
  6
CONTINUOUS
 62
     6
 10
1693.74335263
 20
71.01999824
 40
10.3999992
 50
185.739170477
 51
90.0
  0
ARC
  8
0
  6
CONTINUOUS
 62
     6
 10
1693.74335263
 20
71.01999824
 40
12.47999904
 50
184.780191847
 51
90.0
  0
LINE
  8
0
  6
CONTINUOUS
 62
     6
 10
1668.26335459
 20
69.97999832
 11
1668.26335459
 21
72.05999816
  0
LINE
  8
0
  6
CONTINUOUS
 62
     6
 10
1678.14335383
 20
83.49999728
 11
1665.66335479
 21
83.49999728
  0
LINE
  8
0
  6
CONTINUOUS
 62
     6
 10
1681.26335359
 20
83.49999728
 11
1693.74335263
 21
83.49999728
  0
ARC
  8
0
  6
CONTINUOUS
 62
     6
 10
1665.66335479
 20
71.01999824
 40
10.3999992
 50
90.0
 51
354.260829523
  0
ARC
  8
0
  6
CONTINUOUS
 62
     6
 10
1665.66335479
 20
71.01999824
 40
12.47999904
 50
90.0
 51
355.219808153
  0
LINE
  8
0
  6
CONTINUOUS
 62
     6
 10
1678.14335383
 20
83.49999728
 11
1678.14335383
 21
81.41999744
  0
LINE
  8
0
  6
CONTINUOUS
 62
     6
 10
1665.66335479
 20
81.41999744
 11
1678.14335383
 21
81.41999744
  0
LINE
  8
0
  6
CONTINUOUS
 62
     6
 10
1681.26335359
 20
83.49999728
 11
1681.26335359
 21
81.41999744
  0
LINE
  8
0
  6
CONTINUOUS
 62
     6
 10
1693.74335263
 20
81.41999744
 11
1681.26335359
 21
81.41999744
  0
LINE
  8
0
  6
CONTINUOUS
 62
     4
 10
1497.3000395
 20
47.233333
 11
1497.3000395
 21
324.566645
  0
TEXT
  8
0
  6
CONTINUOUS
 62
     3
 10
1770.8
 20
187.9
 30
3.571428571
 40
25.0
  1
マイティジャッキ
 50
0.0
 41
1.0
 51
0.0
  7
KANJI12
  0
TEXT
  8
0
  6
CONTINUOUS
 62
     4
 10
1347.800051
 20
240.0666515
 30
0.8666666
 40
8.666666
  1
ＣＯＤＥ
 50
0.0
 41
0.6
 51
0.0
  7
KANJI4
  0
TEXT
  8
0
  6
CONTINUOUS
 62
     4
 10
1347.800051
 20
227.0666525
 30
1.03999992
 40
10.3999992
  1
分類
 50
0.0
 41
0.6
 51
0.0
  7
KANJI5
  0
LINE
  8
0
  6
CONTINUOUS
 62
     6
 10
1339.758385
 20
289.899981
 11
2007.091667
 21
289.899981
  0
LINE
  8
0
  6
CONTINUOUS
 62
     6
 10
1339.133385
 20
324.566645
 11
2006.466667
 21
324.566645
  0
LINE
  8
0
  6
CONTINUOUS
 62
     6
 10
1339.133385
 20
255.233317
 11
2006.466667
 21
255.233317
  0
TEXT
  8
0
  6
CONTINUOUS
 62
     4
 10
1354.55
 20
260.4
 30
5.0
 40
18.0
  1
ご注文主
 50
0.0
 41
1.111111111
 51
0.0
  7
KANJI13
  0
TEXT
  8
0
  6
CONTINUOUS
 62
     4
 10
1354.55
 20
295.066664
 30
5.0
 40
18.0
  1
ご用途
 50
0.0
 41
1.111111111
 51
0.0
  7
KANJI13
  0
LINE
  8
2
  6
CONTINUOUS
 62
     1
 10
1710.8
 20
1231.6
 11
2010.8
 21
1231.6
  0
LINE
  8
2
  6
CONTINUOUS
 62
     1
 10
1710.8
 20
1181.6
 11
2010.8
 21
1181.6
  0
LINE
  8
2
  6
CONTINUOUS
 62
     1
 10
1710.8
 20
1146.6
 11
2010.8
 21
1146.6
  0
LINE
  8
2
  6
CONTINUOUS
 62
     1
 10
1710.8
 20
1111.6
 11
2010.8
 21
1111.6
  0
LINE
  8
2
  6
CONTINUOUS
 62
     1
 10
1710.8
 20
1076.6
 11
2010.8
 21
1076.6
  0
LINE
  8
2
  6
CONTINUOUS
 62
     1
 10
1710.8
 20
1041.6
 11
2010.8
 21
1041.6
  0
LINE
  8
2
  6
CONTINUOUS
 62
     1
 10
1710.8
 20
1006.6
 11
2010.8
 21
1006.6
  0
LINE
  8
2
  6
CONTINUOUS
 62
     1
 10
1710.8
 20
971.6
 11
2010.8
 21
971.6
  0
LINE
  8
2
  6
CONTINUOUS
 62
     1
 10
1710.8
 20
936.6
 11
2010.8
 21
936.6
  0
LINE
  8
2
  6
CONTINUOUS
 62
     1
 10
1710.8
 20
901.6
 11
2010.8
 21
901.6
  0
LINE
  8
2
  6
CONTINUOUS
 62
     1
 10
1710.8
 20
866.6
 11
2010.8
 21
866.6
  0
LINE
  8
2
  6
CONTINUOUS
 62
     1
 10
1710.8
 20
831.6
 11
2010.8
 21
831.6
  0
LINE
  8
2
  6
CONTINUOUS
 62
     1
 10
1710.8
 20
796.6
 11
2010.8
 21
796.6
  0
LINE
  8
2
  6
CONTINUOUS
 62
     1
 10
1710.8
 20
761.6
 11
2010.8
 21
761.6
  0
LINE
  8
2
  6
CONTINUOUS
 62
     1
 10
1710.8
 20
726.6
 11
2010.8
 21
726.6
  0
LINE
  8
2
  6
CONTINUOUS
 62
     1
 10
1710.8
 20
691.6
 11
2010.8
 21
691.6
  0
LINE
  8
2
  6
CONTINUOUS
 62
     1
 10
1710.8
 20
656.6
 11
1710.8
 21
1231.6
  0
LINE
  8
2
  6
CONTINUOUS
 62
     1
 10
1860.8
 20
656.6
 11
1860.8
 21
1181.6
  0
TEXT
  8
2
  6
CONTINUOUS
 62
     1
 10
1761.65
 20
1194.35
 30
0.0
 40
22.5
  1
マイティジャッキ仕様
 50
0.0
 41
0.8888888
 51
0.0
  7
KANJI14
  0
TEXT
  8
2
  6
CONTINUOUS
 62
     5
 10
1722.8
 20
1155.15
 30
0.0
 40
16.0
  1
型式
 50
0.0
 41
1.0
 51
0.0
  7
KANJI15
  0
TEXT
  8
2
  6
CONTINUOUS
 62
     5
 10
1722.8
 20
1122.0
 30
0.0
 40
16.0
  1
推力
 50
0.0
 41
1.0
 51
0.0
  7
KANJI15
  0
TEXT
  8
2
  6
CONTINUOUS
 62
     5
 10
1722.85
 20
1051.6
 30
0.0
 40
16.0
  1
スクリュウ
 50
0.0
 41
1.0
 51
0.0
  7
KANJI15
  0
TEXT
  8
2
  6
CONTINUOUS
 62
     5
 10
1722.8
 20
1016.5
 30
0.0
 40
16.0
  1
ウォーム１回転当り移動量
 50
0.0
 41
0.65625
 51
0.0
  7
KANJI16
  0
TEXT
  8
2
  6
CONTINUOUS
 62
     5
 10
1722.8
 20
980.25
 30
0.0
 40
16.0
  1
ウォーム減速比
 50
0.0
 41
1.0
 51
0.0
  7
KANJI15
  0
TEXT
  8
2
  6
CONTINUOUS
 62
     5
 10
1722.8
 20
946.55
 30
0.0
 40
16.0
  1
入力トルク（許容荷重時）
 50
0.0
 41
0.65625
 51
0.0
  7
KANJI16
  0
TEXT
  8
2
  6
CONTINUOUS
 62
     5
 10
1722.8
 20
912.25
 30
0.0
 40
16.0
  1
効率
 50
0.0
 41
1.0
 51
0.0
  7
KANJI15
  0
TEXT
  8
2
  6
CONTINUOUS
 62
     5
 10
1722.8
 20
877.55
 30
0.0
 40
16.0
  1
ネジ軸回転防止
 50
0.0
 41
1.0
 51
0.0
  7
KANJI15
  0
TEXT
  8
2
  6
CONTINUOUS
 62
     5
 10
1722.8
 20
841.3
 30
0.0
 40
16.0
  1
発生ネジ軸トルク
 50
0.0
 41
1.0
 51
0.0
  7
KANJI15
  0
TEXT
  8
2
  6
CONTINUOUS
 62
     5
 10
1722.8
 20
806.9
 30
0.0
 40
16.0
  1
潤滑
 50
0.0
 41
1.0
 51
0.0
  7
KANJI15
  0
TEXT
  8
2
  6
CONTINUOUS
 62
     5
 10
1722.8
 20
770.95
 30
0.0
 40
16.0
  1
塗装色
 50
0.0
 41
1.0
 51
0.0
  7
KANJI15
  0
TEXT
  8
2
  6
CONTINUOUS
 62
     5
 10
1722.3
 20
736.55
 30
0.0
 40
16.0
  1
付属品
 50
0.0
 41
1.0
 51
0.0
  7
KANJI15
  0
TEXT
  8
2
  6
CONTINUOUS
 62
     5
 10
1984.9
 20
910.65
 30
0.0
 40
16.0
  1
％
 50
0.0
 41
1.0
 51
0.0
  7
KANJI15
  0
TEXT
  8
2
  6
CONTINUOUS
 62
     5
 10
1927.3
 20
877.15
 30
0.0
 40
16.0
  1
無し
 50
0.0
 41
0.71875
 51
0.0
  7
KANJI17
  0
TEXT
  8
2
  6
CONTINUOUS
 62
     5
 10
1885.8
 20
806.0
 30
0.0
 40
16.0
  1
グリース方式
 50
0.0
 41
0.71875
 51
0.0
  7
KANJI17
  0
TEXT
  8
2
  6
CONTINUOUS
 62
     5
 10
1887.3
 20
734.35
 30
0.0
 40
16.0
  1
入力キー
 50
0.0
 41
0.71875
 51
0.0
  7
KANJI17
  0
TEXT
  8
2
  6
CONTINUOUS
 62
     5
 10
1979.8
 20
1015.8
 30
0.0
 40
16.0
  1
ｍｍ
 50
0.0
 41
0.6875
 51
0.0
  7
KANJI18
  0
LINE
  8
2
  6
CONTINUOUS
 62
     1
 10
1710.8
 20
656.6
 11
2010.8
 21
656.6
  0
TEXT
  8
2
  6
CONTINUOUS
 62
     5
 10
1723.3
 20
665.6
 30
0.0
 40
16.0
  1
台数
 50
0.0
 41
1.0
 51
0.0
  7
KANJI15
  0
TEXT
  8
2
  6
CONTINUOUS
 62
     5
 10
1723.3
 20
1086.35
 30
0.0
 40
16.0
  1
ストローク
 50
0.0
 41
1.0
 51
0.0
  7
KANJI15
  0
TEXT
  8
2
  6
CONTINUOUS
 62
     5
 10
1980.0
 20
1087.3
 30
0.0
 40
16.0
  1
ｍｍ
 50
0.0
 41
0.6875
 51
0.0
  7
KANJI18
  0
LINE
  8
0
  6
CONTINUOUS
 62
     1
 10
1710.8
 20
1006.6
 11
2010.8
 21
1006.6
  0
TEXT
  8
0
  6
CONTINUOUS
 62
     5
 10
1863.075
 20
770.75
 30
0.0
 40
16.0
  1
マンセル　７．５ＧＹ　５／４．５
 50
0.0
 41
0.5625
 51
0.0
  7
KANJI19
  0
TEXT
  8
2
  6
CONTINUOUS
 62
     5
 10
1868.3
 20
1119.7
 30
0.0
 40
16.0
  1
２９４ＫＮ（３０ｔｏｎ）
 50
0.0
 41
0.71875
 51
0.0
  7
KANJI17
  0
LINE
  8
0
  6
CONTINUOUS
 62
     6
 10
2010.8
 20
1387.9
 11
2010.8
 21
42.9
  0
LINE
  8
0
  6
CONTINUOUS
 62
     6
 10
2010.8
 20
42.9
 11
2010.8
 21
1388.15
  0
TEXT
  8
2
  6
CONTINUOUS
 62
     5
 10
1603.55
 20
393.15
 30
0.0
 40
16.0
  1
５．
 50
0.0
 41
1.0
 51
0.0
  7
KANJI15
  0
TEXT
  8
2
  6
CONTINUOUS
 62
     5
 10
1603.55
 20
568.15
 30
0.0
 40
16.0
  1
特記事項
 50
0.0
 41
1.0
 51
0.0
  7
KANJI15
  0
TEXT
  8
2
  6
CONTINUOUS
 62
     5
 10
1603.55
 20
533.15
 30
0.0
 40
16.0
  1
１．フレ－ム材質　ダクタイル鋳鉄
 50
0.0
 41
1.0
 51
0.0
  7
KANJI15
  0
TEXT
  8
2
  6
CONTINUOUS
 62
     5
 10
1603.55
 20
498.15
 30
0.0
 40
16.0
  1
２．ネジ軸の回転防止対策を行って下さい
 50
0.0
 41
1.0
 51
0.0
  7
KANJI15
  0
TEXT
  8
2
  6
CONTINUOUS
 62
     5
 10
1603.55
 20
463.15
 30
0.0
 40
16.0
  1
３．
 50
0.0
 41
1.0
 51
0.0
  7
KANJI15
  0
TEXT
  8
2
  6
CONTINUOUS
 62
     5
 10
1603.55
 20
428.15
 30
0.0
 40
16.0
  1
４．
 50
0.0
 41
1.0
 51
0.0
  7
KANJI15
  0
TEXT
  8
0
  6
CONTINUOUS
 62
     3
 10
1415.55
 20
52.9
 30
1.5
 40
22.5
  1
１／５
 50
0.0
 41
0.666666667
 51
0.0
  7
KANJI20
  0
LINE
  8
0
  6
CONTINUOUS
 62
     2
 10
383.08
 20
390.326382688
 11
312.612018135
 21
390.326382688
  0
LINE
  8
0
  6
CONTINUOUS
 62
     2
 10
317.612018135
 20
390.326382688
 11
314.376780072
 21
378.252309859
  0
LINE
  8
0
  6
CONTINUOUS
 62
     2
 10
317.612018135
 20
390.326382688
 11
320.847256199
 21
378.252309859
  0
LINE
  8
0
  6
CONTINUOUS
 62
     2
 10
317.612018135
 20
371.576382688
 11
317.612018135
 21
390.326382688
  0
LINE
  8
0
  6
CONTINUOUS
 62
     2
 10
317.612018135
 20
390.326382688
 11
317.612018135
 21
399.076382688
  0
LINE
  8
0
  6
CONTINUOUS
 62
     2
 10
317.612018135
 20
399.076382688
 11
317.612018135
 21
465.826382688
  0
LINE
  8
0
  6
CONTINUOUS
 62
     2
 10
317.612018135
 20
399.076382688
 11
320.847256199
 21
411.150455517
  0
LINE
  8
0
  6
CONTINUOUS
 62
     2
 10
317.612018135
 20
399.076382688
 11
314.376780072
 21
411.150455517
  0
LINE
  8
0
  6
CONTINUOUS
 62
     2
 10
370.58
 20
399.076382688
 11
312.612018135
 21
399.076382688
  0
TEXT
  8
0
  6
CONTINUOUS
 62
     3
 10
315.612018135
 20
417.826382688
 30
0.0
 40
17.5
  1
３．５
 50
90.0
 41
0.914285714
 51
0.0
  7
KANJI21
  0
LINE
  8
0
  6
CONTINUOUS
 62
     2
 10
318.08
 20
399.076382688
 11
275.58
 21
399.076382688
  0
LINE
  8
0
  6
CONTINUOUS
 62
     2
 10
280.58
 20
399.076382688
 11
283.815238064
 21
411.150455517
  0
LINE
  8
0
  6
CONTINUOUS
 62
     2
 10
280.58
 20
399.076382688
 11
277.344761936
 21
411.150455517
  0
LINE
  8
0
  6
CONTINUOUS
 62
     2
 10
280.58
 20
417.826382688
 11
280.58
 21
399.076382688
  0
LINE
  8
0
  6
CONTINUOUS
 62
     2
 10
280.58
 20
399.076382688
 11
280.58
 21
379.076382688
  0
LINE
  8
0
  6
CONTINUOUS
 62
     2
 10
280.58
 20
379.076382688
 11
280.58
 21
360.326382688
  0
LINE
  8
0
  6
CONTINUOUS
 62
     2
 10
280.58
 20
379.076382688
 11
277.344761936
 21
367.002309859
  0
LINE
  8
0
  6
CONTINUOUS
 62
     2
 10
280.58
 20
379.076382688
 11
283.815238064
 21
367.002309859
  0
LINE
  8
0
  6
CONTINUOUS
 62
     2
 10
370.58
 20
379.076382688
 11
275.58
 21
379.076382688
  0
TEXT
  8
0
  6
CONTINUOUS
 62
     3
 10
278.58
 20
381.076382688
 30
0.0
 40
17.5
  1
８
 50
90.0
 41
0.914285714
 51
0.0
  7
KANJI21
  0
LINE
  8
0
  6
CONTINUOUS
 62
     2
 10
290.58
 20
399.076382688
 11
238.08
 21
399.076382688
  0
LINE
  8
0
  6
CONTINUOUS
 62
     2
 10
243.08
 20
399.076382688
 11
239.844761936
 21
387.002309859
  0
LINE
  8
0
  6
CONTINUOUS
 62
     2
 10
243.08
 20
399.076382688
 11
246.315238064
 21
387.002309859
  0
LINE
  8
0
  6
CONTINUOUS
 62
     2
 10
243.08
 20
399.076382688
 11
243.08
 21
302.826382688
  0
LINE
  8
0
  6
CONTINUOUS
 62
     2
 10
243.08
 20
302.826382688
 11
246.315238064
 21
314.900455517
  0
LINE
  8
0
  6
CONTINUOUS
 62
     2
 10
243.08
 20
302.826382688
 11
239.844761936
 21
314.900455517
  0
LINE
  8
0
  6
CONTINUOUS
 62
     2
 10
383.08
 20
302.826382688
 11
238.08
 21
302.826382688
  0
TEXT
  8
0
  6
CONTINUOUS
 62
     3
 10
241.08
 20
318.951382688
 30
0.0
 40
17.5
  1
３８．５
 50
90.0
 41
0.914285714
 51
0.0
  7
KANJI21
  0
LINE
  8
0
  6
CONTINUOUS
 62
     2
 10
375.58
 20
404.076382688
 11
375.58
 21
440.326382688
  0
LINE
  8
0
  6
CONTINUOUS
 62
     2
 10
375.58
 20
435.326382688
 11
363.505927171
 21
438.561620752
  0
LINE
  8
0
  6
CONTINUOUS
 62
     2
 10
375.58
 20
435.326382688
 11
363.505927171
 21
432.091144624
  0
LINE
  8
0
  6
CONTINUOUS
 62
     2
 10
356.83
 20
435.326382688
 11
375.58
 21
435.326382688
  0
LINE
  8
0
  6
CONTINUOUS
 62
     2
 10
375.58
 20
435.326382688
 11
400.58
 21
435.326382688
  0
LINE
  8
0
  6
CONTINUOUS
 62
     2
 10
400.58
 20
435.326382688
 11
419.33
 21
435.326382688
  0
LINE
  8
0
  6
CONTINUOUS
 62
     2
 10
400.58
 20
435.326382688
 11
412.654072829
 21
432.091144624
  0
LINE
  8
0
  6
CONTINUOUS
 62
     2
 10
400.58
 20
435.326382688
 11
412.654072829
 21
438.561620752
  0
LINE
  8
0
  6
CONTINUOUS
 62
     2
 10
400.58
 20
404.076382688
 11
400.58
 21
440.326382688
  0
TEXT
  8
0
  6
CONTINUOUS
 62
     3
 10
372.08
 20
437.326382688
 30
0.0
 40
17.5
  1
１０
 50
0.0
 41
0.914285714
 51
0.0
  7
KANJI21
  0
LINE
  8
0
  6
CONTINUOUS
 62
     2
 10
345.474447074
 20
356.517678371
 11
334.451359285
 21
362.411873448
  0
LINE
  8
0
  6
CONTINUOUS
 62
     2
 10
345.474447074
 20
356.517678371
 11
332.981075482
 21
356.110657149
  0
LINE
  8
0
  6
CONTINUOUS
 62
     2
 10
327.214924391
 20
360.778233663
 11
345.474447074
 21
356.517678371
  0
LINE
  8
0
  6
CONTINUOUS
 62
     2
 10
345.474447074
 20
356.517678371
 11
540.987296779
 21
310.898013439
  0
LINE
  8
0
  6
CONTINUOUS
 62
     2
 10
430.685552926
 20
336.635087005
 11
441.708640715
 21
330.740891928
  0
LINE
  8
0
  6
CONTINUOUS
 62
     2
 10
430.685552926
 20
336.635087005
 11
443.178924518
 21
337.042108227
  0
TEXT
  8
0
  6
CONTINUOUS
 62
     3
 10
463.534459231
 20
331.024065107
 30
0.0
 40
17.5
  1
φ３５ｈ６
 50
346.865977694
 41
0.914285714
 51
0.0
  7
KANJI21
  0
LINE
  8
0
  6
CONTINUOUS
 62
     1
 10
712.4766666
 20
1146.521663
 11
712.4766666
 21
1031.521663
  0
LINE
  8
6
  6
LTYPE2
 62
     2
 10
346.145175918
 20
904.031163
 11
392.008157282
 21
904.031163
  0
LINE
  8
6
  6
LTYPE2
 62
     2
 10
582.008157282
 20
904.031163
 11
536.145175918
 21
904.031163
  0
LINE
  8
6
  6
LTYPE2
 62
     2
 10
582.008157282
 20
1184.031163
 11
536.145175918
 21
1184.031163
  0
LINE
  8
6
  6
LTYPE2
 62
     2
 10
559.0766666
 20
1161.099672318
 11
559.0766666
 21
1206.962653682
  0
LINE
  8
6
  6
LTYPE2
 62
     2
 10
346.145175918
 20
1184.031163
 11
392.008157282
 21
1184.031163
  0
LINE
  8
6
  6
LTYPE2
 62
     2
 10
369.0766666
 20
1161.099672318
 11
369.0766666
 21
1206.962653682
  0
LINE
  8
6
  6
LTYPE2
 62
     2
 10
329.97070504
 20
1089.021663
 11
597.654933683
 21
1089.021663
  0
LINE
  8
6
  6
LTYPE2
 62
     2
 10
345.533596656
 20
945.031163
 11
360.320457342
 21
945.031163
  0
LINE
  8
6
  6
LTYPE2
 62
     2
 10
345.533596656
 20
1043.031163
 11
360.320457342
 21
1043.031163
  0
LINE
  8
6
  6
LTYPE2
 62
     2
 10
582.619736544
 20
945.031163
 11
567.832875858
 21
945.031163
  0
LINE
  8
6
  6
LTYPE2
 62
     2
 10
582.619736544
 20
1043.031163
 11
567.832875858
 21
1043.031163
  0
LINE
  8
6
  6
LTYPE2
 62
     2
 10
369.0766666
 20
881.099672318
 11
369.0766666
 21
926.962653682
  0
LINE
  8
6
  6
LTYPE2
 62
     2
 10
559.0766666
 20
881.099672318
 11
559.0766666
 21
926.962653682
  0
LINE
  8
6
  6
LTYPE2
 62
     2
 10
464.0766666
 20
1227.800230374
 11
464.0766666
 21
861.928111123
  0
LINE
  8
6
  6
LTYPE2
 62
     2
 10
279.0766666
 20
994.031163
 11
655.296553558
 21
994.031163
  0
ARC
  8
6
  6
LTYPE2
 62
     2
 10
464.0766666
 20
1089.021663
 40
102.5
 50
90.0
 51
270.0
  0
ARC
  8
6
  6
LTYPE2
 62
     2
 10
464.0766666
 20
1089.021663
 40
102.5
 50
270.0
 51
90.0
  0
LINE
  8
0
  6
CONTINUOUS
 62
     1
 10
594.0766666
 20
1184.029663
 11
594.0766666
 21
904.022663
  0
LINE
  8
0
  6
CONTINUOUS
 62
     1
 10
334.0766666
 20
1184.029663
 11
334.0766666
 21
904.022663
  0
LINE
  8
0
  6
CONTINUOUS
 62
     1
 10
513.175456413
 20
937.536874413
 11
464.0766666
 21
937.536874413
  0
LINE
  8
0
  6
CONTINUOUS
 62
     1
 10
513.175456413
 20
891.823318029
 11
464.0766666
 21
891.823318029
  0
LINE
  8
0
  6
CONTINUOUS
 62
     1
 10
513.175456413
 20
888.494873575
 11
464.0766666
 21
888.494873575
  0
LINE
  8
0
  6
CONTINUOUS
 62
     1
 10
513.388763622
 20
940.865318867
 11
464.0766666
 21
940.865318867
  0
LINE
  8
0
  6
CONTINUOUS
 62
     1
 10
369.0731666
 20
869.026163
 11
559.0801666
 21
869.026163
  0
ARC
  8
0
  6
CONTINUOUS
 62
     1
 10
369.0731666
 20
904.022663
 40
34.9965
 50
180.0
 51
270.0
  0
ARC
  8
0
  6
CONTINUOUS
 62
     1
 10
559.0801666
 20
904.022663
 40
34.9965
 50
270.0
 51
0.0
  0
ARC
  8
0
  6
CONTINUOUS
 62
     1
 10
519.0711666
 20
931.037463
 40
4.9995
 50
90.0
 51
180.0
  0
LINE
  8
0
  6
CONTINUOUS
 62
     1
 10
514.0716666
 20
934.537174413
 11
514.0716666
 21
894.823018029
  0
ARC
  8
0
  6
CONTINUOUS
 62
     1
 10
517.0713666
 20
894.823018029
 40
2.9997
 50
180.0
 51
270.0
  0
LINE
  8
0
  6
CONTINUOUS
 62
     1
 10
569.0766666
 20
936.036963
 11
519.0711666
 21
936.036963
  0
ARC
  8
0
  6
CONTINUOUS
 62
     1
 10
517.0713666
 20
934.537174413
 40
2.9997
 50
90.0
 51
180.0
  0
LINE
  8
0
  6
CONTINUOUS
 62
     1
 10
369.0731666
 20
1219.026163
 11
559.0801666
 21
1219.026163
  0
ARC
  8
0
  6
CONTINUOUS
 62
     1
 10
369.0731666
 20
1184.029663
 40
34.9965
 50
90.0
 51
180.0
  0
ARC
  8
0
  6
CONTINUOUS
 62
     1
 10
559.0801666
 20
1184.029663
 40
34.9965
 50
0.0
 51
90.0
  0
ARC
  8
0
  6
CONTINUOUS
 62
     1
 10
464.0766666
 20
1089.021663
 40
112.5
 50
270.0
 51
90.0
  0
LINE
  8
0
  6
CONTINUOUS
 62
     1
 10
335.0766666
 20
1014.031163
 11
342.0766666
 21
1014.031163
  0
LINE
  8
0
  6
CONTINUOUS
 62
     1
 10
335.0766666
 20
974.031163
 11
342.0766666
 21
974.031163
  0
LINE
  8
0
  6
CONTINUOUS
 62
     1
 10
286.0766666
 20
976.531163
 11
334.0766666
 21
976.531163
  0
LINE
  8
0
  6
CONTINUOUS
 62
     1
 10
286.0766666
 20
1011.531163
 11
334.0766666
 21
1011.531163
  0
LINE
  8
0
  6
CONTINUOUS
 62
     1
 10
284.0766666
 20
989.031163
 11
327.0766666
 21
989.031163
  0
LINE
  8
0
  6
CONTINUOUS
 62
     1
 10
284.0766666
 20
999.031163
 11
327.0766666
 21
999.031163
  0
LINE
  8
0
  6
CONTINUOUS
 62
     1
 10
334.0766666
 20
975.031163
 11
334.0766666
 21
1013.031163
  0
LINE
  8
0
  6
CONTINUOUS
 62
     1
 10
335.0766666
 20
974.031163
 11
335.0766666
 21
1014.031163
  0
ARC
  8
0
  6
CONTINUOUS
 62
     1
 10
327.0766666
 20
994.031163
 40
5.0
 50
270.0
 51
90.0
  0
LINE
  8
0
  6
CONTINUOUS
 62
     1
 10
334.0766666
 20
1013.031163
 11
335.0766666
 21
1014.031163
  0
LINE
  8
0
  6
CONTINUOUS
 62
     1
 10
335.0766666
 20
974.031163
 11
334.0766666
 21
975.031163
  0
LINE
  8
0
  6
CONTINUOUS
 62
     1
 10
284.0766666
 20
978.531163
 11
284.0766666
 21
1009.531163
  0
LINE
  8
0
  6
CONTINUOUS
 62
     1
 10
284.0766666
 20
1009.531163
 11
286.0766666
 21
1011.531163
  0
LINE
  8
0
  6
CONTINUOUS
 62
     1
 10
286.0766666
 20
1011.531163
 11
286.0766666
 21
999.031163
  0
LINE
  8
0
  6
CONTINUOUS
 62
     1
 10
286.0766666
 20
976.531163
 11
284.0766666
 21
978.531163
  0
LINE
  8
0
  6
CONTINUOUS
 62
     1
 10
286.0766666
 20
976.531163
 11
286.0766666
 21
989.031163
  0
LINE
  8
0
  6
CONTINUOUS
 62
     1
 10
359.0766666
 20
936.036963
 11
409.0821666
 21
936.036963
  0
LINE
  8
0
  6
CONTINUOUS
 62
     1
 10
414.764569578
 20
940.865318867
 11
464.0766666
 21
940.865318867
  0
LINE
  8
0
  6
CONTINUOUS
 62
     1
 10
414.977876787
 20
888.494873575
 11
464.0766666
 21
888.494873575
  0
LINE
  8
0
  6
CONTINUOUS
 62
     1
 10
414.977876787
 20
891.823318029
 11
464.0766666
 21
891.823318029
  0
LINE
  8
0
  6
CONTINUOUS
 62
     1
 10
414.977876787
 20
937.536874413
 11
464.0766666
 21
937.536874413
  0
LINE
  8
0
  6
CONTINUOUS
 62
     1
 10
414.0816666
 20
934.537174413
 11
414.0816666
 21
894.823018029
  0
ARC
  8
0
  6
CONTINUOUS
 62
     1
 10
411.0819666
 20
934.537174413
 40
2.9997
 50
0.0
 51
90.0
  0
ARC
  8
0
  6
CONTINUOUS
 62
     1
 10
409.0821666
 20
931.037463
 40
4.9995
 50
0.0
 51
90.0
  0
ARC
  8
0
  6
CONTINUOUS
 62
     1
 10
411.0819666
 20
894.823018029
 40
2.9997
 50
270.0
 51
0.0
  0
ARC
  8
0
  6
CONTINUOUS
 62
     1
 10
464.0766666
 20
1089.021663
 40
112.5
 50
90.0
 51
270.0
  0
LINE
  8
0
  6
CONTINUOUS
 62
     1
 10
569.0766666
 20
1048.63696582
 11
569.0766666
 21
936.036963
  0
LINE
  8
0
  6
CONTINUOUS
 62
     1
 10
359.0766666
 20
1048.63696582
 11
359.0766666
 21
936.036963
  0
LINE
  8
0
  6
CONTINUOUS
 62
     1
 10
342.0766666
 20
1027.332591863
 11
342.0766666
 21
960.729734137
  0
LINE
  8
0
  6
CONTINUOUS
 62
     1
 10
350.0766666
 20
936.031163
 11
359.0766666
 21
936.031163
  0
LINE
  8
0
  6
CONTINUOUS
 62
     1
 10
347.0766666
 20
954.332591863
 11
347.0766666
 21
939.031163
  0
ARC
  8
0
  6
CONTINUOUS
 62
     1
 10
350.0766666
 20
939.031163
 40
3.0
 50
180.0
 51
270.0
  0
ARC
  8
0
  6
CONTINUOUS
 62
     1
 10
345.0766666
 20
960.729734137
 40
3.0
 50
180.0
 51
239.036243468
  0
ARC
  8
0
  6
CONTINUOUS
 62
     1
 10
344.0766666
 20
954.332591863
 40
3.0
 50
0.0
 51
59.036243468
  0
LINE
  8
0
  6
CONTINUOUS
 62
     1
 10
345.620153866
 20
956.90507064
 11
343.533179334
 21
958.15725536
  0
LINE
  8
0
  6
CONTINUOUS
 62
     1
 10
359.0766666
 20
1034.031163
 11
359.0766666
 21
936.031163
  0
LINE
  8
0
  6
CONTINUOUS
 62
     1
 10
350.0766666
 20
1052.031163
 11
359.0766666
 21
1052.031163
  0
LINE
  8
0
  6
CONTINUOUS
 62
     1
 10
347.0766666
 20
1049.031163
 11
347.0766666
 21
954.332591863
  0
ARC
  8
0
  6
CONTINUOUS
 62
     1
 10
345.0766666
 20
1027.332591863
 40
3.0
 50
120.963756532
 51
180.0
  0
ARC
  8
0
  6
CONTINUOUS
 62
     1
 10
344.0766666
 20
1033.729734137
 40
3.0
 50
300.963756532
 51
0.0
  0
LINE
  8
0
  6
CONTINUOUS
 62
     1
 10
345.620153866
 20
1031.15725536
 11
343.533179334
 21
1029.90507064
  0
ARC
  8
0
  6
CONTINUOUS
 62
     1
 10
350.0766666
 20
1049.031163
 40
3.0
 50
90.0
 51
180.0
  0
LINE
  8
0
  6
CONTINUOUS
 62
     1
 10
359.0766666
 20
1052.031163
 11
359.0766666
 21
1034.031163
  0
LINE
  8
0
  6
CONTINUOUS
 62
     1
 10
581.0766666
 20
1049.031163
 11
581.0766666
 21
954.332591863
  0
ARC
  8
0
  6
CONTINUOUS
 62
     1
 10
583.0766666
 20
960.729734137
 40
3.0
 50
300.963756532
 51
0.0
  0
LINE
  8
0
  6
CONTINUOUS
 62
     1
 10
578.0766666
 20
936.031163
 11
569.0766666
 21
936.031163
  0
LINE
  8
0
  6
CONTINUOUS
 62
     1
 10
581.0766666
 20
954.332591863
 11
581.0766666
 21
939.031163
  0
ARC
  8
0
  6
CONTINUOUS
 62
     1
 10
584.0766666
 20
954.332591863
 40
3.0
 50
120.963756532
 51
180.0
  0
LINE
  8
0
  6
CONTINUOUS
 62
     1
 10
582.533179334
 20
956.90507064
 11
584.620153866
 21
958.15725536
  0
ARC
  8
0
  6
CONTINUOUS
 62
     1
 10
578.0766666
 20
939.031163
 40
3.0
 50
270.0
 51
0.0
  0
LINE
  8
0
  6
CONTINUOUS
 62
     1
 10
593.0766666
 20
974.031163
 11
586.0766666
 21
974.031163
  0
LINE
  8
0
  6
CONTINUOUS
 62
     1
 10
586.0766666
 20
1027.332591863
 11
586.0766666
 21
960.729734137
  0
LINE
  8
0
  6
CONTINUOUS
 62
     1
 10
593.0766666
 20
1014.031163
 11
586.0766666
 21
1014.031163
  0
ARC
  8
0
  6
CONTINUOUS
 62
     1
 10
583.0766666
 20
1027.332591863
 40
3.0
 50
0.0
 51
59.036243468
  0
ARC
  8
0
  6
CONTINUOUS
 62
     1
 10
584.0766666
 20
1033.729734137
 40
3.0
 50
180.0
 51
239.036243468
  0
LINE
  8
0
  6
CONTINUOUS
 62
     1
 10
582.533179334
 20
1031.15725536
 11
584.620153866
 21
1029.90507064
  0
LINE
  8
0
  6
CONTINUOUS
 62
     1
 10
578.0766666
 20
1052.031163
 11
569.0766666
 21
1052.031163
  0
ARC
  8
0
  6
CONTINUOUS
 62
     1
 10
578.0766666
 20
1049.031163
 40
3.0
 50
0.0
 51
90.0
  0
LINE
  8
0
  6
CONTINUOUS
 62
     1
 10
594.0766666
 20
975.031163
 11
594.0766666
 21
1013.031163
  0
LINE
  8
0
  6
CONTINUOUS
 62
     1
 10
593.0766666
 20
974.031163
 11
593.0766666
 21
1014.031163
  0
ARC
  8
0
  6
CONTINUOUS
 62
     1
 10
601.0766666
 20
994.031163
 40
5.0
 50
90.0
 51
270.0
  0
LINE
  8
0
  6
CONTINUOUS
 62
     1
 10
594.0766666
 20
1013.031163
 11
593.0766666
 21
1014.031163
  0
LINE
  8
0
  6
CONTINUOUS
 62
     1
 10
593.0766666
 20
974.031163
 11
594.0766666
 21
975.031163
  0
LINE
  8
0
  6
CONTINUOUS
 62
     1
 10
644.0766666
 20
978.531163
 11
644.0766666
 21
1009.531163
  0
LINE
  8
0
  6
CONTINUOUS
 62
     1
 10
642.0766666
 20
976.531163
 11
594.0766666
 21
976.531163
  0
LINE
  8
0
  6
CONTINUOUS
 62
     1
 10
644.0766666
 20
989.031163
 11
601.0766666
 21
989.031163
  0
LINE
  8
0
  6
CONTINUOUS
 62
     1
 10
642.0766666
 20
976.531163
 11
644.0766666
 21
978.531163
  0
LINE
  8
0
  6
CONTINUOUS
 62
     1
 10
642.0766666
 20
976.531163
 11
642.0766666
 21
989.031163
  0
LINE
  8
0
  6
CONTINUOUS
 62
     1
 10
642.0766666
 20
1011.531163
 11
594.0766666
 21
1011.531163
  0
LINE
  8
0
  6
CONTINUOUS
 62
     1
 10
644.0766666
 20
999.031163
 11
601.0766666
 21
999.031163
  0
LINE
  8
0
  6
CONTINUOUS
 62
     1
 10
642.0766666
 20
1011.531163
 11
642.0766666
 21
999.031163
  0
LINE
  8
0
  6
CONTINUOUS
 62
     1
 10
644.0766666
 20
1009.531163
 11
642.0766666
 21
1011.531163
  0
CIRCLE
  8
0
  6
CONTINUOUS
 62
     1
 10
559.0766666
 20
1184.031163
 40
16.5
  0
CIRCLE
  8
0
  6
CONTINUOUS
 62
     1
 10
559.0766666
 20
904.031163
 40
16.5
  0
CIRCLE
  8
0
  6
CONTINUOUS
 62
     1
 10
369.0766666
 20
1184.031163
 40
16.5
  0
CIRCLE
  8
0
  6
CONTINUOUS
 62
     1
 10
369.0766666
 20
904.031163
 40
16.5
  0
LINE
  8
0
  6
LTYPE3
 62
     2
 10
440.524133496
 20
1176.920913192
 11
434.571295458
 21
1199.137207197
  0
CIRCLE
  8
0
  6
CONTINUOUS
 62
     1
 10
437.547714477
 20
1188.029060195
 40
8.0
  0
LINE
  8
0
  6
CONTINUOUS
 62
     1
 10
440.816133978
 20
1191.285965776
 11
436.35714687
 21
1192.472318996
  0
LINE
  8
0
  6
CONTINUOUS
 62
     1
 10
436.35714687
 20
1192.472318996
 11
433.088727368
 21
1189.215413415
  0
LINE
  8
0
  6
CONTINUOUS
 62
     1
 10
433.088727368
 20
1189.215413415
 11
434.279294976
 21
1184.772154614
  0
LINE
  8
0
  6
CONTINUOUS
 62
     1
 10
434.279294976
 20
1184.772154614
 11
438.738282084
 21
1183.585801394
  0
LINE
  8
0
  6
CONTINUOUS
 62
     1
 10
438.738282084
 20
1183.585801394
 11
442.006701586
 21
1186.842706975
  0
LINE
  8
0
  6
CONTINUOUS
 62
     1
 10
442.006701586
 20
1186.842706975
 11
440.816133978
 21
1191.285965776
  0
LINE
  8
0
  6
LTYPE3
 62
     2
 10
399.729949512
 20
1153.368380088
 11
383.466493545
 21
1169.631836055
  0
CIRCLE
  8
0
  6
CONTINUOUS
 62
     1
 10
391.598221528
 20
1161.500108072
 40
8.0
  0
LINE
  8
0
  6
CONTINUOUS
 62
     1
 10
392.800303056
 20
1165.954880793
 11
388.345530335
 21
1164.752799265
  0
LINE
  8
0
  6
CONTINUOUS
 62
     1
 10
388.345530335
 20
1164.752799265
 11
387.143448807
 21
1160.298026544
  0
LINE
  8
0
  6
CONTINUOUS
 62
     1
 10
387.143448807
 20
1160.298026544
 11
390.39614
 21
1157.04533535
  0
LINE
  8
0
  6
CONTINUOUS
 62
     1
 10
390.39614
 20
1157.04533535
 11
394.850912722
 21
1158.247416878
  0
LINE
  8
0
  6
CONTINUOUS
 62
     1
 10
394.850912722
 20
1158.247416878
 11
396.05299425
 21
1162.7021896
  0
LINE
  8
0
  6
CONTINUOUS
 62
     1
 10
396.05299425
 20
1162.7021896
 11
392.800303056
 21
1165.954880793
  0
LINE
  8
0
  6
LTYPE3
 62
     2
 10
376.177416408
 20
1112.574196104
 11
353.961122403
 21
1118.527034142
  0
CIRCLE
  8
0
  6
CONTINUOUS
 62
     1
 10
365.069269405
 20
1115.550615123
 40
8.0
  0
LINE
  8
0
  6
CONTINUOUS
 62
     1
 10
363.882916185
 20
1120.009602232
 11
360.626010604
 21
1116.74118273
  0
LINE
  8
0
  6
CONTINUOUS
 62
     1
 10
360.626010604
 20
1116.74118273
 11
361.812363824
 21
1112.282195622
  0
LINE
  8
0
  6
CONTINUOUS
 62
     1
 10
361.812363824
 20
1112.282195622
 11
366.255622625
 21
1111.091628014
  0
LINE
  8
0
  6
CONTINUOUS
 62
     1
 10
366.255622625
 20
1111.091628014
 11
369.512528206
 21
1114.360047516
  0
LINE
  8
0
  6
CONTINUOUS
 62
     1
 10
369.512528206
 20
1114.360047516
 11
368.326174986
 21
1118.819034624
  0
LINE
  8
0
  6
CONTINUOUS
 62
     1
 10
368.326174986
 20
1118.819034624
 11
363.882916185
 21
1120.009602232
  0
LINE
  8
0
  6
LTYPE3
 62
     2
 10
376.177416408
 20
1065.469129896
 11
353.961122403
 21
1059.516291858
  0
CIRCLE
  8
0
  6
CONTINUOUS
 62
     1
 10
365.069269405
 20
1062.492710877
 40
8.0
  0
LINE
  8
0
  6
CONTINUOUS
 62
     1
 10
361.812363824
 20
1065.761130378
 11
360.626010604
 21
1061.30214327
  0
LINE
  8
0
  6
CONTINUOUS
 62
     1
 10
360.626010604
 20
1061.30214327
 11
363.882916185
 21
1058.033723768
  0
LINE
  8
0
  6
CONTINUOUS
 62
     1
 10
363.882916185
 20
1058.033723768
 11
368.326174986
 21
1059.224291376
  0
LINE
  8
0
  6
CONTINUOUS
 62
     1
 10
368.326174986
 20
1059.224291376
 11
369.512528206
 21
1063.683278484
  0
LINE
  8
0
  6
CONTINUOUS
 62
     1
 10
369.512528206
 20
1063.683278484
 11
366.255622625
 21
1066.951697986
  0
LINE
  8
0
  6
CONTINUOUS
 62
     1
 10
366.255622625
 20
1066.951697986
 11
361.812363824
 21
1065.761130378
  0
LINE
  8
0
  6
LTYPE3
 62
     2
 10
399.729949512
 20
1024.674945912
 11
383.466493545
 21
1008.411489945
  0
CIRCLE
  8
0
  6
CONTINUOUS
 62
     1
 10
391.598221528
 20
1016.543217928
 40
8.0
  0
LINE
  8
0
  6
CONTINUOUS
 62
     1
 10
387.143448807
 20
1017.745299456
 11
388.345530335
 21
1013.290526735
  0
LINE
  8
0
  6
CONTINUOUS
 62
     1
 10
388.345530335
 20
1013.290526735
 11
392.800303056
 21
1012.088445207
  0
LINE
  8
0
  6
CONTINUOUS
 62
     1
 10
392.800303056
 20
1012.088445207
 11
396.05299425
 21
1015.3411364
  0
LINE
  8
0
  6
CONTINUOUS
 62
     1
 10
396.05299425
 20
1015.3411364
 11
394.850912722
 21
1019.795909122
  0
LINE
  8
0
  6
CONTINUOUS
 62
     1
 10
394.850912722
 20
1019.795909122
 11
390.39614
 21
1020.99799065
  0
LINE
  8
0
  6
CONTINUOUS
 62
     1
 10
390.39614
 20
1020.99799065
 11
387.143448807
 21
1017.745299456
  0
LINE
  8
0
  6
LTYPE3
 62
     2
 10
440.524133496
 20
1001.122412808
 11
434.571295458
 21
978.906118803
  0
CIRCLE
  8
0
  6
CONTINUOUS
 62
     1
 10
437.547714477
 20
990.014265805
 40
8.0
  0
LINE
  8
0
  6
CONTINUOUS
 62
     1
 10
433.088727368
 20
988.827912585
 11
436.35714687
 21
985.571007004
  0
LINE
  8
0
  6
CONTINUOUS
 62
     1
 10
436.35714687
 20
985.571007004
 11
440.816133978
 21
986.757360224
  0
LINE
  8
0
  6
CONTINUOUS
 62
     1
 10
440.816133978
 20
986.757360224
 11
442.006701586
 21
991.200619025
  0
LINE
  8
0
  6
CONTINUOUS
 62
     1
 10
442.006701586
 20
991.200619025
 11
438.738282084
 21
994.457524606
  0
LINE
  8
0
  6
CONTINUOUS
 62
     1
 10
438.738282084
 20
994.457524606
 11
434.279294976
 21
993.271171386
  0
LINE
  8
0
  6
CONTINUOUS
 62
     1
 10
434.279294976
 20
993.271171386
 11
433.088727368
 21
988.827912585
  0
LINE
  8
0
  6
LTYPE3
 62
     2
 10
487.629199704
 20
1001.122412808
 11
493.582037742
 21
978.906118803
  0
CIRCLE
  8
0
  6
CONTINUOUS
 62
     1
 10
490.605618723
 20
990.014265805
 40
8.0
  0
LINE
  8
0
  6
CONTINUOUS
 62
     1
 10
487.337199222
 20
986.757360224
 11
491.79618633
 21
985.571007004
  0
LINE
  8
0
  6
CONTINUOUS
 62
     1
 10
491.79618633
 20
985.571007004
 11
495.064605832
 21
988.827912585
  0
LINE
  8
0
  6
CONTINUOUS
 62
     1
 10
495.064605832
 20
988.827912585
 11
493.874038224
 21
993.271171386
  0
LINE
  8
0
  6
CONTINUOUS
 62
     1
 10
493.874038224
 20
993.271171386
 11
489.415051116
 21
994.457524606
  0
LINE
  8
0
  6
CONTINUOUS
 62
     1
 10
489.415051116
 20
994.457524606
 11
486.146631614
 21
991.200619025
  0
LINE
  8
0
  6
CONTINUOUS
 62
     1
 10
486.146631614
 20
991.200619025
 11
487.337199222
 21
986.757360224
  0
LINE
  8
0
  6
LTYPE3
 62
     2
 10
528.423383688
 20
1024.674945912
 11
544.686839655
 21
1008.411489945
  0
CIRCLE
  8
0
  6
CONTINUOUS
 62
     1
 10
536.555111672
 20
1016.543217928
 40
8.0
  0
LINE
  8
0
  6
CONTINUOUS
 62
     1
 10
535.353030144
 20
1012.088445207
 11
539.807802865
 21
1013.290526735
  0
LINE
  8
0
  6
CONTINUOUS
 62
     1
 10
539.807802865
 20
1013.290526735
 11
541.009884393
 21
1017.745299456
  0
LINE
  8
0
  6
CONTINUOUS
 62
     1
 10
541.009884393
 20
1017.745299456
 11
537.7571932
 21
1020.99799065
  0
LINE
  8
0
  6
CONTINUOUS
 62
     1
 10
537.7571932
 20
1020.99799065
 11
533.302420478
 21
1019.795909122
  0
LINE
  8
0
  6
CONTINUOUS
 62
     1
 10
533.302420478
 20
1019.795909122
 11
532.10033895
 21
1015.3411364
  0
LINE
  8
0
  6
CONTINUOUS
 62
     1
 10
532.10033895
 20
1015.3411364
 11
535.353030144
 21
1012.088445207
  0
LINE
  8
0
  6
LTYPE3
 62
     2
 10
551.975916792
 20
1065.469129896
 11
574.192210797
 21
1059.516291858
  0
CIRCLE
  8
0
  6
CONTINUOUS
 62
     1
 10
563.084063795
 20
1062.492710877
 40
8.0
  0
LINE
  8
0
  6
CONTINUOUS
 62
     1
 10
564.270417015
 20
1058.033723768
 11
567.527322596
 21
1061.30214327
  0
LINE
  8
0
  6
CONTINUOUS
 62
     1
 10
567.527322596
 20
1061.30214327
 11
566.340969376
 21
1065.761130378
  0
LINE
  8
0
  6
CONTINUOUS
 62
     1
 10
566.340969376
 20
1065.761130378
 11
561.897710575
 21
1066.951697986
  0
LINE
  8
0
  6
CONTINUOUS
 62
     1
 10
561.897710575
 20
1066.951697986
 11
558.640804994
 21
1063.683278484
  0
LINE
  8
0
  6
CONTINUOUS
 62
     1
 10
558.640804994
 20
1063.683278484
 11
559.827158214
 21
1059.224291376
  0
LINE
  8
0
  6
CONTINUOUS
 62
     1
 10
559.827158214
 20
1059.224291376
 11
564.270417015
 21
1058.033723768
  0
LINE
  8
0
  6
LTYPE3
 62
     2
 10
551.975916792
 20
1112.574196104
 11
574.192210797
 21
1118.527034142
  0
CIRCLE
  8
0
  6
CONTINUOUS
 62
     1
 10
563.084063795
 20
1115.550615123
 40
8.0
  0
LINE
  8
0
  6
CONTINUOUS
 62
     1
 10
566.340969376
 20
1112.282195622
 11
567.527322596
 21
1116.74118273
  0
LINE
  8
0
  6
CONTINUOUS
 62
     1
 10
567.527322596
 20
1116.74118273
 11
564.270417015
 21
1120.009602232
  0
LINE
  8
0
  6
CONTINUOUS
 62
     1
 10
564.270417015
 20
1120.009602232
 11
559.827158214
 21
1118.819034624
  0
LINE
  8
0
  6
CONTINUOUS
 62
     1
 10
559.827158214
 20
1118.819034624
 11
558.640804994
 21
1114.360047516
  0
LINE
  8
0
  6
CONTINUOUS
 62
     1
 10
558.640804994
 20
1114.360047516
 11
561.897710575
 21
1111.091628014
  0
LINE
  8
0
  6
CONTINUOUS
 62
     1
 10
561.897710575
 20
1111.091628014
 11
566.340969376
 21
1112.282195622
  0
LINE
  8
0
  6
LTYPE3
 62
     2
 10
528.423383688
 20
1153.368380088
 11
544.686839655
 21
1169.631836055
  0
CIRCLE
  8
0
  6
CONTINUOUS
 62
     1
 10
536.555111672
 20
1161.500108072
 40
8.0
  0
LINE
  8
0
  6
CONTINUOUS
 62
     1
 10
541.009884393
 20
1160.298026544
 11
539.807802865
 21
1164.752799265
  0
LINE
  8
0
  6
CONTINUOUS
 62
     1
 10
539.807802865
 20
1164.752799265
 11
535.353030144
 21
1165.954880793
  0
LINE
  8
0
  6
CONTINUOUS
 62
     1
 10
535.353030144
 20
1165.954880793
 11
532.10033895
 21
1162.7021896
  0
LINE
  8
0
  6
CONTINUOUS
 62
     1
 10
532.10033895
 20
1162.7021896
 11
533.302420478
 21
1158.247416878
  0
LINE
  8
0
  6
CONTINUOUS
 62
     1
 10
533.302420478
 20
1158.247416878
 11
537.7571932
 21
1157.04533535
  0
LINE
  8
0
  6
CONTINUOUS
 62
     1
 10
537.7571932
 20
1157.04533535
 11
541.009884393
 21
1160.298026544
  0
LINE
  8
0
  6
LTYPE3
 62
     2
 10
487.629199704
 20
1176.920913192
 11
493.582037742
 21
1199.137207197
  0
CIRCLE
  8
0
  6
CONTINUOUS
 62
     1
 10
490.605618723
 20
1188.029060195
 40
8.0
  0
LINE
  8
0
  6
CONTINUOUS
 62
     1
 10
495.064605832
 20
1189.215413415
 11
491.79618633
 21
1192.472318996
  0
LINE
  8
0
  6
CONTINUOUS
 62
     1
 10
491.79618633
 20
1192.472318996
 11
487.337199222
 21
1191.285965776
  0
LINE
  8
0
  6
CONTINUOUS
 62
     1
 10
487.337199222
 20
1191.285965776
 11
486.146631614
 21
1186.842706975
  0
LINE
  8
0
  6
CONTINUOUS
 62
     1
 10
486.146631614
 20
1186.842706975
 11
489.415051116
 21
1183.585801394
  0
LINE
  8
0
  6
CONTINUOUS
 62
     1
 10
489.415051116
 20
1183.585801394
 11
493.874038224
 21
1184.772154614
  0
LINE
  8
0
  6
CONTINUOUS
 62
     1
 10
493.874038224
 20
1184.772154614
 11
495.064605832
 21
1189.215413415
  0
LINE
  8
0
  6
CONTINUOUS
 62
     2
 10
270.0766666
 20
994.031163
 11
238.0766666
 21
994.031163
  0
LINE
  8
0
  6
CONTINUOUS
 62
     2
 10
243.0766666
 20
994.031163
 11
245.664857051
 21
1003.690421263
  0
LINE
  8
0
  6
CONTINUOUS
 62
     2
 10
243.0766666
 20
994.031163
 11
240.488476149
 21
1003.690421263
  0
LINE
  8
0
  6
CONTINUOUS
 62
     2
 10
243.0766666
 20
994.031163
 11
243.0766666
 21
1089.021663
  0
LINE
  8
0
  6
CONTINUOUS
 62
     2
 10
243.0766666
 20
1089.021663
 11
240.488476149
 21
1079.362404737
  0
LINE
  8
0
  6
CONTINUOUS
 62
     2
 10
243.0766666
 20
1089.021663
 11
245.664857051
 21
1079.362404737
  0
LINE
  8
0
  6
CONTINUOUS
 62
     2
 10
323.0766666
 20
1089.021663
 11
238.0766666
 21
1089.021663
  0
TEXT
  8
0
  6
CONTINUOUS
 62
     3
 10
238.0766666
 20
1028.026413
 30
0.0
 40
15.0
  1
９５
 50
90.0
 41
0.9
 51
0.0
  7
KANJI22
  0
LINE
  8
0
  6
CONTINUOUS
 62
     2
 10
252.0766666
 20
1089.021663
 11
238.0766666
 21
1089.021663
  0
LINE
  8
0
  6
CONTINUOUS
 62
     2
 10
243.0766666
 20
1089.021663
 11
245.664857051
 21
1098.680921263
  0
LINE
  8
0
  6
CONTINUOUS
 62
     2
 10
243.0766666
 20
1089.021663
 11
240.488476149
 21
1098.680921263
  0
LINE
  8
0
  6
CONTINUOUS
 62
     2
 10
243.0766666
 20
1089.021663
 11
243.0766666
 21
1184.031163
  0
LINE
  8
0
  6
CONTINUOUS
 62
     2
 10
243.0766666
 20
1184.031163
 11
240.488476149
 21
1174.371904737
  0
LINE
  8
0
  6
CONTINUOUS
 62
     2
 10
243.0766666
 20
1184.031163
 11
245.664857051
 21
1174.371904737
  0
LINE
  8
0
  6
CONTINUOUS
 62
     2
 10
340.0766666
 20
1184.031163
 11
238.0766666
 21
1184.031163
  0
TEXT
  8
0
  6
CONTINUOUS
 62
     3
 10
238.0766666
 20
1123.026413
 30
0.0
 40
15.0
  1
９５
 50
90.0
 41
0.9
 51
0.0
  7
KANJI22
  0
LINE
  8
0
  6
CONTINUOUS
 62
     2
 10
252.5766666
 20
1184.031163
 11
185.5766666
 21
1184.031163
  0
LINE
  8
0
  6
CONTINUOUS
 62
     2
 10
190.5766666
 20
1184.031163
 11
187.988476149
 21
1174.371904737
  0
LINE
  8
0
  6
CONTINUOUS
 62
     2
 10
190.5766666
 20
1184.031163
 11
193.164857051
 21
1174.371904737
  0
LINE
  8
0
  6
CONTINUOUS
 62
     2
 10
190.5766666
 20
1184.031163
 11
190.5766666
 21
994.031163
  0
LINE
  8
0
  6
CONTINUOUS
 62
     2
 10
190.5766666
 20
994.031163
 11
193.164857051
 21
1003.690421263
  0
LINE
  8
0
  6
CONTINUOUS
 62
     2
 10
190.5766666
 20
994.031163
 11
187.988476149
 21
1003.690421263
  0
LINE
  8
0
  6
CONTINUOUS
 62
     2
 10
250.0766666
 20
994.031163
 11
185.5766666
 21
994.031163
  0
TEXT
  8
0
  6
CONTINUOUS
 62
     3
 10
185.5766666
 20
1068.781163
 30
0.0
 40
15.0
  1
１９０
 50
90.0
 41
0.9
 51
0.0
  7
KANJI22
  0
LINE
  8
0
  6
CONTINUOUS
 62
     2
 10
195.0766666
 20
994.031163
 11
185.5766666
 21
994.031163
  0
LINE
  8
0
  6
CONTINUOUS
 62
     2
 10
190.5766666
 20
994.031163
 11
187.988476149
 21
984.371904737
  0
LINE
  8
0
  6
CONTINUOUS
 62
     2
 10
190.5766666
 20
994.031163
 11
193.164857051
 21
984.371904737
  0
LINE
  8
0
  6
CONTINUOUS
 62
     2
 10
190.5766666
 20
994.031163
 11
190.5766666
 21
904.031163
  0
LINE
  8
0
  6
CONTINUOUS
 62
     2
 10
190.5766666
 20
904.031163
 11
193.164857051
 21
913.690421263
  0
LINE
  8
0
  6
CONTINUOUS
 62
     2
 10
190.5766666
 20
904.031163
 11
187.988476149
 21
913.690421263
  0
LINE
  8
0
  6
CONTINUOUS
 62
     2
 10
342.0766666
 20
904.031163
 11
185.5766666
 21
904.031163
  0
TEXT
  8
0
  6
CONTINUOUS
 62
     3
 10
185.5766666
 20
935.531163
 30
0.0
 40
15.0
  1
９０
 50
90.0
 41
0.9
 51
0.0
  7
KANJI22
  0
LINE
  8
0
  6
CONTINUOUS
 62
     2
 10
199.5
 20
1184.031163
 11
138.0
 21
1184.031163
  0
LINE
  8
0
  6
CONTINUOUS
 62
     2
 10
143.0
 20
1184.031163
 11
140.411809549
 21
1174.371904737
  0
LINE
  8
0
  6
CONTINUOUS
 62
     2
 10
143.0
 20
1184.031163
 11
145.588190451
 21
1174.371904737
  0
LINE
  8
0
  6
CONTINUOUS
 62
     2
 10
143.0
 20
1184.031163
 11
143.0
 21
904.031163
  0
LINE
  8
0
  6
CONTINUOUS
 62
     2
 10
143.0
 20
904.031163
 11
145.588190451
 21
913.690421263
  0
LINE
  8
0
  6
CONTINUOUS
 62
     2
 10
143.0
 20
904.031163
 11
140.411809549
 21
913.690421263
  0
LINE
  8
0
  6
CONTINUOUS
 62
     2
 10
201.5
 20
904.031163
 11
138.0
 21
904.031163
  0
TEXT
  8
0
  6
CONTINUOUS
 62
     3
 10
138.0
 20
1023.781163
 30
0.0
 40
15.0
  1
２８０
 50
90.0
 41
0.9
 51
0.0
  7
KANJI22
  0
LINE
  8
0
  6
CONTINUOUS
 62
     2
 10
145.5
 20
904.031163
 11
138.0
 21
904.031163
  0
LINE
  8
0
  6
CONTINUOUS
 62
     2
 10
143.0
 20
904.031163
 11
140.411809549
 21
894.371904737
  0
LINE
  8
0
  6
CONTINUOUS
 62
     2
 10
143.0
 20
904.031163
 11
145.588190451
 21
894.371904737
  0
LINE
  8
0
  6
CONTINUOUS
 62
     2
 10
143.0
 20
904.031163
 11
143.0
 21
869.026163
  0
LINE
  8
0
  6
CONTINUOUS
 62
     2
 10
143.0
 20
869.026163
 11
145.588190451
 21
878.685421263
  0
LINE
  8
0
  6
CONTINUOUS
 62
     2
 10
143.0
 20
869.026163
 11
140.411809549
 21
878.685421263
  0
LINE
  8
0
  6
CONTINUOUS
 62
     2
 10
364.073171995
 20
869.026163
 11
138.0
 21
869.026163
  0
TEXT
  8
0
  6
CONTINUOUS
 62
     3
 10
138.0
 20
873.028663
 30
0.0
 40
15.0
  1
３５
 50
90.0
 41
0.9
 51
0.0
  7
KANJI22
  0
LINE
  8
0
  6
CONTINUOUS
 62
     2
 10
153.5
 20
1184.031163
 11
138.0
 21
1184.031163
  0
LINE
  8
0
  6
CONTINUOUS
 62
     2
 10
143.0
 20
1184.031163
 11
145.588190451
 21
1193.690421263
  0
LINE
  8
0
  6
CONTINUOUS
 62
     2
 10
143.0
 20
1184.031163
 11
140.411809549
 21
1193.690421263
  0
LINE
  8
0
  6
CONTINUOUS
 62
     2
 10
143.0
 20
1184.031163
 11
143.0
 21
1219.026163
  0
LINE
  8
0
  6
CONTINUOUS
 62
     2
 10
143.0
 20
1219.026163
 11
140.411809549
 21
1209.366904737
  0
LINE
  8
0
  6
CONTINUOUS
 62
     2
 10
143.0
 20
1219.026163
 11
145.588190451
 21
1209.366904737
  0
LINE
  8
0
  6
CONTINUOUS
 62
     2
 10
364.073184493
 20
1219.026163
 11
138.0
 21
1219.026163
  0
TEXT
  8
0
  6
CONTINUOUS
 62
     3
 10
138.0
 20
1188.028663
 30
0.0
 40
15.0
  1
３５
 50
90.0
 41
0.9
 51
0.0
  7
KANJI22
  0
LINE
  8
0
  6
CONTINUOUS
 62
     2
 10
284.0766666
 20
973.531163
 11
284.0766666
 21
820.031163
  0
LINE
  8
0
  6
CONTINUOUS
 62
     2
 10
284.0766666
 20
825.031163
 11
293.735924863
 21
822.442972549
  0
LINE
  8
0
  6
CONTINUOUS
 62
     2
 10
284.0766666
 20
825.031163
 11
293.735924863
 21
827.619353451
  0
LINE
  8
0
  6
CONTINUOUS
 62
     2
 10
284.0766666
 20
825.031163
 11
332.0766666
 21
825.031163
  0
LINE
  8
0
  6
CONTINUOUS
 62
     2
 10
332.0766666
 20
825.031163
 11
322.417408337
 21
827.619353451
  0
LINE
  8
0
  6
CONTINUOUS
 62
     2
 10
332.0766666
 20
825.031163
 11
322.417408337
 21
822.442972549
  0
LINE
  8
0
  6
CONTINUOUS
 62
     2
 10
332.0766666
 20
989.031163
 11
332.0766666
 21
820.031163
  0
TEXT
  8
0
  6
CONTINUOUS
 62
     3
 10
294.5766666
 20
830.031163
 30
0.0
 40
15.0
  1
４８
 50
0.0
 41
0.9
 51
0.0
  7
KANJI22
  0
LINE
  8
0
  6
CONTINUOUS
 62
     2
 10
596.0766666
 20
989.031163
 11
596.0766666
 21
820.031163
  0
LINE
  8
0
  6
CONTINUOUS
 62
     2
 10
596.0766666
 20
825.031163
 11
605.735924863
 21
822.442972549
  0
LINE
  8
0
  6
CONTINUOUS
 62
     2
 10
596.0766666
 20
825.031163
 11
605.735924863
 21
827.619353451
  0
LINE
  8
0
  6
CONTINUOUS
 62
     2
 10
596.0766666
 20
825.031163
 11
644.0766666
 21
825.031163
  0
LINE
  8
0
  6
CONTINUOUS
 62
     2
 10
644.0766666
 20
825.031163
 11
634.417408337
 21
827.619353451
  0
LINE
  8
0
  6
CONTINUOUS
 62
     2
 10
644.0766666
 20
825.031163
 11
634.417408337
 21
822.442972549
  0
LINE
  8
0
  6
CONTINUOUS
 62
     2
 10
644.0766666
 20
973.531163
 11
644.0766666
 21
820.031163
  0
TEXT
  8
0
  6
CONTINUOUS
 62
     3
 10
606.5766666
 20
830.031163
 30
0.0
 40
15.0
  1
４８
 50
0.0
 41
0.9
 51
0.0
  7
KANJI22
  0
LINE
  8
0
  6
CONTINUOUS
 62
     2
 10
284.0766666
 20
829.031163
 11
284.0766666
 21
768.531163
  0
LINE
  8
0
  6
CONTINUOUS
 62
     2
 10
284.0766666
 20
773.531163
 11
293.735924863
 21
770.942972549
  0
LINE
  8
0
  6
CONTINUOUS
 62
     2
 10
284.0766666
 20
773.531163
 11
293.735924863
 21
776.119353451
  0
LINE
  8
0
  6
CONTINUOUS
 62
     2
 10
284.0766666
 20
773.531163
 11
334.0766666
 21
773.531163
  0
LINE
  8
0
  6
CONTINUOUS
 62
     2
 10
334.0766666
 20
773.531163
 11
324.417408337
 21
776.119353451
  0
LINE
  8
0
  6
CONTINUOUS
 62
     2
 10
334.0766666
 20
773.531163
 11
324.417408337
 21
770.942972549
  0
LINE
  8
0
  6
CONTINUOUS
 62
     2
 10
334.0766666
 20
899.02267379
 11
334.0766666
 21
768.531163
  0
TEXT
  8
0
  6
CONTINUOUS
 62
     3
 10
295.5766666
 20
778.531163
 30
0.0
 40
15.0
  1
５０
 50
0.0
 41
0.9
 51
0.0
  7
KANJI22
  0
LINE
  8
0
  6
CONTINUOUS
 62
     2
 10
644.0766666
 20
827.457605841
 11
644.0766666
 21
768.531163
  0
LINE
  8
0
  6
CONTINUOUS
 62
     2
 10
644.0766666
 20
773.531163
 11
634.417408337
 21
776.119353451
  0
LINE
  8
0
  6
CONTINUOUS
 62
     2
 10
644.0766666
 20
773.531163
 11
634.417408337
 21
770.942972549
  0
LINE
  8
0
  6
CONTINUOUS
 62
     2
 10
644.0766666
 20
773.531163
 11
594.0766666
 21
773.531163
  0
LINE
  8
0
  6
CONTINUOUS
 62
     2
 10
594.0766666
 20
773.531163
 11
603.735924863
 21
770.942972549
  0
LINE
  8
0
  6
CONTINUOUS
 62
     2
 10
594.0766666
 20
773.531163
 11
603.735924863
 21
776.119353451
  0
LINE
  8
0
  6
CONTINUOUS
 62
     2
 10
594.0766666
 20
899.022663
 11
594.0766666
 21
768.531163
  0
TEXT
  8
0
  6
CONTINUOUS
 62
     3
 10
605.5766666
 20
778.531163
 30
0.0
 40
15.0
  1
５０
 50
0.0
 41
0.9
 51
0.0
  7
KANJI22
  0
LINE
  8
0
  6
CONTINUOUS
 62
     2
 10
369.0766666
 20
1210.022663
 11
369.0766666
 21
1276.022663
  0
LINE
  8
0
  6
CONTINUOUS
 62
     2
 10
369.0766666
 20
1271.022663
 11
378.735924863
 21
1268.434472549
  0
LINE
  8
0
  6
CONTINUOUS
 62
     2
 10
369.0766666
 20
1271.022663
 11
378.735924863
 21
1273.610853451
  0
LINE
  8
0
  6
CONTINUOUS
 62
     2
 10
369.0766666
 20
1271.022663
 11
559.0766666
 21
1271.022663
  0
LINE
  8
0
  6
CONTINUOUS
 62
     2
 10
559.0766666
 20
1271.022663
 11
549.417408337
 21
1273.610853451
  0
LINE
  8
0
  6
CONTINUOUS
 62
     2
 10
559.0766666
 20
1271.022663
 11
549.417408337
 21
1268.434472549
  0
LINE
  8
0
  6
CONTINUOUS
 62
     2
 10
559.0766666
 20
1212.022663
 11
559.0766666
 21
1276.022663
  0
TEXT
  8
0
  6
CONTINUOUS
 62
     3
 10
443.8266666
 20
1276.022663
 30
0.0
 40
15.0
  1
１９０
 50
0.0
 41
0.9
 51
0.0
  7
KANJI22
  0
LINE
  8
0
  6
CONTINUOUS
 62
     2
 10
334.0766666
 20
1189.029663
 11
334.0766666
 21
1326.934472549
  0
LINE
  8
0
  6
CONTINUOUS
 62
     2
 10
334.0766666
 20
1321.934472549
 11
343.735924863
 21
1319.346282098
  0
LINE
  8
0
  6
CONTINUOUS
 62
     2
 10
334.0766666
 20
1321.934472549
 11
343.735924863
 21
1324.522663
  0
LINE
  8
0
  6
CONTINUOUS
 62
     2
 10
334.0766666
 20
1321.934472549
 11
594.0766666
 21
1321.934472549
  0
LINE
  8
0
  6
CONTINUOUS
 62
     2
 10
594.0766666
 20
1321.934472549
 11
584.417408337
 21
1324.522663
  0
LINE
  8
0
  6
CONTINUOUS
 62
     2
 10
594.0766666
 20
1321.934472549
 11
584.417408337
 21
1319.346282098
  0
LINE
  8
0
  6
CONTINUOUS
 62
     2
 10
594.0766666
 20
1189.029663
 11
594.0766666
 21
1326.934472549
  0
TEXT
  8
0
  6
CONTINUOUS
 62
     3
 10
443.8266666
 20
1326.934472549
 30
0.0
 40
15.0
  1
２６０
 50
0.0
 41
0.9
 51
0.0
  7
KANJI22
  0
LINE
  8
0
  6
CONTINUOUS
 62
     2
 10
358.0
 20
1197.0
 11
354.438178622
 21
1206.344165478
  0
LINE
  8
0
  6
CONTINUOUS
 62
     2
 10
358.0
 20
1197.0
 11
350.243289464
 21
1203.311373992
  0
LINE
  8
0
  6
CONTINUOUS
 62
     2
 10
358.0
 20
1197.0
 11
304.5
 21
1271.0
  0
LINE
  8
0
  6
CONTINUOUS
 62
     2
 10
304.5
 20
1271.0
 11
204.5
 21
1271.0
  0
TEXT
  8
0
  6
CONTINUOUS
 62
     3
 10
220.0
 20
1276.0
 30
0.0
 40
15.0
  1
４－φ３３
 50
0.0
 41
0.9
 51
0.0
  7
KANJI22
  0
LINE
  8
0
  6
CONTINUOUS
 62
     2
 10
101.573184493
 20
1219.026163
 11
98.984994041
 21
1209.366904737
  0
LINE
  8
0
  6
CONTINUOUS
 62
     2
 10
101.573184493
 20
1219.026163
 11
104.161374944
 21
1209.366904737
  0
LINE
  8
0
  6
CONTINUOUS
 62
     2
 10
101.573184493
 20
1219.026163
 11
101.573184493
 21
869.026163
  0
TEXT
  8
0
  6
CONTINUOUS
 62
     3
 10
96.573184493
 20
1023.776163
 30
0.0
 40
15.0
  1
３５０
 50
90.0
 41
0.9
 51
0.0
  7
KANJI22
  0
LINE
  8
0
  6
CONTINUOUS
 62
     2
 10
101.573184493
 20
869.026163
 11
104.161374944
 21
878.685421263
  0
LINE
  8
0
  6
CONTINUOUS
 62
     2
 10
101.573184493
 20
869.026163
 11
98.984994041
 21
878.685421263
  0
LINE
  8
0
  6
CONTINUOUS
 62
     2
 10
149.073184493
 20
1219.026163
 11
93.573184493
 21
1219.026163
  0
LINE
  8
0
  6
CONTINUOUS
 62
     2
 10
147.573184493
 20
869.026163
 11
93.573184493
 21
869.026163
  0
LINE
  8
0
  6
CONTINUOUS
 62
     2
 10
712.4766666
 20
1027.121663
 11
712.4766666
 21
666.522663
  0
LINE
  8
0
  6
CONTINUOUS
 62
     2
 10
712.4766666
 20
671.522663
 11
722.135924863
 21
668.934472549
  0
LINE
  8
0
  6
CONTINUOUS
 62
     2
 10
712.4766666
 20
671.522663
 11
722.135924863
 21
674.110853451
  0
TEXT
  8
2
  6
CONTINUOUS
 62
     5
 10
1873.3
 20
1155.1
 30
0.0
 40
16.0
  1
ＢＪ３０ＨＩＮ－
 50
0.0
 41
0.71875
 51
0.0
  7
KANJI17
  0
LINE
  8
0
  6
CONTINUOUS
 62
     2
 10
1020.4766666
 20
1183.021663
 11
1015.4766666
 21
1183.021663
  0
CIRCLE
  8
0
  6
CONTINUOUS
 62
     1
 10
464.0766666
 20
1089.021663
 40
94.0
  0
CIRCLE
  8
0
  6
CONTINUOUS
 62
     1
 10
464.0766666
 20
1089.021663
 40
57.5
  0
LINE
  8
6
  6
LTYPE2
 62
     2
 10
337.730149234
 20
346.576382688
 11
436.527562819
 21
346.576382688
  0
LINE
  8
6
  6
LTYPE2
 62
     2
 10
388.08
 20
400.004442694
 11
388.08
 21
290.825367413
  0
ARC
  8
0
  6
CONTINUOUS
 62
     1
 10
388.08
 20
346.576382688
 40
43.75
 50
90.634781401
 51
73.398450401
  0
POLYLINE
  8
0
  6
CONTINUOUS
 62
     1
 66
     1
  0
VERTEX
  8
0
  6
CONTINUOUS
 62
     1
 10
375.58
 20
399.076382688
  0
VERTEX
  8
0
  6
CONTINUOUS
 62
     1
 10
375.58
 20
379.076382688
  0
VERTEX
  8
0
  6
CONTINUOUS
 62
     1
 10
400.58
 20
379.076382688
  0
SEQEND
  0
LINE
  8
0
  6
CONTINUOUS
 62
     1
 10
400.58
 20
399.076382688
 11
400.58
 21
379.076382688
  0
LINE
  8
0
  6
CONTINUOUS
 62
     1
 10
375.58
 20
399.076382688
 11
400.58
 21
399.076382688
  0
LINE
  8
0
  6
CONTINUOUS
 62
     2
 10
282.36
 20
240.886382688
 11
507.36
 21
240.886382688
  0
TEXT
  8
0
  6
CONTINUOUS
 62
     3
 10
282.36
 20
242.886382688
 30
0.0
 40
25.0
  1
入力軸　Ｓ＝１／２
 50
0.0
 41
1.0
 51
0.0
  7
KANJI23
  0
TEXT
  8
0
  6
CONTINUOUS
 62
     3
 10
1403.7666945
 20
125.249995
 30
5.0
 40
17.5
  1
竹下
 50
0.0
 41
0.857142857
 51
0.0
  7
KANJI24
  0
TEXT
  8
0
  6
CONTINUOUS
 62
     3
 10
1380.4666945
 20
88.899995
 30
1.5
 40
17.5
  1
０７．０５．２５
 50
0.0
 41
0.571428571
 51
0.0
  7
KANJI25
  0
TEXT
  8
0
  6
CONTINUOUS
 62
     5
 10
1864.1
 20
947.185
 30
-0.5
 40
16.0
  1
１６６．６Ｎ．ｍ（１７ｋｇｆ．ｍ）
 50
0.0
 41
0.53125
 51
0.0
  7
KANJI26
  0
TEXT
  8
2
  6
CONTINUOUS
 62
     5
 10
1863.5
 20
840.95
 30
0.0
 40
16.0
  1
１０３９Ｎ．ｍ（１０６ｋｇｆ．ｍ）
 50
0.0
 41
0.53125
 51
0.0
  7
KANJI27
  0
TEXT
  8
3
  6
CONTINUOUS
 62
     3
 10
755.25
 20
402.05
 30
0.0
 40
16.0
  1
　　５００
 50
0.0
 41
0.78125
 51
0.0
  7
KANJI28
  0
LINE
  8
3
  6
CONTINUOUS
 62
     2
 10
606.5
 20
604.0
 11
1256.5
 21
604.0
  0
LINE
  8
3
  6
CONTINUOUS
 62
     2
 10
606.5
 20
499.0
 11
1256.5
 21
499.0
  0
LINE
  8
3
  6
CONTINUOUS
 62
     2
 10
606.5
 20
359.0
 11
1256.5
 21
359.0
  0
LINE
  8
3
  6
CONTINUOUS
 62
     2
 10
606.5
 20
394.0
 11
1256.5
 21
394.0
  0
LINE
  8
3
  6
CONTINUOUS
 62
     2
 10
606.5
 20
429.0
 11
1256.5
 21
429.0
  0
TEXT
  8
3
  6
CONTINUOUS
 62
     3
 10
650.0
 20
577.9
 30
50.0
 40
16.0
  1
型式
 50
0.0
 41
1.0
 51
0.0
  7
KANJI29
  0
TEXT
  8
3
  6
CONTINUOUS
 62
     3
 10
1033.75
 20
402.05
 30
0.0
 40
16.0
  1
６２０
 50
0.0
 41
0.78125
 51
0.0
  7
KANJI28
  0
TEXT
  8
3
  6
CONTINUOUS
 62
     3
 10
937.75
 20
401.1
 30
0.0
 40
16.0
  1
１１２０
 50
0.0
 41
0.78125
 51
0.0
  7
KANJI28
  0
TEXT
  8
3
  6
CONTINUOUS
 62
     3
 10
612.25
 20
401.9
 30
0.0
 40
16.0
  1
ＢＪ３０ＨＩＮ－　　５
 50
0.0
 41
0.78125
 51
0.0
  7
KANJI28
  0
TEXT
  8
3
  6
CONTINUOUS
 62
     3
 10
1108.25
 20
403.1
 30
0.0
 40
16.0
  1
１４５
 50
0.0
 41
0.78125
 51
0.0
  7
KANJI28
  0
TEXT
  8
3
  6
CONTINUOUS
 62
     3
 10
755.25
 20
542.05
 30
0.0
 40
16.0
  1
　　１００
 50
0.0
 41
0.78125
 51
0.0
  7
KANJI28
  0
TEXT
  8
3
  6
CONTINUOUS
 62
     3
 10
755.25
 20
507.05
 30
0.0
 40
16.0
  1
　　２００
 50
0.0
 41
0.78125
 51
0.0
  7
KANJI28
  0
TEXT
  8
3
  6
CONTINUOUS
 62
     3
 10
762.75
 20
577.65
 30
0.0
 40
16.0
  1
ストローク
 50
0.0
 41
0.78125
 51
0.0
  7
KANJI28
  0
TEXT
  8
3
  6
CONTINUOUS
 62
     3
 10
847.75
 20
578.6
 30
0.0
 40
16.0
  1
ｍｉｎ　ＬＩ
 50
0.0
 41
0.78125
 51
0.0
  7
KANJI28
  0
TEXT
  8
3
  6
CONTINUOUS
 62
     3
 10
1105.0
 20
576.95
 30
0.0
 40
16.0
  1
概略重量
 50
0.0
 41
0.5625
 51
0.0
  7
KANJI30
  0
TEXT
  8
3
  6
CONTINUOUS
 62
     3
 10
1145.2
 20
577.3
 30
0.0
 40
12.5
  1
（ｋｇ）
 50
0.0
 41
0.6
 51
0.0
  7
KANJI31
  0
LINE
  8
3
  6
CONTINUOUS
 62
     2
 10
606.5
 20
569.0
 11
1256.5
 21
569.0
  0
LINE
  8
3
  6
CONTINUOUS
 62
     2
 10
606.5
 20
534.0
 11
1256.5
 21
534.0
  0
TEXT
  8
3
  6
CONTINUOUS
 62
     3
 10
954.5
 20
579.1
 30
0.0
 40
16.0
  1
ＬＤ
 50
0.0
 41
1.0
 51
0.0
  7
KANJI32
  0
TEXT
  8
3
  6
CONTINUOUS
 62
     3
 10
1034.0
 20
578.6
 30
0.0
 40
16.0
  1
ＬＢ
 50
0.0
 41
1.0
 51
0.0
  7
KANJI32
  0
TEXT
  8
3
  6
CONTINUOUS
 62
     3
 10
1033.75
 20
542.05
 30
0.0
 40
16.0
  1
６２０
 50
0.0
 41
0.78125
 51
0.0
  7
KANJI28
  0
TEXT
  8
3
  6
CONTINUOUS
 62
     3
 10
1033.75
 20
507.05
 30
0.0
 40
16.0
  1
６２０
 50
0.0
 41
0.78125
 51
0.0
  7
KANJI28
  0
TEXT
  8
3
  6
CONTINUOUS
 62
     3
 10
937.75
 20
541.1
 30
0.0
 40
16.0
  1
　７２０
 50
0.0
 41
0.78125
 51
0.0
  7
KANJI28
  0
TEXT
  8
3
  6
CONTINUOUS
 62
     3
 10
937.75
 20
506.1
 30
0.0
 40
16.0
  1
　８２０
 50
0.0
 41
0.78125
 51
0.0
  7
KANJI28
  0
TEXT
  8
3
  6
CONTINUOUS
 62
     3
 10
612.25
 20
541.9
 30
0.0
 40
16.0
  1
ＢＪ３０ＨＩＮ－　　１
 50
0.0
 41
0.78125
 51
0.0
  7
KANJI28
  0
TEXT
  8
3
  6
CONTINUOUS
 62
     3
 10
612.25
 20
506.9
 30
0.0
 40
16.0
  1
ＢＪ３０ＨＩＮ－　　２
 50
0.0
 41
0.78125
 51
0.0
  7
KANJI28
  0
TEXT
  8
3
  6
CONTINUOUS
 62
     3
 10
1108.25
 20
543.1
 30
0.0
 40
16.0
  1
１３０
 50
0.0
 41
0.78125
 51
0.0
  7
KANJI28
  0
TEXT
  8
3
  6
CONTINUOUS
 62
     3
 10
1108.25
 20
508.1
 30
0.0
 40
16.0
  1
１３４
 50
0.0
 41
0.78125
 51
0.0
  7
KANJI28
  0
TEXT
  8
3
  6
CONTINUOUS
 62
     3
 10
612.25
 20
296.9
 30
0.0
 40
16.0
  1
ＢＪ３０ＨＩＮ－　　８
 50
0.0
 41
0.78125
 51
0.0
  7
KANJI28
  0
TEXT
  8
3
  6
CONTINUOUS
 62
     3
 10
755.25
 20
297.05
 30
0.0
 40
16.0
  1
　　８００
 50
0.0
 41
0.78125
 51
0.0
  7
KANJI28
  0
TEXT
  8
3
  6
CONTINUOUS
 62
     3
 10
1033.75
 20
297.05
 30
0.0
 40
16.0
  1
６２０
 50
0.0
 41
0.78125
 51
0.0
  7
KANJI28
  0
LINE
  8
3
  6
CONTINUOUS
 62
     2
 10
606.5
 20
289.0
 11
1256.5
 21
289.0
  0
LINE
  8
3
  6
CONTINUOUS
 62
     2
 10
606.5
 20
324.0
 11
1256.5
 21
324.0
  0
TEXT
  8
3
  6
CONTINUOUS
 62
     3
 10
1033.75
 20
262.05
 30
0.0
 40
16.0
  1
６２０
 50
0.0
 41
0.78125
 51
0.0
  7
KANJI28
  0
LINE
  8
3
  6
CONTINUOUS
 62
     2
 10
606.5
 20
254.0
 11
1256.5
 21
254.0
  0
TEXT
  8
3
  6
CONTINUOUS
 62
     3
 10
611.5
 20
226.9
 30
0.0
 40
16.0
  1
ＢＪ３０ＨＩＮ－　１０
 50
0.0
 41
0.78125
 51
0.0
  7
KANJI28
  0
TEXT
  8
3
  6
CONTINUOUS
 62
     3
 10
768.4
 20
228.0
 30
0.0
 40
16.0
  1
１０００
 50
0.0
 41
0.78125
 51
0.0
  7
KANJI28
  0
TEXT
  8
3
  6
CONTINUOUS
 62
     3
 10
1033.75
 20
227.05
 30
0.0
 40
16.0
  1
６２０
 50
0.0
 41
0.78125
 51
0.0
  7
KANJI28
  0
LINE
  8
3
  6
CONTINUOUS
 62
     2
 10
606.5
 20
219.0
 11
1256.5
 21
219.0
  0
TEXT
  8
3
  6
CONTINUOUS
 62
     3
 10
611.5
 20
261.9
 30
0.0
 40
16.0
  1
ＢＪ３０ＨＩＮ－　　９
 50
0.0
 41
0.78125
 51
0.0
  7
KANJI28
  0
TEXT
  8
3
  6
CONTINUOUS
 62
     3
 10
755.25
 20
367.05
 30
0.0
 40
16.0
  1
　　６００
 50
0.0
 41
0.78125
 51
0.0
  7
KANJI28
  0
TEXT
  8
3
  6
CONTINUOUS
 62
     3
 10
1033.75
 20
367.05
 30
0.0
 40
16.0
  1
６２０
 50
0.0
 41
0.78125
 51
0.0
  7
KANJI28
  0
TEXT
  8
3
  6
CONTINUOUS
 62
     3
 10
938.8
 20
366.05
 30
0.0
 40
16.0
  1
１２２０
 50
0.0
 41
0.78125
 51
0.0
  7
KANJI28
  0
TEXT
  8
3
  6
CONTINUOUS
 62
     3
 10
612.25
 20
366.9
 30
0.0
 40
16.0
  1
ＢＪ３０ＨＩＮ－　　６
 50
0.0
 41
0.78125
 51
0.0
  7
KANJI28
  0
TEXT
  8
3
  6
CONTINUOUS
 62
     3
 10
755.25
 20
472.05
 30
0.0
 40
16.0
  1
　　３００
 50
0.0
 41
0.78125
 51
0.0
  7
KANJI28
  0
TEXT
  8
3
  6
CONTINUOUS
 62
     3
 10
755.25
 20
437.05
 30
0.0
 40
16.0
  1
　　４００
 50
0.0
 41
0.78125
 51
0.0
  7
KANJI28
  0
LINE
  8
3
  6
CONTINUOUS
 62
     2
 10
606.5
 20
464.0
 11
1256.5
 21
464.0
  0
TEXT
  8
3
  6
CONTINUOUS
 62
     3
 10
1033.75
 20
472.05
 30
0.0
 40
16.0
  1
６２０
 50
0.0
 41
0.78125
 51
0.0
  7
KANJI28
  0
TEXT
  8
3
  6
CONTINUOUS
 62
     3
 10
1033.75
 20
437.05
 30
0.0
 40
16.0
  1
６２０
 50
0.0
 41
0.78125
 51
0.0
  7
KANJI28
  0
TEXT
  8
3
  6
CONTINUOUS
 62
     3
 10
937.75
 20
471.1
 30
0.0
 40
16.0
  1
　９２０
 50
0.0
 41
0.78125
 51
0.0
  7
KANJI28
  0
TEXT
  8
3
  6
CONTINUOUS
 62
     3
 10
937.75
 20
436.1
 30
0.0
 40
16.0
  1
１０２０
 50
0.0
 41
0.78125
 51
0.0
  7
KANJI28
  0
TEXT
  8
3
  6
CONTINUOUS
 62
     3
 10
612.25
 20
471.9
 30
0.0
 40
16.0
  1
ＢＪ３０ＨＩＮ－　　３
 50
0.0
 41
0.78125
 51
0.0
  7
KANJI28
  0
TEXT
  8
3
  6
CONTINUOUS
 62
     3
 10
612.25
 20
436.9
 30
0.0
 40
16.0
  1
ＢＪ３０ＨＩＮ－　　４
 50
0.0
 41
0.78125
 51
0.0
  7
KANJI28
  0
TEXT
  8
3
  6
CONTINUOUS
 62
     3
 10
1108.25
 20
473.1
 30
0.0
 40
16.0
  1
１４０
 50
0.0
 41
0.78125
 51
0.0
  7
KANJI28
  0
TEXT
  8
3
  6
CONTINUOUS
 62
     3
 10
1033.75
 20
332.05
 30
0.0
 40
16.0
  1
６２０
 50
0.0
 41
0.78125
 51
0.0
  7
KANJI28
  0
TEXT
  8
3
  6
CONTINUOUS
 62
     3
 10
612.25
 20
331.9
 30
0.0
 40
16.0
  1
ＢＪ３０ＨＩＮ－　　７
 50
0.0
 41
0.78125
 51
0.0
  7
KANJI28
  0
TEXT
  8
3
  6
CONTINUOUS
 62
     3
 10
755.25
 20
332.05
 30
0.0
 40
16.0
  1
　　７００
 50
0.0
 41
0.78125
 51
0.0
  7
KANJI28
  0
TEXT
  8
3
  6
CONTINUOUS
 62
     3
 10
938.8
 20
331.05
 30
0.0
 40
16.0
  1
１３２０
 50
0.0
 41
0.78125
 51
0.0
  7
KANJI28
  0
TEXT
  8
3
  6
CONTINUOUS
 62
     3
 10
938.8
 20
296.05
 30
0.0
 40
16.0
  1
１４２０
 50
0.0
 41
0.78125
 51
0.0
  7
KANJI28
  0
TEXT
  8
3
  6
CONTINUOUS
 62
     3
 10
938.4
 20
262.05
 30
0.0
 40
16.0
  1
１５２０
 50
0.0
 41
0.78125
 51
0.0
  7
KANJI28
  0
TEXT
  8
3
  6
CONTINUOUS
 62
     3
 10
938.4
 20
227.05
 30
0.0
 40
16.0
  1
１６２０
 50
0.0
 41
0.78125
 51
0.0
  7
KANJI28
  0
TEXT
  8
3
  6
CONTINUOUS
 62
     3
 10
768.4
 20
263.0
 30
0.0
 40
16.0
  1
　９００
 50
0.0
 41
0.78125
 51
0.0
  7
KANJI28
  0
LINE
  8
3
  6
CONTINUOUS
 62
     2
 10
1256.5
 20
219.0
 11
1256.5
 21
604.0
  0
LINE
  8
3
  6
CONTINUOUS
 62
     2
 10
1181.5
 20
219.0
 11
1181.5
 21
604.0
  0
LINE
  8
3
  6
CONTINUOUS
 62
     2
 10
1096.5
 20
219.0
 11
1096.5
 21
604.0
  0
LINE
  8
3
  6
CONTINUOUS
 62
     2
 10
1011.5
 20
219.0
 11
1011.5
 21
604.0
  0
LINE
  8
3
  6
CONTINUOUS
 62
     2
 10
926.5
 20
219.0
 11
926.5
 21
604.0
  0
LINE
  8
3
  6
CONTINUOUS
 62
     2
 10
841.5
 20
219.0
 11
841.5
 21
604.0
  0
LINE
  8
3
  6
CONTINUOUS
 62
     2
 10
756.5
 20
219.0
 11
756.5
 21
604.0
  0
LINE
  8
3
  6
CONTINUOUS
 62
     2
 10
606.5
 20
219.0
 11
606.5
 21
604.0
  0
TEXT
  8
3
  6
CONTINUOUS
 62
     3
 10
1199.05
 20
577.65
 30
0.0
 40
16.0
  1
備考
 50
0.0
 41
1.0
 51
0.0
  7
KANJI32
  0
TEXT
  8
3
  6
CONTINUOUS
 62
     3
 10
1108.25
 20
228.1
 30
0.0
 40
16.0
  1
１６６
 50
0.0
 41
0.78125
 51
0.0
  7
KANJI28
  0
TEXT
  8
3
  6
CONTINUOUS
 62
     3
 10
1108.25
 20
333.1
 30
0.0
 40
16.0
  1
１５７
 50
0.0
 41
0.78125
 51
0.0
  7
KANJI28
  0
TEXT
  8
3
  6
CONTINUOUS
 62
     3
 10
1108.25
 20
438.1
 30
0.0
 40
16.0
  1
１４３
 50
0.0
 41
0.78125
 51
0.0
  7
KANJI28
  0
TEXT
  8
3
  6
CONTINUOUS
 62
     3
 10
1108.25
 20
368.1
 30
0.0
 40
16.0
  1
１５１
 50
0.0
 41
0.78125
 51
0.0
  7
KANJI28
  0
TEXT
  8
3
  6
CONTINUOUS
 62
     3
 10
1108.25
 20
298.1
 30
0.0
 40
16.0
  1
１６０
 50
0.0
 41
0.78125
 51
0.0
  7
KANJI28
  0
TEXT
  8
3
  6
CONTINUOUS
 62
     3
 10
1108.25
 20
263.1
 30
0.0
 40
16.0
  1
１６３
 50
0.0
 41
0.78125
 51
0.0
  7
KANJI28
  0
LINE
  8
0
  6
CONTINUOUS
 62
     1
 10
962.4766666
 20
1183.021663
 11
962.4766666
 21
995.021663
  0
LINE
  8
0
  6
CONTINUOUS
 62
     1
 10
1186.9766666
 20
1183.021663
 11
937.4766666
 21
1183.021663
  0
LINE
  8
0
  6
CONTINUOUS
 62
     1
 10
932.4766666
 20
1178.021663
 11
937.4766666
 21
1183.021663
  0
LINE
  8
0
  6
CONTINUOUS
 62
     1
 10
932.4766666
 20
1178.021663
 11
932.4766666
 21
1000.021663
  0
LINE
  8
0
  6
CONTINUOUS
 62
     1
 10
922.4766666
 20
1176.521663
 11
922.4766666
 21
1001.521663
  0
LINE
  8
0
  6
CONTINUOUS
 62
     1
 10
922.4766666
 20
1176.521663
 11
932.4766666
 21
1176.521663
  0
LINE
  8
0
  6
CONTINUOUS
 62
     1
 10
922.4766666
 20
1170.221663
 11
922.4766666
 21
1151.821663
  0
LINE
  8
0
  6
CONTINUOUS
 62
     1
 10
919.9766666
 20
1151.821663
 11
919.9766666
 21
1170.221663
  0
LINE
  8
0
  6
CONTINUOUS
 62
     1
 10
919.9766666
 20
1170.221663
 11
922.4766666
 21
1170.221663
  0
LINE
  8
0
  6
CONTINUOUS
 62
     1
 10
919.9766666
 20
1161.021663
 11
922.4766666
 21
1159.578287327
  0
LINE
  8
0
  6
CONTINUOUS
 62
     1
 10
922.4766666
 20
1161.021663
 11
919.9766666
 21
1162.465038673
  0
LINE
  8
0
  6
CONTINUOUS
 62
     1
 10
919.9766666
 20
1169.021663
 11
919.9766666
 21
1153.021663
  0
LINE
  8
0
  6
CONTINUOUS
 62
     1
 10
919.9766666
 20
1153.021663
 11
910.5766666
 21
1153.021663
  0
LINE
  8
0
  6
CONTINUOUS
 62
     1
 10
909.9766666
 20
1168.021663
 11
909.9766666
 21
1154.021663
  0
LINE
  8
0
  6
CONTINUOUS
 62
     1
 10
919.9766666
 20
1169.021663
 11
910.5766666
 21
1169.021663
  0
LINE
  8
0
  6
CONTINUOUS
 62
     1
 10
910.5766666
 20
1169.021663
 11
909.9766666
 21
1168.021663
  0
LINE
  8
0
  6
CONTINUOUS
 62
     1
 10
909.9766666
 20
1154.021663
 11
910.5766666
 21
1153.021663
  0
LINE
  8
0
  6
LTYPE2
 62
     2
 10
904.1066666
 20
1161.021663
 11
938.6266666
 21
1161.021663
  0
LINE
  8
0
  6
CONTINUOUS
 62
     1
 10
922.4766666
 20
1151.821663
 11
919.9766666
 21
1151.821663
  0
LINE
  8
0
  6
CONTINUOUS
 62
     2
 10
856.470226335
 20
1031.521663
 11
856.470226335
 21
1146.521663
  0
LINE
  8
0
  6
CONTINUOUS
 62
     2
 10
856.470226335
 20
1146.521663
 11
853.546509287
 21
1136.95861544
  0
LINE
  8
0
  6
CONTINUOUS
 62
     2
 10
856.470226335
 20
1146.521663
 11
859.393943382
 21
1136.95861544
  0
LINE
  8
0
  6
CONTINUOUS
 62
     2
 10
860.290226335
 20
1146.521663
 11
851.470226335
 21
1146.521663
  0
LINE
  8
0
  6
CONTINUOUS
 62
     2
 10
932.4766666
 20
991.022663
 11
932.4766666
 21
719.022663
  0
LINE
  8
0
  6
CONTINUOUS
 62
     2
 10
1067.4766666
 20
995.021663
 11
1065.4766666
 21
995.021663
  0
LINE
  8
0
  6
CONTINUOUS
 62
     2
 10
1070.4766666
 20
995.021663
 11
1073.400383647
 21
1004.58471056
  0
LINE
  8
0
  6
CONTINUOUS
 62
     2
 10
1070.4766666
 20
995.021663
 11
1067.552949553
 21
1004.58471056
  0
LINE
  8
0
  6
CONTINUOUS
 62
     2
 10
1070.4766666
 20
995.021663
 11
1070.4766666
 21
1183.021663
  0
TEXT
  8
0
  6
CONTINUOUS
 62
     3
 10
1067.9766666
 20
1062.021663
 30
0.0
 40
15.0
  1
φ１８８
 50
90.0
 41
0.9
 51
0.0
  7
KANJI22
  0
LINE
  8
0
  6
CONTINUOUS
 62
     2
 10
856.470226335
 20
1031.521663
 11
859.393943382
 21
1041.08471056
  0
LINE
  8
0
  6
CONTINUOUS
 62
     2
 10
856.470226335
 20
1031.521663
 11
853.546509287
 21
1041.08471056
  0
TEXT
  8
0
  6
CONTINUOUS
 62
     3
 10
853.970226335
 20
1062.021663
 30
0.0
 40
15.0
  1
φ１１５
 50
90.0
 41
0.9
 51
0.0
  7
KANJI22
  0
LINE
  8
0
  6
CONTINUOUS
 62
     1
 10
1186.9766666
 20
995.021663
 11
937.4766666
 21
995.021663
  0
LINE
  8
0
  6
CONTINUOUS
 62
     1
 10
932.4766666
 20
1000.021663
 11
937.4766666
 21
995.021663
  0
LINE
  8
0
  6
CONTINUOUS
 62
     1
 10
922.4766666
 20
1001.521663
 11
932.4766666
 21
1001.521663
  0
LINE
  8
0
  6
CONTINUOUS
 62
     1
 10
922.4766666
 20
1026.221663
 11
919.9766666
 21
1026.221663
  0
LINE
  8
0
  6
CONTINUOUS
 62
     1
 10
919.9766666
 20
1026.221663
 11
919.9766666
 21
1007.821663
  0
LINE
  8
0
  6
CONTINUOUS
 62
     1
 10
919.9766666
 20
1007.821663
 11
922.4766666
 21
1007.821663
  0
LINE
  8
0
  6
CONTINUOUS
 62
     1
 10
919.9766666
 20
1017.021663
 11
922.4766666
 21
1018.465038673
  0
LINE
  8
0
  6
CONTINUOUS
 62
     1
 10
922.4766666
 20
1017.021663
 11
919.9766666
 21
1015.578287327
  0
LINE
  8
0
  6
CONTINUOUS
 62
     1
 10
919.9766666
 20
1009.021663
 11
919.9766666
 21
1025.021663
  0
LINE
  8
0
  6
CONTINUOUS
 62
     1
 10
919.9766666
 20
1025.021663
 11
910.5766666
 21
1025.021663
  0
LINE
  8
0
  6
CONTINUOUS
 62
     1
 10
909.9766666
 20
1010.021663
 11
909.9766666
 21
1024.021663
  0
LINE
  8
0
  6
CONTINUOUS
 62
     1
 10
919.9766666
 20
1009.021663
 11
910.5766666
 21
1009.021663
  0
LINE
  8
0
  6
CONTINUOUS
 62
     1
 10
910.5766666
 20
1009.021663
 11
909.9766666
 21
1010.021663
  0
LINE
  8
0
  6
CONTINUOUS
 62
     1
 10
909.9766666
 20
1024.021663
 11
910.5766666
 21
1025.021663
  0
LINE
  8
0
  6
LTYPE2
 62
     2
 10
904.1066666
 20
1017.021663
 11
938.6266666
 21
1017.021663
  0
LINE
  8
6
  6
LTYPE2
 62
     2
 10
1282.4766666
 20
1237.021663
 11
1282.4766666
 21
916.260240626
  0
LINE
  8
0
  6
CONTINUOUS
 62
     1
 10
1357.4766666
 20
1214.026663
 11
1357.4766666
 21
874.025663
  0
LINE
  8
0
  6
CONTINUOUS
 62
     1
 10
1382.4766666
 20
1089.021663
 11
1382.4766666
 21
869.026163
  0
LINE
  8
0
  6
CONTINUOUS
 62
     1
 10
1357.4691666
 20
884.042163
 11
1252.824692431
 21
944.182947849
  0
LINE
  8
0
  6
CONTINUOUS
 62
     1
 10
1337.909979342
 20
891.823318029
 11
1252.951208638
 21
940.650427061
  0
LINE
  8
0
  6
CONTINUOUS
 62
     1
 10
1382.4766666
 20
869.026163
 11
1362.4761666
 21
869.026163
  0
ARC
  8
0
  6
CONTINUOUS
 62
     1
 10
1352.4771666
 20
931.037463
 40
4.9995
 50
0.0
 51
90.0
  0
ARC
  8
0
  6
CONTINUOUS
 62
     1
 10
1362.4761666
 20
874.025663
 40
4.9995
 50
180.0
 51
270.0
  0
LINE
  8
0
  6
CONTINUOUS
 62
     1
 10
1339.27514138
 20
892.192008454
 11
1339.773377187
 21
893.058934686
  0
ARC
  8
0
  6
CONTINUOUS
 62
     1
 10
1340.640303418
 20
892.560698879
 40
0.9999
 50
60.113356807
 51
150.113356807
  0
ARC
  8
0
  6
CONTINUOUS
 62
     1
 10
1338.408215148
 20
892.69024426
 40
0.9999
 50
240.113356807
 51
330.113356807
  0
LINE
  8
0
  6
CONTINUOUS
 62
     2
 10
1382.4766666
 20
864.026163
 11
1382.4766666
 21
666.522663
  0
LINE
  8
0
  6
CONTINUOUS
 62
     2
 10
1382.4766666
 20
719.022663
 11
1382.4766666
 21
719.022663
  0
LINE
  8
0
  6
CONTINUOUS
 62
     2
 10
1382.4766666
 20
772.031163
 11
1382.4766666
 21
778.531163
  0
LINE
  8
0
  6
CONTINUOUS
 62
     2
 10
1382.4766666
 20
822.531163
 11
1382.4766666
 21
830.031163
  0
LINE
  8
0
  6
CONTINUOUS
 62
     2
 10
1382.4766666
 20
825.031163
 11
1372.817408337
 21
827.619353451
  0
LINE
  8
0
  6
CONTINUOUS
 62
     2
 10
1382.4766666
 20
825.031163
 11
1372.817408337
 21
822.442972549
  0
LINE
  8
0
  6
CONTINUOUS
 62
     2
 10
1382.4766666
 20
825.031163
 11
1357.4766666
 21
825.031163
  0
LINE
  8
0
  6
CONTINUOUS
 62
     2
 10
1357.4766666
 20
825.031163
 11
1367.135924863
 21
822.442972549
  0
LINE
  8
0
  6
CONTINUOUS
 62
     2
 10
1357.4766666
 20
825.031163
 11
1367.135924863
 21
827.619353451
  0
LINE
  8
0
  6
CONTINUOUS
 62
     2
 10
1357.4766666
 20
869.025678259
 11
1357.4766666
 21
820.031163
  0
TEXT
  8
0
  6
CONTINUOUS
 62
     3
 10
1356.4766666
 20
830.031163
 30
0.0
 40
15.0
  1
２５
 50
0.0
 41
0.9
 51
0.0
  7
KANJI22
  0
LINE
  8
0
  6
CONTINUOUS
 62
     2
 10
1382.4766666
 20
724.022663
 11
1372.817408337
 21
726.610853451
  0
LINE
  8
0
  6
CONTINUOUS
 62
     2
 10
1382.4766666
 20
724.022663
 11
1372.817408337
 21
721.434472549
  0
LINE
  8
0
  6
CONTINUOUS
 62
     2
 10
1382.4766666
 20
724.022663
 11
932.4766666
 21
724.022663
  0
LINE
  8
0
  6
CONTINUOUS
 62
     2
 10
932.4766666
 20
724.022663
 11
942.135924863
 21
726.610853451
  0
LINE
  8
0
  6
CONTINUOUS
 62
     2
 10
932.4766666
 20
724.022663
 11
942.135924863
 21
721.434472549
  0
TEXT
  8
0
  6
CONTINUOUS
 62
     3
 10
1146.2266666
 20
730.022663
 30
0.0
 40
15.0
  1
４５０
 50
0.0
 41
0.9
 51
0.0
  7
KANJI22
  0
LINE
  8
0
  6
CONTINUOUS
 62
     2
 10
1282.4766666
 20
911.031163
 11
1282.4766666
 21
788.361163
  0
LINE
  8
0
  6
CONTINUOUS
 62
     2
 10
1382.4766666
 20
794.022663
 11
1372.817408337
 21
796.610853451
  0
LINE
  8
0
  6
CONTINUOUS
 62
     2
 10
1382.4766666
 20
794.022663
 11
1372.817408337
 21
791.434472549
  0
LINE
  8
0
  6
CONTINUOUS
 62
     2
 10
1382.4766666
 20
794.022663
 11
1282.4766666
 21
794.022663
  0
LINE
  8
0
  6
CONTINUOUS
 62
     2
 10
1282.4766666
 20
794.022663
 11
1292.135924863
 21
791.434472549
  0
LINE
  8
0
  6
CONTINUOUS
 62
     2
 10
1282.4766666
 20
794.022663
 11
1292.135924863
 21
796.610853451
  0
TEXT
  8
0
  6
CONTINUOUS
 62
     3
 10
1312.2266666
 20
799.022663
 30
0.0
 40
15.0
  1
１００
 50
0.0
 41
0.9
 51
0.0
  7
KANJI22
  0
LINE
  8
0
  6
CONTINUOUS
 62
     2
 10
1382.4766666
 20
759.022663
 11
1372.91361904
 21
761.946380047
  0
LINE
  8
0
  6
CONTINUOUS
 62
     2
 10
1382.4766666
 20
759.022663
 11
1372.91361904
 21
756.098945953
  0
LINE
  8
0
  6
CONTINUOUS
 62
     2
 10
1382.4766666
 20
759.022663
 11
1217.4766666
 21
759.022663
  0
LINE
  8
0
  6
CONTINUOUS
 62
     2
 10
1217.4766666
 20
759.022663
 11
1227.03971416
 21
756.098945953
  0
LINE
  8
0
  6
CONTINUOUS
 62
     2
 10
1217.4766666
 20
759.022663
 11
1227.03971416
 21
761.946380047
  0
TEXT
  8
0
  6
CONTINUOUS
 62
     3
 10
1279.7266666
 20
761.522663
 30
0.0
 40
15.0
  1
１６５
 50
0.0
 41
0.9
 51
0.0
  7
KANJI22
  0
LINE
  8
0
  6
CONTINUOUS
 62
     2
 10
1217.4766666
 20
971.021663
 11
1217.4766666
 21
753.672663
  0
LINE
  8
0
  6
CONTINUOUS
 62
     2
 10
1382.4766666
 20
671.522663
 11
1372.817408337
 21
674.110853451
  0
LINE
  8
0
  6
CONTINUOUS
 62
     2
 10
1382.4766666
 20
671.522663
 11
1372.817408337
 21
668.934472549
  0
LINE
  8
0
  6
CONTINUOUS
 62
     2
 10
1382.4766666
 20
686.022663
 11
1382.4766666
 21
666.522663
  0
LINE
  8
0
  6
CONTINUOUS
 62
     2
 10
1382.4766666
 20
671.522663
 11
1392.135924863
 21
668.934472549
  0
LINE
  8
0
  6
CONTINUOUS
 62
     2
 10
1382.4766666
 20
671.522663
 11
1392.135924863
 21
674.110853451
  0
TEXT
  8
0
  6
CONTINUOUS
 62
     3
 10
1449.4766666
 20
676.522663
 30
0.0
 40
15.0
  1
ｍｉｎ．ＬＩ
 50
0.0
 41
0.9
 51
0.0
  7
KANJI22
  0
CIRCLE
  8
2
  6
CONTINUOUS
 62
     2
 10
1282.4766666
 20
1089.021663
 40
6.253654541
  0
LINE
  8
6
  6
LTYPE2
 62
     2
 10
1356.705889999
 20
994.031163
 11
1214.329310837
 21
994.031163
  0
CIRCLE
  8
6
  6
LTYPE2
 62
     2
 10
1282.4766666
 20
994.031163
 40
49.0
  0
LINE
  8
0
  6
CONTINUOUS
 62
     1
 10
1282.4766666
 20
936.036963
 11
1352.4696666
 21
936.036963
  0
ARC
  8
0
  6
CONTINUOUS
 62
     1
 10
1223.637415376
 20
971.522213
 40
4.9995
 50
20.924832428
 51
90.0
  0
ARC
  8
0
  6
CONTINUOUS
 62
     1
 10
1253.449444444
 20
941.517353293
 40
0.9999
 50
150.113356807
 51
240.113356807
  0
LINE
  8
0
  6
CONTINUOUS
 62
     1
 10
1252.582518213
 20
942.0155891
 11
1253.08497666
 21
942.889862691
  0
ARC
  8
0
  6
CONTINUOUS
 62
     1
 10
1252.218050428
 20
943.388098498
 40
0.9999
 50
330.113356807
 51
59.142195398
  0
LINE
  8
0
  6
CONTINUOUS
 62
     1
 10
1223.637415376
 20
976.521713
 11
1217.4766666
 21
976.521713
  0
LINE
  8
0
  6
CONTINUOUS
 62
     1
 10
1282.4766666
 20
1074.023163
 11
1266.819565202
 21
1074.023163
  0
LINE
  8
0
  6
CONTINUOUS
 62
     1
 10
1282.4766666
 20
1104.020163
 11
1266.819565202
 21
1104.020163
  0
LINE
  8
0
  6
CONTINUOUS
 62
     1
 10
1352.4696666
 20
1189.022863
 11
1273.084536719
 21
1189.022863
  0
LINE
  8
0
  6
CONTINUOUS
 62
     1
 10
1382.4766666
 20
1219.026163
 11
1382.4766666
 21
1089.021663
  0
CIRCLE
  8
0
  6
CONTINUOUS
 62
     1
 10
1282.4766666
 20
1089.021663
 40
4.253854541
  0
ARC
  8
0
  6
CONTINUOUS
 62
     1
 10
1282.4766666
 20
1089.021663
 40
14.9985
 50
270.0
 51
90.0
  0
LINE
  8
0
  6
CONTINUOUS
 62
     1
 10
1382.4766666
 20
1219.026163
 11
1362.4761666
 21
1219.026163
  0
ARC
  8
0
  6
CONTINUOUS
 62
     1
 10
1352.4771666
 20
1194.022363
 40
4.9995
 50
270.0
 51
0.0
  0
ARC
  8
0
  6
CONTINUOUS
 62
     1
 10
1362.4761666
 20
1214.026663
 40
4.9995
 50
90.0
 51
180.0
  0
LINE
  8
0
  6
CONTINUOUS
 62
     1
 10
1272.248968347
 20
1185.483387987
 11
1272.248968347
 21
1107.543639686
  0
LINE
  8
0
  6
CONTINUOUS
 62
     1
 10
1252.4796666
 20
1198.824424303
 11
1252.4796666
 21
1048.91329068
  0
ARC
  8
0
  6
CONTINUOUS
 62
     1
 10
1266.819565202
 20
1071.023463
 40
2.9997
 50
90.0
 51
180.0
  0
LINE
  8
0
  6
CONTINUOUS
 62
     1
 10
1272.248968347
 20
1070.68024595
 11
1272.248968347
 21
1056.285969427
  0
ARC
  8
0
  6
CONTINUOUS
 62
     1
 10
1266.819565202
 20
1107.019863
 40
2.9997
 50
180.0
 51
270.0
  0
LINE
  8
0
  6
CONTINUOUS
 62
     1
 10
1263.819865202
 20
1101.044728828
 11
1263.819865202
 21
1076.998597172
  0
LINE
  8
0
  6
CONTINUOUS
 62
     1
 10
1251.609664902
 20
1201.521613
 11
1199.4766666
 21
1201.521613
  0
LINE
  8
0
  6
CONTINUOUS
 62
     1
 10
1253.21466063
 20
1201.056116781
 11
1271.479540991
 21
1189.488359219
  0
ARC
  8
0
  6
CONTINUOUS
 62
     1
 10
1273.084536719
 20
1192.022563
 40
2.9997
 50
237.652556501
 51
270.0
  0
ARC
  8
0
  6
CONTINUOUS
 62
     1
 10
1251.609664902
 20
1198.521913
 40
2.9997
 50
57.652556501
 51
90.0
  0
CIRCLE
  8
0
  6
CONTINUOUS
 62
     1
 10
1282.4766666
 20
994.031163
 40
58.0
  0
CIRCLE
  8
0
  6
CONTINUOUS
 62
     1
 10
1282.4766666
 20
994.031163
 40
30.0
  0
LINE
  8
0
  6
CONTINUOUS
 62
     1
 10
1199.4766666
 20
976.521663
 11
1217.4766666
 21
976.521663
  0
LINE
  8
0
  6
CONTINUOUS
 62
     1
 10
1261.4766666
 20
999.031163
 11
1261.4766666
 21
989.031163
  0
LINE
  8
0
  6
CONTINUOUS
 62
     1
 10
1269.4766666
 20
999.031163
 11
1269.4766666
 21
989.031163
  0
LINE
  8
0
  6
CONTINUOUS
 62
     1
 10
1261.4766666
 20
999.031163
 11
1269.4766666
 21
999.031163
  0
LINE
  8
0
  6
CONTINUOUS
 62
     1
 10
1261.4766666
 20
989.031163
 11
1269.4766666
 21
989.031163
  0
ARC
  8
0
  6
CONTINUOUS
 62
     1
 10
1282.4766666
 20
994.031163
 40
17.5
 50
196.601549599
 51
163.398450401
  0
ARC
  8
0
  6
CONTINUOUS
 62
     1
 10
1282.4766666
 20
994.031163
 40
20.0
 50
194.477512186
 51
165.522487814
  0
LINE
  8
0
  6
LTYPE3
 62
     2
 10
1282.4766666
 20
1031.531163
 11
1282.4766666
 21
1054.531163
  0
CIRCLE
  8
0
  6
CONTINUOUS
 62
     1
 10
1282.4766666
 20
1043.031163
 40
8.0
  0
LINE
  8
0
  6
CONTINUOUS
 62
     1
 10
1280.1766666
 20
1047.031163
 11
1277.8766666
 21
1043.031163
  0
LINE
  8
0
  6
CONTINUOUS
 62
     1
 10
1277.8766666
 20
1043.031163
 11
1280.1766666
 21
1039.031163
  0
LINE
  8
0
  6
CONTINUOUS
 62
     1
 10
1280.1766666
 20
1039.031163
 11
1284.7766666
 21
1039.031163
  0
LINE
  8
0
  6
CONTINUOUS
 62
     1
 10
1284.7766666
 20
1039.031163
 11
1287.0766666
 21
1043.031163
  0
LINE
  8
0
  6
CONTINUOUS
 62
     1
 10
1287.0766666
 20
1043.031163
 11
1284.7766666
 21
1047.031163
  0
LINE
  8
0
  6
CONTINUOUS
 62
     1
 10
1284.7766666
 20
1047.031163
 11
1280.1766666
 21
1047.031163
  0
LINE
  8
0
  6
LTYPE3
 62
     2
 10
1255.960162306
 20
1020.547667294
 11
1239.696706338
 21
1036.811123262
  0
CIRCLE
  8
0
  6
CONTINUOUS
 62
     1
 10
1247.828434322
 20
1028.679395278
 40
8.0
  0
LINE
  8
0
  6
CONTINUOUS
 62
     1
 10
1243.3736616
 20
1029.881476806
 11
1244.575743128
 21
1025.426704085
  0
LINE
  8
0
  6
CONTINUOUS
 62
     1
 10
1244.575743128
 20
1025.426704085
 11
1249.03051585
 21
1024.224622557
  0
LINE
  8
0
  6
CONTINUOUS
 62
     1
 10
1249.03051585
 20
1024.224622557
 11
1252.283207043
 21
1027.47731375
  0
LINE
  8
0
  6
CONTINUOUS
 62
     1
 10
1252.283207043
 20
1027.47731375
 11
1251.081125515
 21
1031.932086472
  0
LINE
  8
0
  6
CONTINUOUS
 62
     1
 10
1251.081125515
 20
1031.932086472
 11
1246.626352794
 21
1033.134168
  0
LINE
  8
0
  6
CONTINUOUS
 62
     1
 10
1246.626352794
 20
1033.134168
 11
1243.3736616
 21
1029.881476806
  0
LINE
  8
0
  6
LTYPE3
 62
     2
 10
1244.9766666
 20
994.031163
 11
1221.9766666
 21
994.031163
  0
CIRCLE
  8
0
  6
CONTINUOUS
 62
     1
 10
1233.4766666
 20
994.031163
 40
8.0
  0
LINE
  8
0
  6
CONTINUOUS
 62
     1
 10
1229.4766666
 20
991.731163
 11
1233.4766666
 21
989.431163
  0
LINE
  8
0
  6
CONTINUOUS
 62
     1
 10
1233.4766666
 20
989.431163
 11
1237.4766666
 21
991.731163
  0
LINE
  8
0
  6
CONTINUOUS
 62
     1
 10
1237.4766666
 20
991.731163
 11
1237.4766666
 21
996.331163
  0
LINE
  8
0
  6
CONTINUOUS
 62
     1
 10
1237.4766666
 20
996.331163
 11
1233.4766666
 21
998.631163
  0
LINE
  8
0
  6
CONTINUOUS
 62
     1
 10
1233.4766666
 20
998.631163
 11
1229.4766666
 21
996.331163
  0
LINE
  8
0
  6
CONTINUOUS
 62
     1
 10
1229.4766666
 20
996.331163
 11
1229.4766666
 21
991.731163
  0
LINE
  8
0
  6
LTYPE3
 62
     2
 10
1255.960162306
 20
967.514658706
 11
1239.696706338
 21
951.251202738
  0
CIRCLE
  8
0
  6
CONTINUOUS
 62
     1
 10
1247.828434322
 20
959.382930722
 40
8.0
  0
LINE
  8
0
  6
CONTINUOUS
 62
     1
 10
1246.626352794
 20
954.928158
 11
1251.081125515
 21
956.130239528
  0
LINE
  8
0
  6
CONTINUOUS
 62
     1
 10
1251.081125515
 20
956.130239528
 11
1252.283207043
 21
960.58501225
  0
LINE
  8
0
  6
CONTINUOUS
 62
     1
 10
1252.283207043
 20
960.58501225
 11
1249.03051585
 21
963.837703443
  0
LINE
  8
0
  6
CONTINUOUS
 62
     1
 10
1249.03051585
 20
963.837703443
 11
1244.575743128
 21
962.635621915
  0
LINE
  8
0
  6
CONTINUOUS
 62
     1
 10
1244.575743128
 20
962.635621915
 11
1243.3736616
 21
958.180849194
  0
LINE
  8
0
  6
CONTINUOUS
 62
     1
 10
1243.3736616
 20
958.180849194
 11
1246.626352794
 21
954.928158
  0
LINE
  8
0
  6
LTYPE3
 62
     2
 10
1282.4766666
 20
956.531163
 11
1282.4766666
 21
933.531163
  0
CIRCLE
  8
0
  6
CONTINUOUS
 62
     1
 10
1282.4766666
 20
945.031163
 40
8.0
  0
LINE
  8
0
  6
CONTINUOUS
 62
     1
 10
1284.7766666
 20
941.031163
 11
1287.0766666
 21
945.031163
  0
LINE
  8
0
  6
CONTINUOUS
 62
     1
 10
1287.0766666
 20
945.031163
 11
1284.7766666
 21
949.031163
  0
LINE
  8
0
  6
CONTINUOUS
 62
     1
 10
1284.7766666
 20
949.031163
 11
1280.1766666
 21
949.031163
  0
LINE
  8
0
  6
CONTINUOUS
 62
     1
 10
1280.1766666
 20
949.031163
 11
1277.8766666
 21
945.031163
  0
LINE
  8
0
  6
CONTINUOUS
 62
     1
 10
1277.8766666
 20
945.031163
 11
1280.1766666
 21
941.031163
  0
LINE
  8
0
  6
CONTINUOUS
 62
     1
 10
1280.1766666
 20
941.031163
 11
1284.7766666
 21
941.031163
  0
LINE
  8
0
  6
LTYPE3
 62
     2
 10
1308.993170894
 20
967.514658706
 11
1325.256626862
 21
951.251202738
  0
CIRCLE
  8
0
  6
CONTINUOUS
 62
     1
 10
1317.124898878
 20
959.382930722
 40
8.0
  0
LINE
  8
0
  6
CONTINUOUS
 62
     1
 10
1321.5796716
 20
958.180849194
 11
1320.377590072
 21
962.635621915
  0
LINE
  8
0
  6
CONTINUOUS
 62
     1
 10
1320.377590072
 20
962.635621915
 11
1315.92281735
 21
963.837703443
  0
LINE
  8
0
  6
CONTINUOUS
 62
     1
 10
1315.92281735
 20
963.837703443
 11
1312.670126157
 21
960.58501225
  0
LINE
  8
0
  6
CONTINUOUS
 62
     1
 10
1312.670126157
 20
960.58501225
 11
1313.872207685
 21
956.130239528
  0
LINE
  8
0
  6
CONTINUOUS
 62
     1
 10
1313.872207685
 20
956.130239528
 11
1318.326980406
 21
954.928158
  0
LINE
  8
0
  6
CONTINUOUS
 62
     1
 10
1318.326980406
 20
954.928158
 11
1321.5796716
 21
958.180849194
  0
LINE
  8
0
  6
LTYPE3
 62
     2
 10
1319.9766666
 20
994.031163
 11
1342.9766666
 21
994.031163
  0
CIRCLE
  8
0
  6
CONTINUOUS
 62
     1
 10
1331.4766666
 20
994.031163
 40
8.0
  0
LINE
  8
0
  6
CONTINUOUS
 62
     1
 10
1335.4766666
 20
996.331163
 11
1331.4766666
 21
998.631163
  0
LINE
  8
0
  6
CONTINUOUS
 62
     1
 10
1331.4766666
 20
998.631163
 11
1327.4766666
 21
996.331163
  0
LINE
  8
0
  6
CONTINUOUS
 62
     1
 10
1327.4766666
 20
996.331163
 11
1327.4766666
 21
991.731163
  0
LINE
  8
0
  6
CONTINUOUS
 62
     1
 10
1327.4766666
 20
991.731163
 11
1331.4766666
 21
989.431163
  0
LINE
  8
0
  6
CONTINUOUS
 62
     1
 10
1331.4766666
 20
989.431163
 11
1335.4766666
 21
991.731163
  0
LINE
  8
0
  6
CONTINUOUS
 62
     1
 10
1335.4766666
 20
991.731163
 11
1335.4766666
 21
996.331163
  0
LINE
  8
0
  6
LTYPE3
 62
     2
 10
1308.993170894
 20
1020.547667294
 11
1325.256626862
 21
1036.811123262
  0
CIRCLE
  8
0
  6
CONTINUOUS
 62
     1
 10
1317.124898878
 20
1028.679395278
 40
8.0
  0
LINE
  8
0
  6
CONTINUOUS
 62
     1
 10
1318.326980406
 20
1033.134168
 11
1313.872207685
 21
1031.932086472
  0
LINE
  8
0
  6
CONTINUOUS
 62
     1
 10
1313.872207685
 20
1031.932086472
 11
1312.670126157
 21
1027.47731375
  0
LINE
  8
0
  6
CONTINUOUS
 62
     1
 10
1312.670126157
 20
1027.47731375
 11
1315.92281735
 21
1024.224622557
  0
LINE
  8
0
  6
CONTINUOUS
 62
     1
 10
1315.92281735
 20
1024.224622557
 11
1320.377590072
 21
1025.426704085
  0
LINE
  8
0
  6
CONTINUOUS
 62
     1
 10
1320.377590072
 20
1025.426704085
 11
1321.5796716
 21
1029.881476806
  0
LINE
  8
0
  6
CONTINUOUS
 62
     1
 10
1321.5796716
 20
1029.881476806
 11
1318.326980406
 21
1033.134168
  0
LINE
  8
0
  6
CONTINUOUS
 62
     1
 10
1295.9550666
 20
1202.173663
 11
1295.9550666
 21
1219.021663
  0
LINE
  8
0
  6
CONTINUOUS
 62
     1
 10
1295.9550666
 20
1219.021663
 11
1268.9982666
 21
1219.021663
  0
LINE
  8
0
  6
CONTINUOUS
 62
     1
 10
1295.9550666
 20
1219.021663
 11
1268.9982666
 21
1202.173663
  0
LINE
  8
0
  6
CONTINUOUS
 62
     1
 10
1299.3246666
 20
1189.022863
 11
1299.3246666
 21
1202.173663
  0
LINE
  8
0
  6
CONTINUOUS
 62
     1
 10
1299.3246666
 20
1202.173663
 11
1265.6286666
 21
1202.173663
  0
LINE
  8
0
  6
CONTINUOUS
 62
     1
 10
1268.9982666
 20
1219.021663
 11
1295.9550666
 21
1202.173663
  0
LINE
  8
0
  6
CONTINUOUS
 62
     1
 10
1268.9982666
 20
1202.173663
 11
1268.9982666
 21
1219.021663
  0
LINE
  8
0
  6
CONTINUOUS
 62
     1
 10
1265.6286666
 20
1193.193913
 11
1265.6286666
 21
1202.173663
  0
LINE
  8
0
  6
CONTINUOUS
 62
     1
 10
1199.4766666
 20
1197.229060195
 11
1196.9766666
 21
1197.229060195
  0
LINE
  8
0
  6
CONTINUOUS
 62
     1
 10
1196.9766666
 20
1197.229060195
 11
1196.9766666
 21
1178.829060195
  0
LINE
  8
0
  6
CONTINUOUS
 62
     1
 10
1196.9766666
 20
1178.829060195
 11
1199.4766666
 21
1178.829060195
  0
LINE
  8
0
  6
CONTINUOUS
 62
     1
 10
1199.4766666
 20
1178.829060195
 11
1199.4766666
 21
1197.229060195
  0
LINE
  8
0
  6
CONTINUOUS
 62
     1
 10
1196.9766666
 20
1188.029060195
 11
1199.4766666
 21
1189.472435868
  0
LINE
  8
0
  6
CONTINUOUS
 62
     1
 10
1199.4766666
 20
1188.029060195
 11
1196.9766666
 21
1186.585684522
  0
LINE
  8
0
  6
LTYPE3
 62
     2
 10
1200.4766666
 20
1188.029060195
 11
1183.4766666
 21
1188.029060195
  0
LINE
  8
0
  6
CONTINUOUS
 62
     1
 10
1196.9766666
 20
1180.029060195
 11
1196.9766666
 21
1196.029060195
  0
LINE
  8
0
  6
CONTINUOUS
 62
     1
 10
1196.9766666
 20
1196.029060195
 11
1187.5766666
 21
1196.029060195
  0
LINE
  8
0
  6
CONTINUOUS
 62
     1
 10
1186.9766666
 20
1181.029060195
 11
1186.9766666
 21
1195.029060195
  0
LINE
  8
0
  6
CONTINUOUS
 62
     1
 10
1196.9766666
 20
1180.029060195
 11
1187.5766666
 21
1180.029060195
  0
LINE
  8
0
  6
CONTINUOUS
 62
     1
 10
1187.5766666
 20
1180.029060195
 11
1186.9766666
 21
1181.029060195
  0
LINE
  8
0
  6
CONTINUOUS
 62
     1
 10
1186.9766666
 20
1195.029060195
 11
1187.5766666
 21
1196.029060195
  0
LINE
  8
0
  6
CONTINUOUS
 62
     2
 10
1187.5766666
 20
1188.029060195
 11
1196.9766666
 21
1188.029060195
  0
LINE
  8
0
  6
CONTINUOUS
 62
     1
 10
1199.4766666
 20
976.521663
 11
1199.4766666
 21
1201.521663
  0
LINE
  8
0
  6
CONTINUOUS
 62
     1
 10
1199.4766666
 20
980.814265805
 11
1196.9766666
 21
980.814265805
  0
LINE
  8
0
  6
CONTINUOUS
 62
     1
 10
1196.9766666
 20
980.814265805
 11
1196.9766666
 21
999.214265805
  0
LINE
  8
0
  6
CONTINUOUS
 62
     1
 10
1196.9766666
 20
999.214265805
 11
1199.4766666
 21
999.214265805
  0
LINE
  8
0
  6
CONTINUOUS
 62
     1
 10
1199.4766666
 20
999.214265805
 11
1199.4766666
 21
980.814265805
  0
LINE
  8
0
  6
CONTINUOUS
 62
     1
 10
1196.9766666
 20
990.014265805
 11
1199.4766666
 21
988.570890132
  0
LINE
  8
0
  6
CONTINUOUS
 62
     1
 10
1199.4766666
 20
990.014265805
 11
1196.9766666
 21
991.457641478
  0
LINE
  8
0
  6
LTYPE3
 62
     2
 10
1200.4766666
 20
990.014265805
 11
1183.4766666
 21
990.014265805
  0
LINE
  8
0
  6
CONTINUOUS
 62
     1
 10
1196.9766666
 20
998.014265805
 11
1196.9766666
 21
982.014265805
  0
LINE
  8
0
  6
CONTINUOUS
 62
     1
 10
1196.9766666
 20
982.014265805
 11
1187.5766666
 21
982.014265805
  0
LINE
  8
0
  6
CONTINUOUS
 62
     1
 10
1186.9766666
 20
997.014265805
 11
1186.9766666
 21
983.014265805
  0
LINE
  8
0
  6
CONTINUOUS
 62
     1
 10
1196.9766666
 20
998.014265805
 11
1187.5766666
 21
998.014265805
  0
LINE
  8
0
  6
CONTINUOUS
 62
     1
 10
1187.5766666
 20
998.014265805
 11
1186.9766666
 21
997.014265805
  0
LINE
  8
0
  6
CONTINUOUS
 62
     1
 10
1186.9766666
 20
983.014265805
 11
1187.5766666
 21
982.014265805
  0
LINE
  8
0
  6
CONTINUOUS
 62
     2
 10
1187.5766666
 20
990.014265805
 11
1196.9766666
 21
990.014265805
  0
LINE
  8
0
  6
CONTINUOUS
 62
     1
 10
1217.4766666
 20
976.521663
 11
1217.4766666
 21
1201.521663
  0
LINE
  8
0
  6
LTYPE2
 62
     2
 10
1410.8466666
 20
1161.021663
 11
1376.3266666
 21
1161.021663
  0
LINE
  8
0
  6
LTYPE2
 62
     2
 10
1410.8466666
 20
1017.021663
 11
1376.3266666
 21
1017.021663
  0
LINE
  8
0
  6
CONTINUOUS
 62
     1
 10
922.4766666
 20
1146.521663
 11
712.4766666
 21
1146.521663
  0
LINE
  8
0
  6
CONTINUOUS
 62
     1
 10
922.4766666
 20
1031.521663
 11
712.4766666
 21
1031.521663
  0
LINE
  8
0
  6
CONTINUOUS
 62
     2
 10
712.4766666
 20
671.522663
 11
1382.4766666
 21
671.522663
  0
TEXT
  8
0
  6
CONTINUOUS
 62
     3
 10
1013.7266666
 20
679.522663
 30
0.0
 40
15.0
  1
ＬＤ＝ストローク＋ＬＢ
 50
0.0
 41
0.9
 51
0.0
  7
KANJI22
  0
TEXT
  8
0
  6
CONTINUOUS
 62
     3
 10
1623.6333635
 20
112.899995
 30
10.833333333
 40
25.0
  1
Ａ３００２５８３
 50
0.0
 41
0.8
 51
0.0
  7
KANJI33
  0
TEXT
  8
0
  6
CONTINUOUS
 62
     2
 10
322.675
 20
18.316645
 30
1.5
 40
15.0
  1
ＦＤ　Ｎｏ．ＢＪ１４
 50
0.0
 41
1.0
 51
0.0
  7
KANJI34
  0
TEXT
  8
2
  6
CONTINUOUS
 62
     5
 10
1885.8
 20
1048.85
 30
0.0
 40
16.0
  1
８０　　Ｐ２０
 50
0.0
 41
0.71875
 51
0.0
  7
KANJI17
  0
TEXT
  8
2
  6
CONTINUOUS
 62
     5
 10
1910.8
 20
911.95
 30
0.0
 40
16.0
  1
５９
 50
0.0
 41
0.71875
 51
0.0
  7
KANJI17
  0
TEXT
  8
2
  6
CONTINUOUS
 62
     5
 10
1902.96
 20
1013.93
 30
0.0
 40
16.0
  1
１．８７
 50
0.0
 41
0.71875
 51
0.0
  7
KANJI17
  0
TEXT
  8
2
  6
CONTINUOUS
 62
     5
 10
1906.56
 20
982.29
 30
0.0
 40
16.0
  1
３２／３
 50
0.0
 41
0.71875
 51
0.0
  7
KANJI17
  0
TEXT
  8
0
  6
CONTINUOUS
 62
     3
 10
1568.4
 20
193.575
 30
0.0
 40
17.5
  1
ＢＪ３０ＨＩＮ
 50
0.0
 41
0.914285714
 51
0.0
  7
KANJI21
  0
TEXT
  8
0
  6
CONTINUOUS
 62
     3
 10
1621.4
 20
159.765
 30
5.2
 40
16.0
  1
Ｓ
 50
0.0
 41
0.925
 51
0.0
  7
KANJI35
  0
CIRCLE
  8
0
  6
CONTINUOUS
 62
     3
 10
1628.4
 20
167.565
 40
12.0
  0
LINE
  8
0
  6
CONTINUOUS
 62
     1
 10
1432.4766666
 20
1149.021663
 11
1432.4766666
 21
1029.021663
  0
LINE
  8
0
  6
CONTINUOUS
 62
     1
 10
1402.4766666
 20
1001.521663
 11
1382.4766666
 21
1001.521663
  0
LINE
  8
0
  6
CONTINUOUS
 62
     1
 10
1402.4766666
 20
1176.521663
 11
1402.4766666
 21
1001.521663
  0
LINE
  8
0
  6
CONTINUOUS
 62
     1
 10
1402.4766666
 20
1176.521663
 11
1382.4766666
 21
1176.521663
  0
LINE
  8
0
  6
CONTINUOUS
 62
     1
 10
1432.4766666
 20
1149.021663
 11
1402.4766666
 21
1149.021663
  0
LINE
  8
0
  6
CONTINUOUS
 62
     1
 10
1432.4766666
 20
1029.021663
 11
1402.4766666
 21
1029.021663
  0
LINE
  8
0
  6
CONTINUOUS
 62
     2
 10
1469.060226335
 20
1129.021663
 11
1464.750226335
 21
1129.021663
  0
LINE
  8
0
  6
CONTINUOUS
 62
     1
 10
1492.4766666
 20
1129.021663
 11
1492.4766666
 21
1049.021663
  0
LINE
  8
2
  6
CONTINUOUS
 62
     2
 10
1554.4766666
 20
1117.021663
 11
1492.4766666
 21
1117.021663
  0
LINE
  8
0
  6
CONTINUOUS
 62
     1
 10
1497.4766666
 20
1119.021663
 11
1552.4766666
 21
1119.021663
  0
LINE
  8
0
  6
CONTINUOUS
 62
     1
 10
1497.4766666
 20
1119.021663
 11
1497.4766666
 21
1059.021663
  0
LINE
  8
0
  6
CONTINUOUS
 62
     1
 10
1475.000226335
 20
1128.521663
 11
1475.000226335
 21
1049.021663
  0
LINE
  8
0
  6
CONTINUOUS
 62
     2
 10
1475.000226335
 20
1124.271663
 11
1481.000226335
 21
1128.521663
  0
LINE
  8
0
  6
CONTINUOUS
 62
     2
 10
1468.340226335
 20
1049.021663
 11
1464.750226335
 21
1049.021663
  0
LINE
  8
0
  6
CONTINUOUS
 62
     2
 10
1475.000226335
 20
1053.771663
 11
1481.000226335
 21
1049.021663
  0
LINE
  8
2
  6
CONTINUOUS
 62
     2
 10
1552.4766666
 20
1119.021663
 11
1552.4766666
 21
1059.021663
  0
LINE
  8
0
  6
CONTINUOUS
 62
     1
 10
1554.4766666
 20
1117.021663
 11
1554.4766666
 21
1061.021663
  0
LINE
  8
0
  6
CONTINUOUS
 62
     1
 10
1552.4766666
 20
1119.021663
 11
1554.4766666
 21
1117.021663
  0
LINE
  8
0
  6
CONTINUOUS
 62
     2
 10
1531.5
 20
1119.021663
 11
1537.675260432
 21
1126.887167345
  0
LINE
  8
0
  6
CONTINUOUS
 62
     2
 10
1531.5
 20
1119.021663
 11
1532.915180236
 21
1128.921019792
  0
LINE
  8
0
  6
CONTINUOUS
 62
     2
 10
1554.4766666
 20
1056.021663
 11
1554.4766666
 21
666.522663
  0
LINE
  8
2
  6
CONTINUOUS
 62
     2
 10
1554.4766666
 20
1061.021663
 11
1492.4766666
 21
1061.021663
  0
LINE
  8
0
  6
CONTINUOUS
 62
     1
 10
1497.4766666
 20
1059.021663
 11
1552.4766666
 21
1059.021663
  0
LINE
  8
0
  6
CONTINUOUS
 62
     1
 10
1554.4766666
 20
1061.021663
 11
1552.4766666
 21
1059.021663
  0
LINE
  8
0
  6
CONTINUOUS
 62
     2
 10
1554.4766666
 20
671.522663
 11
1544.817408337
 21
674.110853451
  0
LINE
  8
0
  6
CONTINUOUS
 62
     2
 10
1554.4766666
 20
671.522663
 11
1544.817408337
 21
668.934472549
  0
LINE
  8
0
  6
CONTINUOUS
 62
     2
 10
1475.000226335
 20
1124.271663
 11
1432.4766666
 21
1124.271663
  0
LINE
  8
0
  6
CONTINUOUS
 62
     1
 10
1492.4766666
 20
1129.021663
 11
1432.4766666
 21
1129.021663
  0
LINE
  8
0
  6
CONTINUOUS
 62
     1
 10
1492.4766666
 20
1049.021663
 11
1432.4766666
 21
1049.021663
  0
LINE
  8
0
  6
CONTINUOUS
 62
     2
 10
1475.000226335
 20
1053.771663
 11
1432.4766666
 21
1053.771663
  0
LINE
  8
0
  6
CONTINUOUS
 62
     2
 10
1070.4766666
 20
1183.021663
 11
1067.552949553
 21
1173.45861544
  0
LINE
  8
0
  6
CONTINUOUS
 62
     2
 10
1070.4766666
 20
1183.021663
 11
1073.400383647
 21
1173.45861544
  0
LINE
  8
0
  6
CONTINUOUS
 62
     2
 10
1463.750226335
 20
1049.021663
 11
1460.826509287
 21
1039.45861544
  0
LINE
  8
0
  6
CONTINUOUS
 62
     2
 10
1463.750226335
 20
1049.021663
 11
1466.673943382
 21
1039.45861544
  0
LINE
  8
0
  6
CONTINUOUS
 62
     2
 10
1463.750226335
 20
1049.021663
 11
1463.750226335
 21
1129.021663
  0
LINE
  8
0
  6
CONTINUOUS
 62
     2
 10
1463.750226335
 20
1129.021663
 11
1463.750226335
 21
1144.021663
  0
LINE
  8
0
  6
CONTINUOUS
 62
     2
 10
1463.750226335
 20
1129.021663
 11
1466.673943382
 21
1138.58471056
  0
LINE
  8
0
  6
CONTINUOUS
 62
     2
 10
1463.750226335
 20
1129.021663
 11
1460.826509287
 21
1138.58471056
  0
LINE
  8
0
  6
CONTINUOUS
 62
     2
 10
1407.4766666
 20
1001.521663
 11
1623.710226335
 21
1001.521663
  0
LINE
  8
0
  6
CONTINUOUS
 62
     2
 10
1618.710226335
 20
1001.521663
 11
1621.633943382
 21
1011.08471056
  0
LINE
  8
0
  6
CONTINUOUS
 62
     2
 10
1618.710226335
 20
1001.521663
 11
1615.786509287
 21
1011.08471056
  0
LINE
  8
0
  6
CONTINUOUS
 62
     2
 10
1618.710226335
 20
1001.521663
 11
1618.710226335
 21
1176.521663
  0
LINE
  8
0
  6
CONTINUOUS
 62
     2
 10
1618.710226335
 20
1176.521663
 11
1615.786509287
 21
1166.95861544
  0
LINE
  8
0
  6
CONTINUOUS
 62
     2
 10
1618.710226335
 20
1176.521663
 11
1621.633943382
 21
1166.95861544
  0
LINE
  8
0
  6
CONTINUOUS
 62
     2
 10
1407.4766666
 20
1176.521663
 11
1623.710226335
 21
1176.521663
  0
TEXT
  8
0
  6
CONTINUOUS
 62
     3
 10
1616.210226335
 20
1062.021663
 30
0.0
 40
15.0
  1
φ１７５
 50
90.0
 41
0.9
 51
0.0
  7
KANJI22
  0
TEXT
  8
0
  6
CONTINUOUS
 62
     3
 10
1571.0
 20
1218.021663
 30
0.0
 40
15.0
  1
Ｍ６０Ｐ２
 50
0.0
 41
0.9
 51
0.0
  7
KANJI22
  0
POLYLINE
  8
0
  6
CONTINUOUS
 62
     2
 66
     1
  0
VERTEX
  8
0
  6
CONTINUOUS
 62
     2
 10
1531.5
 20
1119.021663
  0
VERTEX
  8
0
  6
CONTINUOUS
 62
     2
 10
1572.090909091
 20
1214.021663
  0
VERTEX
  8
0
  6
CONTINUOUS
 62
     2
 10
1642.0
 20
1214.021663
  0
SEQEND
  0
POLYLINE
  8
0
  6
CONTINUOUS
 62
     2
 66
     1
  0
VERTEX
  8
0
  6
CONTINUOUS
 62
     2
 10
1554.4766666
 20
954.521663
  0
VERTEX
  8
0
  6
CONTINUOUS
 62
     2
 10
1492.4766666
 20
954.521663
  0
VERTEX
  8
0
  6
CONTINUOUS
 62
     2
 10
1502.135924863
 20
951.933472549
  0
SEQEND
  0
LINE
  8
0
  6
CONTINUOUS
 62
     2
 10
1492.4766666
 20
954.521663
 11
1502.135924863
 21
957.109853451
  0
TEXT
  8
0
  6
CONTINUOUS
 62
     3
 10
1509.9766666
 20
959.521663
 30
0.0
 40
15.0
  1
６２
 50
0.0
 41
0.9
 51
0.0
  7
KANJI22
  0
LINE
  8
0
  6
CONTINUOUS
 62
     2
 10
1554.4766666
 20
954.521663
 11
1544.817408337
 21
957.109853451
  0
LINE
  8
0
  6
CONTINUOUS
 62
     2
 10
1554.4766666
 20
954.521663
 11
1544.817408337
 21
951.933472549
  0
LINE
  8
0
  6
CONTINUOUS
 62
     2
 10
1492.4766666
 20
1041.521663
 11
1492.4766666
 21
949.521663
  0
LINE
  8
0
  6
CONTINUOUS
 62
     2
 10
1432.4766666
 20
1024.021663
 11
1432.4766666
 21
949.521663
  0
LINE
  8
0
  6
CONTINUOUS
 62
     2
 10
1432.4766666
 20
954.521663
 11
1422.91361904
 21
957.445380047
  0
LINE
  8
0
  6
CONTINUOUS
 62
     2
 10
1432.4766666
 20
954.521663
 11
1422.91361904
 21
951.597945953
  0
LINE
  8
0
  6
CONTINUOUS
 62
     2
 10
1432.4766666
 20
954.521663
 11
1382.4766666
 21
954.521663
  0
LINE
  8
0
  6
CONTINUOUS
 62
     2
 10
1382.4766666
 20
954.521663
 11
1392.03971416
 21
951.597945953
  0
LINE
  8
0
  6
CONTINUOUS
 62
     2
 10
1382.4766666
 20
954.521663
 11
1392.03971416
 21
957.445380047
  0
LINE
  8
0
  6
CONTINUOUS
 62
     2
 10
1382.4766666
 20
958.021663
 11
1382.4766666
 21
949.521663
  0
TEXT
  8
0
  6
CONTINUOUS
 62
     3
 10
1393.9766666
 20
957.021663
 30
0.0
 40
15.0
  1
５０
 50
0.0
 41
0.9
 51
0.0
  7
KANJI22
  0
LINE
  8
6
  6
LTYPE2
 62
     2
 10
1583.4766666
 20
1089.021663
 11
717.060226335
 21
1089.021663
  0
TEXT
  8
0
  6
CONTINUOUS
 62
     3
 10
1459.710226335
 20
872.871663
 30
0.0
 40
15.0
  1
φ８０　リード２０
 50
90.0
 41
0.9
 51
0.0
  7
KANJI22
  0
LINE
  8
0
  6
CONTINUOUS
 62
     2
 10
1463.750226335
 20
866.871663
 11
1463.750226335
 21
1049.021663
  0
LINE
  8
0
  6
CONTINUOUS
 62
     2
 10
1332.4766666
 20
671.522663
 11
1554.4766666
 21
671.522663
  0
TEXT
  8
0
  6
CONTINUOUS
 62
     3
 10
619.2866666
 20
1032.291163
 30
0.0
 40
12.4
  1
時計方向の回転
 50
0.0
 41
1.0
 51
0.0
  7
KANJI36
  0
ARC
  8
0
  6
CONTINUOUS
 62
     2
 10
696.3966666
 20
993.781163
 40
33.75
 50
122.69646
 51
231.72456
  0
LINE
  8
0
  6
CONTINUOUS
 62
     2
 10
668.1666666
 20
1017.861163
 11
678.1666666
 21
1022.181163
  0
LINE
  8
0
  6
CONTINUOUS
 62
     2
 10
672.6466666
 20
1012.451163
 11
678.1266666
 21
1022.161163
  0
LINE
  8
0
  6
CONTINUOUS
 62
     2
 10
1388.0
 20
1284.0
 11
1368.681483474
 21
1289.176380902
  0
LINE
  8
0
  6
CONTINUOUS
 62
     2
 10
1388.0
 20
1284.0
 11
1368.681483474
 21
1278.823619098
  0
TEXT
  8
0
  6
CONTINUOUS
 62
     3
 10
1190.0
 20
1289.0
 30
0.0
 40
20.0
  1
スクリュー出る
 50
0.0
 41
1.0
 51
0.0
  7
KANJI37
  0
LINE
  8
0
  6
CONTINUOUS
 62
     2
 10
1388.0
 20
1284.0
 11
1165.5
 21
1284.0
  0
TEXT
  8
3
  6
CONTINUOUS
 62
     3
 10
869.25
 20
542.05
 30
0.0
 40
16.0
  1
１１５
 50
0.0
 41
0.78125
 51
0.0
  7
KANJI28
  0
TEXT
  8
3
  6
CONTINUOUS
 62
     3
 10
869.25
 20
507.05
 30
0.0
 40
16.0
  1
１１５
 50
0.0
 41
0.78125
 51
0.0
  7
KANJI28
  0
TEXT
  8
3
  6
CONTINUOUS
 62
     3
 10
869.25
 20
472.05
 30
0.0
 40
16.0
  1
１１５
 50
0.0
 41
0.78125
 51
0.0
  7
KANJI28
  0
TEXT
  8
3
  6
CONTINUOUS
 62
     3
 10
869.25
 20
437.05
 30
0.0
 40
16.0
  1
１１５
 50
0.0
 41
0.78125
 51
0.0
  7
KANJI28
  0
TEXT
  8
3
  6
CONTINUOUS
 62
     3
 10
869.25
 20
402.05
 30
0.0
 40
16.0
  1
１１５
 50
0.0
 41
0.78125
 51
0.0
  7
KANJI28
  0
TEXT
  8
3
  6
CONTINUOUS
 62
     3
 10
869.25
 20
367.05
 30
0.0
 40
16.0
  1
１１５
 50
0.0
 41
0.78125
 51
0.0
  7
KANJI28
  0
TEXT
  8
3
  6
CONTINUOUS
 62
     3
 10
869.25
 20
332.05
 30
0.0
 40
16.0
  1
１１５
 50
0.0
 41
0.78125
 51
0.0
  7
KANJI28
  0
TEXT
  8
3
  6
CONTINUOUS
 62
     3
 10
869.25
 20
297.05
 30
0.0
 40
16.0
  1
１１５
 50
0.0
 41
0.78125
 51
0.0
  7
KANJI28
  0
TEXT
  8
3
  6
CONTINUOUS
 62
     3
 10
869.25
 20
262.05
 30
0.0
 40
16.0
  1
１１５
 50
0.0
 41
0.78125
 51
0.0
  7
KANJI28
  0
TEXT
  8
3
  6
CONTINUOUS
 62
     3
 10
869.25
 20
227.05
 30
0.0
 40
16.0
  1
１１５
 50
0.0
 41
0.78125
 51
0.0
  7
KANJI28
  0
TEXT
  8
0
  6
CONTINUOUS
 62
     3
 10
444.8266666
 20
739.522663
 30
0.0
 40
15.0
  1
３６０
 50
0.0
 41
0.9
 51
0.0
  7
KANJI22
  0
LINE
  8
0
  6
CONTINUOUS
 62
     2
 10
644.0766666
 20
772.522663
 11
644.0766666
 21
730.522663
  0
LINE
  8
0
  6
CONTINUOUS
 62
     2
 10
284.0766666
 20
777.022663
 11
284.0766666
 21
730.522663
  0
LINE
  8
0
  6
CONTINUOUS
 62
     2
 10
644.0766666
 20
734.790612192
 11
634.417408337
 21
737.378802643
  0
LINE
  8
0
  6
CONTINUOUS
 62
     2
 10
644.0766666
 20
734.790612192
 11
634.417408337
 21
732.202421741
  0
LINE
  8
0
  6
CONTINUOUS
 62
     2
 10
284.0766666
 20
734.790612192
 11
293.735924863
 21
732.202421741
  0
LINE
  8
0
  6
CONTINUOUS
 62
     2
 10
284.0766666
 20
734.790612192
 11
293.735924863
 21
737.378802643
  0
LINE
  8
0
  6
CONTINUOUS
 62
     2
 10
284.0766666
 20
734.790612192
 11
644.0766666
 21
734.790612192
  0
TEXT
  8
0
  6
CONTINUOUS
 62
     3
 10
1403.7666945
 20
194.583323
 30
5.0
 40
17.5
  1
田口
 50
0.0
 41
0.857142857
 51
0.0
  7
KANJI24
  0
TEXT
  8
0
  6
CONTINUOUS
 62
     3
 10
1456.7666945
 20
193.583323
 30
0.0
 40
17.5
  1
５／２５
 50
0.0
 41
0.428571429
 51
0.0
  7
KANJI38
  0
ENDSEC
  0
EOF
