  0
SECTION
  2
HEADER
  9
$ACADVER
  1
AC1009
  9
$DWGCODEPAGE
  3
dos932
  9
$EXTMIN
 10
0.0
 20
0.0
 30
0.0
  9
$EXTMAX
 10
420.0
 20
297.0
 30
0.0
  9
$LIMMIN
 10
0.0
 20
0.0
  9
$LIMMAX
 10
420.0
 20
297.0
  9
$LTSCALE
 40
1.0
  9
$PDMODE
 70
     0
  0
ENDSEC
  0
SECTION
  2
TABLES
  0
TABLE
  2
VPORT
 70
     1
  0
VPORT
  2
*ACTIVE
 70
     0
 10
0.0
 20
0.0
 11
1.0
 21
1.0
 12
210.0
 22
148.5
 13
0.0
 23
0.0
 14
10.0
 24
10.0
 15
10.0
 25
10.0
 16
0.0
 26
0.0
 36
1.0
 17
0.0
 27
0.0
 37
0.0
 40
420.0
 41
1.414141414
 42
50.0
 43
0.0
 44
0.0
 50
0.0
 51
0.0
 71
     0
 72
  1000
 73
     1
 74
     3
 75
     0
 76
     0
 77
     0
 78
     0
  0
ENDTAB
  0
TABLE
  2
LTYPE
 70
     3
  0
LTYPE
  2
CONTINUOUS
 70
    64
  3
Solid line
 72
    65
 73
     0
 40
0.0
  0
LTYPE
  2
LTYPE1
 70
    64
  3
HIDDEN
 72
    65
 73
     2
 40
3.0
 49
1.8
 49
-1.2
  0
LTYPE
  2
LTYPE2
 70
    64
  3
CENTER
 72
    65
 73
     4
 40
15.0
 49
10.5
 49
-1.5
 49
1.5
 49
-1.5
  0
ENDTAB
  0
TABLE
  2
LAYER
 70
   128
  0
LAYER
  2
0
 70
     0
 62
     7
  6
CONTINUOUS
  0
LAYER
  2
2
 70
     0
 62
     7
  6
CONTINUOUS
  0
LAYER
  2
3
 70
     0
 62
     7
  6
CONTINUOUS
  0
LAYER
  2
4
 70
     0
 62
     7
  6
CONTINUOUS
  0
LAYER
  2
5
 70
     0
 62
     7
  6
CONTINUOUS
  0
LAYER
  2
6
 70
     0
 62
     7
  6
CONTINUOUS
  0
LAYER
  2
7
 70
     0
 62
     7
  6
CONTINUOUS
  0
LAYER
  2
8
 70
     0
 62
     7
  6
CONTINUOUS
  0
LAYER
  2
9
 70
     0
 62
     7
  6
CONTINUOUS
  0
LAYER
  2
10
 70
     0
 62
     7
  6
CONTINUOUS
  0
LAYER
  2
11
 70
     0
 62
     7
  6
CONTINUOUS
  0
LAYER
  2
12
 70
     0
 62
     7
  6
CONTINUOUS
  0
LAYER
  2
13
 70
     0
 62
     7
  6
CONTINUOUS
  0
LAYER
  2
14
 70
     0
 62
     7
  6
CONTINUOUS
  0
LAYER
  2
15
 70
     0
 62
     7
  6
CONTINUOUS
  0
LAYER
  2
16
 70
     0
 62
     7
  6
CONTINUOUS
  0
LAYER
  2
17
 70
     0
 62
     7
  6
CONTINUOUS
  0
LAYER
  2
18
 70
     0
 62
     7
  6
CONTINUOUS
  0
LAYER
  2
19
 70
     0
 62
     7
  6
CONTINUOUS
  0
LAYER
  2
20
 70
     0
 62
     7
  6
CONTINUOUS
  0
LAYER
  2
21
 70
     0
 62
     7
  6
CONTINUOUS
  0
LAYER
  2
22
 70
     0
 62
     7
  6
CONTINUOUS
  0
LAYER
  2
23
 70
     0
 62
     7
  6
CONTINUOUS
  0
LAYER
  2
24
 70
     0
 62
     7
  6
CONTINUOUS
  0
LAYER
  2
25
 70
     0
 62
     7
  6
CONTINUOUS
  0
LAYER
  2
26
 70
     0
 62
     7
  6
CONTINUOUS
  0
LAYER
  2
27
 70
     0
 62
     7
  6
CONTINUOUS
  0
LAYER
  2
28
 70
     0
 62
     7
  6
CONTINUOUS
  0
LAYER
  2
29
 70
     0
 62
     7
  6
CONTINUOUS
  0
LAYER
  2
30
 70
     0
 62
     7
  6
CONTINUOUS
  0
LAYER
  2
31
 70
     0
 62
     7
  6
CONTINUOUS
  0
LAYER
  2
32
 70
     0
 62
     7
  6
CONTINUOUS
  0
LAYER
  2
33
 70
     0
 62
     7
  6
CONTINUOUS
  0
LAYER
  2
34
 70
     0
 62
     7
  6
CONTINUOUS
  0
LAYER
  2
35
 70
     0
 62
     7
  6
CONTINUOUS
  0
LAYER
  2
36
 70
     0
 62
     7
  6
CONTINUOUS
  0
LAYER
  2
37
 70
     0
 62
     7
  6
CONTINUOUS
  0
LAYER
  2
38
 70
     0
 62
     7
  6
CONTINUOUS
  0
LAYER
  2
39
 70
     0
 62
     7
  6
CONTINUOUS
  0
LAYER
  2
40
 70
     0
 62
     7
  6
CONTINUOUS
  0
LAYER
  2
41
 70
     0
 62
     7
  6
CONTINUOUS
  0
LAYER
  2
42
 70
     0
 62
     7
  6
CONTINUOUS
  0
LAYER
  2
43
 70
     0
 62
     7
  6
CONTINUOUS
  0
LAYER
  2
44
 70
     0
 62
     7
  6
CONTINUOUS
  0
LAYER
  2
45
 70
     0
 62
     7
  6
CONTINUOUS
  0
LAYER
  2
46
 70
     0
 62
     7
  6
CONTINUOUS
  0
LAYER
  2
47
 70
     0
 62
     7
  6
CONTINUOUS
  0
LAYER
  2
48
 70
     0
 62
     7
  6
CONTINUOUS
  0
LAYER
  2
49
 70
     0
 62
     7
  6
CONTINUOUS
  0
LAYER
  2
50
 70
     0
 62
     7
  6
CONTINUOUS
  0
LAYER
  2
51
 70
     0
 62
     7
  6
CONTINUOUS
  0
LAYER
  2
52
 70
     0
 62
     7
  6
CONTINUOUS
  0
LAYER
  2
53
 70
     0
 62
     7
  6
CONTINUOUS
  0
LAYER
  2
54
 70
     0
 62
     7
  6
CONTINUOUS
  0
LAYER
  2
55
 70
     0
 62
     7
  6
CONTINUOUS
  0
LAYER
  2
56
 70
     0
 62
     7
  6
CONTINUOUS
  0
LAYER
  2
57
 70
     0
 62
     7
  6
CONTINUOUS
  0
LAYER
  2
58
 70
     0
 62
     7
  6
CONTINUOUS
  0
LAYER
  2
59
 70
     0
 62
     7
  6
CONTINUOUS
  0
LAYER
  2
60
 70
     0
 62
     7
  6
CONTINUOUS
  0
LAYER
  2
61
 70
     0
 62
     7
  6
CONTINUOUS
  0
LAYER
  2
62
 70
     0
 62
     7
  6
CONTINUOUS
  0
LAYER
  2
63
 70
     0
 62
     7
  6
CONTINUOUS
  0
LAYER
  2
64
 70
     0
 62
     7
  6
CONTINUOUS
  0
LAYER
  2
65
 70
     0
 62
     7
  6
CONTINUOUS
  0
LAYER
  2
66
 70
     0
 62
     7
  6
CONTINUOUS
  0
LAYER
  2
67
 70
     0
 62
     7
  6
CONTINUOUS
  0
LAYER
  2
68
 70
     0
 62
     7
  6
CONTINUOUS
  0
LAYER
  2
69
 70
     0
 62
     7
  6
CONTINUOUS
  0
LAYER
  2
70
 70
     0
 62
     7
  6
CONTINUOUS
  0
LAYER
  2
71
 70
     0
 62
     7
  6
CONTINUOUS
  0
LAYER
  2
72
 70
     0
 62
     7
  6
CONTINUOUS
  0
LAYER
  2
73
 70
     0
 62
     7
  6
CONTINUOUS
  0
LAYER
  2
74
 70
     0
 62
     7
  6
CONTINUOUS
  0
LAYER
  2
75
 70
     0
 62
     7
  6
CONTINUOUS
  0
LAYER
  2
76
 70
     0
 62
     7
  6
CONTINUOUS
  0
LAYER
  2
77
 70
     0
 62
     7
  6
CONTINUOUS
  0
LAYER
  2
78
 70
     0
 62
     7
  6
CONTINUOUS
  0
LAYER
  2
79
 70
     0
 62
     7
  6
CONTINUOUS
  0
LAYER
  2
80
 70
     0
 62
     7
  6
CONTINUOUS
  0
LAYER
  2
81
 70
     0
 62
     7
  6
CONTINUOUS
  0
LAYER
  2
82
 70
     0
 62
     7
  6
CONTINUOUS
  0
LAYER
  2
83
 70
     0
 62
     7
  6
CONTINUOUS
  0
LAYER
  2
84
 70
     0
 62
     7
  6
CONTINUOUS
  0
LAYER
  2
85
 70
     0
 62
     7
  6
CONTINUOUS
  0
LAYER
  2
86
 70
     0
 62
     7
  6
CONTINUOUS
  0
LAYER
  2
87
 70
     0
 62
     7
  6
CONTINUOUS
  0
LAYER
  2
88
 70
     0
 62
     7
  6
CONTINUOUS
  0
LAYER
  2
89
 70
     0
 62
     7
  6
CONTINUOUS
  0
LAYER
  2
90
 70
     0
 62
     7
  6
CONTINUOUS
  0
LAYER
  2
91
 70
     0
 62
     7
  6
CONTINUOUS
  0
LAYER
  2
92
 70
     0
 62
     7
  6
CONTINUOUS
  0
LAYER
  2
93
 70
     0
 62
     7
  6
CONTINUOUS
  0
LAYER
  2
94
 70
     0
 62
     7
  6
CONTINUOUS
  0
LAYER
  2
95
 70
     0
 62
     7
  6
CONTINUOUS
  0
LAYER
  2
96
 70
     0
 62
     7
  6
CONTINUOUS
  0
LAYER
  2
97
 70
     0
 62
     7
  6
CONTINUOUS
  0
LAYER
  2
98
 70
     0
 62
     7
  6
CONTINUOUS
  0
LAYER
  2
99
 70
     0
 62
     7
  6
CONTINUOUS
  0
LAYER
  2
100
 70
     0
 62
     7
  6
CONTINUOUS
  0
LAYER
  2
101
 70
     0
 62
     7
  6
CONTINUOUS
  0
LAYER
  2
102
 70
     0
 62
     7
  6
CONTINUOUS
  0
LAYER
  2
103
 70
     0
 62
     7
  6
CONTINUOUS
  0
LAYER
  2
104
 70
     0
 62
     7
  6
CONTINUOUS
  0
LAYER
  2
105
 70
     0
 62
     7
  6
CONTINUOUS
  0
LAYER
  2
106
 70
     0
 62
     7
  6
CONTINUOUS
  0
LAYER
  2
107
 70
     0
 62
     7
  6
CONTINUOUS
  0
LAYER
  2
108
 70
     0
 62
     7
  6
CONTINUOUS
  0
LAYER
  2
109
 70
     0
 62
     7
  6
CONTINUOUS
  0
LAYER
  2
110
 70
     0
 62
     7
  6
CONTINUOUS
  0
LAYER
  2
111
 70
     0
 62
     7
  6
CONTINUOUS
  0
LAYER
  2
112
 70
     0
 62
     7
  6
CONTINUOUS
  0
LAYER
  2
113
 70
     0
 62
     7
  6
CONTINUOUS
  0
LAYER
  2
114
 70
     0
 62
     7
  6
CONTINUOUS
  0
LAYER
  2
115
 70
     0
 62
     7
  6
CONTINUOUS
  0
LAYER
  2
116
 70
     0
 62
     7
  6
CONTINUOUS
  0
LAYER
  2
117
 70
     0
 62
     7
  6
CONTINUOUS
  0
LAYER
  2
118
 70
     0
 62
     7
  6
CONTINUOUS
  0
LAYER
  2
119
 70
     0
 62
     7
  6
CONTINUOUS
  0
LAYER
  2
120
 70
     0
 62
     7
  6
CONTINUOUS
  0
LAYER
  2
121
 70
     0
 62
     7
  6
CONTINUOUS
  0
LAYER
  2
122
 70
     0
 62
     7
  6
CONTINUOUS
  0
LAYER
  2
123
 70
     0
 62
     7
  6
CONTINUOUS
  0
LAYER
  2
124
 70
     0
 62
     7
  6
CONTINUOUS
  0
LAYER
  2
125
 70
     0
 62
     7
  6
CONTINUOUS
  0
LAYER
  2
126
 70
     0
 62
     7
  6
CONTINUOUS
  0
LAYER
  2
127
 70
     0
 62
     7
  6
CONTINUOUS
  0
LAYER
  2
128
 70
     0
 62
     7
  6
CONTINUOUS
  0
ENDTAB
  0
TABLE
  2
STYLE
 70
    42
  0
STYLE
  2
STANDARD
 70
     0
 40
0.0
 41
1.0
 50
0.0
 71
     0
 42
0.2
  3
txt.shx
  4
extfont.shx
  0
STYLE
  2
KANJI0
 70
     0
 40
4.5
 41
0.666666667
 50
0.0
 71
     0
 42
4.5
  3
txt.shx
  4
extfont.shx
  0
STYLE
  2
KANJI1
 70
     0
 40
1.999999579
 41
0.6
 50
0.0
 71
     0
 42
1.999999579
  3
txt.shx
  4
extfont.shx
  0
STYLE
  2
KANJI2
 70
     0
 40
2.399999495
 41
0.9
 50
0.0
 71
     0
 42
2.399999495
  3
txt.shx
  4
extfont.shx
  0
STYLE
  2
KANJI3
 70
     0
 40
2.5999998
 41
0.9
 50
0.0
 71
     0
 42
2.5999998
  3
txt.shx
  4
extfont.shx
  0
STYLE
  2
KANJI4
 70
     0
 40
1.7333332
 41
0.75
 50
0.0
 71
     0
 42
1.7333332
  3
txt.shx
  4
extfont.shx
  0
STYLE
  2
KANJI5
 70
     0
 40
2.5999998
 41
0.75
 50
0.0
 71
     0
 42
2.5999998
  3
txt.shx
  4
extfont.shx
  0
STYLE
  2
KANJI6
 70
     0
 40
1.55999988
 41
0.75
 50
0.0
 71
     0
 42
1.55999988
  3
txt.shx
  4
extfont.shx
  0
STYLE
  2
KANJI7
 70
     0
 40
1.7333332
 41
0.6
 50
0.0
 71
     0
 42
1.7333332
  3
txt.shx
  4
extfont.shx
  0
STYLE
  2
KANJI8
 70
     0
 40
2.07999984
 41
0.6
 50
0.0
 71
     0
 42
2.07999984
  3
txt.shx
  4
extfont.shx
  0
STYLE
  2
KANJI9
 70
     0
 40
1.7333332
 41
0.8
 50
0.0
 71
     0
 42
1.7333332
  3
txt.shx
  4
extfont.shx
  0
STYLE
  2
KANJI10
 70
     0
 40
2.07999984
 41
0.8
 50
0.0
 71
     0
 42
2.07999984
  3
txt.shx
  4
extfont.shx
  0
STYLE
  2
KANJI11
 70
     0
 40
8.666666
 41
0.9
 50
0.0
 71
     0
 42
8.666666
  3
txt.shx
  4
extfont.shx
  0
STYLE
  2
KANJI12
 70
     0
 40
2.999999369
 41
0.9
 50
0.0
 71
     0
 42
2.999999369
  3
txt.shx
  4
extfont.shx
  0
STYLE
  2
KANJI13
 70
     0
 40
3.0333331
 41
0.42031746
 50
0.0
 71
     0
 42
3.0333331
  3
txt.shx
  4
extfont.shx
  0
STYLE
  2
KANJI14
 70
     0
 40
5.1999996
 41
0.9
 50
0.0
 71
     0
 42
5.1999996
  3
txt.shx
  4
extfont.shx
  0
STYLE
  2
KANJI15
 70
     0
 40
5.0
 41
0.8
 50
0.0
 71
     0
 42
5.0
  3
txt.shx
  4
extfont.shx
  0
STYLE
  2
KANJI16
 70
     0
 40
3.2
 41
1.0
 50
0.0
 71
     0
 42
3.2
  3
txt.shx
  4
extfont.shx
  0
STYLE
  2
KANJI17
 70
     0
 40
3.2
 41
0.71875
 50
0.0
 71
     0
 42
3.2
  3
txt.shx
  4
extfont.shx
  0
STYLE
  2
KANJI18
 70
     0
 40
3.2
 41
0.5625
 50
0.0
 71
     0
 42
3.2
  3
txt.shx
  4
extfont.shx
  0
STYLE
  2
KANJI19
 70
     0
 40
3.2
 41
0.65625
 50
0.0
 71
     0
 42
3.2
  3
txt.shx
  4
extfont.shx
  0
STYLE
  2
KANJI20
 70
     0
 40
3.2
 41
0.6875
 50
0.0
 71
     0
 42
3.2
  3
txt.shx
  4
extfont.shx
  0
STYLE
  2
KANJI21
 70
     0
 40
4.5
 41
0.8888888
 50
0.0
 71
     0
 42
4.5
  3
txt.shx
  4
extfont.shx
  0
STYLE
  2
KANJI22
 70
     0
 40
3.2
 41
0.78125
 50
0.0
 71
     0
 42
3.2
  3
txt.shx
  4
extfont.shx
  0
STYLE
  2
KANJI23
 70
     0
 40
2.5
 41
0.6
 50
0.0
 71
     0
 42
2.5
  3
txt.shx
  4
extfont.shx
  0
STYLE
  2
KANJI24
 70
     0
 40
3.5
 41
0.8285714
 50
0.0
 71
     0
 42
3.5
  3
txt.shx
  4
extfont.shx
  0
STYLE
  2
KANJI25
 70
     0
 40
4.5
 41
1.0
 50
0.0
 71
     0
 42
4.5
  3
txt.shx
  4
extfont.shx
  0
STYLE
  2
KANJI26
 70
     0
 40
2.88
 41
0.71875
 50
0.0
 71
     0
 42
2.88
  3
txt.shx
  4
extfont.shx
  0
STYLE
  2
KANJI27
 70
     0
 40
2.7
 41
0.9
 50
0.0
 71
     0
 42
2.7
  3
txt.shx
  4
extfont.shx
  0
STYLE
  2
KANJI28
 70
     0
 40
4.5
 41
0.9
 50
0.0
 71
     0
 42
4.5
  3
txt.shx
  4
extfont.shx
  0
STYLE
  2
KANJI29
 70
     0
 40
3.5
 41
0.914285714
 50
0.0
 71
     0
 42
3.5
  3
txt.shx
  4
extfont.shx
  0
STYLE
  2
KANJI30
 70
     0
 40
3.0
 41
0.9
 50
0.0
 71
     0
 42
3.0
  3
txt.shx
  4
extfont.shx
  0
STYLE
  2
KANJI31
 70
     0
 40
6.75
 41
0.8888888
 50
0.0
 71
     0
 42
6.75
  3
txt.shx
  4
extfont.shx
  0
STYLE
  2
KANJI32
 70
     0
 40
2.7
 41
0.9
 50
0.0
 71
     0
 42
2.7
  3
txt.shx
  4
extfont.shx
  0
STYLE
  2
KANJI33
 70
     0
 40
2.88
 41
0.625
 50
0.0
 71
     0
 42
2.88
  3
txt.shx
  4
extfont.shx
  0
STYLE
  2
KANJI34
 70
     0
 40
3.5
 41
0.857142857
 50
0.0
 71
     0
 42
3.5
  3
txt.shx
  4
extfont.shx
  0
STYLE
  2
KANJI35
 70
     0
 40
2.5999998
 41
0.75
 50
0.0
 71
     0
 42
2.5999998
  3
txt.shx
  4
extfont.shx
  0
STYLE
  2
KANJI36
 70
     0
 40
3.6
 41
1.111111111
 50
0.0
 71
     0
 42
3.6
  3
txt.shx
  4
extfont.shx
  0
STYLE
  2
KANJI37
 70
     0
 40
4.0
 41
1.25
 50
0.0
 71
     0
 42
4.0
  3
txt.shx
  4
extfont.shx
  0
STYLE
  2
KANJI38
 70
     0
 40
5.0
 41
0.8
 50
0.0
 71
     0
 42
5.0
  3
txt.shx
  4
extfont.shx
  0
STYLE
  2
KANJI39
 70
     0
 40
3.5
 41
0.571428571
 50
0.0
 71
     0
 42
3.5
  3
txt.shx
  4
extfont.shx
  0
STYLE
  2
KANJI40
 70
     0
 40
3.0
 41
0.9
 50
0.0
 71
     0
 42
3.0
  3
txt.shx
  4
extfont.shx
  0
ENDTAB
  0
TABLE
  2
VIEW
 70
     0
  0
ENDTAB
  0
ENDSEC
  0
SECTION
  2
BLOCKS
  0
ENDSEC
  0
SECTION
  2
ENTITIES
  0
LINE
  8
2
  6
CONTINUOUS
 62
     1
 10
343.54
 20
135.49
 30
0.0
 11
343.54
 21
250.49
 31
0.0
  0
LINE
  8
2
  6
CONTINUOUS
 62
     1
 10
373.54
 20
135.49
 30
0.0
 11
373.54
 21
240.49
 31
0.0
  0
LINE
  8
3
  6
CONTINUOUS
 62
     1
 10
93.97
 20
79.68
 30
0.0
 11
98.97
 21
79.68
 31
0.0
  0
LINE
  8
3
  6
CONTINUOUS
 62
     1
 10
93.97
 20
74.68
 30
0.0
 11
93.97
 21
79.68
 31
0.0
  0
LINE
  8
3
  6
CONTINUOUS
 62
     1
 10
98.97
 20
74.68
 30
0.0
 11
98.97
 21
79.68
 31
0.0
  0
LINE
  8
3
  6
CONTINUOUS
 62
     1
 10
93.97
 20
74.68
 30
0.0
 11
98.97
 21
74.68
 31
0.0
  0
ARC
  8
3
  6
CONTINUOUS
 62
     1
 10
96.47
 20
70.18
 30
0.0
 40
7.5
 50
109.47394
 51
70.526059
  0
LINE
  8
0
  6
CONTINUOUS
 62
     1
 10
235.69
 20
175.805
 30
0.0
 11
257.51
 21
175.805
 31
0.0
  0
ARC
  8
0
  6
CONTINUOUS
 62
     1
 10
230.495
 20
184.115
 30
0.0
 40
2.595
 50
0.0
 51
90.0
  0
LINE
  8
0
  6
CONTINUOUS
 62
     1
 10
266.6
 20
192.185
 30
0.0
 11
269.085
 21
192.185
 31
0.0
  0
ARC
  8
0
  6
CONTINUOUS
 62
     1
 10
235.69
 20
178.4
 30
0.0
 40
2.595
 50
180.0
 51
270.0
  0
LINE
  8
0
  6
CONTINUOUS
 62
     1
 10
233.095
 20
178.4
 30
0.0
 11
233.095
 21
200.22
 31
0.0
  0
LINE
  8
0
  6
CONTINUOUS
 62
     1
 10
269.1
 20
192.185
 30
0.0
 11
269.1
 21
219.685
 31
0.0
  0
LINE
  8
0
  6
CONTINUOUS
 62
     1
 10
266.6
 20
219.685
 30
0.0
 11
269.1
 21
219.685
 31
0.0
  0
ARC
  8
0
  6
CONTINUOUS
 62
     1
 10
262.705
 20
184.115
 30
0.0
 40
2.595
 50
90.0
 51
180.0
  0
ARC
  8
0
  6
CONTINUOUS
 62
     1
 10
257.51
 20
178.4
 30
0.0
 40
2.595
 50
270.0
 51
0.0
  0
LINE
  8
0
  6
CONTINUOUS
 62
     1
 10
260.105
 20
178.4
 30
0.0
 11
260.105
 21
200.22
 31
0.0
  0
LINE
  8
0
  6
CONTINUOUS
 62
     1
 10
262.1
 20
213.205
 30
0.0
 11
266.1
 21
213.205
 31
0.0
  0
LINE
  8
0
  6
CONTINUOUS
 62
     1
 10
262.1
 20
198.66
 30
0.0
 11
266.1
 21
198.66
 31
0.0
  0
ARC
  8
0
  6
CONTINUOUS
 62
     1
 10
257.51
 20
200.22
 30
0.0
 40
2.595
 50
0.0
 51
90.0
  0
LINE
  8
0
  6
CONTINUOUS
 62
     1
 10
235.69
 20
202.815
 30
0.0
 11
257.51
 21
202.815
 31
0.0
  0
ARC
  8
0
  6
CONTINUOUS
 62
     1
 10
235.69
 20
200.22
 30
0.0
 40
2.595
 50
90.0
 51
180.0
  0
CIRCLE
  8
0
  6
CONTINUOUS
 62
     1
 10
256.15
 20
198.86
 30
0.0
 40
1.56
  0
CIRCLE
  8
0
  6
CONTINUOUS
 62
     1
 10
237.05
 20
198.86
 30
0.0
 40
1.56
  0
CIRCLE
  8
0
  6
CONTINUOUS
 62
     1
 10
237.05
 20
179.76
 30
0.0
 40
1.56
  0
CIRCLE
  8
0
  6
CONTINUOUS
 62
     1
 10
256.15
 20
179.76
 30
0.0
 40
1.56
  0
LINE
  8
0
  6
CONTINUOUS
 62
     1
 10
262.705
 20
186.71
 30
0.0
 11
266.6
 21
186.71
 31
0.0
  0
LINE
  8
0
  6
CONTINUOUS
 62
     1
 10
241.665
 20
188.01
 30
0.0
 11
241.665
 21
190.61
 31
0.0
  0
LINE
  8
0
  6
CONTINUOUS
 62
     1
 10
244.26
 20
188.01
 30
0.0
 11
244.26
 21
190.61
 31
0.0
  0
LINE
  8
0
  6
CONTINUOUS
 62
     1
 10
241.665
 20
188.01
 30
0.0
 11
244.26
 21
188.01
 31
0.0
  0
LINE
  8
0
  6
CONTINUOUS
 62
     1
 10
241.665
 20
190.61
 30
0.0
 11
244.26
 21
190.61
 31
0.0
  0
LINE
  8
0
  6
CONTINUOUS
 62
     1
 10
261.6
 20
186.465
 30
0.0
 11
261.6
 21
225.155
 31
0.0
  0
LINE
  8
0
  6
CONTINUOUS
 62
     1
 10
266.6
 20
186.71
 30
0.0
 11
266.6
 21
225.155
 31
0.0
  0
ARC
  8
0
  6
CONTINUOUS
 62
     1
 10
246.6
 20
189.31
 30
0.0
 40
3.895
 50
199.50533
 51
160.49466
  0
ARC
  8
0
  6
CONTINUOUS
 62
     1
 10
246.6
 20
189.31
 30
0.0
 40
4.635
 50
196.28492
 51
163.71507
  0
CIRCLE
  8
0
  6
CONTINUOUS
 62
     1
 10
68.46
 20
205.935
 30
0.0
 40
2.75
  0
CIRCLE
  8
0
  6
CONTINUOUS
 62
     1
 10
128.46
 20
205.935
 30
0.0
 40
2.75
  0
LINE
  8
0
  6
CONTINUOUS
 62
     1
 10
74.96
 20
202.935
 30
0.0
 11
77.465
 21
202.935
 31
0.0
  0
LINE
  8
0
  6
CONTINUOUS
 62
     1
 10
74.96
 20
177.69
 30
0.0
 11
121.96
 21
177.69
 31
0.0
  0
LINE
  8
0
  6
CONTINUOUS
 62
     1
 10
73.46
 20
179.19
 30
0.0
 11
73.46
 21
201.435
 31
0.0
  0
ARC
  8
0
  6
CONTINUOUS
 62
     1
 10
74.96
 20
201.435
 30
0.0
 40
1.5
 50
90.0
 51
180.0
  0
ARC
  8
0
  6
CONTINUOUS
 62
     1
 10
74.96
 20
179.19
 30
0.0
 40
1.5
 50
180.0
 51
270.0
  0
ARC
  8
0
  6
CONTINUOUS
 62
     1
 10
121.96
 20
201.435
 30
0.0
 40
1.5
 50
0.0
 51
90.0
  0
LINE
  8
0
  6
CONTINUOUS
 62
     1
 10
119.455
 20
202.935
 30
0.0
 11
121.96
 21
202.935
 31
0.0
  0
LINE
  8
0
  6
CONTINUOUS
 62
     1
 10
123.46
 20
179.19
 30
0.0
 11
123.46
 21
201.435
 31
0.0
  0
ARC
  8
0
  6
CONTINUOUS
 62
     1
 10
121.96
 20
179.19
 30
0.0
 40
1.5
 50
270.0
 51
0.0
  0
ARC
  8
0
  6
CONTINUOUS
 62
     1
 10
97.23
 20
224.445
 30
0.0
 40
37.53
 50
271.87812
 51
295.99498
  0
ARC
  8
0
  6
CONTINUOUS
 62
     1
 10
97.23
 20
187.42
 30
0.0
 40
37.53
 50
64.00502
 51
88.122122
  0
ARC
  8
0
  6
CONTINUOUS
 62
     1
 10
79.96
 20
205.935
 30
0.0
 40
37.0
 50
335.70023
 51
24.292711
  0
ARC
  8
0
  6
CONTINUOUS
 62
     1
 10
68.46
 20
209.425
 30
0.0
 40
5.0
 50
109.91952
 51
180.0
  0
ARC
  8
0
  6
CONTINUOUS
 62
     1
 10
68.46
 20
202.44
 30
0.0
 40
5.0
 50
180.0
 51
250.06095
  0
LINE
  8
0
  6
CONTINUOUS
 62
     1
 10
114.22
 20
219.9
 30
0.0
 11
130.16
 21
214.13
 31
0.0
  0
ARC
  8
0
  6
CONTINUOUS
 62
     1
 10
128.46
 20
209.425
 30
0.0
 40
5.0
 50
0.0
 51
70.134312
  0
LINE
  8
0
  6
CONTINUOUS
 62
     1
 10
133.46
 20
202.44
 30
0.0
 11
133.46
 21
209.425
 31
0.0
  0
ARC
  8
0
  6
CONTINUOUS
 62
     1
 10
128.46
 20
202.44
 30
0.0
 40
5.0
 50
289.88516
 51
0.0
  0
LINE
  8
0
  6
CONTINUOUS
 62
     1
 10
123.46
 20
195.31
 30
0.0
 11
130.16
 21
197.74
 31
0.0
  0
ARC
  8
0
  6
CONTINUOUS
 62
     1
 10
77.465
 20
205.435
 30
0.0
 40
2.5
 50
270.0
 51
1.3748347
  0
ARC
  8
0
  6
CONTINUOUS
 62
     1
 10
119.455
 20
205.435
 30
0.0
 40
2.5
 50
179.31248
 51
270.0
  0
ARC
  8
0
  6
CONTINUOUS
 62
     1
 10
116.96
 20
205.935
 30
0.0
 40
37.0
 50
155.71047
 51
204.29658
  0
ARC
  8
0
  6
CONTINUOUS
 62
     1
 10
99.685
 20
224.445
 30
0.0
 40
37.53
 50
244.00502
 51
268.1295
  0
ARC
  8
0
  6
CONTINUOUS
 62
     1
 10
99.685
 20
187.42
 30
0.0
 40
37.53
 50
91.870249
 51
115.99498
  0
LINE
  8
0
  6
CONTINUOUS
 62
     1
 10
55.96
 20
186.185
 30
0.0
 11
55.96
 21
193.685
 31
0.0
  0
LINE
  8
0
  6
CONTINUOUS
 62
     1
 10
55.96
 20
193.685
 30
0.0
 11
72.46
 21
193.685
 31
0.0
  0
LINE
  8
0
  6
CONTINUOUS
 62
     1
 10
55.96
 20
186.185
 30
0.0
 11
72.46
 21
186.185
 31
0.0
  0
LINE
  8
0
  6
CONTINUOUS
 62
     1
 10
72.46
 20
189.935
 30
0.0
 11
72.46
 21
194.395
 31
0.0
  0
LINE
  8
0
  6
CONTINUOUS
 62
     1
 10
72.46
 20
194.395
 30
0.0
 11
73.46
 21
194.395
 31
0.0
  0
LINE
  8
0
  6
CONTINUOUS
 62
     1
 10
72.46
 20
185.475
 30
0.0
 11
72.46
 21
189.935
 31
0.0
  0
LINE
  8
0
  6
CONTINUOUS
 62
     1
 10
72.46
 20
185.475
 30
0.0
 11
73.46
 21
185.475
 31
0.0
  0
LINE
  8
0
  6
CONTINUOUS
 62
     1
 10
55.96
 20
191.185
 30
0.0
 11
69.71
 21
191.185
 31
0.0
  0
LINE
  8
0
  6
CONTINUOUS
 62
     1
 10
55.96
 20
188.685
 30
0.0
 11
69.71
 21
188.685
 31
0.0
  0
ARC
  8
0
  6
CONTINUOUS
 62
     1
 10
69.71
 20
189.935
 30
0.0
 40
1.25
 50
270.0
 51
90.0
  0
LINE
  8
0
  6
CONTINUOUS
 62
     1
 10
127.21
 20
191.185
 30
0.0
 11
140.96
 21
191.185
 31
0.0
  0
LINE
  8
0
  6
CONTINUOUS
 62
     1
 10
127.21
 20
188.685
 30
0.0
 11
140.96
 21
188.685
 31
0.0
  0
LINE
  8
0
  6
CONTINUOUS
 62
     1
 10
124.46
 20
186.185
 30
0.0
 11
140.96
 21
186.185
 31
0.0
  0
LINE
  8
0
  6
CONTINUOUS
 62
     1
 10
124.46
 20
193.685
 30
0.0
 11
140.96
 21
193.685
 31
0.0
  0
LINE
  8
0
  6
CONTINUOUS
 62
     1
 10
140.96
 20
186.185
 30
0.0
 11
140.96
 21
193.685
 31
0.0
  0
ARC
  8
0
  6
CONTINUOUS
 62
     1
 10
127.21
 20
189.935
 30
0.0
 40
1.25
 50
90.0
 51
270.0
  0
LINE
  8
0
  6
CONTINUOUS
 62
     1
 10
124.46
 20
189.935
 30
0.0
 11
124.46
 21
194.395
 31
0.0
  0
LINE
  8
0
  6
CONTINUOUS
 62
     1
 10
124.46
 20
185.475
 30
0.0
 11
124.46
 21
189.935
 31
0.0
  0
LINE
  8
0
  6
CONTINUOUS
 62
     1
 10
123.46
 20
185.475
 30
0.0
 11
124.46
 21
185.475
 31
0.0
  0
LINE
  8
0
  6
CONTINUOUS
 62
     1
 10
123.46
 20
194.395
 30
0.0
 11
124.46
 21
194.395
 31
0.0
  0
CIRCLE
  8
0
  6
CONTINUOUS
 62
     1
 10
98.46
 20
181.135
 30
0.0
 40
1.19
  0
ARC
  8
0
  6
CONTINUOUS
 62
     1
 10
98.46
 20
181.135
 30
0.0
 40
2.67
 50
180.0
 51
0.0
  0
LINE
  8
0
  6
CONTINUOUS
 62
     1
 10
95.785
 20
181.135
 30
0.0
 11
95.785
 21
186.225
 31
0.0
  0
LINE
  8
0
  6
CONTINUOUS
 62
     1
 10
101.13
 20
181.135
 30
0.0
 11
101.13
 21
186.225
 31
0.0
  0
CIRCLE
  8
0
  6
CONTINUOUS
 62
     1
 10
98.46
 20
205.935
 30
0.0
 40
5.715
  0
CIRCLE
  8
0
  6
CONTINUOUS
 62
     1
 10
98.46
 20
205.935
 30
0.0
 40
4.0
  0
LINE
  8
0
  6
CONTINUOUS
 62
     1
 10
83.675
 20
176.935
 30
0.0
 11
113.24
 21
176.935
 31
0.0
  0
LINE
  8
0
  6
CONTINUOUS
 62
     1
 10
113.24
 20
176.935
 30
0.0
 11
114.5
 21
177.69
 31
0.0
  0
LINE
  8
0
  6
CONTINUOUS
 62
     1
 10
82.415
 20
177.69
 30
0.0
 11
83.675
 21
176.935
 31
0.0
  0
ARC
  8
0
  6
CONTINUOUS
 62
     1
 10
128.46
 20
205.935
 30
0.0
 40
5.715
 50
28.942593
 51
331.01354
  0
ARC
  8
0
  6
CONTINUOUS
 62
     1
 10
68.46
 20
205.935
 30
0.0
 40
5.715
 50
208.98645
 51
151.0574
  0
LINE
  8
0
  6
CONTINUOUS
 62
     1
 10
66.755
 20
214.13
 30
0.0
 11
82.695
 21
219.9
 31
0.0
  0
LINE
  8
0
  6
CONTINUOUS
 62
     1
 10
63.46
 20
202.44
 30
0.0
 11
63.46
 21
209.425
 31
0.0
  0
LINE
  8
0
  6
CONTINUOUS
 62
     1
 10
66.755
 20
197.74
 30
0.0
 11
73.46
 21
195.31
 31
0.0
  0
ARC
  8
0
  6
CONTINUOUS
 62
     1
 10
94.785
 20
186.225
 30
0.0
 40
1.0
 50
0.0
 51
82.556283
  0
ARC
  8
0
  6
CONTINUOUS
 62
     1
 10
102.13
 20
186.225
 30
0.0
 40
1.0
 50
97.160449
 51
180.0
  0
LINE
  8
0
  6
CONTINUOUS
 62
     1
 10
98.46
 20
183.05
 30
0.0
 11
100.115
 21
182.09
 31
0.0
  0
LINE
  8
0
  6
CONTINUOUS
 62
     1
 10
96.805
 20
182.09
 30
0.0
 11
98.46
 21
183.05
 31
0.0
  0
LINE
  8
0
  6
CONTINUOUS
 62
     1
 10
96.805
 20
180.18
 30
0.0
 11
96.805
 21
182.09
 31
0.0
  0
LINE
  8
0
  6
CONTINUOUS
 62
     1
 10
96.805
 20
180.18
 30
0.0
 11
98.46
 21
179.225
 31
0.0
  0
LINE
  8
0
  6
CONTINUOUS
 62
     1
 10
98.46
 20
179.225
 30
0.0
 11
100.115
 21
180.18
 31
0.0
  0
LINE
  8
0
  6
CONTINUOUS
 62
     1
 10
100.115
 20
180.18
 30
0.0
 11
100.115
 21
182.09
 31
0.0
  0
LINE
  8
2
  6
CONTINUOUS
 62
     1
 10
129.72
 20
37.67
 30
0.0
 11
129.72
 21
107.67
 31
0.0
  0
LINE
  8
2
  6
CONTINUOUS
 62
     1
 10
129.72
 20
107.67
 30
0.0
 11
259.72
 21
107.67
 31
0.0
  0
LINE
  8
2
  6
CONTINUOUS
 62
     1
 10
159.72
 20
37.67
 30
0.0
 11
159.72
 21
107.67
 31
0.0
  0
LINE
  8
2
  6
CONTINUOUS
 62
     1
 10
176.72
 20
37.67
 30
0.0
 11
176.72
 21
107.67
 31
0.0
  0
LINE
  8
2
  6
CONTINUOUS
 62
     1
 10
193.72
 20
37.67
 30
0.0
 11
193.72
 21
107.67
 31
0.0
  0
LINE
  8
2
  6
CONTINUOUS
 62
     1
 10
210.72
 20
37.67
 30
0.0
 11
210.72
 21
107.67
 31
0.0
  0
LINE
  8
2
  6
CONTINUOUS
 62
     1
 10
129.72
 20
93.67
 30
0.0
 11
259.72
 21
93.67
 31
0.0
  0
LINE
  8
2
  6
CONTINUOUS
 62
     1
 10
129.72
 20
100.67
 30
0.0
 11
259.72
 21
100.67
 31
0.0
  0
LINE
  8
2
  6
CONTINUOUS
 62
     1
 10
129.72
 20
86.67
 30
0.0
 11
259.72
 21
86.67
 31
0.0
  0
LINE
  8
2
  6
CONTINUOUS
 62
     1
 10
129.72
 20
79.67
 30
0.0
 11
259.72
 21
79.67
 31
0.0
  0
LINE
  8
2
  6
CONTINUOUS
 62
     1
 10
129.72
 20
44.67
 30
0.0
 11
259.72
 21
44.67
 31
0.0
  0
LINE
  8
2
  6
CONTINUOUS
 62
     1
 10
129.72
 20
51.67
 30
0.0
 11
259.72
 21
51.67
 31
0.0
  0
LINE
  8
2
  6
CONTINUOUS
 62
     1
 10
129.72
 20
58.67
 30
0.0
 11
259.72
 21
58.67
 31
0.0
  0
LINE
  8
2
  6
CONTINUOUS
 62
     1
 10
129.72
 20
65.67
 30
0.0
 11
259.72
 21
65.67
 31
0.0
  0
LINE
  8
2
  6
CONTINUOUS
 62
     1
 10
129.72
 20
72.67
 30
0.0
 11
259.72
 21
72.67
 31
0.0
  0
LINE
  8
2
  6
CONTINUOUS
 62
     1
 10
244.72
 20
37.67
 30
0.0
 11
244.72
 21
107.67
 31
0.0
  0
LINE
  8
2
  6
CONTINUOUS
 62
     1
 10
227.72
 20
37.67
 30
0.0
 11
227.72
 21
107.67
 31
0.0
  0
LINE
  8
2
  6
CONTINUOUS
 62
     1
 10
259.72
 20
37.67
 30
0.0
 11
259.72
 21
107.67
 31
0.0
  0
LINE
  8
2
  6
CONTINUOUS
 62
     1
 10
129.72
 20
37.67
 30
0.0
 11
259.72
 21
37.67
 31
0.0
  0
LINE
  8
0
  6
CONTINUOUS
 62
     4
 10
406.0
 20
-7.0
 30
0.0
 11
307.0
 21
-7.0
 31
0.0
  0
LINE
  8
0
  6
CONTINUOUS
 62
     4
 10
406.0
 20
-17.0
 30
0.0
 11
307.0
 21
-17.0
 31
0.0
  0
TEXT
  8
0
  6
CONTINUOUS
 62
     3
 10
290.0
 20
14.0
 30
0.3
 40
4.5
  1
１／２
 50
0.0
 41
0.666666667
 51
0.0
  7
KANJI0
  0
TEXT
  8
0
  6
CONTINUOUS
 62
     4
 10
21.999999369
 20
16.999998949
 30
0.199999958
 40
1.999999579
  1
ＰＡＲＴＳ　ＬＩＳＴ
 50
0.0
 41
0.6
 51
0.0
  7
KANJI1
  0
TEXT
  8
0
  6
CONTINUOUS
 62
     4
 10
66.999989908
 20
16.999998949
 30
0.199999958
 40
1.999999579
  1
Ｎ０．
 50
0.0
 41
0.6
 51
0.0
  7
KANJI1
  0
TEXT
  8
0
  6
CONTINUOUS
 62
     4
 10
21.999999369
 20
13.999999579
 30
0.23999995
 40
2.399999495
  1
部品表
 50
0.0
 41
0.9
 51
0.0
  7
KANJI2
  0
TEXT
  8
0
  6
CONTINUOUS
 62
     4
 10
66.999989908
 20
13.999999579
 30
0.23999995
 40
2.399999495
  1
項番
 50
0.0
 41
0.9
 51
0.0
  7
KANJI2
  0
TEXT
  8
0
  6
CONTINUOUS
 62
     4
 10
296.3666751
 20
281.8666666
 30
0.25999998
 40
2.5999998
  1
ＩＳＯ
 50
0.0
 41
0.9
 51
0.0
  7
KANJI3
  0
TEXT
  8
0
  6
CONTINUOUS
 62
     4
 10
304.1666745
 20
281.8666666
 30
0.17333332
 40
1.7333332
  1
ＭＥＴＲＩＣ　ＳＣＲＥＷ　ＴＨＲＥＡＤ
 50
0.0
 41
0.75
 51
0.0
  7
KANJI4
  0
TEXT
  8
0
  6
CONTINUOUS
 62
     4
 10
333.59000557
 20
281.8666666
 30
0.17333332
 40
1.7333332
  1
ＩＳＯ
 50
0.0
 41
0.75
 51
0.0
  7
KANJI4
  0
TEXT
  8
0
  6
CONTINUOUS
 62
     4
 10
358.29000367
 20
281.8666666
 30
0.25999998
 40
2.5999998
  1
３
 50
0.0
 41
0.75
 51
0.0
  7
KANJI5
  0
TEXT
  8
0
  6
CONTINUOUS
 62
     4
 10
360.45667017
 20
281.8666666
 30
0.17333332
 40
1.7333332
  1
ＲＤ　ＡＮＧＬＥ　ＰＲＯＪＥＣＴＩＯＮ　第３角法
 50
0.0
 41
0.75
 51
0.0
  7
KANJI4
  0
TEXT
  8
0
  6
CONTINUOUS
 62
     4
 10
338.35667187
 20
281.8666666
 30
0.155999988
 40
1.55999988
  1
メートルネジ使用
 50
0.0
 41
0.75
 51
0.0
  7
KANJI6
  0
TEXT
  8
0
  6
CONTINUOUS
 62
     4
 10
273.4000102
 20
30.6333319
 30
0.17333332
 40
1.7333332
  1
ＤＲＡＷＮ
 50
0.0
 41
0.6
 51
0.0
  7
KANJI7
  0
TEXT
  8
0
  6
CONTINUOUS
 62
     4
 10
273.4000102
 20
37.5666647
 30
0.17333332
 40
1.7333332
  1
ＤＥＳＩＧＮ
 50
0.0
 41
0.6
 51
0.0
  7
KANJI7
  0
TEXT
  8
0
  6
CONTINUOUS
 62
     4
 10
273.4000102
 20
44.4999975
 30
0.17333332
 40
1.7333332
  1
ＣＨＥＣＫ
 50
0.0
 41
0.6
 51
0.0
  7
KANJI7
  0
TEXT
  8
0
  6
CONTINUOUS
 62
     4
 10
273.4000102
 20
51.4333303
 30
0.17333332
 40
1.7333332
  1
ＣＯＤＥ
 50
0.0
 41
0.6
 51
0.0
  7
KANJI7
  0
LINE
  8
0
  6
CONTINUOUS
 62
     4
 10
271.666677
 20
40.5999978
 30
0.0
 11
303.3000079
 21
40.5999978
 31
0.0
  0
LINE
  8
0
  6
CONTINUOUS
 62
     4
 10
271.666677
 20
33.666665
 30
0.0
 11
303.3000079
 21
33.666665
 31
0.0
  0
LINE
  8
0
  6
CONTINUOUS
 62
     4
 10
271.666677
 20
47.5333306
 30
0.0
 11
303.3000079
 21
47.5333306
 31
0.0
  0
LINE
  8
0
  6
CONTINUOUS
 62
     4
 10
271.666677
 20
54.4666634
 30
0.0
 11
405.1333334
 21
54.4666634
 31
0.0
  0
TEXT
  8
0
  6
CONTINUOUS
 62
     4
 10
273.4000102
 20
34.9666649
 30
0.207999984
 40
2.07999984
  1
設計
 50
0.0
 41
0.6
 51
0.0
  7
KANJI8
  0
TEXT
  8
0
  6
CONTINUOUS
 62
     4
 10
273.4000102
 20
41.8999977
 30
0.207999984
 40
2.07999984
  1
検図
 50
0.0
 41
0.6
 51
0.0
  7
KANJI8
  0
TEXT
  8
0
  6
CONTINUOUS
 62
     4
 10
273.4000102
 20
48.8333305
 30
0.207999984
 40
2.07999984
  1
分類
 50
0.0
 41
0.6
 51
0.0
  7
KANJI8
  0
LINE
  8
0
  6
CONTINUOUS
 62
     4
 10
305.85667437
 20
47.5333306
 30
0.0
 11
405.1333334
 21
47.5333306
 31
0.0
  0
LINE
  8
0
  6
CONTINUOUS
 62
     4
 10
303.3000079
 20
33.666665
 30
0.0
 11
405.1333334
 21
33.666665
 31
0.0
  0
TEXT
  8
0
  6
CONTINUOUS
 62
     4
 10
305.0333411
 20
30.6333319
 30
0.17333332
 40
1.7333332
  1
ＤＲＡＷＩＮＧ　ＮＯ．
 50
0.0
 41
0.8
 51
0.0
  7
KANJI9
  0
TEXT
  8
0
  6
CONTINUOUS
 62
     4
 10
305.0333411
 20
37.5666647
 30
0.17333332
 40
1.7333332
  1
ＭＦＧ　ＮＯ．
 50
0.0
 41
0.8
 51
0.0
  7
KANJI9
  0
TEXT
  8
0
  6
CONTINUOUS
 62
     4
 10
305.0333411
 20
44.4999975
 30
0.17333332
 40
1.7333332
  1
ＴＹＰＥ
 50
0.0
 41
0.8
 51
0.0
  7
KANJI9
  0
LINE
  8
0
  6
CONTINUOUS
 62
     4
 10
305.9000077
 20
40.5999978
 30
0.0
 11
345.7666713
 21
40.5999978
 31
0.0
  0
TEXT
  8
0
  6
CONTINUOUS
 62
     4
 10
305.0333411
 20
27.5999988
 30
0.207999984
 40
2.07999984
  1
図　面　番　号
 50
0.0
 41
0.8
 51
0.0
  7
KANJI10
  0
TEXT
  8
0
  6
CONTINUOUS
 62
     4
 10
305.0333411
 20
34.5333316
 30
0.207999984
 40
2.07999984
  1
製番
 50
0.0
 41
0.8
 51
0.0
  7
KANJI10
  0
TEXT
  8
0
  6
CONTINUOUS
 62
     4
 10
305.0333411
 20
41.4666644
 30
0.207999984
 40
2.07999984
  1
機種
 50
0.0
 41
0.8
 51
0.0
  7
KANJI10
  0
LINE
  8
0
  6
CONTINUOUS
 62
     4
 10
271.666677
 20
19.7999994
 30
0.0
 11
303.3000079
 21
19.7999994
 31
0.0
  0
LINE
  8
0
  6
CONTINUOUS
 62
     4
 10
271.666677
 20
26.7333322
 30
0.0
 11
303.3000079
 21
26.7333322
 31
0.0
  0
TEXT
  8
0
  6
CONTINUOUS
 62
     4
 10
273.4000102
 20
16.7666663
 30
0.17333332
 40
1.7333332
  1
ＳＣＡＬＥ
 50
0.0
 41
0.6
 51
0.0
  7
KANJI7
  0
TEXT
  8
0
  6
CONTINUOUS
 62
     4
 10
273.4000102
 20
23.6999991
 30
0.17333332
 40
1.7333332
  1
ＤＡＴＥ
 50
0.0
 41
0.6
 51
0.0
  7
KANJI7
  0
TEXT
  8
0
  6
CONTINUOUS
 62
     4
 10
273.4000102
 20
14.1666665
 30
0.207999984
 40
2.07999984
  1
尺度
 50
0.0
 41
0.6
 51
0.0
  7
KANJI8
  0
TEXT
  8
0
  6
CONTINUOUS
 62
     4
 10
273.4000102
 20
21.0999993
 30
0.207999984
 40
2.07999984
  1
日付
 50
0.0
 41
0.6
 51
0.0
  7
KANJI8
  0
TEXT
  8
0
  6
CONTINUOUS
 62
     4
 10
273.4000102
 20
28.0333321
 30
0.207999984
 40
2.07999984
  1
作図
 50
0.0
 41
0.6
 51
0.0
  7
KANJI8
  0
LINE
  8
0
  6
CONTINUOUS
 62
     4
 10
222.7000141
 20
12.8666666
 30
0.0
 11
222.7000141
 21
19.7999994
 31
0.0
  0
LINE
  8
0
  6
CONTINUOUS
 62
     4
 10
230.5000135
 20
12.8666666
 30
0.0
 11
230.5000135
 21
19.7999994
 31
0.0
  0
TEXT
  8
0
  6
CONTINUOUS
 62
     4
 10
225.3000139
 20
16.7666663
 30
0.17333332
 40
1.7333332
  1
ＢＹ
 50
0.0
 41
0.6
 51
0.0
  7
KANJI7
  0
TEXT
  8
0
  6
CONTINUOUS
 62
     4
 10
244.3666791
 20
16.7666663
 30
0.17333332
 40
1.7333332
  1
ＤＥＳＣＲＩＰＴＩＯＮ
 50
0.0
 41
0.6
 51
0.0
  7
KANJI7
  0
TEXT
  8
0
  6
CONTINUOUS
 62
     4
 10
225.3000139
 20
14.1666665
 30
0.207999984
 40
2.07999984
  1
担当
 50
0.0
 41
0.6
 51
0.0
  7
KANJI8
  0
TEXT
  8
0
  6
CONTINUOUS
 62
     4
 10
246.9666789
 20
14.1666665
 30
0.207999984
 40
2.07999984
  1
記　　　　事
 50
0.0
 41
0.6
 51
0.0
  7
KANJI8
  0
LINE
  8
0
  6
CONTINUOUS
 62
     4
 10
206.88334865
 20
18.4999995
 30
0.0
 11
204.0666822
 21
14.1666665
 31
0.0
  0
TEXT
  8
0
  6
CONTINUOUS
 62
     4
 10
214.0333481
 20
16.7666663
 30
0.17333332
 40
1.7333332
  1
ＤＡＴＥ
 50
0.0
 41
0.6
 51
0.0
  7
KANJI7
  0
TEXT
  8
0
  6
CONTINUOUS
 62
     4
 10
215.333348
 20
14.1666665
 30
0.207999984
 40
2.07999984
  1
日付
 50
0.0
 41
0.6
 51
0.0
  7
KANJI8
  0
LINE
  8
0
  6
CONTINUOUS
 62
     4
 10
204.0666822
 20
14.1666665
 30
0.0
 11
209.7000151
 21
14.1666665
 31
0.0
  0
LINE
  8
0
  6
CONTINUOUS
 62
     4
 10
210.5666817
 20
12.8666666
 30
0.0
 11
210.5666817
 21
19.7999994
 31
0.0
  0
LINE
  8
0
  6
CONTINUOUS
 62
     4
 10
206.88334865
 20
18.4999995
 30
0.0
 11
209.7000151
 21
14.1666665
 31
0.0
  0
LINE
  8
0
  6
CONTINUOUS
 62
     4
 10
303.3000079
 20
23.6999991
 30
0.0
 11
405.1333334
 21
23.6999991
 31
0.0
  0
LINE
  8
0
  6
CONTINUOUS
 62
     4
 10
303.3000079
 20
12.8666666
 30
0.0
 11
303.3000079
 21
54.4666634
 31
0.0
  0
LINE
  8
0
  6
LTYPE1
 62
     4
 10
376.1000023
 20
24.999999
 30
0.0
 11
376.1000023
 21
31.9333318
 31
0.0
  0
LINE
  8
0
  6
LTYPE1
 62
     4
 10
370.0333361
 20
24.999999
 30
0.0
 11
370.0333361
 21
31.9333318
 31
0.0
  0
LINE
  8
0
  6
LTYPE1
 62
     4
 10
363.9666699
 20
24.999999
 30
0.0
 11
363.9666699
 21
31.9333318
 31
0.0
  0
LINE
  8
0
  6
LTYPE1
 62
     4
 10
357.9000037
 20
24.999999
 30
0.0
 11
357.9000037
 21
31.9333318
 31
0.0
  0
LINE
  8
0
  6
LTYPE1
 62
     4
 10
351.8333375
 20
24.999999
 30
0.0
 11
351.8333375
 21
31.9333318
 31
0.0
  0
LINE
  8
0
  6
LTYPE1
 62
     4
 10
345.7666713
 20
24.999999
 30
0.0
 11
345.7666713
 21
31.9333318
 31
0.0
  0
LINE
  8
0
  6
LTYPE1
 62
     4
 10
339.7000051
 20
24.999999
 30
0.0
 11
339.7000051
 21
31.9333318
 31
0.0
  0
LINE
  8
0
  6
LTYPE1
 62
     4
 10
333.6333389
 20
24.999999
 30
0.0
 11
333.6333389
 21
31.9333318
 31
0.0
  0
LINE
  8
0
  6
LTYPE1
 62
     4
 10
333.6333389
 20
31.9333318
 30
0.0
 11
376.1000023
 21
31.9333318
 31
0.0
  0
LINE
  8
0
  6
LTYPE1
 62
     4
 10
333.6333389
 20
24.999999
 30
0.0
 11
376.1000023
 21
24.999999
 31
0.0
  0
LINE
  8
0
  6
CONTINUOUS
 62
     4
 10
379.5666687
 20
28.68333205
 30
0.0
 11
381.3000019
 21
28.68333205
 31
0.0
  0
LINE
  8
0
  6
CONTINUOUS
 62
     4
 10
390.4000012
 20
26.08333225
 30
0.0
 11
384.333335
 21
26.08333225
 31
0.0
  0
LINE
  8
0
  6
CONTINUOUS
 62
     4
 10
384.333335
 20
26.08333225
 30
0.0
 11
387.3666681
 21
31.28333185
 31
0.0
  0
LINE
  8
0
  6
CONTINUOUS
 62
     4
 10
387.3666681
 20
31.28333185
 30
0.0
 11
390.4000012
 21
26.08333225
 31
0.0
  0
TEXT
  8
0
  6
CONTINUOUS
 62
     4
 10
391.2666678
 20
3.333334
 30
0.8666666
 40
8.666666
  1
／
 50
0.0
 41
0.9
 51
0.0
  7
KANJI11
  0
TEXT
  8
0
  6
CONTINUOUS
 62
     4
 10
348.3666711
 20
44.4999975
 30
0.17333332
 40
1.7333332
  1
ＴＩＴＬＥ
 50
0.0
 41
0.8
 51
0.0
  7
KANJI9
  0
TEXT
  8
0
  6
CONTINUOUS
 62
     4
 10
348.3666711
 20
41.4666644
 30
0.207999984
 40
2.07999984
  1
名称
 50
0.0
 41
0.8
 51
0.0
  7
KANJI10
  0
LINE
  8
0
  6
CONTINUOUS
 62
     6
 10
19.0
 20
12.0
 30
0.0
 11
19.0
 21
281.0
 31
0.0
  0
LINE
  8
0
  6
CONTINUOUS
 62
     6
 10
19.0
 20
281.0
 30
0.0
 11
406.0
 21
281.0
 31
0.0
  0
LINE
  8
0
  6
CONTINUOUS
 62
     6
 10
406.0
 20
281.0
 30
0.0
 11
406.0
 21
12.0
 31
0.0
  0
LINE
  8
0
  6
CONTINUOUS
 62
     6
 10
406.0
 20
12.0
 30
0.0
 11
19.0
 21
12.0
 31
0.0
  0
LINE
  8
0
  6
CONTINUOUS
 62
     6
 10
84.999986123
 20
12.99999979
 30
0.0
 11
84.999986123
 21
26.999996846
 31
0.0
  0
LINE
  8
0
  6
CONTINUOUS
 62
     6
 10
19.99999979
 20
26.999996846
 30
0.0
 11
84.999986123
 21
26.999996846
 31
0.0
  0
LINE
  8
0
  6
CONTINUOUS
 62
     6
 10
19.99999979
 20
12.99999979
 30
0.0
 11
84.999986123
 21
12.99999979
 31
0.0
  0
LINE
  8
0
  6
CONTINUOUS
 62
     6
 10
19.99999979
 20
12.99999979
 30
0.0
 11
19.99999979
 21
26.999996846
 31
0.0
  0
LINE
  8
0
  6
CONTINUOUS
 62
     6
 10
64.999990328
 20
12.99999979
 30
0.0
 11
64.999990328
 21
26.999996846
 31
0.0
  0
LINE
  8
0
  6
CONTINUOUS
 62
     6
 10
19.99999979
 20
19.999998318
 30
0.0
 11
84.999986123
 21
19.999998318
 31
0.0
  0
TEXT
  8
0
  6
CONTINUOUS
 62
     3
 10
21.999999369
 20
21.999997897
 30
0.299999937
 40
2.999999369
  1
ＰＬ
 50
0.0
 41
0.9
 51
0.0
  7
KANJI12
  0
LINE
  8
0
  6
CONTINUOUS
 62
     6
 10
203.2000156
 20
12.8666666
 30
0.0
 11
203.2000156
 21
19.7999994
 31
0.0
  0
LINE
  8
0
  6
CONTINUOUS
 62
     6
 10
203.2000156
 20
19.7999994
 30
0.0
 11
271.666677
 21
19.7999994
 31
0.0
  0
LINE
  8
0
  6
CONTINUOUS
 62
     6
 10
203.2000156
 20
12.8666666
 30
0.0
 11
405.1333334
 21
12.8666666
 31
0.0
  0
TEXT
  8
0
  6
CONTINUOUS
 62
     6
 10
304.1666745
 20
16.7666663
 30
0.0
 40
3.0333331
  1
ＵＮＩＴＥＣ　ＩＮＤＵＳＴＲＹ　ＣＯ．，ＬＴＤ．
 50
0.0
 41
0.42031746
 51
0.0
  7
KANJI13
  0
TEXT
  8
0
  6
CONTINUOUS
 62
     6
 10
346.709171228
 20
15.63999972
 30
0.51999996
 40
5.1999996
  1
ユニテック工業株式会社
 50
0.0
 41
0.9
 51
0.0
  7
KANJI14
  0
TEXT
  8
0
  6
CONTINUOUS
 62
     3
 10
357.4333389
 20
41.199999
 30
0.5
 40
5.0
  1
マイティジャッキ
 50
0.0
 41
0.8
 51
0.0
  7
KANJI15
  0
TEXT
  8
0
  6
CONTINUOUS
 62
     3
 10
363.6333389
 20
35.299999
 30
0.5
 40
5.0
  1
外形寸法図
 50
0.0
 41
0.8
 51
0.0
  7
KANJI15
  0
TEXT
  8
2
  6
CONTINUOUS
 62
     3
 10
335.29
 20
117.8
 30
0.0
 40
3.2
  1
特記事項
 50
0.0
 41
1.0
 51
0.0
  7
KANJI16
  0
TEXT
  8
2
  6
CONTINUOUS
 62
     3
 10
335.29
 20
110.8
 30
0.0
 40
3.2
  1
１．フレーム材質　ダグタイル鋳鉄
 50
0.0
 41
1.0
 51
0.0
  7
KANJI16
  0
TEXT
  8
2
  6
CONTINUOUS
 62
     3
 10
335.29
 20
103.8
 30
0.0
 40
3.2
  1
２．ネジ軸の回転防止対策を行って下さい
 50
0.0
 41
1.0
 51
0.0
  7
KANJI16
  0
TEXT
  8
2
  6
CONTINUOUS
 62
     3
 10
346.04
 20
137.29
 30
0.0
 40
3.2
  1
台数
 50
0.0
 41
1.0
 51
0.0
  7
KANJI16
  0
TEXT
  8
2
  6
CONTINUOUS
 62
     3
 10
345.84
 20
151.48
 30
0.0
 40
3.2
  1
付属品
 50
0.0
 41
1.0
 51
0.0
  7
KANJI16
  0
TEXT
  8
2
  6
CONTINUOUS
 62
     3
 10
345.94
 20
158.36
 30
0.0
 40
3.2
  1
塗装色
 50
0.0
 41
1.0
 51
0.0
  7
KANJI16
  0
TEXT
  8
2
  6
CONTINUOUS
 62
     3
 10
378.54
 20
165.37
 30
0.0
 40
3.2
  1
グリース方式
 50
0.0
 41
0.71875
 51
0.0
  7
KANJI17
  0
TEXT
  8
2
  6
CONTINUOUS
 62
     3
 10
376.04
 20
158.32
 30
0.0
 40
3.2
  1
マンセル　７．５ＧＹ　５／４．５
 50
0.0
 41
0.5625
 51
0.0
  7
KANJI18
  0
TEXT
  8
2
  6
CONTINUOUS
 62
     3
 10
378.84
 20
151.04
 30
0.0
 40
3.2
  1
入力キー
 50
0.0
 41
0.71875
 51
0.0
  7
KANJI17
  0
TEXT
  8
2
  6
CONTINUOUS
 62
     3
 10
345.95
 20
214.49
 30
0.0
 40
3.2
  1
スクリュウ
 50
0.0
 41
1.0
 51
0.0
  7
KANJI16
  0
TEXT
  8
2
  6
CONTINUOUS
 62
     3
 10
345.94
 20
207.47
 30
0.0
 40
3.2
  1
ウォーム１回転当り移動量
 50
0.0
 41
0.65625
 51
0.0
  7
KANJI19
  0
TEXT
  8
2
  6
CONTINUOUS
 62
     3
 10
345.94
 20
200.22
 30
0.0
 40
3.2
  1
ウォーム減速比
 50
0.0
 41
1.0
 51
0.0
  7
KANJI16
  0
TEXT
  8
2
  6
CONTINUOUS
 62
     3
 10
346.03
 20
193.66
 30
0.0
 40
3.2
  1
入力トルク（許容荷重時）
 50
0.0
 41
0.65625
 51
0.0
  7
KANJI19
  0
TEXT
  8
2
  6
CONTINUOUS
 62
     3
 10
345.94
 20
186.62
 30
0.0
 40
3.2
  1
効率
 50
0.0
 41
1.0
 51
0.0
  7
KANJI16
  0
TEXT
  8
2
  6
CONTINUOUS
 62
     3
 10
345.94
 20
179.68
 30
0.0
 40
3.2
  1
ネジ軸回転防止
 50
0.0
 41
1.0
 51
0.0
  7
KANJI16
  0
TEXT
  8
2
  6
CONTINUOUS
 62
     3
 10
346.03
 20
172.61
 30
0.0
 40
3.2
  1
発生ネジ軸トルク
 50
0.0
 41
1.0
 51
0.0
  7
KANJI16
  0
TEXT
  8
2
  6
CONTINUOUS
 62
     3
 10
345.94
 20
165.55
 30
0.0
 40
3.2
  1
潤滑
 50
0.0
 41
1.0
 51
0.0
  7
KANJI16
  0
TEXT
  8
2
  6
CONTINUOUS
 62
     3
 10
397.38
 20
221.63
 30
0.0
 40
3.2
  1
ｍｍ
 50
0.0
 41
0.6875
 51
0.0
  7
KANJI20
  0
TEXT
  8
2
  6
CONTINUOUS
 62
     3
 10
345.94
 20
235.2
 30
0.0
 40
3.2
  1
型式
 50
0.0
 41
1.0
 51
0.0
  7
KANJI16
  0
TEXT
  8
2
  6
CONTINUOUS
 62
     3
 10
345.94
 20
228.57
 30
0.0
 40
3.2
  1
推力
 50
0.0
 41
1.0
 51
0.0
  7
KANJI16
  0
TEXT
  8
2
  6
CONTINUOUS
 62
     3
 10
346.04
 20
221.44
 30
0.0
 40
3.2
  1
ストローク
 50
0.0
 41
1.0
 51
0.0
  7
KANJI16
  0
TEXT
  8
2
  6
CONTINUOUS
 62
     3
 10
353.71
 20
243.04
 30
0.0
 40
4.5
  1
マイティジャッキ仕様
 50
0.0
 41
0.8888888
 51
0.0
  7
KANJI21
  0
TEXT
  8
2
  6
CONTINUOUS
 62
     3
 10
398.36
 20
186.3
 30
0.0
 40
3.2
  1
％
 50
0.0
 41
1.0
 51
0.0
  7
KANJI16
  0
TEXT
  8
2
  6
CONTINUOUS
 62
     3
 10
386.84
 20
179.6
 30
0.0
 40
3.2
  1
無し
 50
0.0
 41
0.71875
 51
0.0
  7
KANJI17
  0
TEXT
  8
2
  6
CONTINUOUS
 62
     3
 10
134.72
 20
102.45
 30
0.0
 40
3.2
  1
型式
 50
0.0
 41
1.0
 51
0.0
  7
KANJI16
  0
TEXT
  8
2
  6
CONTINUOUS
 62
     3
 10
162.22
 20
102.4
 30
0.0
 40
3.2
  1
ストローク
 50
0.0
 41
0.78125
 51
0.0
  7
KANJI22
  0
TEXT
  8
2
  6
CONTINUOUS
 62
     3
 10
198.72
 20
102.59
 30
0.0
 40
3.2
  1
ＬＣ
 50
0.0
 41
1.0
 51
0.0
  7
KANJI16
  0
TEXT
  8
2
  6
CONTINUOUS
 62
     3
 10
215.72
 20
102.59
 30
0.0
 40
3.2
  1
ＬＡ
 50
0.0
 41
1.0
 51
0.0
  7
KANJI16
  0
TEXT
  8
2
  6
CONTINUOUS
 62
     3
 10
230.32
 20
102.26
 30
0.0
 40
3.2
  1
概略重量
 50
0.0
 41
0.5625
 51
0.0
  7
KANJI18
  0
TEXT
  8
2
  6
CONTINUOUS
 62
     3
 10
160.72
 20
95.28
 30
0.0
 40
3.2
  1
　　１００
 50
0.0
 41
0.78125
 51
0.0
  7
KANJI22
  0
TEXT
  8
2
  6
CONTINUOUS
 62
     3
 10
160.72
 20
88.28
 30
0.0
 40
3.2
  1
　　２００
 50
0.0
 41
0.78125
 51
0.0
  7
KANJI22
  0
TEXT
  8
2
  6
CONTINUOUS
 62
     3
 10
160.72
 20
81.28
 30
0.0
 40
3.2
  1
　　３００
 50
0.0
 41
0.78125
 51
0.0
  7
KANJI22
  0
TEXT
  8
2
  6
CONTINUOUS
 62
     3
 10
160.72
 20
74.28
 30
0.0
 40
3.2
  1
　　４００
 50
0.0
 41
0.78125
 51
0.0
  7
KANJI22
  0
TEXT
  8
2
  6
CONTINUOUS
 62
     3
 10
160.72
 20
67.28
 30
0.0
 40
3.2
  1
　　５００
 50
0.0
 41
0.78125
 51
0.0
  7
KANJI22
  0
TEXT
  8
2
  6
CONTINUOUS
 62
     3
 10
160.72
 20
60.28
 30
0.0
 40
3.2
  1
　　６００
 50
0.0
 41
0.78125
 51
0.0
  7
KANJI22
  0
TEXT
  8
2
  6
CONTINUOUS
 62
     3
 10
160.72
 20
53.28
 30
0.0
 40
3.2
  1
　　８００
 50
0.0
 41
0.78125
 51
0.0
  7
KANJI22
  0
TEXT
  8
2
  6
CONTINUOUS
 62
     3
 10
163.35
 20
46.47
 30
0.0
 40
3.2
  1
１０００
 50
0.0
 41
0.78125
 51
0.0
  7
KANJI22
  0
TEXT
  8
2
  6
CONTINUOUS
 62
     3
 10
238.21
 20
102.33
 30
0.0
 40
2.5
  1
（ｋｇ）
 50
0.0
 41
0.6
 51
0.0
  7
KANJI23
  0
TEXT
  8
2
  6
CONTINUOUS
 62
     3
 10
247.22
 20
102.4
 30
0.0
 40
3.2
  1
備考
 50
0.0
 41
1.0
 51
0.0
  7
KANJI16
  0
TEXT
  8
3
  6
CONTINUOUS
 62
     3
 10
91.72
 20
42.45
 30
0.0
 40
4.5
  1
入力軸
 50
0.0
 41
0.8888888
 51
0.0
  7
KANJI21
  0
TEXT
  8
3
  6
CONTINUOUS
 62
     3
 10
67.97
 20
75.73
 30
0.0
 40
3.5
  1
５
 50
90.0
 41
0.8285714
 51
0.0
  7
KANJI24
  0
TEXT
  8
3
  6
CONTINUOUS
 62
     3
 10
77.97
 20
77.23
 30
0.0
 40
3.5
  1
２
 50
90.0
 41
0.8285714
 51
0.0
  7
KANJI24
  0
TEXT
  8
3
  6
CONTINUOUS
 62
     3
 10
95.02
 20
90.68
 30
0.0
 40
3.5
  1
５
 50
0.0
 41
0.8285714
 51
0.0
  7
KANJI24
  0
TEXT
  8
0
  6
CONTINUOUS
 62
     3
 10
211.65
 20
132.185
 30
0.0
 40
3.5
  1
ｍｉｎ　ＬＵ
 50
0.0
 41
0.8285714
 51
0.0
  7
KANJI24
  0
TEXT
  8
0
  6
CONTINUOUS
 62
     3
 10
253.7
 20
162.185
 30
0.0
 40
3.5
  1
４０
 50
0.0
 41
0.8285714
 51
0.0
  7
KANJI24
  0
TEXT
  8
0
  6
CONTINUOUS
 62
     3
 10
261.2
 20
172.185
 30
0.0
 40
3.5
  1
１０
 50
0.0
 41
0.8285714
 51
0.0
  7
KANJI24
  0
TEXT
  8
0
  6
CONTINUOUS
 62
     3
 10
278.4025
 20
132.185
 30
0.0
 40
3.5
  1
ＬＣ＝ストローク＋ＬＡ
 50
0.0
 41
0.8285714
 51
0.0
  7
KANJI24
  0
TEXT
  8
0
  6
CONTINUOUS
 62
     3
 10
266.4
 20
152.185
 30
0.0
 40
3.5
  1
５
 50
0.0
 41
0.8285714
 51
0.0
  7
KANJI24
  0
TEXT
  8
0
  6
CONTINUOUS
 62
     3
 10
330.85
 20
201.585
 30
0.0
 40
3.5
  1
φ４３
 50
90.0
 41
0.8285714
 51
0.0
  7
KANJI24
  0
TEXT
  8
0
  6
CONTINUOUS
 62
     3
 10
274.6
 20
180.585
 30
0.0
 40
3.5
  1
φ５５
 50
90.0
 41
0.8285714
 51
0.0
  7
KANJI24
  0
TEXT
  8
0
  6
CONTINUOUS
 62
     3
 10
232.42
 20
245.8
 30
0.0
 40
4.5
  1
スクリュ－出る
 50
0.0
 41
1.0
 51
0.0
  7
KANJI25
  0
TEXT
  8
0
  6
CONTINUOUS
 62
     3
 10
135.175
 20
197.445
 30
0.0
 40
3.2
  1
反時計方向の回転
 50
0.0
 41
1.0
 51
0.0
  7
KANJI16
  0
TEXT
  8
0
  6
CONTINUOUS
 62
     3
 10
130.56
 20
172.205
 30
0.0
 40
3.5
  1
３０
 50
0.0
 41
0.8285714
 51
0.0
  7
KANJI24
  0
TEXT
  8
0
  6
CONTINUOUS
 62
     3
 10
129.81
 20
162.205
 30
0.0
 40
3.5
  1
３３
 50
0.0
 41
0.8285714
 51
0.0
  7
KANJI24
  0
TEXT
  8
0
  6
CONTINUOUS
 62
     3
 10
129.31
 20
152.205
 30
0.0
 40
3.5
  1
３５
 50
0.0
 41
0.8285714
 51
0.0
  7
KANJI24
  0
TEXT
  8
0
  6
CONTINUOUS
 62
     3
 10
94.11
 20
152.205
 30
0.0
 40
3.5
  1
１００
 50
0.0
 41
0.8285714
 51
0.0
  7
KANJI24
  0
TEXT
  8
0
  6
CONTINUOUS
 62
     3
 10
94.11
 20
142.185
 30
0.0
 40
3.5
  1
１７０
 50
0.0
 41
0.8285714
 51
0.0
  7
KANJI24
  0
TEXT
  8
0
  6
CONTINUOUS
 62
     3
 10
61.81
 20
152.205
 30
0.0
 40
3.5
  1
３５
 50
0.0
 41
0.8285714
 51
0.0
  7
KANJI24
  0
TEXT
  8
0
  6
CONTINUOUS
 62
     3
 10
61.31
 20
162.205
 30
0.0
 40
3.5
  1
３３
 50
0.0
 41
0.8285714
 51
0.0
  7
KANJI24
  0
TEXT
  8
0
  6
CONTINUOUS
 62
     3
 10
60.56
 20
172.205
 30
0.0
 40
3.5
  1
３０
 50
0.0
 41
0.8285714
 51
0.0
  7
KANJI24
  0
TEXT
  8
0
  6
CONTINUOUS
 62
     3
 10
29.89
 20
231.835
 30
0.0
 40
3.5
  1
２－φ１１
 50
0.0
 41
0.8285714
 51
0.0
  7
KANJI24
  0
TEXT
  8
0
  6
CONTINUOUS
 62
     3
 10
37.46
 20
212.535
 30
0.0
 40
3.5
  1
３８
 50
90.0
 41
0.8285714
 51
0.0
  7
KANJI24
  0
TEXT
  8
0
  6
CONTINUOUS
 62
     3
 10
37.46
 20
188.535
 30
0.0
 40
3.5
  1
５８
 50
90.0
 41
0.8285714
 51
0.0
  7
KANJI24
  0
TEXT
  8
0
  6
CONTINUOUS
 62
     3
 10
47.46
 20
195.035
 30
0.0
 40
3.5
  1
３２
 50
90.0
 41
0.8285714
 51
0.0
  7
KANJI24
  0
TEXT
  8
0
  6
CONTINUOUS
 62
     3
 10
94.11
 20
246.155
 30
0.0
 40
3.5
  1
１４０
 50
0.0
 41
0.8285714
 51
0.0
  7
KANJI24
  0
TEXT
  8
0
  6
CONTINUOUS
 62
     3
 10
94.11
 20
236.155
 30
0.0
 40
3.5
  1
１２０
 50
0.0
 41
0.8285714
 51
0.0
  7
KANJI24
  0
LINE
  8
0
  6
CONTINUOUS
 62
     2
 10
44.39
 20
230.835
 30
0.0
 11
29.89
 21
230.835
 31
0.0
  0
LINE
  8
0
  6
CONTINUOUS
 62
     2
 10
97.46
 20
224.935
 30
0.0
 11
36.96
 21
224.935
 31
0.0
  0
LINE
  8
0
  6
CONTINUOUS
 62
     2
 10
38.9959
 20
222.93
 30
0.0
 11
38.46
 21
224.93
 31
0.0
  0
LINE
  8
0
  6
CONTINUOUS
 62
     2
 10
38.46
 20
224.93
 30
0.0
 11
37.9242
 21
222.93
 31
0.0
  0
LINE
  8
0
  6
CONTINUOUS
 62
     2
 10
37.9242
 20
207.93
 30
0.0
 11
38.46
 21
205.93
 31
0.0
  0
LINE
  8
0
  6
CONTINUOUS
 62
     2
 10
38.46
 20
205.93
 30
0.0
 11
38.9959
 21
207.93
 31
0.0
  0
LINE
  8
0
  6
CONTINUOUS
 62
     2
 10
38.9959
 20
203.93
 30
0.0
 11
38.46
 21
205.93
 31
0.0
  0
LINE
  8
0
  6
CONTINUOUS
 62
     2
 10
38.46
 20
205.93
 30
0.0
 11
37.9242
 21
203.93
 31
0.0
  0
LINE
  8
0
  6
CONTINUOUS
 62
     2
 10
38.46
 20
205.935
 30
0.0
 11
38.46
 21
224.935
 31
0.0
  0
LINE
  8
0
  6
CONTINUOUS
 62
     2
 10
59.96
 20
205.935
 30
0.0
 11
46.96
 21
205.935
 31
0.0
  0
LINE
  8
0
  6
CONTINUOUS
 62
     2
 10
48.9959
 20
203.93
 30
0.0
 11
48.46
 21
205.93
 31
0.0
  0
LINE
  8
0
  6
CONTINUOUS
 62
     2
 10
48.46
 20
205.93
 30
0.0
 11
47.9242
 21
203.93
 31
0.0
  0
LINE
  8
0
  6
CONTINUOUS
 62
     2
 10
59.96
 20
205.935
 30
0.0
 11
36.96
 21
205.935
 31
0.0
  0
LINE
  8
0
  6
CONTINUOUS
 62
     2
 10
52.46
 20
189.935
 30
0.0
 11
46.96
 21
189.935
 31
0.0
  0
LINE
  8
0
  6
CONTINUOUS
 62
     2
 10
37.9242
 20
178.93
 30
0.0
 11
38.46
 21
176.93
 31
0.0
  0
LINE
  8
0
  6
CONTINUOUS
 62
     2
 10
38.46
 20
176.93
 30
0.0
 11
38.9959
 21
178.93
 31
0.0
  0
LINE
  8
0
  6
CONTINUOUS
 62
     2
 10
38.46
 20
176.935
 30
0.0
 11
38.46
 21
205.935
 31
0.0
  0
LINE
  8
0
  6
CONTINUOUS
 62
     2
 10
55.96
 20
185.185
 30
0.0
 11
55.96
 21
169.705
 31
0.0
  0
LINE
  8
0
  6
CONTINUOUS
 62
     2
 10
55.96
 20
185.185
 30
0.0
 11
55.96
 21
159.705
 31
0.0
  0
LINE
  8
0
  6
CONTINUOUS
 62
     2
 10
55.96
 20
185.185
 30
0.0
 11
55.96
 21
149.705
 31
0.0
  0
LINE
  8
0
  6
CONTINUOUS
 62
     2
 10
55.96
 20
185.185
 30
0.0
 11
55.96
 21
139.685
 31
0.0
  0
LINE
  8
0
  6
CONTINUOUS
 62
     2
 10
68.46
 20
235.155
 30
0.0
 11
128.46
 21
235.155
 31
0.0
  0
LINE
  8
0
  6
CONTINUOUS
 62
     2
 10
128.46
 20
214.745
 30
0.0
 11
128.46
 21
236.655
 31
0.0
  0
LINE
  8
0
  6
CONTINUOUS
 62
     2
 10
68.46
 20
214.68
 30
0.0
 11
68.46
 21
236.655
 31
0.0
  0
LINE
  8
0
  6
CONTINUOUS
 62
     2
 10
126.46
 20
234.6141
 30
0.0
 11
128.46
 21
235.15
 31
0.0
  0
LINE
  8
0
  6
CONTINUOUS
 62
     2
 10
128.46
 20
235.15
 30
0.0
 11
126.46
 21
235.6858
 31
0.0
  0
LINE
  8
0
  6
CONTINUOUS
 62
     2
 10
70.46
 20
235.6858
 30
0.0
 11
68.46
 21
235.15
 31
0.0
  0
LINE
  8
0
  6
CONTINUOUS
 62
     2
 10
68.46
 20
235.15
 30
0.0
 11
70.46
 21
234.6141
 31
0.0
  0
LINE
  8
0
  6
CONTINUOUS
 62
     2
 10
63.46
 20
245.155
 30
0.0
 11
133.46
 21
245.155
 31
0.0
  0
LINE
  8
0
  6
CONTINUOUS
 62
     2
 10
133.46
 20
209.705
 30
0.0
 11
133.46
 21
246.655
 31
0.0
  0
LINE
  8
0
  6
CONTINUOUS
 62
     2
 10
131.46
 20
244.6141
 30
0.0
 11
133.46
 21
245.15
 31
0.0
  0
LINE
  8
0
  6
CONTINUOUS
 62
     2
 10
133.46
 20
245.15
 30
0.0
 11
131.46
 21
245.6858
 31
0.0
  0
LINE
  8
0
  6
CONTINUOUS
 62
     2
 10
65.46
 20
245.6858
 30
0.0
 11
63.46
 21
245.15
 31
0.0
  0
LINE
  8
0
  6
CONTINUOUS
 62
     2
 10
63.46
 20
245.15
 30
0.0
 11
65.46
 21
244.6141
 31
0.0
  0
LINE
  8
0
  6
LTYPE2
 62
     2
 10
60.96
 20
205.935
 30
0.0
 11
136.675
 21
205.935
 31
0.0
  0
LINE
  8
0
  6
LTYPE2
 62
     2
 10
93.485
 20
181.135
 30
0.0
 11
103.235
 21
181.135
 31
0.0
  0
LINE
  8
0
  6
LTYPE2
 62
     2
 10
50.23
 20
189.935
 30
0.0
 11
76.695
 21
189.935
 31
0.0
  0
LINE
  8
0
  6
LTYPE2
 62
     2
 10
68.46
 20
197.72
 30
0.0
 11
68.46
 21
214.15
 31
0.0
  0
LINE
  8
0
  6
LTYPE2
 62
     2
 10
128.46
 20
197.72
 30
0.0
 11
128.46
 21
214.15
 31
0.0
  0
LINE
  8
0
  6
LTYPE2
 62
     2
 10
120.96
 20
189.935
 30
0.0
 11
143.46
 21
189.935
 31
0.0
  0
LINE
  8
0
  6
LTYPE2
 62
     2
 10
75.46
 20
151.7358
 30
0.0
 11
73.46
 21
151.2
 31
0.0
  0
LINE
  8
0
  6
LTYPE2
 62
     2
 10
73.46
 20
151.2
 30
0.0
 11
75.46
 21
150.6641
 31
0.0
  0
LINE
  8
0
  6
CONTINUOUS
 62
     2
 10
57.96
 20
161.7358
 30
0.0
 11
55.96
 21
161.2
 31
0.0
  0
LINE
  8
0
  6
CONTINUOUS
 62
     2
 10
55.96
 20
161.2
 30
0.0
 11
57.96
 21
160.6641
 31
0.0
  0
LINE
  8
0
  6
CONTINUOUS
 62
     2
 10
68.96
 20
170.6641
 30
0.0
 11
70.96
 21
171.2
 31
0.0
  0
LINE
  8
0
  6
CONTINUOUS
 62
     2
 10
70.96
 20
171.2
 30
0.0
 11
68.96
 21
171.7358
 31
0.0
  0
LINE
  8
0
  6
CONTINUOUS
 62
     2
 10
57.96
 20
171.7358
 30
0.0
 11
55.96
 21
171.2
 31
0.0
  0
LINE
  8
0
  6
CONTINUOUS
 62
     2
 10
55.96
 20
171.2
 30
0.0
 11
57.96
 21
170.6641
 31
0.0
  0
LINE
  8
0
  6
CONTINUOUS
 62
     2
 10
55.96
 20
171.205
 30
0.0
 11
70.96
 21
171.205
 31
0.0
  0
LINE
  8
0
  6
CONTINUOUS
 62
     2
 10
57.96
 20
151.7358
 30
0.0
 11
55.96
 21
151.2
 31
0.0
  0
LINE
  8
0
  6
CONTINUOUS
 62
     2
 10
55.96
 20
151.2
 30
0.0
 11
57.96
 21
150.6641
 31
0.0
  0
LINE
  8
0
  6
CONTINUOUS
 62
     2
 10
71.46
 20
150.6641
 30
0.0
 11
73.46
 21
151.2
 31
0.0
  0
LINE
  8
0
  6
CONTINUOUS
 62
     2
 10
73.46
 20
151.2
 30
0.0
 11
71.46
 21
151.7358
 31
0.0
  0
LINE
  8
0
  6
CONTINUOUS
 62
     2
 10
55.96
 20
151.205
 30
0.0
 11
73.46
 21
151.205
 31
0.0
  0
LINE
  8
0
  6
CONTINUOUS
 62
     2
 10
70.46
 20
160.6641
 30
0.0
 11
72.46
 21
161.2
 31
0.0
  0
LINE
  8
0
  6
CONTINUOUS
 62
     2
 10
72.46
 20
161.2
 30
0.0
 11
70.46
 21
161.7358
 31
0.0
  0
LINE
  8
0
  6
CONTINUOUS
 62
     2
 10
55.96
 20
161.205
 30
0.0
 11
72.46
 21
161.205
 31
0.0
  0
LINE
  8
0
  6
CONTINUOUS
 62
     2
 10
57.96
 20
141.7259
 30
0.0
 11
55.96
 21
141.19
 31
0.0
  0
LINE
  8
0
  6
CONTINUOUS
 62
     2
 10
55.96
 20
141.19
 30
0.0
 11
57.96
 21
140.6542
 31
0.0
  0
LINE
  8
0
  6
CONTINUOUS
 62
     2
 10
126.46
 20
161.7358
 30
0.0
 11
124.46
 21
161.2
 31
0.0
  0
LINE
  8
0
  6
CONTINUOUS
 62
     2
 10
124.46
 20
161.2
 30
0.0
 11
126.46
 21
160.6641
 31
0.0
  0
LINE
  8
0
  6
CONTINUOUS
 62
     2
 10
125.46
 20
151.7358
 30
0.0
 11
123.46
 21
151.2
 31
0.0
  0
LINE
  8
0
  6
CONTINUOUS
 62
     2
 10
123.46
 20
151.2
 30
0.0
 11
125.46
 21
150.6641
 31
0.0
  0
LINE
  8
0
  6
CONTINUOUS
 62
     2
 10
138.96
 20
160.6641
 30
0.0
 11
140.96
 21
161.2
 31
0.0
  0
LINE
  8
0
  6
CONTINUOUS
 62
     2
 10
140.96
 20
161.2
 30
0.0
 11
138.96
 21
161.7358
 31
0.0
  0
LINE
  8
0
  6
CONTINUOUS
 62
     2
 10
124.46
 20
161.205
 30
0.0
 11
140.96
 21
161.205
 31
0.0
  0
LINE
  8
0
  6
CONTINUOUS
 62
     2
 10
138.96
 20
140.6542
 30
0.0
 11
140.96
 21
141.19
 31
0.0
  0
LINE
  8
0
  6
CONTINUOUS
 62
     2
 10
140.96
 20
141.19
 30
0.0
 11
138.96
 21
141.7259
 31
0.0
  0
LINE
  8
0
  6
CONTINUOUS
 62
     2
 10
55.96
 20
141.185
 30
0.0
 11
140.96
 21
141.185
 31
0.0
  0
LINE
  8
0
  6
CONTINUOUS
 62
     2
 10
138.96
 20
150.6641
 30
0.0
 11
140.96
 21
151.2
 31
0.0
  0
LINE
  8
0
  6
CONTINUOUS
 62
     2
 10
140.96
 20
151.2
 30
0.0
 11
138.96
 21
151.7358
 31
0.0
  0
LINE
  8
0
  6
CONTINUOUS
 62
     2
 10
123.46
 20
151.205
 30
0.0
 11
140.96
 21
151.205
 31
0.0
  0
LINE
  8
0
  6
CONTINUOUS
 62
     2
 10
121.46
 20
150.6641
 30
0.0
 11
123.46
 21
151.2
 31
0.0
  0
LINE
  8
0
  6
CONTINUOUS
 62
     2
 10
123.46
 20
151.2
 30
0.0
 11
121.46
 21
151.7358
 31
0.0
  0
LINE
  8
0
  6
CONTINUOUS
 62
     2
 10
73.46
 20
151.205
 30
0.0
 11
123.46
 21
151.205
 31
0.0
  0
ARC
  8
0
  6
CONTINUOUS
 62
     2
 10
151.97
 20
189.72
 30
0.0
 40
7.5
 50
128.26018
 51
237.30609
  0
LINE
  8
0
  6
CONTINUOUS
 62
     2
 10
145.99
 20
184.245
 30
0.0
 11
147.92
 21
183.41
 31
0.0
  0
LINE
  8
0
  6
CONTINUOUS
 62
     2
 10
146.81
 20
185.37
 30
0.0
 11
147.91
 21
183.415
 31
0.0
  0
LINE
  8
0
  6
CONTINUOUS
 62
     2
 10
64.7177
 20
208.9204
 30
0.0
 11
66.49
 21
207.85
 31
0.0
  0
LINE
  8
0
  6
CONTINUOUS
 62
     2
 10
66.49
 20
207.85
 30
0.0
 11
65.4904
 21
209.6632
 31
0.0
  0
LINE
  8
0
  6
CONTINUOUS
 62
     2
 10
66.485
 20
207.85
 30
0.0
 11
44.39
 21
230.835
 31
0.0
  0
LINE
  8
0
  6
CONTINUOUS
 62
     2
 10
47.9242
 20
191.93
 30
0.0
 11
48.46
 21
189.93
 31
0.0
  0
LINE
  8
0
  6
CONTINUOUS
 62
     2
 10
48.46
 20
189.93
 30
0.0
 11
48.9959
 21
191.93
 31
0.0
  0
LINE
  8
0
  6
CONTINUOUS
 62
     2
 10
48.46
 20
189.935
 30
0.0
 11
48.46
 21
205.935
 31
0.0
  0
LINE
  8
0
  6
CONTINUOUS
 62
     2
 10
125.96
 20
188.935
 30
0.0
 11
125.96
 21
169.705
 31
0.0
  0
LINE
  8
0
  6
CONTINUOUS
 62
     2
 10
124.46
 20
184.475
 30
0.0
 11
124.46
 21
159.705
 31
0.0
  0
LINE
  8
0
  6
CONTINUOUS
 62
     2
 10
123.46
 20
178.19
 30
0.0
 11
123.46
 21
149.705
 31
0.0
  0
LINE
  8
0
  6
CONTINUOUS
 62
     2
 10
123.46
 20
178.19
 30
0.0
 11
123.46
 21
149.705
 31
0.0
  0
LINE
  8
0
  6
CONTINUOUS
 62
     2
 10
127.96
 20
171.7358
 30
0.0
 11
125.96
 21
171.2
 31
0.0
  0
LINE
  8
0
  6
CONTINUOUS
 62
     2
 10
125.96
 20
171.2
 30
0.0
 11
127.96
 21
170.6641
 31
0.0
  0
LINE
  8
0
  6
CONTINUOUS
 62
     2
 10
140.96
 20
185.185
 30
0.0
 11
140.96
 21
139.685
 31
0.0
  0
LINE
  8
0
  6
CONTINUOUS
 62
     2
 10
140.96
 20
185.185
 30
0.0
 11
140.96
 21
169.705
 31
0.0
  0
LINE
  8
0
  6
CONTINUOUS
 62
     2
 10
140.96
 20
185.185
 30
0.0
 11
140.96
 21
159.705
 31
0.0
  0
LINE
  8
0
  6
CONTINUOUS
 62
     2
 10
140.96
 20
185.185
 30
0.0
 11
140.96
 21
149.705
 31
0.0
  0
LINE
  8
0
  6
CONTINUOUS
 62
     2
 10
138.96
 20
170.6641
 30
0.0
 11
140.96
 21
171.2
 31
0.0
  0
LINE
  8
0
  6
CONTINUOUS
 62
     2
 10
140.96
 20
171.2
 30
0.0
 11
138.96
 21
171.7358
 31
0.0
  0
LINE
  8
0
  6
CONTINUOUS
 62
     2
 10
125.96
 20
171.205
 30
0.0
 11
140.96
 21
171.205
 31
0.0
  0
LINE
  8
0
  6
CONTINUOUS
 62
     2
 10
268.6
 20
131.7259
 30
0.0
 11
266.6
 21
131.19
 31
0.0
  0
LINE
  8
0
  6
CONTINUOUS
 62
     2
 10
266.6
 20
131.19
 30
0.0
 11
268.6
 21
130.6542
 31
0.0
  0
LINE
  8
0
  6
CONTINUOUS
 62
     2
 10
264.6
 20
130.6542
 30
0.0
 11
266.6
 21
131.19
 31
0.0
  0
LINE
  8
0
  6
CONTINUOUS
 62
     2
 10
266.6
 20
131.19
 30
0.0
 11
264.6
 21
131.7259
 31
0.0
  0
LINE
  8
0
  6
CONTINUOUS
 62
     2
 10
266.6
 20
151.185
 30
0.0
 11
269.1
 21
151.185
 31
0.0
  0
LINE
  8
0
  6
CONTINUOUS
 62
     2
 10
269.1
 20
191.185
 30
0.0
 11
269.1
 21
149.685
 31
0.0
  0
LINE
  8
0
  6
CONTINUOUS
 62
     2
 10
273.1
 20
151.185
 30
0.0
 11
269.1
 21
151.185
 31
0.0
  0
LINE
  8
0
  6
CONTINUOUS
 62
     2
 10
271.1
 20
151.7158
 30
0.0
 11
269.1
 21
151.18
 31
0.0
  0
LINE
  8
0
  6
CONTINUOUS
 62
     2
 10
269.1
 20
151.18
 30
0.0
 11
271.1
 21
150.6441
 31
0.0
  0
LINE
  8
0
  6
CONTINUOUS
 62
     2
 10
246.6
 20
161.185
 30
0.0
 11
266.6
 21
161.185
 31
0.0
  0
LINE
  8
0
  6
CONTINUOUS
 62
     2
 10
246.6
 20
173.625
 30
0.0
 11
246.6
 21
159.685
 31
0.0
  0
LINE
  8
0
  6
CONTINUOUS
 62
     2
 10
264.6
 20
160.6441
 30
0.0
 11
266.6
 21
161.18
 31
0.0
  0
LINE
  8
0
  6
CONTINUOUS
 62
     2
 10
266.6
 20
161.18
 30
0.0
 11
264.6
 21
161.7158
 31
0.0
  0
LINE
  8
0
  6
CONTINUOUS
 62
     2
 10
248.6
 20
161.7158
 30
0.0
 11
246.6
 21
161.18
 31
0.0
  0
LINE
  8
0
  6
CONTINUOUS
 62
     2
 10
246.6
 20
161.18
 30
0.0
 11
248.6
 21
160.6441
 31
0.0
  0
LINE
  8
0
  6
CONTINUOUS
 62
     2
 10
246.6
 20
173.625
 30
0.0
 11
246.6
 21
159.685
 31
0.0
  0
LINE
  8
0
  6
CONTINUOUS
 62
     2
 10
323.105
 20
195.185
 30
0.0
 11
333.35
 21
195.185
 31
0.0
  0
LINE
  8
0
  6
CONTINUOUS
 62
     2
 10
331.3141
 20
197.18
 30
0.0
 11
331.85
 21
195.18
 31
0.0
  0
LINE
  8
0
  6
CONTINUOUS
 62
     2
 10
331.85
 20
195.18
 30
0.0
 11
332.3858
 21
197.18
 31
0.0
  0
LINE
  8
0
  6
CONTINUOUS
 62
     2
 10
320.1
 20
130.6542
 30
0.0
 11
322.1
 21
131.19
 31
0.0
  0
LINE
  8
0
  6
CONTINUOUS
 62
     2
 10
322.1
 20
131.19
 30
0.0
 11
320.1
 21
131.7259
 31
0.0
  0
LINE
  8
0
  6
CONTINUOUS
 62
     2
 10
266.6
 20
131.185
 30
0.0
 11
322.105
 21
131.185
 31
0.0
  0
LINE
  8
0
  6
CONTINUOUS
 62
     2
 10
322.105
 20
194.185
 30
0.0
 11
322.105
 21
129.685
 31
0.0
  0
LINE
  8
0
  6
CONTINUOUS
 62
     2
 10
270.1
 20
219.685
 30
0.0
 11
277.1
 21
219.685
 31
0.0
  0
LINE
  8
0
  6
CONTINUOUS
 62
     2
 10
275.6
 20
223.685
 30
0.0
 11
275.6
 21
219.685
 31
0.0
  0
LINE
  8
0
  6
CONTINUOUS
 62
     2
 10
275.0641
 20
221.68
 30
0.0
 11
275.6
 21
219.68
 31
0.0
  0
LINE
  8
0
  6
CONTINUOUS
 62
     2
 10
275.6
 20
219.68
 30
0.0
 11
276.1358
 21
221.68
 31
0.0
  0
LINE
  8
0
  6
CONTINUOUS
 62
     2
 10
270.1
 20
192.185
 30
0.0
 11
277.1
 21
192.185
 31
0.0
  0
LINE
  8
0
  6
CONTINUOUS
 62
     2
 10
275.6
 20
192.185
 30
0.0
 11
275.6
 21
188.185
 31
0.0
  0
LINE
  8
0
  6
CONTINUOUS
 62
     2
 10
276.1358
 20
190.18
 30
0.0
 11
275.6
 21
192.18
 31
0.0
  0
LINE
  8
0
  6
CONTINUOUS
 62
     2
 10
275.6
 20
192.18
 30
0.0
 11
275.0641
 21
190.18
 31
0.0
  0
LINE
  8
0
  6
CONTINUOUS
 62
     2
 10
275.6
 20
188.185
 30
0.0
 11
275.6
 21
180.585
 31
0.0
  0
LINE
  8
0
  6
CONTINUOUS
 62
     2
 10
275.6
 20
192.185
 30
0.0
 11
275.6
 21
219.685
 31
0.0
  0
LINE
  8
0
  6
CONTINUOUS
 62
     2
 10
323.105
 20
216.685
 30
0.0
 11
333.35
 21
216.685
 31
0.0
  0
LINE
  8
0
  6
CONTINUOUS
 62
     2
 10
332.3858
 20
214.68
 30
0.0
 11
331.85
 21
216.68
 31
0.0
  0
LINE
  8
0
  6
CONTINUOUS
 62
     2
 10
331.85
 20
216.68
 30
0.0
 11
331.3141
 21
214.68
 31
0.0
  0
LINE
  8
0
  6
CONTINUOUS
 62
     2
 10
331.85
 20
195.185
 30
0.0
 11
331.85
 21
216.685
 31
0.0
  0
ARC
  8
0
  6
LTYPE2
 62
     2
 10
246.6
 20
189.31
 30
0.0
 40
13.505
 50
117.87411
 51
150.89182
  0
LINE
  8
0
  6
LTYPE2
 62
     2
 10
234.79
 20
201.12
 30
0.0
 11
239.405
 21
196.505
 31
0.0
  0
ARC
  8
0
  6
LTYPE2
 62
     2
 10
246.6
 20
189.31
 30
0.0
 40
13.505
 50
207.87411
 51
240.89182
  0
LINE
  8
0
  6
LTYPE2
 62
     2
 10
234.79
 20
177.5
 30
0.0
 11
239.405
 21
182.115
 31
0.0
  0
ARC
  8
0
  6
LTYPE2
 62
     2
 10
246.6
 20
189.31
 30
0.0
 40
13.505
 50
297.87411
 51
330.89182
  0
LINE
  8
0
  6
LTYPE2
 62
     2
 10
253.795
 20
182.115
 30
0.0
 11
258.41
 21
177.5
 31
0.0
  0
ARC
  8
0
  6
LTYPE2
 62
     2
 10
246.6
 20
189.31
 30
0.0
 40
13.505
 50
27.874115
 51
60.891829
  0
LINE
  8
0
  6
LTYPE2
 62
     2
 10
253.795
 20
196.505
 30
0.0
 11
258.41
 21
201.12
 31
0.0
  0
LINE
  8
0
  6
LTYPE2
 62
     2
 10
231.295
 20
189.31
 30
0.0
 11
261.325
 21
189.31
 31
0.0
  0
LINE
  8
0
  6
CONTINUOUS
 62
     2
 10
261.6
 20
171.185
 30
0.0
 11
266.6
 21
171.185
 31
0.0
  0
LINE
  8
0
  6
CONTINUOUS
 62
     2
 10
266.6
 20
185.71
 30
0.0
 11
266.6
 21
169.685
 31
0.0
  0
LINE
  8
0
  6
CONTINUOUS
 62
     2
 10
261.6
 20
185.465
 30
0.0
 11
261.6
 21
169.685
 31
0.0
  0
LINE
  8
0
  6
CONTINUOUS
 62
     2
 10
264.6
 20
170.6441
 30
0.0
 11
266.6
 21
171.18
 31
0.0
  0
LINE
  8
0
  6
CONTINUOUS
 62
     2
 10
266.6
 20
171.18
 30
0.0
 11
264.6
 21
171.7158
 31
0.0
  0
LINE
  8
0
  6
CONTINUOUS
 62
     2
 10
263.6
 20
171.7158
 30
0.0
 11
261.6
 21
171.18
 31
0.0
  0
LINE
  8
0
  6
CONTINUOUS
 62
     2
 10
261.6
 20
171.18
 30
0.0
 11
263.6
 21
170.6441
 31
0.0
  0
LINE
  8
0
  6
CONTINUOUS
 62
     2
 10
266.6
 20
185.71
 30
0.0
 11
266.6
 21
149.685
 31
0.0
  0
LINE
  8
0
  6
CONTINUOUS
 62
     2
 10
266.6
 20
185.71
 30
0.0
 11
266.6
 21
129.685
 31
0.0
  0
LINE
  8
0
  6
CONTINUOUS
 62
     2
 10
266.6
 20
185.71
 30
0.0
 11
266.6
 21
149.685
 31
0.0
  0
LINE
  8
0
  6
CONTINUOUS
 62
     2
 10
266.6
 20
185.71
 30
0.0
 11
266.6
 21
159.685
 31
0.0
  0
LINE
  8
0
  6
CONTINUOUS
 62
     2
 10
262.11
 20
244.235
 30
0.0
 11
230.215
 21
244.235
 31
0.0
  0
LINE
  8
0
  6
CONTINUOUS
 62
     2
 10
232.21
 20
244.7658
 30
0.0
 11
230.21
 21
244.23
 31
0.0
  0
LINE
  8
0
  6
CONTINUOUS
 62
     2
 10
230.21
 20
244.23
 30
0.0
 11
232.21
 21
243.6941
 31
0.0
  0
LINE
  8
3
  6
CONTINUOUS
 62
     2
 10
58.97
 20
62.68
 30
0.0
 11
58.97
 21
79.68
 31
0.0
  0
LINE
  8
3
  6
CONTINUOUS
 62
     2
 10
95.47
 20
62.68
 30
0.0
 11
57.47
 21
62.68
 31
0.0
  0
LINE
  8
3
  6
CONTINUOUS
 62
     2
 10
59.5059
 20
77.68
 30
0.0
 11
58.97
 21
79.68
 31
0.0
  0
LINE
  8
3
  6
CONTINUOUS
 62
     2
 10
58.97
 20
79.68
 30
0.0
 11
58.4342
 21
77.68
 31
0.0
  0
LINE
  8
3
  6
CONTINUOUS
 62
     2
 10
58.4342
 20
64.68
 30
0.0
 11
58.97
 21
62.68
 31
0.0
  0
LINE
  8
3
  6
CONTINUOUS
 62
     2
 10
58.97
 20
62.68
 30
0.0
 11
59.5059
 21
64.68
 31
0.0
  0
LINE
  8
3
  6
CONTINUOUS
 62
     2
 10
68.97
 20
74.68
 30
0.0
 11
68.97
 21
79.68
 31
0.0
  0
LINE
  8
3
  6
CONTINUOUS
 62
     2
 10
68.97
 20
83.68
 30
0.0
 11
68.97
 21
79.68
 31
0.0
  0
LINE
  8
3
  6
CONTINUOUS
 62
     2
 10
68.4342
 20
81.68
 30
0.0
 11
68.97
 21
79.68
 31
0.0
  0
LINE
  8
3
  6
CONTINUOUS
 62
     2
 10
68.97
 20
79.68
 30
0.0
 11
69.5059
 21
81.68
 31
0.0
  0
LINE
  8
3
  6
CONTINUOUS
 62
     2
 10
68.97
 20
74.68
 30
0.0
 11
68.97
 21
70.68
 31
0.0
  0
LINE
  8
3
  6
CONTINUOUS
 62
     2
 10
69.5059
 20
72.68
 30
0.0
 11
68.97
 21
74.68
 31
0.0
  0
LINE
  8
3
  6
CONTINUOUS
 62
     2
 10
68.97
 20
74.68
 30
0.0
 11
68.4342
 21
72.68
 31
0.0
  0
LINE
  8
3
  6
CONTINUOUS
 62
     2
 10
78.97
 20
77.68
 30
0.0
 11
78.97
 21
79.68
 31
0.0
  0
LINE
  8
3
  6
CONTINUOUS
 62
     2
 10
78.97
 20
83.68
 30
0.0
 11
78.97
 21
79.68
 31
0.0
  0
LINE
  8
3
  6
CONTINUOUS
 62
     2
 10
78.97
 20
79.68
 30
0.0
 11
79.5059
 21
81.68
 31
0.0
  0
LINE
  8
3
  6
CONTINUOUS
 62
     2
 10
78.97
 20
77.68
 30
0.0
 11
78.97
 21
73.68
 31
0.0
  0
LINE
  8
3
  6
CONTINUOUS
 62
     2
 10
79.5059
 20
75.68
 30
0.0
 11
78.97
 21
77.68
 31
0.0
  0
LINE
  8
3
  6
CONTINUOUS
 62
     2
 10
92.97
 20
79.68
 30
0.0
 11
57.47
 21
79.68
 31
0.0
  0
LINE
  8
3
  6
CONTINUOUS
 62
     2
 10
92.97
 20
79.68
 30
0.0
 11
77.47
 21
79.68
 31
0.0
  0
LINE
  8
3
  6
CONTINUOUS
 62
     2
 10
95.47
 20
77.68
 30
0.0
 11
77.47
 21
77.68
 31
0.0
  0
LINE
  8
3
  6
CONTINUOUS
 62
     2
 10
78.4342
 20
81.68
 30
0.0
 11
78.97
 21
79.68
 31
0.0
  0
LINE
  8
3
  6
CONTINUOUS
 62
     2
 10
78.97
 20
77.68
 30
0.0
 11
78.4342
 21
75.68
 31
0.0
  0
LINE
  8
3
  6
CONTINUOUS
 62
     2
 10
92.97
 20
79.68
 30
0.0
 11
67.47
 21
79.68
 31
0.0
  0
LINE
  8
3
  6
CONTINUOUS
 62
     2
 10
92.97
 20
74.68
 30
0.0
 11
67.47
 21
74.68
 31
0.0
  0
LINE
  8
3
  6
CONTINUOUS
 62
     2
 10
93.97
 20
89.68
 30
0.0
 11
98.97
 21
89.68
 31
0.0
  0
LINE
  8
3
  6
CONTINUOUS
 62
     2
 10
98.97
 20
80.68
 30
0.0
 11
98.97
 21
91.18
 31
0.0
  0
LINE
  8
3
  6
CONTINUOUS
 62
     2
 10
93.97
 20
80.68
 30
0.0
 11
93.97
 21
91.18
 31
0.0
  0
LINE
  8
3
  6
CONTINUOUS
 62
     2
 10
96.97
 20
89.1442
 30
0.0
 11
98.97
 21
89.68
 31
0.0
  0
LINE
  8
3
  6
CONTINUOUS
 62
     2
 10
98.97
 20
89.68
 30
0.0
 11
96.97
 21
90.2159
 31
0.0
  0
LINE
  8
3
  6
CONTINUOUS
 62
     2
 10
95.97
 20
90.2159
 30
0.0
 11
93.97
 21
89.68
 31
0.0
  0
LINE
  8
3
  6
CONTINUOUS
 62
     2
 10
93.97
 20
89.68
 30
0.0
 11
95.97
 21
89.1442
 31
0.0
  0
LINE
  8
3
  6
CONTINUOUS
 62
     2
 10
90.24
 20
41.06
 30
0.0
 11
106.13
 21
41.06
 31
0.0
  0
LINE
  8
3
  6
LTYPE2
 62
     2
 10
83.97
 20
70.18
 30
0.0
 11
108.97
 21
70.18
 31
0.0
  0
LINE
  8
3
  6
LTYPE2
 62
     2
 10
96.47
 20
57.68
 30
0.0
 11
96.47
 21
85.96
 31
0.0
  0
TEXT
  8
2
  6
CONTINUOUS
 62
     3
 10
178.52
 20
102.59
 30
0.0
 40
3.2
  1
ｍｉｎ　ＬＵ
 50
0.0
 41
0.78125
 51
0.0
  7
KANJI22
  0
TEXT
  8
2
  6
CONTINUOUS
 62
     3
 10
383.5
 20
228.36
 30
0.0
 40
3.2
  1
ｋｇ
 50
0.0
 41
0.6875
 51
0.0
  7
KANJI20
  0
TEXT
  8
2
  6
CONTINUOUS
 62
     3
 10
373.54
 20
228.51
 30
0.0
 40
3.2
  1
１０００
 50
0.0
 41
0.71875
 51
0.0
  7
KANJI17
  0
TEXT
  8
2
  6
CONTINUOUS
 62
     3
 10
386.74
 20
228.51
 30
0.0
 40
3.2
  1
（９．８Ｋ・Ｎ）
 50
0.0
 41
0.71875
 51
0.0
  7
KANJI17
  0
LINE
  8
2
  6
CONTINUOUS
 62
     1
 10
343.54
 20
250.49
 30
0.0
 11
406.0
 21
250.49
 31
0.0
  0
LINE
  8
2
  6
CONTINUOUS
 62
     1
 10
343.54
 20
240.49
 30
0.0
 11
406.0
 21
240.49
 31
0.0
  0
LINE
  8
2
  6
CONTINUOUS
 62
     1
 10
343.54
 20
233.49
 30
0.0
 11
406.0
 21
233.49
 31
0.0
  0
LINE
  8
2
  6
CONTINUOUS
 62
     1
 10
343.54
 20
226.49
 30
0.0
 11
406.0
 21
226.49
 31
0.0
  0
LINE
  8
2
  6
CONTINUOUS
 62
     1
 10
343.54
 20
219.49
 30
0.0
 11
406.0
 21
219.49
 31
0.0
  0
LINE
  8
2
  6
CONTINUOUS
 62
     1
 10
343.54
 20
212.49
 30
0.0
 11
406.0
 21
212.49
 31
0.0
  0
LINE
  8
2
  6
CONTINUOUS
 62
     1
 10
343.54
 20
205.49
 30
0.0
 11
406.0
 21
205.49
 31
0.0
  0
LINE
  8
2
  6
CONTINUOUS
 62
     1
 10
343.54
 20
198.49
 30
0.0
 11
406.0
 21
198.49
 31
0.0
  0
LINE
  8
2
  6
CONTINUOUS
 62
     1
 10
343.54
 20
191.49
 30
0.0
 11
406.0
 21
191.49
 31
0.0
  0
LINE
  8
2
  6
CONTINUOUS
 62
     1
 10
343.54
 20
184.49
 30
0.0
 11
406.0
 21
184.49
 31
0.0
  0
LINE
  8
2
  6
CONTINUOUS
 62
     1
 10
343.54
 20
170.49
 30
0.0
 11
406.0
 21
170.49
 31
0.0
  0
LINE
  8
2
  6
CONTINUOUS
 62
     1
 10
343.54
 20
163.49
 30
0.0
 11
406.0
 21
163.49
 31
0.0
  0
LINE
  8
2
  6
CONTINUOUS
 62
     1
 10
343.54
 20
156.49
 30
0.0
 11
406.0
 21
156.49
 31
0.0
  0
LINE
  8
2
  6
CONTINUOUS
 62
     1
 10
343.54
 20
149.49
 30
0.0
 11
406.0
 21
149.49
 31
0.0
  0
LINE
  8
2
  6
CONTINUOUS
 62
     1
 10
343.54
 20
142.49
 30
0.0
 11
406.0
 21
142.49
 31
0.0
  0
LINE
  8
2
  6
CONTINUOUS
 62
     1
 10
343.54
 20
177.49
 30
0.0
 11
406.0
 21
177.49
 31
0.0
  0
LINE
  8
2
  6
CONTINUOUS
 62
     1
 10
343.54
 20
135.49
 30
0.0
 11
406.0
 21
135.49
 31
0.0
  0
TEXT
  8
3
  6
CONTINUOUS
 62
     3
 10
57.97
 20
68.28
 30
0.0
 40
3.5
  1
１７
 50
90.0
 41
0.8285714
 51
0.0
  7
KANJI24
  0
LINE
  8
0
  6
CONTINUOUS
 62
     2
 10
82.675
 20
176.935
 30
0.0
 11
36.96
 21
176.935
 31
0.0
  0
LINE
  8
0
  6
CONTINUOUS
 62
     2
 10
72.46
 20
184.475
 30
0.0
 11
72.46
 21
159.705
 31
0.0
  0
LINE
  8
0
  6
CONTINUOUS
 62
     2
 10
70.96
 20
188.935
 30
0.0
 11
70.96
 21
169.705
 31
0.0
  0
LINE
  8
0
  6
CONTINUOUS
 62
     2
 10
73.46
 20
178.19
 30
0.0
 11
73.46
 21
149.705
 31
0.0
  0
LINE
  8
0
  6
CONTINUOUS
 62
     2
 10
73.46
 20
178.19
 30
0.0
 11
73.46
 21
149.705
 31
0.0
  0
CIRCLE
  8
0
  6
CONTINUOUS
 62
     1
 10
246.6
 20
189.31
 30
0.0
 40
10.39
  0
CIRCLE
  8
0
  6
CONTINUOUS
 62
     1
 10
246.6
 20
189.31
 30
0.0
 40
10.91
  0
LINE
  8
0
  6
CONTINUOUS
 62
     1
 10
168.85
 20
209.435
 30
0.0
 11
177.35
 21
209.435
 31
0.0
  0
LINE
  8
0
  6
CONTINUOUS
 62
     1
 10
168.85
 20
202.435
 30
0.0
 11
177.35
 21
202.435
 31
0.0
  0
LINE
  8
0
  6
CONTINUOUS
 62
     1
 10
178.1
 20
200.935
 30
0.0
 11
178.1
 21
210.935
 31
0.0
  0
LINE
  8
0
  6
CONTINUOUS
 62
     1
 10
168.1
 20
203.185
 30
0.0
 11
168.1
 21
208.685
 31
0.0
  0
LINE
  8
0
  6
CONTINUOUS
 62
     1
 10
168.1
 20
208.685
 30
0.0
 11
168.85
 21
209.435
 31
0.0
  0
LINE
  8
0
  6
CONTINUOUS
 62
     1
 10
168.1
 20
203.185
 30
0.0
 11
168.85
 21
202.435
 31
0.0
  0
LINE
  8
0
  6
CONTINUOUS
 62
     1
 10
177.35
 20
202.435
 30
0.0
 11
177.35
 21
209.435
 31
0.0
  0
LINE
  8
0
  6
CONTINUOUS
 62
     1
 10
177.35
 20
208.685
 30
0.0
 11
178.1
 21
208.685
 31
0.0
  0
LINE
  8
0
  6
CONTINUOUS
 62
     1
 10
177.35
 20
203.185
 30
0.0
 11
178.1
 21
203.185
 31
0.0
  0
TEXT
  8
0
  6
CONTINUOUS
 62
     3
 10
147.1
 20
219.02
 30
0.0
 40
3.5
  1
Ｍ１４　Ｐ１．５
 50
0.0
 41
0.8285714
 51
0.0
  7
KANJI24
  0
LINE
  8
0
  6
CONTINUOUS
 62
     2
 10
178.1
 20
199.935
 30
0.0
 11
178.1
 21
139.685
 31
0.0
  0
LINE
  8
0
  6
CONTINUOUS
 62
     2
 10
168.1
 20
202.185
 30
0.0
 11
168.1
 21
139.685
 31
0.0
  0
LINE
  8
0
  6
CONTINUOUS
 62
     2
 10
168.1
 20
202.185
 30
0.0
 11
168.1
 21
129.685
 31
0.0
  0
LINE
  8
0
  6
CONTINUOUS
 62
     2
 10
170.3
 20
218.02
 30
0.0
 11
147.1
 21
218.02
 31
0.0
  0
LINE
  8
0
  6
CONTINUOUS
 62
     2
 10
168.1
 20
208.685
 30
0.0
 11
177.35
 21
208.685
 31
0.0
  0
LINE
  8
0
  6
CONTINUOUS
 62
     2
 10
168.85
 20
202.435
 30
0.0
 11
168.85
 21
209.435
 31
0.0
  0
LINE
  8
0
  6
CONTINUOUS
 62
     2
 10
175.26
 20
209.43
 30
0.0
 11
174.7244
 21
211.43
 31
0.0
  0
LINE
  8
0
  6
CONTINUOUS
 62
     2
 10
173.7961
 20
210.8943
 30
0.0
 11
175.26
 21
209.43
 31
0.0
  0
LINE
  8
0
  6
CONTINUOUS
 62
     2
 10
175.255
 20
209.435
 30
0.0
 11
170.3
 21
218.02
 31
0.0
  0
LINE
  8
0
  6
CONTINUOUS
 62
     2
 10
168.1
 20
203.185
 30
0.0
 11
177.35
 21
203.185
 31
0.0
  0
TEXT
  8
0
  6
CONTINUOUS
 62
     3
 10
170.2
 20
142.185
 30
0.0
 40
3.5
  1
２０
 50
0.0
 41
0.8285714
 51
0.0
  7
KANJI24
  0
LINE
  8
0
  6
CONTINUOUS
 62
     2
 10
168.1
 20
141.185
 30
0.0
 11
178.1
 21
141.185
 31
0.0
  0
LINE
  8
0
  6
CONTINUOUS
 62
     2
 10
170.1
 20
141.7259
 30
0.0
 11
168.1
 21
141.19
 31
0.0
  0
LINE
  8
0
  6
CONTINUOUS
 62
     2
 10
168.1
 20
141.19
 30
0.0
 11
170.1
 21
140.6542
 31
0.0
  0
LINE
  8
0
  6
CONTINUOUS
 62
     2
 10
176.1
 20
140.6542
 30
0.0
 11
178.1
 21
141.19
 31
0.0
  0
LINE
  8
0
  6
CONTINUOUS
 62
     2
 10
178.1
 20
141.19
 30
0.0
 11
176.1
 21
141.7259
 31
0.0
  0
LINE
  8
0
  6
CONTINUOUS
 62
     2
 10
170.1
 20
131.7259
 30
0.0
 11
168.1
 21
131.19
 31
0.0
  0
LINE
  8
0
  6
CONTINUOUS
 62
     2
 10
168.1
 20
131.19
 30
0.0
 11
170.1
 21
130.6542
 31
0.0
  0
LINE
  8
0
  6
CONTINUOUS
 62
     2
 10
168.1
 20
131.185
 30
0.0
 11
266.6
 21
131.185
 31
0.0
  0
TEXT
  8
0
  6
CONTINUOUS
 62
     3
 10
186.935
 20
177.735
 30
0.0
 40
3.5
  1
φ２０
 50
90.0
 41
0.8285714
 51
0.0
  7
KANJI24
  0
LINE
  8
0
  6
CONTINUOUS
 62
     2
 10
187.935
 20
210.935
 30
0.0
 11
186.435
 21
210.935
 31
0.0
  0
LINE
  8
0
  6
CONTINUOUS
 62
     2
 10
187.4042
 20
212.93
 30
0.0
 11
187.94
 21
210.93
 31
0.0
  0
LINE
  8
0
  6
CONTINUOUS
 62
     2
 10
187.94
 20
210.93
 30
0.0
 11
188.4759
 21
212.93
 31
0.0
  0
LINE
  8
0
  6
CONTINUOUS
 62
     2
 10
187.935
 20
214.935
 30
0.0
 11
187.935
 21
210.935
 31
0.0
  0
LINE
  8
0
  6
CONTINUOUS
 62
     2
 10
187.935
 20
200.935
 30
0.0
 11
186.435
 21
200.935
 31
0.0
  0
LINE
  8
0
  6
CONTINUOUS
 62
     2
 10
187.935
 20
200.935
 30
0.0
 11
187.935
 21
210.935
 31
0.0
  0
LINE
  8
0
  6
CONTINUOUS
 62
     2
 10
187.935
 20
200.935
 30
0.0
 11
187.935
 21
196.935
 31
0.0
  0
LINE
  8
0
  6
CONTINUOUS
 62
     2
 10
188.4759
 20
198.93
 30
0.0
 11
187.94
 21
200.93
 31
0.0
  0
LINE
  8
0
  6
CONTINUOUS
 62
     2
 10
187.94
 20
200.93
 30
0.0
 11
187.4042
 21
198.93
 31
0.0
  0
LINE
  8
0
  6
CONTINUOUS
 62
     2
 10
187.935
 20
196.935
 30
0.0
 11
187.935
 21
177.735
 31
0.0
  0
LINE
  8
0
  6
CONTINUOUS
 62
     2
 10
269.1
 20
191.185
 30
0.0
 11
269.1
 21
149.935
 31
0.0
  0
LINE
  8
2
  6
CONTINUOUS
 62
     2
 10
266.6
 20
142.18
 30
0.0
 11
266.6
 21
143.185
 31
0.0
  0
TEXT
  8
2
  6
CONTINUOUS
 62
     3
 10
378.54
 20
213.94
 30
0.0
 40
3.2
  1
φ２０　　Ｌ＝５
 50
0.0
 41
0.71875
 51
0.0
  7
KANJI17
  0
TEXT
  8
0
  6
CONTINUOUS
 62
     3
 10
186.935
 20
186.435
 30
0.0
 40
3.5
  1
　Ｌ＝５
 50
90.0
 41
0.8285714
 51
0.0
  7
KANJI24
  0
CIRCLE
  8
0
  6
CONTINUOUS
 62
     1
 10
256.15
 20
198.86
 30
0.0
 40
2.08
  0
CIRCLE
  8
0
  6
CONTINUOUS
 62
     1
 10
237.05
 20
198.86
 30
0.0
 40
2.08
  0
CIRCLE
  8
0
  6
CONTINUOUS
 62
     1
 10
237.05
 20
179.76
 30
0.0
 40
2.08
  0
CIRCLE
  8
0
  6
CONTINUOUS
 62
     1
 10
256.15
 20
179.76
 30
0.0
 40
2.08
  0
LINE
  8
0
  6
CONTINUOUS
 62
     2
 10
63.46
 20
210.556311536
 30
0.0
 11
63.46
 21
246.655
 31
0.0
  0
LINE
  8
0
  6
LTYPE2
 62
     2
 10
209.0
 20
205.935
 30
0.0
 11
318.605
 21
205.935
 31
0.0
  0
LINE
  8
0
  6
LTYPE2
 62
     2
 10
165.6
 20
205.935
 30
0.0
 11
203.2
 21
205.935
 31
0.0
  0
TEXT
  8
2
  6
CONTINUOUS
 62
     3
 10
181.54
 20
95.42
 30
0.0
 40
3.2
  1
１８０
 50
0.0
 41
0.78125
 51
0.0
  7
KANJI22
  0
TEXT
  8
2
  6
CONTINUOUS
 62
     3
 10
196.89
 20
95.05
 30
0.0
 40
3.2
  1
　２５０
 50
0.0
 41
0.78125
 51
0.0
  7
KANJI22
  0
TEXT
  8
2
  6
CONTINUOUS
 62
     3
 10
212.52
 20
95.28
 30
0.0
 40
3.2
  1
　１５０
 50
0.0
 41
0.78125
 51
0.0
  7
KANJI22
  0
TEXT
  8
2
  6
CONTINUOUS
 62
     3
 10
181.54
 20
88.42
 30
0.0
 40
3.2
  1
１８０
 50
0.0
 41
0.78125
 51
0.0
  7
KANJI22
  0
TEXT
  8
2
  6
CONTINUOUS
 62
     3
 10
181.54
 20
81.42
 30
0.0
 40
3.2
  1
１８０
 50
0.0
 41
0.78125
 51
0.0
  7
KANJI22
  0
TEXT
  8
2
  6
CONTINUOUS
 62
     3
 10
181.54
 20
74.42
 30
0.0
 40
3.2
  1
１８０
 50
0.0
 41
0.78125
 51
0.0
  7
KANJI22
  0
TEXT
  8
2
  6
CONTINUOUS
 62
     3
 10
181.54
 20
67.42
 30
0.0
 40
3.2
  1
１８０
 50
0.0
 41
0.78125
 51
0.0
  7
KANJI22
  0
TEXT
  8
2
  6
CONTINUOUS
 62
     3
 10
181.54
 20
60.42
 30
0.0
 40
3.2
  1
１８０
 50
0.0
 41
0.78125
 51
0.0
  7
KANJI22
  0
TEXT
  8
2
  6
CONTINUOUS
 62
     3
 10
181.54
 20
53.42
 30
0.0
 40
3.2
  1
１８０
 50
0.0
 41
0.78125
 51
0.0
  7
KANJI22
  0
TEXT
  8
2
  6
CONTINUOUS
 62
     3
 10
181.54
 20
46.42
 30
0.0
 40
3.2
  1
１８０
 50
0.0
 41
0.78125
 51
0.0
  7
KANJI22
  0
TEXT
  8
2
  6
CONTINUOUS
 62
     3
 10
212.52
 20
88.28
 30
0.0
 40
3.2
  1
　１５０
 50
0.0
 41
0.78125
 51
0.0
  7
KANJI22
  0
TEXT
  8
2
  6
CONTINUOUS
 62
     3
 10
212.52
 20
81.28
 30
0.0
 40
3.2
  1
　１５０
 50
0.0
 41
0.78125
 51
0.0
  7
KANJI22
  0
TEXT
  8
2
  6
CONTINUOUS
 62
     3
 10
212.52
 20
74.28
 30
0.0
 40
3.2
  1
　１５０
 50
0.0
 41
0.78125
 51
0.0
  7
KANJI22
  0
TEXT
  8
2
  6
CONTINUOUS
 62
     3
 10
212.52
 20
67.28
 30
0.0
 40
3.2
  1
　１５０
 50
0.0
 41
0.78125
 51
0.0
  7
KANJI22
  0
TEXT
  8
2
  6
CONTINUOUS
 62
     3
 10
212.52
 20
60.28
 30
0.0
 40
3.2
  1
　１５０
 50
0.0
 41
0.78125
 51
0.0
  7
KANJI22
  0
TEXT
  8
2
  6
CONTINUOUS
 62
     3
 10
212.52
 20
53.28
 30
0.0
 40
3.2
  1
　１５０
 50
0.0
 41
0.78125
 51
0.0
  7
KANJI22
  0
TEXT
  8
2
  6
CONTINUOUS
 62
     3
 10
212.52
 20
46.28
 30
0.0
 40
3.2
  1
　１５０
 50
0.0
 41
0.78125
 51
0.0
  7
KANJI22
  0
TEXT
  8
2
  6
CONTINUOUS
 62
     3
 10
196.89
 20
88.05
 30
0.0
 40
3.2
  1
　　３５０
 50
0.0
 41
0.78125
 51
0.0
  7
KANJI22
  0
TEXT
  8
2
  6
CONTINUOUS
 62
     3
 10
196.89
 20
81.05
 30
0.0
 40
3.2
  1
　　４５０
 50
0.0
 41
0.78125
 51
0.0
  7
KANJI22
  0
TEXT
  8
2
  6
CONTINUOUS
 62
     3
 10
196.89
 20
74.05
 30
0.0
 40
3.2
  1
　　５５０
 50
0.0
 41
0.78125
 51
0.0
  7
KANJI22
  0
TEXT
  8
2
  6
CONTINUOUS
 62
     3
 10
196.89
 20
67.05
 30
0.0
 40
3.2
  1
　　６５０
 50
0.0
 41
0.78125
 51
0.0
  7
KANJI22
  0
TEXT
  8
2
  6
CONTINUOUS
 62
     3
 10
196.89
 20
60.05
 30
0.0
 40
3.2
  1
　　７５０
 50
0.0
 41
0.78125
 51
0.0
  7
KANJI22
  0
TEXT
  8
2
  6
CONTINUOUS
 62
     3
 10
196.89
 20
53.05
 30
0.0
 40
3.2
  1
　　９５０
 50
0.0
 41
0.78125
 51
0.0
  7
KANJI22
  0
TEXT
  8
2
  6
CONTINUOUS
 62
     3
 10
196.89
 20
46.05
 30
0.0
 40
3.2
  1
１１５０
 50
0.0
 41
0.78125
 51
0.0
  7
KANJI22
  0
TEXT
  8
2
  6
CONTINUOUS
 62
     3
 10
231.03
 20
95.18
 30
0.0
 40
3.2
  1
　　　５
 50
0.0
 41
0.78125
 51
0.0
  7
KANJI22
  0
TEXT
  8
2
  6
CONTINUOUS
 62
     3
 10
231.03
 20
88.18
 30
0.0
 40
3.2
  1
　　５．５
 50
0.0
 41
0.78125
 51
0.0
  7
KANJI22
  0
TEXT
  8
2
  6
CONTINUOUS
 62
     3
 10
231.03
 20
81.18
 30
0.0
 40
3.2
  1
　　５．５
 50
0.0
 41
0.78125
 51
0.0
  7
KANJI22
  0
TEXT
  8
2
  6
CONTINUOUS
 62
     3
 10
231.03
 20
74.18
 30
0.0
 40
3.2
  1
　　　６
 50
0.0
 41
0.78125
 51
0.0
  7
KANJI22
  0
TEXT
  8
2
  6
CONTINUOUS
 62
     3
 10
233.53
 20
67.18
 30
0.0
 40
3.2
  1
　６
 50
0.0
 41
0.78125
 51
0.0
  7
KANJI22
  0
TEXT
  8
2
  6
CONTINUOUS
 62
     3
 10
231.03
 20
60.18
 30
0.0
 40
3.2
  1
　　　７
 50
0.0
 41
0.78125
 51
0.0
  7
KANJI22
  0
TEXT
  8
2
  6
CONTINUOUS
 62
     3
 10
231.03
 20
53.18
 30
0.0
 40
3.2
  1
　７．５
 50
0.0
 41
0.78125
 51
0.0
  7
KANJI22
  0
TEXT
  8
2
  6
CONTINUOUS
 62
     3
 10
231.03
 20
46.18
 30
0.0
 40
3.2
  1
　　　８
 50
0.0
 41
0.78125
 51
0.0
  7
KANJI22
  0
TEXT
  8
2
  6
CONTINUOUS
 62
     3
 10
374.537
 20
171.689
 30
0.0
 40
2.88
  1
０．９ｋｇーｍ
 50
0.0
 41
0.71875
 51
0.0
  7
KANJI26
  0
CIRCLE
  8
0
  6
CONTINUOUS
 62
     1
 10
98.46
 20
205.935
 30
0.0
 40
17.0
  0
CIRCLE
  8
0
  6
CONTINUOUS
 62
     1
 10
84.875
 20
192.35
 30
0.0
 40
1.5
  0
ARC
  8
0
  6
LTYPE2
 62
     2
 10
97.96
 20
205.435
 30
0.0
 40
18.5
 50
214.20545
 51
236.30563
  0
LINE
  8
0
  6
LTYPE2
 62
     2
 10
82.925
 20
190.4
 30
0.0
 11
86.84
 21
194.32
 31
0.0
  0
CIRCLE
  8
0
  6
CONTINUOUS
 62
     1
 10
84.875
 20
192.35
 30
0.0
 40
2.0
  0
CIRCLE
  8
0
  6
CONTINUOUS
 62
     1
 10
112.04
 20
192.35
 30
0.0
 40
1.5
  0
ARC
  8
0
  6
LTYPE2
 62
     2
 10
98.96
 20
205.435
 30
0.0
 40
18.5
 50
303.68147
 51
325.79454
  0
LINE
  8
0
  6
LTYPE2
 62
     2
 10
110.075
 20
194.32
 30
0.0
 11
113.99
 21
190.4
 31
0.0
  0
CIRCLE
  8
0
  6
CONTINUOUS
 62
     1
 10
112.04
 20
192.35
 30
0.0
 40
2.0
  0
CIRCLE
  8
0
  6
CONTINUOUS
 62
     1
 10
112.04
 20
219.515
 30
0.0
 40
1.5
  0
ARC
  8
0
  6
LTYPE2
 62
     2
 10
98.96
 20
206.435
 30
0.0
 40
18.5
 50
33.702952
 51
55.794542
  0
LINE
  8
0
  6
LTYPE2
 62
     2
 10
110.075
 20
217.55
 30
0.0
 11
113.99
 21
221.47
 31
0.0
  0
CIRCLE
  8
0
  6
CONTINUOUS
 62
     1
 10
112.04
 20
219.515
 30
0.0
 40
2.0
  0
CIRCLE
  8
0
  6
CONTINUOUS
 62
     1
 10
84.875
 20
219.515
 30
0.0
 40
1.5
  0
ARC
  8
0
  6
LTYPE2
 62
     2
 10
97.96
 20
206.435
 30
0.0
 40
18.5
 50
124.21826
 51
146.30563
  0
LINE
  8
0
  6
LTYPE2
 62
     2
 10
82.925
 20
221.47
 30
0.0
 11
86.84
 21
217.55
 31
0.0
  0
CIRCLE
  8
0
  6
CONTINUOUS
 62
     1
 10
84.875
 20
219.515
 30
0.0
 40
2.0
  0
TEXT
  8
2
  6
CONTINUOUS
 62
     3
 10
376.54
 20
235.19
 30
0.0
 40
3.2
  1
ＢＪ１ＨＵＮ－
 50
0.0
 41
0.71875
 51
0.0
  7
KANJI17
  0
TEXT
  8
2
  6
CONTINUOUS
 62
     3
 10
384.72
 20
186.62
 30
0.0
 40
3.2
  1
６３
 50
0.0
 41
0.71875
 51
0.0
  7
KANJI17
  0
TEXT
  8
0
  6
CONTINUOUS
 62
     3
 10
388.368
 20
172.032
 30
0.27
 40
2.7
  1
（８．８２Ｎ・ｍ）
 50
0.0
 41
0.9
 51
0.0
  7
KANJI27
  0
TEXT
  8
2
  6
CONTINUOUS
 62
     3
 10
133.84
 20
95.25
 30
0.0
 40
3.2
  1
ＢＪ１ＨＵＮ－　　　　１
 50
0.0
 41
0.78125
 51
0.0
  7
KANJI22
  0
TEXT
  8
2
  6
CONTINUOUS
 62
     3
 10
133.84
 20
88.25
 30
0.0
 40
3.2
  1
ＢＪ１ＨＵＮ－　　　　２
 50
0.0
 41
0.78125
 51
0.0
  7
KANJI22
  0
TEXT
  8
2
  6
CONTINUOUS
 62
     3
 10
133.84
 20
81.25
 30
0.0
 40
3.2
  1
ＢＪ１ＨＵＮ－　　　　３
 50
0.0
 41
0.78125
 51
0.0
  7
KANJI22
  0
TEXT
  8
2
  6
CONTINUOUS
 62
     3
 10
133.84
 20
74.25
 30
0.0
 40
3.2
  1
ＢＪ１ＨＵＮ－　　　　４
 50
0.0
 41
0.78125
 51
0.0
  7
KANJI22
  0
TEXT
  8
2
  6
CONTINUOUS
 62
     3
 10
133.84
 20
67.25
 30
0.0
 40
3.2
  1
ＢＪ１ＨＵＮ－　　　　５
 50
0.0
 41
0.78125
 51
0.0
  7
KANJI22
  0
TEXT
  8
2
  6
CONTINUOUS
 62
     3
 10
133.84
 20
60.25
 30
0.0
 40
3.2
  1
ＢＪ１ＨＵＮ－　　　　６
 50
0.0
 41
0.78125
 51
0.0
  7
KANJI22
  0
TEXT
  8
2
  6
CONTINUOUS
 62
     3
 10
133.84
 20
53.25
 30
0.0
 40
3.2
  1
ＢＪ１ＨＵＮ－　　　　８
 50
0.0
 41
0.78125
 51
0.0
  7
KANJI22
  0
TEXT
  8
2
  6
CONTINUOUS
 62
     3
 10
133.84
 20
46.25
 30
0.0
 40
3.2
  1
ＢＪ１ＨＵＮ－　　１０
 50
0.0
 41
0.78125
 51
0.0
  7
KANJI22
  0
TEXT
  8
2
  6
CONTINUOUS
 62
     3
 10
133.84
 20
39.25
 30
0.0
 40
3.2
  1
ＢＪ１ＨＵＮ－　　　　　
 50
0.0
 41
0.78125
 51
0.0
  7
KANJI22
  0
TEXT
  8
2
  6
CONTINUOUS
 62
     3
 10
373.52
 20
207.15
 30
0.0
 40
3.2
  1
１５／１６
 50
0.0
 41
0.71875
 51
0.0
  7
KANJI17
  0
TEXT
  8
0
  6
CONTINUOUS
 62
     3
 10
323.3
 20
34.135
 30
0.45
 40
4.5
  1
Ｓ
 50
0.0
 41
0.9
 51
0.0
  7
KANJI28
  0
CIRCLE
  8
0
  6
CONTINUOUS
 62
     3
 10
325.25
 20
36.385
 30
0.0
 40
2.482941804
  0
LINE
  8
0
  6
CONTINUOUS
 62
     1
 10
227.6
 20
186.71
 30
0.0
 11
227.6
 21
225.155
 31
0.0
  0
LINE
  8
0
  6
CONTINUOUS
 62
     1
 10
219.4
 20
219.685
 30
0.0
 11
223.1
 21
219.685
 31
0.0
  0
ARC
  8
0
  6
CONTINUOUS
 62
     1
 10
223.1
 20
220.685
 30
0.0
 40
1.0
 50
270.0
 51
0.0
  0
LINE
  8
0
  6
CONTINUOUS
 62
     1
 10
219.4
 20
192.185
 30
0.0
 11
223.1
 21
192.185
 31
0.0
  0
ARC
  8
0
  6
CONTINUOUS
 62
     1
 10
223.1
 20
191.185
 30
0.0
 40
1.0
 50
0.0
 51
90.0
  0
ARC
  8
0
  6
CONTINUOUS
 62
     1
 10
199.6
 20
220.185
 30
0.0
 40
2.0
 50
90.0
 51
180.0
  0
LINE
  8
0
  6
CONTINUOUS
 62
     1
 10
199.6
 20
222.185
 30
0.0
 11
218.9
 21
222.185
 31
0.0
  0
ARC
  8
0
  6
CONTINUOUS
 62
     1
 10
199.6
 20
191.685
 30
0.0
 40
2.0
 50
180.0
 51
270.0
  0
LINE
  8
0
  6
CONTINUOUS
 62
     1
 10
199.6
 20
189.685
 30
0.0
 11
218.9
 21
189.685
 31
0.0
  0
LINE
  8
0
  6
CONTINUOUS
 62
     1
 10
218.9
 20
189.685
 30
0.0
 11
219.4
 21
190.185
 31
0.0
  0
LINE
  8
0
  6
CONTINUOUS
 62
     1
 10
197.6
 20
220.185
 30
0.0
 11
197.6
 21
191.685
 31
0.0
  0
LINE
  8
0
  6
CONTINUOUS
 62
     1
 10
219.4
 20
221.685
 30
0.0
 11
218.9
 21
222.185
 31
0.0
  0
LINE
  8
0
  6
CONTINUOUS
 62
     1
 10
219.4
 20
221.685
 30
0.0
 11
219.4
 21
190.185
 31
0.0
  0
LINE
  8
2
  6
CONTINUOUS
 62
     2
 10
208.800002697
 20
222.185
 30
0.0
 11
208.152955085
 21
219.770185434
 31
0.0
  0
LINE
  8
2
  6
CONTINUOUS
 62
     2
 10
208.800002697
 20
222.185
 30
0.0
 11
209.44705031
 21
219.770185434
 31
0.0
  0
LINE
  8
2
  6
CONTINUOUS
 62
     2
 10
208.800002697
 20
222.185
 30
0.0
 11
208.800002697
 21
189.685
 31
0.0
  0
LINE
  8
2
  6
CONTINUOUS
 62
     2
 10
208.800002697
 20
189.685
 30
0.0
 11
209.44705031
 21
192.099814566
 31
0.0
  0
LINE
  8
2
  6
CONTINUOUS
 62
     2
 10
208.800002697
 20
189.685
 30
0.0
 11
208.152955085
 21
192.099814566
 31
0.0
  0
LINE
  8
2
  6
CONTINUOUS
 62
     2
 10
208.100002697
 20
189.685
 30
0.0
 11
206.800002697
 21
189.685
 31
0.0
  0
TEXT
  8
2
  6
CONTINUOUS
 62
     3
 10
207.800002697
 20
200.835
 30
0.3
 40
3.5
  1
φ６５
 50
90.0
 41
0.914285714
 51
0.0
  7
KANJI29
  0
LINE
  8
0
  6
CONTINUOUS
 62
     1
 10
178.1
 20
210.935
 30
0.0
 11
197.6
 21
210.935
 31
0.0
  0
LINE
  8
0
  6
CONTINUOUS
 62
     1
 10
178.1
 20
200.935
 30
0.0
 11
197.6
 21
200.935
 31
0.0
  0
LINE
  8
2
  6
CONTINUOUS
 62
     2
 10
246.6
 20
161.185
 30
0.0
 11
244.185185434
 21
161.832047613
 31
0.0
  0
LINE
  8
2
  6
CONTINUOUS
 62
     2
 10
246.6
 20
161.185
 30
0.0
 11
244.185185434
 21
160.537952387
 31
0.0
  0
LINE
  8
2
  6
CONTINUOUS
 62
     2
 10
246.6
 20
161.185
 30
0.0
 11
227.6
 21
161.185
 31
0.0
  0
LINE
  8
2
  6
CONTINUOUS
 62
     2
 10
227.6
 20
161.185
 30
0.0
 11
230.014814566
 21
160.537952387
 31
0.0
  0
LINE
  8
2
  6
CONTINUOUS
 62
     2
 10
227.6
 20
161.185
 30
0.0
 11
230.014814566
 21
161.832047613
 31
0.0
  0
LINE
  8
2
  6
CONTINUOUS
 62
     2
 10
227.6
 20
185.71
 30
0.0
 11
227.6
 21
159.185
 31
0.0
  0
TEXT
  8
2
  6
CONTINUOUS
 62
     3
 10
233.75
 20
162.185
 30
0.3
 40
3.5
  1
３３
 50
0.0
 41
0.914285714
 51
0.0
  7
KANJI29
  0
LINE
  8
2
  6
CONTINUOUS
 62
     2
 10
227.6
 20
161.185
 30
0.0
 11
230.014814566
 21
160.537952387
 31
0.0
  0
LINE
  8
2
  6
CONTINUOUS
 62
     2
 10
227.6
 20
161.185
 30
0.0
 11
230.014814566
 21
161.832047613
 31
0.0
  0
LINE
  8
2
  6
CONTINUOUS
 62
     2
 10
231.35
 20
161.185
 30
0.0
 11
227.6
 21
161.185
 31
0.0
  0
LINE
  8
2
  6
CONTINUOUS
 62
     2
 10
227.6
 20
161.185
 30
0.0
 11
224.1
 21
161.185
 31
0.0
  0
LINE
  8
2
  6
CONTINUOUS
 62
     2
 10
224.1
 20
161.185
 30
0.0
 11
220.35
 21
161.185
 31
0.0
  0
LINE
  8
2
  6
CONTINUOUS
 62
     2
 10
224.1
 20
161.185
 30
0.0
 11
221.685185434
 21
161.832047613
 31
0.0
  0
LINE
  8
2
  6
CONTINUOUS
 62
     2
 10
224.1
 20
161.185
 30
0.0
 11
221.685185434
 21
160.537952387
 31
0.0
  0
LINE
  8
2
  6
CONTINUOUS
 62
     2
 10
224.1
 20
185.71
 30
0.0
 11
224.1
 21
159.185
 31
0.0
  0
TEXT
  8
2
  6
CONTINUOUS
 62
     3
 10
224.25
 20
162.185
 30
0.3
 40
3.5
  1
７
 50
0.0
 41
0.914285714
 51
0.0
  7
KANJI29
  0
LINE
  8
2
  6
CONTINUOUS
 62
     2
 10
266.6
 20
151.185
 30
0.0
 11
264.185185434
 21
151.832047613
 31
0.0
  0
LINE
  8
2
  6
CONTINUOUS
 62
     2
 10
266.6
 20
151.185
 30
0.0
 11
264.185185434
 21
150.537952387
 31
0.0
  0
LINE
  8
2
  6
CONTINUOUS
 62
     2
 10
266.6
 20
151.185
 30
0.0
 11
224.1
 21
151.185
 31
0.0
  0
LINE
  8
2
  6
CONTINUOUS
 62
     2
 10
224.1
 20
151.185
 30
0.0
 11
226.514814566
 21
150.537952387
 31
0.0
  0
LINE
  8
2
  6
CONTINUOUS
 62
     2
 10
224.1
 20
151.185
 30
0.0
 11
226.514814566
 21
151.832047613
 31
0.0
  0
LINE
  8
2
  6
CONTINUOUS
 62
     2
 10
224.1
 20
160.185
 30
0.0
 11
224.1
 21
149.185
 31
0.0
  0
LINE
  8
2
  6
CONTINUOUS
 62
     2
 10
197.6
 20
190.685002697
 30
0.0
 11
197.6
 21
139.185
 31
0.0
  0
LINE
  8
2
  6
CONTINUOUS
 62
     2
 10
197.6
 20
141.185
 30
0.0
 11
200.014814566
 21
140.537952387
 31
0.0
  0
LINE
  8
2
  6
CONTINUOUS
 62
     2
 10
197.6
 20
141.185
 30
0.0
 11
200.014814566
 21
141.832047613
 31
0.0
  0
LINE
  8
2
  6
CONTINUOUS
 62
     2
 10
197.6
 20
141.185
 30
0.0
 11
266.6
 21
141.185
 31
0.0
  0
LINE
  8
2
  6
CONTINUOUS
 62
     2
 10
266.6
 20
141.185
 30
0.0
 11
264.185185434
 21
141.832047613
 31
0.0
  0
LINE
  8
2
  6
CONTINUOUS
 62
     2
 10
266.6
 20
141.185
 30
0.0
 11
264.185185434
 21
140.537952387
 31
0.0
  0
TEXT
  8
2
  6
CONTINUOUS
 62
     3
 10
227.0
 20
142.185
 30
0.3
 40
3.5
  1
１３８
 50
0.0
 41
0.914285714
 51
0.0
  7
KANJI29
  0
TEXT
  8
2
  6
CONTINUOUS
 62
     3
 10
242.0
 20
152.185
 30
0.3
 40
3.5
  1
８０
 50
0.0
 41
0.914285714
 51
0.0
  7
KANJI29
  0
TEXT
  8
2
  6
CONTINUOUS
 62
     3
 10
401.24
 20
207.33
 30
0.0
 40
3.2
  1
ｍｍ
 50
0.0
 41
0.6875
 51
0.0
  7
KANJI20
  0
TEXT
  8
2
  6
CONTINUOUS
 62
     3
 10
385.12
 20
207.25
 30
0.0
 40
3.2
  1
（０．９３８）
 50
0.0
 41
0.71875
 51
0.0
  7
KANJI17
  0
LINE
  8
0
  6
CONTINUOUS
 62
     2
 10
219.4
 20
193.185
 30
0.0
 11
222.100002697
 21
193.185
 31
0.0
  0
LINE
  8
2
  6
CONTINUOUS
 62
     2
 10
222.100002697
 20
193.185
 30
0.0
 11
223.100002697
 21
192.185
 31
0.0
  0
LINE
  8
0
  6
CONTINUOUS
 62
     2
 10
219.4
 20
218.685
 30
0.0
 11
222.100002697
 21
218.685
 31
0.0
  0
LINE
  8
2
  6
CONTINUOUS
 62
     2
 10
222.100002697
 20
218.685
 30
0.0
 11
223.100002697
 21
219.685
 31
0.0
  0
LINE
  8
0
  6
CONTINUOUS
 62
     1
 10
225.1
 20
225.155
 30
0.0
 11
266.6
 21
225.155
 31
0.0
  0
ARC
  8
0
  6
CONTINUOUS
 62
     1
 10
225.1
 20
224.155
 30
0.0
 40
1.0
 50
90.0
 51
180.0
  0
LINE
  8
0
  6
CONTINUOUS
 62
     1
 10
225.1
 20
186.71
 30
0.0
 11
230.495
 21
186.71
 31
0.0
  0
LINE
  8
0
  6
CONTINUOUS
 62
     1
 10
224.1
 20
187.71
 30
0.0
 11
224.1
 21
224.155
 31
0.0
  0
ARC
  8
0
  6
CONTINUOUS
 62
     1
 10
225.1
 20
187.71
 30
0.0
 40
1.0
 50
180.0
 51
270.0
  0
LINE
  8
0
  6
CONTINUOUS
 62
     2
 10
178.1
 20
209.96
 30
0.0
 11
197.6
 21
209.96
 31
0.0
  0
LINE
  8
0
  6
CONTINUOUS
 62
     2
 10
178.1
 20
201.905
 30
0.0
 11
197.6
 21
201.905
 31
0.0
  0
LINE
  8
0
  6
CONTINUOUS
 62
     1
 10
269.1
 20
216.685
 30
0.0
 11
320.605
 21
216.685
 31
0.0
  0
LINE
  8
0
  6
CONTINUOUS
 62
     1
 10
320.605
 20
216.685
 30
0.0
 11
322.105
 21
215.185
 31
0.0
  0
LINE
  8
0
  6
CONTINUOUS
 62
     1
 10
269.1
 20
195.185
 30
0.0
 11
320.605
 21
195.185
 31
0.0
  0
LINE
  8
0
  6
CONTINUOUS
 62
     1
 10
322.105
 20
196.685
 30
0.0
 11
322.105
 21
215.185
 31
0.0
  0
LINE
  8
0
  6
CONTINUOUS
 62
     1
 10
320.605
 20
195.185
 30
0.0
 11
322.105
 21
196.685
 31
0.0
  0
LINE
  8
0
  6
CONTINUOUS
 62
     1
 10
320.605
 20
216.685
 30
0.0
 11
320.605
 21
195.185
 31
0.0
  0
LINE
  8
2
  6
CONTINUOUS
 62
     2
 10
100.162138817
 20
63.651745183
 30
0.0
 11
99.53657363
 21
66.072213773
 31
0.0
  0
LINE
  8
2
  6
CONTINUOUS
 62
     2
 10
100.162138817
 20
63.651745183
 30
0.0
 11
98.410149179
 21
65.435149878
 31
0.0
  0
LINE
  8
2
  6
CONTINUOUS
 62
     2
 10
92.777861183
 20
76.708254817
 30
0.0
 11
93.40342637
 21
74.287786227
 31
0.0
  0
LINE
  8
2
  6
CONTINUOUS
 62
     2
 10
92.777861183
 20
76.708254817
 30
0.0
 11
94.529850821
 21
74.924850122
 31
0.0
  0
LINE
  8
2
  6
CONTINUOUS
 62
     2
 10
100.162138817
 20
63.651745183
 30
0.0
 11
83.052019868
 21
93.905
 31
0.0
  0
TEXT
  8
0
  6
CONTINUOUS
 62
     3
 10
69.252019868
 20
94.705
 30
0.3
 40
3.0
  1
φ１５ｈ７
 50
0.0
 41
0.9
 51
0.0
  7
KANJI30
  0
LINE
  8
0
  6
CONTINUOUS
 62
     2
 10
83.052019868
 20
93.905
 30
0.0
 11
68.952019868
 21
93.905
 31
0.0
  0
TEXT
  8
2
  6
CONTINUOUS
 62
     3
 10
343.938990066
 20
265.4075
 30
0.0
 40
6.75
  1
・ボールネジ式
 50
0.0
 41
0.8888888
 51
0.0
  7
KANJI31
  0
TEXT
  8
2
  6
CONTINUOUS
 62
     3
 10
343.938990066
 20
254.7575
 30
0.0
 40
6.75
  1
・Ｈタイプ
 50
0.0
 41
0.8888888
 51
0.0
  7
KANJI31
  0
LINE
  8
0
  6
CONTINUOUS
 62
     1
 10
205.06525
 20
222.185
 30
0.0
 11
205.06525
 21
222.435
 31
0.0
  0
LINE
  8
0
  6
CONTINUOUS
 62
     1
 10
205.1
 20
222.435
 30
0.0
 11
205.35
 21
222.685
 31
0.0
  0
LINE
  8
0
  6
CONTINUOUS
 62
     1
 10
205.35
 20
222.685
 30
0.0
 11
205.35
 21
223.435
 31
0.0
  0
ARC
  8
0
  6
CONTINUOUS
 62
     1
 10
204.725
 20
222.77875
 30
0.0
 40
0.90625
 50
46.397
 51
133.603
  0
LINE
  8
0
  6
CONTINUOUS
 62
     1
 10
204.1
 20
223.435
 30
0.0
 11
204.1
 21
222.685
 31
0.0
  0
ARC
  8
0
  6
CONTINUOUS
 62
     1
 10
204.725
 20
223.34125
 30
0.0
 40
0.90625
 50
226.397
 51
313.603
  0
LINE
  8
0
  6
CONTINUOUS
 62
     1
 10
205.1
 20
222.435
 30
0.0
 11
203.1
 21
222.435
 31
0.0
  0
LINE
  8
0
  6
CONTINUOUS
 62
     1
 10
203.1
 20
222.435
 30
0.0
 11
202.85
 21
222.685
 31
0.0
  0
LINE
  8
0
  6
CONTINUOUS
 62
     1
 10
202.85
 20
222.685
 30
0.0
 11
202.85
 21
223.435
 31
0.0
  0
LINE
  8
0
  6
CONTINUOUS
 62
     1
 10
202.85
 20
223.435
 30
0.0
 11
203.385
 21
224.16325
 31
0.0
  0
ARC
  8
0
  6
CONTINUOUS
 62
     1
 10
203.20825
 20
224.34
 30
0.0
 40
0.24997925
 50
315.0
 51
32.008
  0
LINE
  8
0
  6
CONTINUOUS
 62
     1
 10
203.42025
 20
224.4725
 30
0.0
 11
203.2875
 21
224.685
 31
0.0
  0
LINE
  8
0
  6
CONTINUOUS
 62
     1
 10
203.2875
 20
224.685
 30
0.0
 11
203.475
 21
225.435
 31
0.0
  0
LINE
  8
0
  6
CONTINUOUS
 62
     1
 10
203.475
 20
225.435
 30
0.0
 11
204.725
 21
225.435
 31
0.0
  0
LINE
  8
0
  6
CONTINUOUS
 62
     1
 10
204.725
 20
225.435
 30
0.0
 11
204.9125
 21
224.685
 31
0.0
  0
LINE
  8
0
  6
CONTINUOUS
 62
     1
 10
204.9125
 20
224.685
 30
0.0
 11
204.77975
 21
224.4725
 31
0.0
  0
ARC
  8
0
  6
CONTINUOUS
 62
     1
 10
204.99175
 20
224.34
 30
0.0
 40
0.2499975
 50
147.995
 51
225.0
  0
LINE
  8
0
  6
CONTINUOUS
 62
     1
 10
204.815
 20
224.16325
 30
0.0
 11
205.35
 21
223.435
 31
0.0
  0
LINE
  8
0
  6
CONTINUOUS
 62
     1
 10
204.67425
 20
224.304
 30
0.0
 11
203.5255
 21
224.304
 31
0.0
  0
LINE
  8
0
  6
CONTINUOUS
 62
     1
 10
203.475
 20
224.685
 30
0.0
 11
204.725
 21
224.685
 31
0.0
  0
ARC
  8
0
  6
CONTINUOUS
 62
     1
 10
204.1
 20
225.26975
 30
0.0
 40
0.24999375
 50
41.408
 51
138.592
  0
ARC
  8
0
  6
CONTINUOUS
 62
     1
 10
203.475
 20
222.77875
 30
0.0
 40
0.90625
 50
46.397
 51
133.603
  0
ARC
  8
0
  6
CONTINUOUS
 62
     1
 10
203.475
 20
223.34125
 30
0.0
 40
0.90625
 50
226.397
 51
313.603
  0
LINE
  8
0
  6
CONTINUOUS
 62
     1
 10
203.1345
 20
222.435
 30
0.0
 11
203.1345
 21
222.185
 31
0.0
  0
LINE
  8
0
  6
CONTINUOUS
 62
     1
 10
203.1345
 20
222.185
 30
0.0
 11
205.06525
 21
222.185
 31
0.0
  0
LINE
  8
0
  6
LTYPE2
 62
     2
 10
204.1
 20
226.785
 30
0.0
 11
204.1
 21
220.885
 31
0.0
  0
LINE
  8
0
  6
CONTINUOUS
 62
     1
 10
246.915
 20
230.195
 30
0.0
 11
248.805
 21
226.415
 31
0.0
  0
LINE
  8
0
  6
CONTINUOUS
 62
     1
 10
248.805
 20
230.195
 30
0.0
 11
246.915
 21
226.415
 31
0.0
  0
LINE
  8
0
  6
CONTINUOUS
 62
     1
 10
244.395
 20
230.195
 30
0.0
 11
248.805
 21
230.195
 31
0.0
  0
LINE
  8
0
  6
CONTINUOUS
 62
     1
 10
243.45
 20
226.415
 30
0.0
 11
249.75
 21
226.415
 31
0.0
  0
LINE
  8
0
  6
CONTINUOUS
 62
     1
 10
244.395
 20
230.195
 30
0.0
 11
246.285
 21
226.415
 31
0.0
  0
LINE
  8
0
  6
CONTINUOUS
 62
     1
 10
246.285
 20
230.195
 30
0.0
 11
244.395
 21
226.415
 31
0.0
  0
LINE
  8
0
  6
CONTINUOUS
 62
     1
 10
246.285
 20
230.195
 30
0.0
 11
246.285
 21
226.415
 31
0.0
  0
LINE
  8
0
  6
CONTINUOUS
 62
     1
 10
246.915
 20
230.195
 30
0.0
 11
246.915
 21
226.415
 31
0.0
  0
LINE
  8
0
  6
CONTINUOUS
 62
     1
 10
244.395
 20
230.195
 30
0.0
 11
244.395
 21
226.415
 31
0.0
  0
LINE
  8
0
  6
CONTINUOUS
 62
     1
 10
243.45
 20
226.415
 30
0.0
 11
243.45
 21
225.155
 31
0.0
  0
LINE
  8
0
  6
CONTINUOUS
 62
     1
 10
248.805
 20
230.195
 30
0.0
 11
248.805
 21
226.415
 31
0.0
  0
LINE
  8
0
  6
CONTINUOUS
 62
     1
 10
249.75
 20
226.415
 30
0.0
 11
249.75
 21
225.155
 31
0.0
  0
LINE
  8
0
  6
CONTINUOUS
 62
     1
 10
243.45
 20
225.155
 30
0.0
 11
249.75
 21
225.155
 31
0.0
  0
LINE
  8
0
  6
LTYPE2
 62
     2
 10
246.6
 20
174.625
 30
0.0
 11
246.6
 21
233.255
 31
0.0
  0
LINE
  8
2
  6
CONTINUOUS
 62
     2
 10
249.75
 20
226.415
 30
0.0
 11
251.600111832
 21
228.096394126
 31
0.0
  0
LINE
  8
2
  6
CONTINUOUS
 62
     2
 10
249.75
 20
226.415
 30
0.0
 11
250.511546784
 21
228.796185943
 31
0.0
  0
LINE
  8
2
  6
CONTINUOUS
 62
     2
 10
249.75
 20
226.415
 30
0.0
 11
255.15
 21
234.815
 31
0.0
  0
LINE
  8
2
  6
CONTINUOUS
 62
     2
 10
255.15
 20
234.815
 30
0.0
 11
263.85
 21
234.815
 31
0.0
  0
TEXT
  8
2
  6
CONTINUOUS
 62
     3
 10
255.15
 20
235.815
 30
0.3
 40
3.0
  1
給脂口
 50
0.0
 41
0.9
 51
0.0
  7
KANJI30
  0
LINE
  8
0
  6
CONTINUOUS
 62
     1
 10
245.63475
 20
175.805
 30
0.0
 11
245.63475
 21
175.555
 31
0.0
  0
LINE
  8
0
  6
CONTINUOUS
 62
     1
 10
245.6
 20
175.555
 30
0.0
 11
245.35
 21
175.305
 31
0.0
  0
LINE
  8
0
  6
CONTINUOUS
 62
     1
 10
245.35
 20
175.305
 30
0.0
 11
245.35
 21
174.555
 31
0.0
  0
ARC
  8
0
  6
CONTINUOUS
 62
     1
 10
245.975
 20
175.21125
 30
0.0
 40
0.90625
 50
226.397
 51
313.603
  0
LINE
  8
0
  6
CONTINUOUS
 62
     1
 10
246.6
 20
174.555
 30
0.0
 11
246.6
 21
175.305
 31
0.0
  0
ARC
  8
0
  6
CONTINUOUS
 62
     1
 10
245.975
 20
174.64875
 30
0.0
 40
0.90625
 50
46.397
 51
133.603
  0
LINE
  8
0
  6
CONTINUOUS
 62
     1
 10
245.6
 20
175.555
 30
0.0
 11
247.6
 21
175.555
 31
0.0
  0
LINE
  8
0
  6
CONTINUOUS
 62
     1
 10
247.6
 20
175.555
 30
0.0
 11
247.85
 21
175.305
 31
0.0
  0
LINE
  8
0
  6
CONTINUOUS
 62
     1
 10
247.85
 20
175.305
 30
0.0
 11
247.85
 21
174.555
 31
0.0
  0
LINE
  8
0
  6
CONTINUOUS
 62
     1
 10
247.85
 20
174.555
 30
0.0
 11
247.315
 21
173.82675
 31
0.0
  0
ARC
  8
0
  6
CONTINUOUS
 62
     1
 10
247.49175
 20
173.65
 30
0.0
 40
0.24997925
 50
135.0
 51
212.008
  0
LINE
  8
0
  6
CONTINUOUS
 62
     1
 10
247.27975
 20
173.5175
 30
0.0
 11
247.4125
 21
173.305
 31
0.0
  0
LINE
  8
0
  6
CONTINUOUS
 62
     1
 10
247.4125
 20
173.305
 30
0.0
 11
247.225
 21
172.555
 31
0.0
  0
LINE
  8
0
  6
CONTINUOUS
 62
     1
 10
247.225
 20
172.555
 30
0.0
 11
245.975
 21
172.555
 31
0.0
  0
LINE
  8
0
  6
CONTINUOUS
 62
     1
 10
245.975
 20
172.555
 30
0.0
 11
245.7875
 21
173.305
 31
0.0
  0
LINE
  8
0
  6
CONTINUOUS
 62
     1
 10
245.7875
 20
173.305
 30
0.0
 11
245.92025
 21
173.5175
 31
0.0
  0
ARC
  8
0
  6
CONTINUOUS
 62
     1
 10
245.70825
 20
173.65
 30
0.0
 40
0.2499975
 50
327.995
 51
45.0
  0
LINE
  8
0
  6
CONTINUOUS
 62
     1
 10
245.885
 20
173.82675
 30
0.0
 11
245.35
 21
174.555
 31
0.0
  0
LINE
  8
0
  6
CONTINUOUS
 62
     1
 10
246.02575
 20
173.686
 30
0.0
 11
247.1745
 21
173.686
 31
0.0
  0
LINE
  8
0
  6
CONTINUOUS
 62
     1
 10
247.225
 20
173.305
 30
0.0
 11
245.975
 21
173.305
 31
0.0
  0
ARC
  8
0
  6
CONTINUOUS
 62
     1
 10
246.6
 20
172.72025
 30
0.0
 40
0.24999375
 50
221.408
 51
318.592
  0
ARC
  8
0
  6
CONTINUOUS
 62
     1
 10
247.225
 20
175.21125
 30
0.0
 40
0.90625
 50
226.397
 51
313.603
  0
ARC
  8
0
  6
CONTINUOUS
 62
     1
 10
247.225
 20
174.64875
 30
0.0
 40
0.90625
 50
46.397
 51
133.603
  0
LINE
  8
0
  6
CONTINUOUS
 62
     1
 10
247.5655
 20
175.555
 30
0.0
 11
247.5655
 21
175.805
 31
0.0
  0
LINE
  8
0
  6
CONTINUOUS
 62
     1
 10
247.5655
 20
175.805
 30
0.0
 11
245.63475
 21
175.805
 31
0.0
  0
LINE
  8
0
  6
LTYPE2
 62
     2
 10
246.6
 20
171.205
 30
0.0
 11
246.6
 21
177.105
 31
0.0
  0
LINE
  8
0
  6
CONTINUOUS
 62
     1
 10
97.49475
 20
176.935
 30
0.0
 11
97.49475
 21
176.685
 31
0.0
  0
LINE
  8
0
  6
CONTINUOUS
 62
     1
 10
97.46
 20
176.685
 30
0.0
 11
97.21
 21
176.435
 31
0.0
  0
LINE
  8
0
  6
CONTINUOUS
 62
     1
 10
97.21
 20
176.435
 30
0.0
 11
97.21
 21
175.685
 31
0.0
  0
ARC
  8
0
  6
CONTINUOUS
 62
     1
 10
97.835
 20
176.34125
 30
0.0
 40
0.90625
 50
226.397
 51
313.603
  0
LINE
  8
0
  6
CONTINUOUS
 62
     1
 10
98.46
 20
175.685
 30
0.0
 11
98.46
 21
176.435
 31
0.0
  0
ARC
  8
0
  6
CONTINUOUS
 62
     1
 10
97.835
 20
175.77875
 30
0.0
 40
0.90625
 50
46.397
 51
133.603
  0
LINE
  8
0
  6
CONTINUOUS
 62
     1
 10
97.46
 20
176.685
 30
0.0
 11
99.46
 21
176.685
 31
0.0
  0
LINE
  8
0
  6
CONTINUOUS
 62
     1
 10
99.46
 20
176.685
 30
0.0
 11
99.71
 21
176.435
 31
0.0
  0
LINE
  8
0
  6
CONTINUOUS
 62
     1
 10
99.71
 20
176.435
 30
0.0
 11
99.71
 21
175.685
 31
0.0
  0
LINE
  8
0
  6
CONTINUOUS
 62
     1
 10
99.71
 20
175.685
 30
0.0
 11
99.175
 21
174.95675
 31
0.0
  0
ARC
  8
0
  6
CONTINUOUS
 62
     1
 10
99.35175
 20
174.78
 30
0.0
 40
0.24997925
 50
135.0
 51
212.008
  0
LINE
  8
0
  6
CONTINUOUS
 62
     1
 10
99.13975
 20
174.6475
 30
0.0
 11
99.2725
 21
174.435
 31
0.0
  0
LINE
  8
0
  6
CONTINUOUS
 62
     1
 10
99.2725
 20
174.435
 30
0.0
 11
99.085
 21
173.685
 31
0.0
  0
LINE
  8
0
  6
CONTINUOUS
 62
     1
 10
99.085
 20
173.685
 30
0.0
 11
97.835
 21
173.685
 31
0.0
  0
LINE
  8
0
  6
CONTINUOUS
 62
     1
 10
97.835
 20
173.685
 30
0.0
 11
97.6475
 21
174.435
 31
0.0
  0
LINE
  8
0
  6
CONTINUOUS
 62
     1
 10
97.6475
 20
174.435
 30
0.0
 11
97.78025
 21
174.6475
 31
0.0
  0
ARC
  8
0
  6
CONTINUOUS
 62
     1
 10
97.56825
 20
174.78
 30
0.0
 40
0.2499975
 50
327.995
 51
45.0
  0
LINE
  8
0
  6
CONTINUOUS
 62
     1
 10
97.745
 20
174.95675
 30
0.0
 11
97.21
 21
175.685
 31
0.0
  0
LINE
  8
0
  6
CONTINUOUS
 62
     1
 10
97.88575
 20
174.816
 30
0.0
 11
99.0345
 21
174.816
 31
0.0
  0
LINE
  8
0
  6
CONTINUOUS
 62
     1
 10
99.085
 20
174.435
 30
0.0
 11
97.835
 21
174.435
 31
0.0
  0
ARC
  8
0
  6
CONTINUOUS
 62
     1
 10
98.46
 20
173.85025
 30
0.0
 40
0.24999375
 50
221.408
 51
318.592
  0
ARC
  8
0
  6
CONTINUOUS
 62
     1
 10
99.085
 20
176.34125
 30
0.0
 40
0.90625
 50
226.397
 51
313.603
  0
ARC
  8
0
  6
CONTINUOUS
 62
     1
 10
99.085
 20
175.77875
 30
0.0
 40
0.90625
 50
46.397
 51
133.603
  0
LINE
  8
0
  6
CONTINUOUS
 62
     1
 10
99.4255
 20
176.685
 30
0.0
 11
99.4255
 21
176.935
 31
0.0
  0
LINE
  8
0
  6
CONTINUOUS
 62
     1
 10
99.4255
 20
176.935
 30
0.0
 11
97.49475
 21
176.935
 31
0.0
  0
LINE
  8
0
  6
LTYPE2
 62
     2
 10
98.46
 20
172.335
 30
0.0
 11
98.46
 21
226.935
 31
0.0
  0
LINE
  8
0
  6
CONTINUOUS
 62
     1
 10
98.7725
 20
229.969920604
 30
0.0
 11
100.6625
 21
226.189920604
 31
0.0
  0
LINE
  8
0
  6
CONTINUOUS
 62
     1
 10
100.6625
 20
229.969920604
 30
0.0
 11
98.7725
 21
226.189920604
 31
0.0
  0
LINE
  8
0
  6
CONTINUOUS
 62
     1
 10
96.2525
 20
229.969920604
 30
0.0
 11
100.6625
 21
229.969920604
 31
0.0
  0
LINE
  8
0
  6
CONTINUOUS
 62
     1
 10
95.3075
 20
226.189920604
 30
0.0
 11
101.6075
 21
226.189920604
 31
0.0
  0
LINE
  8
0
  6
CONTINUOUS
 62
     1
 10
96.2525
 20
229.969920604
 30
0.0
 11
98.1425
 21
226.189920604
 31
0.0
  0
LINE
  8
0
  6
CONTINUOUS
 62
     1
 10
98.1425
 20
229.969920604
 30
0.0
 11
96.2525
 21
226.189920604
 31
0.0
  0
LINE
  8
0
  6
CONTINUOUS
 62
     1
 10
98.1425
 20
229.969920604
 30
0.0
 11
98.1425
 21
226.189920604
 31
0.0
  0
LINE
  8
0
  6
CONTINUOUS
 62
     1
 10
98.7725
 20
229.969920604
 30
0.0
 11
98.7725
 21
226.189920604
 31
0.0
  0
LINE
  8
0
  6
CONTINUOUS
 62
     1
 10
96.2525
 20
229.969920604
 30
0.0
 11
96.2525
 21
226.189920604
 31
0.0
  0
LINE
  8
0
  6
CONTINUOUS
 62
     1
 10
95.3075
 20
226.189920604
 30
0.0
 11
95.3075
 21
224.929920604
 31
0.0
  0
LINE
  8
0
  6
CONTINUOUS
 62
     1
 10
100.6625
 20
229.969920604
 30
0.0
 11
100.6625
 21
226.189920604
 31
0.0
  0
LINE
  8
0
  6
CONTINUOUS
 62
     1
 10
101.6075
 20
226.189920604
 30
0.0
 11
101.6075
 21
224.929920604
 31
0.0
  0
LINE
  8
0
  6
CONTINUOUS
 62
     1
 10
95.3075
 20
224.929920604
 30
0.0
 11
101.6075
 21
224.929920604
 31
0.0
  0
LINE
  8
2
  6
CONTINUOUS
 62
     2
 10
203.5575
 20
225.429920604
 30
0.0
 11
202.90203303
 21
227.842463464
 31
0.0
  0
LINE
  8
2
  6
CONTINUOUS
 62
     2
 10
203.5575
 20
225.429920604
 30
0.0
 11
201.783577522
 21
227.191510524
 31
0.0
  0
LINE
  8
2
  6
CONTINUOUS
 62
     2
 10
203.5575
 20
225.429920604
 30
0.0
 11
192.5575
 21
244.329920604
 31
0.0
  0
TEXT
  8
2
  6
CONTINUOUS
 62
     3
 10
149.4075
 20
245.329920604
 30
0.3
 40
3.0
  1
２－グリスニップル　ＰＴ１／８
 50
0.0
 41
0.9
 51
0.0
  7
KANJI30
  0
LINE
  8
2
  6
CONTINUOUS
 62
     2
 10
192.5575
 20
244.329920604
 30
0.0
 11
149.2575
 21
244.329920604
 31
0.0
  0
TEXT
  8
0
  6
CONTINUOUS
 62
     3
 10
389.65133389
 20
192.9229999
 30
0.0
 40
2.7
  1
（２．２５Ｎ・ｍ）
 50
0.0
 41
0.9
 51
0.0
  7
KANJI32
  0
TEXT
  8
2
  6
CONTINUOUS
 62
     3
 10
375.737
 20
192.689
 30
0.0
 40
2.88
  1
０．２３ｋｇーｍ
 50
0.0
 41
0.625
 51
0.0
  7
KANJI33
  0
TEXT
  8
2
  6
CONTINUOUS
 62
     3
 10
389.42
 20
200.1
 30
0.0
 40
3.2
  1
５
 50
0.0
 41
0.71875
 51
0.0
  7
KANJI17
  0
TEXT
  8
0
  6
CONTINUOUS
 62
     3
 10
314.2333389
 20
41.799999
 30
0.3
 40
3.5
  1
ＢＪ１ＨＵＮ
 50
0.0
 41
0.857142857
 51
0.0
  7
KANJI34
  0
LINE
  8
0
  6
CONTINUOUS
 62
     6
 10
339.720670742
 20
17.467999664
 30
0.0
 11
337.432670918
 21
17.467999664
 31
0.0
  0
LINE
  8
0
  6
CONTINUOUS
 62
     6
 10
339.720670742
 20
17.883999632
 30
0.0
 11
337.432670918
 21
17.883999632
 31
0.0
  0
LINE
  8
0
  6
CONTINUOUS
 62
     6
 10
339.720670742
 20
17.467999664
 30
0.0
 11
342.008670566
 21
17.467999664
 31
0.0
  0
LINE
  8
0
  6
CONTINUOUS
 62
     6
 10
339.720670742
 20
17.883999632
 30
0.0
 11
342.008670566
 21
17.883999632
 31
0.0
  0
LINE
  8
0
  6
CONTINUOUS
 62
     6
 10
342.008670566
 20
17.883999632
 30
0.0
 11
342.008670566
 21
17.467999664
 31
0.0
  0
ARC
  8
0
  6
CONTINUOUS
 62
     6
 10
342.528670526
 20
17.675999648
 30
0.0
 40
2.07999984
 50
185.739170477
 51
90.0
  0
ARC
  8
0
  6
CONTINUOUS
 62
     6
 10
342.528670526
 20
17.675999648
 30
0.0
 40
2.495999808
 50
184.780191847
 51
90.0
  0
LINE
  8
0
  6
CONTINUOUS
 62
     6
 10
337.432670918
 20
17.467999664
 30
0.0
 11
337.432670918
 21
17.883999632
 31
0.0
  0
LINE
  8
0
  6
CONTINUOUS
 62
     6
 10
339.408670766
 20
20.171999456
 30
0.0
 11
336.912670958
 21
20.171999456
 31
0.0
  0
LINE
  8
0
  6
CONTINUOUS
 62
     6
 10
340.032670718
 20
20.171999456
 30
0.0
 11
342.528670526
 21
20.171999456
 31
0.0
  0
ARC
  8
0
  6
CONTINUOUS
 62
     6
 10
336.912670958
 20
17.675999648
 30
0.0
 40
2.07999984
 50
90.0
 51
354.260829523
  0
ARC
  8
0
  6
CONTINUOUS
 62
     6
 10
336.912670958
 20
17.675999648
 30
0.0
 40
2.495999808
 50
90.0
 51
355.219808153
  0
LINE
  8
0
  6
CONTINUOUS
 62
     6
 10
339.408670766
 20
20.171999456
 30
0.0
 11
339.408670766
 21
19.755999488
 31
0.0
  0
LINE
  8
0
  6
CONTINUOUS
 62
     6
 10
336.912670958
 20
19.755999488
 30
0.0
 11
339.408670766
 21
19.755999488
 31
0.0
  0
LINE
  8
0
  6
CONTINUOUS
 62
     6
 10
340.032670718
 20
20.171999456
 30
0.0
 11
340.032670718
 21
19.755999488
 31
0.0
  0
LINE
  8
0
  6
CONTINUOUS
 62
     6
 10
342.528670526
 20
19.755999488
 30
0.0
 11
340.032670718
 21
19.755999488
 31
0.0
  0
LINE
  8
0
  6
CONTINUOUS
 62
     4
 10
6.8666666
 20
12.8666666
 30
0.0
 11
17.2666658
 21
12.8666666
 31
0.0
  0
LINE
  8
0
  6
CONTINUOUS
 62
     4
 10
6.8666666
 20
18.0666662
 30
0.0
 11
17.2666658
 21
18.0666662
 31
0.0
  0
LINE
  8
0
  6
CONTINUOUS
 62
     4
 10
6.8666666
 20
23.2666658
 30
0.0
 11
17.2666658
 21
23.2666658
 31
0.0
  0
LINE
  8
0
  6
CONTINUOUS
 62
     4
 10
6.8666666
 20
28.4666654
 30
0.0
 11
17.2666658
 21
28.4666654
 31
0.0
  0
LINE
  8
0
  6
CONTINUOUS
 62
     4
 10
6.8666666
 20
33.666665
 30
0.0
 11
17.2666658
 21
33.666665
 31
0.0
  0
LINE
  8
0
  6
CONTINUOUS
 62
     4
 10
6.8666666
 20
38.8666646
 30
0.0
 11
17.2666658
 21
38.8666646
 31
0.0
  0
LINE
  8
0
  6
CONTINUOUS
 62
     4
 10
6.8666666
 20
44.0666642
 30
0.0
 11
17.2666658
 21
44.0666642
 31
0.0
  0
LINE
  8
0
  6
CONTINUOUS
 62
     4
 10
6.8666666
 20
49.2666638
 30
0.0
 11
17.2666658
 21
49.2666638
 31
0.0
  0
LINE
  8
0
  6
CONTINUOUS
 62
     4
 10
6.8666666
 20
54.4666634
 30
0.0
 11
17.2666658
 21
54.4666634
 31
0.0
  0
LINE
  8
0
  6
CONTINUOUS
 62
     4
 10
6.8666666
 20
59.666663
 30
0.0
 11
17.2666658
 21
59.666663
 31
0.0
  0
LINE
  8
0
  6
CONTINUOUS
 62
     4
 10
17.2666658
 20
12.8666666
 30
0.0
 11
17.2666658
 21
59.666663
 31
0.0
  0
LINE
  8
0
  6
CONTINUOUS
 62
     4
 10
12.0666662
 20
12.8666666
 30
0.0
 11
12.0666662
 21
54.4666634
 31
0.0
  0
TEXT
  8
0
  6
CONTINUOUS
 62
     4
 10
8.64333313
 20
14.38333315
 30
0.25999998
 40
2.5999998
  1
計
 50
0.0
 41
0.75
 51
0.0
  7
KANJI35
  0
TEXT
  8
0
  6
CONTINUOUS
 62
     4
 10
8.64333313
 20
24.86999901
 30
0.25999998
 40
2.5999998
  1
設
 50
0.0
 41
0.75
 51
0.0
  7
KANJI35
  0
TEXT
  8
0
  6
CONTINUOUS
 62
     4
 10
8.64333313
 20
29.98333195
 30
0.25999998
 40
2.5999998
  1
管
 50
0.0
 41
0.75
 51
0.0
  7
KANJI35
  0
TEXT
  8
0
  6
CONTINUOUS
 62
     4
 10
8.64333313
 20
35.18333155
 30
0.25999998
 40
2.5999998
  1
製
 50
0.0
 41
0.75
 51
0.0
  7
KANJI35
  0
TEXT
  8
0
  6
CONTINUOUS
 62
     4
 10
8.64333313
 20
40.38333115
 30
0.25999998
 40
2.5999998
  1
資
 50
0.0
 41
0.75
 51
0.0
  7
KANJI35
  0
TEXT
  8
0
  6
CONTINUOUS
 62
     4
 10
8.64333313
 20
45.58333075
 30
0.25999998
 40
2.5999998
  1
営
 50
0.0
 41
0.75
 51
0.0
  7
KANJI35
  0
TEXT
  8
0
  6
CONTINUOUS
 62
     4
 10
8.64333313
 20
50.78333035
 30
0.25999998
 40
2.5999998
  1
客
 50
0.0
 41
0.75
 51
0.0
  7
KANJI35
  0
TEXT
  8
0
  6
CONTINUOUS
 62
     4
 10
8.5999998
 20
56.1999966
 30
0.25999998
 40
2.5999998
  1
出　図
 50
0.0
 41
0.75
 51
0.0
  7
KANJI35
  0
LINE
  8
0
  6
CONTINUOUS
 62
     4
 10
6.8666666
 20
12.8666666
 30
0.0
 11
6.8666666
 21
59.666663
 31
0.0
  0
LINE
  8
0
  6
CONTINUOUS
 62
     6
 10
271.791677
 20
61.3999962
 30
0.0
 11
405.2583334
 21
61.3999962
 31
0.0
  0
LINE
  8
0
  6
CONTINUOUS
 62
     6
 10
271.666677
 20
68.333329
 30
0.0
 11
405.1333334
 21
68.333329
 31
0.0
  0
LINE
  8
0
  6
CONTINUOUS
 62
     6
 10
303.3000079
 20
54.4666634
 30
0.0
 11
303.3000079
 21
68.333329
 31
0.0
  0
TEXT
  8
0
  6
CONTINUOUS
 62
     4
 10
274.75
 20
55.5
 30
1.0
 40
3.6
  1
ご注文主
 50
0.0
 41
1.111111111
 51
0.0
  7
KANJI36
  0
TEXT
  8
0
  6
CONTINUOUS
 62
     4
 10
274.75
 20
62.4333328
 30
1.0
 40
3.6
  1
ご用途
 50
0.0
 41
1.111111111
 51
0.0
  7
KANJI36
  0
TEXT
  8
0
  6
CONTINUOUS
 62
     2
 10
334.17
 20
55.415
 30
1.0
 40
4.0
  1
　　　　　　　　　　殿
 50
0.0
 41
1.25
 51
0.0
  7
KANJI37
  0
LINE
  8
0
  6
CONTINUOUS
 62
     6
 10
271.666677
 20
12.8666666
 30
0.0
 11
271.666677
 21
68.333329
 31
0.0
  0
LINE
  8
0
  6
CONTINUOUS
 62
     6
 10
405.1333334
 20
12.8666666
 30
0.0
 11
405.1333334
 21
68.333329
 31
0.0
  0
TEXT
  8
0
  6
CONTINUOUS
 62
     3
 10
328.5666727
 20
25.999999
 30
2.166666667
 40
5.0
  1
Ａ３００２３３４
 50
0.0
 41
0.8
 51
0.0
  7
KANJI38
  0
TEXT
  8
0
  6
CONTINUOUS
 62
     3
 10
282.8333389
 20
28.499999
 30
0.3
 40
3.5
  1
岡田
 50
0.0
 41
0.857142857
 51
0.0
  7
KANJI34
  0
TEXT
  8
0
  6
CONTINUOUS
 62
     3
 10
279.9333389
 20
21.199999
 30
0.3
 40
3.5
  1
０６．０９．１４
 50
0.0
 41
0.571428571
 51
0.0
  7
KANJI39
  0
TEXT
  8
0
  6
CONTINUOUS
 62
     3
 10
51.2666658
 20
5.8666666
 30
0.0
 40
3.0
  1
ＦＤ　Ｎｏ．ＡＪ１６
 50
0.0
 41
0.9
 51
0.0
  7
KANJI40
  0
ENDSEC
  0
EOF
