  0
SECTION
  2
HEADER
  9
$EXTMIN
 10
0.0
 20
0.0
  9
$EXTMAX
 10
420.0
 20
297.0
  9
$LTSCALE
 40
1.0
  9
$PDMODE
 70
     0
  0
ENDSEC
  0
SECTION
  2
TABLES
  0
TABLE
  2
LTYPE
 70
     3
  0
LTYPE
  2
CONTINUOUS
 70
    64
  3
Solid line
 72
    65
 73
     0
 40
0.0
  0
LTYPE
  2
LTYPE1
 70
    64
  3
CENTER
 72
    65
 73
     4
 40
2.0
 49
1.4
 49
-0.2
 49
0.2
 49
-0.2
  0
LTYPE
  2
LTYPE2
 70
    64
  3
HIDDEN
 72
    65
 73
     2
 40
0.375
 49
0.225
 49
-0.15
  0
ENDTAB
  0
TABLE
  2
LAYER
 70
   128
  0
LAYER
  2
0
 70
     0
 62
     7
  6
CONTINUOUS
  0
LAYER
  2
1
 70
     0
 62
     7
  6
CONTINUOUS
  0
LAYER
  2
2
 70
     0
 62
     7
  6
CONTINUOUS
  0
LAYER
  2
3
 70
     0
 62
     7
  6
CONTINUOUS
  0
LAYER
  2
4
 70
     0
 62
     7
  6
CONTINUOUS
  0
LAYER
  2
5
 70
     0
 62
     7
  6
CONTINUOUS
  0
LAYER
  2
6
 70
     0
 62
     7
  6
CONTINUOUS
  0
LAYER
  2
7
 70
     0
 62
     7
  6
CONTINUOUS
  0
LAYER
  2
8
 70
     0
 62
     7
  6
CONTINUOUS
  0
LAYER
  2
9
 70
     0
 62
     7
  6
CONTINUOUS
  0
LAYER
  2
10
 70
     0
 62
     7
  6
CONTINUOUS
  0
LAYER
  2
11
 70
     0
 62
     7
  6
CONTINUOUS
  0
LAYER
  2
12
 70
     0
 62
     7
  6
CONTINUOUS
  0
LAYER
  2
13
 70
     0
 62
     7
  6
CONTINUOUS
  0
LAYER
  2
14
 70
     0
 62
     7
  6
CONTINUOUS
  0
LAYER
  2
15
 70
     0
 62
     7
  6
CONTINUOUS
  0
LAYER
  2
16
 70
     0
 62
     7
  6
CONTINUOUS
  0
LAYER
  2
17
 70
     0
 62
     7
  6
CONTINUOUS
  0
LAYER
  2
18
 70
     0
 62
     7
  6
CONTINUOUS
  0
LAYER
  2
19
 70
     0
 62
     7
  6
CONTINUOUS
  0
LAYER
  2
20
 70
     0
 62
     7
  6
CONTINUOUS
  0
LAYER
  2
21
 70
     0
 62
     7
  6
CONTINUOUS
  0
LAYER
  2
22
 70
     0
 62
     7
  6
CONTINUOUS
  0
LAYER
  2
23
 70
     0
 62
     7
  6
CONTINUOUS
  0
LAYER
  2
24
 70
     0
 62
     7
  6
CONTINUOUS
  0
LAYER
  2
25
 70
     0
 62
     7
  6
CONTINUOUS
  0
LAYER
  2
26
 70
     0
 62
     7
  6
CONTINUOUS
  0
LAYER
  2
27
 70
     0
 62
     7
  6
CONTINUOUS
  0
LAYER
  2
28
 70
     0
 62
     7
  6
CONTINUOUS
  0
LAYER
  2
29
 70
     0
 62
     7
  6
CONTINUOUS
  0
LAYER
  2
30
 70
     0
 62
     7
  6
CONTINUOUS
  0
LAYER
  2
31
 70
     0
 62
     7
  6
CONTINUOUS
  0
LAYER
  2
32
 70
     0
 62
     7
  6
CONTINUOUS
  0
LAYER
  2
33
 70
     0
 62
     7
  6
CONTINUOUS
  0
LAYER
  2
34
 70
     0
 62
     7
  6
CONTINUOUS
  0
LAYER
  2
35
 70
     0
 62
     7
  6
CONTINUOUS
  0
LAYER
  2
36
 70
     0
 62
     7
  6
CONTINUOUS
  0
LAYER
  2
37
 70
     0
 62
     7
  6
CONTINUOUS
  0
LAYER
  2
38
 70
     0
 62
     7
  6
CONTINUOUS
  0
LAYER
  2
39
 70
     0
 62
     7
  6
CONTINUOUS
  0
LAYER
  2
40
 70
     0
 62
     7
  6
CONTINUOUS
  0
LAYER
  2
41
 70
     0
 62
     7
  6
CONTINUOUS
  0
LAYER
  2
42
 70
     0
 62
     7
  6
CONTINUOUS
  0
LAYER
  2
43
 70
     0
 62
     7
  6
CONTINUOUS
  0
LAYER
  2
44
 70
     0
 62
     7
  6
CONTINUOUS
  0
LAYER
  2
45
 70
     0
 62
     7
  6
CONTINUOUS
  0
LAYER
  2
46
 70
     0
 62
     7
  6
CONTINUOUS
  0
LAYER
  2
47
 70
     0
 62
     7
  6
CONTINUOUS
  0
LAYER
  2
48
 70
     0
 62
     7
  6
CONTINUOUS
  0
LAYER
  2
49
 70
     0
 62
     7
  6
CONTINUOUS
  0
LAYER
  2
50
 70
     0
 62
     7
  6
CONTINUOUS
  0
LAYER
  2
51
 70
     0
 62
     7
  6
CONTINUOUS
  0
LAYER
  2
52
 70
     0
 62
     7
  6
CONTINUOUS
  0
LAYER
  2
53
 70
     0
 62
     7
  6
CONTINUOUS
  0
LAYER
  2
54
 70
     0
 62
     7
  6
CONTINUOUS
  0
LAYER
  2
55
 70
     0
 62
     7
  6
CONTINUOUS
  0
LAYER
  2
56
 70
     0
 62
     7
  6
CONTINUOUS
  0
LAYER
  2
57
 70
     0
 62
     7
  6
CONTINUOUS
  0
LAYER
  2
58
 70
     0
 62
     7
  6
CONTINUOUS
  0
LAYER
  2
59
 70
     0
 62
     7
  6
CONTINUOUS
  0
LAYER
  2
60
 70
     0
 62
     7
  6
CONTINUOUS
  0
LAYER
  2
61
 70
     0
 62
     7
  6
CONTINUOUS
  0
LAYER
  2
62
 70
     0
 62
     7
  6
CONTINUOUS
  0
LAYER
  2
63
 70
     0
 62
     7
  6
CONTINUOUS
  0
LAYER
  2
64
 70
     0
 62
     7
  6
CONTINUOUS
  0
LAYER
  2
65
 70
     0
 62
     7
  6
CONTINUOUS
  0
LAYER
  2
66
 70
     0
 62
     7
  6
CONTINUOUS
  0
LAYER
  2
67
 70
     0
 62
     7
  6
CONTINUOUS
  0
LAYER
  2
68
 70
     0
 62
     7
  6
CONTINUOUS
  0
LAYER
  2
69
 70
     0
 62
     7
  6
CONTINUOUS
  0
LAYER
  2
70
 70
     0
 62
     7
  6
CONTINUOUS
  0
LAYER
  2
71
 70
     0
 62
     7
  6
CONTINUOUS
  0
LAYER
  2
72
 70
     0
 62
     7
  6
CONTINUOUS
  0
LAYER
  2
73
 70
     0
 62
     7
  6
CONTINUOUS
  0
LAYER
  2
74
 70
     0
 62
     7
  6
CONTINUOUS
  0
LAYER
  2
75
 70
     0
 62
     7
  6
CONTINUOUS
  0
LAYER
  2
76
 70
     0
 62
     7
  6
CONTINUOUS
  0
LAYER
  2
77
 70
     0
 62
     7
  6
CONTINUOUS
  0
LAYER
  2
78
 70
     0
 62
     7
  6
CONTINUOUS
  0
LAYER
  2
79
 70
     0
 62
     7
  6
CONTINUOUS
  0
LAYER
  2
80
 70
     0
 62
     7
  6
CONTINUOUS
  0
LAYER
  2
81
 70
     0
 62
     7
  6
CONTINUOUS
  0
LAYER
  2
82
 70
     0
 62
     7
  6
CONTINUOUS
  0
LAYER
  2
83
 70
     0
 62
     7
  6
CONTINUOUS
  0
LAYER
  2
84
 70
     0
 62
     7
  6
CONTINUOUS
  0
LAYER
  2
85
 70
     0
 62
     7
  6
CONTINUOUS
  0
LAYER
  2
86
 70
     0
 62
     7
  6
CONTINUOUS
  0
LAYER
  2
87
 70
     0
 62
     7
  6
CONTINUOUS
  0
LAYER
  2
88
 70
     0
 62
     7
  6
CONTINUOUS
  0
LAYER
  2
89
 70
     0
 62
     7
  6
CONTINUOUS
  0
LAYER
  2
90
 70
     0
 62
     7
  6
CONTINUOUS
  0
LAYER
  2
91
 70
     0
 62
     7
  6
CONTINUOUS
  0
LAYER
  2
92
 70
     0
 62
     7
  6
CONTINUOUS
  0
LAYER
  2
93
 70
     0
 62
     7
  6
CONTINUOUS
  0
LAYER
  2
94
 70
     0
 62
     7
  6
CONTINUOUS
  0
LAYER
  2
95
 70
     0
 62
     7
  6
CONTINUOUS
  0
LAYER
  2
96
 70
     0
 62
     7
  6
CONTINUOUS
  0
LAYER
  2
97
 70
     0
 62
     7
  6
CONTINUOUS
  0
LAYER
  2
98
 70
     0
 62
     7
  6
CONTINUOUS
  0
LAYER
  2
99
 70
     0
 62
     7
  6
CONTINUOUS
  0
LAYER
  2
100
 70
     0
 62
     7
  6
CONTINUOUS
  0
LAYER
  2
101
 70
     0
 62
     7
  6
CONTINUOUS
  0
LAYER
  2
102
 70
     0
 62
     7
  6
CONTINUOUS
  0
LAYER
  2
103
 70
     0
 62
     7
  6
CONTINUOUS
  0
LAYER
  2
104
 70
     0
 62
     7
  6
CONTINUOUS
  0
LAYER
  2
105
 70
     0
 62
     7
  6
CONTINUOUS
  0
LAYER
  2
106
 70
     0
 62
     7
  6
CONTINUOUS
  0
LAYER
  2
107
 70
     0
 62
     7
  6
CONTINUOUS
  0
LAYER
  2
108
 70
     0
 62
     7
  6
CONTINUOUS
  0
LAYER
  2
109
 70
     0
 62
     7
  6
CONTINUOUS
  0
LAYER
  2
110
 70
     0
 62
     7
  6
CONTINUOUS
  0
LAYER
  2
111
 70
     0
 62
     7
  6
CONTINUOUS
  0
LAYER
  2
112
 70
     0
 62
     7
  6
CONTINUOUS
  0
LAYER
  2
113
 70
     0
 62
     7
  6
CONTINUOUS
  0
LAYER
  2
114
 70
     0
 62
     7
  6
CONTINUOUS
  0
LAYER
  2
115
 70
     0
 62
     7
  6
CONTINUOUS
  0
LAYER
  2
116
 70
     0
 62
     7
  6
CONTINUOUS
  0
LAYER
  2
117
 70
     0
 62
     7
  6
CONTINUOUS
  0
LAYER
  2
118
 70
     0
 62
     7
  6
CONTINUOUS
  0
LAYER
  2
119
 70
     0
 62
     7
  6
CONTINUOUS
  0
LAYER
  2
120
 70
     0
 62
     7
  6
CONTINUOUS
  0
LAYER
  2
121
 70
     0
 62
     7
  6
CONTINUOUS
  0
LAYER
  2
122
 70
     0
 62
     7
  6
CONTINUOUS
  0
LAYER
  2
123
 70
     0
 62
     7
  6
CONTINUOUS
  0
LAYER
  2
124
 70
     0
 62
     7
  6
CONTINUOUS
  0
LAYER
  2
125
 70
     0
 62
     7
  6
CONTINUOUS
  0
LAYER
  2
126
 70
     0
 62
     7
  6
CONTINUOUS
  0
LAYER
  2
127
 70
     0
 62
     7
  6
CONTINUOUS
  0
ENDTAB
  0
TABLE
  2
STYLE
 70
    22
  0
STYLE
  2
STANDARD
 70
     0
 40
0.0
 41
1.0
 50
0.0
 71
     0
 42
0.2
  3
txt
  4

  0
STYLE
  2
KANJI0
 70
     0
 40
3.5
 41
0.8285714
 50
0.0
 71
     0
 42
3.5
  3

  4
bigfont
  0
STYLE
  2
KANJI1
 70
     0
 40
3.2
 41
1.0
 50
0.0
 71
     0
 42
3.2
  3

  4
bigfont
  0
STYLE
  2
KANJI2
 70
     0
 40
1.8
 41
0.9444444
 50
0.0
 71
     0
 42
1.8
  3

  4
bigfont
  0
STYLE
  2
KANJI3
 70
     0
 40
5.0
 41
1.0
 50
0.0
 71
     0
 42
5.0
  3

  4
bigfont
  0
STYLE
  2
KANJI4
 70
     0
 40
5.5
 41
0.8181818
 50
0.0
 71
     0
 42
5.5
  3

  4
bigfont
  0
STYLE
  2
KANJI5
 70
     0
 40
3.0
 41
0.6
 50
0.0
 71
     0
 42
3.0
  3

  4
bigfont
  0
STYLE
  2
KANJI6
 70
     0
 40
3.2
 41
0.78125
 50
0.0
 71
     0
 42
3.2
  3

  4
bigfont
  0
STYLE
  2
KANJI7
 70
     0
 40
7.0
 41
1.0
 50
0.0
 71
     0
 42
7.0
  3

  4
bigfont
  0
STYLE
  2
KANJI8
 70
     0
 40
3.0
 41
1.0
 50
0.0
 71
     0
 42
3.0
  3

  4
bigfont
  0
STYLE
  2
KANJI9
 70
     0
 40
2.2
 41
1.0
 50
0.0
 71
     0
 42
2.2
  3

  4
bigfont
  0
STYLE
  2
KANJI10
 70
     0
 40
1.8
 41
1.0
 50
0.0
 71
     0
 42
1.8
  3

  4
bigfont
  0
STYLE
  2
KANJI11
 70
     0
 40
4.5
 41
0.8888888
 50
0.0
 71
     0
 42
4.5
  3

  4
bigfont
  0
STYLE
  2
KANJI12
 70
     0
 40
3.2
 41
0.65625
 50
0.0
 71
     0
 42
3.2
  3

  4
bigfont
  0
STYLE
  2
KANJI13
 70
     0
 40
3.2
 41
0.71875
 50
0.0
 71
     0
 42
3.2
  3

  4
bigfont
  0
STYLE
  2
KANJI14
 70
     0
 40
3.2
 41
0.6875
 50
0.0
 71
     0
 42
3.2
  3

  4
bigfont
  0
STYLE
  2
KANJI15
 70
     0
 40
3.2
 41
0.5625
 50
0.0
 71
     0
 42
3.2
  3

  4
bigfont
  0
STYLE
  2
KANJI16
 70
     0
 40
4.5
 41
1.0
 50
0.0
 71
     0
 42
4.5
  3

  4
bigfont
  0
STYLE
  2
KANJI17
 70
     0
 40
6.0
 41
1.0
 50
0.0
 71
     0
 42
6.0
  3

  4
bigfont
  0
STYLE
  2
KANJI18
 70
     0
 40
2.5
 41
1.0
 50
0.0
 71
     0
 42
2.5
  3

  4
bigfont
  0
STYLE
  2
KANJI19
 70
     0
 40
3.0
 41
0.8333333
 50
0.0
 71
     0
 42
3.0
  3

  4
bigfont
  0
STYLE
  2
KANJI20
 70
     0
 40
2.5
 41
0.6
 50
0.0
 71
     0
 42
2.5
  3

  4
bigfont
  0
ENDTAB
  0
TABLE
  2
VIEW
 70
     0
  0
ENDTAB
  0
ENDSEC
  0
SECTION
  2
BLOCKS
  0
ENDSEC
  0
SECTION
  2
ENTITIES
  0
LINE
  8
0
  6
CONTINUOUS
 62
     3
 10
238.6566
 20
181.4583
 11
238.6566
 21
234.7916
  0
LINE
  8
0
  6
LTYPE1
 62
     2
 10
166.1717
 20
208.125
 11
327.7233
 21
208.125
  0
LINE
  8
0
  6
CONTINUOUS
 62
     3
 10
236.16
 20
234.7916
 11
247.1383
 21
234.7916
  0
LINE
  8
0
  6
CONTINUOUS
 62
     3
 10
236.16
 20
181.4583
 11
241.85
 21
181.4583
  0
LINE
  8
0
  6
CONTINUOUS
 62
     3
 10
278.6566
 20
187.4583
 11
278.6566
 21
231.9616
  0
ARC
  8
0
  6
CONTINUOUS
 62
     3
 10
258.6566
 20
190.6283
 40
18.3333
 50
281.34466
 51
346.01933
  0
CIRCLE
  8
0
  6
CONTINUOUS
 62
     3
 10
258.6566
 20
185.6283
 40
13.3333
  0
LINE
  8
0
  6
CONTINUOUS
 62
     3
 10
274.99
 20
187.4583
 11
278.6566
 21
187.4583
  0
LINE
  8
0
  6
CONTINUOUS
 62
     3
 10
251.3533
 20
231.9616
 11
253.16
 21
231.9616
  0
LINE
  8
0
  6
CONTINUOUS
 62
     3
 10
248.3166
 20
234.3033
 11
250.1683
 21
232.4516
  0
ARC
  8
0
  6
CONTINUOUS
 62
     3
 10
241.85
 20
179.7916
 40
1.6666
 50
32.831648
 51
90.0
  0
ARC
  8
0
  6
CONTINUOUS
 62
     3
 10
278.0633
 20
185.7916
 40
1.6666
 50
90.0
 51
165.85239
  0
ARC
  8
0
  6
CONTINUOUS
 62
     3
 10
251.3533
 20
233.6283
 40
1.6666
 50
224.79782
 51
270.0
  0
ARC
  8
0
  6
CONTINUOUS
 62
     3
 10
247.1383
 20
233.125
 40
1.6666
 50
45.0
 51
90.0
  0
LINE
  8
0
  6
CONTINUOUS
 62
     3
 10
247.8266
 20
211.0433
 11
247.8266
 21
234.1316
  0
LINE
  8
0
  6
CONTINUOUS
 62
     3
 10
273.3233
 20
208.125
 11
273.3233
 21
227.125
  0
ARC
  8
0
  6
CONTINUOUS
 62
     3
 10
274.99
 20
189.125
 40
1.6666
 50
180.0
 51
270.0
  0
LINE
  8
0
  6
CONTINUOUS
 62
     3
 10
274.99
 20
228.7916
 11
278.6566
 21
228.7916
  0
ARC
  8
0
  6
CONTINUOUS
 62
     3
 10
274.99
 20
227.125
 40
1.6666
 50
90.0
 51
180.0
  0
LINE
  8
0
  6
CONTINUOUS
 62
     3
 10
247.8266
 20
194.755
 11
247.8266
 21
205.2066
  0
LINE
  8
0
  6
CONTINUOUS
 62
     3
 10
249.4933
 20
206.8733
 11
271.6566
 21
206.8733
  0
LINE
  8
0
  6
CONTINUOUS
 62
     3
 10
249.4933
 20
209.3766
 11
271.6566
 21
209.3766
  0
LINE
  8
0
  6
CONTINUOUS
 62
     3
 10
273.3233
 20
189.125
 11
273.3233
 21
208.125
  0
ARC
  8
0
  6
CONTINUOUS
 62
     3
 10
249.4933
 20
205.2066
 40
1.6666
 50
90.0
 51
180.0
  0
ARC
  8
0
  6
CONTINUOUS
 62
     3
 10
249.4933
 20
211.0433
 40
1.6666
 50
180.0
 51
270.0
  0
ARC
  8
0
  6
CONTINUOUS
 62
     3
 10
271.6566
 20
205.2066
 40
1.6666
 50
0.0
 51
90.0
  0
ARC
  8
0
  6
CONTINUOUS
 62
     3
 10
271.6566
 20
211.0433
 40
1.6666
 50
270.0
 51
0.0
  0
LINE
  8
0
  6
LTYPE1
 62
     2
 10
242.0783
 20
185.6283
 11
275.2266
 21
185.6283
  0
LINE
  8
0
  6
LTYPE1
 62
     2
 10
270.7383
 20
220.7916
 11
279.5833
 21
220.7916
  0
LINE
  8
0
  6
LTYPE1
 62
     2
 10
270.9533
 20
195.4583
 11
279.93
 21
195.4583
  0
LINE
  8
0
  6
LTYPE1
 62
     2
 10
258.6566
 20
166.0883
 11
258.6566
 21
234.6516
  0
LINE
  8
0
  6
CONTINUOUS
 62
     3
 10
255.6566
 20
171.9616
 11
261.6566
 21
171.9616
  0
ARC
  8
0
  6
CONTINUOUS
 62
     3
 10
261.6566
 20
172.295
 40
0.3333
 50
270.0
 51
0.0
  0
ARC
  8
0
  6
CONTINUOUS
 62
     3
 10
255.6566
 20
172.295
 40
0.3333
 50
180.0
 51
270.0
  0
ARC
  8
0
  6
CONTINUOUS
 62
     3
 10
258.6566
 20
190.6283
 40
18.3333
 50
212.81159
 51
258.67576
  0
ARC
  8
0
  6
CONTINUOUS
 62
     3
 10
262.3233
 20
172.325
 40
0.3333
 50
100.40771
 51
180.0
  0
ARC
  8
0
  6
CONTINUOUS
 62
     3
 10
254.99
 20
172.325
 40
0.3333
 50
0.0
 51
78.465379
  0
LINE
  8
0
  6
CONTINUOUS
 62
     3
 10
256.99
 20
170.1983
 11
256.99
 21
171.9616
  0
LINE
  8
0
  6
CONTINUOUS
 62
     3
 10
257.8266
 20
170.1983
 11
257.8266
 21
171.9616
  0
LINE
  8
0
  6
CONTINUOUS
 62
     3
 10
259.4933
 20
170.1983
 11
259.4933
 21
171.9616
  0
LINE
  8
0
  6
CONTINUOUS
 62
     3
 10
260.3233
 20
170.1983
 11
260.3233
 21
171.9616
  0
LINE
  8
0
  6
CONTINUOUS
 62
     3
 10
256.99
 20
171.9616
 11
260.3233
 21
171.9616
  0
LINE
  8
0
  6
CONTINUOUS
 62
     3
 10
257.5966
 20
169.7766
 11
259.7166
 21
169.7766
  0
ARC
  8
0
  6
CONTINUOUS
 62
     3
 10
259.9083
 20
170.1983
 40
0.415
 50
180.0
 51
0.0
  0
ARC
  8
0
  6
CONTINUOUS
 62
     3
 10
257.4116
 20
170.1983
 40
0.415
 50
180.0
 51
0.0
  0
ARC
  8
0
  6
CONTINUOUS
 62
     3
 10
258.6566
 20
170.8216
 40
1.045
 50
216.90669
 51
323.31315
  0
ARC
  8
0
  6
CONTINUOUS
 62
     3
 10
258.6566
 20
168.2516
 40
1.045
 50
137.93067
 51
42.069327
  0
ARC
  8
0
  6
CONTINUOUS
 62
     3
 10
257.5166
 20
169.2883
 40
0.5033
 50
317.27989
 51
96.888258
  0
ARC
  8
0
  6
CONTINUOUS
 62
     3
 10
259.7966
 20
169.2883
 40
0.5033
 50
83.111741
 51
222.7201
  0
LINE
  8
0
  6
CONTINUOUS
 62
     3
 10
254.16
 20
232.9616
 11
263.16
 21
232.9616
  0
ARC
  8
0
  6
CONTINUOUS
 62
     3
 10
263.16
 20
232.4583
 40
0.5033
 50
0.0
 51
90.0
  0
ARC
  8
0
  6
CONTINUOUS
 62
     3
 10
254.16
 20
232.4583
 40
0.5033
 50
90.0
 51
180.0
  0
LINE
  8
0
  6
CONTINUOUS
 62
     3
 10
264.16
 20
231.9616
 11
278.6566
 21
231.9616
  0
ARC
  8
0
  6
CONTINUOUS
 62
     3
 10
253.16
 20
232.4583
 40
0.5033
 50
270.0
 51
0.0
  0
ARC
  8
0
  6
CONTINUOUS
 62
     3
 10
264.16
 20
232.4583
 40
0.5033
 50
180.0
 51
270.0
  0
ARC
  8
0
  6
CONTINUOUS
 62
     3
 10
258.6566
 20
241.0066
 40
10.2966
 50
241.9788
 51
297.81293
  0
LINE
  8
0
  6
CONTINUOUS
 62
     3
 10
235.3233
 20
182.295
 11
235.3233
 21
233.9616
  0
LINE
  8
0
  6
CONTINUOUS
 62
     3
 10
231.99
 20
190.4583
 11
231.99
 21
225.7916
  0
LINE
  8
0
  6
CONTINUOUS
 62
     3
 10
232.4933
 20
189.9616
 11
233.6566
 21
189.9616
  0
LINE
  8
0
  6
CONTINUOUS
 62
     3
 10
232.4933
 20
226.295
 11
233.6566
 21
226.295
  0
ARC
  8
0
  6
CONTINUOUS
 62
     3
 10
233.6566
 20
227.9616
 40
1.6666
 50
270.0
 51
0.0
  0
ARC
  8
0
  6
CONTINUOUS
 62
     3
 10
233.6566
 20
188.295
 40
1.6666
 50
0.0
 51
90.0
  0
ARC
  8
0
  6
CONTINUOUS
 62
     3
 10
232.4933
 20
190.4583
 40
0.5033
 50
180.0
 51
270.0
  0
ARC
  8
0
  6
CONTINUOUS
 62
     3
 10
232.4933
 20
225.7916
 40
0.5033
 50
90.0
 51
180.0
  0
CIRCLE
  8
0
  6
CONTINUOUS
 62
     3
 10
258.6566
 20
185.6283
 40
5.6666
  0
CIRCLE
  8
0
  6
CONTINUOUS
 62
     3
 10
258.6566
 20
185.6283
 40
4.17
  0
CIRCLE
  8
0
  6
CONTINUOUS
 62
     3
 10
258.6566
 20
185.6283
 40
5.17
  0
CIRCLE
  8
0
  6
LTYPE1
 62
     2
 10
258.6566
 20
185.6283
 40
10.8366
  0
CIRCLE
  8
0
  6
CONTINUOUS
 62
     3
 10
247.8266
 20
185.6283
 40
1.3333
  0
CIRCLE
  8
0
  6
CONTINUOUS
 62
     3
 10
247.8266
 20
185.6283
 40
0.785
  0
LINE
  8
0
  6
CONTINUOUS
 62
     3
 10
247.0416
 20
185.6283
 11
247.435
 21
184.9466
  0
LINE
  8
0
  6
CONTINUOUS
 62
     3
 10
247.0416
 20
185.6283
 11
247.435
 21
186.3033
  0
LINE
  8
0
  6
CONTINUOUS
 62
     3
 10
248.22
 20
184.9466
 11
248.6116
 21
185.6283
  0
LINE
  8
0
  6
CONTINUOUS
 62
     3
 10
248.22
 20
186.3033
 11
248.6116
 21
185.6283
  0
LINE
  8
0
  6
CONTINUOUS
 62
     3
 10
247.435
 20
186.3033
 11
248.22
 21
186.3033
  0
LINE
  8
0
  6
CONTINUOUS
 62
     3
 10
247.435
 20
184.9466
 11
248.22
 21
184.9466
  0
CIRCLE
  8
0
  6
CONTINUOUS
 62
     3
 10
250.9966
 20
193.2883
 40
1.3333
  0
CIRCLE
  8
0
  6
CONTINUOUS
 62
     3
 10
250.9966
 20
193.2883
 40
0.785
  0
LINE
  8
0
  6
CONTINUOUS
 62
     3
 10
251.5533
 20
192.7316
 11
251.7533
 21
193.4883
  0
LINE
  8
0
  6
CONTINUOUS
 62
     3
 10
250.4416
 20
193.8433
 11
251.205
 21
194.0433
  0
LINE
  8
0
  6
CONTINUOUS
 62
     3
 10
251.205
 20
194.0433
 11
251.7533
 21
193.4883
  0
LINE
  8
0
  6
CONTINUOUS
 62
     3
 10
250.2416
 20
193.08
 11
250.4416
 21
193.8433
  0
LINE
  8
0
  6
CONTINUOUS
 62
     3
 10
250.7966
 20
192.5316
 11
251.5533
 21
192.7316
  0
LINE
  8
0
  6
CONTINUOUS
 62
     3
 10
250.2416
 20
193.08
 11
250.7966
 21
192.5316
  0
CIRCLE
  8
0
  6
CONTINUOUS
 62
     3
 10
258.6566
 20
196.4583
 40
1.3333
  0
CIRCLE
  8
0
  6
CONTINUOUS
 62
     3
 10
258.6566
 20
196.4583
 40
0.785
  0
LINE
  8
0
  6
CONTINUOUS
 62
     3
 10
258.6566
 20
195.6733
 11
259.3383
 21
196.065
  0
LINE
  8
0
  6
CONTINUOUS
 62
     3
 10
258.6566
 20
197.2433
 11
259.3383
 21
196.8516
  0
LINE
  8
0
  6
CONTINUOUS
 62
     3
 10
259.3383
 20
196.065
 11
259.3383
 21
196.8516
  0
LINE
  8
0
  6
CONTINUOUS
 62
     3
 10
257.9833
 20
196.8516
 11
258.6566
 21
197.2433
  0
LINE
  8
0
  6
CONTINUOUS
 62
     3
 10
257.9833
 20
196.065
 11
258.6566
 21
195.6733
  0
LINE
  8
0
  6
CONTINUOUS
 62
     3
 10
257.9833
 20
196.065
 11
257.9833
 21
196.8516
  0
CIRCLE
  8
0
  6
CONTINUOUS
 62
     3
 10
266.3233
 20
193.2883
 40
1.3333
  0
CIRCLE
  8
0
  6
CONTINUOUS
 62
     3
 10
266.3233
 20
193.2883
 40
0.785
  0
LINE
  8
0
  6
CONTINUOUS
 62
     3
 10
265.7683
 20
192.7316
 11
266.5233
 21
192.5316
  0
LINE
  8
0
  6
CONTINUOUS
 62
     3
 10
266.8716
 20
193.8433
 11
267.0783
 21
193.08
  0
LINE
  8
0
  6
CONTINUOUS
 62
     3
 10
266.5233
 20
192.5316
 11
267.0783
 21
193.08
  0
LINE
  8
0
  6
CONTINUOUS
 62
     3
 10
266.1166
 20
194.0433
 11
266.8716
 21
193.8433
  0
LINE
  8
0
  6
CONTINUOUS
 62
     3
 10
265.56
 20
193.4883
 11
265.7683
 21
192.7316
  0
LINE
  8
0
  6
CONTINUOUS
 62
     3
 10
265.56
 20
193.4883
 11
266.1166
 21
194.0433
  0
CIRCLE
  8
0
  6
CONTINUOUS
 62
     3
 10
269.4933
 20
185.6283
 40
1.3333
  0
CIRCLE
  8
0
  6
CONTINUOUS
 62
     3
 10
269.4933
 20
185.6283
 40
0.785
  0
LINE
  8
0
  6
CONTINUOUS
 62
     3
 10
268.7083
 20
185.6283
 11
269.1016
 21
184.9466
  0
LINE
  8
0
  6
CONTINUOUS
 62
     3
 10
269.8866
 20
184.9466
 11
270.2783
 21
185.6283
  0
LINE
  8
0
  6
CONTINUOUS
 62
     3
 10
269.1016
 20
184.9466
 11
269.8866
 21
184.9466
  0
LINE
  8
0
  6
CONTINUOUS
 62
     3
 10
269.8866
 20
186.3033
 11
270.2783
 21
185.6283
  0
LINE
  8
0
  6
CONTINUOUS
 62
     3
 10
268.7083
 20
185.6283
 11
269.1016
 21
186.3033
  0
LINE
  8
0
  6
CONTINUOUS
 62
     3
 10
269.1016
 20
186.3033
 11
269.8866
 21
186.3033
  0
CIRCLE
  8
0
  6
CONTINUOUS
 62
     3
 10
266.3233
 20
177.97
 40
1.3333
  0
CIRCLE
  8
0
  6
CONTINUOUS
 62
     3
 10
266.3233
 20
177.97
 40
0.785
  0
LINE
  8
0
  6
CONTINUOUS
 62
     3
 10
265.56
 20
177.7616
 11
265.7683
 21
178.5183
  0
LINE
  8
0
  6
CONTINUOUS
 62
     3
 10
266.1166
 20
177.2066
 11
266.8716
 21
177.4133
  0
LINE
  8
0
  6
CONTINUOUS
 62
     3
 10
265.56
 20
177.7616
 11
266.1166
 21
177.2066
  0
LINE
  8
0
  6
CONTINUOUS
 62
     3
 10
266.8716
 20
177.4133
 11
267.0783
 21
178.17
  0
LINE
  8
0
  6
CONTINUOUS
 62
     3
 10
265.7683
 20
178.5183
 11
266.5233
 21
178.725
  0
LINE
  8
0
  6
CONTINUOUS
 62
     3
 10
266.5233
 20
178.725
 11
267.0783
 21
178.17
  0
CIRCLE
  8
0
  6
CONTINUOUS
 62
     3
 10
258.6566
 20
174.7916
 40
1.3333
  0
CIRCLE
  8
0
  6
CONTINUOUS
 62
     3
 10
258.6566
 20
174.7916
 40
0.785
  0
LINE
  8
0
  6
CONTINUOUS
 62
     3
 10
257.9833
 20
175.185
 11
258.6566
 21
175.5766
  0
LINE
  8
0
  6
CONTINUOUS
 62
     3
 10
257.9833
 20
174.3983
 11
258.6566
 21
174.0066
  0
LINE
  8
0
  6
CONTINUOUS
 62
     3
 10
257.9833
 20
174.3983
 11
257.9833
 21
175.185
  0
LINE
  8
0
  6
CONTINUOUS
 62
     3
 10
258.6566
 20
174.0066
 11
259.3383
 21
174.3983
  0
LINE
  8
0
  6
CONTINUOUS
 62
     3
 10
258.6566
 20
175.5766
 11
259.3383
 21
175.185
  0
LINE
  8
0
  6
CONTINUOUS
 62
     3
 10
259.3383
 20
174.3983
 11
259.3383
 21
175.185
  0
CIRCLE
  8
0
  6
CONTINUOUS
 62
     3
 10
250.9966
 20
177.97
 40
1.3333
  0
CIRCLE
  8
0
  6
CONTINUOUS
 62
     3
 10
250.9966
 20
177.97
 40
0.785
  0
LINE
  8
0
  6
CONTINUOUS
 62
     3
 10
250.7966
 20
178.725
 11
251.5533
 21
178.5183
  0
LINE
  8
0
  6
CONTINUOUS
 62
     3
 10
250.2416
 20
178.17
 11
250.4416
 21
177.4133
  0
LINE
  8
0
  6
CONTINUOUS
 62
     3
 10
250.2416
 20
178.17
 11
250.7966
 21
178.725
  0
LINE
  8
0
  6
CONTINUOUS
 62
     3
 10
250.4416
 20
177.4133
 11
251.205
 21
177.2066
  0
LINE
  8
0
  6
CONTINUOUS
 62
     3
 10
251.5533
 20
178.5183
 11
251.7533
 21
177.7616
  0
LINE
  8
0
  6
CONTINUOUS
 62
     3
 10
251.205
 20
177.2066
 11
251.7533
 21
177.7616
  0
LINE
  8
0
  6
LTYPE1
 62
     2
 10
249.5683
 20
176.5316
 11
252.42
 21
179.385
  0
LINE
  8
0
  6
LTYPE1
 62
     2
 10
264.8266
 20
191.7916
 11
267.8116
 21
194.785
  0
LINE
  8
0
  6
LTYPE1
 62
     2
 10
264.8633
 20
179.4216
 11
267.7833
 21
176.5033
  0
LINE
  8
0
  6
LTYPE1
 62
     2
 10
249.605
 20
194.6883
 11
252.42
 21
191.865
  0
ARC
  8
0
  6
CONTINUOUS
 62
     3
 10
258.6566
 20
185.6283
 40
3.17
 50
195.33187
 51
164.7846
  0
LINE
  8
0
  6
CONTINUOUS
 62
     3
 10
256.3966
 20
184.7916
 11
256.3966
 21
186.4583
  0
LINE
  8
0
  6
CONTINUOUS
 62
     3
 10
255.0633
 20
184.7916
 11
256.3966
 21
184.7916
  0
LINE
  8
0
  6
CONTINUOUS
 62
     3
 10
255.0633
 20
186.4583
 11
256.3966
 21
186.4583
  0
LINE
  8
0
  6
CONTINUOUS
 62
     3
 10
255.0633
 20
184.7916
 11
255.0633
 21
186.4583
  0
LINE
  8
0
  6
LTYPE1
 62
     2
 10
231.605
 20
183.9616
 11
241.4716
 21
183.9616
  0
LINE
  8
0
  6
LTYPE1
 62
     2
 10
231.375
 20
232.295
 11
242.39
 21
232.295
  0
ARC
  8
0
  6
CONTINUOUS
 62
     3
 10
236.16
 20
233.9616
 40
0.8366
 50
90.0
 51
180.0
  0
ARC
  8
0
  6
CONTINUOUS
 62
     3
 10
236.16
 20
182.295
 40
0.8366
 50
180.0
 51
270.0
  0
LINE
  8
0
  6
CONTINUOUS
 62
     3
 10
233.8266
 20
185.295
 11
235.3233
 21
185.295
  0
LINE
  8
0
  6
CONTINUOUS
 62
     3
 10
233.8266
 20
182.6283
 11
235.3233
 21
182.6283
  0
LINE
  8
0
  6
CONTINUOUS
 62
     3
 10
233.6566
 20
182.7916
 11
233.6566
 21
185.125
  0
ARC
  8
0
  6
CONTINUOUS
 62
     3
 10
233.8266
 20
182.7916
 40
0.17
 50
180.0
 51
270.0
  0
ARC
  8
0
  6
CONTINUOUS
 62
     3
 10
233.8266
 20
185.125
 40
0.17
 50
90.0
 51
180.0
  0
ARC
  8
0
  6
CONTINUOUS
 62
     3
 10
233.8266
 20
233.4583
 40
0.17
 50
90.0
 51
180.0
  0
ARC
  8
0
  6
CONTINUOUS
 62
     3
 10
233.8266
 20
231.125
 40
0.17
 50
180.0
 51
270.0
  0
LINE
  8
0
  6
CONTINUOUS
 62
     3
 10
233.8266
 20
230.9616
 11
235.3233
 21
230.9616
  0
LINE
  8
0
  6
CONTINUOUS
 62
     3
 10
233.8266
 20
233.6283
 11
235.3233
 21
233.6283
  0
LINE
  8
0
  6
CONTINUOUS
 62
     3
 10
233.6566
 20
231.125
 11
233.6566
 21
233.4583
  0
LINE
  8
0
  6
CONTINUOUS
 62
     3
 10
252.2633
 20
209.3766
 11
271.775
 21
210.695
  0
ARC
  8
0
  6
CONTINUOUS
 62
     3
 10
271.6566
 20
212.3616
 40
1.6666
 50
274.06118
 51
0.0
  0
LINE
  8
0
  6
CONTINUOUS
 62
     3
 10
252.2633
 20
206.8733
 11
271.775
 21
205.555
  0
ARC
  8
0
  6
CONTINUOUS
 62
     3
 10
271.6566
 20
203.895
 40
1.6666
 50
0.0
 51
85.922559
  0
LINE
  8
0
  6
CONTINUOUS
 62
     2
 10
258.6566
 20
151.7916
 11
278.6566
 21
151.7916
  0
LINE
  8
0
  6
CONTINUOUS
 62
     2
 10
278.6566
 20
186.4583
 11
278.6566
 21
150.2916
  0
LINE
  8
0
  6
CONTINUOUS
 62
     2
 10
258.6566
 20
165.0883
 11
258.6566
 21
150.2916
  0
LINE
  8
0
  6
CONTINUOUS
 62
     2
 10
276.65
 20
151.2541
 11
278.65
 21
151.79
  0
LINE
  8
0
  6
CONTINUOUS
 62
     2
 10
278.65
 20
151.79
 11
276.65
 21
152.3258
  0
LINE
  8
0
  6
CONTINUOUS
 62
     2
 10
260.65
 20
152.3258
 11
258.65
 21
151.79
  0
LINE
  8
0
  6
CONTINUOUS
 62
     2
 10
258.65
 20
151.79
 11
260.65
 21
151.2541
  0
TEXT
  8
0
  6
CONTINUOUS
 62
     4
 10
264.3066
 20
152.7916
 30
0.0
 40
3.5
  1
１２０
 50
0.0
 41
0.8285714
 51
0.0
  7
KANJI0
  0
LINE
  8
0
  6
CONTINUOUS
 62
     2
 10
273.3233
 20
161.7916
 11
278.6566
 21
161.7916
  0
LINE
  8
0
  6
CONTINUOUS
 62
     2
 10
278.6566
 20
186.4583
 11
278.6566
 21
160.2916
  0
LINE
  8
0
  6
CONTINUOUS
 62
     2
 10
273.3233
 20
188.125
 11
273.3233
 21
160.2916
  0
LINE
  8
0
  6
CONTINUOUS
 62
     2
 10
276.65
 20
161.2541
 11
278.65
 21
161.79
  0
LINE
  8
0
  6
CONTINUOUS
 62
     2
 10
278.65
 20
161.79
 11
276.65
 21
162.3258
  0
LINE
  8
0
  6
CONTINUOUS
 62
     2
 10
275.32
 20
162.3258
 11
273.32
 21
161.79
  0
LINE
  8
0
  6
CONTINUOUS
 62
     2
 10
273.32
 20
161.79
 11
275.32
 21
161.2541
  0
TEXT
  8
0
  6
CONTINUOUS
 62
     4
 10
273.09
 20
162.7916
 30
0.0
 40
3.5
  1
３２
 50
0.0
 41
0.8285714
 51
0.0
  7
KANJI0
  0
LINE
  8
0
  6
CONTINUOUS
 62
     2
 10
231.99
 20
141.7917
 11
278.6566
 21
141.7917
  0
LINE
  8
0
  6
CONTINUOUS
 62
     2
 10
278.6566
 20
186.4583
 11
278.6566
 21
140.2917
  0
LINE
  8
0
  6
CONTINUOUS
 62
     2
 10
231.99
 20
189.8733
 11
231.99
 21
140.2917
  0
LINE
  8
0
  6
CONTINUOUS
 62
     2
 10
276.65
 20
141.2642
 11
278.65
 21
141.8
  0
LINE
  8
0
  6
CONTINUOUS
 62
     2
 10
278.65
 20
141.8
 11
276.65
 21
142.3359
  0
LINE
  8
0
  6
CONTINUOUS
 62
     2
 10
233.99
 20
142.3359
 11
231.99
 21
141.8
  0
LINE
  8
0
  6
CONTINUOUS
 62
     2
 10
231.99
 20
141.8
 11
233.99
 21
141.2642
  0
TEXT
  8
0
  6
CONTINUOUS
 62
     4
 10
249.5233
 20
142.7917
 30
0.0
 40
3.5
  1
２８０
 50
0.0
 41
0.8285714
 51
0.0
  7
KANJI0
  0
LINE
  8
1
  6
CONTINUOUS
 62
     3
 10
401.47
 20
13.54
 11
401.47
 21
284.59
  0
LINE
  8
1
  6
CONTINUOUS
 62
     3
 10
14.47
 20
284.54
 11
401.47
 21
284.54
  0
LINE
  8
1
  6
CONTINUOUS
 62
     3
 10
14.47
 20
13.54
 11
14.47
 21
284.54
  0
LINE
  8
1
  6
CONTINUOUS
 62
     3
 10
14.4
 20
13.54
 11
401.47
 21
13.54
  0
LINE
  8
1
  6
CONTINUOUS
 62
     4
 10
295.79
 20
15.02
 11
299.52
 21
18.76
  0
LINE
  8
1
  6
CONTINUOUS
 62
     2
 10
59.47
 20
13.54
 11
59.47
 21
27.54
  0
LINE
  8
1
  6
CONTINUOUS
 62
     3
 10
79.47
 20
13.54
 11
79.47
 21
27.54
  0
LINE
  8
1
  6
CONTINUOUS
 62
     3
 10
14.47
 20
27.54
 11
79.47
 21
27.54
  0
LINE
  8
1
  6
CONTINUOUS
 62
     2
 10
14.47
 20
20.54
 11
79.47
 21
20.54
  0
TEXT
  8
1
  6
CONTINUOUS
 62
     4
 10
15.7
 20
22.37
 30
0.0
 40
3.2
  1
ＰＬ
 50
0.0
 41
1.0
 51
0.0
  7
KANJI1
  0
TEXT
  8
1
  6
CONTINUOUS
 62
     4
 10
15.89
 20
17.75
 30
0.0
 40
1.8
  1
ＰＡＲＴＳ　ＬＩＳＴ
 50
0.0
 41
0.9444444
 51
0.0
  7
KANJI2
  0
TEXT
  8
1
  6
CONTINUOUS
 62
     4
 10
16.11
 20
14.68
 30
0.0
 40
1.8
  1
部品表
 50
0.0
 41
0.9444444
 51
0.0
  7
KANJI2
  0
TEXT
  8
1
  6
CONTINUOUS
 62
     4
 10
60.4
 20
17.73
 30
0.0
 40
1.8
  1
ＮＯ．
 50
0.0
 41
0.9444444
 51
0.0
  7
KANJI2
  0
TEXT
  8
1
  6
CONTINUOUS
 62
     4
 10
60.25
 20
14.74
 30
0.0
 40
1.8
  1
項番
 50
0.0
 41
0.9444444
 51
0.0
  7
KANJI2
  0
LINE
  8
1
  6
CONTINUOUS
 62
     2
 10
201.47
 20
13.54
 11
201.47
 21
20.54
  0
LINE
  8
1
  6
CONTINUOUS
 62
     2
 10
271.47
 20
55.54
 11
401.47
 21
55.54
  0
LINE
  8
1
  6
CONTINUOUS
 62
     2
 10
271.47
 20
34.54
 11
401.47
 21
34.54
  0
LINE
  8
1
  6
CONTINUOUS
 62
     2
 10
302.47
 20
13.54
 11
302.47
 21
55.54
  0
LINE
  8
1
  6
CONTINUOUS
 62
     2
 10
208.47
 20
13.54
 11
208.47
 21
20.54
  0
LINE
  8
1
  6
CONTINUOUS
 62
     2
 10
223.47
 20
13.54
 11
223.47
 21
20.54
  0
LINE
  8
1
  6
CONTINUOUS
 62
     2
 10
233.47
 20
13.54
 11
233.47
 21
20.54
  0
LINE
  8
1
  6
CONTINUOUS
 62
     2
 10
201.47
 20
20.54
 11
302.47
 21
20.54
  0
LINE
  8
1
  6
CONTINUOUS
 62
     2
 10
271.47
 20
27.54
 11
302.47
 21
27.54
  0
LINE
  8
1
  6
CONTINUOUS
 62
     2
 10
302.47
 20
23.54
 11
401.47
 21
23.54
  0
LINE
  8
1
  6
CONTINUOUS
 62
     3
 10
271.47
 20
13.54
 11
271.47
 21
69.54
  0
TEXT
  8
1
  6
CONTINUOUS
 62
     2
 10
202.54
 20
14.83
 30
0.0
 40
5.0
  1
△
 50
0.0
 41
1.0
 51
0.0
  7
KANJI3
  0
TEXT
  8
1
  6
CONTINUOUS
 62
     4
 10
213.26
 20
14.64
 30
0.0
 40
1.8
  1
日付
 50
0.0
 41
0.9444444
 51
0.0
  7
KANJI2
  0
TEXT
  8
1
  6
CONTINUOUS
 62
     4
 10
226.55
 20
14.67
 30
0.0
 40
1.8
  1
担当
 50
0.0
 41
0.9444444
 51
0.0
  7
KANJI2
  0
TEXT
  8
1
  6
CONTINUOUS
 62
     4
 10
248.76
 20
14.68
 30
0.0
 40
1.8
  1
記事
 50
0.0
 41
0.9444444
 51
0.0
  7
KANJI2
  0
TEXT
  8
1
  6
CONTINUOUS
 62
     4
 10
273.97
 20
14.63
 30
0.0
 40
1.8
  1
尺度
 50
0.0
 41
0.9444444
 51
0.0
  7
KANJI2
  0
TEXT
  8
1
  6
CONTINUOUS
 62
     4
 10
273.97
 20
21.63
 30
0.0
 40
1.8
  1
日付
 50
0.0
 41
0.9444444
 51
0.0
  7
KANJI2
  0
TEXT
  8
1
  6
CONTINUOUS
 62
     4
 10
273.97
 20
28.67
 30
0.0
 40
1.8
  1
作図
 50
0.0
 41
0.9444444
 51
0.0
  7
KANJI2
  0
TEXT
  8
1
  6
CONTINUOUS
 62
     4
 10
273.97
 20
35.68
 30
0.0
 40
1.8
  1
設計
 50
0.0
 41
0.9444444
 51
0.0
  7
KANJI2
  0
TEXT
  8
1
  6
CONTINUOUS
 62
     4
 10
273.97
 20
42.68
 30
0.0
 40
1.8
  1
検図
 50
0.0
 41
0.9444444
 51
0.0
  7
KANJI2
  0
TEXT
  8
1
  6
CONTINUOUS
 62
     4
 10
273.97
 20
49.69
 30
0.0
 40
1.8
  1
分類
 50
0.0
 41
0.9444444
 51
0.0
  7
KANJI2
  0
TEXT
  8
1
  6
CONTINUOUS
 62
     4
 10
304.97
 20
28.67
 30
0.0
 40
1.8
  1
図面番号
 50
0.0
 41
0.9444444
 51
0.0
  7
KANJI2
  0
TEXT
  8
1
  6
CONTINUOUS
 62
     4
 10
304.97
 20
35.69
 30
0.0
 40
1.8
  1
製番
 50
0.0
 41
0.9444444
 51
0.0
  7
KANJI2
  0
TEXT
  8
1
  6
CONTINUOUS
 62
     4
 10
304.97
 20
42.68
 30
0.0
 40
1.8
  1
機種
 50
0.0
 41
0.9444444
 51
0.0
  7
KANJI2
  0
TEXT
  8
1
  6
CONTINUOUS
 62
     4
 10
213.29
 20
17.74
 30
0.0
 40
1.8
  1
ＤＡＴＥ
 50
0.0
 41
0.9444444
 51
0.0
  7
KANJI2
  0
TEXT
  8
1
  6
CONTINUOUS
 62
     4
 10
226.74
 20
17.73
 30
0.0
 40
1.8
  1
ＢＹ
 50
0.0
 41
0.9444444
 51
0.0
  7
KANJI2
  0
TEXT
  8
1
  6
CONTINUOUS
 62
     4
 10
244.64
 20
17.76
 30
0.0
 40
1.8
  1
ＤＥＳＣＲＩＰＴＩＯＮ
 50
0.0
 41
0.9444444
 51
0.0
  7
KANJI2
  0
TEXT
  8
1
  6
CONTINUOUS
 62
     4
 10
273.47
 20
17.73
 30
0.0
 40
1.8
  1
ＳＣＡＬＥ
 50
0.0
 41
0.9444444
 51
0.0
  7
KANJI2
  0
TEXT
  8
1
  6
CONTINUOUS
 62
     4
 10
273.47
 20
24.73
 30
0.0
 40
1.8
  1
ＤＡＴＥ
 50
0.0
 41
0.9444444
 51
0.0
  7
KANJI2
  0
TEXT
  8
1
  6
CONTINUOUS
 62
     4
 10
273.47
 20
31.74
 30
0.0
 40
1.8
  1
ＤＲＡＷＮ
 50
0.0
 41
0.9444444
 51
0.0
  7
KANJI2
  0
TEXT
  8
1
  6
CONTINUOUS
 62
     4
 10
273.47
 20
38.73
 30
0.0
 40
1.8
  1
ＤＥＳＩＧＮ
 50
0.0
 41
0.9444444
 51
0.0
  7
KANJI2
  0
TEXT
  8
1
  6
CONTINUOUS
 62
     4
 10
273.47
 20
45.74
 30
0.0
 40
1.8
  1
ＣＨＥＣＫ
 50
0.0
 41
0.9444444
 51
0.0
  7
KANJI2
  0
TEXT
  8
1
  6
CONTINUOUS
 62
     4
 10
273.46
 20
52.73
 30
0.0
 40
1.8
  1
ＣＯＤＥ
 50
0.0
 41
0.9444444
 51
0.0
  7
KANJI2
  0
TEXT
  8
1
  6
CONTINUOUS
 62
     4
 10
304.47
 20
45.73
 30
0.0
 40
1.8
  1
ＴＹＰＥ
 50
0.0
 41
0.9444444
 51
0.0
  7
KANJI2
  0
TEXT
  8
1
  6
CONTINUOUS
 62
     4
 10
304.47
 20
38.73
 30
0.0
 40
1.8
  1
ＭＦＧ　ＮＯ．
 50
0.0
 41
0.9444444
 51
0.0
  7
KANJI2
  0
TEXT
  8
1
  6
CONTINUOUS
 62
     4
 10
304.47
 20
31.74
 30
0.0
 40
1.8
  1
ＤＷＧ．ＮＯ．
 50
0.0
 41
0.9444444
 51
0.0
  7
KANJI2
  0
TEXT
  8
1
  6
CONTINUOUS
 62
     4
 10
341.42
 20
45.75
 30
0.0
 40
1.8
  1
ＴＩＴＬＥ
 50
0.0
 41
0.9444444
 51
0.0
  7
KANJI2
  0
TEXT
  8
1
  6
CONTINUOUS
 62
     4
 10
341.97
 20
42.62
 30
0.0
 40
1.8
  1
名称
 50
0.0
 41
0.9444444
 51
0.0
  7
KANJI2
  0
LINE
  8
1
  6
CONTINUOUS
 62
     2
 10
271.47
 20
41.54
 11
302.47
 21
41.54
  0
LINE
  8
1
  6
CONTINUOUS
 62
     2
 10
304.97
 20
41.54
 11
338.74
 21
41.54
  0
LINE
  8
1
  6
CONTINUOUS
 62
     2
 10
271.47
 20
48.54
 11
302.47
 21
48.54
  0
LINE
  8
1
  6
CONTINUOUS
 62
     2
 10
304.97
 20
48.54
 11
398.97
 21
48.54
  0
TEXT
  8
1
  6
CONTINUOUS
 62
     3
 10
345.82
 20
16.39
 30
0.0
 40
5.5
  1
ユニテック工業株式会社
 50
0.0
 41
0.8181818
 51
0.0
  7
KANJI4
  0
TEXT
  8
1
  6
CONTINUOUS
 62
     3
 10
306.26
 20
16.8
 30
0.0
 40
3.0
  1
ＵＮＩＴＥＣ　ＩＮＤＵＳＴＲＹ　ＣＯ　ＬＴＤ．
 50
0.0
 41
0.6
 51
0.0
  7
KANJI5
  0
TEXT
  8
1
  6
CONTINUOUS
 62
     3
 10
337.05
 20
16.86
 30
0.0
 40
3.0
  1
．，
 50
0.0
 41
0.6
 51
0.0
  7
KANJI5
  0
LINE
  8
1
  6
LTYPE2
 62
     3
 10
338.23
 20
25.54
 11
338.53
 21
25.84
  0
LINE
  8
1
  6
LTYPE2
 62
     3
 10
338.23
 20
32.54
 11
338.53
 21
32.24
  0
LINE
  8
1
  6
LTYPE2
 62
     3
 10
338.53
 20
32.24
 11
338.83
 21
32.54
  0
LINE
  8
1
  6
LTYPE2
 62
     3
 10
338.53
 20
25.84
 11
338.83
 21
25.54
  0
LINE
  8
1
  6
LTYPE2
 62
     3
 10
344.03
 20
25.54
 11
344.33
 21
25.84
  0
LINE
  8
1
  6
LTYPE2
 62
     3
 10
344.03
 20
32.54
 11
344.33
 21
32.24
  0
LINE
  8
1
  6
LTYPE2
 62
     3
 10
344.33
 20
32.24
 11
344.63
 21
32.54
  0
LINE
  8
1
  6
LTYPE2
 62
     3
 10
344.33
 20
25.84
 11
344.63
 21
25.54
  0
LINE
  8
1
  6
LTYPE2
 62
     3
 10
349.83
 20
25.54
 11
350.13
 21
25.84
  0
LINE
  8
1
  6
LTYPE2
 62
     3
 10
349.83
 20
32.54
 11
350.13
 21
32.24
  0
LINE
  8
1
  6
LTYPE2
 62
     3
 10
350.13
 20
32.24
 11
350.43
 21
32.54
  0
LINE
  8
1
  6
LTYPE2
 62
     3
 10
350.13
 20
25.84
 11
350.43
 21
25.54
  0
LINE
  8
1
  6
LTYPE2
 62
     3
 10
355.63
 20
25.54
 11
355.93
 21
25.84
  0
LINE
  8
1
  6
LTYPE2
 62
     3
 10
355.63
 20
32.54
 11
355.93
 21
32.24
  0
LINE
  8
1
  6
LTYPE2
 62
     3
 10
355.93
 20
32.24
 11
356.23
 21
32.54
  0
LINE
  8
1
  6
LTYPE2
 62
     3
 10
355.93
 20
25.84
 11
356.23
 21
25.54
  0
LINE
  8
1
  6
LTYPE2
 62
     3
 10
361.43
 20
25.54
 11
361.73
 21
25.84
  0
LINE
  8
1
  6
LTYPE2
 62
     3
 10
361.43
 20
32.54
 11
361.73
 21
32.24
  0
LINE
  8
1
  6
LTYPE2
 62
     3
 10
361.73
 20
32.24
 11
362.03
 21
32.54
  0
LINE
  8
1
  6
LTYPE2
 62
     3
 10
361.73
 20
25.84
 11
362.03
 21
25.54
  0
LINE
  8
1
  6
LTYPE2
 62
     3
 10
367.23
 20
25.54
 11
367.53
 21
25.84
  0
LINE
  8
1
  6
LTYPE2
 62
     3
 10
367.23
 20
32.54
 11
367.53
 21
32.24
  0
LINE
  8
1
  6
LTYPE2
 62
     3
 10
367.53
 20
32.24
 11
367.83
 21
32.54
  0
LINE
  8
1
  6
LTYPE2
 62
     3
 10
367.53
 20
25.84
 11
367.83
 21
25.54
  0
LINE
  8
1
  6
LTYPE2
 62
     3
 10
373.03
 20
25.54
 11
373.33
 21
25.84
  0
LINE
  8
1
  6
LTYPE2
 62
     3
 10
373.03
 20
32.54
 11
373.33
 21
32.24
  0
LINE
  8
1
  6
LTYPE2
 62
     3
 10
373.33
 20
25.84
 11
373.33
 21
32.24
  0
LINE
  8
1
  6
LTYPE2
 62
     3
 10
367.83
 20
25.54
 11
373.03
 21
25.54
  0
LINE
  8
1
  6
LTYPE2
 62
     3
 10
367.83
 20
32.54
 11
373.03
 21
32.54
  0
LINE
  8
1
  6
LTYPE2
 62
     3
 10
367.53
 20
25.84
 11
367.53
 21
32.24
  0
LINE
  8
1
  6
LTYPE2
 62
     3
 10
362.03
 20
32.54
 11
367.23
 21
32.54
  0
LINE
  8
1
  6
LTYPE2
 62
     3
 10
362.03
 20
25.54
 11
367.23
 21
25.54
  0
LINE
  8
1
  6
LTYPE2
 62
     3
 10
361.73
 20
25.84
 11
361.73
 21
32.24
  0
LINE
  8
1
  6
LTYPE2
 62
     3
 10
356.23
 20
32.54
 11
361.43
 21
32.54
  0
LINE
  8
1
  6
LTYPE2
 62
     3
 10
356.23
 20
25.54
 11
361.43
 21
25.54
  0
LINE
  8
1
  6
LTYPE2
 62
     3
 10
355.93
 20
25.84
 11
355.93
 21
32.24
  0
LINE
  8
1
  6
LTYPE2
 62
     3
 10
350.43
 20
32.54
 11
355.63
 21
32.54
  0
LINE
  8
1
  6
LTYPE2
 62
     3
 10
350.43
 20
25.54
 11
355.63
 21
25.54
  0
LINE
  8
1
  6
LTYPE2
 62
     3
 10
350.13
 20
25.84
 11
350.13
 21
32.24
  0
LINE
  8
1
  6
LTYPE2
 62
     3
 10
344.63
 20
25.54
 11
349.83
 21
25.54
  0
LINE
  8
1
  6
LTYPE2
 62
     3
 10
344.63
 20
32.54
 11
349.83
 21
32.54
  0
LINE
  8
1
  6
LTYPE2
 62
     3
 10
344.33
 20
25.84
 11
344.33
 21
32.24
  0
LINE
  8
1
  6
LTYPE2
 62
     3
 10
338.83
 20
25.54
 11
344.03
 21
25.54
  0
LINE
  8
1
  6
LTYPE2
 62
     3
 10
338.83
 20
32.54
 11
344.03
 21
32.54
  0
LINE
  8
1
  6
LTYPE2
 62
     3
 10
338.53
 20
25.84
 11
338.53
 21
32.24
  0
LINE
  8
1
  6
LTYPE2
 62
     3
 10
333.03
 20
25.54
 11
338.23
 21
25.54
  0
LINE
  8
1
  6
LTYPE2
 62
     3
 10
333.03
 20
32.54
 11
338.23
 21
32.54
  0
TEXT
  8
1
  6
CONTINUOUS
 62
     4
 10
375.87
 20
27.55
 30
0.0
 40
3.2
  1
－
 50
0.0
 41
0.78125
 51
0.0
  7
KANJI6
  0
TEXT
  8
1
  6
CONTINUOUS
 62
     4
 10
380.13
 20
26.12
 30
0.0
 40
7.0
  1
△
 50
0.0
 41
1.0
 51
0.0
  7
KANJI7
  0
LINE
  8
1
  6
CONTINUOUS
 62
     3
 10
271.47
 20
69.54
 11
401.47
 21
69.54
  0
LINE
  8
1
  6
CONTINUOUS
 62
     2
 10
296.47
 20
55.54
 11
296.47
 21
69.54
  0
TEXT
  8
1
  6
CONTINUOUS
 62
     4
 10
279.02
 20
60.54
 30
0.0
 40
3.2
  1
用途
 50
0.0
 41
1.0
 51
0.0
  7
KANJI1
  0
TEXT
  8
1
  6
CONTINUOUS
 62
     4
 10
281.54
 20
286.04
 30
0.0
 40
3.0
  1
ＩＳＯ
 50
0.0
 41
1.0
 51
0.0
  7
KANJI8
  0
TEXT
  8
1
  6
CONTINUOUS
 62
     4
 10
290.33
 20
286.04
 30
0.0
 40
2.2
  1
ＭＥＴＲＩＣ　ＳＣＲＥＷ　ＴＨＲＥＡＤ
 50
0.0
 41
1.0
 51
0.0
  7
KANJI9
  0
TEXT
  8
1
  6
CONTINUOUS
 62
     4
 10
333.92
 20
286.04
 30
0.0
 40
1.8
  1
メートルネジ使用
 50
0.0
 41
1.0
 51
0.0
  7
KANJI10
  0
TEXT
  8
1
  6
CONTINUOUS
 62
     4
 10
354.13
 20
286.04
 30
0.0
 40
3.0
  1
３
 50
0.0
 41
1.0
 51
0.0
  7
KANJI8
  0
TEXT
  8
1
  6
CONTINUOUS
 62
     4
 10
356.72
 20
286.04
 30
0.0
 40
2.2
  1
ＲＤ　ＡＮＧＬＥ　ＰＲＯＪＥＣＴＩＯＮ
 50
0.0
 41
1.0
 51
0.0
  7
KANJI9
  0
TEXT
  8
1
  6
CONTINUOUS
 62
     4
 10
393.15
 20
286.04
 30
0.0
 40
1.8
  1
第３角法
 50
0.0
 41
1.0
 51
0.0
  7
KANJI10
  0
TEXT
  8
1
  6
CONTINUOUS
 62
     4
 10
328.03
 20
286.04
 30
0.0
 40
2.2
  1
ＩＳＯ
 50
0.0
 41
1.0
 51
0.0
  7
KANJI9
  0
LINE
  8
1
  6
CONTINUOUS
 62
     3
 10
341.47
 20
253.28
 11
401.47
 21
253.28
  0
LINE
  8
1
  6
CONTINUOUS
 62
     3
 10
341.47
 20
243.28
 11
401.47
 21
243.28
  0
LINE
  8
1
  6
CONTINUOUS
 62
     3
 10
341.47
 20
236.28
 11
401.47
 21
236.28
  0
LINE
  8
1
  6
CONTINUOUS
 62
     3
 10
341.47
 20
229.28
 11
401.47
 21
229.28
  0
LINE
  8
1
  6
CONTINUOUS
 62
     3
 10
341.47
 20
222.28
 11
401.47
 21
222.28
  0
LINE
  8
1
  6
CONTINUOUS
 62
     3
 10
341.47
 20
215.28
 11
401.47
 21
215.28
  0
LINE
  8
1
  6
CONTINUOUS
 62
     3
 10
341.47
 20
208.28
 11
401.47
 21
208.28
  0
LINE
  8
1
  6
CONTINUOUS
 62
     3
 10
341.47
 20
201.28
 11
401.47
 21
201.28
  0
LINE
  8
1
  6
CONTINUOUS
 62
     3
 10
341.47
 20
194.28
 11
401.47
 21
194.28
  0
LINE
  8
1
  6
CONTINUOUS
 62
     3
 10
341.47
 20
187.28
 11
401.47
 21
187.28
  0
LINE
  8
1
  6
CONTINUOUS
 62
     3
 10
341.47
 20
180.28
 11
401.47
 21
180.28
  0
LINE
  8
1
  6
CONTINUOUS
 62
     3
 10
341.47
 20
173.28
 11
401.47
 21
173.28
  0
LINE
  8
1
  6
CONTINUOUS
 62
     3
 10
341.47
 20
166.28
 11
401.47
 21
166.28
  0
LINE
  8
1
  6
CONTINUOUS
 62
     3
 10
341.47
 20
159.28
 11
401.47
 21
159.28
  0
LINE
  8
1
  6
CONTINUOUS
 62
     3
 10
341.47
 20
152.28
 11
401.47
 21
152.28
  0
LINE
  8
1
  6
CONTINUOUS
 62
     3
 10
341.47
 20
145.28
 11
401.47
 21
145.28
  0
LINE
  8
1
  6
CONTINUOUS
 62
     3
 10
341.47
 20
138.28
 11
341.47
 21
253.28
  0
LINE
  8
1
  6
CONTINUOUS
 62
     3
 10
371.47
 20
138.28
 11
371.47
 21
243.28
  0
TEXT
  8
1
  6
CONTINUOUS
 62
     3
 10
351.64
 20
245.83
 30
0.0
 40
4.5
  1
マイティジャッキ仕様
 50
0.0
 41
0.8888888
 51
0.0
  7
KANJI11
  0
TEXT
  8
1
  6
CONTINUOUS
 62
     4
 10
343.87
 20
237.99
 30
0.0
 40
3.2
  1
型式
 50
0.0
 41
1.0
 51
0.0
  7
KANJI1
  0
TEXT
  8
1
  6
CONTINUOUS
 62
     4
 10
343.87
 20
231.36
 30
0.0
 40
3.2
  1
推力
 50
0.0
 41
1.0
 51
0.0
  7
KANJI1
  0
TEXT
  8
1
  6
CONTINUOUS
 62
     4
 10
343.88
 20
217.28
 30
0.0
 40
3.2
  1
スクリュウ
 50
0.0
 41
1.0
 51
0.0
  7
KANJI1
  0
TEXT
  8
1
  6
CONTINUOUS
 62
     4
 10
343.87
 20
210.26
 30
0.0
 40
3.2
  1
ウォーム１回転当り移動量
 50
0.0
 41
0.65625
 51
0.0
  7
KANJI12
  0
TEXT
  8
1
  6
CONTINUOUS
 62
     4
 10
343.87
 20
203.01
 30
0.0
 40
3.2
  1
ウォーム減速比
 50
0.0
 41
1.0
 51
0.0
  7
KANJI1
  0
TEXT
  8
1
  6
CONTINUOUS
 62
     4
 10
343.87
 20
189.41
 30
0.0
 40
3.2
  1
効率
 50
0.0
 41
1.0
 51
0.0
  7
KANJI1
  0
TEXT
  8
1
  6
CONTINUOUS
 62
     4
 10
343.87
 20
182.47
 30
0.0
 40
3.2
  1
ネジ軸回転防止
 50
0.0
 41
1.0
 51
0.0
  7
KANJI1
  0
TEXT
  8
1
  6
CONTINUOUS
 62
     4
 10
343.87
 20
168.34
 30
0.0
 40
3.2
  1
潤滑
 50
0.0
 41
1.0
 51
0.0
  7
KANJI1
  0
TEXT
  8
1
  6
CONTINUOUS
 62
     4
 10
343.87
 20
161.15
 30
0.0
 40
3.2
  1
塗装色
 50
0.0
 41
1.0
 51
0.0
  7
KANJI1
  0
TEXT
  8
1
  6
CONTINUOUS
 62
     4
 10
343.77
 20
154.27
 30
0.0
 40
3.2
  1
付属品
 50
0.0
 41
1.0
 51
0.0
  7
KANJI1
  0
TEXT
  8
1
  6
CONTINUOUS
 62
     4
 10
374.47
 20
237.98
 30
0.0
 40
3.2
  1
ＡＪ５０ＨＵＮ－　Ｊ
 50
0.0
 41
0.71875
 51
0.0
  7
KANJI13
  0
TEXT
  8
1
  6
CONTINUOUS
 62
     4
 10
377.47
 20
230.9
 30
0.0
 40
3.2
  1
５００００
 50
0.0
 41
0.71875
 51
0.0
  7
KANJI13
  0
TEXT
  8
1
  6
CONTINUOUS
 62
     4
 10
375.47
 20
216.73
 30
0.0
 40
3.2
  1
ＴＭ１１８　Ｐ１６
 50
0.0
 41
0.71875
 51
0.0
  7
KANJI13
  0
TEXT
  8
1
  6
CONTINUOUS
 62
     4
 10
386.87
 20
209.8
 30
0.0
 40
3.2
  1
１．５
 50
0.0
 41
0.71875
 51
0.0
  7
KANJI13
  0
TEXT
  8
1
  6
CONTINUOUS
 62
     4
 10
380.47
 20
202.83
 30
0.0
 40
3.2
  1
３２／３
 50
0.0
 41
0.71875
 51
0.0
  7
KANJI13
  0
TEXT
  8
1
  6
CONTINUOUS
 62
     4
 10
392.95
 20
196.41
 30
0.0
 40
3.2
  1
ｋｇ－ｍ
 50
0.0
 41
0.6875
 51
0.0
  7
KANJI14
  0
TEXT
  8
1
  6
CONTINUOUS
 62
     4
 10
396.29
 20
189.09
 30
0.0
 40
3.2
  1
％
 50
0.0
 41
1.0
 51
0.0
  7
KANJI1
  0
TEXT
  8
1
  6
CONTINUOUS
 62
     4
 10
384.77
 20
182.39
 30
0.0
 40
3.2
  1
無し
 50
0.0
 41
0.71875
 51
0.0
  7
KANJI13
  0
TEXT
  8
1
  6
CONTINUOUS
 62
     4
 10
376.47
 20
168.16
 30
0.0
 40
3.2
  1
グリース方式
 50
0.0
 41
0.71875
 51
0.0
  7
KANJI13
  0
TEXT
  8
1
  6
CONTINUOUS
 62
     4
 10
373.97
 20
161.11
 30
0.0
 40
3.2
  1
マンセル　７．５ＧＹ　５／４．５
 50
0.0
 41
0.5625
 51
0.0
  7
KANJI15
  0
TEXT
  8
1
  6
CONTINUOUS
 62
     4
 10
376.77
 20
153.83
 30
0.0
 40
3.2
  1
入力キー
 50
0.0
 41
0.71875
 51
0.0
  7
KANJI13
  0
TEXT
  8
1
  6
CONTINUOUS
 62
     4
 10
392.86
 20
175.46
 30
0.0
 40
3.2
  1
ｋｇ－ｍ
 50
0.0
 41
0.6875
 51
0.0
  7
KANJI14
  0
TEXT
  8
1
  6
CONTINUOUS
 62
     4
 10
395.43
 20
231.25
 30
0.0
 40
3.2
  1
ｋｇ
 50
0.0
 41
0.6875
 51
0.0
  7
KANJI14
  0
TEXT
  8
1
  6
CONTINUOUS
 62
     4
 10
395.27
 20
210.12
 30
0.0
 40
3.2
  1
ｍｍ
 50
0.0
 41
0.6875
 51
0.0
  7
KANJI14
  0
TEXT
  8
1
  6
CONTINUOUS
 62
     4
 10
384.97
 20
189.35
 30
0.0
 40
3.2
  1
１４
 50
0.0
 41
0.71875
 51
0.0
  7
KANJI13
  0
LINE
  8
1
  6
CONTINUOUS
 62
     3
 10
341.47
 20
138.28
 11
401.47
 21
138.28
  0
TEXT
  8
1
  6
CONTINUOUS
 62
     4
 10
343.97
 20
140.08
 30
0.0
 40
3.2
  1
台数
 50
0.0
 41
1.0
 51
0.0
  7
KANJI1
  0
TEXT
  8
1
  6
CONTINUOUS
 62
     4
 10
343.97
 20
224.23
 30
0.0
 40
3.2
  1
ストローク
 50
0.0
 41
1.0
 51
0.0
  7
KANJI1
  0
TEXT
  8
1
  6
CONTINUOUS
 62
     4
 10
395.31
 20
224.42
 30
0.0
 40
3.2
  1
ｍｍ
 50
0.0
 41
0.6875
 51
0.0
  7
KANJI14
  0
TEXT
  8
1
  6
CONTINUOUS
 62
     4
 10
133.68
 20
95.81
 30
0.0
 40
3.2
  1
ＡＪ５０ＨＵＮ－　　１Ｊ
 50
0.0
 41
0.78125
 51
0.0
  7
KANJI6
  0
TEXT
  8
1
  6
CONTINUOUS
 62
     4
 10
182.32
 20
95.8
 30
0.0
 40
3.2
  1
４２５
 50
0.0
 41
0.78125
 51
0.0
  7
KANJI6
  0
TEXT
  8
1
  6
CONTINUOUS
 62
     4
 10
233.35
 20
95.8
 30
0.0
 40
3.2
  1
２０６
 50
0.0
 41
0.78125
 51
0.0
  7
KANJI6
  0
TEXT
  8
1
  6
CONTINUOUS
 62
     4
 10
233.35
 20
88.8
 30
0.0
 40
3.2
  1
２１７
 50
0.0
 41
0.78125
 51
0.0
  7
KANJI6
  0
TEXT
  8
1
  6
CONTINUOUS
 62
     4
 10
233.35
 20
81.8
 30
0.0
 40
3.2
  1
２２６
 50
0.0
 41
0.78125
 51
0.0
  7
KANJI6
  0
TEXT
  8
1
  6
CONTINUOUS
 62
     4
 10
233.35
 20
74.8
 30
0.0
 40
3.2
  1
２３６
 50
0.0
 41
0.78125
 51
0.0
  7
KANJI6
  0
TEXT
  8
1
  6
CONTINUOUS
 62
     4
 10
233.35
 20
67.8
 30
0.0
 40
3.2
  1
２４７
 50
0.0
 41
0.78125
 51
0.0
  7
KANJI6
  0
TEXT
  8
1
  6
CONTINUOUS
 62
     4
 10
233.35
 20
60.8
 30
0.0
 40
3.2
  1
２５７
 50
0.0
 41
0.78125
 51
0.0
  7
KANJI6
  0
TEXT
  8
1
  6
CONTINUOUS
 62
     4
 10
233.35
 20
53.8
 30
0.0
 40
3.2
  1
２６７
 50
0.0
 41
0.78125
 51
0.0
  7
KANJI6
  0
TEXT
  8
1
  6
CONTINUOUS
 62
     4
 10
233.35
 20
46.8
 30
0.0
 40
3.2
  1
２９８
 50
0.0
 41
0.78125
 51
0.0
  7
KANJI6
  0
TEXT
  8
1
  6
CONTINUOUS
 62
     4
 10
333.22
 20
120.59
 30
0.0
 40
3.2
  1
特記事項
 50
0.0
 41
1.0
 51
0.0
  7
KANJI1
  0
TEXT
  8
1
  6
CONTINUOUS
 62
     4
 10
333.22
 20
113.59
 30
0.0
 40
3.2
  1
１．フレーム材質　ダグタイル鋳鉄
 50
0.0
 41
1.0
 51
0.0
  7
KANJI1
  0
TEXT
  8
1
  6
CONTINUOUS
 62
     4
 10
333.22
 20
106.59
 30
0.0
 40
3.2
  1
２．ネジ軸の回転防止対策を行ってください。
 50
0.0
 41
1.0
 51
0.0
  7
KANJI1
  0
TEXT
  8
1
  6
CONTINUOUS
 62
     4
 10
333.22
 20
99.59
 30
0.0
 40
3.2
  1
３．
 50
0.0
 41
1.0
 51
0.0
  7
KANJI1
  0
TEXT
  8
1
  6
CONTINUOUS
 62
     4
 10
333.22
 20
92.59
 30
0.0
 40
3.2
  1
４．
 50
0.0
 41
1.0
 51
0.0
  7
KANJI1
  0
TEXT
  8
1
  6
CONTINUOUS
 62
     4
 10
333.22
 20
85.59
 30
0.0
 40
3.2
  1
５．
 50
0.0
 41
1.0
 51
0.0
  7
KANJI1
  0
TEXT
  8
1
  6
CONTINUOUS
 62
     4
 10
294.74
 20
16.55
 30
0.0
 40
3.2
  1
１
 50
0.0
 41
1.0
 51
0.0
  7
KANJI1
  0
TEXT
  8
1
  6
CONTINUOUS
 62
     4
 10
298.44
 20
14.57
 30
0.0
 40
3.2
  1
６
 50
0.0
 41
1.0
 51
0.0
  7
KANJI1
  0
TEXT
  8
1
  6
CONTINUOUS
 62
     4
 10
311.19
 20
42.36
 30
0.0
 40
3.2
  1
ＡＪ５０ＨＵＮ－Ｊ
 50
0.0
 41
1.0
 51
0.0
  7
KANJI1
  0
TEXT
  8
1
  6
CONTINUOUS
 62
     4
 10
352.52
 20
42.25
 30
0.0
 40
4.5
  1
マイティジャッキ
 50
0.0
 41
1.0
 51
0.0
  7
KANJI16
  0
TEXT
  8
1
  6
CONTINUOUS
 62
     3
 10
327.03
 20
26.15
 30
0.0
 40
6.0
  1
Ａ３００１０６５
 50
0.0
 41
1.0
 51
0.0
  7
KANJI17
  0
TEXT
  8
1
  6
CONTINUOUS
 62
     4
 10
357.41
 20
35.9
 30
0.0
 40
4.5
  1
外形寸法図
 50
0.0
 41
1.0
 51
0.0
  7
KANJI16
  0
TEXT
  8
1
  6
CONTINUOUS
 62
     4
 10
283.32
 20
29.01
 30
0.0
 40
3.2
  1
信野（Ｍ）
 50
0.0
 41
1.0
 51
0.0
  7
KANJI1
  0
TEXT
  8
1
  6
CONTINUOUS
 62
     4
 10
282.52
 20
22.91
 30
0.0
 40
2.5
  1
９９．０２．０１
 50
0.0
 41
1.0
 51
0.0
  7
KANJI18
  0
TEXT
  8
1
  6
CONTINUOUS
 62
     4
 10
133.68
 20
88.81
 30
0.0
 40
3.2
  1
ＡＪ５０ＨＵＮ－　　２Ｊ
 50
0.0
 41
0.78125
 51
0.0
  7
KANJI6
  0
TEXT
  8
1
  6
CONTINUOUS
 62
     4
 10
133.68
 20
81.81
 30
0.0
 40
3.2
  1
ＡＪ５０ＨＵＮ－　　３Ｊ
 50
0.0
 41
0.78125
 51
0.0
  7
KANJI6
  0
TEXT
  8
1
  6
CONTINUOUS
 62
     4
 10
133.68
 20
74.81
 30
0.0
 40
3.2
  1
ＡＪ５０ＨＵＮ－　　４Ｊ
 50
0.0
 41
0.78125
 51
0.0
  7
KANJI6
  0
TEXT
  8
1
  6
CONTINUOUS
 62
     4
 10
133.68
 20
67.81
 30
0.0
 40
3.2
  1
ＡＪ５０ＨＵＮ－　　５Ｊ
 50
0.0
 41
0.78125
 51
0.0
  7
KANJI6
  0
TEXT
  8
1
  6
CONTINUOUS
 62
     4
 10
133.68
 20
60.81
 30
0.0
 40
3.2
  1
ＡＪ５０ＨＵＮ－　　６Ｊ
 50
0.0
 41
0.78125
 51
0.0
  7
KANJI6
  0
TEXT
  8
1
  6
CONTINUOUS
 62
     4
 10
133.68
 20
53.81
 30
0.0
 40
3.2
  1
ＡＪ５０ＨＵＮ－　　８Ｊ
 50
0.0
 41
0.78125
 51
0.0
  7
KANJI6
  0
TEXT
  8
1
  6
CONTINUOUS
 62
     4
 10
132.68
 20
46.81
 30
0.0
 40
3.2
  1
ＡＪ５０ＨＵＮ－　　１０Ｊ
 50
0.0
 41
0.78125
 51
0.0
  7
KANJI6
  0
TEXT
  8
1
  6
CONTINUOUS
 62
     4
 10
182.32
 20
88.8
 30
0.0
 40
3.2
  1
４２５
 50
0.0
 41
0.78125
 51
0.0
  7
KANJI6
  0
TEXT
  8
1
  6
CONTINUOUS
 62
     4
 10
182.32
 20
81.8
 30
0.0
 40
3.2
  1
４６０
 50
0.0
 41
0.78125
 51
0.0
  7
KANJI6
  0
TEXT
  8
1
  6
CONTINUOUS
 62
     4
 10
182.32
 20
74.8
 30
0.0
 40
3.2
  1
４６０
 50
0.0
 41
0.78125
 51
0.0
  7
KANJI6
  0
TEXT
  8
1
  6
CONTINUOUS
 62
     4
 10
182.32
 20
67.8
 30
0.0
 40
3.2
  1
４６０
 50
0.0
 41
0.78125
 51
0.0
  7
KANJI6
  0
TEXT
  8
1
  6
CONTINUOUS
 62
     4
 10
182.32
 20
60.8
 30
0.0
 40
3.2
  1
５００
 50
0.0
 41
0.78125
 51
0.0
  7
KANJI6
  0
TEXT
  8
1
  6
CONTINUOUS
 62
     4
 10
182.32
 20
53.8
 30
0.0
 40
3.2
  1
５００
 50
0.0
 41
0.78125
 51
0.0
  7
KANJI6
  0
LINE
  8
1
  6
LTYPE2
 62
     3
 10
332.73
 20
32.24
 11
333.03
 21
32.54
  0
LINE
  8
1
  6
LTYPE2
 62
     3
 10
332.73
 20
25.84
 11
333.03
 21
25.54
  0
LINE
  8
1
  6
LTYPE2
 62
     3
 10
332.73
 20
25.84
 11
332.73
 21
32.24
  0
LINE
  8
0
  6
LTYPE1
 62
     2
 10
52.2517
 20
208.125
 11
141.2
 21
208.125
  0
CIRCLE
  8
0
  6
CONTINUOUS
 62
     3
 10
97.18
 20
208.125
 40
18.19
  0
CIRCLE
  8
0
  6
CONTINUOUS
 62
     3
 10
97.18
 20
208.125
 40
26.7033
  0
CIRCLE
  8
0
  6
LTYPE1
 62
     2
 10
97.18
 20
208.125
 40
24.1983
  0
CIRCLE
  8
0
  6
CONTINUOUS
 62
     3
 10
121.3767
 20
208.125
 40
1.335
  0
LINE
  8
0
  6
CONTINUOUS
 62
     3
 10
121.7717
 20
208.8033
 11
122.1584
 21
208.125
  0
LINE
  8
0
  6
CONTINUOUS
 62
     3
 10
120.5934
 20
208.125
 11
120.98
 21
207.4416
  0
CIRCLE
  8
0
  6
CONTINUOUS
 62
     3
 10
121.3767
 20
208.125
 40
0.7833
  0
LINE
  8
0
  6
CONTINUOUS
 62
     3
 10
120.5934
 20
208.125
 11
120.98
 21
208.8033
  0
LINE
  8
0
  6
CONTINUOUS
 62
     3
 10
120.98
 20
208.8033
 11
121.7717
 21
208.8033
  0
LINE
  8
0
  6
CONTINUOUS
 62
     3
 10
121.7717
 20
207.4416
 11
122.1584
 21
208.125
  0
LINE
  8
0
  6
CONTINUOUS
 62
     3
 10
120.98
 20
207.4416
 11
121.7717
 21
207.4416
  0
CIRCLE
  8
0
  6
CONTINUOUS
 62
     3
 10
118.1384
 20
220.225
 40
1.335
  0
LINE
  8
0
  6
CONTINUOUS
 62
     3
 10
118.8117
 20
219.8283
 11
118.8117
 21
220.6116
  0
LINE
  8
0
  6
CONTINUOUS
 62
     3
 10
117.455
 20
219.8283
 11
118.1384
 21
219.4416
  0
CIRCLE
  8
0
  6
CONTINUOUS
 62
     3
 10
118.1384
 20
220.225
 40
0.7833
  0
LINE
  8
0
  6
LTYPE1
 62
     2
 10
116.3984
 20
219.22
 11
119.8934
 21
221.2383
  0
LINE
  8
0
  6
CONTINUOUS
 62
     3
 10
117.455
 20
220.6116
 11
118.1384
 21
221.0066
  0
LINE
  8
0
  6
CONTINUOUS
 62
     3
 10
117.455
 20
219.8283
 11
117.455
 21
220.6116
  0
LINE
  8
0
  6
CONTINUOUS
 62
     3
 10
118.1384
 20
221.0066
 11
118.8117
 21
220.6116
  0
LINE
  8
0
  6
CONTINUOUS
 62
     3
 10
118.1384
 20
219.4416
 11
118.8117
 21
219.8283
  0
CIRCLE
  8
0
  6
CONTINUOUS
 62
     3
 10
109.2784
 20
229.0833
 40
1.335
  0
LINE
  8
0
  6
CONTINUOUS
 62
     3
 10
109.6667
 20
229.7616
 11
110.0617
 21
229.0833
  0
LINE
  8
0
  6
CONTINUOUS
 62
     3
 10
108.8834
 20
228.4
 11
109.6667
 21
228.4
  0
CIRCLE
  8
0
  6
CONTINUOUS
 62
     3
 10
109.2784
 20
229.0833
 40
0.7833
  0
LINE
  8
0
  6
LTYPE1
 62
     2
 10
108.2717
 20
227.345
 11
110.2917
 21
230.84
  0
LINE
  8
0
  6
CONTINUOUS
 62
     3
 10
108.495
 20
229.0833
 11
108.8834
 21
229.7616
  0
LINE
  8
0
  6
CONTINUOUS
 62
     3
 10
108.495
 20
229.0833
 11
108.8834
 21
228.4
  0
LINE
  8
0
  6
CONTINUOUS
 62
     3
 10
108.8834
 20
229.7616
 11
109.6667
 21
229.7616
  0
LINE
  8
0
  6
CONTINUOUS
 62
     3
 10
109.6667
 20
228.4
 11
110.0617
 21
229.0833
  0
CIRCLE
  8
0
  6
CONTINUOUS
 62
     3
 10
97.18
 20
232.3233
 40
1.335
  0
LINE
  8
0
  6
CONTINUOUS
 62
     3
 10
97.18
 20
233.1066
 11
97.855
 21
232.72
  0
LINE
  8
0
  6
CONTINUOUS
 62
     3
 10
97.18
 20
231.5416
 11
97.855
 21
231.93
  0
CIRCLE
  8
0
  6
CONTINUOUS
 62
     3
 10
97.18
 20
232.3233
 40
0.7833
  0
LINE
  8
0
  6
CONTINUOUS
 62
     3
 10
96.4967
 20
231.93
 11
96.4967
 21
232.72
  0
LINE
  8
0
  6
CONTINUOUS
 62
     3
 10
96.4967
 20
231.93
 11
97.18
 21
231.5416
  0
LINE
  8
0
  6
CONTINUOUS
 62
     3
 10
96.4967
 20
232.72
 11
97.18
 21
233.1066
  0
LINE
  8
0
  6
CONTINUOUS
 62
     3
 10
97.855
 20
231.93
 11
97.855
 21
232.72
  0
CIRCLE
  8
0
  6
CONTINUOUS
 62
     3
 10
85.08
 20
229.0833
 40
1.335
  0
LINE
  8
0
  6
CONTINUOUS
 62
     3
 10
84.6834
 20
229.7616
 11
85.4684
 21
229.7616
  0
LINE
  8
0
  6
CONTINUOUS
 62
     3
 10
85.4684
 20
228.4
 11
85.8617
 21
229.0833
  0
CIRCLE
  8
0
  6
CONTINUOUS
 62
     3
 10
85.08
 20
229.0833
 40
0.7833
  0
LINE
  8
0
  6
LTYPE1
 62
     2
 10
84.0584
 20
230.84
 11
86.0867
 21
227.345
  0
LINE
  8
0
  6
CONTINUOUS
 62
     3
 10
84.29
 20
229.0833
 11
84.6834
 21
228.4
  0
LINE
  8
0
  6
CONTINUOUS
 62
     3
 10
84.6834
 20
228.4
 11
85.4684
 21
228.4
  0
LINE
  8
0
  6
CONTINUOUS
 62
     3
 10
84.29
 20
229.0833
 11
84.6834
 21
229.7616
  0
LINE
  8
0
  6
CONTINUOUS
 62
     3
 10
85.4684
 20
229.7616
 11
85.8617
 21
229.0833
  0
CIRCLE
  8
0
  6
CONTINUOUS
 62
     3
 10
76.2217
 20
220.225
 40
1.335
  0
LINE
  8
0
  6
CONTINUOUS
 62
     3
 10
75.5367
 20
220.6116
 11
76.2217
 21
221.0066
  0
LINE
  8
0
  6
CONTINUOUS
 62
     3
 10
76.8967
 20
219.8283
 11
76.8967
 21
220.6116
  0
CIRCLE
  8
0
  6
CONTINUOUS
 62
     3
 10
76.2217
 20
220.225
 40
0.7833
  0
LINE
  8
0
  6
LTYPE1
 62
     2
 10
74.4567
 20
221.2383
 11
77.9584
 21
219.22
  0
LINE
  8
0
  6
CONTINUOUS
 62
     3
 10
75.5367
 20
219.8283
 11
76.2217
 21
219.4416
  0
LINE
  8
0
  6
CONTINUOUS
 62
     3
 10
76.2217
 20
219.4416
 11
76.8967
 21
219.8283
  0
LINE
  8
0
  6
CONTINUOUS
 62
     3
 10
75.5367
 20
219.8283
 11
75.5367
 21
220.6116
  0
LINE
  8
0
  6
CONTINUOUS
 62
     3
 10
76.2217
 20
221.0066
 11
76.8967
 21
220.6116
  0
CIRCLE
  8
0
  6
CONTINUOUS
 62
     3
 10
72.975
 20
208.125
 40
1.335
  0
LINE
  8
0
  6
CONTINUOUS
 62
     3
 10
72.19
 20
208.125
 11
72.5867
 21
208.8033
  0
LINE
  8
0
  6
CONTINUOUS
 62
     3
 10
73.3684
 20
208.8033
 11
73.765
 21
208.125
  0
CIRCLE
  8
0
  6
CONTINUOUS
 62
     3
 10
72.975
 20
208.125
 40
0.7833
  0
LINE
  8
0
  6
CONTINUOUS
 62
     3
 10
72.5867
 20
207.4416
 11
73.3684
 21
207.4416
  0
LINE
  8
0
  6
CONTINUOUS
 62
     3
 10
73.3684
 20
207.4416
 11
73.765
 21
208.125
  0
LINE
  8
0
  6
CONTINUOUS
 62
     3
 10
72.19
 20
208.125
 11
72.5867
 21
207.4416
  0
LINE
  8
0
  6
CONTINUOUS
 62
     3
 10
72.5867
 20
208.8033
 11
73.3684
 21
208.8033
  0
CIRCLE
  8
0
  6
CONTINUOUS
 62
     3
 10
76.2217
 20
196.0266
 40
1.335
  0
LINE
  8
0
  6
CONTINUOUS
 62
     3
 10
75.5367
 20
195.6316
 11
75.5367
 21
196.415
  0
LINE
  8
0
  6
CONTINUOUS
 62
     3
 10
76.2217
 20
196.8116
 11
76.8967
 21
196.415
  0
CIRCLE
  8
0
  6
CONTINUOUS
 62
     3
 10
76.2217
 20
196.0266
 40
0.7833
  0
LINE
  8
0
  6
LTYPE1
 62
     2
 10
74.4567
 20
195.005
 11
77.9584
 21
197.0316
  0
LINE
  8
0
  6
CONTINUOUS
 62
     3
 10
76.2217
 20
195.235
 11
76.8967
 21
195.6316
  0
LINE
  8
0
  6
CONTINUOUS
 62
     3
 10
76.8967
 20
195.6316
 11
76.8967
 21
196.415
  0
LINE
  8
0
  6
CONTINUOUS
 62
     3
 10
75.5367
 20
195.6316
 11
76.2217
 21
195.235
  0
LINE
  8
0
  6
CONTINUOUS
 62
     3
 10
75.5367
 20
196.415
 11
76.2217
 21
196.8116
  0
CIRCLE
  8
0
  6
CONTINUOUS
 62
     3
 10
85.08
 20
187.1666
 40
1.335
  0
LINE
  8
0
  6
CONTINUOUS
 62
     3
 10
84.29
 20
187.1666
 11
84.6834
 21
186.4816
  0
LINE
  8
0
  6
CONTINUOUS
 62
     3
 10
84.6834
 20
187.8416
 11
85.4684
 21
187.8416
  0
CIRCLE
  8
0
  6
CONTINUOUS
 62
     3
 10
85.08
 20
187.1666
 40
0.7833
  0
LINE
  8
0
  6
LTYPE1
 62
     2
 10
84.0584
 20
185.4033
 11
86.0867
 21
188.9066
  0
LINE
  8
0
  6
CONTINUOUS
 62
     3
 10
85.4684
 20
186.4816
 11
85.8617
 21
187.1666
  0
LINE
  8
0
  6
CONTINUOUS
 62
     3
 10
85.4684
 20
187.8416
 11
85.8617
 21
187.1666
  0
LINE
  8
0
  6
CONTINUOUS
 62
     3
 10
84.6834
 20
186.4816
 11
85.4684
 21
186.4816
  0
LINE
  8
0
  6
CONTINUOUS
 62
     3
 10
84.29
 20
187.1666
 11
84.6834
 21
187.8416
  0
CIRCLE
  8
0
  6
CONTINUOUS
 62
     3
 10
97.18
 20
183.9283
 40
1.335
  0
LINE
  8
0
  6
CONTINUOUS
 62
     3
 10
96.4967
 20
183.5316
 11
97.18
 21
183.1383
  0
LINE
  8
0
  6
CONTINUOUS
 62
     3
 10
96.4967
 20
184.3133
 11
97.18
 21
184.71
  0
CIRCLE
  8
0
  6
CONTINUOUS
 62
     3
 10
97.18
 20
183.9283
 40
0.7833
  0
LINE
  8
0
  6
CONTINUOUS
 62
     3
 10
97.855
 20
183.5316
 11
97.855
 21
184.3133
  0
LINE
  8
0
  6
CONTINUOUS
 62
     3
 10
97.18
 20
184.71
 11
97.855
 21
184.3133
  0
LINE
  8
0
  6
CONTINUOUS
 62
     3
 10
97.18
 20
183.1383
 11
97.855
 21
183.5316
  0
LINE
  8
0
  6
CONTINUOUS
 62
     3
 10
96.4967
 20
183.5316
 11
96.4967
 21
184.3133
  0
CIRCLE
  8
0
  6
CONTINUOUS
 62
     3
 10
109.2784
 20
187.1666
 40
1.335
  0
LINE
  8
0
  6
CONTINUOUS
 62
     3
 10
108.8834
 20
186.4816
 11
109.6667
 21
186.4816
  0
LINE
  8
0
  6
CONTINUOUS
 62
     3
 10
108.495
 20
187.1666
 11
108.8834
 21
187.8416
  0
CIRCLE
  8
0
  6
CONTINUOUS
 62
     3
 10
109.2784
 20
187.1666
 40
0.7833
  0
LINE
  8
0
  6
LTYPE1
 62
     2
 10
108.2717
 20
188.9066
 11
110.2917
 21
185.4033
  0
LINE
  8
0
  6
CONTINUOUS
 62
     3
 10
109.6667
 20
187.8416
 11
110.0617
 21
187.1666
  0
LINE
  8
0
  6
CONTINUOUS
 62
     3
 10
108.8834
 20
187.8416
 11
109.6667
 21
187.8416
  0
LINE
  8
0
  6
CONTINUOUS
 62
     3
 10
109.6667
 20
186.4816
 11
110.0617
 21
187.1666
  0
LINE
  8
0
  6
CONTINUOUS
 62
     3
 10
108.495
 20
187.1666
 11
108.8834
 21
186.4816
  0
CIRCLE
  8
0
  6
CONTINUOUS
 62
     3
 10
118.1384
 20
196.0266
 40
1.335
  0
LINE
  8
0
  6
CONTINUOUS
 62
     3
 10
118.1384
 20
195.235
 11
118.8117
 21
195.6316
  0
LINE
  8
0
  6
CONTINUOUS
 62
     3
 10
117.455
 20
195.6316
 11
117.455
 21
196.415
  0
CIRCLE
  8
0
  6
CONTINUOUS
 62
     3
 10
118.1384
 20
196.0266
 40
0.7833
  0
LINE
  8
0
  6
LTYPE1
 62
     2
 10
116.3984
 20
197.0316
 11
119.8934
 21
195.005
  0
LINE
  8
0
  6
CONTINUOUS
 62
     3
 10
118.1384
 20
196.8116
 11
118.8117
 21
196.415
  0
LINE
  8
0
  6
CONTINUOUS
 62
     3
 10
117.455
 20
196.415
 11
118.1384
 21
196.8116
  0
LINE
  8
0
  6
CONTINUOUS
 62
     3
 10
118.8117
 20
195.6316
 11
118.8117
 21
196.415
  0
LINE
  8
0
  6
CONTINUOUS
 62
     3
 10
117.455
 20
195.6316
 11
118.1384
 21
195.235
  0
LINE
  8
0
  6
CONTINUOUS
 62
     3
 10
55.51
 20
195.2766
 11
55.51
 21
220.8083
  0
ARC
  8
0
  6
CONTINUOUS
 62
     3
 10
63.3567
 20
195.2766
 40
7.8466
 50
180.0
 51
236.09388
  0
ARC
  8
0
  6
CONTINUOUS
 62
     3
 10
63.3567
 20
220.94
 40
7.8466
 50
90.0
 51
180.0
  0
LINE
  8
0
  6
LTYPE1
 62
     2
 10
54.405
 20
195.4583
 11
71.8934
 21
195.4583
  0
ARC
  8
0
  6
CONTINUOUS
 62
     3
 10
63.34
 20
195.4583
 40
6.675
 50
18.204192
 51
270.0
  0
CIRCLE
  8
0
  6
CONTINUOUS
 62
     3
 10
63.34
 20
220.7916
 40
6.675
  0
CIRCLE
  8
0
  6
CONTINUOUS
 62
     3
 10
63.34
 20
195.4583
 40
3.7566
  0
LINE
  8
0
  6
LTYPE1
 62
     2
 10
63.34
 20
187.5966
 11
63.34
 21
203.6333
  0
LINE
  8
0
  6
CONTINUOUS
 62
     3
 10
94.17
 20
171.4616
 11
100.18
 21
171.4616
  0
ARC
  8
0
  6
CONTINUOUS
 62
     3
 10
100.18
 20
171.7916
 40
0.3383
 50
270.0
 51
0.0
  0
ARC
  8
0
  6
CONTINUOUS
 62
     3
 10
94.17
 20
171.7916
 40
0.3383
 50
180.0
 51
270.0
  0
ARC
  8
0
  6
CONTINUOUS
 62
     3
 10
95.9267
 20
169.69
 40
0.42
 50
180.0
 51
0.0
  0
ARC
  8
0
  6
CONTINUOUS
 62
     3
 10
97.18
 20
170.3166
 40
1.0466
 50
216.66969
 51
323.05683
  0
ARC
  8
0
  6
CONTINUOUS
 62
     3
 10
96.0334
 20
168.7833
 40
0.5033
 50
317.55975
 51
96.552554
  0
LINE
  8
0
  6
CONTINUOUS
 62
     3
 10
96.3384
 20
169.69
 11
96.3384
 21
171.4616
  0
LINE
  8
0
  6
CONTINUOUS
 62
     3
 10
95.5067
 20
169.69
 11
95.5067
 21
171.4616
  0
LINE
  8
0
  6
CONTINUOUS
 62
     3
 10
96.1167
 20
169.2766
 11
98.2334
 21
169.2766
  0
ARC
  8
0
  6
CONTINUOUS
 62
     3
 10
98.4317
 20
169.69
 40
0.42
 50
180.0
 51
0.0
  0
ARC
  8
0
  6
CONTINUOUS
 62
     3
 10
98.3167
 20
168.7833
 40
0.5033
 50
82.494128
 51
222.44024
  0
LINE
  8
0
  6
CONTINUOUS
 62
     3
 10
98.0134
 20
169.69
 11
98.0134
 21
171.4616
  0
LINE
  8
0
  6
CONTINUOUS
 62
     3
 10
98.845
 20
169.69
 11
98.845
 21
171.4616
  0
ARC
  8
0
  6
CONTINUOUS
 62
     3
 10
97.18
 20
167.7433
 40
1.0466
 50
137.90428
 51
42.465292
  0
ARC
  8
0
  6
CONTINUOUS
 62
     3
 10
72.1784
 20
172.6233
 40
0.8316
 50
180.0
 51
270.0
  0
LINE
  8
0
  6
LTYPE1
 62
     2
 10
49.3684
 20
185.6266
 11
97.9467
 21
185.6266
  0
LINE
  8
0
  6
CONTINUOUS
 62
     3
 10
50.68
 20
182.7916
 11
50.68
 21
188.4616
  0
LINE
  8
0
  6
CONTINUOUS
 62
     3
 10
51.01
 20
186.4583
 11
51.01
 21
188.7983
  0
LINE
  8
0
  6
CONTINUOUS
 62
     3
 10
50.68
 20
182.7916
 11
51.01
 21
182.4533
  0
LINE
  8
0
  6
CONTINUOUS
 62
     3
 10
50.68
 20
188.4616
 11
51.01
 21
188.7983
  0
LINE
  8
0
  6
LTYPE1
 62
     2
 10
68.93
 20
174.2983
 11
77.855
 21
174.2983
  0
LINE
  8
0
  6
CONTINUOUS
 62
     3
 10
69.8467
 20
172.9616
 11
71.3467
 21
172.9616
  0
LINE
  8
0
  6
CONTINUOUS
 62
     3
 10
69.8467
 20
175.6316
 11
71.3467
 21
175.6316
  0
LINE
  8
0
  6
CONTINUOUS
 62
     3
 10
69.6817
 20
173.1266
 11
69.6817
 21
175.4666
  0
ARC
  8
0
  6
CONTINUOUS
 62
     3
 10
69.8467
 20
173.1266
 40
0.165
 50
180.0
 51
270.0
  0
ARC
  8
0
  6
CONTINUOUS
 62
     3
 10
69.8467
 20
175.4666
 40
0.165
 50
90.0
 51
180.0
  0
LINE
  8
0
  6
LTYPE1
 62
     2
 10
68.9384
 20
196.8883
 11
74.89
 21
196.8883
  0
LINE
  8
0
  6
CONTINUOUS
 62
     3
 10
69.8467
 20
195.5533
 11
71.3467
 21
195.5533
  0
LINE
  8
0
  6
CONTINUOUS
 62
     3
 10
69.8467
 20
198.225
 11
71.3467
 21
198.225
  0
LINE
  8
0
  6
CONTINUOUS
 62
     3
 10
69.6817
 20
195.7266
 11
69.6817
 21
198.06
  0
ARC
  8
0
  6
CONTINUOUS
 62
     3
 10
69.8467
 20
195.7266
 40
0.165
 50
180.0
 51
270.0
  0
ARC
  8
0
  6
CONTINUOUS
 62
     3
 10
69.8467
 20
198.06
 40
0.165
 50
90.0
 51
180.0
  0
LINE
  8
0
  6
CONTINUOUS
 62
     3
 10
50.68
 20
184.7933
 11
59.5234
 21
184.7933
  0
LINE
  8
0
  6
CONTINUOUS
 62
     3
 10
50.68
 20
186.4583
 11
59.5234
 21
186.4583
  0
LINE
  8
0
  6
CONTINUOUS
 62
     3
 10
71.01
 20
181.8683
 11
71.01
 21
189.385
  0
ARC
  8
0
  6
CONTINUOUS
 62
     3
 10
59.5234
 20
185.6266
 40
0.8316
 50
270.0
 51
90.0
  0
LINE
  8
0
  6
CONTINUOUS
 62
     3
 10
51.01
 20
182.4533
 11
51.01
 21
184.7933
  0
ARC
  8
0
  6
CONTINUOUS
 62
     3
 10
69.7167
 20
206.04
 40
0.8316
 50
4.0041729
 51
90.0
  0
ARC
  8
0
  6
CONTINUOUS
 62
     3
 10
69.7167
 20
210.21
 40
0.8316
 50
270.0
 51
355.53996
  0
ARC
  8
0
  6
CONTINUOUS
 62
     3
 10
56.3434
 20
206.04
 40
0.8316
 50
90.0
 51
180.0
  0
ARC
  8
0
  6
CONTINUOUS
 62
     3
 10
56.3434
 20
210.21
 40
0.8316
 50
180.0
 51
270.0
  0
LINE
  8
0
  6
CONTINUOUS
 62
     3
 10
123.0134
 20
172.5766
 11
123.0134
 21
198.5633
  0
LINE
  8
0
  6
LTYPE1
 62
     2
 10
96.4034
 20
185.6266
 11
144.99
 21
185.6266
  0
LINE
  8
0
  6
CONTINUOUS
 62
     3
 10
123.35
 20
181.8683
 11
123.35
 21
189.385
  0
LINE
  8
0
  6
CONTINUOUS
 62
     3
 10
143.6784
 20
182.7916
 11
143.6784
 21
188.4616
  0
LINE
  8
0
  6
CONTINUOUS
 62
     3
 10
143.35
 20
182.4533
 11
143.6784
 21
182.7916
  0
LINE
  8
0
  6
CONTINUOUS
 62
     3
 10
143.35
 20
182.4533
 11
143.35
 21
184.7933
  0
ARC
  8
0
  6
CONTINUOUS
 62
     3
 10
124.5134
 20
175.4666
 40
0.165
 50
0.0
 51
90.0
  0
LINE
  8
0
  6
CONTINUOUS
 62
     3
 10
123.0134
 20
175.6316
 11
124.5134
 21
175.6316
  0
LINE
  8
0
  6
LTYPE1
 62
     2
 10
116.8184
 20
174.2983
 11
125.745
 21
174.2983
  0
LINE
  8
0
  6
CONTINUOUS
 62
     3
 10
124.6784
 20
173.1266
 11
124.6784
 21
175.4666
  0
LINE
  8
0
  6
CONTINUOUS
 62
     3
 10
123.0134
 20
172.9616
 11
124.5134
 21
172.9616
  0
ARC
  8
0
  6
CONTINUOUS
 62
     3
 10
124.5134
 20
173.1266
 40
0.165
 50
270.0
 51
0.0
  0
ARC
  8
0
  6
CONTINUOUS
 62
     3
 10
122.1817
 20
172.6233
 40
0.8316
 50
270.0
 51
0.0
  0
LINE
  8
0
  6
CONTINUOUS
 62
     3
 10
138.8417
 20
195.2766
 11
138.8417
 21
220.8083
  0
ARC
  8
0
  6
CONTINUOUS
 62
     3
 10
131.01
 20
195.4583
 40
6.675
 50
179.24182
 51
270.0
  0
CIRCLE
  8
0
  6
CONTINUOUS
 62
     3
 10
131.01
 20
195.4583
 40
3.7566
  0
LINE
  8
0
  6
LTYPE1
 62
     2
 10
122.465
 20
195.4583
 11
139.8067
 21
195.4583
  0
ARC
  8
0
  6
CONTINUOUS
 62
     3
 10
130.9934
 20
195.2766
 40
7.8466
 50
303.96667
 51
0.0
  0
LINE
  8
0
  6
CONTINUOUS
 62
     3
 10
143.35
 20
186.4583
 11
143.35
 21
188.7983
  0
LINE
  8
0
  6
CONTINUOUS
 62
     3
 10
143.35
 20
188.7983
 11
143.6784
 21
188.4616
  0
LINE
  8
0
  6
CONTINUOUS
 62
     3
 10
123.0134
 20
195.5533
 11
124.5134
 21
195.5533
  0
LINE
  8
0
  6
LTYPE1
 62
     2
 10
119.4767
 20
196.8883
 11
125.4284
 21
196.8883
  0
LINE
  8
0
  6
CONTINUOUS
 62
     3
 10
123.0134
 20
198.225
 11
124.5134
 21
198.225
  0
LINE
  8
0
  6
CONTINUOUS
 62
     3
 10
124.6784
 20
195.7266
 11
124.6784
 21
198.06
  0
ARC
  8
0
  6
CONTINUOUS
 62
     3
 10
124.5134
 20
198.06
 40
0.165
 50
0.0
 51
90.0
  0
ARC
  8
0
  6
CONTINUOUS
 62
     3
 10
124.5134
 20
195.7266
 40
0.165
 50
270.0
 51
0.0
  0
ARC
  8
0
  6
CONTINUOUS
 62
     3
 10
138.0084
 20
206.04
 40
0.8316
 50
0.0
 51
90.0
  0
ARC
  8
0
  6
CONTINUOUS
 62
     3
 10
138.0084
 20
210.21
 40
0.8316
 50
270.0
 51
0.0
  0
CIRCLE
  8
0
  6
CONTINUOUS
 62
     3
 10
131.01
 20
220.7916
 40
3.7566
  0
CIRCLE
  8
0
  6
CONTINUOUS
 62
     3
 10
131.01
 20
220.7916
 40
6.675
  0
ARC
  8
0
  6
CONTINUOUS
 62
     3
 10
130.9934
 20
220.94
 40
7.8466
 50
0.0
 51
90.0
  0
LINE
  8
0
  6
CONTINUOUS
 62
     3
 10
114.0484
 20
228.7866
 11
131.0517
 21
228.7866
  0
ARC
  8
0
  6
CONTINUOUS
 62
     3
 10
124.6334
 20
206.04
 40
0.8316
 50
90.0
 51
175.99582
  0
ARC
  8
0
  6
CONTINUOUS
 62
     3
 10
124.6334
 20
210.21
 40
0.8316
 50
184.46004
 51
270.0
  0
LINE
  8
0
  6
LTYPE1
 62
     2
 10
131.01
 20
212.6166
 11
131.01
 21
229.8333
  0
LINE
  8
0
  6
LTYPE1
 62
     2
 10
63.34
 20
212.6166
 11
63.34
 21
230.0483
  0
LINE
  8
0
  6
LTYPE1
 62
     2
 10
97.18
 20
166.225
 11
97.18
 21
236.6583
  0
LINE
  8
0
  6
LTYPE1
 62
     2
 10
123.14
 20
220.7916
 11
139.8067
 21
220.7916
  0
LINE
  8
0
  6
LTYPE1
 62
     2
 10
54.405
 20
220.7916
 11
71.07
 21
220.7916
  0
LINE
  8
0
  6
LTYPE1
 62
     2
 10
131.01
 20
187.1583
 11
131.01
 21
202.8083
  0
ARC
  8
0
  6
CONTINUOUS
 62
     3
 10
63.34
 20
195.4583
 40
6.675
 50
270.0
 51
0.8296936
  0
LINE
  8
0
  6
LTYPE1
 62
     2
 10
119.015
 20
192.7633
 11
124.9584
 21
192.7633
  0
LINE
  8
0
  6
LTYPE1
 62
     2
 10
68.5567
 20
178.4216
 11
74.5084
 21
178.4216
  0
LINE
  8
0
  6
LTYPE1
 62
     2
 10
69.075
 20
192.7633
 11
75.025
 21
192.7633
  0
LINE
  8
0
  6
CONTINUOUS
 62
     3
 10
134.845
 20
184.7933
 11
143.6784
 21
184.7933
  0
LINE
  8
0
  6
CONTINUOUS
 62
     3
 10
134.845
 20
186.4583
 11
143.6784
 21
186.4583
  0
ARC
  8
0
  6
CONTINUOUS
 62
     3
 10
134.845
 20
185.6266
 40
0.8316
 50
90.0
 51
270.0
  0
LINE
  8
0
  6
CONTINUOUS
 62
     3
 10
60.4467
 20
209.3783
 11
70.5917
 21
210.5983
  0
LINE
  8
0
  6
CONTINUOUS
 62
     3
 10
60.4467
 20
206.8733
 11
70.5917
 21
205.6533
  0
LINE
  8
0
  6
CONTINUOUS
 62
     3
 10
123.7667
 20
205.6533
 11
133.9117
 21
206.8733
  0
LINE
  8
0
  6
CONTINUOUS
 62
     3
 10
123.7667
 20
210.5983
 11
133.9117
 21
209.3783
  0
LINE
  8
0
  6
CONTINUOUS
 62
     2
 10
63.34
 20
241.9616
 11
131.01
 21
241.9616
  0
LINE
  8
0
  6
CONTINUOUS
 62
     2
 10
131.01
 20
230.8333
 11
131.01
 21
243.4616
  0
LINE
  8
0
  6
CONTINUOUS
 62
     2
 10
63.34
 20
231.0483
 11
63.34
 21
243.4616
  0
LINE
  8
0
  6
CONTINUOUS
 62
     2
 10
129.01
 20
241.4241
 11
131.01
 21
241.96
  0
LINE
  8
0
  6
CONTINUOUS
 62
     2
 10
131.01
 20
241.96
 11
129.01
 21
242.4958
  0
LINE
  8
0
  6
CONTINUOUS
 62
     2
 10
65.34
 20
242.4958
 11
63.34
 21
241.96
  0
LINE
  8
0
  6
CONTINUOUS
 62
     2
 10
63.34
 20
241.96
 11
65.34
 21
241.4241
  0
TEXT
  8
0
  6
CONTINUOUS
 62
     4
 10
92.825
 20
242.9616
 30
0.0
 40
3.5
  1
４０６
 50
0.0
 41
0.8285714
 51
0.0
  7
KANJI0
  0
LINE
  8
0
  6
CONTINUOUS
 62
     2
 10
55.51
 20
251.9616
 11
138.8417
 21
251.9616
  0
LINE
  8
0
  6
CONTINUOUS
 62
     2
 10
138.8417
 20
221.8083
 11
138.8417
 21
253.4616
  0
LINE
  8
0
  6
CONTINUOUS
 62
     2
 10
55.51
 20
221.8083
 11
55.51
 21
253.4616
  0
LINE
  8
0
  6
CONTINUOUS
 62
     2
 10
136.85
 20
251.4241
 11
138.85
 21
251.96
  0
LINE
  8
0
  6
CONTINUOUS
 62
     2
 10
138.85
 20
251.96
 11
136.85
 21
252.4958
  0
LINE
  8
0
  6
CONTINUOUS
 62
     2
 10
57.51
 20
252.4958
 11
55.51
 21
251.96
  0
LINE
  8
0
  6
CONTINUOUS
 62
     2
 10
55.51
 20
251.96
 11
57.51
 21
251.4241
  0
TEXT
  8
0
  6
CONTINUOUS
 62
     4
 10
92.8259
 20
252.9616
 30
0.0
 40
3.5
  1
５００
 50
0.0
 41
0.8285714
 51
0.0
  7
KANJI0
  0
LINE
  8
0
  6
CONTINUOUS
 62
     3
 10
56.3434
 20
206.8733
 11
69.7167
 21
206.8733
  0
LINE
  8
0
  6
CONTINUOUS
 62
     3
 10
56.3434
 20
209.3783
 11
69.7167
 21
209.3783
  0
LINE
  8
0
  6
CONTINUOUS
 62
     3
 10
124.6334
 20
209.3783
 11
138.0084
 21
209.3783
  0
LINE
  8
0
  6
CONTINUOUS
 62
     3
 10
124.6334
 20
206.8733
 11
138.0084
 21
206.8733
  0
LINE
  8
0
  6
CONTINUOUS
 62
     3
 10
63.2984
 20
228.7866
 11
80.2634
 21
228.7866
  0
LINE
  8
0
  6
CONTINUOUS
 62
     3
 10
51.01
 20
188.7983
 11
71.01
 21
188.7983
  0
LINE
  8
0
  6
CONTINUOUS
 62
     3
 10
51.01
 20
182.4533
 11
71.01
 21
182.4533
  0
LINE
  8
0
  6
CONTINUOUS
 62
     3
 10
123.35
 20
188.7983
 11
143.35
 21
188.7983
  0
LINE
  8
0
  6
CONTINUOUS
 62
     3
 10
123.35
 20
182.4533
 11
143.35
 21
182.4533
  0
LINE
  8
0
  6
CONTINUOUS
 62
     2
 10
50.68
 20
141.7917
 11
143.6784
 21
141.7917
  0
LINE
  8
0
  6
CONTINUOUS
 62
     2
 10
143.6784
 20
181.7916
 11
143.6784
 21
140.2917
  0
LINE
  8
0
  6
CONTINUOUS
 62
     2
 10
50.68
 20
181.7916
 11
50.68
 21
140.2917
  0
LINE
  8
0
  6
CONTINUOUS
 62
     2
 10
141.68
 20
141.2642
 11
143.68
 21
141.8
  0
LINE
  8
0
  6
CONTINUOUS
 62
     2
 10
143.68
 20
141.8
 11
141.68
 21
142.3359
  0
LINE
  8
0
  6
CONTINUOUS
 62
     2
 10
52.68
 20
142.3359
 11
50.68
 21
141.8
  0
LINE
  8
0
  6
CONTINUOUS
 62
     2
 10
50.68
 20
141.8
 11
52.68
 21
141.2642
  0
TEXT
  8
0
  6
CONTINUOUS
 62
     4
 10
92.8292
 20
142.7917
 30
0.0
 40
3.5
  1
５５８
 50
0.0
 41
0.8285714
 51
0.0
  7
KANJI0
  0
LINE
  8
0
  6
CONTINUOUS
 62
     3
 10
74.18
 20
171.7916
 11
74.18
 21
194.5583
  0
LINE
  8
0
  6
CONTINUOUS
 62
     3
 10
72.1784
 20
171.7916
 11
97.4967
 21
171.7916
  0
LINE
  8
0
  6
CONTINUOUS
 62
     2
 10
50.68
 20
151.7916
 11
71.3384
 21
151.7916
  0
LINE
  8
0
  6
CONTINUOUS
 62
     2
 10
71.3384
 20
172.4116
 11
71.3384
 21
150.2916
  0
LINE
  8
0
  6
CONTINUOUS
 62
     2
 10
50.68
 20
181.7916
 11
50.68
 21
150.2916
  0
LINE
  8
0
  6
CONTINUOUS
 62
     2
 10
69.34
 20
151.2541
 11
71.34
 21
151.79
  0
LINE
  8
0
  6
CONTINUOUS
 62
     2
 10
71.34
 20
151.79
 11
69.34
 21
152.3258
  0
LINE
  8
0
  6
CONTINUOUS
 62
     2
 10
52.68
 20
152.3258
 11
50.68
 21
151.79
  0
LINE
  8
0
  6
CONTINUOUS
 62
     2
 10
50.68
 20
151.79
 11
52.68
 21
151.2541
  0
TEXT
  8
0
  6
CONTINUOUS
 62
     4
 10
56.6592
 20
152.7916
 30
0.0
 40
3.5
  1
１２４
 50
0.0
 41
0.8285714
 51
0.0
  7
KANJI0
  0
LINE
  8
0
  6
CONTINUOUS
 62
     3
 10
120.1767
 20
171.7916
 11
120.1767
 21
194.5516
  0
LINE
  8
0
  6
CONTINUOUS
 62
     3
 10
96.8634
 20
171.7916
 11
122.1817
 21
171.7916
  0
LINE
  8
0
  6
CONTINUOUS
 62
     2
 10
123.0134
 20
151.7916
 11
143.6784
 21
151.7916
  0
LINE
  8
0
  6
CONTINUOUS
 62
     2
 10
143.6784
 20
181.7916
 11
143.6784
 21
150.2916
  0
LINE
  8
0
  6
CONTINUOUS
 62
     2
 10
123.0134
 20
172.0733
 11
123.0134
 21
150.2916
  0
LINE
  8
0
  6
CONTINUOUS
 62
     2
 10
141.68
 20
151.2541
 11
143.68
 21
151.79
  0
LINE
  8
0
  6
CONTINUOUS
 62
     2
 10
143.68
 20
151.79
 11
141.68
 21
152.3258
  0
LINE
  8
0
  6
CONTINUOUS
 62
     2
 10
125.02
 20
152.3258
 11
123.02
 21
151.79
  0
LINE
  8
0
  6
CONTINUOUS
 62
     2
 10
123.02
 20
151.79
 11
125.02
 21
151.2541
  0
TEXT
  8
0
  6
CONTINUOUS
 62
     4
 10
128.9959
 20
152.7916
 30
0.0
 40
3.5
  1
１２４
 50
0.0
 41
0.8285714
 51
0.0
  7
KANJI0
  0
LINE
  8
0
  6
CONTINUOUS
 62
     3
 10
71.3467
 20
172.5083
 11
71.3467
 21
198.5633
  0
LINE
  8
0
  6
CONTINUOUS
 62
     2
 10
71.3467
 20
151.7916
 11
123.0134
 21
151.7916
  0
LINE
  8
0
  6
CONTINUOUS
 62
     2
 10
123.0134
 20
172.0733
 11
123.0134
 21
150.2916
  0
LINE
  8
0
  6
CONTINUOUS
 62
     2
 10
71.3467
 20
172.06
 11
71.3467
 21
150.2916
  0
LINE
  8
0
  6
CONTINUOUS
 62
     2
 10
121.02
 20
151.2541
 11
123.02
 21
151.79
  0
LINE
  8
0
  6
CONTINUOUS
 62
     2
 10
123.02
 20
151.79
 11
121.02
 21
152.3258
  0
LINE
  8
0
  6
CONTINUOUS
 62
     2
 10
73.35
 20
152.3258
 11
71.35
 21
151.79
  0
LINE
  8
0
  6
CONTINUOUS
 62
     2
 10
71.35
 20
151.79
 11
73.35
 21
151.2541
  0
TEXT
  8
0
  6
CONTINUOUS
 62
     4
 10
92.83
 20
152.7916
 30
0.0
 40
3.5
  1
３１０
 50
0.0
 41
0.8285714
 51
0.0
  7
KANJI0
  0
LINE
  8
0
  6
CONTINUOUS
 62
     3
 10
123.0134
 20
189.385
 11
123.35
 21
189.385
  0
LINE
  8
0
  6
CONTINUOUS
 62
     3
 10
123.0134
 20
181.8683
 11
123.35
 21
181.8683
  0
LINE
  8
0
  6
CONTINUOUS
 62
     3
 10
71.01
 20
189.385
 11
71.3467
 21
189.385
  0
LINE
  8
0
  6
CONTINUOUS
 62
     3
 10
71.01
 20
181.8683
 11
71.3467
 21
181.8683
  0
LINE
  8
0
  6
CONTINUOUS
 62
     2
 10
123.35
 20
161.7916
 11
143.6784
 21
161.7916
  0
LINE
  8
0
  6
CONTINUOUS
 62
     2
 10
143.6784
 20
181.7916
 11
143.6784
 21
160.2916
  0
LINE
  8
0
  6
CONTINUOUS
 62
     2
 10
123.35
 20
180.8683
 11
123.35
 21
160.2916
  0
LINE
  8
0
  6
CONTINUOUS
 62
     2
 10
141.68
 20
161.2541
 11
143.68
 21
161.79
  0
LINE
  8
0
  6
CONTINUOUS
 62
     2
 10
143.68
 20
161.79
 11
141.68
 21
162.3258
  0
LINE
  8
0
  6
CONTINUOUS
 62
     2
 10
125.35
 20
162.3258
 11
123.35
 21
161.79
  0
LINE
  8
0
  6
CONTINUOUS
 62
     2
 10
123.35
 20
161.79
 11
125.35
 21
161.2541
  0
TEXT
  8
0
  6
CONTINUOUS
 62
     4
 10
129.1642
 20
162.7916
 30
0.0
 40
3.5
  1
１２２
 50
0.0
 41
0.8285714
 51
0.0
  7
KANJI0
  0
LINE
  8
0
  6
CONTINUOUS
 62
     2
 10
50.68
 20
161.7916
 11
71.01
 21
161.7916
  0
LINE
  8
0
  6
CONTINUOUS
 62
     2
 10
71.01
 20
180.8683
 11
71.01
 21
160.2916
  0
LINE
  8
0
  6
CONTINUOUS
 62
     2
 10
50.68
 20
181.7916
 11
50.68
 21
160.2916
  0
LINE
  8
0
  6
CONTINUOUS
 62
     2
 10
69.01
 20
161.2541
 11
71.01
 21
161.79
  0
LINE
  8
0
  6
CONTINUOUS
 62
     2
 10
71.01
 20
161.79
 11
69.01
 21
162.3258
  0
LINE
  8
0
  6
CONTINUOUS
 62
     2
 10
52.68
 20
162.3258
 11
50.68
 21
161.79
  0
LINE
  8
0
  6
CONTINUOUS
 62
     2
 10
50.68
 20
161.79
 11
52.68
 21
161.2541
  0
TEXT
  8
0
  6
CONTINUOUS
 62
     4
 10
56.495
 20
162.7916
 30
0.0
 40
3.5
  1
１２２
 50
0.0
 41
0.8285714
 51
0.0
  7
KANJI0
  0
ARC
  8
0
  6
CONTINUOUS
 62
     3
 10
122.1817
 20
198.5633
 40
0.8316
 50
0.0
 51
74.432892
  0
ARC
  8
0
  6
CONTINUOUS
 62
     3
 10
72.1784
 20
198.5633
 40
0.8316
 50
105.5671
 51
180.0
  0
LINE
  8
0
  6
CONTINUOUS
 62
     2
 10
25.51
 20
171.7916
 11
25.51
 21
228.7866
  0
LINE
  8
0
  6
CONTINUOUS
 62
     2
 10
62.34
 20
228.7866
 11
24.01
 21
228.7866
  0
LINE
  8
0
  6
CONTINUOUS
 62
     2
 10
71.1784
 20
171.7916
 11
24.01
 21
171.7916
  0
LINE
  8
0
  6
CONTINUOUS
 62
     2
 10
26.0459
 20
226.78
 11
25.51
 21
228.78
  0
LINE
  8
0
  6
CONTINUOUS
 62
     2
 10
25.51
 20
228.78
 11
24.9742
 21
226.78
  0
LINE
  8
0
  6
CONTINUOUS
 62
     2
 10
24.9742
 20
173.79
 11
25.51
 21
171.79
  0
LINE
  8
0
  6
CONTINUOUS
 62
     2
 10
25.51
 20
171.79
 11
26.0459
 21
173.79
  0
TEXT
  8
0
  6
CONTINUOUS
 62
     4
 10
24.51
 20
195.9391
 30
0.0
 40
3.5
  1
３４２
 50
90.0
 41
0.8285714
 51
0.0
  7
KANJI0
  0
CIRCLE
  8
0
  6
CONTINUOUS
 62
     3
 10
63.34
 20
220.7916
 40
3.75
  0
LINE
  8
0
  6
CONTINUOUS
 62
     2
 10
38.1767
 20
234.3583
 11
60.04
 21
222.5716
  0
LINE
  8
0
  6
CONTINUOUS
 62
     2
 10
58.0253
 20
223.0473
 11
60.04
 21
222.57
  0
LINE
  8
0
  6
CONTINUOUS
 62
     2
 10
60.04
 20
222.57
 11
58.5339
 21
223.9907
  0
LINE
  8
0
  6
CONTINUOUS
 62
     2
 10
38.1767
 20
234.3583
 11
23.6767
 21
234.3583
  0
TEXT
  8
0
  6
CONTINUOUS
 62
     4
 10
23.6767
 20
235.3583
 30
0.0
 40
3.5
  1
４－φ４５
 50
0.0
 41
0.8285714
 51
0.0
  7
KANJI0
  0
ARC
  8
0
  6
CONTINUOUS
 62
     3
 10
131.01
 20
195.4583
 40
6.675
 50
270.0
 51
161.54243
  0
LINE
  8
0
  6
CONTINUOUS
 62
     2
 10
45.51
 20
185.6266
 11
45.51
 21
208.125
  0
LINE
  8
0
  6
CONTINUOUS
 62
     2
 10
51.2517
 20
208.125
 11
44.01
 21
208.125
  0
LINE
  8
0
  6
CONTINUOUS
 62
     2
 10
48.3684
 20
185.6266
 11
44.01
 21
185.6266
  0
LINE
  8
0
  6
CONTINUOUS
 62
     2
 10
46.0459
 20
206.12
 11
45.51
 21
208.12
  0
LINE
  8
0
  6
CONTINUOUS
 62
     2
 10
45.51
 20
208.12
 11
44.9742
 21
206.12
  0
LINE
  8
0
  6
CONTINUOUS
 62
     2
 10
44.9742
 20
187.62
 11
45.51
 21
185.62
  0
LINE
  8
0
  6
CONTINUOUS
 62
     2
 10
45.51
 20
185.62
 11
46.0459
 21
187.62
  0
TEXT
  8
0
  6
CONTINUOUS
 62
     4
 10
44.51
 20
197.1658
 30
0.0
 40
3.5
  1
１３５
 50
90.0
 41
0.8285714
 51
0.0
  7
KANJI0
  0
LINE
  8
0
  6
CONTINUOUS
 62
     2
 10
35.51
 20
220.7916
 11
35.51
 21
228.7866
  0
LINE
  8
0
  6
CONTINUOUS
 62
     2
 10
62.3567
 20
228.7866
 11
34.01
 21
228.7866
  0
LINE
  8
0
  6
CONTINUOUS
 62
     2
 10
53.405
 20
220.7916
 11
34.01
 21
220.7916
  0
LINE
  8
0
  6
CONTINUOUS
 62
     2
 10
36.0459
 20
226.78
 11
35.51
 21
228.78
  0
LINE
  8
0
  6
CONTINUOUS
 62
     2
 10
35.51
 20
228.78
 11
34.9742
 21
226.78
  0
LINE
  8
0
  6
CONTINUOUS
 62
     2
 10
34.9742
 20
222.79
 11
35.51
 21
220.79
  0
LINE
  8
0
  6
CONTINUOUS
 62
     2
 10
35.51
 20
220.79
 11
36.0459
 21
222.79
  0
TEXT
  8
0
  6
CONTINUOUS
 62
     4
 10
34.51
 20
221.8891
 30
0.0
 40
3.5
  1
４８
 50
90.0
 41
0.8285714
 51
0.0
  7
KANJI0
  0
LINE
  8
0
  6
CONTINUOUS
 62
     2
 10
35.51
 20
208.125
 11
35.51
 21
220.7916
  0
LINE
  8
0
  6
CONTINUOUS
 62
     2
 10
53.405
 20
220.7916
 11
34.01
 21
220.7916
  0
LINE
  8
0
  6
CONTINUOUS
 62
     2
 10
51.2517
 20
208.125
 11
34.01
 21
208.125
  0
LINE
  8
0
  6
CONTINUOUS
 62
     2
 10
36.0459
 20
218.79
 11
35.51
 21
220.79
  0
LINE
  8
0
  6
CONTINUOUS
 62
     2
 10
35.51
 20
220.79
 11
34.9742
 21
218.79
  0
LINE
  8
0
  6
CONTINUOUS
 62
     2
 10
34.9742
 20
210.12
 11
35.51
 21
208.12
  0
LINE
  8
0
  6
CONTINUOUS
 62
     2
 10
35.51
 20
208.12
 11
36.0459
 21
210.12
  0
TEXT
  8
0
  6
CONTINUOUS
 62
     4
 10
34.51
 20
211.5583
 30
0.0
 40
3.5
  1
７６
 50
90.0
 41
0.8285714
 51
0.0
  7
KANJI0
  0
LINE
  8
0
  6
CONTINUOUS
 62
     2
 10
35.51
 20
195.4583
 11
35.51
 21
208.125
  0
LINE
  8
0
  6
CONTINUOUS
 62
     2
 10
51.2517
 20
208.125
 11
34.01
 21
208.125
  0
LINE
  8
0
  6
CONTINUOUS
 62
     2
 10
53.405
 20
195.4583
 11
34.01
 21
195.4583
  0
LINE
  8
0
  6
CONTINUOUS
 62
     2
 10
36.0459
 20
206.12
 11
35.51
 21
208.12
  0
LINE
  8
0
  6
CONTINUOUS
 62
     2
 10
35.51
 20
208.12
 11
34.9742
 21
206.12
  0
LINE
  8
0
  6
CONTINUOUS
 62
     2
 10
34.9742
 20
197.45
 11
35.51
 21
195.45
  0
LINE
  8
0
  6
CONTINUOUS
 62
     2
 10
35.51
 20
195.45
 11
36.0459
 21
197.45
  0
TEXT
  8
0
  6
CONTINUOUS
 62
     4
 10
34.51
 20
198.8916
 30
0.0
 40
3.5
  1
７６
 50
90.0
 41
0.8285714
 51
0.0
  7
KANJI0
  0
ARC
  8
0
  6
CONTINUOUS
 62
     2
 10
153.5184
 20
186.0866
 40
8.3333
 50
134.31929
 51
225.0
  0
LINE
  8
0
  6
CONTINUOUS
 62
     2
 10
144.9167
 20
182.0966
 11
147.625
 21
180.1933
  0
LINE
  8
0
  6
CONTINUOUS
 62
     2
 10
146.6134
 20
183.2433
 11
147.6284
 21
180.1916
  0
TEXT
  8
0
  6
CONTINUOUS
 62
     4
 10
145.065
 20
175.6483
 30
0.0
 40
3.0
  1
反時計方向の回転
 50
0.0
 41
0.8333333
 51
0.0
  7
KANJI19
  0
LINE
  8
0
  6
CONTINUOUS
 62
     2
 10
98.03
 20
167.1316
 11
114.7867
 21
127.8734
  0
LINE
  8
0
  6
CONTINUOUS
 62
     2
 10
99.3081
 20
165.5009
 11
98.03
 21
167.13
  0
LINE
  8
0
  6
CONTINUOUS
 62
     2
 10
98.03
 20
167.13
 11
98.3223
 21
165.0801
  0
LINE
  8
0
  6
CONTINUOUS
 62
     2
 10
114.7867
 20
127.8734
 11
137.9867
 21
127.8734
  0
TEXT
  8
0
  6
CONTINUOUS
 62
     4
 10
114.7867
 20
128.8734
 30
0.0
 40
3.5
  1
グリ－スニップル
 50
0.0
 41
0.8285714
 51
0.0
  7
KANJI0
  0
TEXT
  8
0
  6
CONTINUOUS
 62
     4
 10
240.1116
 20
247.19
 30
0.0
 40
4.5
  1
スクリュ－出る
 50
0.0
 41
0.8888888
 51
0.0
  7
KANJI11
  0
LINE
  8
0
  6
CONTINUOUS
 62
     2
 10
266.5983
 20
245.5816
 11
238.065
 21
245.5816
  0
LINE
  8
0
  6
CONTINUOUS
 62
     2
 10
240.06
 20
246.1158
 11
238.06
 21
245.58
  0
LINE
  8
0
  6
CONTINUOUS
 62
     2
 10
238.06
 20
245.58
 11
240.06
 21
245.0441
  0
CIRCLE
  8
0
  6
CONTINUOUS
 62
     3
 10
97.18
 20
208.125
 40
7.5
  0
CIRCLE
  8
0
  6
CONTINUOUS
 62
     3
 10
97.18
 20
208.125
 40
9.8333
  0
CIRCLE
  8
0
  6
CONTINUOUS
 62
     2
 10
97.18
 20
208.125
 40
6.6
  0
LINE
  8
0
  6
CONTINUOUS
 62
     3
 10
325.435
 20
194.2916
 11
325.435
 21
221.9583
  0
LINE
  8
0
  6
CONTINUOUS
 62
     3
 10
278.6566
 20
221.9583
 11
325.435
 21
221.9583
  0
LINE
  8
0
  6
CONTINUOUS
 62
     3
 10
278.6566
 20
194.2916
 11
325.435
 21
194.2916
  0
LINE
  8
0
  6
CONTINUOUS
 62
     2
 10
335.435
 20
194.2916
 11
335.435
 21
221.9583
  0
LINE
  8
0
  6
CONTINUOUS
 62
     2
 10
326.435
 20
221.9583
 11
336.935
 21
221.9583
  0
LINE
  8
0
  6
CONTINUOUS
 62
     2
 10
326.435
 20
194.2916
 11
336.935
 21
194.2916
  0
LINE
  8
0
  6
CONTINUOUS
 62
     2
 10
335.9658
 20
219.95
 11
335.43
 21
221.95
  0
LINE
  8
0
  6
CONTINUOUS
 62
     2
 10
335.43
 20
221.95
 11
334.8941
 21
219.95
  0
LINE
  8
0
  6
CONTINUOUS
 62
     2
 10
334.8941
 20
196.29
 11
335.43
 21
194.29
  0
LINE
  8
0
  6
CONTINUOUS
 62
     2
 10
335.43
 20
194.29
 11
335.9658
 21
196.29
  0
TEXT
  8
0
  6
CONTINUOUS
 62
     4
 10
334.435
 20
202.325
 30
0.0
 40
3.5
  1
φ１６６
 50
90.0
 41
0.8285714
 51
0.0
  7
KANJI0
  0
LINE
  8
0
  6
CONTINUOUS
 62
     2
 10
35.51
 20
187.4583
 11
35.51
 21
195.4583
  0
LINE
  8
0
  6
CONTINUOUS
 62
     2
 10
53.405
 20
195.4583
 11
34.01
 21
195.4583
  0
LINE
  8
0
  6
CONTINUOUS
 62
     2
 10
50.01
 20
187.4583
 11
34.01
 21
187.4583
  0
LINE
  8
0
  6
CONTINUOUS
 62
     2
 10
36.0459
 20
193.45
 11
35.51
 21
195.45
  0
LINE
  8
0
  6
CONTINUOUS
 62
     2
 10
35.51
 20
195.45
 11
34.9742
 21
193.45
  0
LINE
  8
0
  6
CONTINUOUS
 62
     2
 10
34.9742
 20
189.45
 11
35.51
 21
187.45
  0
LINE
  8
0
  6
CONTINUOUS
 62
     2
 10
35.51
 20
187.45
 11
36.0459
 21
189.45
  0
TEXT
  8
0
  6
CONTINUOUS
 62
     4
 10
34.51
 20
188.5583
 30
0.0
 40
3.5
  1
４８
 50
90.0
 41
0.8285714
 51
0.0
  7
KANJI0
  0
LINE
  8
2
  6
LTYPE1
 62
     2
 10
75.555
 20
67.255
 11
97.385
 21
67.255
  0
LINE
  8
2
  6
LTYPE1
 62
     2
 10
86.47
 20
56.34
 11
86.47
 21
79.94
  0
LINE
  8
2
  6
CONTINUOUS
 62
     2
 10
83.95
 20
88.505
 11
88.99
 21
88.505
  0
LINE
  8
2
  6
CONTINUOUS
 62
     2
 10
88.99
 20
79.415
 11
88.99
 21
90.005
  0
LINE
  8
2
  6
CONTINUOUS
 62
     2
 10
83.95
 20
79.415
 11
83.95
 21
90.005
  0
LINE
  8
2
  6
CONTINUOUS
 62
     2
 10
86.99
 20
87.9742
 11
88.99
 21
88.51
  0
LINE
  8
2
  6
CONTINUOUS
 62
     2
 10
88.99
 20
88.51
 11
86.99
 21
89.0459
  0
LINE
  8
2
  6
CONTINUOUS
 62
     2
 10
85.95
 20
89.0459
 11
83.95
 21
88.51
  0
LINE
  8
2
  6
CONTINUOUS
 62
     2
 10
83.95
 20
88.51
 11
85.95
 21
87.9742
  0
TEXT
  8
2
  6
CONTINUOUS
 62
     4
 10
83.57
 20
89.505
 30
0.0
 40
3.5
  1
１０
 50
0.0
 41
0.8285714
 51
0.0
  7
KANJI0
  0
LINE
  8
2
  6
CONTINUOUS
 62
     3
 10
83.97
 20
78.505
 11
88.97
 21
78.505
  0
LINE
  8
2
  6
CONTINUOUS
 62
     2
 10
79.905
 20
74.115
 11
93.04
 21
60.395
  0
LINE
  8
2
  6
CONTINUOUS
 62
     2
 10
95.8062
 20
57.5057
 11
93.04
 21
60.395
  0
LINE
  8
2
  6
CONTINUOUS
 62
     2
 10
94.8102
 20
59.326
 11
93.04
 21
60.4
  0
LINE
  8
2
  6
CONTINUOUS
 62
     2
 10
93.04
 20
60.4
 11
94.036
 21
58.5848
  0
LINE
  8
2
  6
CONTINUOUS
 62
     2
 10
77.1389
 20
77.0044
 11
79.905
 21
74.115
  0
LINE
  8
2
  6
CONTINUOUS
 62
     2
 10
78.1399
 20
75.1941
 11
79.91
 21
74.12
  0
LINE
  8
2
  6
CONTINUOUS
 62
     2
 10
79.91
 20
74.12
 11
78.9141
 21
75.9353
  0
LINE
  8
2
  6
CONTINUOUS
 62
     2
 10
95.8066
 20
57.5061
 11
105.0746
 21
47.828
  0
TEXT
  8
2
  6
CONTINUOUS
 62
     4
 10
95.768
 20
58.9922
 30
0.0
 40
3.5
  1
φ３８
 50
313.76
 41
0.8285714
 51
0.0
  7
KANJI0
  0
TEXT
  8
2
  6
CONTINUOUS
 62
     4
 10
101.7853
 20
52.7087
 30
0.0
 40
3.5
  1
ｈ６
 50
313.76
 41
0.8285714
 51
0.0
  7
KANJI0
  0
LINE
  8
2
  6
CONTINUOUS
 62
     2
 10
41.97
 20
57.765
 11
41.97
 21
78.505
  0
LINE
  8
2
  6
CONTINUOUS
 62
     2
 10
82.97
 20
78.505
 11
40.47
 21
78.505
  0
LINE
  8
2
  6
CONTINUOUS
 62
     2
 10
85.07
 20
57.765
 11
40.47
 21
57.765
  0
LINE
  8
2
  6
CONTINUOUS
 62
     2
 10
42.5059
 20
76.51
 11
41.97
 21
78.51
  0
LINE
  8
2
  6
CONTINUOUS
 62
     2
 10
41.97
 20
78.51
 11
41.4342
 21
76.51
  0
LINE
  8
2
  6
CONTINUOUS
 62
     2
 10
41.4342
 20
59.77
 11
41.97
 21
57.77
  0
LINE
  8
2
  6
CONTINUOUS
 62
     2
 10
41.97
 20
57.77
 11
42.5059
 21
59.77
  0
TEXT
  8
2
  6
CONTINUOUS
 62
     4
 10
40.97
 20
63.205
 30
0.0
 40
3.5
  1
４１．５
 50
90.0
 41
0.8285714
 51
0.0
  7
KANJI0
  0
LINE
  8
2
  6
CONTINUOUS
 62
     2
 10
81.64
 20
45.92
 11
91.725
 21
45.92
  0
TEXT
  8
2
  6
CONTINUOUS
 62
     4
 10
81.89
 20
47.01
 30
0.0
 40
3.2
  1
入力軸
 50
0.0
 41
1.0
 51
0.0
  7
KANJI1
  0
LINE
  8
2
  6
CONTINUOUS
 62
     3
 10
83.97
 20
74.505
 11
88.97
 21
74.505
  0
LINE
  8
2
  6
CONTINUOUS
 62
     3
 10
88.97
 20
74.505
 11
88.97
 21
78.505
  0
LINE
  8
2
  6
CONTINUOUS
 62
     3
 10
83.97
 20
74.505
 11
83.97
 21
78.505
  0
LINE
  8
2
  6
CONTINUOUS
 62
     2
 10
61.97
 20
76.755
 11
61.97
 21
78.505
  0
LINE
  8
2
  6
CONTINUOUS
 62
     2
 10
82.97
 20
78.505
 11
60.47
 21
78.505
  0
LINE
  8
2
  6
CONTINUOUS
 62
     2
 10
85.47
 20
76.755
 11
60.47
 21
76.755
  0
LINE
  8
2
  6
CONTINUOUS
 62
     2
 10
61.97
 20
82.505
 11
61.97
 21
78.505
  0
LINE
  8
2
  6
CONTINUOUS
 62
     2
 10
61.4342
 20
80.51
 11
61.97
 21
78.51
  0
LINE
  8
2
  6
CONTINUOUS
 62
     2
 10
61.97
 20
78.51
 11
62.5059
 21
80.51
  0
LINE
  8
2
  6
CONTINUOUS
 62
     2
 10
61.97
 20
76.755
 11
61.97
 21
72.755
  0
LINE
  8
2
  6
CONTINUOUS
 62
     2
 10
62.5059
 20
74.76
 11
61.97
 21
76.76
  0
LINE
  8
2
  6
CONTINUOUS
 62
     2
 10
61.97
 20
76.76
 11
61.4342
 21
74.76
  0
LINE
  8
2
  6
CONTINUOUS
 62
     2
 10
61.97
 20
82.505
 11
61.97
 21
89.525
  0
TEXT
  8
2
  6
CONTINUOUS
 62
     4
 10
60.97
 20
80.825
 30
0.0
 40
3.5
  1
３．５
 50
90.0
 41
0.8285714
 51
0.0
  7
KANJI0
  0
LINE
  8
2
  6
CONTINUOUS
 62
     2
 10
51.97
 20
74.505
 11
51.97
 21
78.505
  0
LINE
  8
2
  6
CONTINUOUS
 62
     2
 10
82.97
 20
78.505
 11
50.47
 21
78.505
  0
LINE
  8
2
  6
CONTINUOUS
 62
     2
 10
82.97
 20
74.505
 11
50.47
 21
74.505
  0
LINE
  8
2
  6
CONTINUOUS
 62
     2
 10
51.97
 20
82.505
 11
51.97
 21
78.505
  0
LINE
  8
2
  6
CONTINUOUS
 62
     2
 10
51.4342
 20
80.51
 11
51.97
 21
78.51
  0
LINE
  8
2
  6
CONTINUOUS
 62
     2
 10
51.97
 20
78.51
 11
52.5059
 21
80.51
  0
LINE
  8
2
  6
CONTINUOUS
 62
     2
 10
51.97
 20
74.505
 11
51.97
 21
70.505
  0
LINE
  8
2
  6
CONTINUOUS
 62
     2
 10
52.5059
 20
72.51
 11
51.97
 21
74.51
  0
LINE
  8
2
  6
CONTINUOUS
 62
     2
 10
51.97
 20
74.51
 11
51.4342
 21
72.51
  0
TEXT
  8
2
  6
CONTINUOUS
 62
     4
 10
50.97
 20
75.055
 30
0.0
 40
3.5
  1
８
 50
90.0
 41
0.8285714
 51
0.0
  7
KANJI0
  0
ARC
  8
2
  6
CONTINUOUS
 62
     3
 10
86.47
 20
67.255
 40
9.5
 50
105.25776
 51
74.742236
  0
LINE
  8
0
  6
CONTINUOUS
 62
     3
 10
182.2734
 20
217.4616
 11
185.5767
 21
217.4616
  0
LINE
  8
0
  6
CONTINUOUS
 62
     3
 10
182.2734
 20
198.7883
 11
185.5767
 21
198.7883
  0
LINE
  8
0
  6
CONTINUOUS
 62
     3
 10
228.74
 20
218.7983
 11
231.9766
 21
218.7983
  0
LINE
  8
0
  6
CONTINUOUS
 62
     3
 10
228.74
 20
197.4583
 11
228.74
 21
218.7983
  0
LINE
  8
0
  6
CONTINUOUS
 62
     3
 10
227.85
 20
198.31
 11
227.85
 21
217.9466
  0
LINE
  8
0
  6
CONTINUOUS
 62
     3
 10
227.85
 20
217.9466
 11
228.74
 21
218.7983
  0
LINE
  8
0
  6
CONTINUOUS
 62
     3
 10
228.74
 20
197.4583
 11
231.9766
 21
197.4583
  0
LINE
  8
0
  6
CONTINUOUS
 62
     3
 10
227.85
 20
198.31
 11
228.74
 21
197.4583
  0
LINE
  8
0
  6
CONTINUOUS
 62
     3
 10
223.725
 20
221.2433
 11
225.7916
 21
224.785
  0
LINE
  8
0
  6
CONTINUOUS
 62
     3
 10
223.725
 20
194.9966
 11
225.7916
 21
191.4566
  0
LINE
  8
0
  6
CONTINUOUS
 62
     3
 10
221.6583
 20
224.785
 11
223.725
 21
221.2433
  0
LINE
  8
0
  6
CONTINUOUS
 62
     3
 10
221.6583
 20
191.4566
 11
223.725
 21
194.9966
  0
LINE
  8
0
  6
CONTINUOUS
 62
     3
 10
219.5916
 20
221.2433
 11
221.6583
 21
224.785
  0
LINE
  8
0
  6
CONTINUOUS
 62
     3
 10
219.5916
 20
194.9966
 11
221.6583
 21
191.4566
  0
LINE
  8
0
  6
CONTINUOUS
 62
     3
 10
215.465
 20
194.9966
 11
217.525
 21
191.4566
  0
LINE
  8
0
  6
CONTINUOUS
 62
     3
 10
217.525
 20
191.4566
 11
219.5916
 21
194.9966
  0
LINE
  8
0
  6
CONTINUOUS
 62
     3
 10
217.525
 20
224.785
 11
219.5916
 21
221.2433
  0
LINE
  8
0
  6
CONTINUOUS
 62
     3
 10
215.465
 20
221.2433
 11
217.525
 21
224.785
  0
LINE
  8
0
  6
CONTINUOUS
 62
     3
 10
211.3316
 20
194.9966
 11
213.3983
 21
191.4566
  0
LINE
  8
0
  6
CONTINUOUS
 62
     3
 10
213.3983
 20
191.4566
 11
215.465
 21
194.9966
  0
LINE
  8
0
  6
CONTINUOUS
 62
     3
 10
213.3983
 20
224.785
 11
215.465
 21
221.2433
  0
LINE
  8
0
  6
CONTINUOUS
 62
     3
 10
211.3316
 20
221.2433
 11
213.3983
 21
224.785
  0
LINE
  8
0
  6
CONTINUOUS
 62
     3
 10
207.1984
 20
194.9966
 11
209.265
 21
191.4566
  0
LINE
  8
0
  6
CONTINUOUS
 62
     3
 10
209.265
 20
191.4566
 11
211.3316
 21
194.9966
  0
LINE
  8
0
  6
CONTINUOUS
 62
     3
 10
209.265
 20
224.785
 11
211.3316
 21
221.2433
  0
LINE
  8
0
  6
CONTINUOUS
 62
     3
 10
207.1984
 20
221.2433
 11
209.265
 21
224.785
  0
LINE
  8
0
  6
CONTINUOUS
 62
     3
 10
203.0734
 20
194.9966
 11
205.1317
 21
191.4566
  0
LINE
  8
0
  6
CONTINUOUS
 62
     3
 10
205.1317
 20
191.4566
 11
207.1984
 21
194.9966
  0
LINE
  8
0
  6
CONTINUOUS
 62
     3
 10
205.1317
 20
224.785
 11
207.1984
 21
221.2433
  0
LINE
  8
0
  6
CONTINUOUS
 62
     3
 10
203.0734
 20
221.2433
 11
205.1317
 21
224.785
  0
LINE
  8
0
  6
CONTINUOUS
 62
     3
 10
198.94
 20
194.9966
 11
201.0067
 21
191.4566
  0
LINE
  8
0
  6
CONTINUOUS
 62
     3
 10
201.0067
 20
191.4566
 11
203.0734
 21
194.9966
  0
LINE
  8
0
  6
CONTINUOUS
 62
     3
 10
201.0067
 20
224.785
 11
203.0734
 21
221.2433
  0
LINE
  8
0
  6
CONTINUOUS
 62
     3
 10
198.94
 20
221.2433
 11
201.0067
 21
224.785
  0
LINE
  8
0
  6
CONTINUOUS
 62
     3
 10
194.8067
 20
194.9966
 11
196.8734
 21
191.4566
  0
LINE
  8
0
  6
CONTINUOUS
 62
     3
 10
196.8734
 20
191.4566
 11
198.94
 21
194.9966
  0
LINE
  8
0
  6
CONTINUOUS
 62
     3
 10
196.8734
 20
224.785
 11
198.94
 21
221.2433
  0
LINE
  8
0
  6
CONTINUOUS
 62
     3
 10
194.8067
 20
221.2433
 11
196.8734
 21
224.785
  0
LINE
  8
0
  6
CONTINUOUS
 62
     3
 10
190.68
 20
194.9966
 11
192.7467
 21
191.4566
  0
LINE
  8
0
  6
CONTINUOUS
 62
     3
 10
192.7467
 20
191.4566
 11
194.8067
 21
194.9966
  0
LINE
  8
0
  6
CONTINUOUS
 62
     3
 10
192.7467
 20
224.785
 11
194.8067
 21
221.2433
  0
LINE
  8
0
  6
CONTINUOUS
 62
     3
 10
190.68
 20
221.2433
 11
192.7467
 21
224.785
  0
LINE
  8
0
  6
CONTINUOUS
 62
     3
 10
186.5467
 20
200.2983
 11
186.5467
 21
215.9583
  0
LINE
  8
0
  6
CONTINUOUS
 62
     3
 10
188.6134
 20
191.4566
 11
190.68
 21
194.9966
  0
LINE
  8
0
  6
CONTINUOUS
 62
     3
 10
188.6134
 20
224.785
 11
190.68
 21
221.2433
  0
LINE
  8
0
  6
CONTINUOUS
 62
     3
 10
185.5767
 20
198.7883
 11
185.5767
 21
217.4616
  0
LINE
  8
0
  6
CONTINUOUS
 62
     3
 10
185.5767
 20
215.9583
 11
186.5467
 21
215.9583
  0
LINE
  8
0
  6
CONTINUOUS
 62
     3
 10
185.5767
 20
200.2983
 11
186.5467
 21
200.2983
  0
LINE
  8
0
  6
CONTINUOUS
 62
     3
 10
182.2734
 20
198.7883
 11
182.2734
 21
217.4616
  0
LINE
  8
0
  6
CONTINUOUS
 62
     3
 10
188.6134
 20
191.4566
 11
188.6134
 21
224.785
  0
LINE
  8
0
  6
CONTINUOUS
 62
     3
 10
190.68
 20
194.9966
 11
190.68
 21
221.2433
  0
LINE
  8
0
  6
CONTINUOUS
 62
     3
 10
192.7467
 20
191.4566
 11
192.7467
 21
224.785
  0
LINE
  8
0
  6
CONTINUOUS
 62
     3
 10
194.8067
 20
194.9966
 11
194.8067
 21
221.2433
  0
LINE
  8
0
  6
CONTINUOUS
 62
     3
 10
198.94
 20
194.9966
 11
198.94
 21
221.2433
  0
LINE
  8
0
  6
CONTINUOUS
 62
     3
 10
196.8734
 20
191.4566
 11
196.8734
 21
224.785
  0
LINE
  8
0
  6
CONTINUOUS
 62
     3
 10
201.0067
 20
191.4566
 11
201.0067
 21
224.785
  0
LINE
  8
0
  6
CONTINUOUS
 62
     3
 10
203.0734
 20
194.9966
 11
203.0734
 21
221.2433
  0
LINE
  8
0
  6
CONTINUOUS
 62
     3
 10
205.1317
 20
191.4566
 11
205.1317
 21
224.785
  0
LINE
  8
0
  6
CONTINUOUS
 62
     3
 10
207.1984
 20
194.9966
 11
207.1984
 21
221.2433
  0
LINE
  8
0
  6
CONTINUOUS
 62
     3
 10
209.265
 20
191.4566
 11
209.265
 21
224.785
  0
LINE
  8
0
  6
CONTINUOUS
 62
     3
 10
211.3316
 20
194.9966
 11
211.3316
 21
221.2433
  0
LINE
  8
0
  6
CONTINUOUS
 62
     3
 10
215.465
 20
194.9966
 11
215.465
 21
221.2433
  0
LINE
  8
0
  6
CONTINUOUS
 62
     3
 10
213.3983
 20
191.4566
 11
213.3983
 21
224.785
  0
LINE
  8
0
  6
CONTINUOUS
 62
     3
 10
217.525
 20
191.4566
 11
217.525
 21
224.785
  0
LINE
  8
0
  6
CONTINUOUS
 62
     3
 10
221.6583
 20
191.4566
 11
221.6583
 21
224.785
  0
LINE
  8
0
  6
CONTINUOUS
 62
     3
 10
219.5916
 20
194.9966
 11
219.5916
 21
221.2433
  0
LINE
  8
0
  6
CONTINUOUS
 62
     3
 10
223.725
 20
194.9966
 11
223.725
 21
221.2433
  0
LINE
  8
0
  6
CONTINUOUS
 62
     3
 10
225.7916
 20
191.4566
 11
225.7916
 21
224.785
  0
LINE
  8
0
  6
CONTINUOUS
 62
     3
 10
225.7916
 20
224.785
 11
227.85
 21
217.9466
  0
LINE
  8
0
  6
CONTINUOUS
 62
     3
 10
225.7916
 20
191.4566
 11
227.85
 21
198.31
  0
LINE
  8
0
  6
CONTINUOUS
 62
     2
 10
205.965
 20
191.4566
 11
205.965
 21
224.785
  0
LINE
  8
0
  6
CONTINUOUS
 62
     2
 10
205.965
 20
224.785
 11
207.465
 21
224.785
  0
LINE
  8
0
  6
CONTINUOUS
 62
     2
 10
205.965
 20
191.4566
 11
207.465
 21
191.4566
  0
LINE
  8
0
  6
CONTINUOUS
 62
     2
 10
205.965
 20
228.785
 11
205.965
 21
224.785
  0
LINE
  8
0
  6
CONTINUOUS
 62
     2
 10
205.4342
 20
226.78
 11
205.97
 21
224.78
  0
LINE
  8
0
  6
CONTINUOUS
 62
     2
 10
205.97
 20
224.78
 11
206.5059
 21
226.78
  0
LINE
  8
0
  6
CONTINUOUS
 62
     2
 10
205.965
 20
191.4566
 11
205.965
 21
187.4566
  0
LINE
  8
0
  6
CONTINUOUS
 62
     2
 10
206.5059
 20
189.45
 11
205.97
 21
191.45
  0
LINE
  8
0
  6
CONTINUOUS
 62
     2
 10
205.97
 20
191.45
 11
205.4342
 21
189.45
  0
LINE
  8
0
  6
CONTINUOUS
 62
     2
 10
205.965
 20
228.785
 11
205.965
 21
239.285
  0
TEXT
  8
0
  6
CONTINUOUS
 62
     4
 10
204.965
 20
227.685
 30
0.0
 40
3.5
  1
φ２００
 50
90.0
 41
0.8285714
 51
0.0
  7
KANJI0
  0
LINE
  8
0
  6
CONTINUOUS
 62
     3
 10
168.6067
 20
215.6183
 11
182.2734
 21
215.6183
  0
LINE
  8
0
  6
CONTINUOUS
 62
     1
 10
168.6067
 20
215.1216
 11
182.2734
 21
215.1216
  0
LINE
  8
0
  6
CONTINUOUS
 62
     1
 10
168.6067
 20
201.1366
 11
182.2734
 21
201.1366
  0
LINE
  8
0
  6
CONTINUOUS
 62
     3
 10
168.6067
 20
200.64
 11
182.2734
 21
200.64
  0
LINE
  8
0
  6
CONTINUOUS
 62
     2
 10
221.6583
 20
191.4566
 11
208.81
 21
169.6633
  0
LINE
  8
0
  6
CONTINUOUS
 62
     2
 10
221.0959
 20
189.4549
 11
221.65
 21
191.45
  0
LINE
  8
0
  6
CONTINUOUS
 62
     2
 10
221.65
 20
191.45
 11
220.1726
 21
189.9992
  0
LINE
  8
0
  6
CONTINUOUS
 62
     2
 10
208.81
 20
169.6633
 11
197.21
 21
169.6633
  0
TEXT
  8
0
  6
CONTINUOUS
 62
     4
 10
197.21
 20
170.6633
 30
0.0
 40
3.5
  1
ジャバラ
 50
0.0
 41
0.8285714
 51
0.0
  7
KANJI0
  0
LINE
  8
0
  6
CONTINUOUS
 62
     2
 10
173.55
 20
215.6183
 11
178.5717
 21
230.1516
  0
LINE
  8
0
  6
CONTINUOUS
 62
     2
 10
173.6967
 20
217.6753
 11
173.55
 21
215.61
  0
LINE
  8
0
  6
CONTINUOUS
 62
     2
 10
173.55
 20
215.61
 11
174.7097
 21
217.3253
  0
LINE
  8
0
  6
CONTINUOUS
 62
     2
 10
178.5717
 20
230.1516
 11
195.9717
 21
230.1516
  0
TEXT
  8
0
  6
CONTINUOUS
 62
     4
 10
178.5717
 20
231.1516
 30
0.0
 40
3.5
  1
Ｍ９０　Ｐ２
 50
0.0
 41
0.8285714
 51
0.0
  7
KANJI0
  0
LINE
  8
0
  6
CONTINUOUS
 62
     3
 10
186.5467
 20
215.9583
 11
188.6134
 21
224.785
  0
LINE
  8
0
  6
CONTINUOUS
 62
     3
 10
186.5467
 20
200.2983
 11
188.6134
 21
191.4566
  0
LINE
  8
0
  6
CONTINUOUS
 62
     3
 10
168.6067
 20
200.64
 11
168.6067
 21
215.6033
  0
TEXT
  8
1
  6
CONTINUOUS
 62
     4
 10
197.43
 20
95.78
 30
0.0
 40
3.2
  1
　２００
 50
0.0
 41
0.78125
 51
0.0
  7
KANJI6
  0
TEXT
  8
1
  6
CONTINUOUS
 62
     4
 10
197.43
 20
88.78
 30
0.0
 40
3.2
  1
　３００
 50
0.0
 41
0.78125
 51
0.0
  7
KANJI6
  0
TEXT
  8
1
  6
CONTINUOUS
 62
     4
 10
197.43
 20
81.78
 30
0.0
 40
3.2
  1
　４００
 50
0.0
 41
0.78125
 51
0.0
  7
KANJI6
  0
TEXT
  8
1
  6
CONTINUOUS
 62
     4
 10
197.43
 20
74.78
 30
0.0
 40
3.2
  1
　５００
 50
0.0
 41
0.78125
 51
0.0
  7
KANJI6
  0
TEXT
  8
1
  6
CONTINUOUS
 62
     4
 10
197.43
 20
67.78
 30
0.0
 40
3.2
  1
　６００
 50
0.0
 41
0.78125
 51
0.0
  7
KANJI6
  0
TEXT
  8
1
  6
CONTINUOUS
 62
     4
 10
197.64
 20
53.77
 30
0.0
 40
3.2
  1
　９００
 50
0.0
 41
0.78125
 51
0.0
  7
KANJI6
  0
TEXT
  8
1
  6
CONTINUOUS
 62
     4
 10
197.56
 20
46.97
 30
0.0
 40
3.2
  1
１１００
 50
0.0
 41
0.78125
 51
0.0
  7
KANJI6
  0
TEXT
  8
1
  6
CONTINUOUS
 62
     4
 10
197.64
 20
60.77
 30
0.0
 40
3.2
  1
　７００
 50
0.0
 41
0.78125
 51
0.0
  7
KANJI6
  0
LINE
  8
1
  6
CONTINUOUS
 62
     3
 10
130.22
 20
38.16
 11
130.22
 21
108.16
  0
LINE
  8
1
  6
CONTINUOUS
 62
     3
 10
130.22
 20
108.16
 11
260.22
 21
108.16
  0
LINE
  8
1
  6
CONTINUOUS
 62
     3
 10
160.22
 20
38.16
 11
160.22
 21
108.16
  0
LINE
  8
1
  6
CONTINUOUS
 62
     3
 10
177.22
 20
38.16
 11
177.22
 21
108.16
  0
LINE
  8
1
  6
CONTINUOUS
 62
     3
 10
194.22
 20
38.16
 11
194.22
 21
108.16
  0
LINE
  8
1
  6
CONTINUOUS
 62
     3
 10
211.22
 20
38.16
 11
211.22
 21
108.16
  0
LINE
  8
1
  6
CONTINUOUS
 62
     3
 10
130.22
 20
94.16
 11
260.22
 21
94.16
  0
LINE
  8
1
  6
CONTINUOUS
 62
     3
 10
130.22
 20
101.16
 11
260.22
 21
101.16
  0
LINE
  8
1
  6
CONTINUOUS
 62
     3
 10
130.22
 20
87.16
 11
260.22
 21
87.16
  0
LINE
  8
1
  6
CONTINUOUS
 62
     3
 10
130.22
 20
80.16
 11
260.22
 21
80.16
  0
LINE
  8
1
  6
CONTINUOUS
 62
     3
 10
130.22
 20
45.16
 11
260.22
 21
45.16
  0
LINE
  8
1
  6
CONTINUOUS
 62
     3
 10
130.22
 20
52.16
 11
260.22
 21
52.16
  0
LINE
  8
1
  6
CONTINUOUS
 62
     3
 10
130.22
 20
59.16
 11
260.22
 21
59.16
  0
LINE
  8
1
  6
CONTINUOUS
 62
     3
 10
130.22
 20
66.16
 11
260.22
 21
66.16
  0
LINE
  8
1
  6
CONTINUOUS
 62
     3
 10
130.22
 20
73.16
 11
260.22
 21
73.16
  0
LINE
  8
1
  6
CONTINUOUS
 62
     3
 10
245.22
 20
38.16
 11
245.22
 21
108.16
  0
TEXT
  8
1
  6
CONTINUOUS
 62
     4
 10
162.72
 20
102.89
 30
0.0
 40
3.2
  1
ストローク
 50
0.0
 41
0.78125
 51
0.0
  7
KANJI6
  0
TEXT
  8
1
  6
CONTINUOUS
 62
     4
 10
161.22
 20
95.77
 30
0.0
 40
3.2
  1
　　１００
 50
0.0
 41
0.78125
 51
0.0
  7
KANJI6
  0
TEXT
  8
1
  6
CONTINUOUS
 62
     4
 10
161.22
 20
88.77
 30
0.0
 40
3.2
  1
　　２００
 50
0.0
 41
0.78125
 51
0.0
  7
KANJI6
  0
TEXT
  8
1
  6
CONTINUOUS
 62
     4
 10
161.22
 20
81.77
 30
0.0
 40
3.2
  1
　　３００
 50
0.0
 41
0.78125
 51
0.0
  7
KANJI6
  0
TEXT
  8
1
  6
CONTINUOUS
 62
     4
 10
161.22
 20
74.77
 30
0.0
 40
3.2
  1
　　４００
 50
0.0
 41
0.78125
 51
0.0
  7
KANJI6
  0
TEXT
  8
1
  6
CONTINUOUS
 62
     4
 10
161.22
 20
67.77
 30
0.0
 40
3.2
  1
　　５００
 50
0.0
 41
0.78125
 51
0.0
  7
KANJI6
  0
TEXT
  8
1
  6
CONTINUOUS
 62
     4
 10
161.22
 20
60.77
 30
0.0
 40
3.2
  1
　　６００
 50
0.0
 41
0.78125
 51
0.0
  7
KANJI6
  0
TEXT
  8
1
  6
CONTINUOUS
 62
     4
 10
161.22
 20
53.77
 30
0.0
 40
3.2
  1
　　８００
 50
0.0
 41
0.78125
 51
0.0
  7
KANJI6
  0
TEXT
  8
1
  6
CONTINUOUS
 62
     4
 10
163.85
 20
46.96
 30
0.0
 40
3.2
  1
１０００
 50
0.0
 41
0.78125
 51
0.0
  7
KANJI6
  0
LINE
  8
1
  6
CONTINUOUS
 62
     3
 10
228.22
 20
38.16
 11
228.22
 21
108.16
  0
TEXT
  8
1
  6
CONTINUOUS
 62
     4
 10
179.72
 20
103.08
 30
0.0
 40
3.2
  1
ｍｉｎ　ＬＵ
 50
0.0
 41
0.78125
 51
0.0
  7
KANJI6
  0
TEXT
  8
1
  6
CONTINUOUS
 62
     4
 10
199.22
 20
103.08
 30
0.0
 40
3.2
  1
ＬＣ
 50
0.0
 41
1.0
 51
0.0
  7
KANJI1
  0
TEXT
  8
1
  6
CONTINUOUS
 62
     4
 10
247.72
 20
102.89
 30
0.0
 40
3.2
  1
備考
 50
0.0
 41
1.0
 51
0.0
  7
KANJI1
  0
TEXT
  8
1
  6
CONTINUOUS
 62
     4
 10
230.82
 20
102.75
 30
0.0
 40
3.2
  1
概略重量
 50
0.0
 41
0.5625
 51
0.0
  7
KANJI15
  0
TEXT
  8
1
  6
CONTINUOUS
 62
     4
 10
238.71
 20
102.82
 30
0.0
 40
2.5
  1
（ｋｇ）
 50
0.0
 41
0.6
 51
0.0
  7
KANJI20
  0
TEXT
  8
1
  6
CONTINUOUS
 62
     4
 10
135.22
 20
102.94
 30
0.0
 40
3.2
  1
型式
 50
0.0
 41
1.0
 51
0.0
  7
KANJI1
  0
LINE
  8
1
  6
CONTINUOUS
 62
     3
 10
130.22
 20
66.16
 11
239.22
 21
66.16
  0
LINE
  8
1
  6
CONTINUOUS
 62
     3
 10
260.22
 20
38.16
 11
260.22
 21
108.16
  0
LINE
  8
1
  6
CONTINUOUS
 62
     3
 10
130.22
 20
38.16
 11
260.22
 21
38.16
  0
TEXT
  8
1
  6
CONTINUOUS
 62
     4
 10
211.22
 20
95.85
 30
0.0
 40
3.2
  1
　　１００
 50
0.0
 41
0.78125
 51
0.0
  7
KANJI6
  0
TEXT
  8
1
  6
CONTINUOUS
 62
     4
 10
213.55
 20
47.04
 30
0.0
 40
3.2
  1
　１００
 50
0.0
 41
0.78125
 51
0.0
  7
KANJI6
  0
TEXT
  8
1
  6
CONTINUOUS
 62
     4
 10
216.22
 20
103.08
 30
0.0
 40
3.2
  1
ＬＡ
 50
0.0
 41
1.0
 51
0.0
  7
KANJI1
  0
TEXT
  8
1
  6
CONTINUOUS
 62
     4
 10
211.22
 20
88.85
 30
0.0
 40
3.2
  1
　　１００
 50
0.0
 41
0.78125
 51
0.0
  7
KANJI6
  0
TEXT
  8
1
  6
CONTINUOUS
 62
     4
 10
211.22
 20
81.85
 30
0.0
 40
3.2
  1
　　１００
 50
0.0
 41
0.78125
 51
0.0
  7
KANJI6
  0
TEXT
  8
1
  6
CONTINUOUS
 62
     4
 10
211.22
 20
74.85
 30
0.0
 40
3.2
  1
　　１００
 50
0.0
 41
0.78125
 51
0.0
  7
KANJI6
  0
TEXT
  8
1
  6
CONTINUOUS
 62
     4
 10
211.22
 20
67.85
 30
0.0
 40
3.2
  1
　　１００
 50
0.0
 41
0.78125
 51
0.0
  7
KANJI6
  0
TEXT
  8
1
  6
CONTINUOUS
 62
     4
 10
211.22
 20
60.85
 30
0.0
 40
3.2
  1
　　１００
 50
0.0
 41
0.78125
 51
0.0
  7
KANJI6
  0
TEXT
  8
1
  6
CONTINUOUS
 62
     4
 10
211.22
 20
53.85
 30
0.0
 40
3.2
  1
　　１００
 50
0.0
 41
0.78125
 51
0.0
  7
KANJI6
  0
TEXT
  8
1
  6
CONTINUOUS
 62
     4
 10
290.96
 20
43.67
 30
0.0
 40
3.2
  1
田口
 50
0.0
 41
1.0
 51
0.0
  7
KANJI1
  0
TEXT
  8
1
  6
CONTINUOUS
 62
     4
 10
343.96
 20
196.65
 30
0.0
 40
3.2
  1
入力トルク（許容荷重時）
 50
0.0
 41
0.65625
 51
0.0
  7
KANJI12
  0
TEXT
  8
1
  6
CONTINUOUS
 62
     4
 10
343.73
 20
175.45
 30
0.0
 40
3.2
  1
発生ネジ軸トルク
 50
0.0
 41
1.0
 51
0.0
  7
KANJI1
  0
TEXT
  8
1
  6
CONTINUOUS
 62
     4
 10
385.28
 20
196.15
 30
0.0
 40
3.2
  1
８５
 50
0.0
 41
0.71875
 51
0.0
  7
KANJI13
  0
TEXT
  8
1
  6
CONTINUOUS
 62
     4
 10
382.78
 20
175.45
 30
0.0
 40
3.2
  1
５００
 50
0.0
 41
0.71875
 51
0.0
  7
KANJI13
  0
TEXT
  8
1
  6
CONTINUOUS
 62
     4
 10
182.43
 20
47.1
 30
0.0
 40
3.2
  1
５１０
 50
0.0
 41
0.78125
 51
0.0
  7
KANJI6
  0
TEXT
  8
0
  6
CONTINUOUS
 62
     4
 10
219.2884
 20
132.5917
 30
0.0
 40
3.5
  1
ｍｉｎ　ＬＵ
 50
0.0
 41
0.8285714
 51
0.0
  7
KANJI0
  0
TEXT
  8
0
  6
CONTINUOUS
 62
     4
 10
288.2625
 20
132.7917
 30
0.0
 40
3.5
  1
ＬＣ＝ストローク＋ＬＡ
 50
0.0
 41
0.8285714
 51
0.0
  7
KANJI0
  0
LINE
  8
1
  6
CONTINUOUS
 62
     2
 10
168.6067
 20
199.64
 11
168.6067
 21
130.0
  0
LINE
  8
1
  6
CONTINUOUS
 62
     2
 10
168.6067
 20
132.0
 11
171.021514566
 21
131.352952387
  0
LINE
  8
1
  6
CONTINUOUS
 62
     2
 10
168.6067
 20
132.0
 11
171.021514566
 21
132.647047613
  0
LINE
  8
1
  6
CONTINUOUS
 62
     2
 10
278.6566
 20
132.0
 11
276.241785434
 21
132.647047613
  0
LINE
  8
1
  6
CONTINUOUS
 62
     2
 10
278.6566
 20
132.0
 11
276.241785434
 21
131.352952387
  0
LINE
  8
1
  6
CONTINUOUS
 62
     2
 10
278.6566
 20
140.7917
 11
278.6566
 21
130.0
  0
LINE
  8
1
  6
CONTINUOUS
 62
     2
 10
278.6566
 20
132.0
 11
281.071414566
 21
131.352952387
  0
LINE
  8
1
  6
CONTINUOUS
 62
     2
 10
278.6566
 20
132.0
 11
281.071414566
 21
132.647047613
  0
LINE
  8
1
  6
CONTINUOUS
 62
     2
 10
168.6067
 20
132.0
 11
278.6566
 21
132.0
  0
LINE
  8
1
  6
CONTINUOUS
 62
     2
 10
325.435
 20
132.0
 11
323.020185434
 21
132.647047613
  0
LINE
  8
1
  6
CONTINUOUS
 62
     2
 10
325.435
 20
132.0
 11
323.020185434
 21
131.352952387
  0
LINE
  8
1
  6
CONTINUOUS
 62
     2
 10
278.6566
 20
132.0
 11
325.435
 21
132.0
  0
LINE
  8
1
  6
CONTINUOUS
 62
     2
 10
325.435
 20
193.2916
 11
325.435
 21
130.0
  0
ENDSEC
  0
EOF
