  0
SECTION
  2
HEADER
  9
$ACADVER
  1
AC1009
  9
$DWGCODEPAGE
  3
dos932
  9
$EXTMIN
 10
0.0
 20
0.0
 30
0.0
  9
$EXTMAX
 10
840.0
 20
594.0
 30
0.0
  9
$LIMMIN
 10
0.0
 20
0.0
  9
$LIMMAX
 10
840.0
 20
594.0
  9
$LTSCALE
 40
1.0
  9
$PDMODE
 70
     0
  0
ENDSEC
  0
SECTION
  2
TABLES
  0
TABLE
  2
VPORT
 70
     1
  0
VPORT
  2
*ACTIVE
 70
     0
 10
0.0
 20
0.0
 11
1.0
 21
1.0
 12
420.0
 22
297.0
 13
0.0
 23
0.0
 14
10.0
 24
10.0
 15
10.0
 25
10.0
 16
0.0
 26
0.0
 36
1.0
 17
0.0
 27
0.0
 37
0.0
 40
840.0
 41
1.414141414
 42
50.0
 43
0.0
 44
0.0
 50
0.0
 51
0.0
 71
     0
 72
  1000
 73
     1
 74
     3
 75
     0
 76
     0
 77
     0
 78
     0
  0
ENDTAB
  0
TABLE
  2
LTYPE
 70
     4
  0
LTYPE
  2
CONTINUOUS
 70
    64
  3
Solid line
 72
    65
 73
     0
 40
0.0
  0
LTYPE
  2
LTYPE1
 70
    64
  3
CENTER
 72
    65
 73
     4
 40
10.0
 49
7.0
 49
-1.0
 49
1.0
 49
-1.0
  0
LTYPE
  2
LTYPE2
 70
    64
  3
CENTER
 72
    65
 73
     4
 40
30.0
 49
21.0
 49
-3.0
 49
3.0
 49
-3.0
  0
LTYPE
  2
LTYPE3
 70
    64
  3
CENTER
 72
    65
 73
     4
 40
4.0
 49
2.8
 49
-0.4
 49
0.4
 49
-0.4
  0
ENDTAB
  0
TABLE
  2
LAYER
 70
   128
  0
LAYER
  2
0
 70
     0
 62
     7
  6
CONTINUOUS
  0
LAYER
  2
2
 70
     0
 62
     7
  6
CONTINUOUS
  0
LAYER
  2
3
 70
     0
 62
     7
  6
CONTINUOUS
  0
LAYER
  2
4
 70
     0
 62
     7
  6
CONTINUOUS
  0
LAYER
  2
5
 70
     0
 62
     7
  6
CONTINUOUS
  0
LAYER
  2
6
 70
     0
 62
     7
  6
CONTINUOUS
  0
LAYER
  2
7
 70
     0
 62
     7
  6
CONTINUOUS
  0
LAYER
  2
8
 70
     0
 62
     7
  6
CONTINUOUS
  0
LAYER
  2
9
 70
     0
 62
     7
  6
CONTINUOUS
  0
LAYER
  2
10
 70
     0
 62
     7
  6
CONTINUOUS
  0
LAYER
  2
11
 70
     0
 62
     7
  6
CONTINUOUS
  0
LAYER
  2
12
 70
     0
 62
     7
  6
CONTINUOUS
  0
LAYER
  2
13
 70
     0
 62
     7
  6
CONTINUOUS
  0
LAYER
  2
14
 70
     0
 62
     7
  6
CONTINUOUS
  0
LAYER
  2
15
 70
     0
 62
     7
  6
CONTINUOUS
  0
LAYER
  2
16
 70
     0
 62
     7
  6
CONTINUOUS
  0
LAYER
  2
17
 70
     0
 62
     7
  6
CONTINUOUS
  0
LAYER
  2
18
 70
     0
 62
     7
  6
CONTINUOUS
  0
LAYER
  2
19
 70
     0
 62
     7
  6
CONTINUOUS
  0
LAYER
  2
20
 70
     0
 62
     7
  6
CONTINUOUS
  0
LAYER
  2
21
 70
     0
 62
     7
  6
CONTINUOUS
  0
LAYER
  2
22
 70
     0
 62
     7
  6
CONTINUOUS
  0
LAYER
  2
23
 70
     0
 62
     7
  6
CONTINUOUS
  0
LAYER
  2
24
 70
     0
 62
     7
  6
CONTINUOUS
  0
LAYER
  2
25
 70
     0
 62
     7
  6
CONTINUOUS
  0
LAYER
  2
26
 70
     0
 62
     7
  6
CONTINUOUS
  0
LAYER
  2
27
 70
     0
 62
     7
  6
CONTINUOUS
  0
LAYER
  2
28
 70
     0
 62
     7
  6
CONTINUOUS
  0
LAYER
  2
29
 70
     0
 62
     7
  6
CONTINUOUS
  0
LAYER
  2
30
 70
     0
 62
     7
  6
CONTINUOUS
  0
LAYER
  2
31
 70
     0
 62
     7
  6
CONTINUOUS
  0
LAYER
  2
32
 70
     0
 62
     7
  6
CONTINUOUS
  0
LAYER
  2
33
 70
     0
 62
     7
  6
CONTINUOUS
  0
LAYER
  2
34
 70
     0
 62
     7
  6
CONTINUOUS
  0
LAYER
  2
35
 70
     0
 62
     7
  6
CONTINUOUS
  0
LAYER
  2
36
 70
     0
 62
     7
  6
CONTINUOUS
  0
LAYER
  2
37
 70
     0
 62
     7
  6
CONTINUOUS
  0
LAYER
  2
38
 70
     0
 62
     7
  6
CONTINUOUS
  0
LAYER
  2
39
 70
     0
 62
     7
  6
CONTINUOUS
  0
LAYER
  2
40
 70
     0
 62
     7
  6
CONTINUOUS
  0
LAYER
  2
41
 70
     0
 62
     7
  6
CONTINUOUS
  0
LAYER
  2
42
 70
     0
 62
     7
  6
CONTINUOUS
  0
LAYER
  2
43
 70
     0
 62
     7
  6
CONTINUOUS
  0
LAYER
  2
44
 70
     0
 62
     7
  6
CONTINUOUS
  0
LAYER
  2
45
 70
     0
 62
     7
  6
CONTINUOUS
  0
LAYER
  2
46
 70
     0
 62
     7
  6
CONTINUOUS
  0
LAYER
  2
47
 70
     0
 62
     7
  6
CONTINUOUS
  0
LAYER
  2
48
 70
     0
 62
     7
  6
CONTINUOUS
  0
LAYER
  2
49
 70
     0
 62
     7
  6
CONTINUOUS
  0
LAYER
  2
50
 70
     0
 62
     7
  6
CONTINUOUS
  0
LAYER
  2
51
 70
     0
 62
     7
  6
CONTINUOUS
  0
LAYER
  2
52
 70
     0
 62
     7
  6
CONTINUOUS
  0
LAYER
  2
53
 70
     0
 62
     7
  6
CONTINUOUS
  0
LAYER
  2
54
 70
     0
 62
     7
  6
CONTINUOUS
  0
LAYER
  2
55
 70
     0
 62
     7
  6
CONTINUOUS
  0
LAYER
  2
56
 70
     0
 62
     7
  6
CONTINUOUS
  0
LAYER
  2
57
 70
     0
 62
     7
  6
CONTINUOUS
  0
LAYER
  2
58
 70
     0
 62
     7
  6
CONTINUOUS
  0
LAYER
  2
59
 70
     0
 62
     7
  6
CONTINUOUS
  0
LAYER
  2
60
 70
     0
 62
     7
  6
CONTINUOUS
  0
LAYER
  2
61
 70
     0
 62
     7
  6
CONTINUOUS
  0
LAYER
  2
62
 70
     0
 62
     7
  6
CONTINUOUS
  0
LAYER
  2
63
 70
     0
 62
     7
  6
CONTINUOUS
  0
LAYER
  2
64
 70
     0
 62
     7
  6
CONTINUOUS
  0
LAYER
  2
65
 70
     0
 62
     7
  6
CONTINUOUS
  0
LAYER
  2
66
 70
     0
 62
     7
  6
CONTINUOUS
  0
LAYER
  2
67
 70
     0
 62
     7
  6
CONTINUOUS
  0
LAYER
  2
68
 70
     0
 62
     7
  6
CONTINUOUS
  0
LAYER
  2
69
 70
     0
 62
     7
  6
CONTINUOUS
  0
LAYER
  2
70
 70
     0
 62
     7
  6
CONTINUOUS
  0
LAYER
  2
71
 70
     0
 62
     7
  6
CONTINUOUS
  0
LAYER
  2
72
 70
     0
 62
     7
  6
CONTINUOUS
  0
LAYER
  2
73
 70
     0
 62
     7
  6
CONTINUOUS
  0
LAYER
  2
74
 70
     0
 62
     7
  6
CONTINUOUS
  0
LAYER
  2
75
 70
     0
 62
     7
  6
CONTINUOUS
  0
LAYER
  2
76
 70
     0
 62
     7
  6
CONTINUOUS
  0
LAYER
  2
77
 70
     0
 62
     7
  6
CONTINUOUS
  0
LAYER
  2
78
 70
     0
 62
     7
  6
CONTINUOUS
  0
LAYER
  2
79
 70
     0
 62
     7
  6
CONTINUOUS
  0
LAYER
  2
80
 70
     0
 62
     7
  6
CONTINUOUS
  0
LAYER
  2
81
 70
     0
 62
     7
  6
CONTINUOUS
  0
LAYER
  2
82
 70
     0
 62
     7
  6
CONTINUOUS
  0
LAYER
  2
83
 70
     0
 62
     7
  6
CONTINUOUS
  0
LAYER
  2
84
 70
     0
 62
     7
  6
CONTINUOUS
  0
LAYER
  2
85
 70
     0
 62
     7
  6
CONTINUOUS
  0
LAYER
  2
86
 70
     0
 62
     7
  6
CONTINUOUS
  0
LAYER
  2
87
 70
     0
 62
     7
  6
CONTINUOUS
  0
LAYER
  2
88
 70
     0
 62
     7
  6
CONTINUOUS
  0
LAYER
  2
89
 70
     0
 62
     7
  6
CONTINUOUS
  0
LAYER
  2
90
 70
     0
 62
     7
  6
CONTINUOUS
  0
LAYER
  2
91
 70
     0
 62
     7
  6
CONTINUOUS
  0
LAYER
  2
92
 70
     0
 62
     7
  6
CONTINUOUS
  0
LAYER
  2
93
 70
     0
 62
     7
  6
CONTINUOUS
  0
LAYER
  2
94
 70
     0
 62
     7
  6
CONTINUOUS
  0
LAYER
  2
95
 70
     0
 62
     7
  6
CONTINUOUS
  0
LAYER
  2
96
 70
     0
 62
     7
  6
CONTINUOUS
  0
LAYER
  2
97
 70
     0
 62
     7
  6
CONTINUOUS
  0
LAYER
  2
98
 70
     0
 62
     7
  6
CONTINUOUS
  0
LAYER
  2
99
 70
     0
 62
     7
  6
CONTINUOUS
  0
LAYER
  2
100
 70
     0
 62
     7
  6
CONTINUOUS
  0
LAYER
  2
101
 70
     0
 62
     7
  6
CONTINUOUS
  0
LAYER
  2
102
 70
     0
 62
     7
  6
CONTINUOUS
  0
LAYER
  2
103
 70
     0
 62
     7
  6
CONTINUOUS
  0
LAYER
  2
104
 70
     0
 62
     7
  6
CONTINUOUS
  0
LAYER
  2
105
 70
     0
 62
     7
  6
CONTINUOUS
  0
LAYER
  2
106
 70
     0
 62
     7
  6
CONTINUOUS
  0
LAYER
  2
107
 70
     0
 62
     7
  6
CONTINUOUS
  0
LAYER
  2
108
 70
     0
 62
     7
  6
CONTINUOUS
  0
LAYER
  2
109
 70
     0
 62
     7
  6
CONTINUOUS
  0
LAYER
  2
110
 70
     0
 62
     7
  6
CONTINUOUS
  0
LAYER
  2
111
 70
     0
 62
     7
  6
CONTINUOUS
  0
LAYER
  2
112
 70
     0
 62
     7
  6
CONTINUOUS
  0
LAYER
  2
113
 70
     0
 62
     7
  6
CONTINUOUS
  0
LAYER
  2
114
 70
     0
 62
     7
  6
CONTINUOUS
  0
LAYER
  2
115
 70
     0
 62
     7
  6
CONTINUOUS
  0
LAYER
  2
116
 70
     0
 62
     7
  6
CONTINUOUS
  0
LAYER
  2
117
 70
     0
 62
     7
  6
CONTINUOUS
  0
LAYER
  2
118
 70
     0
 62
     7
  6
CONTINUOUS
  0
LAYER
  2
119
 70
     0
 62
     7
  6
CONTINUOUS
  0
LAYER
  2
120
 70
     0
 62
     7
  6
CONTINUOUS
  0
LAYER
  2
121
 70
     0
 62
     7
  6
CONTINUOUS
  0
LAYER
  2
122
 70
     0
 62
     7
  6
CONTINUOUS
  0
LAYER
  2
123
 70
     0
 62
     7
  6
CONTINUOUS
  0
LAYER
  2
124
 70
     0
 62
     7
  6
CONTINUOUS
  0
LAYER
  2
125
 70
     0
 62
     7
  6
CONTINUOUS
  0
LAYER
  2
126
 70
     0
 62
     7
  6
CONTINUOUS
  0
LAYER
  2
127
 70
     0
 62
     7
  6
CONTINUOUS
  0
LAYER
  2
128
 70
     0
 62
     7
  6
CONTINUOUS
  0
ENDTAB
  0
TABLE
  2
STYLE
 70
    25
  0
STYLE
  2
STANDARD
 70
     0
 40
0.0
 41
1.0
 50
0.0
 71
     0
 42
0.2
  3
txt.shx
  4
extfont.shx
  0
STYLE
  2
KANJI0
 70
     0
 40
6.4
 41
1.0
 50
0.0
 71
     0
 42
6.4
  3
txt.shx
  4
extfont.shx
  0
STYLE
  2
KANJI1
 70
     0
 40
3.6
 41
0.9444444
 50
0.0
 71
     0
 42
3.6
  3
txt.shx
  4
extfont.shx
  0
STYLE
  2
KANJI2
 70
     0
 40
6.0
 41
0.916666667
 50
0.0
 71
     0
 42
6.0
  3
txt.shx
  4
extfont.shx
  0
STYLE
  2
KANJI3
 70
     0
 40
10.0
 41
1.0
 50
0.0
 71
     0
 42
10.0
  3
txt.shx
  4
extfont.shx
  0
STYLE
  2
KANJI4
 70
     0
 40
6.0666662
 41
0.42031746
 50
0.0
 71
     0
 42
6.0666662
  3
txt.shx
  4
extfont.shx
  0
STYLE
  2
KANJI5
 70
     0
 40
10.3999992
 41
0.9
 50
0.0
 71
     0
 42
10.3999992
  3
txt.shx
  4
extfont.shx
  0
STYLE
  2
KANJI6
 70
     0
 40
6.4
 41
0.78125
 50
0.0
 71
     0
 42
6.4
  3
txt.shx
  4
extfont.shx
  0
STYLE
  2
KANJI7
 70
     0
 40
14.0
 41
1.0
 50
0.0
 71
     0
 42
14.0
  3
txt.shx
  4
extfont.shx
  0
STYLE
  2
KANJI8
 70
     0
 40
9.0
 41
1.0
 50
0.0
 71
     0
 42
9.0
  3
txt.shx
  4
extfont.shx
  0
STYLE
  2
KANJI9
 70
     0
 40
7.2
 41
0.833333333
 50
0.0
 71
     0
 42
7.2
  3
txt.shx
  4
extfont.shx
  0
STYLE
  2
KANJI10
 70
     0
 40
6.0
 41
0.9
 50
0.0
 71
     0
 42
6.0
  3
txt.shx
  4
extfont.shx
  0
STYLE
  2
KANJI11
 70
     0
 40
6.4
 41
1.0
 50
0.0
 71
     0
 42
6.4
  3
txt.shx
  4
extfont.shx
  0
STYLE
  2
KANJI12
 70
     0
 40
6.4
 41
0.9375
 50
0.0
 71
     0
 42
6.4
  3
txt.shx
  4
extfont.shx
  0
STYLE
  2
KANJI13
 70
     0
 40
6.4
 41
0.90625
 50
0.0
 71
     0
 42
6.4
  3
txt.shx
  4
extfont.shx
  0
STYLE
  2
KANJI14
 70
     0
 40
8.0
 41
0.925
 50
0.0
 71
     0
 42
8.0
  3
txt.shx
  4
extfont.shx
  0
STYLE
  2
KANJI15
 70
     0
 40
9.0
 41
0.8888888
 50
0.0
 71
     0
 42
9.0
  3
txt.shx
  4
extfont.shx
  0
STYLE
  2
KANJI16
 70
     0
 40
6.4
 41
0.78125
 50
0.0
 71
     0
 42
6.4
  3
txt.shx
  4
extfont.shx
  0
STYLE
  2
KANJI17
 70
     0
 40
6.4
 41
0.5625
 50
0.0
 71
     0
 42
6.4
  3
txt.shx
  4
extfont.shx
  0
STYLE
  2
KANJI18
 70
     0
 40
5.0
 41
0.6
 50
0.0
 71
     0
 42
5.0
  3
txt.shx
  4
extfont.shx
  0
STYLE
  2
KANJI19
 70
     0
 40
6.4
 41
0.65625
 50
0.0
 71
     0
 42
6.4
  3
txt.shx
  4
extfont.shx
  0
STYLE
  2
KANJI20
 70
     0
 40
6.4
 41
0.71875
 50
0.0
 71
     0
 42
6.4
  3
txt.shx
  4
extfont.shx
  0
STYLE
  2
KANJI21
 70
     0
 40
6.4
 41
0.6875
 50
0.0
 71
     0
 42
6.4
  3
txt.shx
  4
extfont.shx
  0
STYLE
  2
KANJI22
 70
     0
 40
10.0
 41
0.8
 50
0.0
 71
     0
 42
10.0
  3
txt.shx
  4
extfont.shx
  0
STYLE
  2
KANJI23
 70
     0
 40
5.0
 41
1.0
 50
0.0
 71
     0
 42
5.0
  3
txt.shx
  4
extfont.shx
  0
ENDTAB
  0
TABLE
  2
VIEW
 70
     0
  0
ENDTAB
  0
ENDSEC
  0
SECTION
  2
BLOCKS
  0
ENDSEC
  0
SECTION
  2
ENTITIES
  0
LINE
  8
3
  6
CONTINUOUS
 62
     6
 10
28.5
 20
564.0
 30
0.0
 11
802.5
 21
564.0
 31
0.0
  0
LINE
  8
3
  6
CONTINUOUS
 62
     6
 10
28.5
 20
22.0
 30
0.0
 11
28.5
 21
564.0
 31
0.0
  0
TEXT
  8
3
  6
CONTINUOUS
 62
     4
 10
30.96
 20
39.66
 30
0.0
 40
6.4
  1
ＰＬ
 50
0.0
 41
1.0
 51
0.0
  7
KANJI0
  0
TEXT
  8
3
  6
CONTINUOUS
 62
     4
 10
31.34
 20
30.42
 30
0.0
 40
3.6
  1
ＰＡＲＴＳ　ＬＩＳＴ
 50
0.0
 41
0.9444444
 51
0.0
  7
KANJI1
  0
TEXT
  8
3
  6
CONTINUOUS
 62
     4
 10
31.78
 20
24.28
 30
0.0
 40
3.6
  1
部品表
 50
0.0
 41
0.9444444
 51
0.0
  7
KANJI1
  0
TEXT
  8
3
  6
CONTINUOUS
 62
     4
 10
120.36
 20
30.38
 30
0.0
 40
3.6
  1
ＮＯ．
 50
0.0
 41
0.9444444
 51
0.0
  7
KANJI1
  0
TEXT
  8
3
  6
CONTINUOUS
 62
     4
 10
120.06
 20
24.4
 30
0.0
 40
3.6
  1
項番
 50
0.0
 41
0.9444444
 51
0.0
  7
KANJI1
  0
LINE
  8
3
  6
CONTINUOUS
 62
     6
 10
28.36
 20
22.0
 30
0.0
 11
802.5
 21
22.0
 31
0.0
  0
LINE
  8
3
  6
CONTINUOUS
 62
     6
 10
28.5
 20
50.0
 30
0.0
 11
158.5
 21
50.0
 31
0.0
  0
LINE
  8
3
  6
CONTINUOUS
 62
     6
 10
28.5
 20
36.0
 30
0.0
 11
158.5
 21
36.0
 31
0.0
  0
LINE
  8
3
  6
CONTINUOUS
 62
     6
 10
158.5
 20
22.0
 30
0.0
 11
158.5
 21
50.0
 31
0.0
  0
LINE
  8
3
  6
CONTINUOUS
 62
     6
 10
118.5
 20
22.0
 30
0.0
 11
118.5
 21
50.0
 31
0.0
  0
TEXT
  8
0
  6
CONTINUOUS
 62
     3
 10
132.62
 20
11.14
 30
0.0
 40
6.0
  1
ＦＤ　Ｎｏ．ＡＪ１５
 50
0.0
 41
0.916666667
 51
0.0
  7
KANJI2
  0
TEXT
  8
3
  6
CONTINUOUS
 62
     4
 10
497.08
 20
24.28
 30
0.0
 40
3.6
  1
記事
 50
0.0
 41
0.9444444
 51
0.0
  7
KANJI1
  0
TEXT
  8
3
  6
CONTINUOUS
 62
     4
 10
547.5
 20
24.18
 30
0.0
 40
3.6
  1
尺度
 50
0.0
 41
0.9444444
 51
0.0
  7
KANJI1
  0
TEXT
  8
3
  6
CONTINUOUS
 62
     4
 10
488.84
 20
30.44
 30
0.0
 40
3.6
  1
ＤＥＳＣＲＩＰＴＩＯＮ
 50
0.0
 41
0.9444444
 51
0.0
  7
KANJI1
  0
TEXT
  8
3
  6
CONTINUOUS
 62
     4
 10
546.5
 20
30.38
 30
0.0
 40
3.6
  1
ＳＣＡＬＥ
 50
0.0
 41
0.9444444
 51
0.0
  7
KANJI1
  0
LINE
  8
3
  6
CONTINUOUS
 62
     6
 10
802.5
 20
22.0
 30
0.0
 11
802.5
 21
564.1
 31
0.0
  0
TEXT
  8
3
  6
CONTINUOUS
 62
     4
 10
404.64
 20
24.58
 30
0.0
 40
10.0
  1
△
 50
0.0
 41
1.0
 51
0.0
  7
KANJI3
  0
TEXT
  8
3
  6
CONTINUOUS
 62
     4
 10
426.08
 20
24.2
 30
0.0
 40
3.6
  1
日付
 50
0.0
 41
0.9444444
 51
0.0
  7
KANJI1
  0
TEXT
  8
3
  6
CONTINUOUS
 62
     4
 10
452.66
 20
24.26
 30
0.0
 40
3.6
  1
担当
 50
0.0
 41
0.9444444
 51
0.0
  7
KANJI1
  0
TEXT
  8
3
  6
CONTINUOUS
 62
     4
 10
426.14
 20
30.4
 30
0.0
 40
3.6
  1
ＤＡＴＥ
 50
0.0
 41
0.9444444
 51
0.0
  7
KANJI1
  0
TEXT
  8
3
  6
CONTINUOUS
 62
     4
 10
453.04
 20
30.38
 30
0.0
 40
3.6
  1
ＢＹ
 50
0.0
 41
0.9444444
 51
0.0
  7
KANJI1
  0
LINE
  8
3
  6
CONTINUOUS
 62
     4
 10
416.5
 20
22.0
 30
0.0
 11
416.5
 21
36.0
 31
0.0
  0
LINE
  8
3
  6
CONTINUOUS
 62
     4
 10
446.5
 20
22.0
 30
0.0
 11
446.5
 21
36.0
 31
0.0
  0
LINE
  8
3
  6
CONTINUOUS
 62
     4
 10
466.5
 20
22.0
 30
0.0
 11
466.5
 21
36.0
 31
0.0
  0
LINE
  8
3
  6
CONTINUOUS
 62
     6
 10
402.5
 20
22.0
 30
0.0
 11
402.5
 21
36.0
 31
0.0
  0
LINE
  8
3
  6
CONTINUOUS
 62
     6
 10
402.5
 20
36.0
 30
0.0
 11
542.5
 21
36.0
 31
0.0
  0
LINE
  8
0
  6
CONTINUOUS
 62
     4
 10
542.5
 20
36.0
 30
0.0
 11
604.5
 21
36.0
 31
0.0
  0
LINE
  8
3
  6
CONTINUOUS
 62
     6
 10
542.5
 20
22.0
 30
0.0
 11
542.5
 21
106.0
 31
0.0
  0
TEXT
  8
0
  6
CONTINUOUS
 62
     6
 10
606.2333332
 20
28.1333344
 30
0.0
 40
6.0666662
  1
ＵＮＩＴＥＣ　ＩＮＤＵＳＴＲＹ　ＣＯ．，ＬＴＤ．
 50
0.0
 41
0.42031746
 51
0.0
  7
KANJI4
  0
LINE
  8
0
  6
CONTINUOUS
 62
     6
 10
676.131661055
 20
29.52000096
 30
0.0
 11
671.555661407
 21
29.52000096
 31
0.0
  0
LINE
  8
0
  6
CONTINUOUS
 62
     6
 10
676.131661055
 20
30.352000896
 30
0.0
 11
671.555661407
 21
30.352000896
 31
0.0
  0
LINE
  8
0
  6
CONTINUOUS
 62
     6
 10
676.131661055
 20
29.52000096
 30
0.0
 11
680.707660703
 21
29.52000096
 31
0.0
  0
LINE
  8
0
  6
CONTINUOUS
 62
     6
 10
676.131661055
 20
30.352000896
 30
0.0
 11
680.707660703
 21
30.352000896
 31
0.0
  0
LINE
  8
0
  6
CONTINUOUS
 62
     6
 10
680.707660703
 20
30.352000896
 30
0.0
 11
680.707660703
 21
29.52000096
 31
0.0
  0
ARC
  8
0
  6
CONTINUOUS
 62
     6
 10
681.747660623
 20
29.936000928
 30
0.0
 40
4.15999968
 50
185.739170477
 51
90.0
  0
ARC
  8
0
  6
CONTINUOUS
 62
     6
 10
681.747660623
 20
29.936000928
 30
0.0
 40
4.991999616
 50
184.780191847
 51
90.0
  0
LINE
  8
0
  6
CONTINUOUS
 62
     6
 10
671.555661407
 20
29.52000096
 30
0.0
 11
671.555661407
 21
30.352000896
 31
0.0
  0
ARC
  8
0
  6
CONTINUOUS
 62
     6
 10
670.515661487
 20
29.936000928
 30
0.0
 40
4.15999968
 50
90.0
 51
354.260829523
  0
ARC
  8
0
  6
CONTINUOUS
 62
     6
 10
670.515661487
 20
29.936000928
 30
0.0
 40
4.991999616
 50
90.0
 51
355.219808153
  0
LINE
  8
0
  6
CONTINUOUS
 62
     6
 10
675.507661103
 20
34.928000544
 30
0.0
 11
675.507661103
 21
34.096000608
 31
0.0
  0
LINE
  8
0
  6
CONTINUOUS
 62
     6
 10
670.515661487
 20
34.096000608
 30
0.0
 11
675.507661103
 21
34.096000608
 31
0.0
  0
LINE
  8
0
  6
CONTINUOUS
 62
     6
 10
676.755661007
 20
34.928000544
 30
0.0
 11
676.755661007
 21
34.096000608
 31
0.0
  0
LINE
  8
0
  6
CONTINUOUS
 62
     6
 10
681.747660623
 20
34.096000608
 30
0.0
 11
676.755661007
 21
34.096000608
 31
0.0
  0
TEXT
  8
0
  6
CONTINUOUS
 62
     6
 10
688.998326655
 20
25.88000124
 30
1.03999992
 40
10.3999992
  1
ユニテック工業株式会社
 50
0.0
 41
0.9
 51
0.0
  7
KANJI5
  0
TEXT
  8
3
  6
CONTINUOUS
 62
     4
 10
547.5
 20
38.18
 30
0.0
 40
3.6
  1
日付
 50
0.0
 41
0.9444444
 51
0.0
  7
KANJI1
  0
TEXT
  8
3
  6
CONTINUOUS
 62
     4
 10
547.5
 20
52.26
 30
0.0
 40
3.6
  1
作図
 50
0.0
 41
0.9444444
 51
0.0
  7
KANJI1
  0
TEXT
  8
3
  6
CONTINUOUS
 62
     4
 10
547.5
 20
66.28
 30
0.0
 40
3.6
  1
設計
 50
0.0
 41
0.9444444
 51
0.0
  7
KANJI1
  0
TEXT
  8
3
  6
CONTINUOUS
 62
     4
 10
609.5
 20
52.26
 30
0.0
 40
3.6
  1
図面番号
 50
0.0
 41
0.9444444
 51
0.0
  7
KANJI1
  0
TEXT
  8
3
  6
CONTINUOUS
 62
     4
 10
609.5
 20
66.3
 30
0.0
 40
3.6
  1
製番
 50
0.0
 41
0.9444444
 51
0.0
  7
KANJI1
  0
TEXT
  8
3
  6
CONTINUOUS
 62
     4
 10
546.5
 20
44.38
 30
0.0
 40
3.6
  1
ＤＡＴＥ
 50
0.0
 41
0.9444444
 51
0.0
  7
KANJI1
  0
TEXT
  8
3
  6
CONTINUOUS
 62
     4
 10
546.5
 20
58.4
 30
0.0
 40
3.6
  1
ＤＲＡＷＮ
 50
0.0
 41
0.9444444
 51
0.0
  7
KANJI1
  0
TEXT
  8
3
  6
CONTINUOUS
 62
     4
 10
608.5
 20
58.4
 30
0.0
 40
3.6
  1
ＤＷＧ．ＮＯ．
 50
0.0
 41
0.9444444
 51
0.0
  7
KANJI1
  0
TEXT
  8
3
  6
CONTINUOUS
 62
     4
 10
751.3
 20
50.02
 30
0.0
 40
6.4
  1
－
 50
0.0
 41
0.78125
 51
0.0
  7
KANJI6
  0
TEXT
  8
3
  6
CONTINUOUS
 62
     4
 10
759.82
 20
47.16
 30
0.0
 40
14.0
  1
△
 50
0.0
 41
1.0
 51
0.0
  7
KANJI7
  0
LINE
  8
3
  6
LTYPE1
 62
     4
 10
665.02
 20
59.4
 30
0.0
 11
665.62
 21
60.0
 31
0.0
  0
LINE
  8
3
  6
LTYPE1
 62
     4
 10
676.02
 20
60.0
 30
0.0
 11
676.62
 21
59.4
 31
0.0
  0
LINE
  8
3
  6
LTYPE1
 62
     4
 10
676.62
 20
59.4
 30
0.0
 11
677.22
 21
60.0
 31
0.0
  0
LINE
  8
3
  6
LTYPE1
 62
     4
 10
687.62
 20
60.0
 30
0.0
 11
688.22
 21
59.4
 31
0.0
  0
LINE
  8
3
  6
LTYPE1
 62
     4
 10
688.22
 20
59.4
 30
0.0
 11
688.82
 21
60.0
 31
0.0
  0
LINE
  8
3
  6
LTYPE1
 62
     4
 10
699.22
 20
60.0
 30
0.0
 11
699.82
 21
59.4
 31
0.0
  0
LINE
  8
3
  6
LTYPE1
 62
     4
 10
699.82
 20
59.4
 30
0.0
 11
700.42
 21
60.0
 31
0.0
  0
LINE
  8
3
  6
LTYPE1
 62
     4
 10
710.82
 20
60.0
 30
0.0
 11
711.42
 21
59.4
 31
0.0
  0
LINE
  8
3
  6
LTYPE1
 62
     4
 10
711.42
 20
59.4
 30
0.0
 11
712.02
 21
60.0
 31
0.0
  0
LINE
  8
3
  6
LTYPE1
 62
     4
 10
722.42
 20
60.0
 30
0.0
 11
723.02
 21
59.4
 31
0.0
  0
LINE
  8
3
  6
LTYPE1
 62
     4
 10
723.02
 20
59.4
 30
0.0
 11
723.62
 21
60.0
 31
0.0
  0
LINE
  8
3
  6
LTYPE1
 62
     4
 10
734.02
 20
60.0
 30
0.0
 11
734.62
 21
59.4
 31
0.0
  0
LINE
  8
3
  6
LTYPE1
 62
     4
 10
734.62
 20
59.4
 30
0.0
 11
735.22
 21
60.0
 31
0.0
  0
LINE
  8
3
  6
LTYPE1
 62
     4
 10
745.62
 20
60.0
 30
0.0
 11
746.22
 21
59.4
 31
0.0
  0
LINE
  8
3
  6
LTYPE1
 62
     4
 10
735.22
 20
60.0
 30
0.0
 11
745.62
 21
60.0
 31
0.0
  0
LINE
  8
3
  6
LTYPE1
 62
     4
 10
723.62
 20
60.0
 30
0.0
 11
734.02
 21
60.0
 31
0.0
  0
LINE
  8
3
  6
LTYPE1
 62
     4
 10
712.02
 20
60.0
 30
0.0
 11
722.42
 21
60.0
 31
0.0
  0
LINE
  8
3
  6
LTYPE1
 62
     4
 10
700.42
 20
60.0
 30
0.0
 11
710.82
 21
60.0
 31
0.0
  0
LINE
  8
3
  6
LTYPE1
 62
     4
 10
688.82
 20
60.0
 30
0.0
 11
699.22
 21
60.0
 31
0.0
  0
LINE
  8
3
  6
LTYPE1
 62
     4
 10
677.22
 20
60.0
 30
0.0
 11
687.62
 21
60.0
 31
0.0
  0
LINE
  8
3
  6
LTYPE1
 62
     4
 10
665.62
 20
60.0
 30
0.0
 11
676.02
 21
60.0
 31
0.0
  0
LINE
  8
3
  6
LTYPE1
 62
     4
 10
665.02
 20
46.6
 30
0.0
 11
665.62
 21
46.0
 31
0.0
  0
LINE
  8
3
  6
LTYPE1
 62
     4
 10
676.02
 20
46.0
 30
0.0
 11
676.62
 21
46.6
 31
0.0
  0
LINE
  8
3
  6
LTYPE1
 62
     4
 10
676.62
 20
46.6
 30
0.0
 11
677.22
 21
46.0
 31
0.0
  0
LINE
  8
3
  6
LTYPE1
 62
     4
 10
687.62
 20
46.0
 30
0.0
 11
688.22
 21
46.6
 31
0.0
  0
LINE
  8
3
  6
LTYPE1
 62
     4
 10
688.22
 20
46.6
 30
0.0
 11
688.82
 21
46.0
 31
0.0
  0
LINE
  8
3
  6
LTYPE1
 62
     4
 10
699.22
 20
46.0
 30
0.0
 11
699.82
 21
46.6
 31
0.0
  0
LINE
  8
3
  6
LTYPE1
 62
     4
 10
699.82
 20
46.6
 30
0.0
 11
700.42
 21
46.0
 31
0.0
  0
LINE
  8
3
  6
LTYPE1
 62
     4
 10
710.82
 20
46.0
 30
0.0
 11
711.42
 21
46.6
 31
0.0
  0
LINE
  8
3
  6
LTYPE1
 62
     4
 10
711.42
 20
46.6
 30
0.0
 11
712.02
 21
46.0
 31
0.0
  0
LINE
  8
3
  6
LTYPE1
 62
     4
 10
722.42
 20
46.0
 30
0.0
 11
723.02
 21
46.6
 31
0.0
  0
LINE
  8
3
  6
LTYPE1
 62
     4
 10
723.02
 20
46.6
 30
0.0
 11
723.62
 21
46.0
 31
0.0
  0
LINE
  8
3
  6
LTYPE1
 62
     4
 10
734.02
 20
46.0
 30
0.0
 11
734.62
 21
46.6
 31
0.0
  0
LINE
  8
3
  6
LTYPE1
 62
     4
 10
734.62
 20
46.6
 30
0.0
 11
735.22
 21
46.0
 31
0.0
  0
LINE
  8
3
  6
LTYPE1
 62
     4
 10
745.62
 20
46.0
 30
0.0
 11
746.22
 21
46.6
 31
0.0
  0
LINE
  8
3
  6
LTYPE1
 62
     4
 10
735.22
 20
46.0
 30
0.0
 11
745.62
 21
46.0
 31
0.0
  0
LINE
  8
3
  6
LTYPE1
 62
     4
 10
723.62
 20
46.0
 30
0.0
 11
734.02
 21
46.0
 31
0.0
  0
LINE
  8
3
  6
LTYPE1
 62
     4
 10
712.02
 20
46.0
 30
0.0
 11
722.42
 21
46.0
 31
0.0
  0
LINE
  8
3
  6
LTYPE1
 62
     4
 10
700.42
 20
46.0
 30
0.0
 11
710.82
 21
46.0
 31
0.0
  0
LINE
  8
3
  6
LTYPE1
 62
     4
 10
688.82
 20
46.0
 30
0.0
 11
699.22
 21
46.0
 31
0.0
  0
LINE
  8
3
  6
LTYPE1
 62
     4
 10
677.22
 20
46.0
 30
0.0
 11
687.62
 21
46.0
 31
0.0
  0
LINE
  8
3
  6
LTYPE1
 62
     4
 10
665.62
 20
46.0
 30
0.0
 11
676.02
 21
46.0
 31
0.0
  0
LINE
  8
3
  6
LTYPE1
 62
     4
 10
746.22
 20
46.6
 30
0.0
 11
746.22
 21
59.4
 31
0.0
  0
LINE
  8
3
  6
LTYPE1
 62
     4
 10
734.62
 20
46.6
 30
0.0
 11
734.62
 21
59.4
 31
0.0
  0
LINE
  8
3
  6
LTYPE1
 62
     4
 10
723.02
 20
46.6
 30
0.0
 11
723.02
 21
59.4
 31
0.0
  0
LINE
  8
3
  6
LTYPE1
 62
     4
 10
711.42
 20
46.6
 30
0.0
 11
711.42
 21
59.4
 31
0.0
  0
LINE
  8
3
  6
LTYPE1
 62
     4
 10
699.82
 20
46.6
 30
0.0
 11
699.82
 21
59.4
 31
0.0
  0
LINE
  8
3
  6
LTYPE1
 62
     4
 10
688.22
 20
46.6
 30
0.0
 11
688.22
 21
59.4
 31
0.0
  0
LINE
  8
3
  6
LTYPE1
 62
     4
 10
676.62
 20
46.6
 30
0.0
 11
676.62
 21
59.4
 31
0.0
  0
LINE
  8
3
  6
LTYPE1
 62
     4
 10
665.02
 20
46.6
 30
0.0
 11
665.02
 21
59.4
 31
0.0
  0
TEXT
  8
3
  6
CONTINUOUS
 62
     2
 10
714.38
 20
66.72
 30
0.0
 40
9.0
  1
外形寸法図
 50
0.0
 41
1.0
 51
0.0
  7
KANJI8
  0
LINE
  8
3
  6
CONTINUOUS
 62
     4
 10
542.5
 20
50.0
 30
0.0
 11
604.5
 21
50.0
 31
0.0
  0
LINE
  8
3
  6
CONTINUOUS
 62
     4
 10
604.5
 20
42.0
 30
0.0
 11
802.5
 21
42.0
 31
0.0
  0
LINE
  8
3
  6
CONTINUOUS
 62
     4
 10
542.5
 20
64.0
 30
0.0
 11
802.5
 21
64.0
 31
0.0
  0
TEXT
  8
3
  6
CONTINUOUS
 62
     4
 10
547.5
 20
80.28
 30
0.0
 40
3.6
  1
検図
 50
0.0
 41
0.9444444
 51
0.0
  7
KANJI1
  0
TEXT
  8
3
  6
CONTINUOUS
 62
     4
 10
547.5
 20
94.3
 30
0.0
 40
3.6
  1
分類
 50
0.0
 41
0.9444444
 51
0.0
  7
KANJI1
  0
TEXT
  8
3
  6
CONTINUOUS
 62
     4
 10
609.5
 20
80.28
 30
0.0
 40
3.6
  1
機種
 50
0.0
 41
0.9444444
 51
0.0
  7
KANJI1
  0
TEXT
  8
3
  6
CONTINUOUS
 62
     4
 10
546.5
 20
72.38
 30
0.0
 40
3.6
  1
ＤＥＳＩＧＮ
 50
0.0
 41
0.9444444
 51
0.0
  7
KANJI1
  0
TEXT
  8
3
  6
CONTINUOUS
 62
     4
 10
546.5
 20
86.4
 30
0.0
 40
3.6
  1
ＣＨＥＣＫ
 50
0.0
 41
0.9444444
 51
0.0
  7
KANJI1
  0
TEXT
  8
3
  6
CONTINUOUS
 62
     4
 10
546.48
 20
100.38
 30
0.0
 40
3.6
  1
ＣＯＤＥ
 50
0.0
 41
0.9444444
 51
0.0
  7
KANJI1
  0
TEXT
  8
3
  6
CONTINUOUS
 62
     4
 10
608.5
 20
86.38
 30
0.0
 40
3.6
  1
ＴＹＰＥ
 50
0.0
 41
0.9444444
 51
0.0
  7
KANJI1
  0
TEXT
  8
3
  6
CONTINUOUS
 62
     4
 10
608.5
 20
72.38
 30
0.0
 40
3.6
  1
ＭＦＧ　ＮＯ．
 50
0.0
 41
0.9444444
 51
0.0
  7
KANJI1
  0
TEXT
  8
3
  6
CONTINUOUS
 62
     4
 10
682.4
 20
86.42
 30
0.0
 40
3.6
  1
ＴＩＴＬＥ
 50
0.0
 41
0.9444444
 51
0.0
  7
KANJI1
  0
TEXT
  8
3
  6
CONTINUOUS
 62
     4
 10
683.5
 20
80.16
 30
0.0
 40
3.6
  1
名称
 50
0.0
 41
0.9444444
 51
0.0
  7
KANJI1
  0
TEXT
  8
3
  6
CONTINUOUS
 62
     2
 10
704.6
 20
79.42
 30
0.0
 40
9.0
  1
マイティジャッキ
 50
0.0
 41
1.0
 51
0.0
  7
KANJI8
  0
LINE
  8
3
  6
CONTINUOUS
 62
     4
 10
542.5
 20
78.0
 30
0.0
 11
604.5
 21
78.0
 31
0.0
  0
LINE
  8
3
  6
CONTINUOUS
 62
     4
 10
609.5
 20
78.0
 30
0.0
 11
677.04
 21
78.0
 31
0.0
  0
LINE
  8
3
  6
CONTINUOUS
 62
     4
 10
609.5
 20
92.0
 30
0.0
 11
797.5
 21
92.0
 31
0.0
  0
LINE
  8
3
  6
CONTINUOUS
 62
     4
 10
542.5
 20
92.0
 30
0.0
 11
604.5
 21
92.0
 31
0.0
  0
LINE
  8
3
  6
CONTINUOUS
 62
     6
 10
542.5
 20
106.0
 30
0.0
 11
802.5
 21
106.0
 31
0.0
  0
TEXT
  8
0
  6
CONTINUOUS
 62
     6
 10
556.666646
 20
121.9333388
 30
2.0
 40
7.2
  1
ご用途
 50
0.0
 41
0.833333333
 51
0.0
  7
KANJI9
  0
TEXT
  8
0
  6
CONTINUOUS
 62
     6
 10
556.666646
 20
108.0666732
 30
2.0
 40
7.2
  1
ご注文主
 50
0.0
 41
0.833333333
 51
0.0
  7
KANJI9
  0
LINE
  8
0
  6
CONTINUOUS
 62
     6
 10
542.5
 20
106.0
 30
0.0
 11
542.5
 21
133.7333312
 31
0.0
  0
LINE
  8
0
  6
CONTINUOUS
 62
     6
 10
542.5
 20
133.7333312
 30
0.0
 11
802.5
 21
133.7333312
 31
0.0
  0
LINE
  8
0
  6
CONTINUOUS
 62
     6
 10
542.75
 20
119.8666656
 30
0.0
 11
802.5
 21
119.8666656
 31
0.0
  0
TEXT
  8
3
  6
CONTINUOUS
 62
     2
 10
569.96
 20
24.85
 30
0.0
 40
6.4
  1
１／２
 50
0.0
 41
1.0
 51
0.0
  7
KANJI0
  0
LINE
  8
0
  6
CONTINUOUS
 62
     6
 10
675.507661103
 20
34.928000544
 30
0.0
 11
670.515661487
 21
34.928000544
 31
0.0
  0
LINE
  8
0
  6
CONTINUOUS
 62
     6
 10
676.755661007
 20
34.928000544
 30
0.0
 11
681.747660623
 21
34.928000544
 31
0.0
  0
TEXT
  8
0
  6
CONTINUOUS
 62
     2
 10
645.407661103
 20
67.628000544
 30
0.0
 40
6.0
  1
Ｓ
 50
0.0
 41
0.9
 51
0.0
  7
KANJI10
  0
CIRCLE
  8
0
  6
CONTINUOUS
 62
     2
 10
648.007661103
 20
70.538000544
 30
0.0
 40
5.018445975
  0
LINE
  8
3
  6
CONTINUOUS
 62
     4
 10
604.5
 20
22.0
 30
0.0
 11
604.5
 21
106.0
 31
0.0
  0
LINE
  8
3
  6
CONTINUOUS
 62
     6
 10
604.5
 20
106.0
 30
0.0
 11
604.5
 21
133.7333312
 31
0.0
  0
TEXT
  8
3
  6
CONTINUOUS
 62
     4
 10
662.8
 20
236.1
 30
0.0
 40
6.4
  1
特記事項
 50
0.0
 41
1.0
 51
0.0
  7
KANJI11
  0
TEXT
  8
3
  6
CONTINUOUS
 62
     4
 10
662.8
 20
222.1
 30
0.0
 40
6.4
  1
１．フレーム材質　ダグタイル鋳鉄
 50
0.0
 41
1.0
 51
0.0
  7
KANJI11
  0
TEXT
  8
3
  6
CONTINUOUS
 62
     4
 10
662.8
 20
194.1
 30
0.0
 40
6.4
  1
３．
 50
0.0
 41
1.0
 51
0.0
  7
KANJI11
  0
TEXT
  8
3
  6
CONTINUOUS
 62
     4
 10
662.8
 20
180.1
 30
0.0
 40
6.4
  1
４．
 50
0.0
 41
1.0
 51
0.0
  7
KANJI11
  0
TEXT
  8
3
  6
CONTINUOUS
 62
     4
 10
662.8
 20
166.1
 30
0.0
 40
6.4
  1
５．
 50
0.0
 41
1.0
 51
0.0
  7
KANJI11
  0
TEXT
  8
3
  6
CONTINUOUS
 62
     4
 10
662.8
 20
208.1
 30
0.0
 40
6.4
  1
２．ナットの回転防止対策を行って下さい
 50
0.0
 41
1.0
 51
0.0
  7
KANJI11
  0
TEXT
  8
3
  6
CONTINUOUS
 62
     2
 10
623.94
 20
79.64
 30
0.0
 40
6.4
  1
ＡＪ１ＨＩＴ
 50
0.0
 41
0.9375
 51
0.0
  7
KANJI12
  0
TEXT
  8
2
  6
CONTINUOUS
 62
     4
 10
323.86
 20
555.2
 30
0.0
 40
6.4
  1
５
 50
0.0
 41
0.90625
 51
0.0
  7
KANJI13
  0
LINE
  8
6
  6
LTYPE2
 62
     2
 10
158.8
 20
406.1
 30
0.0
 11
83.615794236
 21
406.1
 31
0.0
  0
LINE
  8
6
  6
LTYPE2
 62
     2
 10
98.8
 20
419.686453287
 30
0.0
 11
98.8
 21
392.013546713
 31
0.0
  0
LINE
  8
6
  6
LTYPE2
 62
     2
 10
158.8
 20
374.1
 30
0.0
 11
70.790675818
 21
374.1
 31
0.0
  0
LINE
  8
6
  6
LTYPE2
 62
     2
 10
158.8
 20
452.121230557
 30
0.0
 11
158.8
 21
343.359756462
 31
0.0
  0
LINE
  8
6
  6
LTYPE2
 62
     2
 10
158.8
 20
374.1
 30
0.0
 11
250.896325751
 21
374.1
 31
0.0
  0
LINE
  8
6
  6
LTYPE2
 62
     2
 10
218.8
 20
420.186453287
 30
0.0
 11
218.8
 21
392.013546713
 31
0.0
  0
LINE
  8
6
  6
LTYPE2
 62
     2
 10
158.8
 20
406.1
 30
0.0
 11
233.984205764
 21
406.1
 31
0.0
  0
ARC
  8
6
  6
LTYPE2
 62
     2
 10
158.8
 20
406.1
 30
0.0
 40
37.0
 50
108.724228401
 51
146.302794612
  0
LINE
  8
6
  6
LTYPE2
 62
     2
 10
136.567648047
 20
428.332351953
 30
0.0
 11
128.732512298
 21
436.167487702
 31
0.0
  0
ARC
  8
6
  6
LTYPE2
 62
     2
 10
158.8
 20
406.1
 30
0.0
 40
37.0
 50
33.697205388
 51
55.790425785
  0
LINE
  8
6
  6
LTYPE2
 62
     2
 10
181.032351953
 20
428.332351953
 30
0.0
 11
188.867487702
 21
436.167487702
 31
0.0
  0
LINE
  8
6
  6
LTYPE2
 62
     2
 10
136.567648047
 20
383.867648047
 30
0.0
 11
128.732512298
 21
376.032512298
 31
0.0
  0
ARC
  8
6
  6
LTYPE2
 62
     2
 10
158.8
 20
406.1
 30
0.0
 40
37.0
 50
214.209574215
 51
236.302794612
  0
ARC
  8
6
  6
LTYPE2
 62
     2
 10
158.8
 20
406.1
 30
0.0
 40
37.0
 50
288.211859574
 51
325.790425785
  0
LINE
  8
6
  6
LTYPE2
 62
     2
 10
181.032351953
 20
383.867648047
 30
0.0
 11
188.867487702
 21
376.032512298
 31
0.0
  0
LINE
  8
0
  6
CONTINUOUS
 62
     1
 10
73.8
 20
381.6
 30
0.0
 11
73.8
 21
366.6
 31
0.0
  0
LINE
  8
0
  6
CONTINUOUS
 62
     1
 10
101.3
 20
376.6
 30
0.0
 11
73.8
 21
376.6
 31
0.0
  0
LINE
  8
0
  6
CONTINUOUS
 62
     1
 10
101.3
 20
371.6
 30
0.0
 11
73.8
 21
371.6
 31
0.0
  0
ARC
  8
0
  6
CONTINUOUS
 62
     1
 10
101.3
 20
374.1
 30
0.0
 40
2.5
 50
270.0
 51
90.0
  0
LINE
  8
0
  6
CONTINUOUS
 62
     1
 10
108.8
 20
365.6
 30
0.0
 11
107.3
 21
365.6
 31
0.0
  0
LINE
  8
0
  6
CONTINUOUS
 62
     1
 10
106.8
 20
366.1
 30
0.0
 11
107.3
 21
365.6
 31
0.0
  0
LINE
  8
0
  6
CONTINUOUS
 62
     1
 10
106.8
 20
366.6
 30
0.0
 11
73.8
 21
366.6
 31
0.0
  0
LINE
  8
0
  6
CONTINUOUS
 62
     1
 10
108.8
 20
382.6
 30
0.0
 11
107.3
 21
382.6
 31
0.0
  0
LINE
  8
0
  6
CONTINUOUS
 62
     1
 10
106.8
 20
382.1
 30
0.0
 11
107.3
 21
382.6
 31
0.0
  0
LINE
  8
0
  6
CONTINUOUS
 62
     1
 10
106.8
 20
381.6
 30
0.0
 11
73.8
 21
381.6
 31
0.0
  0
LINE
  8
0
  6
CONTINUOUS
 62
     1
 10
107.3
 20
382.6
 30
0.0
 11
107.3
 21
365.6
 31
0.0
  0
LINE
  8
0
  6
CONTINUOUS
 62
     1
 10
106.8
 20
382.1
 30
0.0
 11
106.8
 21
366.1
 31
0.0
  0
LINE
  8
0
  6
CONTINUOUS
 62
     1
 10
158.8
 20
348.1
 30
0.0
 11
111.8
 21
348.1
 31
0.0
  0
ARC
  8
0
  6
CONTINUOUS
 62
     1
 10
111.8
 20
351.1
 30
0.0
 40
3.0
 50
180.0
 51
270.0
  0
LINE
  8
0
  6
CONTINUOUS
 62
     1
 10
158.8
 20
348.1
 30
0.0
 11
205.8
 21
348.1
 31
0.0
  0
ARC
  8
0
  6
CONTINUOUS
 62
     1
 10
205.8
 20
351.1
 30
0.0
 40
3.0
 50
270.0
 51
0.0
  0
LINE
  8
0
  6
CONTINUOUS
 62
     1
 10
210.8
 20
366.6
 30
0.0
 11
243.8
 21
366.6
 31
0.0
  0
ARC
  8
0
  6
CONTINUOUS
 62
     1
 10
216.3
 20
374.1
 30
0.0
 40
2.5
 50
90.0
 51
270.0
  0
LINE
  8
0
  6
CONTINUOUS
 62
     1
 10
216.3
 20
371.6
 30
0.0
 11
243.8
 21
371.6
 31
0.0
  0
LINE
  8
0
  6
CONTINUOUS
 62
     1
 10
208.8
 20
365.6
 30
0.0
 11
210.3
 21
365.6
 31
0.0
  0
LINE
  8
0
  6
CONTINUOUS
 62
     1
 10
210.8
 20
366.1
 30
0.0
 11
210.3
 21
365.6
 31
0.0
  0
LINE
  8
0
  6
CONTINUOUS
 62
     1
 10
216.3
 20
376.6
 30
0.0
 11
243.8
 21
376.6
 31
0.0
  0
LINE
  8
0
  6
CONTINUOUS
 62
     1
 10
222.205242843
 20
389.711583021
 30
0.0
 11
208.8
 21
384.856618866
 31
0.0
  0
LINE
  8
0
  6
CONTINUOUS
 62
     1
 10
208.8
 20
382.6
 30
0.0
 11
210.3
 21
382.6
 31
0.0
  0
LINE
  8
0
  6
CONTINUOUS
 62
     1
 10
210.8
 20
382.1
 30
0.0
 11
210.3
 21
382.6
 31
0.0
  0
LINE
  8
0
  6
CONTINUOUS
 62
     1
 10
210.8
 20
382.1
 30
0.0
 11
210.8
 21
366.1
 31
0.0
  0
LINE
  8
0
  6
CONTINUOUS
 62
     1
 10
210.3
 20
382.6
 30
0.0
 11
210.3
 21
365.6
 31
0.0
  0
LINE
  8
0
  6
CONTINUOUS
 62
     1
 10
208.8
 20
397.1
 30
0.0
 11
208.8
 21
351.1
 31
0.0
  0
LINE
  8
0
  6
CONTINUOUS
 62
     1
 10
210.8
 20
381.6
 30
0.0
 11
243.8
 21
381.6
 31
0.0
  0
ARC
  8
0
  6
CONTINUOUS
 62
     1
 10
218.8
 20
399.113940235
 30
0.0
 40
10.0
 50
289.908819512
 51
0.0
  0
CIRCLE
  8
0
  6
CONTINUOUS
 62
     1
 10
218.8
 20
406.1
 30
0.0
 40
5.5
  0
ARC
  8
0
  6
CONTINUOUS
 62
     1
 10
218.8
 20
413.086059765
 30
0.0
 40
10.0
 50
0.0
 51
70.091180488
  0
LINE
  8
0
  6
CONTINUOUS
 62
     1
 10
228.8
 20
413.086059765
 30
0.0
 11
228.8
 21
399.113940235
 31
0.0
  0
CIRCLE
  8
0
  6
CONTINUOUS
 62
     1
 10
218.8
 20
406.1
 30
0.0
 40
10.0
  0
LINE
  8
0
  6
CONTINUOUS
 62
     1
 10
222.205242843
 20
422.488416979
 30
0.0
 11
191.585055294
 21
433.578101419
 31
0.0
  0
LINE
  8
0
  6
CONTINUOUS
 62
     1
 10
205.8
 20
400.1
 30
0.0
 11
200.793670633
 21
400.1
 31
0.0
  0
ARC
  8
0
  6
CONTINUOUS
 62
     1
 10
200.793670633
 20
405.1
 30
0.0
 40
5.0
 50
215.042520511
 51
270.0
  0
ARC
  8
0
  6
CONTINUOUS
 62
     1
 10
205.8
 20
397.1
 30
0.0
 40
3.0
 50
0.0
 51
90.0
  0
ARC
  8
0
  6
CONTINUOUS
 62
     1
 10
121.8
 20
406.1
 30
0.0
 40
75.0
 50
335.416340721
 51
24.583659279
  0
ARC
  8
0
  6
CONTINUOUS
 62
     1
 10
158.8
 20
443.1
 30
0.0
 40
75.0
 50
270.0
 51
294.583659279
  0
ARC
  8
0
  6
CONTINUOUS
 62
     1
 10
158.8
 20
443.1
 30
0.0
 40
75.0
 50
245.416340721
 51
270.0
  0
ARC
  8
0
  6
CONTINUOUS
 62
     1
 10
195.8
 20
406.1
 30
0.0
 40
75.0
 50
155.416340721
 51
204.583659279
  0
ARC
  8
0
  6
CONTINUOUS
 62
     1
 10
116.806329367
 20
405.1
 30
0.0
 40
5.0
 50
270.0
 51
324.957479489
  0
LINE
  8
0
  6
CONTINUOUS
 62
     1
 10
111.8
 20
400.1
 30
0.0
 11
116.806329367
 21
400.1
 31
0.0
  0
CIRCLE
  8
0
  6
CONTINUOUS
 62
     1
 10
98.8
 20
406.1
 30
0.0
 40
5.5
  0
ARC
  8
0
  6
CONTINUOUS
 62
     1
 10
111.8
 20
397.1
 30
0.0
 40
3.0
 50
90.0
 51
180.0
  0
LINE
  8
0
  6
CONTINUOUS
 62
     1
 10
108.8
 20
397.1
 30
0.0
 11
108.8
 21
351.1
 31
0.0
  0
LINE
  8
0
  6
CONTINUOUS
 62
     1
 10
88.8
 20
413.086059765
 30
0.0
 11
88.8
 21
399.113940235
 31
0.0
  0
ARC
  8
0
  6
CONTINUOUS
 62
     1
 10
98.8
 20
399.113940235
 30
0.0
 40
10.0
 50
180.0
 51
250.091180488
  0
LINE
  8
0
  6
CONTINUOUS
 62
     1
 10
95.394757157
 20
389.711583021
 30
0.0
 11
108.8
 21
384.856618866
 31
0.0
  0
CIRCLE
  8
0
  6
CONTINUOUS
 62
     1
 10
98.8
 20
406.1
 30
0.0
 40
10.0
  0
ARC
  8
0
  6
CONTINUOUS
 62
     1
 10
98.8
 20
413.086059765
 30
0.0
 40
10.0
 50
109.908819512
 51
180.0
  0
LINE
  8
0
  6
CONTINUOUS
 62
     1
 10
95.394757157
 20
422.488416979
 30
0.0
 11
126.014944706
 21
433.578101419
 31
0.0
  0
ARC
  8
0
  6
CONTINUOUS
 62
     1
 10
158.8
 20
406.1
 30
0.0
 40
31.0
 50
90.0
 51
270.0
  0
ARC
  8
0
  6
CONTINUOUS
 62
     1
 10
158.8
 20
369.1
 30
0.0
 40
75.0
 50
90.0
 51
114.583659279
  0
ARC
  8
0
  6
CONTINUOUS
 62
     1
 10
158.8
 20
406.1
 30
0.0
 40
10.0
 50
90.0
 51
270.0
  0
CIRCLE
  8
0
  6
CONTINUOUS
 62
     1
 10
158.8
 20
406.1
 30
0.0
 40
19.0
  0
ARC
  8
0
  6
CONTINUOUS
 62
     1
 10
158.8
 20
406.1
 30
0.0
 40
31.0
 50
270.0
 51
90.0
  0
ARC
  8
0
  6
CONTINUOUS
 62
     1
 10
158.8
 20
369.1
 30
0.0
 40
75.0
 50
65.416340721
 51
90.0
  0
ARC
  8
0
  6
CONTINUOUS
 62
     1
 10
158.8
 20
406.1
 30
0.0
 40
10.0
 50
270.0
 51
90.0
  0
CIRCLE
  8
2
  6
CONTINUOUS
 62
     2
 10
158.8
 20
406.1
 30
0.0
 40
18.5
  0
CIRCLE
  8
0
  6
CONTINUOUS
 62
     1
 10
132.637049096
 20
432.262950904
 30
0.0
 40
3.0
  0
CIRCLE
  8
0
  6
CONTINUOUS
 62
     1
 10
184.962950904
 20
432.262950904
 30
0.0
 40
3.0
  0
CIRCLE
  8
0
  6
CONTINUOUS
 62
     1
 10
132.637049096
 20
379.937049096
 30
0.0
 40
3.0
  0
CIRCLE
  8
0
  6
CONTINUOUS
 62
     1
 10
184.962950904
 20
379.937049096
 30
0.0
 40
3.0
  0
CIRCLE
  8
2
  6
CONTINUOUS
 62
     2
 10
184.962950904
 20
379.937049096
 30
0.0
 40
4.0
  0
CIRCLE
  8
2
  6
CONTINUOUS
 62
     2
 10
132.637049096
 20
379.937049096
 30
0.0
 40
4.0
  0
CIRCLE
  8
2
  6
CONTINUOUS
 62
     2
 10
132.637049096
 20
432.262950904
 30
0.0
 40
4.0
  0
CIRCLE
  8
2
  6
CONTINUOUS
 62
     2
 10
184.962950904
 20
432.262950904
 30
0.0
 40
4.0
  0
LINE
  8
0
  6
CONTINUOUS
 62
     2
 10
98.8
 20
421.121230557
 30
0.0
 11
98.8
 21
460.921230557
 31
0.0
  0
LINE
  8
0
  6
CONTINUOUS
 62
     2
 10
98.8
 20
458.921230557
 30
0.0
 11
103.629629131
 21
457.627135331
 31
0.0
  0
LINE
  8
0
  6
CONTINUOUS
 62
     2
 10
98.8
 20
458.921230557
 30
0.0
 11
103.629629131
 21
460.215325782
 31
0.0
  0
LINE
  8
0
  6
CONTINUOUS
 62
     2
 10
98.8
 20
458.921230557
 30
0.0
 11
218.8
 21
458.921230557
 31
0.0
  0
LINE
  8
0
  6
CONTINUOUS
 62
     2
 10
218.8
 20
458.921230557
 30
0.0
 11
213.970370869
 21
460.215325782
 31
0.0
  0
LINE
  8
0
  6
CONTINUOUS
 62
     2
 10
218.8
 20
458.921230557
 30
0.0
 11
213.970370869
 21
457.627135331
 31
0.0
  0
LINE
  8
0
  6
CONTINUOUS
 62
     2
 10
218.8
 20
421.321230557
 30
0.0
 11
218.8
 21
460.921230557
 31
0.0
  0
TEXT
  8
0
  6
CONTINUOUS
 62
     3
 10
147.7
 20
459.921230557
 30
0.0
 40
8.0
  1
１２０
 50
0.0
 41
0.925
 51
0.0
  7
KANJI14
  0
LINE
  8
0
  6
CONTINUOUS
 62
     2
 10
88.8
 20
415.086065159
 30
0.0
 11
88.8
 21
480.721230557
 31
0.0
  0
LINE
  8
0
  6
CONTINUOUS
 62
     2
 10
88.8
 20
478.721230557
 30
0.0
 11
93.629629131
 21
477.427135331
 31
0.0
  0
LINE
  8
0
  6
CONTINUOUS
 62
     2
 10
88.8
 20
478.721230557
 30
0.0
 11
93.629629131
 21
480.015325782
 31
0.0
  0
LINE
  8
0
  6
CONTINUOUS
 62
     2
 10
88.8
 20
478.721230557
 30
0.0
 11
228.8
 21
478.721230557
 31
0.0
  0
LINE
  8
0
  6
CONTINUOUS
 62
     2
 10
228.8
 20
478.721230557
 30
0.0
 11
223.970370869
 21
480.015325782
 31
0.0
  0
LINE
  8
0
  6
CONTINUOUS
 62
     2
 10
228.8
 20
478.721230557
 30
0.0
 11
223.970370869
 21
477.427135331
 31
0.0
  0
LINE
  8
0
  6
CONTINUOUS
 62
     2
 10
228.8
 20
415.086067394
 30
0.0
 11
228.8
 21
480.721230557
 31
0.0
  0
TEXT
  8
0
  6
CONTINUOUS
 62
     3
 10
147.7
 20
479.721230557
 30
0.0
 40
8.0
  1
１４０
 50
0.0
 41
0.925
 51
0.0
  7
KANJI14
  0
LINE
  8
0
  6
CONTINUOUS
 62
     2
 10
243.8
 20
329.0
 30
0.0
 11
213.8
 21
329.0
 31
0.0
  0
LINE
  8
0
  6
CONTINUOUS
 62
     2
 10
213.8
 20
329.0
 30
0.0
 11
218.629629131
 21
327.705904774
 31
0.0
  0
LINE
  8
0
  6
CONTINUOUS
 62
     2
 10
213.8
 20
329.0
 30
0.0
 11
218.629629131
 21
330.294095226
 31
0.0
  0
LINE
  8
0
  6
CONTINUOUS
 62
     2
 10
213.8
 20
372.1
 30
0.0
 11
213.8
 21
327.0
 31
0.0
  0
TEXT
  8
0
  6
CONTINUOUS
 62
     3
 10
221.4
 20
330.0
 30
0.0
 40
8.0
  1
３０
 50
0.0
 41
0.925
 51
0.0
  7
KANJI14
  0
LINE
  8
0
  6
CONTINUOUS
 62
     2
 10
243.8
 20
309.2
 30
0.0
 11
210.8
 21
309.2
 31
0.0
  0
LINE
  8
0
  6
CONTINUOUS
 62
     2
 10
210.8
 20
309.2
 30
0.0
 11
215.629629131
 21
307.905904774
 31
0.0
  0
LINE
  8
0
  6
CONTINUOUS
 62
     2
 10
210.8
 20
309.2
 30
0.0
 11
215.629629131
 21
310.494095226
 31
0.0
  0
LINE
  8
0
  6
CONTINUOUS
 62
     2
 10
210.8
 20
364.6
 30
0.0
 11
210.8
 21
307.2
 31
0.0
  0
TEXT
  8
0
  6
CONTINUOUS
 62
     3
 10
219.9
 20
310.2
 30
0.0
 40
8.0
  1
３３
 50
0.0
 41
0.925
 51
0.0
  7
KANJI14
  0
LINE
  8
0
  6
CONTINUOUS
 62
     2
 10
243.8
 20
288.9
 30
0.0
 11
208.8
 21
288.9
 31
0.0
  0
LINE
  8
0
  6
CONTINUOUS
 62
     2
 10
208.8
 20
288.9
 30
0.0
 11
213.629629131
 21
287.605904774
 31
0.0
  0
LINE
  8
0
  6
CONTINUOUS
 62
     2
 10
208.8
 20
288.9
 30
0.0
 11
213.629629131
 21
290.194095226
 31
0.0
  0
LINE
  8
0
  6
CONTINUOUS
 62
     2
 10
208.8
 20
349.1
 30
0.0
 11
208.8
 21
286.9
 31
0.0
  0
TEXT
  8
0
  6
CONTINUOUS
 62
     3
 10
218.9
 20
289.9
 30
0.0
 40
8.0
  1
３５
 50
0.0
 41
0.925
 51
0.0
  7
KANJI14
  0
LINE
  8
0
  6
CONTINUOUS
 62
     2
 10
243.8
 20
269.1
 30
0.0
 11
73.8
 21
269.1
 31
0.0
  0
LINE
  8
0
  6
CONTINUOUS
 62
     2
 10
73.8
 20
269.1
 30
0.0
 11
78.629629131
 21
267.805904774
 31
0.0
  0
LINE
  8
0
  6
CONTINUOUS
 62
     2
 10
73.8
 20
269.1
 30
0.0
 11
78.629629131
 21
270.394095226
 31
0.0
  0
LINE
  8
0
  6
CONTINUOUS
 62
     2
 10
73.8
 20
364.6
 30
0.0
 11
73.8
 21
267.1
 31
0.0
  0
TEXT
  8
0
  6
CONTINUOUS
 62
     3
 10
147.7
 20
270.1
 30
0.0
 40
8.0
  1
１７０
 50
0.0
 41
0.925
 51
0.0
  7
KANJI14
  0
LINE
  8
0
  6
CONTINUOUS
 62
     2
 10
208.8
 20
290.2
 30
0.0
 11
208.8
 21
286.9
 31
0.0
  0
LINE
  8
0
  6
CONTINUOUS
 62
     2
 10
208.8
 20
288.9
 30
0.0
 11
203.970370869
 21
290.194095226
 31
0.0
  0
LINE
  8
0
  6
CONTINUOUS
 62
     2
 10
208.8
 20
288.9
 30
0.0
 11
203.970370869
 21
287.605904774
 31
0.0
  0
LINE
  8
0
  6
CONTINUOUS
 62
     2
 10
208.8
 20
288.9
 30
0.0
 11
108.8
 21
288.9
 31
0.0
  0
LINE
  8
0
  6
CONTINUOUS
 62
     2
 10
108.8
 20
288.9
 30
0.0
 11
113.629629131
 21
287.605904774
 31
0.0
  0
LINE
  8
0
  6
CONTINUOUS
 62
     2
 10
108.8
 20
288.9
 30
0.0
 11
113.629629131
 21
290.194095226
 31
0.0
  0
LINE
  8
0
  6
CONTINUOUS
 62
     2
 10
108.8
 20
349.1
 30
0.0
 11
108.8
 21
286.9
 31
0.0
  0
TEXT
  8
0
  6
CONTINUOUS
 62
     3
 10
147.7
 20
289.9
 30
0.0
 40
8.0
  1
１００
 50
0.0
 41
0.925
 51
0.0
  7
KANJI14
  0
LINE
  8
0
  6
CONTINUOUS
 62
     2
 10
108.8
 20
288.9
 30
0.0
 11
108.8
 21
286.9
 31
0.0
  0
LINE
  8
0
  6
CONTINUOUS
 62
     2
 10
108.8
 20
288.9
 30
0.0
 11
103.970370869
 21
290.194095226
 31
0.0
  0
LINE
  8
0
  6
CONTINUOUS
 62
     2
 10
108.8
 20
288.9
 30
0.0
 11
103.970370869
 21
287.605904774
 31
0.0
  0
LINE
  8
0
  6
CONTINUOUS
 62
     2
 10
108.8
 20
288.9
 30
0.0
 11
73.8
 21
288.9
 31
0.0
  0
LINE
  8
0
  6
CONTINUOUS
 62
     2
 10
73.8
 20
288.9
 30
0.0
 11
78.629629131
 21
287.605904774
 31
0.0
  0
LINE
  8
0
  6
CONTINUOUS
 62
     2
 10
73.8
 20
288.9
 30
0.0
 11
78.629629131
 21
290.194095226
 31
0.0
  0
LINE
  8
0
  6
CONTINUOUS
 62
     2
 10
73.8
 20
287.7
 30
0.0
 11
73.8
 21
286.9
 31
0.0
  0
TEXT
  8
0
  6
CONTINUOUS
 62
     3
 10
83.9
 20
289.9
 30
0.0
 40
8.0
  1
３５
 50
0.0
 41
0.925
 51
0.0
  7
KANJI14
  0
LINE
  8
0
  6
CONTINUOUS
 62
     2
 10
73.8
 20
310.0
 30
0.0
 11
73.8
 21
311.2
 31
0.0
  0
LINE
  8
0
  6
CONTINUOUS
 62
     2
 10
73.8
 20
309.2
 30
0.0
 11
78.629629131
 21
307.905904774
 31
0.0
  0
LINE
  8
0
  6
CONTINUOUS
 62
     2
 10
73.8
 20
309.2
 30
0.0
 11
78.629629131
 21
310.494095226
 31
0.0
  0
LINE
  8
0
  6
CONTINUOUS
 62
     2
 10
73.8
 20
309.2
 30
0.0
 11
106.8
 21
309.2
 31
0.0
  0
LINE
  8
0
  6
CONTINUOUS
 62
     2
 10
106.8
 20
309.2
 30
0.0
 11
101.970370869
 21
310.494095226
 31
0.0
  0
LINE
  8
0
  6
CONTINUOUS
 62
     2
 10
106.8
 20
309.2
 30
0.0
 11
101.970370869
 21
307.905904774
 31
0.0
  0
LINE
  8
0
  6
CONTINUOUS
 62
     2
 10
106.8
 20
364.6
 30
0.0
 11
106.8
 21
307.2
 31
0.0
  0
TEXT
  8
0
  6
CONTINUOUS
 62
     3
 10
82.9
 20
310.2
 30
0.0
 40
8.0
  1
３３
 50
0.0
 41
0.925
 51
0.0
  7
KANJI14
  0
LINE
  8
0
  6
CONTINUOUS
 62
     2
 10
73.8
 20
324.3
 30
0.0
 11
73.8
 21
331.0
 31
0.0
  0
LINE
  8
0
  6
CONTINUOUS
 62
     2
 10
73.8
 20
329.0
 30
0.0
 11
78.629629131
 21
327.705904774
 31
0.0
  0
LINE
  8
0
  6
CONTINUOUS
 62
     2
 10
73.8
 20
329.0
 30
0.0
 11
78.629629131
 21
330.294095226
 31
0.0
  0
LINE
  8
0
  6
CONTINUOUS
 62
     2
 10
73.8
 20
329.0
 30
0.0
 11
103.8
 21
329.0
 31
0.0
  0
LINE
  8
0
  6
CONTINUOUS
 62
     2
 10
103.8
 20
329.0
 30
0.0
 11
98.970370869
 21
330.294095226
 31
0.0
  0
LINE
  8
0
  6
CONTINUOUS
 62
     2
 10
103.8
 20
329.0
 30
0.0
 11
98.970370869
 21
327.705904774
 31
0.0
  0
LINE
  8
0
  6
CONTINUOUS
 62
     2
 10
103.8
 20
372.1
 30
0.0
 11
103.8
 21
327.0
 31
0.0
  0
TEXT
  8
0
  6
CONTINUOUS
 62
     3
 10
81.4
 20
330.0
 30
0.0
 40
8.0
  1
３０
 50
0.0
 41
0.925
 51
0.0
  7
KANJI14
  0
LINE
  8
0
  6
CONTINUOUS
 62
     2
 10
83.2
 20
406.1
 30
0.0
 11
60.9
 21
406.1
 31
0.0
  0
LINE
  8
0
  6
CONTINUOUS
 62
     2
 10
62.9
 20
406.1
 30
0.0
 11
61.605904774
 21
401.270370869
 31
0.0
  0
LINE
  8
0
  6
CONTINUOUS
 62
     2
 10
62.9
 20
406.1
 30
0.0
 11
64.194095226
 21
401.270370869
 31
0.0
  0
LINE
  8
0
  6
CONTINUOUS
 62
     2
 10
62.9
 20
406.1
 30
0.0
 11
62.9
 21
374.1
 31
0.0
  0
LINE
  8
0
  6
CONTINUOUS
 62
     2
 10
62.9
 20
374.1
 30
0.0
 11
64.194095226
 21
378.929629131
 31
0.0
  0
LINE
  8
0
  6
CONTINUOUS
 62
     2
 10
62.9
 20
374.1
 30
0.0
 11
61.605904774
 21
378.929629131
 31
0.0
  0
LINE
  8
0
  6
CONTINUOUS
 62
     2
 10
69.8
 20
374.1
 30
0.0
 11
60.9
 21
374.1
 31
0.0
  0
TEXT
  8
0
  6
CONTINUOUS
 62
     3
 10
61.9
 20
382.7
 30
0.0
 40
8.0
  1
３２
 50
90.0
 41
0.925
 51
0.0
  7
KANJI14
  0
LINE
  8
0
  6
CONTINUOUS
 62
     2
 10
95.8
 20
411.0
 30
0.0
 11
94.661850582
 21
415.868738636
 31
0.0
  0
LINE
  8
0
  6
CONTINUOUS
 62
     2
 10
95.8
 20
411.0
 30
0.0
 11
92.379964373
 21
414.647376634
 31
0.0
  0
LINE
  8
0
  6
CONTINUOUS
 62
     2
 10
95.8
 20
411.0
 30
0.0
 11
71.5
 21
456.4
 31
0.0
  0
LINE
  8
0
  6
CONTINUOUS
 62
     2
 10
71.5
 20
456.4
 30
0.0
 11
44.5
 21
456.4
 31
0.0
  0
TEXT
  8
0
  6
CONTINUOUS
 62
     3
 10
44.5
 20
457.4
 30
0.0
 40
6.0
  1
２－φ１１
 50
0.0
 41
0.9
 51
0.0
  7
KANJI10
  0
LINE
  8
0
  6
CONTINUOUS
 62
     2
 10
42.488190451
 20
406.1
 30
0.0
 11
41.194095226
 21
401.270370869
 31
0.0
  0
LINE
  8
0
  6
CONTINUOUS
 62
     2
 10
42.488190451
 20
406.1
 30
0.0
 11
43.782285677
 21
401.270370869
 31
0.0
  0
LINE
  8
0
  6
CONTINUOUS
 62
     2
 10
42.488190451
 20
406.1
 30
0.0
 11
42.488190451
 21
348.1
 31
0.0
  0
LINE
  8
0
  6
CONTINUOUS
 62
     2
 10
42.488190451
 20
348.1
 30
0.0
 11
43.782285677
 21
352.929629131
 31
0.0
  0
LINE
  8
0
  6
CONTINUOUS
 62
     2
 10
42.488190451
 20
348.1
 30
0.0
 11
41.194095226
 21
352.929629131
 31
0.0
  0
TEXT
  8
0
  6
CONTINUOUS
 62
     3
 10
41.488190451
 20
369.7
 30
0.0
 40
8.0
  1
５８
 50
90.0
 41
0.925
 51
0.0
  7
KANJI14
  0
LINE
  8
0
  6
CONTINUOUS
 62
     2
 10
46.488190451
 20
406.1
 30
0.0
 11
40.488190451
 21
406.1
 31
0.0
  0
LINE
  8
0
  6
CONTINUOUS
 62
     2
 10
42.488190451
 20
406.1
 30
0.0
 11
43.782285677
 21
410.929629131
 31
0.0
  0
LINE
  8
0
  6
CONTINUOUS
 62
     2
 10
42.488190451
 20
406.1
 30
0.0
 11
41.194095226
 21
410.929629131
 31
0.0
  0
LINE
  8
0
  6
CONTINUOUS
 62
     2
 10
42.488190451
 20
406.1
 30
0.0
 11
42.488190451
 21
444.1
 31
0.0
  0
LINE
  8
0
  6
CONTINUOUS
 62
     2
 10
42.488190451
 20
444.1
 30
0.0
 11
41.194095226
 21
439.270370869
 31
0.0
  0
LINE
  8
0
  6
CONTINUOUS
 62
     2
 10
42.488190451
 20
444.1
 30
0.0
 11
43.782285677
 21
439.270370869
 31
0.0
  0
TEXT
  8
0
  6
CONTINUOUS
 62
     3
 10
41.488190451
 20
417.7
 30
0.0
 40
8.0
  1
３８
 50
90.0
 41
0.925
 51
0.0
  7
KANJI14
  0
LINE
  8
0
  6
CONTINUOUS
 62
     2
 10
156.194095226
 20
444.1
 30
0.0
 11
40.488190451
 21
444.1
 31
0.0
  0
LINE
  8
0
  6
CONTINUOUS
 62
     2
 10
109.894095226
 20
348.1
 30
0.0
 11
40.488190451
 21
348.1
 31
0.0
  0
LINE
  8
0
  6
CONTINUOUS
 62
     2
 10
60.9
 20
406.1
 30
0.0
 11
40.488190451
 21
406.1
 31
0.0
  0
LINE
  8
0
  6
CONTINUOUS
 62
     1
 10
243.8
 20
381.6
 30
0.0
 11
243.8
 21
366.6
 31
0.0
  0
LINE
  8
0
  6
CONTINUOUS
 62
     2
 10
243.8
 20
364.6
 30
0.0
 11
243.8
 21
327.0
 31
0.0
  0
LINE
  8
0
  6
CONTINUOUS
 62
     2
 10
243.8
 20
329.0
 30
0.0
 11
238.970370869
 21
330.294095226
 31
0.0
  0
LINE
  8
0
  6
CONTINUOUS
 62
     2
 10
243.8
 20
329.0
 30
0.0
 11
238.970370869
 21
327.705904774
 31
0.0
  0
LINE
  8
0
  6
CONTINUOUS
 62
     2
 10
243.8
 20
329.0
 30
0.0
 11
243.8
 21
307.2
 31
0.0
  0
LINE
  8
0
  6
CONTINUOUS
 62
     2
 10
243.8
 20
309.2
 30
0.0
 11
238.970370869
 21
310.494095226
 31
0.0
  0
LINE
  8
0
  6
CONTINUOUS
 62
     2
 10
243.8
 20
309.2
 30
0.0
 11
238.970370869
 21
307.905904774
 31
0.0
  0
LINE
  8
0
  6
CONTINUOUS
 62
     2
 10
243.8
 20
312.4
 30
0.0
 11
243.8
 21
286.9
 31
0.0
  0
LINE
  8
0
  6
CONTINUOUS
 62
     2
 10
243.8
 20
288.9
 30
0.0
 11
238.970370869
 21
290.194095226
 31
0.0
  0
LINE
  8
0
  6
CONTINUOUS
 62
     2
 10
243.8
 20
288.9
 30
0.0
 11
238.970370869
 21
287.605904774
 31
0.0
  0
LINE
  8
0
  6
CONTINUOUS
 62
     2
 10
243.8
 20
290.2
 30
0.0
 11
243.8
 21
267.1
 31
0.0
  0
LINE
  8
0
  6
CONTINUOUS
 62
     2
 10
243.8
 20
269.1
 30
0.0
 11
238.970370869
 21
270.394095226
 31
0.0
  0
LINE
  8
0
  6
CONTINUOUS
 62
     2
 10
243.8
 20
269.1
 30
0.0
 11
238.970370869
 21
267.805904774
 31
0.0
  0
LINE
  8
0
  6
CONTINUOUS
 62
     3
 10
625.194362043
 20
397.1
 30
0.0
 11
625.194362043
 21
415.1
 31
0.0
  0
LINE
  8
2
  6
CONTINUOUS
 62
     2
 10
625.194362043
 20
415.1
 30
0.0
 11
626.194362043
 21
416.1
 31
0.0
  0
LINE
  8
2
  6
CONTINUOUS
 62
     2
 10
625.194362043
 20
397.1
 30
0.0
 11
626.194362043
 21
396.1
 31
0.0
  0
LINE
  8
2
  6
CONTINUOUS
 62
     2
 10
626.194362043
 20
396.1
 30
0.0
 11
626.194362043
 21
396.1
 31
0.0
  0
LINE
  8
2
  6
CONTINUOUS
 62
     2
 10
654.694362043
 20
400.1
 30
0.0
 11
654.694362043
 21
412.1
 31
0.0
  0
LINE
  8
6
  6
LTYPE2
 62
     2
 10
410.194362043
 20
446.51404646
 30
0.0
 11
410.194362043
 21
342.982612283
 31
0.0
  0
LINE
  8
6
  6
LTYPE2
 62
     2
 10
455.172976497
 20
374.1
 30
0.0
 11
373.128835207
 21
374.1
 31
0.0
  0
LINE
  8
6
  6
LTYPE2
 62
     2
 10
557.655500398
 20
374.6
 30
0.0
 11
541.155500398
 21
374.6
 31
0.0
  0
LINE
  8
0
  6
CONTINUOUS
 62
     1
 10
393.194362043
 20
443.1
 30
0.0
 11
393.194362043
 21
409.1
 31
0.0
  0
ARC
  8
0
  6
CONTINUOUS
 62
     1
 10
396.194362043
 20
409.1
 30
0.0
 40
3.0
 50
180.0
 51
270.0
  0
ARC
  8
0
  6
CONTINUOUS
 62
     1
 10
367.194362043
 20
436.6
 30
0.0
 40
3.0
 50
270.0
 51
0.0
  0
LINE
  8
0
  6
CONTINUOUS
 62
     1
 10
367.194362043
 20
433.6
 30
0.0
 11
365.194362043
 21
433.6
 31
0.0
  0
LINE
  8
0
  6
CONTINUOUS
 62
     1
 10
340.194362043
 20
427.6
 30
0.0
 11
340.194362043
 21
384.6
 31
0.0
  0
LINE
  8
0
  6
CONTINUOUS
 62
     1
 10
340.194362043
 20
427.6
 30
0.0
 11
365.194362043
 21
427.6
 31
0.0
  0
LINE
  8
0
  6
CONTINUOUS
 62
     1
 10
367.194362043
 20
378.6
 30
0.0
 11
365.194362043
 21
378.6
 31
0.0
  0
ARC
  8
0
  6
CONTINUOUS
 62
     1
 10
367.194362043
 20
375.6
 30
0.0
 40
3.0
 50
0.0
 51
90.0
  0
LINE
  8
0
  6
CONTINUOUS
 62
     1
 10
340.194362043
 20
384.6
 30
0.0
 11
365.194362043
 21
384.6
 31
0.0
  0
LINE
  8
0
  6
CONTINUOUS
 62
     1
 10
365.194362043
 20
433.6
 30
0.0
 11
365.194362043
 21
378.6
 31
0.0
  0
LINE
  8
0
  6
CONTINUOUS
 62
     1
 10
379.194362043
 20
368.1
 30
0.0
 11
370.194362043
 21
368.1
 31
0.0
  0
LINE
  8
0
  6
CONTINUOUS
 62
     1
 10
384.194362043
 20
395.1
 30
0.0
 11
384.194362043
 21
353.1
 31
0.0
  0
CIRCLE
  8
0
  6
CONTINUOUS
 62
     1
 10
410.194362043
 20
374.1
 30
0.0
 40
20.0
  0
ARC
  8
0
  6
CONTINUOUS
 62
     1
 10
379.194362043
 20
363.1
 30
0.0
 40
5.0
 50
0.0
 51
90.0
  0
ARC
  8
0
  6
CONTINUOUS
 62
     1
 10
389.194362043
 20
353.1
 30
0.0
 40
5.0
 50
180.0
 51
270.0
  0
LINE
  8
0
  6
CONTINUOUS
 62
     1
 10
370.194362043
 20
444.1
 30
0.0
 11
370.194362043
 21
368.1
 31
0.0
  0
LINE
  8
0
  6
CONTINUOUS
 62
     1
 10
405.694362043
 20
376.6
 30
0.0
 11
405.694362043
 21
371.6
 31
0.0
  0
LINE
  8
0
  6
CONTINUOUS
 62
     1
 10
405.694362043
 20
371.6
 30
0.0
 11
400.694362043
 21
371.6
 31
0.0
  0
LINE
  8
0
  6
CONTINUOUS
 62
     1
 10
405.694362043
 20
376.6
 30
0.0
 11
400.694362043
 21
376.6
 31
0.0
  0
ARC
  8
0
  6
CONTINUOUS
 62
     1
 10
410.194362043
 20
374.1
 30
0.0
 40
7.5
 50
199.471220634
 51
160.528779366
  0
LINE
  8
0
  6
CONTINUOUS
 62
     1
 10
400.694362043
 20
376.6
 30
0.0
 11
400.694362043
 21
371.6
 31
0.0
  0
LINE
  8
0
  6
CONTINUOUS
 62
     1
 10
431.194362043
 20
400.1
 30
0.0
 11
389.194362043
 21
400.1
 31
0.0
  0
ARC
  8
0
  6
CONTINUOUS
 62
     1
 10
389.194362043
 20
395.1
 30
0.0
 40
5.0
 50
90.0
 51
180.0
  0
LINE
  8
0
  6
CONTINUOUS
 62
     1
 10
377.194362043
 20
444.1
 30
0.0
 11
377.194362043
 21
368.1
 31
0.0
  0
ARC
  8
0
  6
CONTINUOUS
 62
     1
 10
441.194362043
 20
364.1
 30
0.0
 40
5.0
 50
90.0
 51
180.0
  0
LINE
  8
0
  6
CONTINUOUS
 62
     1
 10
450.194362043
 20
369.1
 30
0.0
 11
441.194362043
 21
369.1
 31
0.0
  0
ARC
  8
0
  6
CONTINUOUS
 62
     1
 10
431.194362043
 20
353.1
 30
0.0
 40
5.0
 50
270.0
 51
0.0
  0
LINE
  8
0
  6
CONTINUOUS
 62
     1
 10
431.194362043
 20
348.1
 30
0.0
 11
389.194362043
 21
348.1
 31
0.0
  0
ARC
  8
0
  6
CONTINUOUS
 62
     1
 10
431.194362043
 20
395.1
 30
0.0
 40
5.0
 50
0.0
 51
90.0
  0
LINE
  8
0
  6
CONTINUOUS
 62
     1
 10
449.511046853
 20
392.1
 30
0.0
 11
440.877677232
 21
392.1
 31
0.0
  0
LINE
  8
0
  6
CONTINUOUS
 62
     1
 10
440.194362043
 20
444.1
 30
0.0
 11
440.194362043
 21
368.998979486
 31
0.0
  0
LINE
  8
0
  6
CONTINUOUS
 62
     1
 10
436.194362043
 20
395.1
 30
0.0
 11
436.194362043
 21
353.1
 31
0.0
  0
LINE
  8
0
  6
CONTINUOUS
 62
     1
 10
450.194362043
 20
406.1
 30
0.0
 11
450.194362043
 21
369.1
 31
0.0
  0
LINE
  8
0
  6
CONTINUOUS
 62
     1
 10
449.511046853
 20
420.1
 30
0.0
 11
440.877677232
 21
420.1
 31
0.0
  0
LINE
  8
0
  6
CONTINUOUS
 62
     1
 10
450.194362043
 20
444.1
 30
0.0
 11
450.194362043
 21
406.1
 31
0.0
  0
LINE
  8
0
  6
CONTINUOUS
 62
     1
 10
543.155500398
 20
426.1
 30
0.0
 11
511.655500398
 21
426.1
 31
0.0
  0
LINE
  8
0
  6
CONTINUOUS
 62
     1
 10
510.655500398
 20
425.1
 30
0.0
 11
511.655500398
 21
426.1
 31
0.0
  0
LINE
  8
0
  6
CONTINUOUS
 62
     1
 10
543.155500398
 20
386.1
 30
0.0
 11
511.655500398
 21
386.1
 31
0.0
  0
LINE
  8
0
  6
CONTINUOUS
 62
     1
 10
510.655500398
 20
387.1
 30
0.0
 11
511.655500398
 21
386.1
 31
0.0
  0
LINE
  8
0
  6
CONTINUOUS
 62
     1
 10
510.655500398
 20
387.1
 30
0.0
 11
510.655500398
 21
425.1
 31
0.0
  0
LINE
  8
0
  6
CONTINUOUS
 62
     1
 10
554.655500398
 20
366.1
 30
0.0
 11
555.655500398
 21
367.1
 31
0.0
  0
LINE
  8
0
  6
CONTINUOUS
 62
     1
 10
543.155500398
 20
367.1
 30
0.0
 11
544.155500398
 21
366.1
 31
0.0
  0
LINE
  8
0
  6
CONTINUOUS
 62
     1
 10
544.155500398
 20
366.1
 30
0.0
 11
554.655500398
 21
366.1
 31
0.0
  0
LINE
  8
0
  6
CONTINUOUS
 62
     1
 10
555.655500398
 20
396.1
 30
0.0
 11
635.194362043
 21
396.1
 31
0.0
  0
LINE
  8
0
  6
CONTINUOUS
 62
     1
 10
635.194362043
 20
396.1
 30
0.0
 11
635.194362043
 21
416.1
 31
0.0
  0
LINE
  8
0
  6
CONTINUOUS
 62
     1
 10
635.194362043
 20
400.1
 30
0.0
 11
654.694362043
 21
400.1
 31
0.0
  0
LINE
  8
0
  6
CONTINUOUS
 62
     1
 10
555.655500398
 20
367.1
 30
0.0
 11
555.655500398
 21
445.1
 31
0.0
  0
LINE
  8
0
  6
CONTINUOUS
 62
     1
 10
543.155500398
 20
367.1
 30
0.0
 11
543.155500398
 21
445.1
 31
0.0
  0
LINE
  8
0
  6
CONTINUOUS
 62
     1
 10
555.655500398
 20
416.1
 30
0.0
 11
635.194362043
 21
416.1
 31
0.0
  0
LINE
  8
0
  6
CONTINUOUS
 62
     1
 10
635.194362043
 20
412.1
 30
0.0
 11
654.694362043
 21
412.1
 31
0.0
  0
LINE
  8
0
  6
CONTINUOUS
 62
     1
 10
655.194362043
 20
411.6
 30
0.0
 11
654.694362043
 21
412.1
 31
0.0
  0
LINE
  8
0
  6
CONTINUOUS
 62
     1
 10
654.694362043
 20
400.1
 30
0.0
 11
655.194362043
 21
400.6
 31
0.0
  0
LINE
  8
0
  6
CONTINUOUS
 62
     1
 10
655.194362043
 20
400.6
 30
0.0
 11
655.194362043
 21
411.6
 31
0.0
  0
LINE
  8
2
  6
CONTINUOUS
 62
     2
 10
555.655500398
 20
415.1
 30
0.0
 11
625.194362043
 21
415.1
 31
0.0
  0
LINE
  8
2
  6
CONTINUOUS
 62
     2
 10
555.655500398
 20
397.1
 30
0.0
 11
625.194362043
 21
397.1
 31
0.0
  0
CIRCLE
  8
0
  6
CONTINUOUS
 62
     1
 10
525.655500398
 20
406.1
 30
0.0
 40
4.55
  0
CIRCLE
  8
2
  6
CONTINUOUS
 62
     2
 10
525.655500398
 20
406.1
 30
0.0
 40
4.85
  0
LINE
  8
0
  6
LTYPE2
 62
     2
 10
521.105500398
 20
406.1
 30
0.0
 11
530.205500398
 21
406.1
 31
0.0
  0
LINE
  8
0
  6
LTYPE2
 62
     2
 10
525.655500398
 20
397.6
 30
0.0
 11
525.655500398
 21
413.6
 31
0.0
  0
LINE
  8
2
  6
CONTINUOUS
 62
     2
 10
340.194362043
 20
382.6
 30
0.0
 11
340.194362043
 21
267.1
 31
0.0
  0
LINE
  8
2
  6
CONTINUOUS
 62
     2
 10
340.194362043
 20
269.1
 30
0.0
 11
345.023991174
 21
267.805904774
 31
0.0
  0
LINE
  8
2
  6
CONTINUOUS
 62
     2
 10
340.194362043
 20
269.1
 30
0.0
 11
345.023991174
 21
270.394095226
 31
0.0
  0
LINE
  8
2
  6
CONTINUOUS
 62
     2
 10
340.194362043
 20
269.1
 30
0.0
 11
450.194362043
 21
269.1
 31
0.0
  0
LINE
  8
2
  6
CONTINUOUS
 62
     2
 10
450.194362043
 20
269.1
 30
0.0
 11
445.364732911
 21
270.394095226
 31
0.0
  0
LINE
  8
2
  6
CONTINUOUS
 62
     2
 10
450.194362043
 20
269.1
 30
0.0
 11
445.364732911
 21
267.805904774
 31
0.0
  0
LINE
  8
2
  6
CONTINUOUS
 62
     2
 10
450.194362043
 20
367.1
 30
0.0
 11
450.194362043
 21
267.1
 31
0.0
  0
TEXT
  8
2
  6
CONTINUOUS
 62
     3
 10
384.094362043
 20
270.1
 30
0.0
 40
8.0
  1
１１０
 50
0.0
 41
0.925
 51
0.0
  7
KANJI14
  0
LINE
  8
2
  6
CONTINUOUS
 62
     2
 10
450.194362043
 20
272.1
 30
0.0
 11
450.194362043
 21
267.1
 31
0.0
  0
LINE
  8
2
  6
CONTINUOUS
 62
     2
 10
450.194362043
 20
269.1
 30
0.0
 11
455.023991174
 21
267.805904774
 31
0.0
  0
LINE
  8
2
  6
CONTINUOUS
 62
     2
 10
450.194362043
 20
269.1
 30
0.0
 11
455.023991174
 21
270.394095226
 31
0.0
  0
LINE
  8
2
  6
CONTINUOUS
 62
     2
 10
450.194362043
 20
269.1
 30
0.0
 11
655.194362043
 21
269.1
 31
0.0
  0
LINE
  8
2
  6
CONTINUOUS
 62
     2
 10
655.194362043
 20
269.1
 30
0.0
 11
650.364732911
 21
270.394095226
 31
0.0
  0
LINE
  8
2
  6
CONTINUOUS
 62
     2
 10
655.194362043
 20
269.1
 30
0.0
 11
650.364732911
 21
267.805904774
 31
0.0
  0
LINE
  8
2
  6
CONTINUOUS
 62
     2
 10
655.194362043
 20
398.6
 30
0.0
 11
655.194362043
 21
267.1
 31
0.0
  0
LINE
  8
2
  6
CONTINUOUS
 62
     2
 10
340.194362043
 20
289.4
 30
0.0
 11
340.194362043
 21
286.9
 31
0.0
  0
LINE
  8
2
  6
CONTINUOUS
 62
     2
 10
340.194362043
 20
288.9
 30
0.0
 11
345.023991174
 21
287.605904774
 31
0.0
  0
LINE
  8
2
  6
CONTINUOUS
 62
     2
 10
340.194362043
 20
288.9
 30
0.0
 11
345.023991174
 21
290.194095226
 31
0.0
  0
LINE
  8
2
  6
CONTINUOUS
 62
     2
 10
340.194362043
 20
288.9
 30
0.0
 11
365.194362043
 21
288.9
 31
0.0
  0
LINE
  8
2
  6
CONTINUOUS
 62
     2
 10
365.194362043
 20
288.9
 30
0.0
 11
360.364732911
 21
290.194095226
 31
0.0
  0
LINE
  8
2
  6
CONTINUOUS
 62
     2
 10
365.194362043
 20
288.9
 30
0.0
 11
360.364732911
 21
287.605904774
 31
0.0
  0
LINE
  8
2
  6
CONTINUOUS
 62
     2
 10
365.194362043
 20
376.6
 30
0.0
 11
365.194362043
 21
286.9
 31
0.0
  0
TEXT
  8
2
  6
CONTINUOUS
 62
     3
 10
345.294362043
 20
289.9
 30
0.0
 40
8.0
  1
２５
 50
0.0
 41
0.925
 51
0.0
  7
KANJI14
  0
LINE
  8
2
  6
CONTINUOUS
 62
     2
 10
365.194362043
 20
294.4
 30
0.0
 11
365.194362043
 21
286.9
 31
0.0
  0
LINE
  8
2
  6
CONTINUOUS
 62
     2
 10
365.194362043
 20
288.9
 30
0.0
 11
370.023991174
 21
287.605904774
 31
0.0
  0
LINE
  8
2
  6
CONTINUOUS
 62
     2
 10
365.194362043
 20
288.9
 30
0.0
 11
370.023991174
 21
290.194095226
 31
0.0
  0
LINE
  8
2
  6
CONTINUOUS
 62
     2
 10
365.194362043
 20
288.9
 30
0.0
 11
450.194362043
 21
288.9
 31
0.0
  0
LINE
  8
2
  6
CONTINUOUS
 62
     2
 10
450.194362043
 20
288.9
 30
0.0
 11
445.364732911
 21
290.194095226
 31
0.0
  0
LINE
  8
2
  6
CONTINUOUS
 62
     2
 10
450.194362043
 20
288.9
 30
0.0
 11
445.364732911
 21
287.605904774
 31
0.0
  0
LINE
  8
2
  6
CONTINUOUS
 62
     2
 10
450.194362043
 20
286.9
 30
0.0
 11
450.194362043
 21
286.9
 31
0.0
  0
TEXT
  8
2
  6
CONTINUOUS
 62
     3
 10
400.294362043
 20
289.9
 30
0.0
 40
8.0
  1
８５
 50
0.0
 41
0.925
 51
0.0
  7
KANJI14
  0
LINE
  8
2
  6
CONTINUOUS
 62
     2
 10
450.194362043
 20
311.2
 30
0.0
 11
450.194362043
 21
307.2
 31
0.0
  0
LINE
  8
2
  6
CONTINUOUS
 62
     2
 10
450.194362043
 20
309.2
 30
0.0
 11
445.364732911
 21
310.494095226
 31
0.0
  0
LINE
  8
2
  6
CONTINUOUS
 62
     2
 10
450.194362043
 20
309.2
 30
0.0
 11
445.364732911
 21
307.905904774
 31
0.0
  0
LINE
  8
2
  6
CONTINUOUS
 62
     2
 10
450.194362043
 20
309.2
 30
0.0
 11
410.194362043
 21
309.2
 31
0.0
  0
LINE
  8
2
  6
CONTINUOUS
 62
     2
 10
410.194362043
 20
309.2
 30
0.0
 11
415.023991174
 21
307.905904774
 31
0.0
  0
LINE
  8
2
  6
CONTINUOUS
 62
     2
 10
410.194362043
 20
309.2
 30
0.0
 11
415.023991174
 21
310.494095226
 31
0.0
  0
LINE
  8
2
  6
CONTINUOUS
 62
     2
 10
410.194362043
 20
340.7
 30
0.0
 11
410.194362043
 21
307.2
 31
0.0
  0
TEXT
  8
2
  6
CONTINUOUS
 62
     3
 10
422.794362043
 20
310.2
 30
0.0
 40
8.0
  1
４０
 50
0.0
 41
0.925
 51
0.0
  7
KANJI14
  0
LINE
  8
2
  6
CONTINUOUS
 62
     2
 10
410.194362043
 20
312.2
 30
0.0
 11
410.194362043
 21
307.2
 31
0.0
  0
LINE
  8
2
  6
CONTINUOUS
 62
     2
 10
410.194362043
 20
309.2
 30
0.0
 11
405.364732911
 21
310.494095226
 31
0.0
  0
LINE
  8
2
  6
CONTINUOUS
 62
     2
 10
410.194362043
 20
309.2
 30
0.0
 11
405.364732911
 21
307.905904774
 31
0.0
  0
LINE
  8
2
  6
CONTINUOUS
 62
     2
 10
410.194362043
 20
309.2
 30
0.0
 11
370.194362043
 21
309.2
 31
0.0
  0
LINE
  8
2
  6
CONTINUOUS
 62
     2
 10
370.194362043
 20
309.2
 30
0.0
 11
375.023991174
 21
307.905904774
 31
0.0
  0
LINE
  8
2
  6
CONTINUOUS
 62
     2
 10
370.194362043
 20
309.2
 30
0.0
 11
375.023991174
 21
310.494095226
 31
0.0
  0
LINE
  8
2
  6
CONTINUOUS
 62
     2
 10
370.194362043
 20
366.1
 30
0.0
 11
370.194362043
 21
307.2
 31
0.0
  0
TEXT
  8
2
  6
CONTINUOUS
 62
     3
 10
382.794362043
 20
310.2
 30
0.0
 40
8.0
  1
４０
 50
0.0
 41
0.925
 51
0.0
  7
KANJI14
  0
LINE
  8
2
  6
CONTINUOUS
 62
     2
 10
370.194362043
 20
311.2
 30
0.0
 11
370.194362043
 21
307.2
 31
0.0
  0
LINE
  8
2
  6
CONTINUOUS
 62
     2
 10
370.194362043
 20
309.2
 30
0.0
 11
375.023991174
 21
307.905904774
 31
0.0
  0
LINE
  8
2
  6
CONTINUOUS
 62
     2
 10
370.194362043
 20
309.2
 30
0.0
 11
375.023991174
 21
310.494095226
 31
0.0
  0
LINE
  8
2
  6
CONTINUOUS
 62
     2
 10
377.694362043
 20
309.2
 30
0.0
 11
370.194362043
 21
309.2
 31
0.0
  0
LINE
  8
2
  6
CONTINUOUS
 62
     2
 10
370.194362043
 20
309.2
 30
0.0
 11
365.194362043
 21
309.2
 31
0.0
  0
LINE
  8
2
  6
CONTINUOUS
 62
     2
 10
365.194362043
 20
309.2
 30
0.0
 11
350.294362043
 21
309.2
 31
0.0
  0
LINE
  8
2
  6
CONTINUOUS
 62
     2
 10
365.194362043
 20
309.2
 30
0.0
 11
360.364732911
 21
310.494095226
 31
0.0
  0
LINE
  8
2
  6
CONTINUOUS
 62
     2
 10
365.194362043
 20
309.2
 30
0.0
 11
360.364732911
 21
307.905904774
 31
0.0
  0
LINE
  8
2
  6
CONTINUOUS
 62
     2
 10
365.194362043
 20
310.2
 30
0.0
 11
365.194362043
 21
307.2
 31
0.0
  0
TEXT
  8
2
  6
CONTINUOUS
 62
     3
 10
350.294362043
 20
310.2
 30
0.0
 40
8.0
  1
５
 50
0.0
 41
0.925
 51
0.0
  7
KANJI14
  0
LINE
  8
2
  6
CONTINUOUS
 62
     2
 10
450.194362043
 20
329.0
 30
0.0
 11
450.194362043
 21
327.0
 31
0.0
  0
LINE
  8
2
  6
CONTINUOUS
 62
     2
 10
450.194362043
 20
329.0
 30
0.0
 11
455.023991174
 21
327.705904774
 31
0.0
  0
LINE
  8
2
  6
CONTINUOUS
 62
     2
 10
450.194362043
 20
329.0
 30
0.0
 11
455.023991174
 21
330.294095226
 31
0.0
  0
LINE
  8
2
  6
CONTINUOUS
 62
     2
 10
457.694362043
 20
329.0
 30
0.0
 11
450.194362043
 21
329.0
 31
0.0
  0
LINE
  8
2
  6
CONTINUOUS
 62
     2
 10
450.194362043
 20
329.0
 30
0.0
 11
440.194362043
 21
329.0
 31
0.0
  0
LINE
  8
2
  6
CONTINUOUS
 62
     2
 10
440.194362043
 20
329.0
 30
0.0
 11
417.894362043
 21
329.0
 31
0.0
  0
LINE
  8
2
  6
CONTINUOUS
 62
     2
 10
440.194362043
 20
329.0
 30
0.0
 11
435.364732911
 21
330.294095226
 31
0.0
  0
LINE
  8
2
  6
CONTINUOUS
 62
     2
 10
440.194362043
 20
329.0
 30
0.0
 11
435.364732911
 21
327.705904774
 31
0.0
  0
LINE
  8
2
  6
CONTINUOUS
 62
     2
 10
440.194362043
 20
366.998979486
 30
0.0
 11
440.194362043
 21
327.0
 31
0.0
  0
TEXT
  8
2
  6
CONTINUOUS
 62
     3
 10
417.894362043
 20
330.0
 30
0.0
 40
8.0
  1
１０
 50
0.0
 41
0.925
 51
0.0
  7
KANJI14
  0
LINE
  8
2
  6
CONTINUOUS
 62
     2
 10
450.194362043
 20
348.498979486
 30
0.0
 11
450.194362043
 21
342.998979486
 31
0.0
  0
LINE
  8
2
  6
CONTINUOUS
 62
     2
 10
543.155500398
 20
365.1
 30
0.0
 11
543.155500398
 21
327.0
 31
0.0
  0
LINE
  8
2
  6
CONTINUOUS
 62
     2
 10
543.155500398
 20
329.0
 30
0.0
 11
538.325871267
 21
330.294095226
 31
0.0
  0
LINE
  8
2
  6
CONTINUOUS
 62
     2
 10
543.155500398
 20
329.0
 30
0.0
 11
538.325871267
 21
327.705904774
 31
0.0
  0
LINE
  8
2
  6
CONTINUOUS
 62
     2
 10
535.655500398
 20
329.0
 30
0.0
 11
543.155500398
 21
329.0
 31
0.0
  0
LINE
  8
2
  6
CONTINUOUS
 62
     2
 10
543.155500398
 20
329.0
 30
0.0
 11
555.655500398
 21
329.0
 31
0.0
  0
LINE
  8
2
  6
CONTINUOUS
 62
     2
 10
555.655500398
 20
329.0
 30
0.0
 11
592.755500398
 21
329.0
 31
0.0
  0
LINE
  8
2
  6
CONTINUOUS
 62
     2
 10
555.655500398
 20
329.0
 30
0.0
 11
560.48512953
 21
327.705904774
 31
0.0
  0
LINE
  8
2
  6
CONTINUOUS
 62
     2
 10
555.655500398
 20
329.0
 30
0.0
 11
560.48512953
 21
330.294095226
 31
0.0
  0
LINE
  8
2
  6
CONTINUOUS
 62
     2
 10
555.655500398
 20
365.1
 30
0.0
 11
555.655500398
 21
327.0
 31
0.0
  0
TEXT
  8
2
  6
CONTINUOUS
 62
     3
 10
563.155500398
 20
330.0
 30
0.0
 40
8.0
  1
１２．５
 50
0.0
 41
0.925
 51
0.0
  7
KANJI14
  0
LINE
  8
2
  6
CONTINUOUS
 62
     2
 10
555.655500398
 20
332.6
 30
0.0
 11
555.655500398
 21
307.2
 31
0.0
  0
LINE
  8
2
  6
CONTINUOUS
 62
     2
 10
555.655500398
 20
309.2
 30
0.0
 11
550.825871267
 21
310.494095226
 31
0.0
  0
LINE
  8
2
  6
CONTINUOUS
 62
     2
 10
555.655500398
 20
309.2
 30
0.0
 11
550.825871267
 21
307.905904774
 31
0.0
  0
LINE
  8
2
  6
CONTINUOUS
 62
     2
 10
555.655500398
 20
309.2
 30
0.0
 11
510.655500398
 21
309.2
 31
0.0
  0
LINE
  8
2
  6
CONTINUOUS
 62
     2
 10
510.655500398
 20
309.2
 30
0.0
 11
515.48512953
 21
307.905904774
 31
0.0
  0
LINE
  8
2
  6
CONTINUOUS
 62
     2
 10
510.655500398
 20
309.2
 30
0.0
 11
515.48512953
 21
310.494095226
 31
0.0
  0
LINE
  8
2
  6
CONTINUOUS
 62
     2
 10
510.655500398
 20
385.1
 30
0.0
 11
510.655500398
 21
307.2
 31
0.0
  0
TEXT
  8
2
  6
CONTINUOUS
 62
     3
 10
525.755500398
 20
310.2
 30
0.0
 40
8.0
  1
４５
 50
0.0
 41
0.925
 51
0.0
  7
KANJI14
  0
LINE
  8
2
  6
CONTINUOUS
 62
     2
 10
655.194362043
 20
308.7
 30
0.0
 11
655.194362043
 21
311.2
 31
0.0
  0
LINE
  8
2
  6
CONTINUOUS
 62
     2
 10
655.194362043
 20
309.2
 30
0.0
 11
650.364732911
 21
310.494095226
 31
0.0
  0
LINE
  8
2
  6
CONTINUOUS
 62
     2
 10
655.194362043
 20
309.2
 30
0.0
 11
650.364732911
 21
307.905904774
 31
0.0
  0
LINE
  8
2
  6
CONTINUOUS
 62
     2
 10
655.194362043
 20
309.2
 30
0.0
 11
635.194362043
 21
309.2
 31
0.0
  0
LINE
  8
2
  6
CONTINUOUS
 62
     2
 10
635.194362043
 20
309.2
 30
0.0
 11
640.023991174
 21
307.905904774
 31
0.0
  0
LINE
  8
2
  6
CONTINUOUS
 62
     2
 10
635.194362043
 20
309.2
 30
0.0
 11
640.023991174
 21
310.494095226
 31
0.0
  0
LINE
  8
2
  6
CONTINUOUS
 62
     2
 10
635.194362043
 20
394.1
 30
0.0
 11
635.194362043
 21
307.2
 31
0.0
  0
TEXT
  8
2
  6
CONTINUOUS
 62
     3
 10
637.794362043
 20
310.2
 30
0.0
 40
8.0
  1
２０
 50
0.0
 41
0.925
 51
0.0
  7
KANJI14
  0
LINE
  8
6
  6
LTYPE2
 62
     2
 10
329.629234716
 20
406.1
 30
0.0
 11
659.194362043
 21
406.1
 31
0.0
  0
LINE
  8
2
  6
CONTINUOUS
 62
     2
 10
656.694362043
 20
412.1
 30
0.0
 11
671.694362043
 21
412.1
 31
0.0
  0
LINE
  8
2
  6
CONTINUOUS
 62
     2
 10
669.694362043
 20
412.1
 30
0.0
 11
670.988457268
 21
416.929629131
 31
0.0
  0
LINE
  8
2
  6
CONTINUOUS
 62
     2
 10
669.694362043
 20
412.1
 30
0.0
 11
668.400266817
 21
416.929629131
 31
0.0
  0
LINE
  8
2
  6
CONTINUOUS
 62
     2
 10
669.694362043
 20
419.6
 30
0.0
 11
669.694362043
 21
412.1
 31
0.0
  0
LINE
  8
2
  6
CONTINUOUS
 62
     2
 10
669.694362043
 20
412.1
 30
0.0
 11
669.694362043
 21
400.1
 31
0.0
  0
LINE
  8
2
  6
CONTINUOUS
 62
     2
 10
669.694362043
 20
400.1
 30
0.0
 11
669.694362043
 21
355.6
 31
0.0
  0
LINE
  8
2
  6
CONTINUOUS
 62
     2
 10
669.694362043
 20
400.1
 30
0.0
 11
668.400266817
 21
395.270370869
 31
0.0
  0
LINE
  8
2
  6
CONTINUOUS
 62
     2
 10
669.694362043
 20
400.1
 30
0.0
 11
670.988457268
 21
395.270370869
 31
0.0
  0
LINE
  8
2
  6
CONTINUOUS
 62
     2
 10
656.694362043
 20
400.1
 30
0.0
 11
671.694362043
 21
400.1
 31
0.0
  0
TEXT
  8
2
  6
CONTINUOUS
 62
     3
 10
668.694362043
 20
355.6
 30
0.0
 40
8.0
  1
φ１２ｈ７
 50
90.0
 41
0.925
 51
0.0
  7
KANJI14
  0
LINE
  8
2
  6
CONTINUOUS
 62
     2
 10
620.694362043
 20
396.1
 30
0.0
 11
621.694362043
 21
396.1
 31
0.0
  0
LINE
  8
2
  6
CONTINUOUS
 62
     2
 10
619.694362043
 20
396.1
 30
0.0
 11
618.400266817
 21
391.270370869
 31
0.0
  0
LINE
  8
2
  6
CONTINUOUS
 62
     2
 10
619.694362043
 20
396.1
 30
0.0
 11
620.988457268
 21
391.270370869
 31
0.0
  0
LINE
  8
2
  6
CONTINUOUS
 62
     2
 10
619.694362043
 20
336.8
 30
0.0
 11
619.694362043
 21
396.1
 31
0.0
  0
LINE
  8
2
  6
CONTINUOUS
 62
     2
 10
619.694362043
 20
396.1
 30
0.0
 11
619.694362043
 21
416.1
 31
0.0
  0
LINE
  8
2
  6
CONTINUOUS
 62
     2
 10
619.694362043
 20
416.1
 30
0.0
 11
619.694362043
 21
423.6
 31
0.0
  0
LINE
  8
2
  6
CONTINUOUS
 62
     2
 10
619.694362043
 20
416.1
 30
0.0
 11
620.988457268
 21
420.929629131
 31
0.0
  0
LINE
  8
2
  6
CONTINUOUS
 62
     2
 10
619.694362043
 20
416.1
 30
0.0
 11
618.400266817
 21
420.929629131
 31
0.0
  0
LINE
  8
2
  6
CONTINUOUS
 62
     2
 10
620.194362043
 20
416.1
 30
0.0
 11
621.694362043
 21
416.1
 31
0.0
  0
TEXT
  8
2
  6
CONTINUOUS
 62
     3
 10
618.694362043
 20
336.8
 30
0.0
 40
8.0
  1
φ２０　Ｌ＝４
 50
90.0
 41
0.925
 51
0.0
  7
KANJI14
  0
LINE
  8
2
  6
CONTINUOUS
 62
     2
 10
509.655500398
 20
426.1
 30
0.0
 11
497.5
 21
426.1
 31
0.0
  0
LINE
  8
2
  6
CONTINUOUS
 62
     2
 10
499.5
 20
426.1
 30
0.0
 11
500.794095226
 21
430.929629131
 31
0.0
  0
LINE
  8
2
  6
CONTINUOUS
 62
     2
 10
499.5
 20
426.1
 30
0.0
 11
498.205904774
 21
430.929629131
 31
0.0
  0
LINE
  8
2
  6
CONTINUOUS
 62
     2
 10
499.5
 20
433.6
 30
0.0
 11
499.5
 21
426.1
 31
0.0
  0
LINE
  8
2
  6
CONTINUOUS
 62
     2
 10
499.5
 20
426.1
 30
0.0
 11
499.5
 21
386.1
 31
0.0
  0
LINE
  8
2
  6
CONTINUOUS
 62
     2
 10
499.5
 20
386.1
 30
0.0
 11
499.5
 21
356.4
 31
0.0
  0
LINE
  8
2
  6
CONTINUOUS
 62
     2
 10
499.5
 20
386.1
 30
0.0
 11
498.205904774
 21
381.270370869
 31
0.0
  0
LINE
  8
2
  6
CONTINUOUS
 62
     2
 10
499.5
 20
386.1
 30
0.0
 11
500.794095226
 21
381.270370869
 31
0.0
  0
LINE
  8
2
  6
CONTINUOUS
 62
     2
 10
509.655500398
 20
386.1
 30
0.0
 11
497.5
 21
386.1
 31
0.0
  0
TEXT
  8
2
  6
CONTINUOUS
 62
     3
 10
498.5
 20
356.4
 30
0.0
 40
8.0
  1
φ４０
 50
90.0
 41
0.925
 51
0.0
  7
KANJI14
  0
LINE
  8
2
  6
CONTINUOUS
 62
     2
 10
523.155500398
 20
410.6
 30
0.0
 11
522.761824023
 21
415.584477797
 31
0.0
  0
LINE
  8
2
  6
CONTINUOUS
 62
     2
 10
523.155500398
 20
410.6
 30
0.0
 11
520.322327758
 21
414.71984621
 31
0.0
  0
LINE
  8
2
  6
CONTINUOUS
 62
     2
 10
523.155500398
 20
410.6
 30
0.0
 11
509.155500398
 21
450.1
 31
0.0
  0
TEXT
  8
2
  6
CONTINUOUS
 62
     3
 10
519.094362043
 20
270.1
 30
0.0
 40
8.0
  1
ＬＥ＝ストローク＋ＬＴ
 50
0.0
 41
0.925
 51
0.0
  7
KANJI14
  0
LINE
  8
2
  6
CONTINUOUS
 62
     2
 10
338.194362043
 20
427.6
 30
0.0
 11
318.0
 21
427.6
 31
0.0
  0
LINE
  8
2
  6
CONTINUOUS
 62
     2
 10
320.0
 20
427.6
 30
0.0
 11
318.705904774
 21
422.770370869
 31
0.0
  0
LINE
  8
2
  6
CONTINUOUS
 62
     2
 10
320.0
 20
427.6
 30
0.0
 11
321.294095226
 21
422.770370869
 31
0.0
  0
LINE
  8
2
  6
CONTINUOUS
 62
     2
 10
320.0
 20
427.6
 30
0.0
 11
320.0
 21
384.6
 31
0.0
  0
LINE
  8
2
  6
CONTINUOUS
 62
     2
 10
320.0
 20
384.6
 30
0.0
 11
321.294095226
 21
389.429629131
 31
0.0
  0
LINE
  8
2
  6
CONTINUOUS
 62
     2
 10
320.0
 20
384.6
 30
0.0
 11
318.705904774
 21
389.429629131
 31
0.0
  0
LINE
  8
2
  6
CONTINUOUS
 62
     2
 10
338.194362043
 20
384.6
 30
0.0
 11
318.0
 21
384.6
 31
0.0
  0
TEXT
  8
2
  6
CONTINUOUS
 62
     3
 10
319.0
 20
395.0
 30
0.0
 40
8.0
  1
φ４３
 50
90.0
 41
0.925
 51
0.0
  7
KANJI14
  0
LINE
  8
2
  6
CONTINUOUS
 62
     2
 10
363.194362043
 20
433.6
 30
0.0
 11
297.694362043
 21
433.6
 31
0.0
  0
LINE
  8
2
  6
CONTINUOUS
 62
     2
 10
299.694362043
 20
433.6
 30
0.0
 11
298.400266817
 21
428.770370869
 31
0.0
  0
LINE
  8
2
  6
CONTINUOUS
 62
     2
 10
299.694362043
 20
433.6
 30
0.0
 11
300.988457268
 21
428.770370869
 31
0.0
  0
LINE
  8
2
  6
CONTINUOUS
 62
     2
 10
299.694362043
 20
433.6
 30
0.0
 11
299.694362043
 21
378.6
 31
0.0
  0
LINE
  8
2
  6
CONTINUOUS
 62
     2
 10
299.694362043
 20
378.6
 30
0.0
 11
300.988457268
 21
383.429629131
 31
0.0
  0
LINE
  8
2
  6
CONTINUOUS
 62
     2
 10
299.694362043
 20
378.6
 30
0.0
 11
298.400266817
 21
383.429629131
 31
0.0
  0
LINE
  8
2
  6
CONTINUOUS
 62
     2
 10
363.194362043
 20
378.6
 30
0.0
 11
297.694362043
 21
378.6
 31
0.0
  0
TEXT
  8
2
  6
CONTINUOUS
 62
     3
 10
298.694362043
 20
395.0
 30
0.0
 40
8.0
  1
φ５５
 50
90.0
 41
0.925
 51
0.0
  7
KANJI14
  0
LINE
  8
6
  6
LTYPE2
 62
     2
 10
557.655500398
 20
437.6
 30
0.0
 11
541.155500398
 21
437.6
 31
0.0
  0
LINE
  8
0
  6
CONTINUOUS
 62
     1
 10
450.194362043
 20
444.1
 30
0.0
 11
370.194362043
 21
444.1
 31
0.0
  0
LINE
  8
0
  6
CONTINUOUS
 62
     1
 10
543.155500398
 20
445.1
 30
0.0
 11
544.155500398
 21
446.1
 31
0.0
  0
LINE
  8
0
  6
CONTINUOUS
 62
     1
 10
544.155500398
 20
446.1
 30
0.0
 11
554.655500398
 21
446.1
 31
0.0
  0
LINE
  8
0
  6
CONTINUOUS
 62
     1
 10
555.655500398
 20
445.1
 30
0.0
 11
554.655500398
 21
446.1
 31
0.0
  0
LINE
  8
2
  6
CONTINUOUS
 62
     2
 10
509.155500398
 20
450.1
 30
0.0
 11
465.955500398
 21
450.1
 31
0.0
  0
TEXT
  8
2
  6
CONTINUOUS
 62
     3
 10
465.955500398
 20
451.1
 30
0.0
 40
6.0
  1
グリースニップル
 50
0.0
 41
0.9
 51
0.0
  7
KANJI10
  0
LINE
  8
0
  6
LTYPE2
 62
     2
 10
219.12
 20
151.64
 30
0.0
 11
133.12
 21
151.64
 31
0.0
  0
LINE
  8
0
  6
LTYPE2
 62
     2
 10
176.12
 20
195.14
 30
0.0
 11
176.12
 21
108.14
 31
0.0
  0
CIRCLE
  8
0
  6
CONTINUOUS
 62
     1
 10
176.12
 20
151.64
 30
0.0
 40
40.0
  0
CIRCLE
  8
0
  6
LTYPE2
 62
     2
 10
176.12
 20
151.64
 30
0.0
 40
31.5
  0
CIRCLE
  8
0
  6
CONTINUOUS
 62
     1
 10
176.12
 20
151.64
 30
0.0
 40
20.0
  0
CIRCLE
  8
0
  6
CONTINUOUS
 62
     1
 10
176.12
 20
151.64
 30
0.0
 40
10.0
  0
CIRCLE
  8
0
  6
CONTINUOUS
 62
     2
 10
176.12
 20
151.64
 30
0.0
 40
9.0
  0
CIRCLE
  8
0
  6
CONTINUOUS
 62
     1
 10
153.846136393
 20
173.913863607
 30
0.0
 40
4.5
  0
LINE
  8
0
  6
CONTINUOUS
 62
     2
 10
158.346136393
 20
169.413863607
 30
0.0
 11
148.629234716
 21
179.130765284
 31
0.0
  0
CIRCLE
  8
0
  6
CONTINUOUS
 62
     1
 10
153.846136393
 20
129.366136393
 30
0.0
 40
4.5
  0
LINE
  8
0
  6
CONTINUOUS
 62
     2
 10
158.346136393
 20
133.866136393
 30
0.0
 11
148.629234716
 21
124.149234716
 31
0.0
  0
LINE
  8
0
  6
CONTINUOUS
 62
     2
 10
140.34291236
 20
169.52854382
 30
0.0
 11
238.12
 21
120.64
 31
0.0
  0
LINE
  8
0
  6
CONTINUOUS
 62
     2
 10
146.300527959
 20
141.488690369
 30
0.0
 11
274.797736202
 21
185.232420835
 31
0.0
  0
CIRCLE
  8
0
  6
CONTINUOUS
 62
     1
 10
198.393863607
 20
173.913863607
 30
0.0
 40
4.5
  0
LINE
  8
0
  6
CONTINUOUS
 62
     2
 10
193.893863607
 20
169.413863607
 30
0.0
 11
203.610765284
 21
179.130765284
 31
0.0
  0
LINE
  8
0
  6
CONTINUOUS
 62
     2
 10
140.34291236
 20
169.52854382
 30
0.0
 11
136.601897721
 21
172.845893586
 31
0.0
  0
LINE
  8
0
  6
CONTINUOUS
 62
     2
 10
140.34291236
 20
169.52854382
 30
0.0
 11
135.444423764
 21
170.530945671
 31
0.0
  0
LINE
  8
0
  6
CONTINUOUS
 62
     2
 10
133.634708428
 20
172.882645786
 30
0.0
 11
140.34291236
 21
169.52854382
 31
0.0
  0
TEXT
  8
0
  6
CONTINUOUS
 62
     3
 10
218.297736202
 20
166.586649906
 30
0.0
 40
8.0
  1
Ｐ．Ｃ．Ｄ．６３
 50
18.799885159
 41
0.925
 51
0.0
  7
KANJI14
  0
LINE
  8
0
  6
CONTINUOUS
 62
     2
 10
153.846136393
 20
178.413863607
 30
0.0
 11
152.766116802
 21
183.29582609
 31
0.0
  0
LINE
  8
0
  6
CONTINUOUS
 62
     2
 10
153.846136393
 20
178.413863607
 30
0.0
 11
150.469830749
 21
182.101757343
 31
0.0
  0
LINE
  8
0
  6
CONTINUOUS
 62
     2
 10
153.846136393
 20
178.413863607
 30
0.0
 11
147.346136393
 21
190.913863607
 31
0.0
  0
LINE
  8
0
  6
CONTINUOUS
 62
     2
 10
147.346136393
 20
190.913863607
 30
0.0
 11
125.746136393
 21
190.913863607
 31
0.0
  0
TEXT
  8
0
  6
CONTINUOUS
 62
     3
 10
125.746136393
 20
191.913863607
 30
0.0
 40
6.0
  1
４－φ９
 50
0.0
 41
0.9
 51
0.0
  7
KANJI10
  0
CIRCLE
  8
0
  6
CONTINUOUS
 62
     1
 10
198.393863607
 20
129.366136393
 30
0.0
 40
4.5
  0
LINE
  8
0
  6
CONTINUOUS
 62
     2
 10
193.893863607
 20
133.866136393
 30
0.0
 11
203.610765284
 21
124.149234716
 31
0.0
  0
LINE
  8
0
  6
CONTINUOUS
 62
     2
 10
211.89708764
 20
133.75145618
 30
0.0
 11
215.638102279
 21
130.434106414
 31
0.0
  0
LINE
  8
0
  6
CONTINUOUS
 62
     2
 10
211.89708764
 20
133.75145618
 30
0.0
 11
216.795576236
 21
132.749054329
 31
0.0
  0
LINE
  8
0
  6
CONTINUOUS
 62
     2
 10
146.300527959
 20
141.488690369
 30
0.0
 11
141.311519954
 21
141.157330867
 31
0.0
  0
LINE
  8
0
  6
CONTINUOUS
 62
     2
 10
146.300527959
 20
141.488690369
 30
0.0
 11
142.145600038
 21
138.70722062
 31
0.0
  0
LINE
  8
0
  6
CONTINUOUS
 62
     2
 10
139.200653664
 20
139.071711886
 30
0.0
 11
146.300527959
 21
141.488690369
 31
0.0
  0
TEXT
  8
0
  6
CONTINUOUS
 62
     3
 10
216.567213596
 20
132.534427191
 30
0.0
 40
8.0
  1
φ８０
 50
333.434948823
 41
0.925
 51
0.0
  7
KANJI14
  0
LINE
  8
0
  6
CONTINUOUS
 62
     2
 10
155.12
 20
91.64
 30
0.0
 11
195.12
 21
91.64
 31
0.0
  0
TEXT
  8
0
  6
CONTINUOUS
 62
     3
 10
155.12
 20
92.64
 30
0.0
 40
10.0
  1
矢視　Ａ
 50
0.0
 41
1.0
 51
0.0
  7
KANJI3
  0
LINE
  8
2
  6
CONTINUOUS
 62
     7
 10
324.66
 20
533.2
 30
0.0
 11
334.66
 21
533.2
 31
0.0
  0
LINE
  8
2
  6
CONTINUOUS
 62
     7
 10
324.66
 20
523.2
 30
0.0
 11
324.66
 21
533.2
 31
0.0
  0
LINE
  8
2
  6
CONTINUOUS
 62
     7
 10
334.66
 20
523.2
 30
0.0
 11
334.66
 21
533.2
 31
0.0
  0
LINE
  8
2
  6
CONTINUOUS
 62
     7
 10
324.66
 20
523.2
 30
0.0
 11
334.66
 21
523.2
 31
0.0
  0
LINE
  8
2
  6
LTYPE3
 62
     2
 10
304.66
 20
514.2
 30
0.0
 11
354.66
 21
514.2
 31
0.0
  0
LINE
  8
2
  6
CONTINUOUS
 62
     2
 10
324.66
 20
553.2
 30
0.0
 11
334.66
 21
553.2
 31
0.0
  0
LINE
  8
2
  6
CONTINUOUS
 62
     2
 10
334.66
 20
535.2
 30
0.0
 11
334.66
 21
556.2
 31
0.0
  0
LINE
  8
2
  6
CONTINUOUS
 62
     2
 10
324.66
 20
535.2
 30
0.0
 11
324.66
 21
556.2
 31
0.0
  0
LINE
  8
2
  6
CONTINUOUS
 62
     2
 10
330.66
 20
552.1284
 30
0.0
 11
334.66
 21
553.2
 31
0.0
  0
LINE
  8
2
  6
CONTINUOUS
 62
     2
 10
334.66
 20
553.2
 30
0.0
 11
330.66
 21
554.2718
 31
0.0
  0
LINE
  8
2
  6
CONTINUOUS
 62
     2
 10
328.66
 20
554.2718
 30
0.0
 11
324.66
 21
553.2
 31
0.0
  0
LINE
  8
2
  6
CONTINUOUS
 62
     2
 10
324.66
 20
553.2
 30
0.0
 11
328.66
 21
552.1284
 31
0.0
  0
LINE
  8
2
  6
CONTINUOUS
 62
     2
 10
254.66
 20
499.2
 30
0.0
 11
254.66
 21
533.2
 31
0.0
  0
LINE
  8
2
  6
CONTINUOUS
 62
     2
 10
322.66
 20
533.2
 30
0.0
 11
251.66
 21
533.2
 31
0.0
  0
LINE
  8
2
  6
CONTINUOUS
 62
     2
 10
327.66
 20
499.2
 30
0.0
 11
251.66
 21
499.2
 31
0.0
  0
LINE
  8
2
  6
CONTINUOUS
 62
     2
 10
255.7318
 20
529.2
 30
0.0
 11
254.66
 21
533.2
 31
0.0
  0
LINE
  8
2
  6
CONTINUOUS
 62
     2
 10
254.66
 20
533.2
 30
0.0
 11
253.5884
 21
529.2
 31
0.0
  0
LINE
  8
2
  6
CONTINUOUS
 62
     2
 10
253.5884
 20
503.2
 30
0.0
 11
254.66
 21
499.2
 31
0.0
  0
LINE
  8
2
  6
CONTINUOUS
 62
     2
 10
254.66
 20
499.2
 30
0.0
 11
255.7318
 21
503.2
 31
0.0
  0
LINE
  8
2
  6
CONTINUOUS
 62
     2
 10
320.22
 20
525.82
 30
0.0
 11
339.12
 21
502.58
 31
0.0
  0
LINE
  8
2
  6
CONTINUOUS
 62
     2
 10
344.1676
 20
496.3734
 30
0.0
 11
339.12
 21
502.58
 31
0.0
  0
LINE
  8
2
  6
CONTINUOUS
 62
     2
 10
342.4754
 20
500.153
 30
0.0
 11
339.12
 21
502.58
 31
0.0
  0
LINE
  8
2
  6
CONTINUOUS
 62
     2
 10
339.12
 20
502.58
 30
0.0
 11
340.8124
 21
498.8006
 31
0.0
  0
LINE
  8
2
  6
CONTINUOUS
 62
     2
 10
315.1726
 20
532.0268
 30
0.0
 11
320.22
 21
525.82
 31
0.0
  0
LINE
  8
2
  6
CONTINUOUS
 62
     2
 10
316.8648
 20
528.2472
 30
0.0
 11
320.22
 21
525.82
 31
0.0
  0
LINE
  8
2
  6
CONTINUOUS
 62
     2
 10
320.22
 20
525.82
 30
0.0
 11
318.5278
 21
529.5996
 31
0.0
  0
LINE
  8
2
  6
CONTINUOUS
 62
     2
 10
344.1676
 20
496.3734
 30
0.0
 11
364.0046
 21
471.9816
 31
0.0
  0
TEXT
  8
2
  6
CONTINUOUS
 62
     4
 10
345.429054685
 20
497.992296016
 30
0.0
 40
6.4
  1
φ１５
 50
309.12
 41
0.90625
 51
0.0
  7
KANJI13
  0
LINE
  8
2
  6
LTYPE3
 62
     2
 10
329.66
 20
489.2
 30
0.0
 11
329.66
 21
545.76
 31
0.0
  0
TEXT
  8
2
  6
CONTINUOUS
 62
     4
 10
316.1600004
 20
458.74
 30
0.0
 40
9.0
  1
入力軸
 50
0.0
 41
0.8888888
 51
0.0
  7
KANJI15
  0
LINE
  8
2
  6
CONTINUOUS
 62
     2
 10
294.66
 20
529.2
 30
0.0
 11
294.66
 21
533.2
 31
0.0
  0
LINE
  8
2
  6
CONTINUOUS
 62
     2
 10
322.66
 20
533.2
 30
0.0
 11
291.66
 21
533.2
 31
0.0
  0
LINE
  8
2
  6
CONTINUOUS
 62
     2
 10
327.66
 20
529.2
 30
0.0
 11
291.66
 21
529.2
 31
0.0
  0
LINE
  8
2
  6
CONTINUOUS
 62
     2
 10
294.66
 20
541.2
 30
0.0
 11
294.66
 21
533.2
 31
0.0
  0
LINE
  8
2
  6
CONTINUOUS
 62
     2
 10
293.5884
 20
537.2
 30
0.0
 11
294.66
 21
533.2
 31
0.0
  0
LINE
  8
2
  6
CONTINUOUS
 62
     2
 10
294.66
 20
533.2
 30
0.0
 11
295.7318
 21
537.2
 31
0.0
  0
LINE
  8
2
  6
CONTINUOUS
 62
     2
 10
294.66
 20
529.2
 30
0.0
 11
294.66
 21
521.2
 31
0.0
  0
LINE
  8
2
  6
CONTINUOUS
 62
     2
 10
295.7318
 20
525.2
 30
0.0
 11
294.66
 21
529.2
 31
0.0
  0
LINE
  8
2
  6
CONTINUOUS
 62
     2
 10
294.66
 20
529.2
 30
0.0
 11
293.5884
 21
525.2
 31
0.0
  0
LINE
  8
2
  6
CONTINUOUS
 62
     2
 10
274.66
 20
523.2
 30
0.0
 11
274.66
 21
533.2
 31
0.0
  0
LINE
  8
2
  6
CONTINUOUS
 62
     2
 10
322.66
 20
533.2
 30
0.0
 11
271.66
 21
533.2
 31
0.0
  0
LINE
  8
2
  6
CONTINUOUS
 62
     2
 10
322.66
 20
523.2
 30
0.0
 11
271.66
 21
523.2
 31
0.0
  0
LINE
  8
2
  6
CONTINUOUS
 62
     2
 10
274.66
 20
541.2
 30
0.0
 11
274.66
 21
533.2
 31
0.0
  0
LINE
  8
2
  6
CONTINUOUS
 62
     2
 10
273.5884
 20
537.2
 30
0.0
 11
274.66
 21
533.2
 31
0.0
  0
LINE
  8
2
  6
CONTINUOUS
 62
     2
 10
274.66
 20
533.2
 30
0.0
 11
275.7318
 21
537.2
 31
0.0
  0
LINE
  8
2
  6
CONTINUOUS
 62
     2
 10
274.66
 20
523.2
 30
0.0
 11
274.66
 21
515.2
 31
0.0
  0
LINE
  8
2
  6
CONTINUOUS
 62
     2
 10
275.7318
 20
519.2
 30
0.0
 11
274.66
 21
523.2
 31
0.0
  0
LINE
  8
2
  6
CONTINUOUS
 62
     2
 10
274.66
 20
523.2
 30
0.0
 11
273.5884
 21
519.2
 31
0.0
  0
ARC
  8
2
  6
CONTINUOUS
 62
     7
 10
329.66
 20
514.2
 30
0.0
 40
15.0
 50
109.47394
 51
70.526059
  0
TEXT
  8
2
  6
CONTINUOUS
 62
     4
 10
252.46
 20
510.3
 30
0.0
 40
6.4
  1
１７
 50
90.0
 41
0.90625
 51
0.0
  7
KANJI13
  0
TEXT
  8
2
  6
CONTINUOUS
 62
     4
 10
272.46
 20
525.2
 30
0.0
 40
6.4
  1
５
 50
90.0
 41
0.90625
 51
0.0
  7
KANJI13
  0
TEXT
  8
2
  6
CONTINUOUS
 62
     4
 10
292.46
 20
528.2
 30
0.0
 40
6.4
  1
２
 50
90.0
 41
0.90625
 51
0.0
  7
KANJI13
  0
TEXT
  8
2
  6
CONTINUOUS
 62
     4
 10
356.407654685
 20
484.492896016
 30
0.0
 40
6.4
  1
ｈ６
 50
309.12
 41
0.90625
 51
0.0
  7
KANJI13
  0
LINE
  8
2
  6
CONTINUOUS
 62
     2
 10
317.2
 20
455.96
 30
0.0
 11
348.98
 21
455.96
 31
0.0
  0
LINE
  8
0
  6
CONTINUOUS
 62
     2
 10
543.155500398
 20
462.1
 30
0.0
 11
538.325871267
 21
463.394095226
 31
0.0
  0
LINE
  8
0
  6
CONTINUOUS
 62
     2
 10
543.155500398
 20
462.1
 30
0.0
 11
538.325871267
 21
460.805904774
 31
0.0
  0
LINE
  8
0
  6
CONTINUOUS
 62
     2
 10
543.155500398
 20
462.1
 30
0.0
 11
527.155500398
 21
462.1
 31
0.0
  0
LINE
  8
0
  6
CONTINUOUS
 62
     2
 10
527.155500398
 20
462.1
 30
0.0
 11
521.755500398
 21
462.1
 31
0.0
  0
TEXT
  8
0
  6
CONTINUOUS
 62
     3
 10
521.755500398
 20
463.1
 30
0.0
 40
6.0
  1
Ａ
 50
0.0
 41
0.9
 51
0.0
  7
KANJI10
  0
LINE
  8
0
  6
CONTINUOUS
 62
     2
 10
543.155500398
 20
458.0
 30
0.0
 11
543.155500398
 21
466.0
 31
0.0
  0
LINE
  8
3
  6
CONTINUOUS
 62
     2
 10
292.5
 20
67.08
 30
0.0
 11
292.5
 21
207.08
 31
0.0
  0
LINE
  8
3
  6
CONTINUOUS
 62
     2
 10
292.5
 20
67.08
 30
0.0
 11
518.82
 21
67.08
 31
0.0
  0
LINE
  8
3
  6
CONTINUOUS
 62
     2
 10
292.5
 20
81.08
 30
0.0
 11
518.5
 21
81.08
 31
0.0
  0
LINE
  8
3
  6
CONTINUOUS
 62
     2
 10
292.5
 20
95.08
 30
0.0
 11
518.5
 21
95.08
 31
0.0
  0
LINE
  8
3
  6
CONTINUOUS
 62
     2
 10
292.5
 20
109.08
 30
0.0
 11
518.5
 21
109.08
 31
0.0
  0
LINE
  8
3
  6
CONTINUOUS
 62
     2
 10
292.5
 20
123.08
 30
0.0
 11
518.5
 21
123.08
 31
0.0
  0
LINE
  8
3
  6
CONTINUOUS
 62
     2
 10
292.5
 20
137.08
 30
0.0
 11
518.5
 21
137.08
 31
0.0
  0
LINE
  8
3
  6
CONTINUOUS
 62
     2
 10
292.5
 20
165.08
 30
0.0
 11
518.5
 21
165.08
 31
0.0
  0
LINE
  8
3
  6
CONTINUOUS
 62
     2
 10
292.5
 20
179.08
 30
0.0
 11
518.5
 21
179.08
 31
0.0
  0
LINE
  8
3
  6
CONTINUOUS
 62
     2
 10
292.5
 20
193.08
 30
0.0
 11
518.5
 21
193.08
 31
0.0
  0
LINE
  8
3
  6
CONTINUOUS
 62
     2
 10
292.5
 20
207.08
 30
0.0
 11
518.5
 21
207.08
 31
0.0
  0
LINE
  8
3
  6
CONTINUOUS
 62
     2
 10
292.5
 20
151.08
 30
0.0
 11
518.5
 21
151.08
 31
0.0
  0
LINE
  8
3
  6
CONTINUOUS
 62
     2
 10
352.5
 20
67.08
 30
0.0
 11
352.5
 21
207.08
 31
0.0
  0
LINE
  8
3
  6
CONTINUOUS
 62
     2
 10
386.5
 20
67.08
 30
0.0
 11
386.5
 21
207.08
 31
0.0
  0
LINE
  8
3
  6
CONTINUOUS
 62
     2
 10
420.5
 20
67.08
 30
0.0
 11
420.5
 21
207.08
 31
0.0
  0
LINE
  8
3
  6
CONTINUOUS
 62
     2
 10
488.5
 20
67.08
 30
0.0
 11
488.5
 21
207.08
 31
0.0
  0
LINE
  8
3
  6
CONTINUOUS
 62
     2
 10
454.5
 20
67.08
 30
0.0
 11
454.5
 21
207.08
 31
0.0
  0
LINE
  8
3
  6
CONTINUOUS
 62
     2
 10
518.5
 20
67.08
 30
0.0
 11
518.5
 21
207.08
 31
0.0
  0
TEXT
  8
3
  6
CONTINUOUS
 62
     3
 10
457.86
 20
182.62
 30
0.0
 40
6.4
  1
　　４．６
 50
0.0
 41
0.78125
 51
0.0
  7
KANJI16
  0
TEXT
  8
3
  6
CONTINUOUS
 62
     3
 10
457.86
 20
168.62
 30
0.0
 40
6.4
  1
　　５
 50
0.0
 41
0.78125
 51
0.0
  7
KANJI16
  0
TEXT
  8
3
  6
CONTINUOUS
 62
     3
 10
457.86
 20
154.62
 30
0.0
 40
6.4
  1
　　５
 50
0.0
 41
0.78125
 51
0.0
  7
KANJI16
  0
TEXT
  8
3
  6
CONTINUOUS
 62
     3
 10
457.86
 20
140.62
 30
0.0
 40
6.4
  1
　　５
 50
0.0
 41
0.78125
 51
0.0
  7
KANJI16
  0
TEXT
  8
3
  6
CONTINUOUS
 62
     3
 10
462.86
 20
126.62
 30
0.0
 40
6.4
  1
　５．５
 50
0.0
 41
0.78125
 51
0.0
  7
KANJI16
  0
TEXT
  8
3
  6
CONTINUOUS
 62
     3
 10
457.86
 20
112.62
 30
0.0
 40
6.4
  1
　　６
 50
0.0
 41
0.78125
 51
0.0
  7
KANJI16
  0
TEXT
  8
3
  6
CONTINUOUS
 62
     3
 10
457.86
 20
98.62
 30
0.0
 40
6.4
  1
　　６
 50
0.0
 41
0.78125
 51
0.0
  7
KANJI16
  0
TEXT
  8
3
  6
CONTINUOUS
 62
     3
 10
457.86
 20
84.62
 30
0.0
 40
6.4
  1
　　７
 50
0.0
 41
0.78125
 51
0.0
  7
KANJI16
  0
TEXT
  8
3
  6
CONTINUOUS
 62
     3
 10
355.0
 20
196.54
 30
0.0
 40
6.4
  1
ストローク
 50
0.0
 41
0.78125
 51
0.0
  7
KANJI16
  0
TEXT
  8
3
  6
CONTINUOUS
 62
     3
 10
352.0
 20
182.3
 30
0.0
 40
6.4
  1
　　１００
 50
0.0
 41
0.78125
 51
0.0
  7
KANJI16
  0
TEXT
  8
3
  6
CONTINUOUS
 62
     3
 10
352.0
 20
168.3
 30
0.0
 40
6.4
  1
　　２００
 50
0.0
 41
0.78125
 51
0.0
  7
KANJI16
  0
TEXT
  8
3
  6
CONTINUOUS
 62
     3
 10
352.0
 20
154.3
 30
0.0
 40
6.4
  1
　　３００
 50
0.0
 41
0.78125
 51
0.0
  7
KANJI16
  0
TEXT
  8
3
  6
CONTINUOUS
 62
     3
 10
352.0
 20
140.3
 30
0.0
 40
6.4
  1
　　４００
 50
0.0
 41
0.78125
 51
0.0
  7
KANJI16
  0
TEXT
  8
3
  6
CONTINUOUS
 62
     3
 10
352.0
 20
126.3
 30
0.0
 40
6.4
  1
　　５００
 50
0.0
 41
0.78125
 51
0.0
  7
KANJI16
  0
TEXT
  8
3
  6
CONTINUOUS
 62
     3
 10
352.0
 20
112.3
 30
0.0
 40
6.4
  1
　　６００
 50
0.0
 41
0.78125
 51
0.0
  7
KANJI16
  0
TEXT
  8
3
  6
CONTINUOUS
 62
     3
 10
352.0
 20
98.3
 30
0.0
 40
6.4
  1
　　８００
 50
0.0
 41
0.78125
 51
0.0
  7
KANJI16
  0
TEXT
  8
3
  6
CONTINUOUS
 62
     3
 10
357.26
 20
84.68
 30
0.0
 40
6.4
  1
１０００
 50
0.0
 41
0.78125
 51
0.0
  7
KANJI16
  0
TEXT
  8
3
  6
CONTINUOUS
 62
     3
 10
393.3
 20
196.92
 30
0.0
 40
6.4
  1
ＬＥ
 50
0.0
 41
1.0
 51
0.0
  7
KANJI11
  0
TEXT
  8
3
  6
CONTINUOUS
 62
     3
 10
490.3
 20
196.54
 30
0.0
 40
6.4
  1
備考
 50
0.0
 41
1.0
 51
0.0
  7
KANJI11
  0
TEXT
  8
3
  6
CONTINUOUS
 62
     3
 10
457.9
 20
196.26
 30
0.0
 40
6.4
  1
概略重量
 50
0.0
 41
0.5625
 51
0.0
  7
KANJI17
  0
TEXT
  8
3
  6
CONTINUOUS
 62
     3
 10
473.98
 20
196.4
 30
0.0
 40
5.0
  1
（ｋｇ）
 50
0.0
 41
0.6
 51
0.0
  7
KANJI18
  0
TEXT
  8
3
  6
CONTINUOUS
 62
     3
 10
299.3
 20
196.64
 30
0.0
 40
6.4
  1
型式
 50
0.0
 41
1.0
 51
0.0
  7
KANJI11
  0
TEXT
  8
3
  6
CONTINUOUS
 62
     3
 10
427.3
 20
196.92
 30
0.0
 40
6.4
  1
ＬＴ
 50
0.0
 41
1.0
 51
0.0
  7
KANJI11
  0
TEXT
  8
3
  6
CONTINUOUS
 62
     3
 10
298.06
 20
182.72
 30
0.0
 40
6.4
  1
ＡＪ１ＨＩＴ－　　１
 50
0.0
 41
0.78125
 51
0.0
  7
KANJI16
  0
TEXT
  8
3
  6
CONTINUOUS
 62
     3
 10
298.06
 20
168.72
 30
0.0
 40
6.4
  1
ＡＪ１ＨＩＴ－　　２
 50
0.0
 41
0.78125
 51
0.0
  7
KANJI16
  0
TEXT
  8
3
  6
CONTINUOUS
 62
     3
 10
298.06
 20
154.72
 30
0.0
 40
6.4
  1
ＡＪ１ＨＩＴ－　　３
 50
0.0
 41
0.78125
 51
0.0
  7
KANJI16
  0
TEXT
  8
3
  6
CONTINUOUS
 62
     3
 10
298.06
 20
140.72
 30
0.0
 40
6.4
  1
ＡＪ１ＨＩＴ－　　４
 50
0.0
 41
0.78125
 51
0.0
  7
KANJI16
  0
TEXT
  8
3
  6
CONTINUOUS
 62
     3
 10
298.06
 20
126.72
 30
0.0
 40
6.4
  1
ＡＪ１ＨＩＴ－　　５
 50
0.0
 41
0.78125
 51
0.0
  7
KANJI16
  0
TEXT
  8
3
  6
CONTINUOUS
 62
     3
 10
298.06
 20
112.72
 30
0.0
 40
6.4
  1
ＡＪ１ＨＩＴ－　　６
 50
0.0
 41
0.78125
 51
0.0
  7
KANJI16
  0
TEXT
  8
3
  6
CONTINUOUS
 62
     3
 10
298.06
 20
98.72
 30
0.0
 40
6.4
  1
ＡＪ１ＨＩＴ－　　８
 50
0.0
 41
0.78125
 51
0.0
  7
KANJI16
  0
TEXT
  8
3
  6
CONTINUOUS
 62
     3
 10
296.06
 20
84.72
 30
0.0
 40
6.4
  1
ＡＪ１ＨＩＴ－　　１０
 50
0.0
 41
0.78125
 51
0.0
  7
KANJI16
  0
TEXT
  8
3
  6
CONTINUOUS
 62
     3
 10
390.66
 20
182.5
 30
0.0
 40
6.4
  1
　２０５
 50
0.0
 41
0.78125
 51
0.0
  7
KANJI16
  0
TEXT
  8
3
  6
CONTINUOUS
 62
     3
 10
418.6
 20
182.3
 30
0.0
 40
6.4
  1
　　１０５
 50
0.0
 41
0.78125
 51
0.0
  7
KANJI16
  0
TEXT
  8
3
  6
CONTINUOUS
 62
     3
 10
418.6
 20
168.3
 30
0.0
 40
6.4
  1
　　１０５
 50
0.0
 41
0.78125
 51
0.0
  7
KANJI16
  0
TEXT
  8
3
  6
CONTINUOUS
 62
     3
 10
418.6
 20
154.3
 30
0.0
 40
6.4
  1
　　１０５
 50
0.0
 41
0.78125
 51
0.0
  7
KANJI16
  0
TEXT
  8
3
  6
CONTINUOUS
 62
     3
 10
418.6
 20
140.3
 30
0.0
 40
6.4
  1
　　１０５
 50
0.0
 41
0.78125
 51
0.0
  7
KANJI16
  0
TEXT
  8
3
  6
CONTINUOUS
 62
     3
 10
418.6
 20
126.3
 30
0.0
 40
6.4
  1
　　１０５
 50
0.0
 41
0.78125
 51
0.0
  7
KANJI16
  0
TEXT
  8
3
  6
CONTINUOUS
 62
     3
 10
418.6
 20
112.3
 30
0.0
 40
6.4
  1
　　１０５
 50
0.0
 41
0.78125
 51
0.0
  7
KANJI16
  0
TEXT
  8
3
  6
CONTINUOUS
 62
     3
 10
418.6
 20
98.3
 30
0.0
 40
6.4
  1
　　１０５
 50
0.0
 41
0.78125
 51
0.0
  7
KANJI16
  0
TEXT
  8
3
  6
CONTINUOUS
 62
     3
 10
390.66
 20
168.5
 30
0.0
 40
6.4
  1
　３０５
 50
0.0
 41
0.78125
 51
0.0
  7
KANJI16
  0
TEXT
  8
3
  6
CONTINUOUS
 62
     3
 10
390.66
 20
154.5
 30
0.0
 40
6.4
  1
　４０５
 50
0.0
 41
0.78125
 51
0.0
  7
KANJI16
  0
TEXT
  8
3
  6
CONTINUOUS
 62
     3
 10
390.66
 20
140.5
 30
0.0
 40
6.4
  1
　５０５
 50
0.0
 41
0.78125
 51
0.0
  7
KANJI16
  0
TEXT
  8
3
  6
CONTINUOUS
 62
     3
 10
390.66
 20
126.5
 30
0.0
 40
6.4
  1
　６０５
 50
0.0
 41
0.78125
 51
0.0
  7
KANJI16
  0
TEXT
  8
3
  6
CONTINUOUS
 62
     3
 10
391.08
 20
112.48
 30
0.0
 40
6.4
  1
　７０５
 50
0.0
 41
0.78125
 51
0.0
  7
KANJI16
  0
TEXT
  8
3
  6
CONTINUOUS
 62
     3
 10
391.08
 20
98.48
 30
0.0
 40
6.4
  1
　９０５
 50
0.0
 41
0.78125
 51
0.0
  7
KANJI16
  0
TEXT
  8
3
  6
CONTINUOUS
 62
     3
 10
390.92
 20
84.88
 30
0.0
 40
6.4
  1
１１０５
 50
0.0
 41
0.78125
 51
0.0
  7
KANJI16
  0
TEXT
  8
3
  6
CONTINUOUS
 62
     3
 10
423.26
 20
84.68
 30
0.0
 40
6.4
  1
　１０５
 50
0.0
 41
0.78125
 51
0.0
  7
KANJI16
  0
LINE
  8
3
  6
CONTINUOUS
 62
     6
 10
682.5
 20
501.48
 30
0.0
 11
802.5
 21
501.48
 31
0.0
  0
LINE
  8
3
  6
CONTINUOUS
 62
     6
 10
682.5
 20
271.48
 30
0.0
 11
682.5
 21
501.48
 31
0.0
  0
LINE
  8
3
  6
CONTINUOUS
 62
     6
 10
682.5
 20
271.48
 30
0.0
 11
802.5
 21
271.48
 31
0.0
  0
LINE
  8
3
  6
CONTINUOUS
 62
     2
 10
682.5
 20
481.48
 30
0.0
 11
802.5
 21
481.48
 31
0.0
  0
LINE
  8
3
  6
CONTINUOUS
 62
     2
 10
682.5
 20
467.48
 30
0.0
 11
802.5
 21
467.48
 31
0.0
  0
LINE
  8
3
  6
CONTINUOUS
 62
     2
 10
682.5
 20
453.48
 30
0.0
 11
802.5
 21
453.48
 31
0.0
  0
LINE
  8
3
  6
CONTINUOUS
 62
     2
 10
682.5
 20
439.48
 30
0.0
 11
802.5
 21
439.48
 31
0.0
  0
LINE
  8
3
  6
CONTINUOUS
 62
     2
 10
682.5
 20
425.48
 30
0.0
 11
802.5
 21
425.48
 31
0.0
  0
LINE
  8
3
  6
CONTINUOUS
 62
     2
 10
682.5
 20
411.48
 30
0.0
 11
802.5
 21
411.48
 31
0.0
  0
LINE
  8
3
  6
CONTINUOUS
 62
     2
 10
682.5
 20
397.48
 30
0.0
 11
802.5
 21
397.48
 31
0.0
  0
LINE
  8
3
  6
CONTINUOUS
 62
     2
 10
682.5
 20
383.48
 30
0.0
 11
802.5
 21
383.48
 31
0.0
  0
LINE
  8
3
  6
CONTINUOUS
 62
     2
 10
682.5
 20
369.48
 30
0.0
 11
802.5
 21
369.48
 31
0.0
  0
LINE
  8
3
  6
CONTINUOUS
 62
     2
 10
682.5
 20
355.48
 30
0.0
 11
802.5
 21
355.48
 31
0.0
  0
LINE
  8
3
  6
CONTINUOUS
 62
     2
 10
682.5
 20
341.48
 30
0.0
 11
802.5
 21
341.48
 31
0.0
  0
LINE
  8
3
  6
CONTINUOUS
 62
     2
 10
682.5
 20
327.48
 30
0.0
 11
802.5
 21
327.48
 31
0.0
  0
LINE
  8
3
  6
CONTINUOUS
 62
     2
 10
682.5
 20
313.48
 30
0.0
 11
802.5
 21
313.48
 31
0.0
  0
LINE
  8
3
  6
CONTINUOUS
 62
     2
 10
682.5
 20
299.48
 30
0.0
 11
802.5
 21
299.48
 31
0.0
  0
LINE
  8
3
  6
CONTINUOUS
 62
     2
 10
682.5
 20
285.48
 30
0.0
 11
802.5
 21
285.48
 31
0.0
  0
LINE
  8
3
  6
CONTINUOUS
 62
     2
 10
742.5
 20
271.48
 30
0.0
 11
742.5
 21
481.48
 31
0.0
  0
TEXT
  8
3
  6
CONTINUOUS
 62
     3
 10
698.8400004
 20
486.58
 30
0.0
 40
9.0
  1
マイティジャッキ仕様
 50
0.0
 41
0.8888888
 51
0.0
  7
KANJI15
  0
TEXT
  8
3
  6
CONTINUOUS
 62
     3
 10
684.1
 20
470.9
 30
0.0
 40
6.4
  1
型式
 50
0.0
 41
1.0
 51
0.0
  7
KANJI11
  0
TEXT
  8
3
  6
CONTINUOUS
 62
     3
 10
684.1
 20
457.64
 30
0.0
 40
6.4
  1
推力
 50
0.0
 41
1.0
 51
0.0
  7
KANJI11
  0
TEXT
  8
3
  6
CONTINUOUS
 62
     3
 10
684.12
 20
429.48
 30
0.0
 40
6.4
  1
スクリュウ
 50
0.0
 41
1.0
 51
0.0
  7
KANJI11
  0
TEXT
  8
3
  6
CONTINUOUS
 62
     3
 10
685.2
 20
415.44
 30
0.0
 40
6.4
  1
ウォーム１回転当り移動量
 50
0.0
 41
0.65625
 51
0.0
  7
KANJI19
  0
TEXT
  8
3
  6
CONTINUOUS
 62
     3
 10
684.1
 20
400.94
 30
0.0
 40
6.4
  1
ウォーム減速比
 50
0.0
 41
1.0
 51
0.0
  7
KANJI11
  0
TEXT
  8
3
  6
CONTINUOUS
 62
     3
 10
684.1
 20
373.74
 30
0.0
 40
6.4
  1
効率
 50
0.0
 41
1.0
 51
0.0
  7
KANJI11
  0
TEXT
  8
3
  6
CONTINUOUS
 62
     3
 10
684.1
 20
359.86
 30
0.0
 40
6.4
  1
ネジ軸回転防止
 50
0.0
 41
1.0
 51
0.0
  7
KANJI11
  0
TEXT
  8
3
  6
CONTINUOUS
 62
     3
 10
684.1
 20
331.6
 30
0.0
 40
6.4
  1
潤滑
 50
0.0
 41
1.0
 51
0.0
  7
KANJI11
  0
TEXT
  8
3
  6
CONTINUOUS
 62
     3
 10
684.1
 20
317.22
 30
0.0
 40
6.4
  1
塗装色
 50
0.0
 41
1.0
 51
0.0
  7
KANJI11
  0
TEXT
  8
3
  6
CONTINUOUS
 62
     3
 10
683.9
 20
303.46
 30
0.0
 40
6.4
  1
付属品
 50
0.0
 41
1.0
 51
0.0
  7
KANJI11
  0
TEXT
  8
3
  6
CONTINUOUS
 62
     3
 10
752.2
 20
456.72
 30
0.0
 40
6.4
  1
１０００
 50
0.0
 41
0.71875
 51
0.0
  7
KANJI20
  0
TEXT
  8
3
  6
CONTINUOUS
 62
     3
 10
750.2
 20
428.38
 30
0.0
 40
6.4
  1
ＴＭ２０　Ｐ４
 50
0.0
 41
0.71875
 51
0.0
  7
KANJI20
  0
TEXT
  8
3
  6
CONTINUOUS
 62
     3
 10
766.8
 20
359.7
 30
0.0
 40
6.4
  1
無し
 50
0.0
 41
0.71875
 51
0.0
  7
KANJI20
  0
TEXT
  8
3
  6
CONTINUOUS
 62
     3
 10
750.2
 20
331.24
 30
0.0
 40
6.4
  1
グリース方式
 50
0.0
 41
0.71875
 51
0.0
  7
KANJI20
  0
TEXT
  8
3
  6
CONTINUOUS
 62
     3
 10
750.8
 20
302.58
 30
0.0
 40
6.4
  1
入力キー
 50
0.0
 41
0.71875
 51
0.0
  7
KANJI20
  0
TEXT
  8
3
  6
CONTINUOUS
 62
     3
 10
684.3
 20
275.08
 30
0.0
 40
6.4
  1
台数
 50
0.0
 41
1.0
 51
0.0
  7
KANJI11
  0
TEXT
  8
3
  6
CONTINUOUS
 62
     3
 10
684.3
 20
443.38
 30
0.0
 40
6.4
  1
ストローク
 50
0.0
 41
1.0
 51
0.0
  7
KANJI11
  0
TEXT
  8
3
  6
CONTINUOUS
 62
     3
 10
762.34
 20
373.76
 30
0.0
 40
6.4
  1
２１
 50
0.0
 41
0.71875
 51
0.0
  7
KANJI20
  0
TEXT
  8
3
  6
CONTINUOUS
 62
     3
 10
685.16
 20
387.84
 30
0.0
 40
6.4
  1
入力トルク（許容荷重時）
 50
0.0
 41
0.65625
 51
0.0
  7
KANJI19
  0
TEXT
  8
3
  6
CONTINUOUS
 62
     3
 10
684.06
 20
345.74
 30
0.0
 40
6.4
  1
発生ネジ軸トルク
 50
0.0
 41
1.0
 51
0.0
  7
KANJI11
  0
TEXT
  8
3
  6
CONTINUOUS
 62
     3
 10
766.96
 20
345.34
 30
0.0
 40
6.4
  1
１．８
 50
0.0
 41
0.71875
 51
0.0
  7
KANJI20
  0
TEXT
  8
3
  6
CONTINUOUS
 62
     3
 10
746.2
 20
470.88
 30
0.0
 40
6.4
  1
ＡＪ１ＨＩＴ
 50
0.0
 41
0.71875
 51
0.0
  7
KANJI20
  0
TEXT
  8
3
  6
CONTINUOUS
 62
     3
 10
788.94
 20
373.1
 30
0.0
 40
6.4
  1
％
 50
0.0
 41
1.0
 51
0.0
  7
KANJI11
  0
TEXT
  8
3
  6
CONTINUOUS
 62
     3
 10
788.22
 20
457.42
 30
0.0
 40
6.4
  1
ｋｇ
 50
0.0
 41
0.6875
 51
0.0
  7
KANJI21
  0
TEXT
  8
3
  6
CONTINUOUS
 62
     3
 10
787.9
 20
415.16
 30
0.0
 40
6.4
  1
ｍｍ
 50
0.0
 41
0.6875
 51
0.0
  7
KANJI21
  0
TEXT
  8
3
  6
CONTINUOUS
 62
     3
 10
787.98
 20
443.76
 30
0.0
 40
6.4
  1
ｍｍ
 50
0.0
 41
0.6875
 51
0.0
  7
KANJI21
  0
TEXT
  8
3
  6
CONTINUOUS
 62
     3
 10
783.26
 20
387.74
 30
0.0
 40
6.4
  1
ｋｇ－ｍ
 50
0.0
 41
0.6875
 51
0.0
  7
KANJI21
  0
TEXT
  8
3
  6
CONTINUOUS
 62
     3
 10
783.08
 20
345.84
 30
0.0
 40
6.4
  1
ｋｇ－ｍ
 50
0.0
 41
0.6875
 51
0.0
  7
KANJI21
  0
ARC
  8
0
  6
CONTINUOUS
 62
     2
 10
274.08
 20
368.54
 30
0.0
 40
15.0
 50
122.69391
 51
231.73982
  0
LINE
  8
0
  6
CONTINUOUS
 62
     2
 10
260.08
 20
378.61
 30
0.0
 11
265.98
 21
381.16
 31
0.0
  0
LINE
  8
0
  6
CONTINUOUS
 62
     2
 10
263.2
 20
376.25
 30
0.0
 11
265.96
 21
381.15
 31
0.0
  0
TEXT
  8
0
  6
CONTINUOUS
 62
     4
 10
233.21
 20
394.04
 30
0.0
 40
6.4
  1
時計方向の回転
 50
0.0
 41
1.0
 51
0.0
  7
KANJI11
  0
TEXT
  8
3
  6
CONTINUOUS
 62
     3
 10
761.96
 20
386.74
 30
0.0
 40
6.4
  1
０．５６
 50
0.0
 41
0.71875
 51
0.0
  7
KANJI20
  0
TEXT
  8
3
  6
CONTINUOUS
 62
     3
 10
743.7
 20
317.14
 30
0.0
 40
6.4
  1
マンセル　７．５ＧＹ　５／４．５
 50
0.0
 41
0.5625
 51
0.0
  7
KANJI17
  0
LINE
  8
0
  6
CONTINUOUS
 62
     6
 10
449.209957009
 20
511.492395251
 30
0.0
 11
506.123357009
 21
511.492395251
 31
0.0
  0
LINE
  8
0
  6
CONTINUOUS
 62
     6
 10
502.123357009
 20
510.413995251
 30
0.0
 11
506.123357009
 21
511.485795251
 31
0.0
  0
LINE
  8
0
  6
CONTINUOUS
 62
     6
 10
506.123357009
 20
511.485795251
 30
0.0
 11
502.123357009
 21
512.557395251
 31
0.0
  0
LINE
  8
0
  6
CONTINUOUS
 62
     1
 10
510.655500398
 20
396.1
 30
0.0
 11
450.194362043
 21
396.1
 31
0.0
  0
LINE
  8
2
  6
CONTINUOUS
 62
     2
 10
510.655500398
 20
397.1
 30
0.0
 11
450.194362043
 21
397.1
 31
0.0
  0
LINE
  8
2
  6
CONTINUOUS
 62
     2
 10
510.655500398
 20
415.1
 30
0.0
 11
450.194362043
 21
415.1
 31
0.0
  0
LINE
  8
0
  6
CONTINUOUS
 62
     1
 10
510.655500398
 20
416.1
 30
0.0
 11
450.194362043
 21
416.1
 31
0.0
  0
TEXT
  8
2
  6
CONTINUOUS
 62
     3
 10
465.955500398
 20
443.1
 30
0.0
 40
6.0
  1
ＰＴ１／８
 50
0.0
 41
0.9
 51
0.0
  7
KANJI10
  0
TEXT
  8
0
  6
CONTINUOUS
 62
     5
 10
448.676557009
 20
513.292395251
 30
0.0
 40
9.0
  1
ナット移動
 50
0.0
 41
1.0
 51
0.0
  7
KANJI8
  0
TEXT
  8
3
  6
CONTINUOUS
 62
     3
 10
767.34
 20
414.62
 30
0.0
 40
6.4
  1
０．８
 50
0.0
 41
0.71875
 51
0.0
  7
KANJI20
  0
TEXT
  8
3
  6
CONTINUOUS
 62
     3
 10
761.74
 20
400.72
 30
0.0
 40
6.4
  1
　５
 50
0.0
 41
0.71875
 51
0.0
  7
KANJI20
  0
TEXT
  8
3
  6
CONTINUOUS
 62
     3
 10
653.62
 20
47.22
 30
4.0
 40
10.0
  1
Ａ３００２２１２
 50
0.0
 41
0.8
 51
0.0
  7
KANJI22
  0
TEXT
  8
3
  6
CONTINUOUS
 62
     2
 10
571.42
 20
52.843333333
 30
0.0
 40
6.4
  1
岡田
 50
0.0
 41
1.0
 51
0.0
  7
KANJI0
  0
TEXT
  8
3
  6
CONTINUOUS
 62
     2
 10
561.653333333
 20
40.496666667
 30
0.0
 40
5.0
  1
０６．０１．１８
 50
0.0
 41
1.0
 51
0.0
  7
KANJI23
  0
ENDSEC
  0
EOF
