  0
SECTION
  2
HEADER
  9
$ACADVER
  1
AC1009
  9
$DWGCODEPAGE
  3
dos932
  9
$EXTMIN
 10
0.0
 20
0.0
 30
0.0
  9
$EXTMAX
 10
840.0
 20
594.0
 30
0.0
  9
$LIMMIN
 10
0.0
 20
0.0
  9
$LIMMAX
 10
840.0
 20
594.0
  9
$LTSCALE
 40
1.0
  9
$PDMODE
 70
     0
  0
ENDSEC
  0
SECTION
  2
TABLES
  0
TABLE
  2
VPORT
 70
     1
  0
VPORT
  2
*ACTIVE
 70
     0
 10
0.0
 20
0.0
 11
1.0
 21
1.0
 12
420.0
 22
297.0
 13
0.0
 23
0.0
 14
10.0
 24
10.0
 15
10.0
 25
10.0
 16
0.0
 26
0.0
 36
1.0
 17
0.0
 27
0.0
 37
0.0
 40
840.0
 41
1.414141414
 42
50.0
 43
0.0
 44
0.0
 50
0.0
 51
0.0
 71
     0
 72
  1000
 73
     1
 74
     3
 75
     0
 76
     0
 77
     0
 78
     0
  0
ENDTAB
  0
TABLE
  2
LTYPE
 70
     4
  0
LTYPE
  2
CONTINUOUS
 70
    64
  3
Solid line
 72
    65
 73
     0
 40
0.0
  0
LTYPE
  2
LTYPE1
 70
    64
  3
CENTER
 72
    65
 73
     4
 40
10.0
 49
7.0
 49
-1.0
 49
1.0
 49
-1.0
  0
LTYPE
  2
LTYPE2
 70
    64
  3
CENTER
 72
    65
 73
     4
 40
4.0
 49
2.8
 49
-0.4
 49
0.4
 49
-0.4
  0
LTYPE
  2
LTYPE3
 70
    64
  3
CENTER
 72
    65
 73
     4
 40
30.0
 49
21.0
 49
-3.0
 49
3.0
 49
-3.0
  0
ENDTAB
  0
TABLE
  2
LAYER
 70
   128
  0
LAYER
  2
0
 70
     0
 62
     7
  6
CONTINUOUS
  0
LAYER
  2
1
 70
     0
 62
     7
  6
CONTINUOUS
  0
LAYER
  2
10
 70
     0
 62
     7
  6
CONTINUOUS
  0
LAYER
  2
4
 70
     0
 62
     7
  6
CONTINUOUS
  0
LAYER
  2
5
 70
     0
 62
     7
  6
CONTINUOUS
  0
LAYER
  2
6
 70
     0
 62
     7
  6
CONTINUOUS
  0
LAYER
  2
7
 70
     0
 62
     7
  6
CONTINUOUS
  0
LAYER
  2
8
 70
     0
 62
     7
  6
CONTINUOUS
  0
LAYER
  2
9
 70
     0
 62
     7
  6
CONTINUOUS
  0
LAYER
  2
10
 70
     0
 62
     7
  6
CONTINUOUS
  0
LAYER
  2
11
 70
     0
 62
     7
  6
CONTINUOUS
  0
LAYER
  2
12
 70
     0
 62
     7
  6
CONTINUOUS
  0
LAYER
  2
13
 70
     0
 62
     7
  6
CONTINUOUS
  0
LAYER
  2
14
 70
     0
 62
     7
  6
CONTINUOUS
  0
LAYER
  2
15
 70
     0
 62
     7
  6
CONTINUOUS
  0
LAYER
  2
16
 70
     0
 62
     7
  6
CONTINUOUS
  0
LAYER
  2
17
 70
     0
 62
     7
  6
CONTINUOUS
  0
LAYER
  2
18
 70
     0
 62
     7
  6
CONTINUOUS
  0
LAYER
  2
19
 70
     0
 62
     7
  6
CONTINUOUS
  0
LAYER
  2
20
 70
     0
 62
     7
  6
CONTINUOUS
  0
LAYER
  2
21
 70
     0
 62
     7
  6
CONTINUOUS
  0
LAYER
  2
22
 70
     0
 62
     7
  6
CONTINUOUS
  0
LAYER
  2
23
 70
     0
 62
     7
  6
CONTINUOUS
  0
LAYER
  2
24
 70
     0
 62
     7
  6
CONTINUOUS
  0
LAYER
  2
25
 70
     0
 62
     7
  6
CONTINUOUS
  0
LAYER
  2
26
 70
     0
 62
     7
  6
CONTINUOUS
  0
LAYER
  2
27
 70
     0
 62
     7
  6
CONTINUOUS
  0
LAYER
  2
28
 70
     0
 62
     7
  6
CONTINUOUS
  0
LAYER
  2
29
 70
     0
 62
     7
  6
CONTINUOUS
  0
LAYER
  2
30
 70
     0
 62
     7
  6
CONTINUOUS
  0
LAYER
  2
31
 70
     0
 62
     7
  6
CONTINUOUS
  0
LAYER
  2
32
 70
     0
 62
     7
  6
CONTINUOUS
  0
LAYER
  2
33
 70
     0
 62
     7
  6
CONTINUOUS
  0
LAYER
  2
34
 70
     0
 62
     7
  6
CONTINUOUS
  0
LAYER
  2
35
 70
     0
 62
     7
  6
CONTINUOUS
  0
LAYER
  2
36
 70
     0
 62
     7
  6
CONTINUOUS
  0
LAYER
  2
37
 70
     0
 62
     7
  6
CONTINUOUS
  0
LAYER
  2
38
 70
     0
 62
     7
  6
CONTINUOUS
  0
LAYER
  2
39
 70
     0
 62
     7
  6
CONTINUOUS
  0
LAYER
  2
40
 70
     0
 62
     7
  6
CONTINUOUS
  0
LAYER
  2
41
 70
     0
 62
     7
  6
CONTINUOUS
  0
LAYER
  2
42
 70
     0
 62
     7
  6
CONTINUOUS
  0
LAYER
  2
43
 70
     0
 62
     7
  6
CONTINUOUS
  0
LAYER
  2
44
 70
     0
 62
     7
  6
CONTINUOUS
  0
LAYER
  2
45
 70
     0
 62
     7
  6
CONTINUOUS
  0
LAYER
  2
46
 70
     0
 62
     7
  6
CONTINUOUS
  0
LAYER
  2
47
 70
     0
 62
     7
  6
CONTINUOUS
  0
LAYER
  2
48
 70
     0
 62
     7
  6
CONTINUOUS
  0
LAYER
  2
49
 70
     0
 62
     7
  6
CONTINUOUS
  0
LAYER
  2
50
 70
     0
 62
     7
  6
CONTINUOUS
  0
LAYER
  2
51
 70
     0
 62
     7
  6
CONTINUOUS
  0
LAYER
  2
52
 70
     0
 62
     7
  6
CONTINUOUS
  0
LAYER
  2
53
 70
     0
 62
     7
  6
CONTINUOUS
  0
LAYER
  2
54
 70
     0
 62
     7
  6
CONTINUOUS
  0
LAYER
  2
55
 70
     0
 62
     7
  6
CONTINUOUS
  0
LAYER
  2
56
 70
     0
 62
     7
  6
CONTINUOUS
  0
LAYER
  2
57
 70
     0
 62
     7
  6
CONTINUOUS
  0
LAYER
  2
58
 70
     0
 62
     7
  6
CONTINUOUS
  0
LAYER
  2
59
 70
     0
 62
     7
  6
CONTINUOUS
  0
LAYER
  2
60
 70
     0
 62
     7
  6
CONTINUOUS
  0
LAYER
  2
61
 70
     0
 62
     7
  6
CONTINUOUS
  0
LAYER
  2
62
 70
     0
 62
     7
  6
CONTINUOUS
  0
LAYER
  2
63
 70
     0
 62
     7
  6
CONTINUOUS
  0
LAYER
  2
64
 70
     0
 62
     7
  6
CONTINUOUS
  0
LAYER
  2
65
 70
     0
 62
     7
  6
CONTINUOUS
  0
LAYER
  2
66
 70
     0
 62
     7
  6
CONTINUOUS
  0
LAYER
  2
67
 70
     0
 62
     7
  6
CONTINUOUS
  0
LAYER
  2
68
 70
     0
 62
     7
  6
CONTINUOUS
  0
LAYER
  2
69
 70
     0
 62
     7
  6
CONTINUOUS
  0
LAYER
  2
70
 70
     0
 62
     7
  6
CONTINUOUS
  0
LAYER
  2
71
 70
     0
 62
     7
  6
CONTINUOUS
  0
LAYER
  2
72
 70
     0
 62
     7
  6
CONTINUOUS
  0
LAYER
  2
73
 70
     0
 62
     7
  6
CONTINUOUS
  0
LAYER
  2
74
 70
     0
 62
     7
  6
CONTINUOUS
  0
LAYER
  2
75
 70
     0
 62
     7
  6
CONTINUOUS
  0
LAYER
  2
76
 70
     0
 62
     7
  6
CONTINUOUS
  0
LAYER
  2
77
 70
     0
 62
     7
  6
CONTINUOUS
  0
LAYER
  2
78
 70
     0
 62
     7
  6
CONTINUOUS
  0
LAYER
  2
79
 70
     0
 62
     7
  6
CONTINUOUS
  0
LAYER
  2
80
 70
     0
 62
     7
  6
CONTINUOUS
  0
LAYER
  2
81
 70
     0
 62
     7
  6
CONTINUOUS
  0
LAYER
  2
82
 70
     0
 62
     7
  6
CONTINUOUS
  0
LAYER
  2
83
 70
     0
 62
     7
  6
CONTINUOUS
  0
LAYER
  2
84
 70
     0
 62
     7
  6
CONTINUOUS
  0
LAYER
  2
85
 70
     0
 62
     7
  6
CONTINUOUS
  0
LAYER
  2
86
 70
     0
 62
     7
  6
CONTINUOUS
  0
LAYER
  2
87
 70
     0
 62
     7
  6
CONTINUOUS
  0
LAYER
  2
88
 70
     0
 62
     7
  6
CONTINUOUS
  0
LAYER
  2
89
 70
     0
 62
     7
  6
CONTINUOUS
  0
LAYER
  2
90
 70
     0
 62
     7
  6
CONTINUOUS
  0
LAYER
  2
91
 70
     0
 62
     7
  6
CONTINUOUS
  0
LAYER
  2
92
 70
     0
 62
     7
  6
CONTINUOUS
  0
LAYER
  2
93
 70
     0
 62
     7
  6
CONTINUOUS
  0
LAYER
  2
94
 70
     0
 62
     7
  6
CONTINUOUS
  0
LAYER
  2
95
 70
     0
 62
     7
  6
CONTINUOUS
  0
LAYER
  2
96
 70
     0
 62
     7
  6
CONTINUOUS
  0
LAYER
  2
97
 70
     0
 62
     7
  6
CONTINUOUS
  0
LAYER
  2
98
 70
     0
 62
     7
  6
CONTINUOUS
  0
LAYER
  2
99
 70
     0
 62
     7
  6
CONTINUOUS
  0
LAYER
  2
100
 70
     0
 62
     7
  6
CONTINUOUS
  0
LAYER
  2
101
 70
     0
 62
     7
  6
CONTINUOUS
  0
LAYER
  2
102
 70
     0
 62
     7
  6
CONTINUOUS
  0
LAYER
  2
103
 70
     0
 62
     7
  6
CONTINUOUS
  0
LAYER
  2
104
 70
     0
 62
     7
  6
CONTINUOUS
  0
LAYER
  2
105
 70
     0
 62
     7
  6
CONTINUOUS
  0
LAYER
  2
106
 70
     0
 62
     7
  6
CONTINUOUS
  0
LAYER
  2
107
 70
     0
 62
     7
  6
CONTINUOUS
  0
LAYER
  2
108
 70
     0
 62
     7
  6
CONTINUOUS
  0
LAYER
  2
109
 70
     0
 62
     7
  6
CONTINUOUS
  0
LAYER
  2
110
 70
     0
 62
     7
  6
CONTINUOUS
  0
LAYER
  2
111
 70
     0
 62
     7
  6
CONTINUOUS
  0
LAYER
  2
112
 70
     0
 62
     7
  6
CONTINUOUS
  0
LAYER
  2
113
 70
     0
 62
     7
  6
CONTINUOUS
  0
LAYER
  2
114
 70
     0
 62
     7
  6
CONTINUOUS
  0
LAYER
  2
115
 70
     0
 62
     7
  6
CONTINUOUS
  0
LAYER
  2
116
 70
     0
 62
     7
  6
CONTINUOUS
  0
LAYER
  2
117
 70
     0
 62
     7
  6
CONTINUOUS
  0
LAYER
  2
118
 70
     0
 62
     7
  6
CONTINUOUS
  0
LAYER
  2
119
 70
     0
 62
     7
  6
CONTINUOUS
  0
LAYER
  2
120
 70
     0
 62
     7
  6
CONTINUOUS
  0
LAYER
  2
121
 70
     0
 62
     7
  6
CONTINUOUS
  0
LAYER
  2
122
 70
     0
 62
     7
  6
CONTINUOUS
  0
LAYER
  2
123
 70
     0
 62
     7
  6
CONTINUOUS
  0
LAYER
  2
124
 70
     0
 62
     7
  6
CONTINUOUS
  0
LAYER
  2
125
 70
     0
 62
     7
  6
CONTINUOUS
  0
LAYER
  2
126
 70
     0
 62
     7
  6
CONTINUOUS
  0
LAYER
  2
127
 70
     0
 62
     7
  6
CONTINUOUS
  0
LAYER
  2
128
 70
     0
 62
     7
  6
CONTINUOUS
  0
ENDTAB
  0
TABLE
  2
STYLE
 70
    28
  0
STYLE
  2
STANDARD
 70
     0
 40
0.0
 41
1.0
 50
0.0
 71
     0
 42
0.2
  3
txt.shx
  4
extfont.shx
  0
STYLE
  2
KANJI0
 70
     0
 40
6.4
 41
1.0
 50
0.0
 71
     0
 42
6.4
  3
txt.shx
  4
extfont.shx
  0
STYLE
  2
KANJI1
 70
     0
 40
3.6
 41
0.9444444
 50
0.0
 71
     0
 42
3.6
  3
txt.shx
  4
extfont.shx
  0
STYLE
  2
KANJI2
 70
     0
 40
6.0666662
 41
0.42031746
 50
0.0
 71
     0
 42
6.0666662
  3
txt.shx
  4
extfont.shx
  0
STYLE
  2
KANJI3
 70
     0
 40
10.3999992
 41
0.9
 50
0.0
 71
     0
 42
10.3999992
  3
txt.shx
  4
extfont.shx
  0
STYLE
  2
KANJI4
 70
     0
 40
6.4
 41
0.78125
 50
0.0
 71
     0
 42
6.4
  3
txt.shx
  4
extfont.shx
  0
STYLE
  2
KANJI5
 70
     0
 40
14.0
 41
1.0
 50
0.0
 71
     0
 42
14.0
  3
txt.shx
  4
extfont.shx
  0
STYLE
  2
KANJI6
 70
     0
 40
9.0
 41
1.0
 50
0.0
 71
     0
 42
9.0
  3
txt.shx
  4
extfont.shx
  0
STYLE
  2
KANJI7
 70
     0
 40
7.2
 41
0.833333333
 50
0.0
 71
     0
 42
7.2
  3
txt.shx
  4
extfont.shx
  0
STYLE
  2
KANJI8
 70
     0
 40
6.4
 41
0.9375
 50
0.0
 71
     0
 42
6.4
  3
txt.shx
  4
extfont.shx
  0
STYLE
  2
KANJI9
 70
     0
 40
9.0
 41
0.8888888
 50
0.0
 71
     0
 42
9.0
  3
txt.shx
  4
extfont.shx
  0
STYLE
  2
KANJI10
 70
     0
 40
6.4
 41
1.0
 50
0.0
 71
     0
 42
6.4
  3
txt.shx
  4
extfont.shx
  0
STYLE
  2
KANJI11
 70
     0
 40
6.4
 41
0.65625
 50
0.0
 71
     0
 42
6.4
  3
txt.shx
  4
extfont.shx
  0
STYLE
  2
KANJI12
 70
     0
 40
6.4
 41
0.71875
 50
0.0
 71
     0
 42
6.4
  3
txt.shx
  4
extfont.shx
  0
STYLE
  2
KANJI13
 70
     0
 40
6.4
 41
0.6875
 50
0.0
 71
     0
 42
6.4
  3
txt.shx
  4
extfont.shx
  0
STYLE
  2
KANJI14
 70
     0
 40
10.0
 41
1.0
 50
0.0
 71
     0
 42
10.0
  3
txt.shx
  4
extfont.shx
  0
STYLE
  2
KANJI15
 70
     0
 40
6.4
 41
0.90625
 50
0.0
 71
     0
 42
6.4
  3
txt.shx
  4
extfont.shx
  0
STYLE
  2
KANJI16
 70
     0
 40
8.0
 41
0.925
 50
0.0
 71
     0
 42
8.0
  3
txt.shx
  4
extfont.shx
  0
STYLE
  2
KANJI17
 70
     0
 40
6.4
 41
0.71875
 50
0.0
 71
     0
 42
6.4
  3
txt.shx
  4
extfont.shx
  0
STYLE
  2
KANJI18
 70
     0
 40
6.0
 41
0.9
 50
0.0
 71
     0
 42
6.0
  3
txt.shx
  4
extfont.shx
  0
STYLE
  2
KANJI19
 70
     0
 40
10.0
 41
0.8
 50
0.0
 71
     0
 42
10.0
  3
txt.shx
  4
extfont.shx
  0
STYLE
  2
KANJI20
 70
     0
 40
6.0
 41
0.916666667
 50
0.0
 71
     0
 42
6.0
  3
txt.shx
  4
extfont.shx
  0
STYLE
  2
KANJI21
 70
     0
 40
5.0
 41
1.0
 50
0.0
 71
     0
 42
5.0
  3
txt.shx
  4
extfont.shx
  0
STYLE
  2
KANJI22
 70
     0
 40
3.82
 41
1.0
 50
0.0
 71
     0
 42
3.82
  3
txt.shx
  4
extfont.shx
  0
STYLE
  2
KANJI23
 70
     0
 40
6.0
 41
0.733333333
 50
0.0
 71
     0
 42
6.0
  3
txt.shx
  4
extfont.shx
  0
STYLE
  2
KANJI24
 70
     4
 40
5.08
 41
1.0
 50
0.0
 71
     0
 42
5.08
  3
txt.shx
  4
extfont.shx
  0
STYLE
  2
KANJI25
 70
     4
 40
3.02
 41
1.0
 50
0.0
 71
     0
 42
3.02
  3
txt.shx
  4
extfont.shx
  0
STYLE
  2
KANJI26
 70
     0
 40
6.0
 41
0.833333333
 50
0.0
 71
     0
 42
6.0
  3
txt.shx
  4
extfont.shx
  0
ENDTAB
  0
TABLE
  2
VIEW
 70
     0
  0
ENDTAB
  0
ENDSEC
  0
SECTION
  2
BLOCKS
  0
ENDSEC
  0
SECTION
  2
ENTITIES
  0
LINE
  8
10
  6
CONTINUOUS
 62
     6
 10
32.88
 20
564.86
 30
0.0
 11
806.88
 21
564.86
 31
0.0
  0
LINE
  8
10
  6
CONTINUOUS
 62
     6
 10
32.88
 20
22.86
 30
0.0
 11
32.88
 21
564.86
 31
0.0
  0
TEXT
  8
10
  6
CONTINUOUS
 62
     4
 10
35.34
 20
40.52
 30
0.0
 40
6.4
  1
ＰＬ
 50
0.0
 41
1.0
 51
0.0
  7
KANJI0
  0
TEXT
  8
10
  6
CONTINUOUS
 62
     4
 10
35.72
 20
31.28
 30
0.0
 40
3.6
  1
ＰＡＲＴＳ　ＬＩＳＴ
 50
0.0
 41
0.9444444
 51
0.0
  7
KANJI1
  0
TEXT
  8
10
  6
CONTINUOUS
 62
     4
 10
36.16
 20
25.14
 30
0.0
 40
3.6
  1
部品表
 50
0.0
 41
0.9444444
 51
0.0
  7
KANJI1
  0
TEXT
  8
10
  6
CONTINUOUS
 62
     4
 10
124.74
 20
31.24
 30
0.0
 40
3.6
  1
ＮＯ．
 50
0.0
 41
0.9444444
 51
0.0
  7
KANJI1
  0
TEXT
  8
10
  6
CONTINUOUS
 62
     4
 10
124.44
 20
25.26
 30
0.0
 40
3.6
  1
項番
 50
0.0
 41
0.9444444
 51
0.0
  7
KANJI1
  0
LINE
  8
10
  6
CONTINUOUS
 62
     6
 10
32.74
 20
22.86
 30
0.0
 11
806.88
 21
22.86
 31
0.0
  0
LINE
  8
10
  6
CONTINUOUS
 62
     6
 10
32.88
 20
50.86
 30
0.0
 11
162.88
 21
50.86
 31
0.0
  0
LINE
  8
10
  6
CONTINUOUS
 62
     6
 10
32.88
 20
36.86
 30
0.0
 11
162.88
 21
36.86
 31
0.0
  0
LINE
  8
10
  6
CONTINUOUS
 62
     6
 10
162.88
 20
22.86
 30
0.0
 11
162.88
 21
50.86
 31
0.0
  0
LINE
  8
10
  6
CONTINUOUS
 62
     6
 10
122.88
 20
22.86
 30
0.0
 11
122.88
 21
50.86
 31
0.0
  0
TEXT
  8
10
  6
CONTINUOUS
 62
     4
 10
501.46
 20
25.14
 30
0.0
 40
3.6
  1
記事
 50
0.0
 41
0.9444444
 51
0.0
  7
KANJI1
  0
TEXT
  8
10
  6
CONTINUOUS
 62
     4
 10
551.88
 20
25.04
 30
0.0
 40
3.6
  1
尺度
 50
0.0
 41
0.9444444
 51
0.0
  7
KANJI1
  0
TEXT
  8
10
  6
CONTINUOUS
 62
     4
 10
493.22
 20
31.3
 30
0.0
 40
3.6
  1
ＤＥＳＣＲＩＰＴＩＯＮ
 50
0.0
 41
0.9444444
 51
0.0
  7
KANJI1
  0
TEXT
  8
10
  6
CONTINUOUS
 62
     4
 10
550.88
 20
31.24
 30
0.0
 40
3.6
  1
ＳＣＡＬＥ
 50
0.0
 41
0.9444444
 51
0.0
  7
KANJI1
  0
LINE
  8
10
  6
CONTINUOUS
 62
     6
 10
806.88
 20
22.86
 30
0.0
 11
806.88
 21
564.96
 31
0.0
  0
TEXT
  8
10
  6
CONTINUOUS
 62
     4
 10
430.46
 20
25.06
 30
0.0
 40
3.6
  1
日付
 50
0.0
 41
0.9444444
 51
0.0
  7
KANJI1
  0
TEXT
  8
10
  6
CONTINUOUS
 62
     4
 10
457.04
 20
25.12
 30
0.0
 40
3.6
  1
担当
 50
0.0
 41
0.9444444
 51
0.0
  7
KANJI1
  0
TEXT
  8
10
  6
CONTINUOUS
 62
     4
 10
430.52
 20
31.26
 30
0.0
 40
3.6
  1
ＤＡＴＥ
 50
0.0
 41
0.9444444
 51
0.0
  7
KANJI1
  0
TEXT
  8
10
  6
CONTINUOUS
 62
     4
 10
457.42
 20
31.24
 30
0.0
 40
3.6
  1
ＢＹ
 50
0.0
 41
0.9444444
 51
0.0
  7
KANJI1
  0
LINE
  8
10
  6
CONTINUOUS
 62
     4
 10
420.88
 20
22.86
 30
0.0
 11
420.88
 21
36.86
 31
0.0
  0
LINE
  8
10
  6
CONTINUOUS
 62
     4
 10
450.88
 20
22.86
 30
0.0
 11
450.88
 21
36.86
 31
0.0
  0
LINE
  8
10
  6
CONTINUOUS
 62
     4
 10
470.88
 20
22.86
 30
0.0
 11
470.88
 21
36.86
 31
0.0
  0
LINE
  8
10
  6
CONTINUOUS
 62
     6
 10
406.88
 20
22.86
 30
0.0
 11
406.88
 21
36.86
 31
0.0
  0
LINE
  8
10
  6
CONTINUOUS
 62
     6
 10
406.88
 20
36.86
 30
0.0
 11
546.88
 21
36.86
 31
0.0
  0
LINE
  8
0
  6
CONTINUOUS
 62
     4
 10
546.88
 20
36.86
 30
0.0
 11
608.88
 21
36.86
 31
0.0
  0
LINE
  8
10
  6
CONTINUOUS
 62
     6
 10
546.88
 20
22.86
 30
0.0
 11
546.88
 21
106.86
 31
0.0
  0
TEXT
  8
0
  6
CONTINUOUS
 62
     6
 10
610.6133332
 20
28.9933344
 30
0.0
 40
6.0666662
  1
ＵＮＩＴＥＣ　ＩＮＤＵＳＴＲＹ　ＣＯ．，ＬＴＤ．
 50
0.0
 41
0.42031746
 51
0.0
  7
KANJI2
  0
LINE
  8
0
  6
CONTINUOUS
 62
     6
 10
680.511661055
 20
30.38000096
 30
0.0
 11
675.935661407
 21
30.38000096
 31
0.0
  0
LINE
  8
0
  6
CONTINUOUS
 62
     6
 10
680.511661055
 20
31.212000896
 30
0.0
 11
675.935661407
 21
31.212000896
 31
0.0
  0
LINE
  8
0
  6
CONTINUOUS
 62
     6
 10
680.511661055
 20
30.38000096
 30
0.0
 11
685.087660703
 21
30.38000096
 31
0.0
  0
LINE
  8
0
  6
CONTINUOUS
 62
     6
 10
680.511661055
 20
31.212000896
 30
0.0
 11
685.087660703
 21
31.212000896
 31
0.0
  0
LINE
  8
0
  6
CONTINUOUS
 62
     6
 10
685.087660703
 20
31.212000896
 30
0.0
 11
685.087660703
 21
30.38000096
 31
0.0
  0
ARC
  8
0
  6
CONTINUOUS
 62
     6
 10
686.127660623
 20
30.796000928
 30
0.0
 40
4.15999968
 50
185.739170477
 51
90.0
  0
ARC
  8
0
  6
CONTINUOUS
 62
     6
 10
686.127660623
 20
30.796000928
 30
0.0
 40
4.991999616
 50
184.780191847
 51
90.0
  0
LINE
  8
0
  6
CONTINUOUS
 62
     6
 10
675.935661407
 20
30.38000096
 30
0.0
 11
675.935661407
 21
31.212000896
 31
0.0
  0
ARC
  8
0
  6
CONTINUOUS
 62
     6
 10
674.895661487
 20
30.796000928
 30
0.0
 40
4.15999968
 50
90.0
 51
354.260829523
  0
ARC
  8
0
  6
CONTINUOUS
 62
     6
 10
674.895661487
 20
30.796000928
 30
0.0
 40
4.991999616
 50
90.0
 51
355.219808153
  0
LINE
  8
0
  6
CONTINUOUS
 62
     6
 10
679.887661103
 20
35.788000544
 30
0.0
 11
679.887661103
 21
34.956000608
 31
0.0
  0
LINE
  8
0
  6
CONTINUOUS
 62
     6
 10
674.895661487
 20
34.956000608
 30
0.0
 11
679.887661103
 21
34.956000608
 31
0.0
  0
LINE
  8
0
  6
CONTINUOUS
 62
     6
 10
681.135661007
 20
35.788000544
 30
0.0
 11
681.135661007
 21
34.956000608
 31
0.0
  0
LINE
  8
0
  6
CONTINUOUS
 62
     6
 10
686.127660623
 20
34.956000608
 30
0.0
 11
681.135661007
 21
34.956000608
 31
0.0
  0
TEXT
  8
0
  6
CONTINUOUS
 62
     6
 10
693.378326655
 20
26.74000124
 30
1.03999992
 40
10.3999992
  1
ユニテック工業株式会社
 50
0.0
 41
0.9
 51
0.0
  7
KANJI3
  0
TEXT
  8
10
  6
CONTINUOUS
 62
     4
 10
551.88
 20
39.04
 30
0.0
 40
3.6
  1
日付
 50
0.0
 41
0.9444444
 51
0.0
  7
KANJI1
  0
TEXT
  8
10
  6
CONTINUOUS
 62
     4
 10
551.88
 20
53.12
 30
0.0
 40
3.6
  1
作図
 50
0.0
 41
0.9444444
 51
0.0
  7
KANJI1
  0
TEXT
  8
10
  6
CONTINUOUS
 62
     4
 10
551.88
 20
67.14
 30
0.0
 40
3.6
  1
設計
 50
0.0
 41
0.9444444
 51
0.0
  7
KANJI1
  0
TEXT
  8
10
  6
CONTINUOUS
 62
     4
 10
613.88
 20
53.12
 30
0.0
 40
3.6
  1
図面番号
 50
0.0
 41
0.9444444
 51
0.0
  7
KANJI1
  0
TEXT
  8
10
  6
CONTINUOUS
 62
     4
 10
613.88
 20
67.16
 30
0.0
 40
3.6
  1
製番
 50
0.0
 41
0.9444444
 51
0.0
  7
KANJI1
  0
TEXT
  8
10
  6
CONTINUOUS
 62
     4
 10
550.88
 20
45.24
 30
0.0
 40
3.6
  1
ＤＡＴＥ
 50
0.0
 41
0.9444444
 51
0.0
  7
KANJI1
  0
TEXT
  8
10
  6
CONTINUOUS
 62
     4
 10
550.88
 20
59.26
 30
0.0
 40
3.6
  1
ＤＲＡＷＮ
 50
0.0
 41
0.9444444
 51
0.0
  7
KANJI1
  0
TEXT
  8
10
  6
CONTINUOUS
 62
     4
 10
612.88
 20
59.26
 30
0.0
 40
3.6
  1
ＤＷＧ．ＮＯ．
 50
0.0
 41
0.9444444
 51
0.0
  7
KANJI1
  0
TEXT
  8
10
  6
CONTINUOUS
 62
     4
 10
755.68
 20
50.88
 30
0.0
 40
6.4
  1
－
 50
0.0
 41
0.78125
 51
0.0
  7
KANJI4
  0
TEXT
  8
10
  6
CONTINUOUS
 62
     4
 10
764.2
 20
48.02
 30
0.0
 40
14.0
  1
△
 50
0.0
 41
1.0
 51
0.0
  7
KANJI5
  0
LINE
  8
10
  6
LTYPE1
 62
     4
 10
669.4
 20
60.26
 30
0.0
 11
670.0
 21
60.86
 31
0.0
  0
LINE
  8
10
  6
LTYPE1
 62
     4
 10
680.4
 20
60.86
 30
0.0
 11
681.0
 21
60.26
 31
0.0
  0
LINE
  8
10
  6
LTYPE1
 62
     4
 10
681.0
 20
60.26
 30
0.0
 11
681.6
 21
60.86
 31
0.0
  0
LINE
  8
10
  6
LTYPE1
 62
     4
 10
692.0
 20
60.86
 30
0.0
 11
692.6
 21
60.26
 31
0.0
  0
LINE
  8
10
  6
LTYPE1
 62
     4
 10
692.6
 20
60.26
 30
0.0
 11
693.2
 21
60.86
 31
0.0
  0
LINE
  8
10
  6
LTYPE1
 62
     4
 10
703.6
 20
60.86
 30
0.0
 11
704.2
 21
60.26
 31
0.0
  0
LINE
  8
10
  6
LTYPE1
 62
     4
 10
704.2
 20
60.26
 30
0.0
 11
704.8
 21
60.86
 31
0.0
  0
LINE
  8
10
  6
LTYPE1
 62
     4
 10
715.2
 20
60.86
 30
0.0
 11
715.8
 21
60.26
 31
0.0
  0
LINE
  8
10
  6
LTYPE1
 62
     4
 10
715.8
 20
60.26
 30
0.0
 11
716.4
 21
60.86
 31
0.0
  0
LINE
  8
10
  6
LTYPE1
 62
     4
 10
726.8
 20
60.86
 30
0.0
 11
727.4
 21
60.26
 31
0.0
  0
LINE
  8
10
  6
LTYPE1
 62
     4
 10
727.4
 20
60.26
 30
0.0
 11
728.0
 21
60.86
 31
0.0
  0
LINE
  8
10
  6
LTYPE1
 62
     4
 10
738.4
 20
60.86
 30
0.0
 11
739.0
 21
60.26
 31
0.0
  0
LINE
  8
10
  6
LTYPE1
 62
     4
 10
739.0
 20
60.26
 30
0.0
 11
739.6
 21
60.86
 31
0.0
  0
LINE
  8
10
  6
LTYPE1
 62
     4
 10
750.0
 20
60.86
 30
0.0
 11
750.6
 21
60.26
 31
0.0
  0
LINE
  8
10
  6
LTYPE1
 62
     4
 10
739.6
 20
60.86
 30
0.0
 11
750.0
 21
60.86
 31
0.0
  0
LINE
  8
10
  6
LTYPE1
 62
     4
 10
728.0
 20
60.86
 30
0.0
 11
738.4
 21
60.86
 31
0.0
  0
LINE
  8
10
  6
LTYPE1
 62
     4
 10
716.4
 20
60.86
 30
0.0
 11
726.8
 21
60.86
 31
0.0
  0
LINE
  8
10
  6
LTYPE1
 62
     4
 10
704.8
 20
60.86
 30
0.0
 11
715.2
 21
60.86
 31
0.0
  0
LINE
  8
10
  6
LTYPE1
 62
     4
 10
693.2
 20
60.86
 30
0.0
 11
703.6
 21
60.86
 31
0.0
  0
LINE
  8
10
  6
LTYPE1
 62
     4
 10
681.6
 20
60.86
 30
0.0
 11
692.0
 21
60.86
 31
0.0
  0
LINE
  8
10
  6
LTYPE1
 62
     4
 10
670.0
 20
60.86
 30
0.0
 11
680.4
 21
60.86
 31
0.0
  0
LINE
  8
10
  6
LTYPE1
 62
     4
 10
669.4
 20
47.46
 30
0.0
 11
670.0
 21
46.86
 31
0.0
  0
LINE
  8
10
  6
LTYPE1
 62
     4
 10
680.4
 20
46.86
 30
0.0
 11
681.0
 21
47.46
 31
0.0
  0
LINE
  8
10
  6
LTYPE1
 62
     4
 10
681.0
 20
47.46
 30
0.0
 11
681.6
 21
46.86
 31
0.0
  0
LINE
  8
10
  6
LTYPE1
 62
     4
 10
692.0
 20
46.86
 30
0.0
 11
692.6
 21
47.46
 31
0.0
  0
LINE
  8
10
  6
LTYPE1
 62
     4
 10
692.6
 20
47.46
 30
0.0
 11
693.2
 21
46.86
 31
0.0
  0
LINE
  8
10
  6
LTYPE1
 62
     4
 10
703.6
 20
46.86
 30
0.0
 11
704.2
 21
47.46
 31
0.0
  0
LINE
  8
10
  6
LTYPE1
 62
     4
 10
704.2
 20
47.46
 30
0.0
 11
704.8
 21
46.86
 31
0.0
  0
LINE
  8
10
  6
LTYPE1
 62
     4
 10
715.2
 20
46.86
 30
0.0
 11
715.8
 21
47.46
 31
0.0
  0
LINE
  8
10
  6
LTYPE1
 62
     4
 10
715.8
 20
47.46
 30
0.0
 11
716.4
 21
46.86
 31
0.0
  0
LINE
  8
10
  6
LTYPE1
 62
     4
 10
726.8
 20
46.86
 30
0.0
 11
727.4
 21
47.46
 31
0.0
  0
LINE
  8
10
  6
LTYPE1
 62
     4
 10
727.4
 20
47.46
 30
0.0
 11
728.0
 21
46.86
 31
0.0
  0
LINE
  8
10
  6
LTYPE1
 62
     4
 10
738.4
 20
46.86
 30
0.0
 11
739.0
 21
47.46
 31
0.0
  0
LINE
  8
10
  6
LTYPE1
 62
     4
 10
739.0
 20
47.46
 30
0.0
 11
739.6
 21
46.86
 31
0.0
  0
LINE
  8
10
  6
LTYPE1
 62
     4
 10
750.0
 20
46.86
 30
0.0
 11
750.6
 21
47.46
 31
0.0
  0
LINE
  8
10
  6
LTYPE1
 62
     4
 10
739.6
 20
46.86
 30
0.0
 11
750.0
 21
46.86
 31
0.0
  0
LINE
  8
10
  6
LTYPE1
 62
     4
 10
728.0
 20
46.86
 30
0.0
 11
738.4
 21
46.86
 31
0.0
  0
LINE
  8
10
  6
LTYPE1
 62
     4
 10
716.4
 20
46.86
 30
0.0
 11
726.8
 21
46.86
 31
0.0
  0
LINE
  8
10
  6
LTYPE1
 62
     4
 10
704.8
 20
46.86
 30
0.0
 11
715.2
 21
46.86
 31
0.0
  0
LINE
  8
10
  6
LTYPE1
 62
     4
 10
693.2
 20
46.86
 30
0.0
 11
703.6
 21
46.86
 31
0.0
  0
LINE
  8
10
  6
LTYPE1
 62
     4
 10
681.6
 20
46.86
 30
0.0
 11
692.0
 21
46.86
 31
0.0
  0
LINE
  8
10
  6
LTYPE1
 62
     4
 10
670.0
 20
46.86
 30
0.0
 11
680.4
 21
46.86
 31
0.0
  0
LINE
  8
10
  6
LTYPE1
 62
     4
 10
750.6
 20
47.46
 30
0.0
 11
750.6
 21
60.26
 31
0.0
  0
LINE
  8
10
  6
LTYPE1
 62
     4
 10
739.0
 20
47.46
 30
0.0
 11
739.0
 21
60.26
 31
0.0
  0
LINE
  8
10
  6
LTYPE1
 62
     4
 10
727.4
 20
47.46
 30
0.0
 11
727.4
 21
60.26
 31
0.0
  0
LINE
  8
10
  6
LTYPE1
 62
     4
 10
715.8
 20
47.46
 30
0.0
 11
715.8
 21
60.26
 31
0.0
  0
LINE
  8
10
  6
LTYPE1
 62
     4
 10
704.2
 20
47.46
 30
0.0
 11
704.2
 21
60.26
 31
0.0
  0
LINE
  8
10
  6
LTYPE1
 62
     4
 10
692.6
 20
47.46
 30
0.0
 11
692.6
 21
60.26
 31
0.0
  0
LINE
  8
10
  6
LTYPE1
 62
     4
 10
681.0
 20
47.46
 30
0.0
 11
681.0
 21
60.26
 31
0.0
  0
LINE
  8
10
  6
LTYPE1
 62
     4
 10
669.4
 20
47.46
 30
0.0
 11
669.4
 21
60.26
 31
0.0
  0
TEXT
  8
10
  6
CONTINUOUS
 62
     2
 10
718.76
 20
67.58
 30
0.0
 40
9.0
  1
外形寸法図
 50
0.0
 41
1.0
 51
0.0
  7
KANJI6
  0
LINE
  8
10
  6
CONTINUOUS
 62
     4
 10
546.88
 20
50.86
 30
0.0
 11
608.88
 21
50.86
 31
0.0
  0
LINE
  8
10
  6
CONTINUOUS
 62
     4
 10
608.88
 20
42.86
 30
0.0
 11
806.88
 21
42.86
 31
0.0
  0
LINE
  8
10
  6
CONTINUOUS
 62
     4
 10
546.88
 20
64.86
 30
0.0
 11
806.88
 21
64.86
 31
0.0
  0
TEXT
  8
10
  6
CONTINUOUS
 62
     4
 10
551.88
 20
81.14
 30
0.0
 40
3.6
  1
検図
 50
0.0
 41
0.9444444
 51
0.0
  7
KANJI1
  0
TEXT
  8
10
  6
CONTINUOUS
 62
     4
 10
551.88
 20
95.16
 30
0.0
 40
3.6
  1
分類
 50
0.0
 41
0.9444444
 51
0.0
  7
KANJI1
  0
TEXT
  8
10
  6
CONTINUOUS
 62
     4
 10
613.88
 20
81.14
 30
0.0
 40
3.6
  1
機種
 50
0.0
 41
0.9444444
 51
0.0
  7
KANJI1
  0
TEXT
  8
10
  6
CONTINUOUS
 62
     4
 10
550.88
 20
73.24
 30
0.0
 40
3.6
  1
ＤＥＳＩＧＮ
 50
0.0
 41
0.9444444
 51
0.0
  7
KANJI1
  0
TEXT
  8
10
  6
CONTINUOUS
 62
     4
 10
550.88
 20
87.26
 30
0.0
 40
3.6
  1
ＣＨＥＣＫ
 50
0.0
 41
0.9444444
 51
0.0
  7
KANJI1
  0
TEXT
  8
10
  6
CONTINUOUS
 62
     4
 10
550.86
 20
101.24
 30
0.0
 40
3.6
  1
ＣＯＤＥ
 50
0.0
 41
0.9444444
 51
0.0
  7
KANJI1
  0
TEXT
  8
10
  6
CONTINUOUS
 62
     4
 10
612.88
 20
87.24
 30
0.0
 40
3.6
  1
ＴＹＰＥ
 50
0.0
 41
0.9444444
 51
0.0
  7
KANJI1
  0
TEXT
  8
10
  6
CONTINUOUS
 62
     4
 10
612.88
 20
73.24
 30
0.0
 40
3.6
  1
ＭＦＧ　ＮＯ．
 50
0.0
 41
0.9444444
 51
0.0
  7
KANJI1
  0
TEXT
  8
10
  6
CONTINUOUS
 62
     4
 10
686.78
 20
87.28
 30
0.0
 40
3.6
  1
ＴＩＴＬＥ
 50
0.0
 41
0.9444444
 51
0.0
  7
KANJI1
  0
TEXT
  8
10
  6
CONTINUOUS
 62
     4
 10
687.88
 20
81.02
 30
0.0
 40
3.6
  1
名称
 50
0.0
 41
0.9444444
 51
0.0
  7
KANJI1
  0
TEXT
  8
10
  6
CONTINUOUS
 62
     2
 10
708.98
 20
80.28
 30
0.0
 40
9.0
  1
マイティジャッキ
 50
0.0
 41
1.0
 51
0.0
  7
KANJI6
  0
LINE
  8
10
  6
CONTINUOUS
 62
     4
 10
546.88
 20
78.86
 30
0.0
 11
608.88
 21
78.86
 31
0.0
  0
LINE
  8
10
  6
CONTINUOUS
 62
     4
 10
613.88
 20
78.86
 30
0.0
 11
681.42
 21
78.86
 31
0.0
  0
LINE
  8
10
  6
CONTINUOUS
 62
     4
 10
613.88
 20
92.86
 30
0.0
 11
801.88
 21
92.86
 31
0.0
  0
LINE
  8
10
  6
CONTINUOUS
 62
     4
 10
546.88
 20
92.86
 30
0.0
 11
608.88
 21
92.86
 31
0.0
  0
LINE
  8
10
  6
CONTINUOUS
 62
     6
 10
546.88
 20
106.86
 30
0.0
 11
806.88
 21
106.86
 31
0.0
  0
TEXT
  8
0
  6
CONTINUOUS
 62
     6
 10
561.046646
 20
122.7933388
 30
2.0
 40
7.2
  1
ご用途
 50
0.0
 41
0.833333333
 51
0.0
  7
KANJI7
  0
TEXT
  8
0
  6
CONTINUOUS
 62
     6
 10
561.046646
 20
108.9266732
 30
2.0
 40
7.2
  1
ご注文主
 50
0.0
 41
0.833333333
 51
0.0
  7
KANJI7
  0
LINE
  8
0
  6
CONTINUOUS
 62
     6
 10
546.88
 20
106.86
 30
0.0
 11
546.88
 21
134.5933312
 31
0.0
  0
LINE
  8
0
  6
CONTINUOUS
 62
     6
 10
546.88
 20
134.5933312
 30
0.0
 11
806.88
 21
134.5933312
 31
0.0
  0
LINE
  8
0
  6
CONTINUOUS
 62
     6
 10
547.13
 20
120.7266656
 30
0.0
 11
806.88
 21
120.7266656
 31
0.0
  0
TEXT
  8
10
  6
CONTINUOUS
 62
     2
 10
628.32
 20
80.5
 30
0.0
 40
6.4
  1
ＡＪ１ＨＵＴ
 50
0.0
 41
0.9375
 51
0.0
  7
KANJI8
  0
TEXT
  8
10
  6
CONTINUOUS
 62
     2
 10
574.34
 20
25.71
 30
0.0
 40
6.4
  1
１／２
 50
0.0
 41
1.0
 51
0.0
  7
KANJI0
  0
LINE
  8
0
  6
CONTINUOUS
 62
     6
 10
679.887661103
 20
35.788000544
 30
0.0
 11
674.895661487
 21
35.788000544
 31
0.0
  0
LINE
  8
0
  6
CONTINUOUS
 62
     6
 10
681.135661007
 20
35.788000544
 30
0.0
 11
686.127660623
 21
35.788000544
 31
0.0
  0
LINE
  8
10
  6
CONTINUOUS
 62
     4
 10
608.88
 20
22.86
 30
0.0
 11
608.88
 21
106.86
 31
0.0
  0
LINE
  8
10
  6
CONTINUOUS
 62
     6
 10
608.88
 20
106.86
 30
0.0
 11
608.88
 21
134.5933312
 31
0.0
  0
LINE
  8
10
  6
CONTINUOUS
 62
     7
 10
686.88
 20
502.34
 30
0.0
 11
806.88
 21
502.34
 31
0.0
  0
LINE
  8
10
  6
CONTINUOUS
 62
     7
 10
686.88
 20
482.34
 30
0.0
 11
806.88
 21
482.34
 31
0.0
  0
LINE
  8
10
  6
CONTINUOUS
 62
     7
 10
686.88
 20
468.34
 30
0.0
 11
806.88
 21
468.34
 31
0.0
  0
LINE
  8
10
  6
CONTINUOUS
 62
     7
 10
686.88
 20
454.34
 30
0.0
 11
806.88
 21
454.34
 31
0.0
  0
LINE
  8
10
  6
CONTINUOUS
 62
     7
 10
686.88
 20
440.34
 30
0.0
 11
806.88
 21
440.34
 31
0.0
  0
LINE
  8
10
  6
CONTINUOUS
 62
     7
 10
686.88
 20
426.34
 30
0.0
 11
806.88
 21
426.34
 31
0.0
  0
LINE
  8
10
  6
CONTINUOUS
 62
     7
 10
686.88
 20
412.34
 30
0.0
 11
806.88
 21
412.34
 31
0.0
  0
LINE
  8
10
  6
CONTINUOUS
 62
     7
 10
686.88
 20
398.34
 30
0.0
 11
806.88
 21
398.34
 31
0.0
  0
LINE
  8
10
  6
CONTINUOUS
 62
     7
 10
686.88
 20
384.34
 30
0.0
 11
806.88
 21
384.34
 31
0.0
  0
LINE
  8
10
  6
CONTINUOUS
 62
     7
 10
686.88
 20
370.34
 30
0.0
 11
806.88
 21
370.34
 31
0.0
  0
LINE
  8
10
  6
CONTINUOUS
 62
     7
 10
686.88
 20
356.34
 30
0.0
 11
806.88
 21
356.34
 31
0.0
  0
LINE
  8
10
  6
CONTINUOUS
 62
     7
 10
686.88
 20
342.34
 30
0.0
 11
806.88
 21
342.34
 31
0.0
  0
LINE
  8
10
  6
CONTINUOUS
 62
     7
 10
686.88
 20
328.34
 30
0.0
 11
806.88
 21
328.34
 31
0.0
  0
LINE
  8
10
  6
CONTINUOUS
 62
     7
 10
686.88
 20
314.34
 30
0.0
 11
806.88
 21
314.34
 31
0.0
  0
LINE
  8
10
  6
CONTINUOUS
 62
     7
 10
686.88
 20
300.34
 30
0.0
 11
806.88
 21
300.34
 31
0.0
  0
LINE
  8
10
  6
CONTINUOUS
 62
     7
 10
686.88
 20
286.34
 30
0.0
 11
806.88
 21
286.34
 31
0.0
  0
LINE
  8
10
  6
CONTINUOUS
 62
     7
 10
686.88
 20
272.34
 30
0.0
 11
686.88
 21
502.34
 31
0.0
  0
LINE
  8
10
  6
CONTINUOUS
 62
     7
 10
746.88
 20
272.34
 30
0.0
 11
746.88
 21
482.34
 31
0.0
  0
TEXT
  8
10
  6
CONTINUOUS
 62
     7
 10
703.2200004
 20
487.44
 30
0.0
 40
9.0
  1
マイティジャッキ仕様
 50
0.0
 41
0.8888888
 51
0.0
  7
KANJI9
  0
TEXT
  8
10
  6
CONTINUOUS
 62
     4
 10
688.48
 20
471.76
 30
0.0
 40
6.4
  1
型式
 50
0.0
 41
1.0
 51
0.0
  7
KANJI10
  0
TEXT
  8
10
  6
CONTINUOUS
 62
     4
 10
688.48
 20
458.5
 30
0.0
 40
6.4
  1
推力
 50
0.0
 41
1.0
 51
0.0
  7
KANJI10
  0
TEXT
  8
10
  6
CONTINUOUS
 62
     4
 10
688.5
 20
430.34
 30
0.0
 40
6.4
  1
スクリュウ
 50
0.0
 41
1.0
 51
0.0
  7
KANJI10
  0
TEXT
  8
10
  6
CONTINUOUS
 62
     4
 10
689.58
 20
416.3
 30
0.0
 40
6.4
  1
ウォーム１回転当り移動量
 50
0.0
 41
0.65625
 51
0.0
  7
KANJI11
  0
TEXT
  8
10
  6
CONTINUOUS
 62
     4
 10
688.48
 20
401.8
 30
0.0
 40
6.4
  1
ウォーム減速比
 50
0.0
 41
1.0
 51
0.0
  7
KANJI10
  0
TEXT
  8
10
  6
CONTINUOUS
 62
     4
 10
688.48
 20
374.6
 30
0.0
 40
6.4
  1
効率
 50
0.0
 41
1.0
 51
0.0
  7
KANJI10
  0
TEXT
  8
10
  6
CONTINUOUS
 62
     4
 10
688.48
 20
360.72
 30
0.0
 40
6.4
  1
ネジ軸回転防止
 50
0.0
 41
1.0
 51
0.0
  7
KANJI10
  0
TEXT
  8
10
  6
CONTINUOUS
 62
     4
 10
688.48
 20
332.46
 30
0.0
 40
6.4
  1
潤滑
 50
0.0
 41
1.0
 51
0.0
  7
KANJI10
  0
TEXT
  8
10
  6
CONTINUOUS
 62
     4
 10
688.48
 20
318.08
 30
0.0
 40
6.4
  1
塗装色
 50
0.0
 41
1.0
 51
0.0
  7
KANJI10
  0
TEXT
  8
10
  6
CONTINUOUS
 62
     4
 10
688.28
 20
304.32
 30
0.0
 40
6.4
  1
付属品
 50
0.0
 41
1.0
 51
0.0
  7
KANJI10
  0
TEXT
  8
10
  6
CONTINUOUS
 62
     4
 10
756.58
 20
457.58
 30
0.0
 40
6.4
  1
１０００
 50
0.0
 41
0.71875
 51
0.0
  7
KANJI12
  0
TEXT
  8
10
  6
CONTINUOUS
 62
     4
 10
754.58
 20
429.24
 30
0.0
 40
6.4
  1
ＴＭ２０　Ｐ４
 50
0.0
 41
0.71875
 51
0.0
  7
KANJI12
  0
TEXT
  8
10
  6
CONTINUOUS
 62
     4
 10
787.64
 20
388.6
 30
0.0
 40
6.4
  1
ｋｇ－ｍ
 50
0.0
 41
0.6875
 51
0.0
  7
KANJI13
  0
TEXT
  8
10
  6
CONTINUOUS
 62
     4
 10
793.32
 20
373.96
 30
0.0
 40
6.4
  1
％
 50
0.0
 41
1.0
 51
0.0
  7
KANJI10
  0
TEXT
  8
10
  6
CONTINUOUS
 62
     4
 10
771.18
 20
360.56
 30
0.0
 40
6.4
  1
無し
 50
0.0
 41
0.71875
 51
0.0
  7
KANJI12
  0
TEXT
  8
10
  6
CONTINUOUS
 62
     4
 10
754.58
 20
332.1
 30
0.0
 40
6.4
  1
グリース方式
 50
0.0
 41
0.71875
 51
0.0
  7
KANJI12
  0
TEXT
  8
10
  6
CONTINUOUS
 62
     4
 10
755.18
 20
303.44
 30
0.0
 40
6.4
  1
入力キー
 50
0.0
 41
0.71875
 51
0.0
  7
KANJI12
  0
TEXT
  8
10
  6
CONTINUOUS
 62
     4
 10
787.46
 20
346.7
 30
0.0
 40
6.4
  1
ｋｇ－ｍ
 50
0.0
 41
0.6875
 51
0.0
  7
KANJI13
  0
TEXT
  8
10
  6
CONTINUOUS
 62
     4
 10
792.6
 20
458.28
 30
0.0
 40
6.4
  1
ｋｇ
 50
0.0
 41
0.6875
 51
0.0
  7
KANJI13
  0
TEXT
  8
10
  6
CONTINUOUS
 62
     4
 10
792.28
 20
416.02
 30
0.0
 40
6.4
  1
ｍｍ
 50
0.0
 41
0.6875
 51
0.0
  7
KANJI13
  0
LINE
  8
10
  6
CONTINUOUS
 62
     7
 10
686.88
 20
272.34
 30
0.0
 11
806.88
 21
272.34
 31
0.0
  0
TEXT
  8
10
  6
CONTINUOUS
 62
     4
 10
688.68
 20
275.94
 30
0.0
 40
6.4
  1
台数
 50
0.0
 41
1.0
 51
0.0
  7
KANJI10
  0
TEXT
  8
10
  6
CONTINUOUS
 62
     4
 10
688.68
 20
444.24
 30
0.0
 40
6.4
  1
ストローク
 50
0.0
 41
1.0
 51
0.0
  7
KANJI10
  0
TEXT
  8
10
  6
CONTINUOUS
 62
     4
 10
792.36
 20
444.62
 30
0.0
 40
6.4
  1
ｍｍ
 50
0.0
 41
0.6875
 51
0.0
  7
KANJI13
  0
TEXT
  8
10
  6
CONTINUOUS
 62
     4
 10
766.72
 20
374.62
 30
0.0
 40
6.4
  1
２１
 50
0.0
 41
0.71875
 51
0.0
  7
KANJI12
  0
TEXT
  8
10
  6
CONTINUOUS
 62
     4
 10
689.54
 20
388.7
 30
0.0
 40
6.4
  1
入力トルク（許容荷重時）
 50
0.0
 41
0.65625
 51
0.0
  7
KANJI11
  0
TEXT
  8
10
  6
CONTINUOUS
 62
     4
 10
688.44
 20
346.6
 30
0.0
 40
6.4
  1
発生ネジ軸トルク
 50
0.0
 41
1.0
 51
0.0
  7
KANJI10
  0
TEXT
  8
10
  6
CONTINUOUS
 62
     4
 10
771.34
 20
346.2
 30
0.0
 40
6.4
  1
１．８
 50
0.0
 41
0.71875
 51
0.0
  7
KANJI12
  0
LINE
  8
0
  6
CONTINUOUS
 62
     2
 10
159.5
 20
92.5
 30
0.0
 11
199.5
 21
92.5
 31
0.0
  0
TEXT
  8
0
  6
CONTINUOUS
 62
     3
 10
159.5
 20
93.5
 30
0.0
 40
10.0
  1
矢視　Ａ
 50
0.0
 41
1.0
 51
0.0
  7
KANJI14
  0
LINE
  8
1
  6
CONTINUOUS
 62
     7
 10
329.04
 20
534.06
 30
0.0
 11
339.04
 21
534.06
 31
0.0
  0
LINE
  8
1
  6
CONTINUOUS
 62
     7
 10
329.04
 20
524.06
 30
0.0
 11
329.04
 21
534.06
 31
0.0
  0
LINE
  8
1
  6
CONTINUOUS
 62
     7
 10
339.04
 20
524.06
 30
0.0
 11
339.04
 21
534.06
 31
0.0
  0
LINE
  8
1
  6
CONTINUOUS
 62
     7
 10
329.04
 20
524.06
 30
0.0
 11
339.04
 21
524.06
 31
0.0
  0
LINE
  8
1
  6
LTYPE2
 62
     2
 10
309.04
 20
515.06
 30
0.0
 11
359.04
 21
515.06
 31
0.0
  0
LINE
  8
1
  6
CONTINUOUS
 62
     2
 10
259.04
 20
500.06
 30
0.0
 11
259.04
 21
534.06
 31
0.0
  0
LINE
  8
1
  6
CONTINUOUS
 62
     2
 10
327.04
 20
534.06
 30
0.0
 11
256.04
 21
534.06
 31
0.0
  0
LINE
  8
1
  6
CONTINUOUS
 62
     2
 10
332.04
 20
500.06
 30
0.0
 11
256.04
 21
500.06
 31
0.0
  0
LINE
  8
1
  6
CONTINUOUS
 62
     2
 10
260.1118
 20
530.06
 30
0.0
 11
259.04
 21
534.06
 31
0.0
  0
LINE
  8
1
  6
CONTINUOUS
 62
     2
 10
259.04
 20
534.06
 30
0.0
 11
257.9684
 21
530.06
 31
0.0
  0
LINE
  8
1
  6
CONTINUOUS
 62
     2
 10
257.9684
 20
504.06
 30
0.0
 11
259.04
 21
500.06
 31
0.0
  0
LINE
  8
1
  6
CONTINUOUS
 62
     2
 10
259.04
 20
500.06
 30
0.0
 11
260.1118
 21
504.06
 31
0.0
  0
LINE
  8
1
  6
CONTINUOUS
 62
     2
 10
324.6
 20
526.68
 30
0.0
 11
343.5
 21
503.44
 31
0.0
  0
LINE
  8
1
  6
CONTINUOUS
 62
     2
 10
348.5476
 20
497.2334
 30
0.0
 11
343.5
 21
503.44
 31
0.0
  0
LINE
  8
1
  6
CONTINUOUS
 62
     2
 10
346.8554
 20
501.013
 30
0.0
 11
343.5
 21
503.44
 31
0.0
  0
LINE
  8
1
  6
CONTINUOUS
 62
     2
 10
343.5
 20
503.44
 30
0.0
 11
345.1924
 21
499.6606
 31
0.0
  0
LINE
  8
1
  6
CONTINUOUS
 62
     2
 10
319.5526
 20
532.8868
 30
0.0
 11
324.6
 21
526.68
 31
0.0
  0
LINE
  8
1
  6
CONTINUOUS
 62
     2
 10
321.2448
 20
529.1072
 30
0.0
 11
324.6
 21
526.68
 31
0.0
  0
LINE
  8
1
  6
CONTINUOUS
 62
     2
 10
324.6
 20
526.68
 30
0.0
 11
322.9078
 21
530.4596
 31
0.0
  0
LINE
  8
1
  6
CONTINUOUS
 62
     2
 10
348.5476
 20
497.2334
 30
0.0
 11
368.3846
 21
472.8416
 31
0.0
  0
TEXT
  8
1
  6
CONTINUOUS
 62
     4
 10
349.809054685
 20
498.852296016
 30
0.0
 40
6.4
  1
φ１５
 50
309.12
 41
0.90625
 51
0.0
  7
KANJI15
  0
LINE
  8
1
  6
CONTINUOUS
 62
     2
 10
299.04
 20
530.06
 30
0.0
 11
299.04
 21
534.06
 31
0.0
  0
LINE
  8
1
  6
CONTINUOUS
 62
     2
 10
327.04
 20
534.06
 30
0.0
 11
296.04
 21
534.06
 31
0.0
  0
LINE
  8
1
  6
CONTINUOUS
 62
     2
 10
332.04
 20
530.06
 30
0.0
 11
296.04
 21
530.06
 31
0.0
  0
LINE
  8
1
  6
CONTINUOUS
 62
     2
 10
299.04
 20
542.06
 30
0.0
 11
299.04
 21
534.06
 31
0.0
  0
LINE
  8
1
  6
CONTINUOUS
 62
     2
 10
297.9684
 20
538.06
 30
0.0
 11
299.04
 21
534.06
 31
0.0
  0
LINE
  8
1
  6
CONTINUOUS
 62
     2
 10
299.04
 20
534.06
 30
0.0
 11
300.1118
 21
538.06
 31
0.0
  0
LINE
  8
1
  6
CONTINUOUS
 62
     2
 10
299.04
 20
530.06
 30
0.0
 11
299.04
 21
522.06
 31
0.0
  0
LINE
  8
1
  6
CONTINUOUS
 62
     2
 10
300.1118
 20
526.06
 30
0.0
 11
299.04
 21
530.06
 31
0.0
  0
LINE
  8
1
  6
CONTINUOUS
 62
     2
 10
299.04
 20
530.06
 30
0.0
 11
297.9684
 21
526.06
 31
0.0
  0
LINE
  8
1
  6
CONTINUOUS
 62
     2
 10
279.04
 20
524.06
 30
0.0
 11
279.04
 21
534.06
 31
0.0
  0
LINE
  8
1
  6
CONTINUOUS
 62
     2
 10
327.04
 20
534.06
 30
0.0
 11
276.04
 21
534.06
 31
0.0
  0
LINE
  8
1
  6
CONTINUOUS
 62
     2
 10
327.04
 20
524.06
 30
0.0
 11
276.04
 21
524.06
 31
0.0
  0
LINE
  8
1
  6
CONTINUOUS
 62
     2
 10
279.04
 20
542.06
 30
0.0
 11
279.04
 21
534.06
 31
0.0
  0
LINE
  8
1
  6
CONTINUOUS
 62
     2
 10
277.9684
 20
538.06
 30
0.0
 11
279.04
 21
534.06
 31
0.0
  0
LINE
  8
1
  6
CONTINUOUS
 62
     2
 10
279.04
 20
534.06
 30
0.0
 11
280.1118
 21
538.06
 31
0.0
  0
LINE
  8
1
  6
CONTINUOUS
 62
     2
 10
279.04
 20
524.06
 30
0.0
 11
279.04
 21
516.06
 31
0.0
  0
LINE
  8
1
  6
CONTINUOUS
 62
     2
 10
280.1118
 20
520.06
 30
0.0
 11
279.04
 21
524.06
 31
0.0
  0
LINE
  8
1
  6
CONTINUOUS
 62
     2
 10
279.04
 20
524.06
 30
0.0
 11
277.9684
 21
520.06
 31
0.0
  0
ARC
  8
1
  6
CONTINUOUS
 62
     7
 10
334.04
 20
515.06
 30
0.0
 40
15.0
 50
109.47394
 51
70.526059
  0
TEXT
  8
1
  6
CONTINUOUS
 62
     4
 10
256.84
 20
511.16
 30
0.0
 40
6.4
  1
１７
 50
90.0
 41
0.90625
 51
0.0
  7
KANJI15
  0
TEXT
  8
1
  6
CONTINUOUS
 62
     4
 10
276.84
 20
526.06
 30
0.0
 40
6.4
  1
５
 50
90.0
 41
0.90625
 51
0.0
  7
KANJI15
  0
TEXT
  8
1
  6
CONTINUOUS
 62
     4
 10
296.84
 20
529.06
 30
0.0
 40
6.4
  1
２
 50
90.0
 41
0.90625
 51
0.0
  7
KANJI15
  0
TEXT
  8
1
  6
CONTINUOUS
 62
     4
 10
360.787654685
 20
485.352896016
 30
0.0
 40
6.4
  1
ｈ６
 50
309.12
 41
0.90625
 51
0.0
  7
KANJI15
  0
TEXT
  8
1
  6
CONTINUOUS
 62
     4
 10
317.0400004
 20
471.6
 30
0.0
 40
9.0
  1
入力軸
 50
0.0
 41
0.8888888
 51
0.0
  7
KANJI9
  0
LINE
  8
1
  6
CONTINUOUS
 62
     2
 10
315.08
 20
468.82
 30
0.0
 11
346.86
 21
468.82
 31
0.0
  0
LINE
  8
0
  6
CONTINUOUS
 62
     6
 10
622.310042991
 20
502.492395251
 30
0.0
 11
565.396642991
 21
502.492395251
 31
0.0
  0
LINE
  8
0
  6
CONTINUOUS
 62
     6
 10
569.396642991
 20
501.413995251
 30
0.0
 11
565.396642991
 21
502.485795251
 31
0.0
  0
LINE
  8
0
  6
CONTINUOUS
 62
     6
 10
565.396642991
 20
502.485795251
 30
0.0
 11
569.396642991
 21
503.557395251
 31
0.0
  0
TEXT
  8
10
  6
CONTINUOUS
 62
     4
 10
768.14
 20
387.6
 30
0.0
 40
6.4
  1
０．５６
 50
0.0
 41
0.71875
 51
0.0
  7
KANJI12
  0
TEXT
  8
10
  6
CONTINUOUS
 62
     4
 10
771.72
 20
415.48
 30
0.0
 40
6.4
  1
０．８
 50
0.0
 41
0.71875
 51
0.0
  7
KANJI12
  0
LINE
  8
1
  6
LTYPE2
 62
     2
 10
334.04
 20
490.06
 30
0.0
 11
334.04
 21
541.4
 31
0.0
  0
LINE
  8
1
  6
CONTINUOUS
 62
     2
 10
329.04
 20
536.06
 30
0.0
 11
329.04
 21
549.4
 31
0.0
  0
LINE
  8
1
  6
CONTINUOUS
 62
     2
 10
329.04
 20
547.4
 30
0.0
 11
324.210370869
 21
548.694095226
 31
0.0
  0
LINE
  8
1
  6
CONTINUOUS
 62
     2
 10
329.04
 20
547.4
 30
0.0
 11
324.210370869
 21
546.105904774
 31
0.0
  0
LINE
  8
1
  6
CONTINUOUS
 62
     2
 10
321.54
 20
547.4
 30
0.0
 11
329.04
 21
547.4
 31
0.0
  0
LINE
  8
1
  6
CONTINUOUS
 62
     2
 10
329.04
 20
547.4
 30
0.0
 11
339.04
 21
547.4
 31
0.0
  0
LINE
  8
1
  6
CONTINUOUS
 62
     2
 10
339.04
 20
547.4
 30
0.0
 11
346.54
 21
547.4
 31
0.0
  0
LINE
  8
1
  6
CONTINUOUS
 62
     2
 10
339.04
 20
547.4
 30
0.0
 11
343.869629131
 21
546.105904774
 31
0.0
  0
LINE
  8
1
  6
CONTINUOUS
 62
     2
 10
339.04
 20
547.4
 30
0.0
 11
343.869629131
 21
548.694095226
 31
0.0
  0
LINE
  8
1
  6
CONTINUOUS
 62
     2
 10
339.04
 20
536.06
 30
0.0
 11
339.04
 21
549.4
 31
0.0
  0
TEXT
  8
1
  6
CONTINUOUS
 62
     3
 10
330.34
 20
548.4
 30
0.0
 40
8.0
  1
５
 50
0.0
 41
0.925
 51
0.0
  7
KANJI16
  0
TEXT
  8
0
  6
CONTINUOUS
 62
     5
 10
571.843442991
 20
504.292395251
 30
0.0
 40
9.0
  1
ナット移動
 50
0.0
 41
1.0
 51
0.0
  7
KANJI6
  0
TEXT
  8
10
  6
CONTINUOUS
 62
     4
 10
688.28
 20
290.32
 30
0.0
 40
6.4
  1
概算重量
 50
0.0
 41
1.0
 51
0.0
  7
KANJI10
  0
TEXT
  8
10
  6
CONTINUOUS
 62
     4
 10
755.18
 20
289.44
 30
0.0
 40
6.4
  1
５ｋｇ／１台当たり
 50
0.0
 41
0.71875
 51
0.0
  7
KANJI12
  0
TEXT
  8
10
  6
CONTINUOUS
 62
     2
 10
575.8
 20
53.703333333
 30
0.0
 40
6.4
  1
竹下
 50
0.0
 41
1.0
 51
0.0
  7
KANJI0
  0
TEXT
  8
10
  6
CONTINUOUS
 62
     4
 10
648.78
 20
252.26
 30
0.0
 40
6.4
  1
特記事項
 50
0.0
 41
1.0
 51
0.0
  7
KANJI10
  0
TEXT
  8
10
  6
CONTINUOUS
 62
     4
 10
648.78
 20
238.26
 30
0.0
 40
6.4
  1
１．フレーム材質　ダグタイル鋳鉄
 50
0.0
 41
1.0
 51
0.0
  7
KANJI10
  0
TEXT
  8
10
  6
CONTINUOUS
 62
     4
 10
648.78
 20
224.26
 30
0.0
 40
6.4
  1
２．ナットの回転防止対策を行って下さい
 50
0.0
 41
1.0
 51
0.0
  7
KANJI10
  0
TEXT
  8
10
  6
CONTINUOUS
 62
     4
 10
648.78
 20
210.26
 30
0.0
 40
6.4
  1
３．塗装仕様
 50
0.0
 41
1.0
 51
0.0
  7
KANJI10
  0
TEXT
  8
0
  6
CONTINUOUS
 62
     4
 10
663.1
 20
178.9
 30
0.0
 40
6.4
  1
（希釈剤）エポキシシンナー
 50
0.0
 41
1.0
 51
0.0
  7
KANJI0
  0
TEXT
  8
0
  6
CONTINUOUS
 62
     4
 10
663.5
 20
199.3
 30
0.0
 40
6.4
  1
（下塗）　ステンレスコートＲＰ－プライマー
 50
0.0
 41
1.0
 51
0.0
  7
KANJI0
  0
TEXT
  8
0
  6
CONTINUOUS
 62
     4
 10
663.5
 20
189.3
 30
0.0
 40
6.4
  1
（上塗）　ステンレスコートＥＰ－タイプ
 50
0.0
 41
1.0
 51
0.0
  7
KANJI0
  0
TEXT
  8
10
  6
CONTINUOUS
 62
     4
 10
648.78
 20
167.76
 30
0.0
 40
6.4
  1
４．呼称ストロークは、機械ストロークです。
 50
0.0
 41
1.0
 51
0.0
  7
KANJI10
  0
TEXT
  8
10
  6
CONTINUOUS
 62
     4
 10
648.78
 20
155.86
 30
0.0
 40
6.4
  1
　　常用はストローク両端に必ず余裕を取って下さい。
 50
0.0
 41
1.0
 51
0.0
  7
KANJI10
  0
LINE
  8
1
  6
CONTINUOUS
 62
     2
 10
344.26
 20
407.731138356
 30
0.0
 11
344.26
 21
407.731138356
 31
0.0
  0
LINE
  8
0
  6
CONTINUOUS
 62
     1
 10
315.26
 20
403.231138356
 30
0.0
 11
315.26
 21
392.231138356
 31
0.0
  0
LINE
  8
0
  6
CONTINUOUS
 62
     1
 10
335.26
 20
403.731138356
 30
0.0
 11
315.76
 21
403.731138356
 31
0.0
  0
LINE
  8
0
  6
CONTINUOUS
 62
     1
 10
315.76
 20
403.731138356
 30
0.0
 11
315.26
 21
403.231138356
 31
0.0
  0
LINE
  8
0
  6
CONTINUOUS
 62
     1
 10
335.26
 20
407.731138356
 30
0.0
 11
335.26
 21
387.731138356
 31
0.0
  0
LINE
  8
0
  6
CONTINUOUS
 62
     1
 10
335.26
 20
391.731138356
 30
0.0
 11
315.76
 21
391.731138356
 31
0.0
  0
LINE
  8
0
  6
CONTINUOUS
 62
     1
 10
315.26
 20
392.231138356
 30
0.0
 11
315.76
 21
391.731138356
 31
0.0
  0
LINE
  8
1
  6
CONTINUOUS
 62
     1
 10
315.76
 20
403.731138356
 30
0.0
 11
315.76
 21
391.731138356
 31
0.0
  0
LINE
  8
0
  6
CONTINUOUS
 62
     1
 10
408.798861644
 20
407.731138356
 30
0.0
 11
335.26
 21
407.731138356
 31
0.0
  0
LINE
  8
0
  6
CONTINUOUS
 62
     1
 10
408.798861644
 20
387.731138356
 30
0.0
 11
335.26
 21
387.731138356
 31
0.0
  0
LINE
  8
0
  6
CONTINUOUS
 62
     1
 10
408.798861644
 20
416.731138356
 30
0.0
 11
409.798861644
 21
417.731138356
 31
0.0
  0
LINE
  8
0
  6
CONTINUOUS
 62
     1
 10
408.798861644
 20
378.731138356
 30
0.0
 11
409.798861644
 21
377.731138356
 31
0.0
  0
LINE
  8
0
  6
CONTINUOUS
 62
     1
 10
408.798861644
 20
416.731138356
 30
0.0
 11
408.798861644
 21
378.731138356
 31
0.0
  0
LINE
  8
6
  6
LTYPE3
 62
     2
 10
635.853271915
 20
397.731138356
 30
0.0
 11
309.385979418
 21
397.731138356
 31
0.0
  0
LINE
  8
0
  6
CONTINUOUS
 62
     2
 10
313.76
 20
403.731138356
 30
0.0
 11
303.86
 21
403.731138356
 31
0.0
  0
LINE
  8
0
  6
CONTINUOUS
 62
     2
 10
305.86
 20
403.731138356
 30
0.0
 11
307.154095226
 21
408.560767487
 31
0.0
  0
LINE
  8
0
  6
CONTINUOUS
 62
     2
 10
305.86
 20
403.731138356
 30
0.0
 11
304.565904774
 21
408.560767487
 31
0.0
  0
LINE
  8
0
  6
CONTINUOUS
 62
     2
 10
305.86
 20
411.231138356
 30
0.0
 11
305.86
 21
403.731138356
 31
0.0
  0
LINE
  8
0
  6
CONTINUOUS
 62
     2
 10
305.86
 20
403.731138356
 30
0.0
 11
305.86
 21
391.731138356
 31
0.0
  0
LINE
  8
0
  6
CONTINUOUS
 62
     2
 10
305.86
 20
391.731138356
 30
0.0
 11
305.86
 21
347.231138356
 31
0.0
  0
LINE
  8
0
  6
CONTINUOUS
 62
     2
 10
305.86
 20
391.731138356
 30
0.0
 11
304.565904774
 21
386.901509224
 31
0.0
  0
LINE
  8
0
  6
CONTINUOUS
 62
     2
 10
305.86
 20
391.731138356
 30
0.0
 11
307.154095226
 21
386.901509224
 31
0.0
  0
LINE
  8
0
  6
CONTINUOUS
 62
     2
 10
313.76
 20
391.731138356
 30
0.0
 11
303.86
 21
391.731138356
 31
0.0
  0
TEXT
  8
0
  6
CONTINUOUS
 62
     3
 10
304.86
 20
347.231138356
 30
0.0
 40
8.0
  1
φ１２ｈ７
 50
90.0
 41
0.925
 51
0.0
  7
KANJI16
  0
LINE
  8
0
  6
CONTINUOUS
 62
     2
 10
350.16
 20
407.731138356
 30
0.0
 11
350.76
 21
407.731138356
 31
0.0
  0
LINE
  8
0
  6
CONTINUOUS
 62
     2
 10
348.76
 20
407.731138356
 30
0.0
 11
350.054095226
 21
412.560767487
 31
0.0
  0
LINE
  8
0
  6
CONTINUOUS
 62
     2
 10
348.76
 20
407.731138356
 30
0.0
 11
347.465904774
 21
412.560767487
 31
0.0
  0
LINE
  8
0
  6
CONTINUOUS
 62
     2
 10
348.76
 20
415.231138356
 30
0.0
 11
348.76
 21
407.731138356
 31
0.0
  0
LINE
  8
0
  6
CONTINUOUS
 62
     2
 10
348.76
 20
407.731138356
 30
0.0
 11
348.76
 21
387.731138356
 31
0.0
  0
LINE
  8
0
  6
CONTINUOUS
 62
     2
 10
348.76
 20
387.731138356
 30
0.0
 11
347.465904774
 21
382.901509224
 31
0.0
  0
LINE
  8
0
  6
CONTINUOUS
 62
     2
 10
348.76
 20
387.731138356
 30
0.0
 11
350.054095226
 21
382.901509224
 31
0.0
  0
LINE
  8
0
  6
CONTINUOUS
 62
     2
 10
347.36
 20
387.731138356
 30
0.0
 11
346.76
 21
387.731138356
 31
0.0
  0
LINE
  8
0
  6
CONTINUOUS
 62
     2
 10
348.76
 20
387.731138356
 30
0.0
 11
348.76
 21
335.431138356
 31
0.0
  0
TEXT
  8
0
  6
CONTINUOUS
 62
     3
 10
347.86
 20
330.831138356
 30
0.0
 40
8.0
  1
φ２０　Ｌ＝４
 50
90.0
 41
0.925
 51
0.0
  7
KANJI16
  0
LINE
  8
0
  6
CONTINUOUS
 62
     2
 10
407.798861644
 20
417.731138356
 30
0.0
 11
389.565904774
 21
417.731138356
 31
0.0
  0
LINE
  8
0
  6
CONTINUOUS
 62
     2
 10
391.565904774
 20
417.731138356
 30
0.0
 11
392.86
 21
422.560767487
 31
0.0
  0
LINE
  8
0
  6
CONTINUOUS
 62
     2
 10
391.565904774
 20
417.731138356
 30
0.0
 11
390.271809549
 21
422.560767487
 31
0.0
  0
LINE
  8
0
  6
CONTINUOUS
 62
     2
 10
391.565904774
 20
425.231138356
 30
0.0
 11
391.565904774
 21
417.731138356
 31
0.0
  0
LINE
  8
0
  6
CONTINUOUS
 62
     2
 10
391.565904774
 20
417.731138356
 30
0.0
 11
391.565904774
 21
377.731138356
 31
0.0
  0
LINE
  8
0
  6
CONTINUOUS
 62
     2
 10
391.565904774
 20
377.731138356
 30
0.0
 11
391.565904774
 21
348.031138356
 31
0.0
  0
LINE
  8
0
  6
CONTINUOUS
 62
     2
 10
391.565904774
 20
377.731138356
 30
0.0
 11
390.271809549
 21
372.901509224
 31
0.0
  0
LINE
  8
0
  6
CONTINUOUS
 62
     2
 10
391.565904774
 20
377.731138356
 30
0.0
 11
392.86
 21
372.901509224
 31
0.0
  0
LINE
  8
0
  6
CONTINUOUS
 62
     2
 10
407.798861644
 20
377.731138356
 30
0.0
 11
389.565904774
 21
377.731138356
 31
0.0
  0
TEXT
  8
0
  6
CONTINUOUS
 62
     3
 10
390.565904774
 20
348.031138356
 30
0.0
 40
8.0
  1
φ４０
 50
90.0
 41
0.925
 51
0.0
  7
KANJI16
  0
LINE
  8
0
  6
CONTINUOUS
 62
     2
 10
453.798861644
 20
301.56
 30
0.0
 11
408.798861644
 21
301.56
 31
0.0
  0
LINE
  8
0
  6
CONTINUOUS
 62
     2
 10
408.798861644
 20
301.56
 30
0.0
 11
413.628490776
 21
300.265904774
 31
0.0
  0
LINE
  8
0
  6
CONTINUOUS
 62
     2
 10
408.798861644
 20
301.56
 30
0.0
 11
413.628490776
 21
302.854095226
 31
0.0
  0
LINE
  8
0
  6
CONTINUOUS
 62
     2
 10
408.798861644
 20
376.731138356
 30
0.0
 11
408.798861644
 21
299.56
 31
0.0
  0
LINE
  8
0
  6
CONTINUOUS
 62
     2
 10
335.26
 20
385.731138356
 30
0.0
 11
335.26
 21
299.56
 31
0.0
  0
LINE
  8
0
  6
CONTINUOUS
 62
     2
 10
335.26
 20
301.56
 30
0.0
 11
330.430370869
 21
302.854095226
 31
0.0
  0
LINE
  8
0
  6
CONTINUOUS
 62
     2
 10
335.26
 20
301.56
 30
0.0
 11
330.430370869
 21
300.265904774
 31
0.0
  0
LINE
  8
0
  6
CONTINUOUS
 62
     2
 10
335.26
 20
301.56
 30
0.0
 11
315.26
 21
301.56
 31
0.0
  0
LINE
  8
0
  6
CONTINUOUS
 62
     2
 10
315.26
 20
301.56
 30
0.0
 11
320.089629131
 21
300.265904774
 31
0.0
  0
LINE
  8
0
  6
CONTINUOUS
 62
     2
 10
315.26
 20
301.56
 30
0.0
 11
320.089629131
 21
302.854095226
 31
0.0
  0
LINE
  8
0
  6
CONTINUOUS
 62
     2
 10
315.26
 20
390.231138356
 30
0.0
 11
315.26
 21
299.56
 31
0.0
  0
TEXT
  8
0
  6
CONTINUOUS
 62
     3
 10
317.86
 20
302.56
 30
0.0
 40
8.0
  1
２０
 50
0.0
 41
0.925
 51
0.0
  7
KANJI16
  0
LINE
  8
0
  6
CONTINUOUS
 62
     2
 10
605.26
 20
261.46
 30
0.0
 11
315.26
 21
261.46
 31
0.0
  0
LINE
  8
0
  6
CONTINUOUS
 62
     2
 10
315.26
 20
261.46
 30
0.0
 11
320.089629131
 21
260.165904774
 31
0.0
  0
LINE
  8
0
  6
CONTINUOUS
 62
     2
 10
315.26
 20
261.46
 30
0.0
 11
320.089629131
 21
262.754095226
 31
0.0
  0
LINE
  8
0
  6
CONTINUOUS
 62
     2
 10
315.26
 20
308.46
 30
0.0
 11
315.26
 21
259.46
 31
0.0
  0
LINE
  8
0
  6
CONTINUOUS
 62
     1
 10
441.298861644
 20
417.731138356
 30
0.0
 11
409.798861644
 21
417.731138356
 31
0.0
  0
LINE
  8
0
  6
CONTINUOUS
 62
     1
 10
441.298861644
 20
377.731138356
 30
0.0
 11
409.798861644
 21
377.731138356
 31
0.0
  0
LINE
  8
0
  6
CONTINUOUS
 62
     1
 10
453.798861644
 20
436.731138356
 30
0.0
 11
453.798861644
 21
358.731138356
 31
0.0
  0
LINE
  8
0
  6
CONTINUOUS
 62
     1
 10
441.298861644
 20
436.731138356
 30
0.0
 11
441.298861644
 21
358.731138356
 31
0.0
  0
LINE
  8
6
  6
LTYPE3
 62
     2
 10
455.798861644
 20
366.231138356
 30
0.0
 11
439.298861644
 21
366.231138356
 31
0.0
  0
LINE
  8
0
  6
LTYPE3
 62
     2
 10
419.248861644
 20
397.731138356
 30
0.0
 11
428.348861644
 21
397.731138356
 31
0.0
  0
LINE
  8
0
  6
LTYPE3
 62
     2
 10
423.798861644
 20
391.281138356
 30
0.0
 11
423.798861644
 21
404.731138356
 31
0.0
  0
LINE
  8
0
  6
CONTINUOUS
 62
     2
 10
422.048861644
 20
402.131138356
 30
0.0
 11
421.699044961
 21
407.118886173
 31
0.0
  0
LINE
  8
0
  6
CONTINUOUS
 62
     2
 10
422.048861644
 20
402.131138356
 30
0.0
 11
419.252037601
 21
406.275746331
 31
0.0
  0
LINE
  8
0
  6
CONTINUOUS
 62
     2
 10
422.048861644
 20
402.131138356
 30
0.0
 11
408.748861644
 21
440.731138356
 31
0.0
  0
LINE
  8
0
  6
CONTINUOUS
 62
     1
 10
520.26
 20
407.731138356
 30
0.0
 11
453.798861644
 21
407.731138356
 31
0.0
  0
LINE
  8
0
  6
CONTINUOUS
 62
     1
 10
520.26
 20
387.731138356
 30
0.0
 11
453.798861644
 21
387.731138356
 31
0.0
  0
LINE
  8
0
  6
CONTINUOUS
 62
     1
 10
442.298861644
 20
437.731138356
 30
0.0
 11
452.798861644
 21
437.731138356
 31
0.0
  0
LINE
  8
0
  6
CONTINUOUS
 62
     1
 10
441.298861644
 20
436.731138356
 30
0.0
 11
442.298861644
 21
437.731138356
 31
0.0
  0
LINE
  8
0
  6
CONTINUOUS
 62
     1
 10
452.798861644
 20
437.731138356
 30
0.0
 11
453.798861644
 21
436.731138356
 31
0.0
  0
LINE
  8
6
  6
LTYPE3
 62
     2
 10
455.798861644
 20
429.231138356
 30
0.0
 11
439.298861644
 21
429.231138356
 31
0.0
  0
LINE
  8
0
  6
CONTINUOUS
 62
     1
 10
442.298861644
 20
357.731138356
 30
0.0
 11
452.798861644
 21
357.731138356
 31
0.0
  0
LINE
  8
0
  6
CONTINUOUS
 62
     1
 10
453.798861644
 20
358.731138356
 30
0.0
 11
452.798861644
 21
357.731138356
 31
0.0
  0
LINE
  8
0
  6
CONTINUOUS
 62
     1
 10
441.298861644
 20
358.731138356
 30
0.0
 11
442.298861644
 21
357.731138356
 31
0.0
  0
LINE
  8
0
  6
CONTINUOUS
 62
     2
 10
441.298861644
 20
356.731138356
 30
0.0
 11
441.298861644
 21
319.36
 31
0.0
  0
LINE
  8
0
  6
CONTINUOUS
 62
     2
 10
441.298861644
 20
321.36
 30
0.0
 11
436.469232513
 21
322.654095226
 31
0.0
  0
LINE
  8
0
  6
CONTINUOUS
 62
     2
 10
441.298861644
 20
321.36
 30
0.0
 11
436.469232513
 21
320.065904774
 31
0.0
  0
LINE
  8
0
  6
CONTINUOUS
 62
     2
 10
433.798861644
 20
321.36
 30
0.0
 11
441.298861644
 21
321.36
 31
0.0
  0
LINE
  8
0
  6
CONTINUOUS
 62
     2
 10
441.298861644
 20
321.36
 30
0.0
 11
453.798861644
 21
321.36
 31
0.0
  0
LINE
  8
0
  6
CONTINUOUS
 62
     2
 10
453.798861644
 20
321.36
 30
0.0
 11
490.898861644
 21
321.36
 31
0.0
  0
LINE
  8
0
  6
CONTINUOUS
 62
     2
 10
453.798861644
 20
321.36
 30
0.0
 11
458.628490776
 21
320.065904774
 31
0.0
  0
LINE
  8
0
  6
CONTINUOUS
 62
     2
 10
453.798861644
 20
321.36
 30
0.0
 11
458.628490776
 21
322.654095226
 31
0.0
  0
LINE
  8
0
  6
CONTINUOUS
 62
     2
 10
453.798861644
 20
355.731138356
 30
0.0
 11
453.798861644
 21
319.36
 31
0.0
  0
TEXT
  8
0
  6
CONTINUOUS
 62
     3
 10
461.298861644
 20
322.36
 30
0.0
 40
8.0
  1
１２．５
 50
0.0
 41
0.925
 51
0.0
  7
KANJI16
  0
LINE
  8
0
  6
CONTINUOUS
 62
     2
 10
453.798861644
 20
326.66
 30
0.0
 11
453.798861644
 21
299.56
 31
0.0
  0
LINE
  8
0
  6
CONTINUOUS
 62
     2
 10
453.798861644
 20
301.56
 30
0.0
 11
448.969232513
 21
302.854095226
 31
0.0
  0
LINE
  8
0
  6
CONTINUOUS
 62
     2
 10
453.798861644
 20
301.56
 30
0.0
 11
448.969232513
 21
300.265904774
 31
0.0
  0
TEXT
  8
0
  6
CONTINUOUS
 62
     3
 10
423.898861644
 20
302.56
 30
0.0
 40
8.0
  1
４５
 50
0.0
 41
0.925
 51
0.0
  7
KANJI16
  0
TEXT
  8
0
  6
CONTINUOUS
 62
     3
 10
449.16
 20
262.46
 30
0.0
 40
8.0
  1
４９０
 50
0.0
 41
0.925
 51
0.0
  7
KANJI16
  0
LINE
  8
0
  6
CONTINUOUS
 62
     1
 10
532.26
 20
435.731138356
 30
0.0
 11
532.26
 21
359.731138356
 31
0.0
  0
LINE
  8
0
  6
CONTINUOUS
 62
     1
 10
525.26
 20
435.731138356
 30
0.0
 11
525.26
 21
359.731138356
 31
0.0
  0
LINE
  8
0
  6
CONTINUOUS
 62
     1
 10
522.26
 20
425.231138356
 30
0.0
 11
520.26
 21
425.231138356
 31
0.0
  0
ARC
  8
0
  6
CONTINUOUS
 62
     1
 10
522.26
 20
428.231138356
 30
0.0
 40
3.0
 50
270.0
 51
0.0
  0
ARC
  8
0
  6
CONTINUOUS
 62
     1
 10
522.26
 20
367.231138356
 30
0.0
 40
3.0
 50
0.0
 51
90.0
  0
LINE
  8
0
  6
CONTINUOUS
 62
     1
 10
522.26
 20
370.231138356
 30
0.0
 11
520.26
 21
370.231138356
 31
0.0
  0
LINE
  8
0
  6
CONTINUOUS
 62
     1
 10
520.26
 20
425.231138356
 30
0.0
 11
520.26
 21
370.231138356
 31
0.0
  0
ARC
  8
0
  6
CONTINUOUS
 62
     1
 10
534.26
 20
354.731138356
 30
0.0
 40
5.0
 50
0.0
 51
90.0
  0
LINE
  8
0
  6
CONTINUOUS
 62
     1
 10
534.26
 20
359.731138356
 30
0.0
 11
525.26
 21
359.731138356
 31
0.0
  0
ARC
  8
0
  6
CONTINUOUS
 62
     1
 10
544.26
 20
386.731138356
 30
0.0
 40
5.0
 50
90.0
 51
180.0
  0
LINE
  8
0
  6
CONTINUOUS
 62
     1
 10
586.26
 20
391.731138356
 30
0.0
 11
544.26
 21
391.731138356
 31
0.0
  0
LINE
  8
0
  6
CONTINUOUS
 62
     1
 10
560.76
 20
368.231138356
 30
0.0
 11
560.76
 21
363.231138356
 31
0.0
  0
LINE
  8
0
  6
CONTINUOUS
 62
     1
 10
560.76
 20
368.231138356
 30
0.0
 11
555.76
 21
368.231138356
 31
0.0
  0
LINE
  8
0
  6
CONTINUOUS
 62
     1
 10
555.76
 20
368.231138356
 30
0.0
 11
555.76
 21
363.231138356
 31
0.0
  0
LINE
  8
0
  6
CONTINUOUS
 62
     1
 10
560.76
 20
363.231138356
 30
0.0
 11
555.76
 21
363.231138356
 31
0.0
  0
ARC
  8
0
  6
CONTINUOUS
 62
     1
 10
565.26
 20
365.731138356
 30
0.0
 40
7.5
 50
199.471220634
 51
160.528779366
  0
ARC
  8
0
  6
CONTINUOUS
 62
     1
 10
596.26
 20
355.731138356
 30
0.0
 40
5.0
 50
90.0
 51
180.0
  0
LINE
  8
0
  6
CONTINUOUS
 62
     1
 10
605.26
 20
360.731138356
 30
0.0
 11
596.26
 21
360.731138356
 31
0.0
  0
CIRCLE
  8
0
  6
CONTINUOUS
 62
     1
 10
565.26
 20
365.731138356
 30
0.0
 40
20.0
  0
ARC
  8
0
  6
CONTINUOUS
 62
     1
 10
586.26
 20
386.731138356
 30
0.0
 40
5.0
 50
0.0
 51
90.0
  0
LINE
  8
0
  6
CONTINUOUS
 62
     1
 10
604.57668481
 20
383.731138356
 30
0.0
 11
595.94331519
 21
383.731138356
 31
0.0
  0
LINE
  8
0
  6
CONTINUOUS
 62
     1
 10
595.26
 20
435.731138356
 30
0.0
 11
595.26
 21
360.630117841
 31
0.0
  0
LINE
  8
0
  6
CONTINUOUS
 62
     1
 10
591.26
 20
386.731138356
 30
0.0
 11
591.26
 21
344.731138356
 31
0.0
  0
LINE
  8
0
  6
CONTINUOUS
 62
     1
 10
610.26
 20
424.231138356
 30
0.0
 11
610.26
 21
397.731138356
 31
0.0
  0
LINE
  8
0
  6
CONTINUOUS
 62
     1
 10
605.26
 20
435.731138356
 30
0.0
 11
605.26
 21
397.731138356
 31
0.0
  0
LINE
  8
0
  6
CONTINUOUS
 62
     1
 10
609.26
 20
425.231138356
 30
0.0
 11
610.26
 21
424.231138356
 31
0.0
  0
LINE
  8
0
  6
CONTINUOUS
 62
     1
 10
609.26
 20
425.231138356
 30
0.0
 11
605.26
 21
425.231138356
 31
0.0
  0
LINE
  8
0
  6
CONTINUOUS
 62
     1
 10
604.57668481
 20
411.731138356
 30
0.0
 11
595.94331519
 21
411.731138356
 31
0.0
  0
LINE
  8
0
  6
CONTINUOUS
 62
     1
 10
630.26
 20
419.231138356
 30
0.0
 11
610.26
 21
419.231138356
 31
0.0
  0
LINE
  8
0
  6
CONTINUOUS
 62
     1
 10
610.26
 20
397.731138356
 30
0.0
 11
610.26
 21
371.231138356
 31
0.0
  0
LINE
  8
0
  6
CONTINUOUS
 62
     1
 10
610.26
 20
371.231138356
 30
0.0
 11
609.26
 21
370.231138356
 31
0.0
  0
LINE
  8
0
  6
CONTINUOUS
 62
     1
 10
609.26
 20
370.231138356
 30
0.0
 11
605.26
 21
370.231138356
 31
0.0
  0
LINE
  8
0
  6
CONTINUOUS
 62
     1
 10
605.26
 20
397.731138356
 30
0.0
 11
605.26
 21
360.731138356
 31
0.0
  0
LINE
  8
0
  6
CONTINUOUS
 62
     1
 10
609.26
 20
425.231138356
 30
0.0
 11
609.26
 21
370.231138356
 31
0.0
  0
LINE
  8
0
  6
CONTINUOUS
 62
     1
 10
630.26
 20
419.231138356
 30
0.0
 11
630.26
 21
376.231138356
 31
0.0
  0
LINE
  8
0
  6
CONTINUOUS
 62
     1
 10
630.26
 20
376.231138356
 30
0.0
 11
610.26
 21
376.231138356
 31
0.0
  0
ARC
  8
0
  6
CONTINUOUS
 62
     1
 10
586.26
 20
344.731138356
 30
0.0
 40
5.0
 50
270.0
 51
0.0
  0
ARC
  8
0
  6
CONTINUOUS
 62
     1
 10
544.26
 20
344.731138356
 30
0.0
 40
5.0
 50
180.0
 51
270.0
  0
LINE
  8
0
  6
CONTINUOUS
 62
     1
 10
539.26
 20
386.731138356
 30
0.0
 11
539.26
 21
344.731138356
 31
0.0
  0
LINE
  8
0
  6
CONTINUOUS
 62
     1
 10
586.26
 20
339.731138356
 30
0.0
 11
544.26
 21
339.731138356
 31
0.0
  0
LINE
  8
6
  6
LTYPE3
 62
     2
 10
610.238614454
 20
365.731138356
 30
0.0
 11
528.194473164
 21
365.731138356
 31
0.0
  0
LINE
  8
6
  6
LTYPE3
 62
     2
 10
565.26
 20
438.145184816
 30
0.0
 11
565.26
 21
334.613750638
 31
0.0
  0
LINE
  8
0
  6
CONTINUOUS
 62
     1
 10
548.26
 20
434.731138356
 30
0.0
 11
548.26
 21
400.731138356
 31
0.0
  0
ARC
  8
0
  6
CONTINUOUS
 62
     1
 10
551.26
 20
400.731138356
 30
0.0
 40
3.0
 50
180.0
 51
270.0
  0
LINE
  8
0
  6
CONTINUOUS
 62
     2
 10
632.26
 20
419.231138356
 30
0.0
 11
651.553271915
 21
419.231138356
 31
0.0
  0
LINE
  8
0
  6
CONTINUOUS
 62
     2
 10
632.26
 20
376.231138356
 30
0.0
 11
651.553271915
 21
376.231138356
 31
0.0
  0
LINE
  8
0
  6
CONTINUOUS
 62
     2
 10
611.26
 20
425.231138356
 30
0.0
 11
671.46
 21
425.231138356
 31
0.0
  0
LINE
  8
0
  6
CONTINUOUS
 62
     2
 10
611.26
 20
370.231138356
 30
0.0
 11
671.46
 21
370.231138356
 31
0.0
  0
LINE
  8
0
  6
CONTINUOUS
 62
     2
 10
520.26
 20
368.231138356
 30
0.0
 11
520.26
 21
279.26
 31
0.0
  0
LINE
  8
0
  6
CONTINUOUS
 62
     2
 10
520.26
 20
281.26
 30
0.0
 11
525.089629131
 21
279.965904774
 31
0.0
  0
LINE
  8
0
  6
CONTINUOUS
 62
     2
 10
520.26
 20
281.26
 30
0.0
 11
525.089629131
 21
282.554095226
 31
0.0
  0
LINE
  8
0
  6
CONTINUOUS
 62
     2
 10
520.26
 20
281.26
 30
0.0
 11
605.26
 21
281.26
 31
0.0
  0
LINE
  8
0
  6
CONTINUOUS
 62
     2
 10
605.26
 20
281.26
 30
0.0
 11
600.430370869
 21
282.554095226
 31
0.0
  0
LINE
  8
0
  6
CONTINUOUS
 62
     2
 10
605.26
 20
281.26
 30
0.0
 11
600.430370869
 21
279.965904774
 31
0.0
  0
LINE
  8
0
  6
CONTINUOUS
 62
     2
 10
605.26
 20
358.731138356
 30
0.0
 11
605.26
 21
279.26
 31
0.0
  0
TEXT
  8
0
  6
CONTINUOUS
 62
     3
 10
555.36
 20
282.26
 30
0.0
 40
8.0
  1
８５
 50
0.0
 41
0.925
 51
0.0
  7
KANJI16
  0
LINE
  8
0
  6
CONTINUOUS
 62
     2
 10
520.26
 20
299.56
 30
0.0
 11
520.26
 21
303.56
 31
0.0
  0
LINE
  8
0
  6
CONTINUOUS
 62
     2
 10
520.26
 20
301.56
 30
0.0
 11
515.430370869
 21
302.854095226
 31
0.0
  0
LINE
  8
0
  6
CONTINUOUS
 62
     2
 10
520.26
 20
301.56
 30
0.0
 11
515.430370869
 21
300.265904774
 31
0.0
  0
LINE
  8
0
  6
CONTINUOUS
 62
     2
 10
505.36
 20
301.56
 30
0.0
 11
520.26
 21
301.56
 31
0.0
  0
LINE
  8
0
  6
CONTINUOUS
 62
     2
 10
520.26
 20
301.56
 30
0.0
 11
525.26
 21
301.56
 31
0.0
  0
LINE
  8
0
  6
CONTINUOUS
 62
     2
 10
525.26
 20
301.56
 30
0.0
 11
532.76
 21
301.56
 31
0.0
  0
LINE
  8
0
  6
CONTINUOUS
 62
     2
 10
525.26
 20
301.56
 30
0.0
 11
530.089629131
 21
300.265904774
 31
0.0
  0
LINE
  8
0
  6
CONTINUOUS
 62
     2
 10
525.26
 20
301.56
 30
0.0
 11
530.089629131
 21
302.854095226
 31
0.0
  0
LINE
  8
0
  6
CONTINUOUS
 62
     2
 10
525.26
 20
357.731138356
 30
0.0
 11
525.26
 21
299.56
 31
0.0
  0
TEXT
  8
0
  6
CONTINUOUS
 62
     3
 10
505.36
 20
302.56
 30
0.0
 40
8.0
  1
５
 50
0.0
 41
0.925
 51
0.0
  7
KANJI16
  0
LINE
  8
0
  6
CONTINUOUS
 62
     2
 10
525.26
 20
306.06
 30
0.0
 11
525.26
 21
299.56
 31
0.0
  0
LINE
  8
0
  6
CONTINUOUS
 62
     2
 10
525.26
 20
301.56
 30
0.0
 11
530.089629131
 21
300.265904774
 31
0.0
  0
LINE
  8
0
  6
CONTINUOUS
 62
     2
 10
525.26
 20
301.56
 30
0.0
 11
530.089629131
 21
302.854095226
 31
0.0
  0
LINE
  8
0
  6
CONTINUOUS
 62
     2
 10
525.26
 20
301.56
 30
0.0
 11
565.26
 21
301.56
 31
0.0
  0
LINE
  8
0
  6
CONTINUOUS
 62
     2
 10
565.26
 20
301.56
 30
0.0
 11
560.430370869
 21
302.854095226
 31
0.0
  0
LINE
  8
0
  6
CONTINUOUS
 62
     2
 10
565.26
 20
301.56
 30
0.0
 11
560.430370869
 21
300.265904774
 31
0.0
  0
LINE
  8
0
  6
CONTINUOUS
 62
     2
 10
565.26
 20
334.26
 30
0.0
 11
565.26
 21
299.56
 31
0.0
  0
TEXT
  8
0
  6
CONTINUOUS
 62
     3
 10
537.86
 20
302.56
 30
0.0
 40
8.0
  1
４０
 50
0.0
 41
0.925
 51
0.0
  7
KANJI16
  0
LINE
  8
0
  6
CONTINUOUS
 62
     2
 10
565.26
 20
305.26
 30
0.0
 11
565.26
 21
299.56
 31
0.0
  0
LINE
  8
0
  6
CONTINUOUS
 62
     2
 10
565.26
 20
301.56
 30
0.0
 11
570.089629131
 21
300.265904774
 31
0.0
  0
LINE
  8
0
  6
CONTINUOUS
 62
     2
 10
565.26
 20
301.56
 30
0.0
 11
570.089629131
 21
302.854095226
 31
0.0
  0
LINE
  8
0
  6
CONTINUOUS
 62
     2
 10
565.26
 20
301.56
 30
0.0
 11
605.26
 21
301.56
 31
0.0
  0
LINE
  8
0
  6
CONTINUOUS
 62
     2
 10
605.26
 20
301.56
 30
0.0
 11
600.430370869
 21
302.854095226
 31
0.0
  0
LINE
  8
0
  6
CONTINUOUS
 62
     2
 10
605.26
 20
301.56
 30
0.0
 11
600.430370869
 21
300.265904774
 31
0.0
  0
LINE
  8
0
  6
CONTINUOUS
 62
     2
 10
605.26
 20
306.06
 30
0.0
 11
605.26
 21
299.56
 31
0.0
  0
TEXT
  8
0
  6
CONTINUOUS
 62
     3
 10
577.86
 20
302.56
 30
0.0
 40
8.0
  1
４０
 50
0.0
 41
0.925
 51
0.0
  7
KANJI16
  0
LINE
  8
0
  6
CONTINUOUS
 62
     2
 10
605.26
 20
320.36
 30
0.0
 11
605.26
 21
319.36
 31
0.0
  0
LINE
  8
0
  6
CONTINUOUS
 62
     2
 10
605.26
 20
321.36
 30
0.0
 11
610.089629131
 21
320.065904774
 31
0.0
  0
LINE
  8
0
  6
CONTINUOUS
 62
     2
 10
605.26
 20
321.36
 30
0.0
 11
610.089629131
 21
322.654095226
 31
0.0
  0
LINE
  8
0
  6
CONTINUOUS
 62
     2
 10
612.76
 20
321.36
 30
0.0
 11
605.26
 21
321.36
 31
0.0
  0
LINE
  8
0
  6
CONTINUOUS
 62
     2
 10
605.26
 20
321.36
 30
0.0
 11
595.26
 21
321.36
 31
0.0
  0
LINE
  8
0
  6
CONTINUOUS
 62
     2
 10
595.26
 20
321.36
 30
0.0
 11
572.96
 21
321.36
 31
0.0
  0
LINE
  8
0
  6
CONTINUOUS
 62
     2
 10
595.26
 20
321.36
 30
0.0
 11
590.430370869
 21
322.654095226
 31
0.0
  0
LINE
  8
0
  6
CONTINUOUS
 62
     2
 10
595.26
 20
321.36
 30
0.0
 11
590.430370869
 21
320.065904774
 31
0.0
  0
LINE
  8
0
  6
CONTINUOUS
 62
     2
 10
595.26
 20
358.630117841
 30
0.0
 11
595.26
 21
319.36
 31
0.0
  0
TEXT
  8
0
  6
CONTINUOUS
 62
     3
 10
572.96
 20
322.36
 30
0.0
 40
8.0
  1
１０
 50
0.0
 41
0.925
 51
0.0
  7
KANJI16
  0
LINE
  8
0
  6
CONTINUOUS
 62
     2
 10
605.26
 20
340.031138356
 30
0.0
 11
605.26
 21
338.831138356
 31
0.0
  0
LINE
  8
0
  6
CONTINUOUS
 62
     2
 10
605.26
 20
340.831138356
 30
0.0
 11
600.430370869
 21
342.125233581
 31
0.0
  0
LINE
  8
0
  6
CONTINUOUS
 62
     2
 10
605.26
 20
340.831138356
 30
0.0
 11
600.430370869
 21
339.53704313
 31
0.0
  0
LINE
  8
0
  6
CONTINUOUS
 62
     2
 10
597.76
 20
340.831138356
 30
0.0
 11
605.26
 21
340.831138356
 31
0.0
  0
LINE
  8
0
  6
CONTINUOUS
 62
     2
 10
605.26
 20
340.831138356
 30
0.0
 11
610.26
 21
340.831138356
 31
0.0
  0
LINE
  8
0
  6
CONTINUOUS
 62
     2
 10
610.26
 20
340.831138356
 30
0.0
 11
625.16
 21
340.831138356
 31
0.0
  0
LINE
  8
0
  6
CONTINUOUS
 62
     2
 10
610.26
 20
340.831138356
 30
0.0
 11
615.089629131
 21
339.53704313
 31
0.0
  0
LINE
  8
0
  6
CONTINUOUS
 62
     2
 10
610.26
 20
340.831138356
 30
0.0
 11
615.089629131
 21
342.125233581
 31
0.0
  0
LINE
  8
0
  6
CONTINUOUS
 62
     2
 10
610.26
 20
369.231138356
 30
0.0
 11
610.26
 21
338.831138356
 31
0.0
  0
TEXT
  8
0
  6
CONTINUOUS
 62
     3
 10
617.76
 20
341.831138356
 30
0.0
 40
8.0
  1
５
 50
0.0
 41
0.925
 51
0.0
  7
KANJI16
  0
LINE
  8
0
  6
CONTINUOUS
 62
     2
 10
605.26
 20
286.26
 30
0.0
 11
605.26
 21
259.46
 31
0.0
  0
LINE
  8
0
  6
CONTINUOUS
 62
     2
 10
605.26
 20
261.46
 30
0.0
 11
610.089629131
 21
260.165904774
 31
0.0
  0
LINE
  8
0
  6
CONTINUOUS
 62
     2
 10
605.26
 20
261.46
 30
0.0
 11
610.089629131
 21
262.754095226
 31
0.0
  0
LINE
  8
0
  6
CONTINUOUS
 62
     2
 10
605.26
 20
261.46
 30
0.0
 11
630.26
 21
261.46
 31
0.0
  0
LINE
  8
0
  6
CONTINUOUS
 62
     2
 10
630.26
 20
261.46
 30
0.0
 11
625.430370869
 21
262.754095226
 31
0.0
  0
LINE
  8
0
  6
CONTINUOUS
 62
     2
 10
630.26
 20
261.46
 30
0.0
 11
625.430370869
 21
260.165904774
 31
0.0
  0
LINE
  8
0
  6
CONTINUOUS
 62
     2
 10
630.26
 20
374.231138356
 30
0.0
 11
630.26
 21
259.46
 31
0.0
  0
TEXT
  8
0
  6
CONTINUOUS
 62
     3
 10
610.36
 20
262.46
 30
0.0
 40
8.0
  1
２５
 50
0.0
 41
0.925
 51
0.0
  7
KANJI16
  0
LINE
  8
0
  6
CONTINUOUS
 62
     2
 10
605.26
 20
265.76
 30
0.0
 11
605.26
 21
259.46
 31
0.0
  0
LINE
  8
0
  6
CONTINUOUS
 62
     2
 10
605.26
 20
261.46
 30
0.0
 11
600.430370869
 21
262.754095226
 31
0.0
  0
LINE
  8
0
  6
CONTINUOUS
 62
     2
 10
605.26
 20
261.46
 30
0.0
 11
600.430370869
 21
260.165904774
 31
0.0
  0
LINE
  8
0
  6
CONTINUOUS
 62
     1
 10
605.26
 20
435.731138356
 30
0.0
 11
525.26
 21
435.731138356
 31
0.0
  0
LINE
  8
0
  6
CONTINUOUS
 62
     2
 10
649.553271915
 20
419.231138356
 30
0.0
 11
648.259176689
 21
414.401509224
 31
0.0
  0
LINE
  8
0
  6
CONTINUOUS
 62
     2
 10
649.553271915
 20
419.231138356
 30
0.0
 11
650.84736714
 21
414.401509224
 31
0.0
  0
LINE
  8
0
  6
CONTINUOUS
 62
     2
 10
649.553271915
 20
419.231138356
 30
0.0
 11
649.553271915
 21
376.231138356
 31
0.0
  0
LINE
  8
0
  6
CONTINUOUS
 62
     2
 10
649.553271915
 20
376.231138356
 30
0.0
 11
650.84736714
 21
381.060767487
 31
0.0
  0
LINE
  8
0
  6
CONTINUOUS
 62
     2
 10
649.553271915
 20
376.231138356
 30
0.0
 11
648.259176689
 21
381.060767487
 31
0.0
  0
TEXT
  8
0
  6
CONTINUOUS
 62
     3
 10
648.553271915
 20
386.631138356
 30
0.0
 40
8.0
  1
φ４３
 50
90.0
 41
0.925
 51
0.0
  7
KANJI16
  0
TEXT
  8
0
  6
CONTINUOUS
 62
     3
 10
668.46
 20
386.631138356
 30
0.0
 40
8.0
  1
φ５５
 50
90.0
 41
0.925
 51
0.0
  7
KANJI16
  0
LINE
  8
0
  6
CONTINUOUS
 62
     2
 10
669.46
 20
425.231138356
 30
0.0
 11
668.165904774
 21
420.401509224
 31
0.0
  0
LINE
  8
0
  6
CONTINUOUS
 62
     2
 10
669.46
 20
370.231138356
 30
0.0
 11
668.165904774
 21
375.060767487
 31
0.0
  0
LINE
  8
0
  6
CONTINUOUS
 62
     2
 10
669.46
 20
425.231138356
 30
0.0
 11
670.754095226
 21
420.401509224
 31
0.0
  0
LINE
  8
0
  6
CONTINUOUS
 62
     2
 10
669.46
 20
425.231138356
 30
0.0
 11
669.46
 21
370.231138356
 31
0.0
  0
LINE
  8
0
  6
CONTINUOUS
 62
     2
 10
669.46
 20
370.231138356
 30
0.0
 11
670.754095226
 21
375.060767487
 31
0.0
  0
TEXT
  8
10
  6
CONTINUOUS
 62
     4
 10
756.58
 20
443.58
 30
0.0
 40
6.4
  1
　３００
 50
0.0
 41
0.71875
 51
0.0
  7
KANJI12
  0
TEXT
  8
10
  6
CONTINUOUS
 62
     4
 10
750.58
 20
471.74
 30
0.0
 40
6.4
  1
ＡＪ１ＨＵＴ－３
 50
0.0
 41
0.71875
 51
0.0
  7
KANJI12
  0
TEXT
  8
10
  6
CONTINUOUS
 62
     4
 10
748.2
 20
317.92
 30
0.0
 40
6.4
  1
　　下記に記載
 50
0.0
 41
0.71875
 51
0.0
  7
KANJI17
  0
LINE
  8
0
  6
CONTINUOUS
 62
     2
 10
446.88
 20
416.24
 30
0.0
 11
448.703789581
 21
417.060848077
 31
0.0
  0
LINE
  8
0
  6
CONTINUOUS
 62
     2
 10
446.88
 20
416.24
 30
0.0
 11
447.991678073
 21
417.902579881
 31
0.0
  0
LINE
  8
0
  6
CONTINUOUS
 62
     2
 10
446.88
 20
416.24
 30
0.0
 11
499.48
 21
460.74
 31
0.0
  0
LINE
  8
0
  6
CONTINUOUS
 62
     2
 10
499.48
 20
460.74
 30
0.0
 11
548.08
 21
460.74
 31
0.0
  0
TEXT
  8
0
  6
CONTINUOUS
 62
     3
 10
499.48
 20
461.74
 30
0.0
 40
6.0
  1
ナット部は塗装無し
 50
0.0
 41
0.9
 51
0.0
  7
KANJI18
  0
TEXT
  8
10
  6
CONTINUOUS
 62
     3
 10
658.0
 20
48.08
 30
4.0
 40
10.0
  1
Ａ３００２５１２
 50
0.0
 41
0.8
 51
0.0
  7
KANJI19
  0
TEXT
  8
0
  6
CONTINUOUS
 62
     3
 10
137.0
 20
12.0
 30
0.0
 40
6.0
  1
ＦＤ　Ｎｏ．ＡＪ１７
 50
0.0
 41
0.916666667
 51
0.0
  7
KANJI20
  0
TEXT
  8
10
  6
CONTINUOUS
 62
     4
 10
755.18
 20
275.44
 30
0.0
 40
6.4
  1
　２　台
 50
0.0
 41
0.71875
 51
0.0
  7
KANJI12
  0
TEXT
  8
10
  6
CONTINUOUS
 62
     2
 10
566.033333333
 20
41.356666667
 30
0.0
 40
5.0
  1
０７．０１．１２
 50
0.0
 41
1.0
 51
0.0
  7
KANJI21
  0
TEXT
  8
10
  6
CONTINUOUS
 62
     4
 10
751.32
 20
401.14
 30
0.0
 40
6.4
  1
　１６／３（５．３３）
 50
0.0
 41
0.71875
 51
0.0
  7
KANJI12
  0
TEXT
  8
10
  6
CONTINUOUS
 62
     4
 10
409.02
 20
25.44
 30
0.0
 40
10.0
  1
△
 50
0.0
 41
1.0
 51
0.0
  7
KANJI14
  0
TEXT
  8
0
  6
CONTINUOUS
 62
     3
 10
411.84
 20
39.04
 30
0.0
 40
3.82
  1
１
 50
0.0
 41
1.0
 51
0.0
  7
KANJI22
  0
TEXT
  8
0
  6
CONTINUOUS
 62
     3
 10
419.7
 20
38.82
 30
0.0
 40
6.0
  1
２００７．０１．１２　竹下　グリスニップル部メクラフタに変更。
 50
0.0
 41
0.733333333
 51
0.0
  7
KANJI23
  0
TEXT
  8
10
  6
CONTINUOUS
 62
     4
 10
408.88
 20
45.8
 30
0.0
 40
10.0
  1
△
 50
0.0
 41
1.0
 51
0.0
  7
KANJI14
  0
POLYLINE
  8
0
  6
CONTINUOUS
 62
     2
 66
     1
 70
     1
  0
VERTEX
  8
0
  6
CONTINUOUS
 62
     2
 10
347.2
 20
145.25
 30
0.0
  0
VERTEX
  8
0
  6
CONTINUOUS
 62
     2
 10
612.61
 20
145.25
 30
0.0
  0
VERTEX
  8
0
  6
CONTINUOUS
 62
     2
 10
612.61
 20
193.93
 30
0.0
  0
VERTEX
  8
0
  6
CONTINUOUS
 62
     2
 10
347.2
 20
193.93
 30
0.0
  0
SEQEND
  0
TEXT
  8
10
  6
CONTINUOUS
 62
     4
 10
357.36
 20
164.508861644
 30
0.0
 40
6.4
  1
ＭＨＩ図面Ｎｏ．　４Ｋ１５１１０２Ａ　品別Ａ　はＡ３００２５７５を使用の事。
 50
0.0
 41
1.0
 51
0.0
  7
KANJI10
  0
LINE
  8
0
  6
CONTINUOUS
 62
     2
 10
515.85
 20
177.31
 30
0.0
 11
427.95
 21
177.31
 31
0.0
  0
LINE
  8
0
  6
CONTINUOUS
 62
     2
 10
428.52
 20
179.03
 30
0.0
 11
515.85
 21
179.03
 31
0.0
  0
LINE
  8
0
  6
CONTINUOUS
 62
     2
 10
497.44
 20
162.07
 30
0.0
 11
413.28
 21
162.07
 31
0.0
  0
LINE
  8
0
  6
CONTINUOUS
 62
     2
 10
413.56
 20
163.51
 30
0.0
 11
497.44
 21
163.51
 31
0.0
  0
TEXT
  8
10
  6
CONTINUOUS
 62
     4
 10
357.85
 20
180.478861644
 30
0.0
 40
6.4
  1
本図はＭＨＩ図面Ｎｏ．４Ｋ１５１１０２Ａ　品別基本　のもの
 50
0.0
 41
1.0
 51
0.0
  7
KANJI10
  0
TEXT
  8
0
  6
CONTINUOUS
 62
     3
 10
771.26
 20
56.44
 30
0.0
 40
5.08
  1
２
 50
0.0
 41
1.0
 51
0.0
  7
KANJI24
  0
TEXT
  8
10
  6
CONTINUOUS
 62
     4
 10
452.47
 20
153.098861644
 30
0.0
 40
6.4
  1
（ボールナット※印部のみ異なるもの。）
 50
0.0
 41
1.0
 51
0.0
  7
KANJI10
  0
TEXT
  8
10
  6
CONTINUOUS
 62
     2
 10
577.68
 20
82.273333333
 30
0.0
 40
6.4
  1
田口
 50
0.0
 41
1.0
 51
0.0
  7
KANJI0
  0
TEXT
  8
10
  6
CONTINUOUS
 62
     4
 10
409.0
 20
36.9
 30
0.0
 40
10.0
  1
△
 50
0.0
 41
1.0
 51
0.0
  7
KANJI14
  0
TEXT
  8
0
  6
CONTINUOUS
 62
     3
 10
411.72
 20
47.94
 30
0.0
 40
3.82
  1
２
 50
0.0
 41
1.0
 51
0.0
  7
KANJI22
  0
TEXT
  8
0
  6
CONTINUOUS
 62
     3
 10
349.06
 20
199.66
 30
0.0
 40
3.02
  1
２
 50
0.0
 41
1.0
 51
0.0
  7
KANJI25
  0
LINE
  8
0
  6
CONTINUOUS
 62
     2
 10
346.163248654
 20
196.21
 30
0.0
 11
349.05
 21
201.21
 31
0.0
  0
LINE
  8
0
  6
CONTINUOUS
 62
     2
 10
349.05
 20
201.21
 30
0.0
 11
351.936751346
 21
196.21
 31
0.0
  0
LINE
  8
0
  6
CONTINUOUS
 62
     2
 10
351.936751346
 20
196.21
 30
0.0
 11
346.163248654
 21
196.21
 31
0.0
  0
LINE
  8
0
  6
CONTINUOUS
 62
     1
 10
419.468734626
 20
400.231138356
 30
0.0
 11
423.798861644
 21
402.731138356
 31
0.0
  0
LINE
  8
0
  6
CONTINUOUS
 62
     1
 10
423.798861644
 20
402.731138356
 30
0.0
 11
428.128988663
 21
400.231138356
 31
0.0
  0
CIRCLE
  8
0
  6
CONTINUOUS
 62
     1
 10
423.798861644
 20
397.731138356
 30
0.0
 40
3.0
  0
CIRCLE
  8
0
  6
CONTINUOUS
 62
     1
 10
423.798861644
 20
397.731138356
 30
0.0
 40
1.0
  0
LINE
  8
0
  6
CONTINUOUS
 62
     1
 10
428.128988663
 20
395.231138356
 30
0.0
 11
423.798861644
 21
392.731138356
 31
0.0
  0
LINE
  8
0
  6
CONTINUOUS
 62
     1
 10
423.798861644
 20
392.731138356
 30
0.0
 11
419.468734626
 21
395.231138356
 31
0.0
  0
LINE
  8
0
  6
CONTINUOUS
 62
     1
 10
419.468734626
 20
395.231138356
 30
0.0
 11
419.468734626
 21
400.231138356
 31
0.0
  0
LINE
  8
0
  6
CONTINUOUS
 62
     1
 10
428.128988663
 20
400.231138356
 30
0.0
 11
428.128988663
 21
395.231138356
 31
0.0
  0
LINE
  8
0
  6
LTYPE3
 62
     2
 10
416.798861644
 20
397.731138356
 30
0.0
 11
430.798861644
 21
397.731138356
 31
0.0
  0
LINE
  8
0
  6
LTYPE3
 62
     2
 10
423.798861644
 20
390.731138356
 30
0.0
 11
423.798861644
 21
404.731138356
 31
0.0
  0
LINE
  8
0
  6
LTYPE3
 62
     2
 10
223.5
 20
152.5
 30
0.0
 11
137.5
 21
152.5
 31
0.0
  0
LINE
  8
0
  6
LTYPE3
 62
     2
 10
180.5
 20
196.0
 30
0.0
 11
180.5
 21
109.0
 31
0.0
  0
CIRCLE
  8
0
  6
CONTINUOUS
 62
     1
 10
180.5
 20
152.5
 30
0.0
 40
40.0
  0
CIRCLE
  8
0
  6
CONTINUOUS
 62
     1
 10
180.5
 20
152.5
 30
0.0
 40
20.0
  0
CIRCLE
  8
0
  6
CONTINUOUS
 62
     1
 10
180.5
 20
152.5
 30
0.0
 40
10.0
  0
CIRCLE
  8
0
  6
CONTINUOUS
 62
     2
 10
180.5
 20
152.5
 30
0.0
 40
9.0
  0
CIRCLE
  8
0
  6
CONTINUOUS
 62
     1
 10
158.226136393
 20
174.773863607
 30
0.0
 40
4.5
  0
LINE
  8
0
  6
CONTINUOUS
 62
     2
 10
162.726136393
 20
170.273863607
 30
0.0
 11
153.009234716
 21
179.990765284
 31
0.0
  0
CIRCLE
  8
0
  6
CONTINUOUS
 62
     1
 10
158.226136393
 20
130.226136393
 30
0.0
 40
4.5
  0
LINE
  8
0
  6
CONTINUOUS
 62
     2
 10
162.726136393
 20
134.726136393
 30
0.0
 11
153.009234716
 21
125.009234716
 31
0.0
  0
LINE
  8
0
  6
CONTINUOUS
 62
     2
 10
144.72291236
 20
170.38854382
 30
0.0
 11
242.5
 21
121.5
 31
0.0
  0
LINE
  8
0
  6
CONTINUOUS
 62
     2
 10
150.680527959
 20
142.348690369
 30
0.0
 11
279.177736202
 21
186.092420835
 31
0.0
  0
CIRCLE
  8
0
  6
CONTINUOUS
 62
     1
 10
202.773863607
 20
174.773863607
 30
0.0
 40
4.5
  0
LINE
  8
0
  6
CONTINUOUS
 62
     2
 10
198.273863607
 20
170.273863607
 30
0.0
 11
207.990765284
 21
179.990765284
 31
0.0
  0
LINE
  8
0
  6
CONTINUOUS
 62
     2
 10
144.72291236
 20
170.38854382
 30
0.0
 11
140.981897721
 21
173.705893586
 31
0.0
  0
LINE
  8
0
  6
CONTINUOUS
 62
     2
 10
144.72291236
 20
170.38854382
 30
0.0
 11
139.824423764
 21
171.390945671
 31
0.0
  0
LINE
  8
0
  6
CONTINUOUS
 62
     2
 10
138.014708428
 20
173.742645786
 30
0.0
 11
144.72291236
 21
170.38854382
 31
0.0
  0
TEXT
  8
0
  6
CONTINUOUS
 62
     3
 10
222.677736202
 20
167.446649906
 30
0.0
 40
8.0
  1
Ｐ．Ｃ．Ｄ．６３
 50
18.799885159
 41
0.925
 51
0.0
  7
KANJI16
  0
LINE
  8
0
  6
CONTINUOUS
 62
     2
 10
158.226136393
 20
179.273863607
 30
0.0
 11
157.146116802
 21
184.15582609
 31
0.0
  0
LINE
  8
0
  6
CONTINUOUS
 62
     2
 10
158.226136393
 20
179.273863607
 30
0.0
 11
154.849830749
 21
182.961757343
 31
0.0
  0
LINE
  8
0
  6
CONTINUOUS
 62
     2
 10
158.226136393
 20
179.273863607
 30
0.0
 11
151.726136393
 21
191.773863607
 31
0.0
  0
LINE
  8
0
  6
CONTINUOUS
 62
     2
 10
151.726136393
 20
191.773863607
 30
0.0
 11
130.126136393
 21
191.773863607
 31
0.0
  0
TEXT
  8
0
  6
CONTINUOUS
 62
     3
 10
130.126136393
 20
192.773863607
 30
0.0
 40
6.0
  1
４－φ９
 50
0.0
 41
0.9
 51
0.0
  7
KANJI18
  0
CIRCLE
  8
0
  6
CONTINUOUS
 62
     1
 10
202.773863607
 20
130.226136393
 30
0.0
 40
4.5
  0
LINE
  8
0
  6
CONTINUOUS
 62
     2
 10
198.273863607
 20
134.726136393
 30
0.0
 11
207.990765284
 21
125.009234716
 31
0.0
  0
LINE
  8
0
  6
CONTINUOUS
 62
     2
 10
216.27708764
 20
134.61145618
 30
0.0
 11
220.018102279
 21
131.294106414
 31
0.0
  0
LINE
  8
0
  6
CONTINUOUS
 62
     2
 10
216.27708764
 20
134.61145618
 30
0.0
 11
221.175576236
 21
133.609054329
 31
0.0
  0
LINE
  8
0
  6
CONTINUOUS
 62
     2
 10
150.680527959
 20
142.348690369
 30
0.0
 11
145.691519954
 21
142.017330867
 31
0.0
  0
LINE
  8
0
  6
CONTINUOUS
 62
     2
 10
150.680527959
 20
142.348690369
 30
0.0
 11
146.525600038
 21
139.56722062
 31
0.0
  0
LINE
  8
0
  6
CONTINUOUS
 62
     2
 10
143.580653664
 20
139.931711886
 30
0.0
 11
150.680527959
 21
142.348690369
 31
0.0
  0
TEXT
  8
0
  6
CONTINUOUS
 62
     3
 10
220.947213596
 20
133.394427191
 30
0.0
 40
8.0
  1
φ８０
 50
333.434948823
 41
0.925
 51
0.0
  7
KANJI16
  0
TEXT
  8
0
  6
CONTINUOUS
 62
     3
 10
224.808861644
 20
142.841138356
 30
0.0
 40
6.0
  1
※
 50
330.0
 41
0.9
 51
0.0
  7
KANJI18
  0
TEXT
  8
0
  6
CONTINUOUS
 62
     3
 10
218.128861644
 20
179.191138356
 30
0.0
 40
6.0
  1
※
 50
20.0
 41
0.9
 51
0.0
  7
KANJI18
  0
LINE
  8
0
  6
CONTINUOUS
 62
     2
 10
520.26
 20
405.981138356
 30
0.0
 11
453.798861644
 21
405.981138356
 31
0.0
  0
LINE
  8
0
  6
CONTINUOUS
 62
     2
 10
520.26
 20
389.481138356
 30
0.0
 11
453.798861644
 21
389.481138356
 31
0.0
  0
LINE
  8
0
  6
CONTINUOUS
 62
     2
 10
408.798861644
 20
405.981138356
 30
0.0
 11
335.26
 21
405.981138356
 31
0.0
  0
LINE
  8
0
  6
CONTINUOUS
 62
     2
 10
408.798861644
 20
389.481138356
 30
0.0
 11
335.26
 21
389.481138356
 31
0.0
  0
LINE
  8
6
  6
LTYPE3
 62
     2
 10
164.18
 20
398.46
 30
0.0
 11
88.995794236
 21
398.46
 31
0.0
  0
LINE
  8
6
  6
LTYPE3
 62
     2
 10
104.18
 20
412.046453287
 30
0.0
 11
104.18
 21
384.373546713
 31
0.0
  0
LINE
  8
6
  6
LTYPE3
 62
     2
 10
164.18
 20
366.46
 30
0.0
 11
76.170675818
 21
366.46
 31
0.0
  0
LINE
  8
6
  6
LTYPE3
 62
     2
 10
164.18
 20
444.481230557
 30
0.0
 11
164.18
 21
335.719756462
 31
0.0
  0
LINE
  8
6
  6
LTYPE3
 62
     2
 10
164.18
 20
366.46
 30
0.0
 11
256.276325751
 21
366.46
 31
0.0
  0
LINE
  8
6
  6
LTYPE3
 62
     2
 10
224.18
 20
412.546453287
 30
0.0
 11
224.18
 21
384.373546713
 31
0.0
  0
LINE
  8
6
  6
LTYPE3
 62
     2
 10
164.18
 20
398.46
 30
0.0
 11
239.364205764
 21
398.46
 31
0.0
  0
ARC
  8
6
  6
LTYPE3
 62
     2
 10
164.18
 20
398.46
 30
0.0
 40
37.0
 50
108.724228401
 51
146.302794612
  0
LINE
  8
6
  6
LTYPE3
 62
     2
 10
141.947648047
 20
420.692351953
 30
0.0
 11
134.112512298
 21
428.527487702
 31
0.0
  0
LINE
  8
6
  6
LTYPE3
 62
     2
 10
141.947648047
 20
376.227648047
 30
0.0
 11
134.112512298
 21
368.392512298
 31
0.0
  0
ARC
  8
6
  6
LTYPE3
 62
     2
 10
164.18
 20
398.46
 30
0.0
 40
37.0
 50
214.209574215
 51
236.302794612
  0
LINE
  8
0
  6
CONTINUOUS
 62
     1
 10
79.18
 20
373.96
 30
0.0
 11
79.18
 21
358.96
 31
0.0
  0
LINE
  8
0
  6
CONTINUOUS
 62
     1
 10
106.68
 20
368.96
 30
0.0
 11
79.18
 21
368.96
 31
0.0
  0
LINE
  8
0
  6
CONTINUOUS
 62
     1
 10
106.68
 20
363.96
 30
0.0
 11
79.18
 21
363.96
 31
0.0
  0
ARC
  8
0
  6
CONTINUOUS
 62
     1
 10
106.68
 20
366.46
 30
0.0
 40
2.5
 50
270.0
 51
90.0
  0
LINE
  8
0
  6
CONTINUOUS
 62
     1
 10
114.18
 20
357.96
 30
0.0
 11
112.68
 21
357.96
 31
0.0
  0
LINE
  8
0
  6
CONTINUOUS
 62
     1
 10
112.18
 20
358.46
 30
0.0
 11
112.68
 21
357.96
 31
0.0
  0
LINE
  8
0
  6
CONTINUOUS
 62
     1
 10
112.18
 20
358.96
 30
0.0
 11
79.18
 21
358.96
 31
0.0
  0
LINE
  8
0
  6
CONTINUOUS
 62
     1
 10
114.18
 20
374.96
 30
0.0
 11
112.68
 21
374.96
 31
0.0
  0
LINE
  8
0
  6
CONTINUOUS
 62
     1
 10
112.18
 20
374.46
 30
0.0
 11
112.68
 21
374.96
 31
0.0
  0
LINE
  8
0
  6
CONTINUOUS
 62
     1
 10
112.18
 20
373.96
 30
0.0
 11
79.18
 21
373.96
 31
0.0
  0
LINE
  8
0
  6
CONTINUOUS
 62
     1
 10
112.68
 20
374.96
 30
0.0
 11
112.68
 21
357.96
 31
0.0
  0
LINE
  8
0
  6
CONTINUOUS
 62
     1
 10
112.18
 20
374.46
 30
0.0
 11
112.18
 21
358.46
 31
0.0
  0
LINE
  8
0
  6
CONTINUOUS
 62
     1
 10
164.18
 20
340.46
 30
0.0
 11
117.18
 21
340.46
 31
0.0
  0
ARC
  8
0
  6
CONTINUOUS
 62
     1
 10
117.18
 20
343.46
 30
0.0
 40
3.0
 50
180.0
 51
270.0
  0
LINE
  8
0
  6
CONTINUOUS
 62
     1
 10
164.18
 20
340.46
 30
0.0
 11
211.18
 21
340.46
 31
0.0
  0
ARC
  8
0
  6
CONTINUOUS
 62
     1
 10
211.18
 20
343.46
 30
0.0
 40
3.0
 50
270.0
 51
0.0
  0
LINE
  8
0
  6
CONTINUOUS
 62
     1
 10
216.18
 20
358.96
 30
0.0
 11
249.18
 21
358.96
 31
0.0
  0
ARC
  8
0
  6
CONTINUOUS
 62
     1
 10
221.68
 20
366.46
 30
0.0
 40
2.5
 50
90.0
 51
270.0
  0
LINE
  8
0
  6
CONTINUOUS
 62
     1
 10
221.68
 20
363.96
 30
0.0
 11
249.18
 21
363.96
 31
0.0
  0
LINE
  8
0
  6
CONTINUOUS
 62
     1
 10
214.18
 20
357.96
 30
0.0
 11
215.68
 21
357.96
 31
0.0
  0
LINE
  8
0
  6
CONTINUOUS
 62
     1
 10
216.18
 20
358.46
 30
0.0
 11
215.68
 21
357.96
 31
0.0
  0
LINE
  8
0
  6
CONTINUOUS
 62
     1
 10
221.68
 20
368.96
 30
0.0
 11
249.18
 21
368.96
 31
0.0
  0
LINE
  8
0
  6
CONTINUOUS
 62
     1
 10
227.585242843
 20
382.071583021
 30
0.0
 11
214.18
 21
377.216618866
 31
0.0
  0
LINE
  8
0
  6
CONTINUOUS
 62
     1
 10
214.18
 20
374.96
 30
0.0
 11
215.68
 21
374.96
 31
0.0
  0
LINE
  8
0
  6
CONTINUOUS
 62
     1
 10
216.18
 20
374.46
 30
0.0
 11
215.68
 21
374.96
 31
0.0
  0
LINE
  8
0
  6
CONTINUOUS
 62
     1
 10
216.18
 20
374.46
 30
0.0
 11
216.18
 21
358.46
 31
0.0
  0
LINE
  8
0
  6
CONTINUOUS
 62
     1
 10
215.68
 20
374.96
 30
0.0
 11
215.68
 21
357.96
 31
0.0
  0
LINE
  8
0
  6
CONTINUOUS
 62
     1
 10
214.18
 20
389.46
 30
0.0
 11
214.18
 21
343.46
 31
0.0
  0
LINE
  8
0
  6
CONTINUOUS
 62
     1
 10
216.18
 20
373.96
 30
0.0
 11
249.18
 21
373.96
 31
0.0
  0
ARC
  8
0
  6
CONTINUOUS
 62
     1
 10
224.18
 20
391.473940235
 30
0.0
 40
10.0
 50
289.908819512
 51
0.0
  0
CIRCLE
  8
0
  6
CONTINUOUS
 62
     1
 10
224.18
 20
398.46
 30
0.0
 40
5.5
  0
ARC
  8
0
  6
CONTINUOUS
 62
     1
 10
224.18
 20
405.446059765
 30
0.0
 40
10.0
 50
0.0
 51
70.091180488
  0
LINE
  8
0
  6
CONTINUOUS
 62
     1
 10
234.18
 20
405.446059765
 30
0.0
 11
234.18
 21
391.473940235
 31
0.0
  0
CIRCLE
  8
0
  6
CONTINUOUS
 62
     1
 10
224.18
 20
398.46
 30
0.0
 40
10.0
  0
LINE
  8
0
  6
CONTINUOUS
 62
     1
 10
227.585242843
 20
414.848416979
 30
0.0
 11
196.965055294
 21
425.938101419
 31
0.0
  0
LINE
  8
0
  6
CONTINUOUS
 62
     1
 10
211.18
 20
392.46
 30
0.0
 11
206.173670633
 21
392.46
 31
0.0
  0
ARC
  8
0
  6
CONTINUOUS
 62
     1
 10
211.18
 20
389.46
 30
0.0
 40
3.0
 50
0.0
 51
90.0
  0
ARC
  8
0
  6
CONTINUOUS
 62
     1
 10
201.18
 20
398.46
 30
0.0
 40
75.0
 50
155.416340721
 51
204.583659279
  0
ARC
  8
0
  6
CONTINUOUS
 62
     1
 10
122.186329367
 20
397.46
 30
0.0
 40
5.0
 50
270.0
 51
324.957479489
  0
LINE
  8
0
  6
CONTINUOUS
 62
     1
 10
117.18
 20
392.46
 30
0.0
 11
122.186329367
 21
392.46
 31
0.0
  0
CIRCLE
  8
0
  6
CONTINUOUS
 62
     1
 10
104.18
 20
398.46
 30
0.0
 40
5.5
  0
ARC
  8
0
  6
CONTINUOUS
 62
     1
 10
117.18
 20
389.46
 30
0.0
 40
3.0
 50
90.0
 51
180.0
  0
LINE
  8
0
  6
CONTINUOUS
 62
     1
 10
114.18
 20
389.46
 30
0.0
 11
114.18
 21
343.46
 31
0.0
  0
LINE
  8
0
  6
CONTINUOUS
 62
     1
 10
94.18
 20
405.446059765
 30
0.0
 11
94.18
 21
391.473940235
 31
0.0
  0
ARC
  8
0
  6
CONTINUOUS
 62
     1
 10
104.18
 20
391.473940235
 30
0.0
 40
10.0
 50
180.0
 51
250.091180488
  0
LINE
  8
0
  6
CONTINUOUS
 62
     1
 10
100.774757157
 20
382.071583021
 30
0.0
 11
114.18
 21
377.216618866
 31
0.0
  0
CIRCLE
  8
0
  6
CONTINUOUS
 62
     1
 10
104.18
 20
398.46
 30
0.0
 40
10.0
  0
ARC
  8
0
  6
CONTINUOUS
 62
     1
 10
104.18
 20
405.446059765
 30
0.0
 40
10.0
 50
109.908819512
 51
180.0
  0
LINE
  8
0
  6
CONTINUOUS
 62
     1
 10
100.774757157
 20
414.848416979
 30
0.0
 11
131.394944706
 21
425.938101419
 31
0.0
  0
ARC
  8
0
  6
CONTINUOUS
 62
     1
 10
164.18
 20
398.46
 30
0.0
 40
31.0
 50
90.0
 51
270.0
  0
CIRCLE
  8
0
  6
CONTINUOUS
 62
     1
 10
138.017049096
 20
424.622950904
 30
0.0
 40
3.0
  0
CIRCLE
  8
0
  6
CONTINUOUS
 62
     1
 10
138.017049096
 20
372.297049096
 30
0.0
 40
3.0
  0
CIRCLE
  8
1
  6
CONTINUOUS
 62
     2
 10
138.017049096
 20
372.297049096
 30
0.0
 40
4.0
  0
CIRCLE
  8
1
  6
CONTINUOUS
 62
     2
 10
138.017049096
 20
424.622950904
 30
0.0
 40
4.0
  0
LINE
  8
0
  6
CONTINUOUS
 62
     2
 10
104.18
 20
413.481230557
 30
0.0
 11
104.18
 21
453.281230557
 31
0.0
  0
LINE
  8
0
  6
CONTINUOUS
 62
     2
 10
104.18
 20
451.281230557
 30
0.0
 11
109.009629131
 21
449.987135331
 31
0.0
  0
LINE
  8
0
  6
CONTINUOUS
 62
     2
 10
104.18
 20
451.281230557
 30
0.0
 11
109.009629131
 21
452.575325782
 31
0.0
  0
LINE
  8
0
  6
CONTINUOUS
 62
     2
 10
104.18
 20
451.281230557
 30
0.0
 11
224.18
 21
451.281230557
 31
0.0
  0
LINE
  8
0
  6
CONTINUOUS
 62
     2
 10
224.18
 20
451.281230557
 30
0.0
 11
219.350370869
 21
452.575325782
 31
0.0
  0
LINE
  8
0
  6
CONTINUOUS
 62
     2
 10
224.18
 20
451.281230557
 30
0.0
 11
219.350370869
 21
449.987135331
 31
0.0
  0
LINE
  8
0
  6
CONTINUOUS
 62
     2
 10
224.18
 20
413.681230557
 30
0.0
 11
224.18
 21
453.281230557
 31
0.0
  0
TEXT
  8
0
  6
CONTINUOUS
 62
     3
 10
153.08
 20
452.281230557
 30
0.0
 40
8.0
  1
１２０
 50
0.0
 41
0.925
 51
0.0
  7
KANJI16
  0
LINE
  8
0
  6
CONTINUOUS
 62
     2
 10
94.18
 20
407.446065159
 30
0.0
 11
94.18
 21
473.081230557
 31
0.0
  0
LINE
  8
0
  6
CONTINUOUS
 62
     2
 10
94.18
 20
471.081230557
 30
0.0
 11
99.009629131
 21
469.787135331
 31
0.0
  0
LINE
  8
0
  6
CONTINUOUS
 62
     2
 10
94.18
 20
471.081230557
 30
0.0
 11
99.009629131
 21
472.375325782
 31
0.0
  0
LINE
  8
0
  6
CONTINUOUS
 62
     2
 10
94.18
 20
471.081230557
 30
0.0
 11
234.18
 21
471.081230557
 31
0.0
  0
LINE
  8
0
  6
CONTINUOUS
 62
     2
 10
234.18
 20
471.081230557
 30
0.0
 11
229.350370869
 21
472.375325782
 31
0.0
  0
LINE
  8
0
  6
CONTINUOUS
 62
     2
 10
234.18
 20
471.081230557
 30
0.0
 11
229.350370869
 21
469.787135331
 31
0.0
  0
LINE
  8
0
  6
CONTINUOUS
 62
     2
 10
234.18
 20
407.446067394
 30
0.0
 11
234.18
 21
473.081230557
 31
0.0
  0
TEXT
  8
0
  6
CONTINUOUS
 62
     3
 10
153.08
 20
472.081230557
 30
0.0
 40
8.0
  1
１４０
 50
0.0
 41
0.925
 51
0.0
  7
KANJI16
  0
LINE
  8
0
  6
CONTINUOUS
 62
     2
 10
219.18
 20
364.46
 30
0.0
 11
219.18
 21
319.36
 31
0.0
  0
LINE
  8
0
  6
CONTINUOUS
 62
     2
 10
216.18
 20
356.96
 30
0.0
 11
216.18
 21
299.56
 31
0.0
  0
LINE
  8
0
  6
CONTINUOUS
 62
     2
 10
214.18
 20
341.46
 30
0.0
 11
214.18
 21
279.26
 31
0.0
  0
LINE
  8
0
  6
CONTINUOUS
 62
     2
 10
79.18
 20
356.96
 30
0.0
 11
79.18
 21
259.46
 31
0.0
  0
LINE
  8
0
  6
CONTINUOUS
 62
     2
 10
114.18
 20
341.46
 30
0.0
 11
114.18
 21
279.26
 31
0.0
  0
LINE
  8
0
  6
CONTINUOUS
 62
     2
 10
112.18
 20
356.96
 30
0.0
 11
112.18
 21
299.56
 31
0.0
  0
LINE
  8
0
  6
CONTINUOUS
 62
     2
 10
109.18
 20
364.46
 30
0.0
 11
109.18
 21
319.36
 31
0.0
  0
LINE
  8
0
  6
CONTINUOUS
 62
     2
 10
88.58
 20
398.46
 30
0.0
 11
66.28
 21
398.46
 31
0.0
  0
LINE
  8
0
  6
CONTINUOUS
 62
     2
 10
68.28
 20
398.46
 30
0.0
 11
66.985904774
 21
393.630370869
 31
0.0
  0
LINE
  8
0
  6
CONTINUOUS
 62
     2
 10
68.28
 20
398.46
 30
0.0
 11
69.574095226
 21
393.630370869
 31
0.0
  0
LINE
  8
0
  6
CONTINUOUS
 62
     2
 10
68.28
 20
398.46
 30
0.0
 11
68.28
 21
366.46
 31
0.0
  0
LINE
  8
0
  6
CONTINUOUS
 62
     2
 10
68.28
 20
366.46
 30
0.0
 11
69.574095226
 21
371.289629131
 31
0.0
  0
LINE
  8
0
  6
CONTINUOUS
 62
     2
 10
68.28
 20
366.46
 30
0.0
 11
66.985904774
 21
371.289629131
 31
0.0
  0
LINE
  8
0
  6
CONTINUOUS
 62
     2
 10
75.18
 20
366.46
 30
0.0
 11
66.28
 21
366.46
 31
0.0
  0
TEXT
  8
0
  6
CONTINUOUS
 62
     3
 10
67.28
 20
375.06
 30
0.0
 40
8.0
  1
３２
 50
90.0
 41
0.925
 51
0.0
  7
KANJI16
  0
LINE
  8
0
  6
CONTINUOUS
 62
     2
 10
101.18
 20
403.36
 30
0.0
 11
100.041850582
 21
408.228738636
 31
0.0
  0
LINE
  8
0
  6
CONTINUOUS
 62
     2
 10
101.18
 20
403.36
 30
0.0
 11
97.759964373
 21
407.007376634
 31
0.0
  0
LINE
  8
0
  6
CONTINUOUS
 62
     2
 10
101.18
 20
403.36
 30
0.0
 11
76.88
 21
448.76
 31
0.0
  0
LINE
  8
0
  6
CONTINUOUS
 62
     2
 10
76.88
 20
448.76
 30
0.0
 11
49.88
 21
448.76
 31
0.0
  0
TEXT
  8
0
  6
CONTINUOUS
 62
     3
 10
49.88
 20
449.76
 30
0.0
 40
6.0
  1
２－φ１１
 50
0.0
 41
0.9
 51
0.0
  7
KANJI18
  0
LINE
  8
0
  6
CONTINUOUS
 62
     2
 10
161.574095226
 20
436.46
 30
0.0
 11
45.868190451
 21
436.46
 31
0.0
  0
LINE
  8
0
  6
CONTINUOUS
 62
     2
 10
115.274095226
 20
340.46
 30
0.0
 11
45.868190451
 21
340.46
 31
0.0
  0
LINE
  8
0
  6
CONTINUOUS
 62
     2
 10
66.28
 20
398.46
 30
0.0
 11
45.868190451
 21
398.46
 31
0.0
  0
TEXT
  8
0
  6
CONTINUOUS
 62
     4
 10
238.59
 20
386.4
 30
0.0
 40
6.4
  1
反時計方向の回転
 50
0.0
 41
1.0
 51
0.0
  7
KANJI10
  0
LINE
  8
0
  6
CONTINUOUS
 62
     1
 10
249.18
 20
373.96
 30
0.0
 11
249.18
 21
358.96
 31
0.0
  0
LINE
  8
0
  6
CONTINUOUS
 62
     2
 10
249.18
 20
356.96
 30
0.0
 11
249.18
 21
319.36
 31
0.0
  0
ARC
  8
0
  6
CONTINUOUS
 62
     1
 10
164.18
 20
398.46
 30
0.0
 40
6.0
 50
90.0
 51
270.0
  0
ARC
  8
0
  6
CONTINUOUS
 62
     1
 10
164.18
 20
398.46
 30
0.0
 40
10.0
 50
90.0
 51
270.0
  0
CIRCLE
  8
0
  6
CONTINUOUS
 62
     1
 10
186.453863607
 20
420.733863607
 30
0.0
 40
4.5
  0
LINE
  8
0
  6
CONTINUOUS
 62
     2
 10
181.953863607
 20
416.233863607
 30
0.0
 11
191.670765284
 21
425.950765284
 31
0.0
  0
CIRCLE
  8
0
  6
CONTINUOUS
 62
     1
 10
186.453863607
 20
376.186136393
 30
0.0
 40
4.5
  0
LINE
  8
0
  6
CONTINUOUS
 62
     2
 10
181.953863607
 20
380.686136393
 30
0.0
 11
191.670765284
 21
370.969234716
 31
0.0
  0
ARC
  8
0
  6
CONTINUOUS
 62
     1
 10
164.18
 20
398.46
 30
0.0
 40
40.0
 50
270.0
 51
90.0
  0
ARC
  8
0
  6
LTYPE3
 62
     2
 10
164.18
 20
398.46
 30
0.0
 40
31.5
 50
270.0
 51
90.0
  0
ARC
  8
0
  6
CONTINUOUS
 62
     1
 10
164.18
 20
398.46
 30
0.0
 40
10.0
 50
270.0
 51
90.0
  0
ARC
  8
0
  6
CONTINUOUS
 62
     1
 10
164.18
 20
361.46
 30
0.0
 40
75.0
 50
90.0
 51
114.583659279
  0
ARC
  8
0
  6
CONTINUOUS
 62
     1
 10
164.18
 20
435.46
 30
0.0
 40
75.0
 50
245.416340721
 51
270.0
  0
ARC
  8
0
  6
CONTINUOUS
 62
     1
 10
164.18
 20
361.46
 30
0.0
 40
75.0
 50
65.416340721
 51
76.383170884
  0
ARC
  8
0
  6
CONTINUOUS
 62
     1
 10
127.18
 20
398.46
 30
0.0
 40
75.0
 50
13.616829116
 51
24.583659279
  0
ARC
  8
0
  6
CONTINUOUS
 62
     1
 10
127.18
 20
398.46
 30
0.0
 40
75.0
 50
335.416340721
 51
346.383170884
  0
ARC
  8
0
  6
CONTINUOUS
 62
     1
 10
164.18
 20
435.46
 30
0.0
 40
75.0
 50
283.616829116
 51
294.583659279
  0
ARC
  8
0
  6
CONTINUOUS
 62
     1
 10
206.173670633
 20
397.46
 30
0.0
 40
5.0
 50
241.824456104
 51
270.0
  0
LINE
  8
0
  6
CONTINUOUS
 62
     2
 10
199.10290029
 20
398.46
 30
0.0
 11
179.29
 21
398.46
 31
0.0
  0
CIRCLE
  8
0
  6
CONTINUOUS
 62
     2
 10
164.18
 20
398.46
 30
0.0
 40
8.25
  0
ARC
  8
0
  6
CONTINUOUS
 62
     2
 10
279.46
 20
372.02
 30
0.0
 40
15.0
 50
128.26018
 51
237.30609
  0
LINE
  8
0
  6
CONTINUOUS
 62
     2
 10
265.46
 20
361.95
 30
0.0
 11
271.36
 21
359.4
 31
0.0
  0
LINE
  8
0
  6
CONTINUOUS
 62
     2
 10
268.58
 20
364.31
 30
0.0
 11
271.34
 21
359.41
 31
0.0
  0
LINE
  8
0
  6
CONTINUOUS
 62
     2
 10
249.18
 20
321.36
 30
0.0
 11
219.18
 21
321.36
 31
0.0
  0
LINE
  8
0
  6
CONTINUOUS
 62
     2
 10
219.18
 20
321.36
 30
0.0
 11
224.009629131
 21
320.065904774
 31
0.0
  0
LINE
  8
0
  6
CONTINUOUS
 62
     2
 10
219.18
 20
321.36
 30
0.0
 11
224.009629131
 21
322.654095226
 31
0.0
  0
TEXT
  8
0
  6
CONTINUOUS
 62
     3
 10
226.78
 20
322.36
 30
0.0
 40
8.0
  1
３０
 50
0.0
 41
0.925
 51
0.0
  7
KANJI16
  0
LINE
  8
0
  6
CONTINUOUS
 62
     2
 10
249.18
 20
301.56
 30
0.0
 11
216.18
 21
301.56
 31
0.0
  0
LINE
  8
0
  6
CONTINUOUS
 62
     2
 10
216.18
 20
301.56
 30
0.0
 11
221.009629131
 21
300.265904774
 31
0.0
  0
LINE
  8
0
  6
CONTINUOUS
 62
     2
 10
216.18
 20
301.56
 30
0.0
 11
221.009629131
 21
302.854095226
 31
0.0
  0
TEXT
  8
0
  6
CONTINUOUS
 62
     3
 10
225.28
 20
302.56
 30
0.0
 40
8.0
  1
３３
 50
0.0
 41
0.925
 51
0.0
  7
KANJI16
  0
LINE
  8
0
  6
CONTINUOUS
 62
     2
 10
249.18
 20
281.26
 30
0.0
 11
214.18
 21
281.26
 31
0.0
  0
LINE
  8
0
  6
CONTINUOUS
 62
     2
 10
214.18
 20
281.26
 30
0.0
 11
219.009629131
 21
279.965904774
 31
0.0
  0
LINE
  8
0
  6
CONTINUOUS
 62
     2
 10
214.18
 20
281.26
 30
0.0
 11
219.009629131
 21
282.554095226
 31
0.0
  0
TEXT
  8
0
  6
CONTINUOUS
 62
     3
 10
224.28
 20
282.26
 30
0.0
 40
8.0
  1
３５
 50
0.0
 41
0.925
 51
0.0
  7
KANJI16
  0
LINE
  8
0
  6
CONTINUOUS
 62
     2
 10
249.18
 20
261.46
 30
0.0
 11
79.18
 21
261.46
 31
0.0
  0
LINE
  8
0
  6
CONTINUOUS
 62
     2
 10
79.18
 20
261.46
 30
0.0
 11
84.009629131
 21
260.165904774
 31
0.0
  0
LINE
  8
0
  6
CONTINUOUS
 62
     2
 10
79.18
 20
261.46
 30
0.0
 11
84.009629131
 21
262.754095226
 31
0.0
  0
TEXT
  8
0
  6
CONTINUOUS
 62
     3
 10
153.08
 20
262.46
 30
0.0
 40
8.0
  1
１７０
 50
0.0
 41
0.925
 51
0.0
  7
KANJI16
  0
LINE
  8
0
  6
CONTINUOUS
 62
     2
 10
214.18
 20
282.56
 30
0.0
 11
214.18
 21
279.26
 31
0.0
  0
LINE
  8
0
  6
CONTINUOUS
 62
     2
 10
214.18
 20
281.26
 30
0.0
 11
209.350370869
 21
282.554095226
 31
0.0
  0
LINE
  8
0
  6
CONTINUOUS
 62
     2
 10
214.18
 20
281.26
 30
0.0
 11
209.350370869
 21
279.965904774
 31
0.0
  0
LINE
  8
0
  6
CONTINUOUS
 62
     2
 10
214.18
 20
281.26
 30
0.0
 11
114.18
 21
281.26
 31
0.0
  0
LINE
  8
0
  6
CONTINUOUS
 62
     2
 10
114.18
 20
281.26
 30
0.0
 11
119.009629131
 21
279.965904774
 31
0.0
  0
LINE
  8
0
  6
CONTINUOUS
 62
     2
 10
114.18
 20
281.26
 30
0.0
 11
119.009629131
 21
282.554095226
 31
0.0
  0
TEXT
  8
0
  6
CONTINUOUS
 62
     3
 10
153.08
 20
282.26
 30
0.0
 40
8.0
  1
１００
 50
0.0
 41
0.925
 51
0.0
  7
KANJI16
  0
LINE
  8
0
  6
CONTINUOUS
 62
     2
 10
114.18
 20
281.26
 30
0.0
 11
114.18
 21
279.26
 31
0.0
  0
LINE
  8
0
  6
CONTINUOUS
 62
     2
 10
114.18
 20
281.26
 30
0.0
 11
109.350370869
 21
282.554095226
 31
0.0
  0
LINE
  8
0
  6
CONTINUOUS
 62
     2
 10
114.18
 20
281.26
 30
0.0
 11
109.350370869
 21
279.965904774
 31
0.0
  0
LINE
  8
0
  6
CONTINUOUS
 62
     2
 10
114.18
 20
281.26
 30
0.0
 11
79.18
 21
281.26
 31
0.0
  0
LINE
  8
0
  6
CONTINUOUS
 62
     2
 10
79.18
 20
281.26
 30
0.0
 11
84.009629131
 21
279.965904774
 31
0.0
  0
LINE
  8
0
  6
CONTINUOUS
 62
     2
 10
79.18
 20
281.26
 30
0.0
 11
84.009629131
 21
282.554095226
 31
0.0
  0
LINE
  8
0
  6
CONTINUOUS
 62
     2
 10
79.18
 20
280.06
 30
0.0
 11
79.18
 21
279.26
 31
0.0
  0
TEXT
  8
0
  6
CONTINUOUS
 62
     3
 10
89.28
 20
282.26
 30
0.0
 40
8.0
  1
３５
 50
0.0
 41
0.925
 51
0.0
  7
KANJI16
  0
LINE
  8
0
  6
CONTINUOUS
 62
     2
 10
79.18
 20
302.36
 30
0.0
 11
79.18
 21
303.56
 31
0.0
  0
LINE
  8
0
  6
CONTINUOUS
 62
     2
 10
79.18
 20
301.56
 30
0.0
 11
84.009629131
 21
300.265904774
 31
0.0
  0
LINE
  8
0
  6
CONTINUOUS
 62
     2
 10
79.18
 20
301.56
 30
0.0
 11
84.009629131
 21
302.854095226
 31
0.0
  0
LINE
  8
0
  6
CONTINUOUS
 62
     2
 10
79.18
 20
301.56
 30
0.0
 11
112.18
 21
301.56
 31
0.0
  0
LINE
  8
0
  6
CONTINUOUS
 62
     2
 10
112.18
 20
301.56
 30
0.0
 11
107.350370869
 21
302.854095226
 31
0.0
  0
LINE
  8
0
  6
CONTINUOUS
 62
     2
 10
112.18
 20
301.56
 30
0.0
 11
107.350370869
 21
300.265904774
 31
0.0
  0
TEXT
  8
0
  6
CONTINUOUS
 62
     3
 10
88.28
 20
302.56
 30
0.0
 40
8.0
  1
３３
 50
0.0
 41
0.925
 51
0.0
  7
KANJI16
  0
LINE
  8
0
  6
CONTINUOUS
 62
     2
 10
79.18
 20
316.66
 30
0.0
 11
79.18
 21
323.36
 31
0.0
  0
LINE
  8
0
  6
CONTINUOUS
 62
     2
 10
79.18
 20
321.36
 30
0.0
 11
84.009629131
 21
320.065904774
 31
0.0
  0
LINE
  8
0
  6
CONTINUOUS
 62
     2
 10
79.18
 20
321.36
 30
0.0
 11
84.009629131
 21
322.654095226
 31
0.0
  0
LINE
  8
0
  6
CONTINUOUS
 62
     2
 10
79.18
 20
321.36
 30
0.0
 11
109.18
 21
321.36
 31
0.0
  0
LINE
  8
0
  6
CONTINUOUS
 62
     2
 10
109.18
 20
321.36
 30
0.0
 11
104.350370869
 21
322.654095226
 31
0.0
  0
LINE
  8
0
  6
CONTINUOUS
 62
     2
 10
109.18
 20
321.36
 30
0.0
 11
104.350370869
 21
320.065904774
 31
0.0
  0
TEXT
  8
0
  6
CONTINUOUS
 62
     3
 10
86.78
 20
322.36
 30
0.0
 40
8.0
  1
３０
 50
0.0
 41
0.925
 51
0.0
  7
KANJI16
  0
LINE
  8
0
  6
CONTINUOUS
 62
     2
 10
47.868190451
 20
398.46
 30
0.0
 11
46.574095226
 21
393.630370869
 31
0.0
  0
LINE
  8
0
  6
CONTINUOUS
 62
     2
 10
47.868190451
 20
398.46
 30
0.0
 11
49.162285677
 21
393.630370869
 31
0.0
  0
LINE
  8
0
  6
CONTINUOUS
 62
     2
 10
47.868190451
 20
398.46
 30
0.0
 11
47.868190451
 21
340.46
 31
0.0
  0
LINE
  8
0
  6
CONTINUOUS
 62
     2
 10
47.868190451
 20
340.46
 30
0.0
 11
49.162285677
 21
345.289629131
 31
0.0
  0
LINE
  8
0
  6
CONTINUOUS
 62
     2
 10
47.868190451
 20
340.46
 30
0.0
 11
46.574095226
 21
345.289629131
 31
0.0
  0
TEXT
  8
0
  6
CONTINUOUS
 62
     3
 10
46.868190451
 20
362.06
 30
0.0
 40
8.0
  1
５８
 50
90.0
 41
0.925
 51
0.0
  7
KANJI16
  0
LINE
  8
0
  6
CONTINUOUS
 62
     2
 10
51.868190451
 20
398.46
 30
0.0
 11
45.868190451
 21
398.46
 31
0.0
  0
LINE
  8
0
  6
CONTINUOUS
 62
     2
 10
47.868190451
 20
398.46
 30
0.0
 11
49.162285677
 21
403.289629131
 31
0.0
  0
LINE
  8
0
  6
CONTINUOUS
 62
     2
 10
47.868190451
 20
398.46
 30
0.0
 11
46.574095226
 21
403.289629131
 31
0.0
  0
LINE
  8
0
  6
CONTINUOUS
 62
     2
 10
47.868190451
 20
398.46
 30
0.0
 11
47.868190451
 21
436.46
 31
0.0
  0
LINE
  8
0
  6
CONTINUOUS
 62
     2
 10
47.868190451
 20
436.46
 30
0.0
 11
46.574095226
 21
431.630370869
 31
0.0
  0
LINE
  8
0
  6
CONTINUOUS
 62
     2
 10
47.868190451
 20
436.46
 30
0.0
 11
49.162285677
 21
431.630370869
 31
0.0
  0
TEXT
  8
0
  6
CONTINUOUS
 62
     3
 10
46.868190451
 20
410.06
 30
0.0
 40
8.0
  1
３８
 50
90.0
 41
0.925
 51
0.0
  7
KANJI16
  0
LINE
  8
0
  6
CONTINUOUS
 62
     2
 10
249.18
 20
321.36
 30
0.0
 11
244.350370869
 21
322.654095226
 31
0.0
  0
LINE
  8
0
  6
CONTINUOUS
 62
     2
 10
249.18
 20
321.36
 30
0.0
 11
244.350370869
 21
320.065904774
 31
0.0
  0
LINE
  8
0
  6
CONTINUOUS
 62
     2
 10
249.18
 20
301.56
 30
0.0
 11
244.350370869
 21
302.854095226
 31
0.0
  0
LINE
  8
0
  6
CONTINUOUS
 62
     2
 10
249.18
 20
301.56
 30
0.0
 11
244.350370869
 21
300.265904774
 31
0.0
  0
LINE
  8
0
  6
CONTINUOUS
 62
     2
 10
249.18
 20
281.26
 30
0.0
 11
244.350370869
 21
282.554095226
 31
0.0
  0
LINE
  8
0
  6
CONTINUOUS
 62
     2
 10
249.18
 20
281.26
 30
0.0
 11
244.350370869
 21
279.965904774
 31
0.0
  0
LINE
  8
0
  6
CONTINUOUS
 62
     2
 10
249.18
 20
261.46
 30
0.0
 11
244.350370869
 21
262.754095226
 31
0.0
  0
LINE
  8
0
  6
CONTINUOUS
 62
     2
 10
249.18
 20
261.46
 30
0.0
 11
244.350370869
 21
260.165904774
 31
0.0
  0
LINE
  8
0
  6
CONTINUOUS
 62
     2
 10
249.18
 20
321.36
 30
0.0
 11
249.18
 21
299.56
 31
0.0
  0
LINE
  8
0
  6
CONTINUOUS
 62
     2
 10
249.18
 20
304.76
 30
0.0
 11
249.18
 21
279.26
 31
0.0
  0
LINE
  8
0
  6
CONTINUOUS
 62
     2
 10
249.18
 20
282.56
 30
0.0
 11
249.18
 21
259.46
 31
0.0
  0
ARC
  8
0
  6
CONTINUOUS
 62
     1
 10
164.18
 20
398.46
 30
0.0
 40
20.0
 50
270.0
 51
90.0
  0
TEXT
  8
0
  6
CONTINUOUS
 62
     3
 10
348.738861644
 20
442.561138356
 30
0.0
 40
6.0
  1
※グリース二ップル（Ａ型）
 50
0.0
 41
0.833333333
 51
0.0
  7
KANJI26
  0
LINE
  8
0
  6
CONTINUOUS
 62
     2
 10
408.748861644
 20
440.731138356
 30
0.0
 11
346.588861644
 21
440.731138356
 31
0.0
  0
TEXT
  8
0
  6
CONTINUOUS
 62
     3
 10
363.128861644
 20
432.931138356
 30
0.0
 40
6.0
  1
ＰＴ１／８
 50
0.0
 41
0.9
 51
0.0
  7
KANJI18
  0
TEXT
  8
0
  6
CONTINUOUS
 62
     3
 10
419.58
 20
47.72
 30
0.0
 40
6.0
  1
２００７．０５．０９　竹下　コメント追記
 50
0.0
 41
0.733333333
 51
0.0
  7
KANJI23
  0
LINE
  8
0
  6
CONTINUOUS
 62
     1
 10
184.79
 20
394.46
 30
0.0
 11
184.79
 21
402.46
 31
0.0
  0
LINE
  8
0
  6
CONTINUOUS
 62
     1
 10
184.79
 20
402.46
 30
0.0
 11
185.79
 21
403.46
 31
0.0
  0
LINE
  8
0
  6
CONTINUOUS
 62
     1
 10
185.79
 20
403.46
 30
0.0
 11
188.79
 21
403.46
 31
0.0
  0
ARC
  8
0
  6
CONTINUOUS
 62
     1
 10
186.165
 20
400.96
 30
0.0
 40
3.625
 50
316.397
 51
43.603
  0
ARC
  8
0
  6
CONTINUOUS
 62
     1
 10
188.415
 20
400.96
 30
0.0
 40
3.625
 50
136.397
 51
223.603
  0
LINE
  8
0
  6
CONTINUOUS
 62
     1
 10
184.79
 20
402.322
 30
0.0
 11
183.79
 21
402.322
 31
0.0
  0
LINE
  8
0
  6
CONTINUOUS
 62
     1
 10
188.79
 20
403.46
 30
0.0
 11
192.348410095
 21
400.655266961
 31
0.0
  0
ARC
  8
0
  6
CONTINUOUS
 62
     1
 10
192.41
 20
402.027
 30
0.0
 40
0.999917
 50
225.0
 51
302.008
  0
LINE
  8
0
  6
CONTINUOUS
 62
     1
 10
192.266
 20
396.163
 30
0.0
 11
192.266
 21
400.758
 31
0.0
  0
LINE
  8
0
  6
CONTINUOUS
 62
     1
 10
193.79
 20
400.96
 30
0.0
 11
193.79
 21
395.96
 31
0.0
  0
LINE
  8
0
  6
CONTINUOUS
 62
     1
 10
192.94
 20
401.179
 30
0.0
 11
193.79
 21
401.71
 31
0.0
  0
LINE
  8
0
  6
CONTINUOUS
 62
     1
 10
193.79
 20
401.71
 30
0.0
 11
196.79
 21
400.96
 31
0.0
  0
LINE
  8
0
  6
CONTINUOUS
 62
     1
 10
196.79
 20
400.96
 30
0.0
 11
196.79
 21
395.96
 31
0.0
  0
LINE
  8
0
  6
CONTINUOUS
 62
     1
 10
196.79
 20
395.96
 30
0.0
 11
193.79
 21
395.21
 31
0.0
  0
LINE
  8
0
  6
CONTINUOUS
 62
     1
 10
183.79
 20
394.599
 30
0.0
 11
184.79
 21
394.599
 31
0.0
  0
LINE
  8
0
  6
CONTINUOUS
 62
     1
 10
184.79
 20
394.46
 30
0.0
 11
185.79
 21
393.46
 31
0.0
  0
ARC
  8
0
  6
CONTINUOUS
 62
     1
 10
186.165
 20
395.96
 30
0.0
 40
3.625
 50
316.397
 51
43.603
  0
ARC
  8
0
  6
CONTINUOUS
 62
     1
 10
188.415
 20
395.96
 30
0.0
 40
3.625
 50
136.397
 51
223.603
  0
ARC
  8
0
  6
CONTINUOUS
 62
     1
 10
192.41
 20
394.893
 30
0.0
 40
0.99999
 50
57.995
 51
135.0
  0
LINE
  8
0
  6
CONTINUOUS
 62
     1
 10
191.70290029
 20
395.60009971
 30
0.0
 11
188.79
 21
393.46
 31
0.0
  0
LINE
  8
0
  6
CONTINUOUS
 62
     1
 10
193.79
 20
395.21
 30
0.0
 11
192.94
 21
395.741
 31
0.0
  0
LINE
  8
0
  6
CONTINUOUS
 62
     1
 10
185.79
 20
393.46
 30
0.0
 11
188.79
 21
393.46
 31
0.0
  0
CIRCLE
  8
0
  6
LTYPE3
 62
     2
 10
180.5
 20
152.5
 30
0.0
 40
31.5
  0
LINE
  8
0
  6
CONTINUOUS
 62
     2
 10
441.298861644
 20
453.731138356
 30
0.0
 11
436.469232513
 21
455.025233581
 31
0.0
  0
LINE
  8
0
  6
CONTINUOUS
 62
     2
 10
441.298861644
 20
453.731138356
 30
0.0
 11
436.469232513
 21
452.43704313
 31
0.0
  0
LINE
  8
0
  6
CONTINUOUS
 62
     2
 10
441.298861644
 20
453.731138356
 30
0.0
 11
425.298861644
 21
453.731138356
 31
0.0
  0
LINE
  8
0
  6
CONTINUOUS
 62
     2
 10
441.298861644
 20
449.631138356
 30
0.0
 11
441.298861644
 21
457.631138356
 31
0.0
  0
LINE
  8
0
  6
CONTINUOUS
 62
     2
 10
425.298861644
 20
453.731138356
 30
0.0
 11
419.898861644
 21
453.731138356
 31
0.0
  0
TEXT
  8
0
  6
CONTINUOUS
 62
     3
 10
419.898861644
 20
454.731138356
 30
0.0
 40
6.0
  1
Ａ
 50
0.0
 41
0.9
 51
0.0
  7
KANJI18
  0
LINE
  8
0
  6
CONTINUOUS
 62
     1
 10
201.11
 20
148.5
 30
0.0
 11
201.11
 21
156.5
 31
0.0
  0
LINE
  8
0
  6
CONTINUOUS
 62
     1
 10
201.11
 20
156.5
 30
0.0
 11
202.11
 21
157.5
 31
0.0
  0
LINE
  8
0
  6
CONTINUOUS
 62
     1
 10
202.11
 20
157.5
 30
0.0
 11
205.11
 21
157.5
 31
0.0
  0
ARC
  8
0
  6
CONTINUOUS
 62
     1
 10
202.485
 20
155.0
 30
0.0
 40
3.625
 50
316.397
 51
43.603
  0
ARC
  8
0
  6
CONTINUOUS
 62
     1
 10
204.735
 20
155.0
 30
0.0
 40
3.625
 50
136.397
 51
223.603
  0
LINE
  8
0
  6
CONTINUOUS
 62
     1
 10
201.11
 20
156.362
 30
0.0
 11
200.11
 21
156.362
 31
0.0
  0
LINE
  8
0
  6
CONTINUOUS
 62
     1
 10
205.11
 20
157.5
 30
0.0
 11
208.668410095
 21
154.695266961
 31
0.0
  0
ARC
  8
0
  6
CONTINUOUS
 62
     1
 10
208.73
 20
156.067
 30
0.0
 40
0.999917
 50
225.0
 51
302.008
  0
LINE
  8
0
  6
CONTINUOUS
 62
     1
 10
208.586
 20
150.203
 30
0.0
 11
208.586
 21
154.798
 31
0.0
  0
LINE
  8
0
  6
CONTINUOUS
 62
     1
 10
210.11
 20
155.0
 30
0.0
 11
210.11
 21
150.0
 31
0.0
  0
LINE
  8
0
  6
CONTINUOUS
 62
     1
 10
209.26
 20
155.219
 30
0.0
 11
210.11
 21
155.75
 31
0.0
  0
LINE
  8
0
  6
CONTINUOUS
 62
     1
 10
210.11
 20
155.75
 30
0.0
 11
213.11
 21
155.0
 31
0.0
  0
LINE
  8
0
  6
CONTINUOUS
 62
     1
 10
213.11
 20
155.0
 30
0.0
 11
213.11
 21
150.0
 31
0.0
  0
LINE
  8
0
  6
CONTINUOUS
 62
     1
 10
213.11
 20
150.0
 30
0.0
 11
210.11
 21
149.25
 31
0.0
  0
LINE
  8
0
  6
CONTINUOUS
 62
     1
 10
200.11
 20
148.639
 30
0.0
 11
201.11
 21
148.639
 31
0.0
  0
LINE
  8
0
  6
CONTINUOUS
 62
     1
 10
201.11
 20
148.5
 30
0.0
 11
202.11
 21
147.5
 31
0.0
  0
ARC
  8
0
  6
CONTINUOUS
 62
     1
 10
202.485
 20
150.0
 30
0.0
 40
3.625
 50
316.397
 51
43.603
  0
ARC
  8
0
  6
CONTINUOUS
 62
     1
 10
204.735
 20
150.0
 30
0.0
 40
3.625
 50
136.397
 51
223.603
  0
ARC
  8
0
  6
CONTINUOUS
 62
     1
 10
208.73
 20
148.933
 30
0.0
 40
0.99999
 50
57.995
 51
135.0
  0
LINE
  8
0
  6
CONTINUOUS
 62
     1
 10
208.02290029
 20
149.64009971
 30
0.0
 11
205.11
 21
147.5
 31
0.0
  0
LINE
  8
0
  6
CONTINUOUS
 62
     1
 10
210.11
 20
149.25
 30
0.0
 11
209.26
 21
149.781
 31
0.0
  0
LINE
  8
0
  6
CONTINUOUS
 62
     1
 10
202.11
 20
147.5
 30
0.0
 11
205.11
 21
147.5
 31
0.0
  0
ENDSEC
  0
EOF
