  0
SECTION
  2
HEADER
  9
$ACADVER
  1
AC1009
  9
$DWGCODEPAGE
  3
dos932
  9
$EXTMIN
 10
0.0
 20
0.0
 30
0.0
  9
$EXTMAX
 10
1680.0
 20
1188.0
 30
0.0
  9
$LIMMIN
 10
0.0
 20
0.0
  9
$LIMMAX
 10
1680.0
 20
1188.0
  9
$LTSCALE
 40
1.0
  9
$PDMODE
 70
     0
  0
ENDSEC
  0
SECTION
  2
TABLES
  0
TABLE
  2
VPORT
 70
     1
  0
VPORT
  2
*ACTIVE
 70
     0
 10
0.0
 20
0.0
 11
1.0
 21
1.0
 12
840.0
 22
594.0
 13
0.0
 23
0.0
 14
10.0
 24
10.0
 15
10.0
 25
10.0
 16
0.0
 26
0.0
 36
1.0
 17
0.0
 27
0.0
 37
0.0
 40
1680.0
 41
1.414141414
 42
50.0
 43
0.0
 44
0.0
 50
0.0
 51
0.0
 71
     0
 72
  1000
 73
     1
 74
     3
 75
     0
 76
     0
 77
     0
 78
     0
  0
ENDTAB
  0
TABLE
  2
LTYPE
 70
     3
  0
LTYPE
  2
CONTINUOUS
 70
    64
  3
Solid line
 72
    65
 73
     0
 40
0.0
  0
LTYPE
  2
LTYPE1
 70
    64
  3
HIDDEN
 72
    65
 73
     2
 40
12.0
 49
7.2
 49
-4.8
  0
LTYPE
  2
LTYPE2
 70
    64
  3
CENTER
 72
    65
 73
     4
 40
8.0
 49
5.6
 49
-0.8
 49
0.8
 49
-0.8
  0
ENDTAB
  0
TABLE
  2
LAYER
 70
   128
  0
LAYER
  2
0
 70
     0
 62
     7
  6
CONTINUOUS
  0
LAYER
  2
1
 70
     0
 62
     7
  6
CONTINUOUS
  0
LAYER
  2
10
 70
     0
 62
     7
  6
CONTINUOUS
  0
LAYER
  2
4
 70
     0
 62
     7
  6
CONTINUOUS
  0
LAYER
  2
5
 70
     0
 62
     7
  6
CONTINUOUS
  0
LAYER
  2
6
 70
     0
 62
     7
  6
CONTINUOUS
  0
LAYER
  2
7
 70
     0
 62
     7
  6
CONTINUOUS
  0
LAYER
  2
8
 70
     0
 62
     7
  6
CONTINUOUS
  0
LAYER
  2
9
 70
     0
 62
     7
  6
CONTINUOUS
  0
LAYER
  2
10
 70
     0
 62
     7
  6
CONTINUOUS
  0
LAYER
  2
11
 70
     0
 62
     7
  6
CONTINUOUS
  0
LAYER
  2
12
 70
     0
 62
     7
  6
CONTINUOUS
  0
LAYER
  2
13
 70
     0
 62
     7
  6
CONTINUOUS
  0
LAYER
  2
14
 70
     0
 62
     7
  6
CONTINUOUS
  0
LAYER
  2
15
 70
     0
 62
     7
  6
CONTINUOUS
  0
LAYER
  2
16
 70
     0
 62
     7
  6
CONTINUOUS
  0
LAYER
  2
17
 70
     0
 62
     7
  6
CONTINUOUS
  0
LAYER
  2
18
 70
     0
 62
     7
  6
CONTINUOUS
  0
LAYER
  2
19
 70
     0
 62
     7
  6
CONTINUOUS
  0
LAYER
  2
20
 70
     0
 62
     7
  6
CONTINUOUS
  0
LAYER
  2
21
 70
     0
 62
     7
  6
CONTINUOUS
  0
LAYER
  2
22
 70
     0
 62
     7
  6
CONTINUOUS
  0
LAYER
  2
23
 70
     0
 62
     7
  6
CONTINUOUS
  0
LAYER
  2
24
 70
     0
 62
     7
  6
CONTINUOUS
  0
LAYER
  2
25
 70
     0
 62
     7
  6
CONTINUOUS
  0
LAYER
  2
26
 70
     0
 62
     7
  6
CONTINUOUS
  0
LAYER
  2
27
 70
     0
 62
     7
  6
CONTINUOUS
  0
LAYER
  2
28
 70
     0
 62
     7
  6
CONTINUOUS
  0
LAYER
  2
29
 70
     0
 62
     7
  6
CONTINUOUS
  0
LAYER
  2
30
 70
     0
 62
     7
  6
CONTINUOUS
  0
LAYER
  2
31
 70
     0
 62
     7
  6
CONTINUOUS
  0
LAYER
  2
32
 70
     0
 62
     7
  6
CONTINUOUS
  0
LAYER
  2
33
 70
     0
 62
     7
  6
CONTINUOUS
  0
LAYER
  2
34
 70
     0
 62
     7
  6
CONTINUOUS
  0
LAYER
  2
35
 70
     0
 62
     7
  6
CONTINUOUS
  0
LAYER
  2
36
 70
     0
 62
     7
  6
CONTINUOUS
  0
LAYER
  2
37
 70
     0
 62
     7
  6
CONTINUOUS
  0
LAYER
  2
38
 70
     0
 62
     7
  6
CONTINUOUS
  0
LAYER
  2
39
 70
     0
 62
     7
  6
CONTINUOUS
  0
LAYER
  2
40
 70
     0
 62
     7
  6
CONTINUOUS
  0
LAYER
  2
41
 70
     0
 62
     7
  6
CONTINUOUS
  0
LAYER
  2
42
 70
     0
 62
     7
  6
CONTINUOUS
  0
LAYER
  2
43
 70
     0
 62
     7
  6
CONTINUOUS
  0
LAYER
  2
44
 70
     0
 62
     7
  6
CONTINUOUS
  0
LAYER
  2
45
 70
     0
 62
     7
  6
CONTINUOUS
  0
LAYER
  2
46
 70
     0
 62
     7
  6
CONTINUOUS
  0
LAYER
  2
47
 70
     0
 62
     7
  6
CONTINUOUS
  0
LAYER
  2
48
 70
     0
 62
     7
  6
CONTINUOUS
  0
LAYER
  2
49
 70
     0
 62
     7
  6
CONTINUOUS
  0
LAYER
  2
50
 70
     0
 62
     7
  6
CONTINUOUS
  0
LAYER
  2
51
 70
     0
 62
     7
  6
CONTINUOUS
  0
LAYER
  2
52
 70
     0
 62
     7
  6
CONTINUOUS
  0
LAYER
  2
53
 70
     0
 62
     7
  6
CONTINUOUS
  0
LAYER
  2
54
 70
     0
 62
     7
  6
CONTINUOUS
  0
LAYER
  2
55
 70
     0
 62
     7
  6
CONTINUOUS
  0
LAYER
  2
56
 70
     0
 62
     7
  6
CONTINUOUS
  0
LAYER
  2
57
 70
     0
 62
     7
  6
CONTINUOUS
  0
LAYER
  2
58
 70
     0
 62
     7
  6
CONTINUOUS
  0
LAYER
  2
59
 70
     0
 62
     7
  6
CONTINUOUS
  0
LAYER
  2
60
 70
     0
 62
     7
  6
CONTINUOUS
  0
LAYER
  2
61
 70
     0
 62
     7
  6
CONTINUOUS
  0
LAYER
  2
62
 70
     0
 62
     7
  6
CONTINUOUS
  0
LAYER
  2
63
 70
     0
 62
     7
  6
CONTINUOUS
  0
LAYER
  2
64
 70
     0
 62
     7
  6
CONTINUOUS
  0
LAYER
  2
65
 70
     0
 62
     7
  6
CONTINUOUS
  0
LAYER
  2
66
 70
     0
 62
     7
  6
CONTINUOUS
  0
LAYER
  2
67
 70
     0
 62
     7
  6
CONTINUOUS
  0
LAYER
  2
68
 70
     0
 62
     7
  6
CONTINUOUS
  0
LAYER
  2
69
 70
     0
 62
     7
  6
CONTINUOUS
  0
LAYER
  2
70
 70
     0
 62
     7
  6
CONTINUOUS
  0
LAYER
  2
71
 70
     0
 62
     7
  6
CONTINUOUS
  0
LAYER
  2
72
 70
     0
 62
     7
  6
CONTINUOUS
  0
LAYER
  2
73
 70
     0
 62
     7
  6
CONTINUOUS
  0
LAYER
  2
74
 70
     0
 62
     7
  6
CONTINUOUS
  0
LAYER
  2
75
 70
     0
 62
     7
  6
CONTINUOUS
  0
LAYER
  2
76
 70
     0
 62
     7
  6
CONTINUOUS
  0
LAYER
  2
77
 70
     0
 62
     7
  6
CONTINUOUS
  0
LAYER
  2
78
 70
     0
 62
     7
  6
CONTINUOUS
  0
LAYER
  2
79
 70
     0
 62
     7
  6
CONTINUOUS
  0
LAYER
  2
80
 70
     0
 62
     7
  6
CONTINUOUS
  0
LAYER
  2
81
 70
     0
 62
     7
  6
CONTINUOUS
  0
LAYER
  2
82
 70
     0
 62
     7
  6
CONTINUOUS
  0
LAYER
  2
83
 70
     0
 62
     7
  6
CONTINUOUS
  0
LAYER
  2
84
 70
     0
 62
     7
  6
CONTINUOUS
  0
LAYER
  2
85
 70
     0
 62
     7
  6
CONTINUOUS
  0
LAYER
  2
86
 70
     0
 62
     7
  6
CONTINUOUS
  0
LAYER
  2
87
 70
     0
 62
     7
  6
CONTINUOUS
  0
LAYER
  2
88
 70
     0
 62
     7
  6
CONTINUOUS
  0
LAYER
  2
89
 70
     0
 62
     7
  6
CONTINUOUS
  0
LAYER
  2
90
 70
     0
 62
     7
  6
CONTINUOUS
  0
LAYER
  2
91
 70
     0
 62
     7
  6
CONTINUOUS
  0
LAYER
  2
92
 70
     0
 62
     7
  6
CONTINUOUS
  0
LAYER
  2
93
 70
     0
 62
     7
  6
CONTINUOUS
  0
LAYER
  2
94
 70
     0
 62
     7
  6
CONTINUOUS
  0
LAYER
  2
95
 70
     0
 62
     7
  6
CONTINUOUS
  0
LAYER
  2
96
 70
     0
 62
     7
  6
CONTINUOUS
  0
LAYER
  2
97
 70
     0
 62
     7
  6
CONTINUOUS
  0
LAYER
  2
98
 70
     0
 62
     7
  6
CONTINUOUS
  0
LAYER
  2
99
 70
     0
 62
     7
  6
CONTINUOUS
  0
LAYER
  2
100
 70
     0
 62
     7
  6
CONTINUOUS
  0
LAYER
  2
101
 70
     0
 62
     7
  6
CONTINUOUS
  0
LAYER
  2
102
 70
     0
 62
     7
  6
CONTINUOUS
  0
LAYER
  2
103
 70
     0
 62
     7
  6
CONTINUOUS
  0
LAYER
  2
104
 70
     0
 62
     7
  6
CONTINUOUS
  0
LAYER
  2
105
 70
     0
 62
     7
  6
CONTINUOUS
  0
LAYER
  2
106
 70
     0
 62
     7
  6
CONTINUOUS
  0
LAYER
  2
107
 70
     0
 62
     7
  6
CONTINUOUS
  0
LAYER
  2
108
 70
     0
 62
     7
  6
CONTINUOUS
  0
LAYER
  2
109
 70
     0
 62
     7
  6
CONTINUOUS
  0
LAYER
  2
110
 70
     0
 62
     7
  6
CONTINUOUS
  0
LAYER
  2
111
 70
     0
 62
     7
  6
CONTINUOUS
  0
LAYER
  2
112
 70
     0
 62
     7
  6
CONTINUOUS
  0
LAYER
  2
113
 70
     0
 62
     7
  6
CONTINUOUS
  0
LAYER
  2
114
 70
     0
 62
     7
  6
CONTINUOUS
  0
LAYER
  2
115
 70
     0
 62
     7
  6
CONTINUOUS
  0
LAYER
  2
116
 70
     0
 62
     7
  6
CONTINUOUS
  0
LAYER
  2
117
 70
     0
 62
     7
  6
CONTINUOUS
  0
LAYER
  2
118
 70
     0
 62
     7
  6
CONTINUOUS
  0
LAYER
  2
119
 70
     0
 62
     7
  6
CONTINUOUS
  0
LAYER
  2
120
 70
     0
 62
     7
  6
CONTINUOUS
  0
LAYER
  2
121
 70
     0
 62
     7
  6
CONTINUOUS
  0
LAYER
  2
122
 70
     0
 62
     7
  6
CONTINUOUS
  0
LAYER
  2
123
 70
     0
 62
     7
  6
CONTINUOUS
  0
LAYER
  2
124
 70
     0
 62
     7
  6
CONTINUOUS
  0
LAYER
  2
125
 70
     0
 62
     7
  6
CONTINUOUS
  0
LAYER
  2
126
 70
     0
 62
     7
  6
CONTINUOUS
  0
LAYER
  2
127
 70
     0
 62
     7
  6
CONTINUOUS
  0
LAYER
  2
128
 70
     0
 62
     7
  6
CONTINUOUS
  0
ENDTAB
  0
TABLE
  2
STYLE
 70
    36
  0
STYLE
  2
STANDARD
 70
     0
 40
0.0
 41
1.0
 50
0.0
 71
     0
 42
0.2
  3
txt.shx
  4
extfont.shx
  0
STYLE
  2
KANJI0
 70
     0
 40
12.0
 41
1.0
 50
0.0
 71
     0
 42
12.0
  3
txt.shx
  4
extfont.shx
  0
STYLE
  2
KANJI1
 70
     0
 40
8.8
 41
1.0
 50
0.0
 71
     0
 42
8.8
  3
txt.shx
  4
extfont.shx
  0
STYLE
  2
KANJI2
 70
     0
 40
7.2
 41
1.0
 50
0.0
 71
     0
 42
7.2
  3
txt.shx
  4
extfont.shx
  0
STYLE
  2
KANJI3
 70
     0
 40
12.8
 41
1.0
 50
0.0
 71
     0
 42
12.8
  3
txt.shx
  4
extfont.shx
  0
STYLE
  2
KANJI4
 70
     0
 40
7.999998318
 41
0.6
 50
0.0
 71
     0
 42
7.999998318
  3
txt.shx
  4
extfont.shx
  0
STYLE
  2
KANJI5
 70
     0
 40
9.599997982
 41
0.9
 50
0.0
 71
     0
 42
9.599997982
  3
txt.shx
  4
extfont.shx
  0
STYLE
  2
KANJI6
 70
     0
 40
11.999997477
 41
0.9
 50
0.0
 71
     0
 42
11.999997477
  3
txt.shx
  4
extfont.shx
  0
STYLE
  2
KANJI7
 70
     0
 40
10.3999992
 41
0.75
 50
0.0
 71
     0
 42
10.3999992
  3
txt.shx
  4
extfont.shx
  0
STYLE
  2
KANJI8
 70
     0
 40
34.666664
 41
0.9
 50
0.0
 71
     0
 42
34.666664
  3
txt.shx
  4
extfont.shx
  0
STYLE
  2
KANJI9
 70
     0
 40
6.9333328
 41
0.6
 50
0.0
 71
     0
 42
6.9333328
  3
txt.shx
  4
extfont.shx
  0
STYLE
  2
KANJI10
 70
     0
 40
8.31999936
 41
0.6
 50
0.0
 71
     0
 42
8.31999936
  3
txt.shx
  4
extfont.shx
  0
STYLE
  2
KANJI11
 70
     0
 40
12.1333324
 41
0.42031746
 50
0.0
 71
     0
 42
12.1333324
  3
txt.shx
  4
extfont.shx
  0
STYLE
  2
KANJI12
 70
     0
 40
20.7999984
 41
0.9
 50
0.0
 71
     0
 42
20.7999984
  3
txt.shx
  4
extfont.shx
  0
STYLE
  2
KANJI13
 70
     0
 40
14.4
 41
0.833333333
 50
0.0
 71
     0
 42
14.4
  3
txt.shx
  4
extfont.shx
  0
STYLE
  2
KANJI14
 70
     0
 40
6.9333328
 41
0.8
 50
0.0
 71
     0
 42
6.9333328
  3
txt.shx
  4
extfont.shx
  0
STYLE
  2
KANJI15
 70
     0
 40
8.31999936
 41
0.8
 50
0.0
 71
     0
 42
8.31999936
  3
txt.shx
  4
extfont.shx
  0
STYLE
  2
KANJI16
 70
     0
 40
20.0
 41
1.0
 50
0.0
 71
     0
 42
20.0
  3
txt.shx
  4
extfont.shx
  0
STYLE
  2
KANJI17
 70
     0
 40
20.0
 41
1.0
 50
0.0
 71
     0
 42
20.0
  3
txt.shx
  4
extfont.shx
  0
STYLE
  2
KANJI18
 70
     0
 40
12.0
 41
0.9
 50
0.0
 71
     0
 42
12.0
  3
txt.shx
  4
extfont.shx
  0
STYLE
  2
KANJI19
 70
     0
 40
12.8
 41
0.65625
 50
0.0
 71
     0
 42
12.8
  3
txt.shx
  4
extfont.shx
  0
STYLE
  2
KANJI20
 70
     0
 40
12.8
 41
0.71875
 50
0.0
 71
     0
 42
12.8
  3
txt.shx
  4
extfont.shx
  0
STYLE
  2
KANJI21
 70
     0
 40
12.8
 41
0.6875
 50
0.0
 71
     0
 42
12.8
  3
txt.shx
  4
extfont.shx
  0
STYLE
  2
KANJI22
 70
     0
 40
12.8
 41
0.5625
 50
0.0
 71
     0
 42
12.8
  3
txt.shx
  4
extfont.shx
  0
STYLE
  2
KANJI23
 70
     0
 40
18.0
 41
0.8888888
 50
0.0
 71
     0
 42
18.0
  3
txt.shx
  4
extfont.shx
  0
STYLE
  2
KANJI24
 70
     0
 40
16.8
 41
0.857142857
 50
0.0
 71
     0
 42
16.8
  3
txt.shx
  4
extfont.shx
  0
STYLE
  2
KANJI25
 70
     0
 40
14.0
 41
0.628571429
 50
0.0
 71
     0
 42
14.0
  3
txt.shx
  4
extfont.shx
  0
STYLE
  2
KANJI26
 70
     0
 40
18.0
 41
0.666666667
 50
0.0
 71
     0
 42
18.0
  3
txt.shx
  4
extfont.shx
  0
STYLE
  2
KANJI27
 70
     0
 40
14.0
 41
0.9
 50
0.0
 71
     0
 42
14.0
  3
txt.shx
  4
extfont.shx
  0
STYLE
  2
KANJI28
 70
     0
 40
14.0
 41
0.914285714
 50
0.0
 71
     0
 42
14.0
  3
txt.shx
  4
extfont.shx
  0
STYLE
  2
KANJI29
 70
     0
 40
12.8
 41
0.90625
 50
0.0
 71
     0
 42
12.8
  3
txt.shx
  4
extfont.shx
  0
STYLE
  2
KANJI30
 70
     0
 40
12.8
 41
0.90625
 50
0.0
 71
     0
 42
12.8
  3
txt.shx
  4
extfont.shx
  0
STYLE
  2
KANJI31
 70
     0
 40
5.656854249
 41
1.0
 50
0.0
 71
     0
 42
5.656854249
  3
txt.shx
  4
extfont.shx
  0
STYLE
  2
KANJI32
 70
     0
 40
18.0
 41
1.0
 50
0.0
 71
     0
 42
18.0
  3
txt.shx
  4
extfont.shx
  0
STYLE
  2
KANJI33
 70
     0
 40
12.8
 41
0.78125
 50
0.0
 71
     0
 42
12.8
  3
txt.shx
  4
extfont.shx
  0
STYLE
  2
KANJI34
 70
     0
 40
10.0
 41
0.6
 50
0.0
 71
     0
 42
10.0
  3
txt.shx
  4
extfont.shx
  0
ENDTAB
  0
TABLE
  2
VIEW
 70
     0
  0
ENDTAB
  0
ENDSEC
  0
SECTION
  2
BLOCKS
  0
ENDSEC
  0
SECTION
  2
ENTITIES
  0
TEXT
  8
10
  6
CONTINUOUS
 62
     3
 10
1112.62
 20
1120.0
 30
0.0
 40
12.0
  1
ＩＳＯ
 50
0.0
 41
1.0
 51
0.0
  7
KANJI0
  0
TEXT
  8
10
  6
CONTINUOUS
 62
     3
 10
1149.38
 20
1120.0
 30
0.0
 40
8.8
  1
ＭＥＴＲＩＣ　ＳＣＲＥＷ　ＴＨＲＥＡＤ
 50
0.0
 41
1.0
 51
0.0
  7
KANJI1
  0
TEXT
  8
10
  6
CONTINUOUS
 62
     3
 10
1324.54
 20
1120.0
 30
0.0
 40
7.2
  1
メートルネジ使用
 50
0.0
 41
1.0
 51
0.0
  7
KANJI2
  0
TEXT
  8
10
  6
CONTINUOUS
 62
     3
 10
1402.98
 20
1120.0
 30
0.0
 40
12.0
  1
３
 50
0.0
 41
1.0
 51
0.0
  7
KANJI0
  0
TEXT
  8
10
  6
CONTINUOUS
 62
     3
 10
1414.94
 20
1120.0
 30
0.0
 40
8.8
  1
ＲＤ　ＡＮＧＬＥ　ＰＲＯＪＥＣＴＩＯＮ
 50
0.0
 41
1.0
 51
0.0
  7
KANJI1
  0
TEXT
  8
10
  6
CONTINUOUS
 62
     3
 10
1561.46
 20
1120.0
 30
0.0
 40
7.2
  1
第３角法
 50
0.0
 41
1.0
 51
0.0
  7
KANJI2
  0
TEXT
  8
10
  6
CONTINUOUS
 62
     3
 10
1300.18
 20
1120.0
 30
0.0
 40
8.8
  1
ＩＳＯ
 50
0.0
 41
1.0
 51
0.0
  7
KANJI1
  0
TEXT
  8
10
  6
CONTINUOUS
 62
     3
 10
1318.94
 20
458.2
 30
0.0
 40
12.8
  1
特記事項
 50
0.0
 41
1.0
 51
0.0
  7
KANJI3
  0
TEXT
  8
10
  6
CONTINUOUS
 62
     3
 10
1318.94
 20
430.2
 30
0.0
 40
12.8
  1
１．フレーム材質　ダグタイル鋳鉄
 50
0.0
 41
1.0
 51
0.0
  7
KANJI3
  0
TEXT
  8
10
  6
CONTINUOUS
 62
     3
 10
1318.94
 20
402.2
 30
0.0
 40
12.8
  1
２．ネジ軸の回転防止対策を行って下さい
 50
0.0
 41
1.0
 51
0.0
  7
KANJI3
  0
TEXT
  8
10
  6
CONTINUOUS
 62
     3
 10
1318.94
 20
374.2
 30
0.0
 40
12.8
  1
３．
 50
0.0
 41
1.0
 51
0.0
  7
KANJI3
  0
TEXT
  8
10
  6
CONTINUOUS
 62
     3
 10
1318.94
 20
346.2
 30
0.0
 40
12.8
  1
４．
 50
0.0
 41
1.0
 51
0.0
  7
KANJI3
  0
TEXT
  8
10
  6
CONTINUOUS
 62
     3
 10
1318.94
 20
318.2
 30
0.0
 40
12.8
  1
５．
 50
0.0
 41
1.0
 51
0.0
  7
KANJI3
  0
LINE
  8
0
  6
CONTINUOUS
 62
     6
 10
58.3639684
 20
40.6560152
 30
0.0
 11
58.3639684
 21
1116.6560152
 31
0.0
  0
LINE
  8
0
  6
CONTINUOUS
 62
     6
 10
58.3639684
 20
1116.6560152
 30
0.0
 11
1606.3639684
 21
1116.6560152
 31
0.0
  0
TEXT
  8
0
  6
CONTINUOUS
 62
     4
 10
70.363965877
 20
60.656010995
 30
0.799999832
 40
7.999998318
  1
ＰＡＲＴＳ　ＬＩＳＴ
 50
0.0
 41
0.6
 51
0.0
  7
KANJI4
  0
TEXT
  8
0
  6
CONTINUOUS
 62
     4
 10
70.363965877
 20
48.656013518
 30
0.959999798
 40
9.599997982
  1
部品表
 50
0.0
 41
0.9
 51
0.0
  7
KANJI5
  0
LINE
  8
0
  6
CONTINUOUS
 62
     6
 10
1606.3639684
 20
40.6560152
 30
0.0
 11
58.3639684
 21
40.6560152
 31
0.0
  0
LINE
  8
0
  6
CONTINUOUS
 62
     6
 10
62.363967559
 20
100.656002585
 30
0.0
 11
322.363912892
 21
100.656002585
 31
0.0
  0
LINE
  8
0
  6
CONTINUOUS
 62
     6
 10
62.363967559
 20
44.656014359
 30
0.0
 11
322.363912892
 21
44.656014359
 31
0.0
  0
LINE
  8
0
  6
CONTINUOUS
 62
     6
 10
62.363967559
 20
44.656014359
 30
0.0
 11
62.363967559
 21
100.656002585
 31
0.0
  0
LINE
  8
0
  6
CONTINUOUS
 62
     6
 10
62.363967559
 20
72.656008472
 30
0.0
 11
322.363912892
 21
72.656008472
 31
0.0
  0
TEXT
  8
0
  6
CONTINUOUS
 62
     3
 10
70.363965877
 20
80.65600679
 30
1.199999748
 40
11.999997477
  1
ＰＬ
 50
0.0
 41
0.9
 51
0.0
  7
KANJI6
  0
LINE
  8
0
  6
CONTINUOUS
 62
     4
 10
11.8306348
 20
48.1226816
 30
0.0
 11
53.4306316
 21
48.1226816
 31
0.0
  0
LINE
  8
0
  6
CONTINUOUS
 62
     4
 10
11.8306348
 20
68.92268
 30
0.0
 11
53.4306316
 21
68.92268
 31
0.0
  0
LINE
  8
0
  6
CONTINUOUS
 62
     4
 10
11.8306348
 20
89.7226784
 30
0.0
 11
53.4306316
 21
89.7226784
 31
0.0
  0
LINE
  8
0
  6
CONTINUOUS
 62
     4
 10
11.8306348
 20
110.5226768
 30
0.0
 11
53.4306316
 21
110.5226768
 31
0.0
  0
LINE
  8
0
  6
CONTINUOUS
 62
     4
 10
11.8306348
 20
131.3226752
 30
0.0
 11
53.4306316
 21
131.3226752
 31
0.0
  0
LINE
  8
0
  6
CONTINUOUS
 62
     4
 10
11.8306348
 20
152.1226736
 30
0.0
 11
53.4306316
 21
152.1226736
 31
0.0
  0
LINE
  8
0
  6
CONTINUOUS
 62
     4
 10
11.8306348
 20
172.922672
 30
0.0
 11
53.4306316
 21
172.922672
 31
0.0
  0
LINE
  8
0
  6
CONTINUOUS
 62
     4
 10
11.8306348
 20
193.7226704
 30
0.0
 11
53.4306316
 21
193.7226704
 31
0.0
  0
LINE
  8
0
  6
CONTINUOUS
 62
     4
 10
11.8306348
 20
214.5226688
 30
0.0
 11
53.4306316
 21
214.5226688
 31
0.0
  0
LINE
  8
0
  6
CONTINUOUS
 62
     4
 10
11.8306348
 20
235.3226672
 30
0.0
 11
53.4306316
 21
235.3226672
 31
0.0
  0
LINE
  8
0
  6
CONTINUOUS
 62
     4
 10
53.4306316
 20
48.1226816
 30
0.0
 11
53.4306316
 21
235.3226672
 31
0.0
  0
LINE
  8
0
  6
CONTINUOUS
 62
     4
 10
32.6306332
 20
48.1226816
 30
0.0
 11
32.6306332
 21
214.5226688
 31
0.0
  0
TEXT
  8
0
  6
CONTINUOUS
 62
     4
 10
18.93730092
 20
54.1893478
 30
1.03999992
 40
10.3999992
  1
計
 50
0.0
 41
0.75
 51
0.0
  7
KANJI7
  0
TEXT
  8
0
  6
CONTINUOUS
 62
     4
 10
18.93730092
 20
96.13601124
 30
1.03999992
 40
10.3999992
  1
設
 50
0.0
 41
0.75
 51
0.0
  7
KANJI7
  0
TEXT
  8
0
  6
CONTINUOUS
 62
     4
 10
18.93730092
 20
116.589343
 30
1.03999992
 40
10.3999992
  1
管
 50
0.0
 41
0.75
 51
0.0
  7
KANJI7
  0
TEXT
  8
0
  6
CONTINUOUS
 62
     4
 10
18.93730092
 20
137.3893414
 30
1.03999992
 40
10.3999992
  1
製
 50
0.0
 41
0.75
 51
0.0
  7
KANJI7
  0
TEXT
  8
0
  6
CONTINUOUS
 62
     4
 10
18.93730092
 20
158.1893398
 30
1.03999992
 40
10.3999992
  1
資
 50
0.0
 41
0.75
 51
0.0
  7
KANJI7
  0
TEXT
  8
0
  6
CONTINUOUS
 62
     4
 10
18.93730092
 20
178.9893382
 30
1.03999992
 40
10.3999992
  1
営
 50
0.0
 41
0.75
 51
0.0
  7
KANJI7
  0
TEXT
  8
0
  6
CONTINUOUS
 62
     4
 10
18.93730092
 20
199.7893366
 30
1.03999992
 40
10.3999992
  1
客
 50
0.0
 41
0.75
 51
0.0
  7
KANJI7
  0
TEXT
  8
0
  6
CONTINUOUS
 62
     4
 10
18.7639676
 20
221.4560016
 30
1.03999992
 40
10.3999992
  1
出　図
 50
0.0
 41
0.75
 51
0.0
  7
KANJI7
  0
LINE
  8
0
  6
CONTINUOUS
 62
     4
 10
11.8306348
 20
48.1226816
 30
0.0
 11
11.8306348
 21
235.3226672
 31
0.0
  0
TEXT
  8
0
  6
CONTINUOUS
 62
     4
 10
250.363928031
 20
60.656010995
 30
0.799999832
 40
7.999998318
  1
Ｎ０．
 50
0.0
 41
0.6
 51
0.0
  7
KANJI4
  0
TEXT
  8
0
  6
CONTINUOUS
 62
     4
 10
250.363928031
 20
48.656013518
 30
0.959999798
 40
9.599997982
  1
項番
 50
0.0
 41
0.9
 51
0.0
  7
KANJI5
  0
LINE
  8
0
  6
CONTINUOUS
 62
     6
 10
322.363912892
 20
44.656014359
 30
0.0
 11
322.363912892
 21
100.656002585
 31
0.0
  0
LINE
  8
0
  6
CONTINUOUS
 62
     6
 10
242.363929713
 20
44.656014359
 30
0.0
 11
242.363929713
 21
100.656002585
 31
0.0
  0
LINE
  8
0
  6
CONTINUOUS
 62
     6
 10
795.1640308
 20
71.8560128
 30
0.0
 11
1069.0306764
 21
71.8560128
 31
0.0
  0
LINE
  8
0
  6
CONTINUOUS
 62
     6
 10
795.1640308
 20
44.1226816
 30
0.0
 11
1602.897302
 21
44.1226816
 31
0.0
  0
LINE
  8
0
  6
CONTINUOUS
 62
     4
 10
824.6306952
 20
44.1226816
 30
0.0
 11
824.6306952
 21
71.8560128
 31
0.0
  0
LINE
  8
0
  6
CONTINUOUS
 62
     4
 10
809.897363
 20
66.6560132
 30
0.0
 11
798.6306972
 21
49.3226812
 31
0.0
  0
LINE
  8
0
  6
CONTINUOUS
 62
     4
 10
809.897363
 20
66.6560132
 30
0.0
 11
821.1640288
 21
49.3226812
 31
0.0
  0
LINE
  8
0
  6
CONTINUOUS
 62
     6
 10
795.1640308
 20
44.1226816
 30
0.0
 11
795.1640308
 21
71.8560128
 31
0.0
  0
LINE
  8
0
  6
CONTINUOUS
 62
     4
 10
798.6306972
 20
49.3226812
 30
0.0
 11
821.1640288
 21
49.3226812
 31
0.0
  0
TEXT
  8
0
  6
CONTINUOUS
 62
     4
 10
1547.4306396
 20
5.9893512
 30
3.4666664
 40
34.666664
  1
／
 50
0.0
 41
0.9
 51
0.0
  7
KANJI8
  0
LINE
  8
0
  6
CONTINUOUS
 62
     6
 10
1606.3639684
 20
1116.6560152
 30
0.0
 11
1606.3639684
 21
40.6560152
 31
0.0
  0
LINE
  8
0
  6
CONTINUOUS
 62
     4
 10
1069.0306764
 20
71.8560128
 30
0.0
 11
1195.564
 21
71.8560128
 31
0.0
  0
TEXT
  8
0
  6
CONTINUOUS
 62
     4
 10
1075.9640092
 20
59.7226804
 30
0.69333328
 40
6.9333328
  1
ＳＣＡＬＥ
 50
0.0
 41
0.6
 51
0.0
  7
KANJI9
  0
TEXT
  8
0
  6
CONTINUOUS
 62
     4
 10
1075.9640092
 20
87.4560116
 30
0.69333328
 40
6.9333328
  1
ＤＡＴＥ
 50
0.0
 41
0.6
 51
0.0
  7
KANJI9
  0
TEXT
  8
0
  6
CONTINUOUS
 62
     4
 10
1075.9640092
 20
49.3226812
 30
0.831999936
 40
8.31999936
  1
尺度
 50
0.0
 41
0.6
 51
0.0
  7
KANJI10
  0
TEXT
  8
0
  6
CONTINUOUS
 62
     4
 10
1075.9640092
 20
77.0560124
 30
0.831999936
 40
8.31999936
  1
日付
 50
0.0
 41
0.6
 51
0.0
  7
KANJI10
  0
LINE
  8
0
  6
CONTINUOUS
 62
     6
 10
1069.0306764
 20
44.1226816
 30
0.0
 11
1069.0306764
 21
265.9893312
 31
0.0
  0
LINE
  8
0
  6
CONTINUOUS
 62
     4
 10
1069.0306764
 20
99.589344
 30
0.0
 11
1195.564
 21
99.589344
 31
0.0
  0
LINE
  8
0
  6
CONTINUOUS
 62
     4
 10
1195.564
 20
87.4560116
 30
0.0
 11
1602.897302
 21
87.4560116
 31
0.0
  0
LINE
  8
0
  6
LTYPE1
 62
     4
 10
1486.7639776
 20
92.6560112
 30
0.0
 11
1486.7639776
 21
120.3893424
 31
0.0
  0
LINE
  8
0
  6
LTYPE1
 62
     4
 10
1462.4973128
 20
92.6560112
 30
0.0
 11
1462.4973128
 21
120.3893424
 31
0.0
  0
LINE
  8
0
  6
LTYPE1
 62
     4
 10
1438.230648
 20
92.6560112
 30
0.0
 11
1438.230648
 21
120.3893424
 31
0.0
  0
LINE
  8
0
  6
LTYPE1
 62
     4
 10
1413.9639832
 20
92.6560112
 30
0.0
 11
1413.9639832
 21
120.3893424
 31
0.0
  0
LINE
  8
0
  6
LTYPE1
 62
     4
 10
1389.6973184
 20
92.6560112
 30
0.0
 11
1389.6973184
 21
120.3893424
 31
0.0
  0
LINE
  8
0
  6
LTYPE1
 62
     4
 10
1365.4306536
 20
92.6560112
 30
0.0
 11
1365.4306536
 21
120.3893424
 31
0.0
  0
LINE
  8
0
  6
LTYPE1
 62
     4
 10
1341.1639888
 20
92.6560112
 30
0.0
 11
1341.1639888
 21
120.3893424
 31
0.0
  0
LINE
  8
0
  6
LTYPE1
 62
     4
 10
1316.897324
 20
92.6560112
 30
0.0
 11
1316.897324
 21
120.3893424
 31
0.0
  0
LINE
  8
0
  6
LTYPE1
 62
     4
 10
1316.897324
 20
92.6560112
 30
0.0
 11
1486.7639776
 21
92.6560112
 31
0.0
  0
LINE
  8
0
  6
CONTINUOUS
 62
     4
 10
1543.9639732
 20
96.9893442
 30
0.0
 11
1519.6973084
 21
96.9893442
 31
0.0
  0
LINE
  8
0
  6
CONTINUOUS
 62
     4
 10
1519.6973084
 20
96.9893442
 30
0.0
 11
1531.8306408
 21
117.7893426
 31
0.0
  0
LINE
  8
0
  6
CONTINUOUS
 62
     4
 10
1531.8306408
 20
117.7893426
 30
0.0
 11
1543.9639732
 21
96.9893442
 31
0.0
  0
TEXT
  8
0
  6
CONTINUOUS
 62
     6
 10
1199.0306664
 20
59.7226804
 30
0.0
 40
12.1333324
  1
ＵＮＩＴＥＣ　ＩＮＤＵＳＴＲＹ　ＣＯ．，ＬＴＤ．
 50
0.0
 41
0.42031746
 51
0.0
  7
KANJI11
  0
TEXT
  8
0
  6
CONTINUOUS
 62
     6
 10
1369.20065331
 20
55.21601408
 30
2.07999984
 40
20.7999984
  1
ユニテック工業株式会社
 50
0.0
 41
0.9
 51
0.0
  7
KANJI12
  0
LINE
  8
0
  6
CONTINUOUS
 62
     6
 10
1602.897302
 20
44.1226816
 30
0.0
 11
1602.897302
 21
265.9893312
 31
0.0
  0
LINE
  8
0
  6
CONTINUOUS
 62
     6
 10
1341.246651368
 20
62.728013856
 30
0.0
 11
1332.094652072
 21
62.728013856
 31
0.0
  0
LINE
  8
0
  6
CONTINUOUS
 62
     6
 10
1341.246651368
 20
64.392013728
 30
0.0
 11
1332.094652072
 21
64.392013728
 31
0.0
  0
LINE
  8
0
  6
CONTINUOUS
 62
     6
 10
1341.246651368
 20
62.728013856
 30
0.0
 11
1350.398650664
 21
62.728013856
 31
0.0
  0
LINE
  8
0
  6
CONTINUOUS
 62
     6
 10
1341.246651368
 20
64.392013728
 30
0.0
 11
1350.398650664
 21
64.392013728
 31
0.0
  0
LINE
  8
0
  6
CONTINUOUS
 62
     6
 10
1350.398650664
 20
64.392013728
 30
0.0
 11
1350.398650664
 21
62.728013856
 31
0.0
  0
ARC
  8
0
  6
CONTINUOUS
 62
     6
 10
1352.478650504
 20
63.560013792
 30
0.0
 40
8.31999936
 50
185.739170477
 51
90.0
  0
ARC
  8
0
  6
CONTINUOUS
 62
     6
 10
1352.478650504
 20
63.560013792
 30
0.0
 40
9.983999232
 50
184.780191847
 51
90.0
  0
LINE
  8
0
  6
CONTINUOUS
 62
     6
 10
1332.094652072
 20
62.728013856
 30
0.0
 11
1332.094652072
 21
64.392013728
 31
0.0
  0
LINE
  8
0
  6
CONTINUOUS
 62
     6
 10
1339.998651464
 20
73.544013024
 30
0.0
 11
1330.014652232
 21
73.544013024
 31
0.0
  0
LINE
  8
0
  6
CONTINUOUS
 62
     6
 10
1342.494651272
 20
73.544013024
 30
0.0
 11
1352.478650504
 21
73.544013024
 31
0.0
  0
ARC
  8
0
  6
CONTINUOUS
 62
     6
 10
1330.014652232
 20
63.560013792
 30
0.0
 40
8.31999936
 50
90.0
 51
354.260829523
  0
ARC
  8
0
  6
CONTINUOUS
 62
     6
 10
1330.014652232
 20
63.560013792
 30
0.0
 40
9.983999232
 50
90.0
 51
355.219808153
  0
LINE
  8
0
  6
CONTINUOUS
 62
     6
 10
1339.998651464
 20
73.544013024
 30
0.0
 11
1339.998651464
 21
71.880013152
 31
0.0
  0
LINE
  8
0
  6
CONTINUOUS
 62
     6
 10
1330.014652232
 20
71.880013152
 30
0.0
 11
1339.998651464
 21
71.880013152
 31
0.0
  0
LINE
  8
0
  6
CONTINUOUS
 62
     6
 10
1342.494651272
 20
73.544013024
 30
0.0
 11
1342.494651272
 21
71.880013152
 31
0.0
  0
LINE
  8
0
  6
CONTINUOUS
 62
     6
 10
1352.478650504
 20
71.880013152
 30
0.0
 11
1342.494651272
 21
71.880013152
 31
0.0
  0
LINE
  8
0
  6
CONTINUOUS
 62
     4
 10
873.1640248
 20
44.1226816
 30
0.0
 11
873.1640248
 21
71.8560128
 31
0.0
  0
LINE
  8
0
  6
CONTINUOUS
 62
     4
 10
904.3640224
 20
44.1226816
 30
0.0
 11
904.3640224
 21
71.8560128
 31
0.0
  0
TEXT
  8
0
  6
CONTINUOUS
 62
     4
 10
883.564024
 20
59.7226804
 30
0.69333328
 40
6.9333328
  1
ＢＹ
 50
0.0
 41
0.6
 51
0.0
  7
KANJI9
  0
TEXT
  8
0
  6
CONTINUOUS
 62
     4
 10
959.8306848
 20
59.7226804
 30
0.69333328
 40
6.9333328
  1
ＤＥＳＣＲＩＰＴＩＯＮ
 50
0.0
 41
0.6
 51
0.0
  7
KANJI9
  0
TEXT
  8
0
  6
CONTINUOUS
 62
     4
 10
883.564024
 20
49.3226812
 30
0.831999936
 40
8.31999936
  1
担当
 50
0.0
 41
0.6
 51
0.0
  7
KANJI10
  0
TEXT
  8
0
  6
CONTINUOUS
 62
     4
 10
970.230684
 20
49.3226812
 30
0.831999936
 40
8.31999936
  1
記　　　　事
 50
0.0
 41
0.6
 51
0.0
  7
KANJI10
  0
TEXT
  8
0
  6
CONTINUOUS
 62
     4
 10
838.4973608
 20
59.7226804
 30
0.69333328
 40
6.9333328
  1
ＤＡＴＥ
 50
0.0
 41
0.6
 51
0.0
  7
KANJI9
  0
TEXT
  8
0
  6
CONTINUOUS
 62
     4
 10
843.6973604
 20
49.3226812
 30
0.831999936
 40
8.31999936
  1
日付
 50
0.0
 41
0.6
 51
0.0
  7
KANJI10
  0
LINE
  8
0
  6
CONTINUOUS
 62
     4
 10
1195.564
 20
44.1226816
 30
0.0
 11
1195.564
 21
265.9893312
 31
0.0
  0
TEXT
  8
0
  6
CONTINUOUS
 62
     4
 10
1075.9640092
 20
115.1893428
 30
0.69333328
 40
6.9333328
  1
ＤＲＡＷＮ
 50
0.0
 41
0.6
 51
0.0
  7
KANJI9
  0
TEXT
  8
0
  6
CONTINUOUS
 62
     4
 10
1075.9640092
 20
142.922674
 30
0.69333328
 40
6.9333328
  1
ＤＥＳＩＧＮ
 50
0.0
 41
0.6
 51
0.0
  7
KANJI9
  0
TEXT
  8
0
  6
CONTINUOUS
 62
     4
 10
1075.9640092
 20
170.6560052
 30
0.69333328
 40
6.9333328
  1
ＣＨＥＣＫ
 50
0.0
 41
0.6
 51
0.0
  7
KANJI9
  0
TEXT
  8
0
  6
CONTINUOUS
 62
     4
 10
1075.9640092
 20
198.3893364
 30
0.69333328
 40
6.9333328
  1
ＣＯＤＥ
 50
0.0
 41
0.6
 51
0.0
  7
KANJI9
  0
LINE
  8
0
  6
CONTINUOUS
 62
     4
 10
1069.0306764
 20
155.0560064
 30
0.0
 11
1195.564
 21
155.0560064
 31
0.0
  0
LINE
  8
0
  6
CONTINUOUS
 62
     4
 10
1069.0306764
 20
127.3226752
 30
0.0
 11
1195.564
 21
127.3226752
 31
0.0
  0
LINE
  8
0
  6
CONTINUOUS
 62
     4
 10
1069.0306764
 20
182.7893376
 30
0.0
 11
1195.564
 21
182.7893376
 31
0.0
  0
LINE
  8
0
  6
CONTINUOUS
 62
     4
 10
1069.0306764
 20
210.5226688
 30
0.0
 11
1602.897302
 21
210.5226688
 31
0.0
  0
TEXT
  8
0
  6
CONTINUOUS
 62
     4
 10
1075.9640092
 20
132.5226748
 30
0.831999936
 40
8.31999936
  1
設計
 50
0.0
 41
0.6
 51
0.0
  7
KANJI10
  0
TEXT
  8
0
  6
CONTINUOUS
 62
     4
 10
1075.9640092
 20
160.256006
 30
0.831999936
 40
8.31999936
  1
検図
 50
0.0
 41
0.6
 51
0.0
  7
KANJI10
  0
TEXT
  8
0
  6
CONTINUOUS
 62
     4
 10
1075.9640092
 20
187.9893372
 30
0.831999936
 40
8.31999936
  1
分類
 50
0.0
 41
0.6
 51
0.0
  7
KANJI10
  0
TEXT
  8
0
  6
CONTINUOUS
 62
     4
 10
1075.9640092
 20
104.7893436
 30
0.831999936
 40
8.31999936
  1
作図
 50
0.0
 41
0.6
 51
0.0
  7
KANJI10
  0
LINE
  8
0
  6
CONTINUOUS
 62
     6
 10
1069.5306764
 20
238.256
 30
0.0
 11
1603.397302
 21
238.256
 31
0.0
  0
LINE
  8
0
  6
CONTINUOUS
 62
     6
 10
1069.0306764
 20
265.9893312
 30
0.0
 11
1602.897302
 21
265.9893312
 31
0.0
  0
TEXT
  8
0
  6
CONTINUOUS
 62
     6
 10
1097.3639684
 20
242.3893464
 30
4.0
 40
14.4
  1
ご用途
 50
0.0
 41
0.833333333
 51
0.0
  7
KANJI13
  0
TEXT
  8
0
  6
CONTINUOUS
 62
     6
 10
1097.3639684
 20
214.6560152
 30
4.0
 40
14.4
  1
ご注文主
 50
0.0
 41
0.833333333
 51
0.0
  7
KANJI13
  0
LINE
  8
0
  6
CONTINUOUS
 62
     4
 10
1205.79066588
 20
182.7893376
 30
0.0
 11
1602.897302
 21
182.7893376
 31
0.0
  0
LINE
  8
0
  6
CONTINUOUS
 62
     4
 10
1195.564
 20
127.3226752
 30
0.0
 11
1602.897302
 21
127.3226752
 31
0.0
  0
TEXT
  8
0
  6
CONTINUOUS
 62
     4
 10
1202.4973328
 20
115.1893428
 30
0.69333328
 40
6.9333328
  1
ＤＲＡＷＩＮＧ　ＮＯ．
 50
0.0
 41
0.8
 51
0.0
  7
KANJI14
  0
TEXT
  8
0
  6
CONTINUOUS
 62
     4
 10
1202.4973328
 20
142.922674
 30
0.69333328
 40
6.9333328
  1
ＭＦＧ　ＮＯ．
 50
0.0
 41
0.8
 51
0.0
  7
KANJI14
  0
TEXT
  8
0
  6
CONTINUOUS
 62
     4
 10
1202.4973328
 20
170.6560052
 30
0.69333328
 40
6.9333328
  1
ＴＹＰＥ
 50
0.0
 41
0.8
 51
0.0
  7
KANJI14
  0
LINE
  8
0
  6
CONTINUOUS
 62
     4
 10
1205.9639992
 20
155.0560064
 30
0.0
 11
1365.4306536
 21
155.0560064
 31
0.0
  0
TEXT
  8
0
  6
CONTINUOUS
 62
     4
 10
1202.4973328
 20
103.0560104
 30
0.831999936
 40
8.31999936
  1
図　面　番　号
 50
0.0
 41
0.8
 51
0.0
  7
KANJI15
  0
TEXT
  8
0
  6
CONTINUOUS
 62
     4
 10
1202.4973328
 20
130.7893416
 30
0.831999936
 40
8.31999936
  1
製番
 50
0.0
 41
0.8
 51
0.0
  7
KANJI15
  0
TEXT
  8
0
  6
CONTINUOUS
 62
     4
 10
1202.4973328
 20
158.5226728
 30
0.831999936
 40
8.31999936
  1
機種
 50
0.0
 41
0.8
 51
0.0
  7
KANJI15
  0
LINE
  8
0
  6
LTYPE1
 62
     4
 10
1316.897324
 20
120.3893424
 30
0.0
 11
1486.7639776
 21
120.3893424
 31
0.0
  0
TEXT
  8
0
  6
CONTINUOUS
 62
     4
 10
1375.8306528
 20
170.6560052
 30
0.69333328
 40
6.9333328
  1
ＴＩＴＬＥ
 50
0.0
 41
0.8
 51
0.0
  7
KANJI14
  0
TEXT
  8
0
  6
CONTINUOUS
 62
     4
 10
1375.8306528
 20
158.5226728
 30
0.831999936
 40
8.31999936
  1
名称
 50
0.0
 41
0.8
 51
0.0
  7
KANJI15
  0
LINE
  8
0
  6
CONTINUOUS
 62
     4
 10
1500.6306432
 20
107.3893434
 30
0.0
 11
1507.563976
 21
107.3893434
 31
0.0
  0
LINE
  8
0
  6
CONTINUOUS
 62
     4
 10
1195.3639684
 20
155.6560152
 30
0.0
 11
1207.3639684
 21
155.6560152
 31
0.0
  0
LINE
  8
0
  6
CONTINUOUS
 62
     4
 10
1195.3639684
 20
182.6560152
 30
0.0
 11
1207.3639684
 21
182.6560152
 31
0.0
  0
TEXT
  8
0
  6
CONTINUOUS
 62
     2
 10
1435.3639684
 20
133.6560152
 30
10.0
 40
20.0
  1
外形寸法図
 50
0.0
 41
1.0
 51
0.0
  7
KANJI16
  0
TEXT
  8
0
  6
CONTINUOUS
 62
     2
 10
1411.3639684
 20
157.6560152
 30
2.857142857
 40
20.0
  1
マイティジャッキ
 50
0.0
 41
1.0
 51
0.0
  7
KANJI17
  0
TEXT
  8
0
  6
CONTINUOUS
 62
     3
 10
1289.164
 20
133.056
 30
0.0
 40
12.0
  1
Ｓ
 50
0.0
 41
0.9
 51
0.0
  7
KANJI18
  0
CIRCLE
  8
0
  6
CONTINUOUS
 62
     3
 10
1295.164
 20
139.056
 30
0.0
 40
8.0
  0
TEXT
  8
10
  6
CONTINUOUS
 62
     3
 10
1354.04
 20
927.8
 30
0.0
 40
12.8
  1
型式
 50
0.0
 41
1.0
 51
0.0
  7
KANJI3
  0
TEXT
  8
10
  6
CONTINUOUS
 62
     3
 10
1354.04
 20
901.28
 30
0.0
 40
12.8
  1
推力
 50
0.0
 41
1.0
 51
0.0
  7
KANJI3
  0
TEXT
  8
10
  6
CONTINUOUS
 62
     3
 10
1354.08
 20
844.96
 30
0.0
 40
12.8
  1
スクリュウ
 50
0.0
 41
1.0
 51
0.0
  7
KANJI3
  0
TEXT
  8
10
  6
CONTINUOUS
 62
     3
 10
1356.24
 20
816.88
 30
0.0
 40
12.8
  1
ウォーム１回転当り移動量
 50
0.0
 41
0.65625
 51
0.0
  7
KANJI19
  0
TEXT
  8
10
  6
CONTINUOUS
 62
     3
 10
1354.04
 20
787.88
 30
0.0
 40
12.8
  1
ウォーム減速比
 50
0.0
 41
1.0
 51
0.0
  7
KANJI3
  0
TEXT
  8
10
  6
CONTINUOUS
 62
     3
 10
1354.04
 20
733.48
 30
0.0
 40
12.8
  1
効率
 50
0.0
 41
1.0
 51
0.0
  7
KANJI3
  0
TEXT
  8
10
  6
CONTINUOUS
 62
     3
 10
1354.04
 20
705.72
 30
0.0
 40
12.8
  1
ネジ軸回転防止
 50
0.0
 41
1.0
 51
0.0
  7
KANJI3
  0
TEXT
  8
10
  6
CONTINUOUS
 62
     3
 10
1354.04
 20
649.2
 30
0.0
 40
12.8
  1
潤滑
 50
0.0
 41
1.0
 51
0.0
  7
KANJI3
  0
TEXT
  8
10
  6
CONTINUOUS
 62
     3
 10
1354.04
 20
620.44
 30
0.0
 40
12.8
  1
塗装色
 50
0.0
 41
1.0
 51
0.0
  7
KANJI3
  0
TEXT
  8
10
  6
CONTINUOUS
 62
     3
 10
1353.64
 20
592.92
 30
0.0
 40
12.8
  1
付属品
 50
0.0
 41
1.0
 51
0.0
  7
KANJI3
  0
TEXT
  8
10
  6
CONTINUOUS
 62
     3
 10
1478.24
 20
927.76
 30
0.0
 40
12.8
  1
ＡＪ１０ＨＵＴ
 50
0.0
 41
0.71875
 51
0.0
  7
KANJI20
  0
TEXT
  8
10
  6
CONTINUOUS
 62
     3
 10
1486.24
 20
842.76
 30
0.0
 40
12.8
  1
ＴＭ５０　Ｐ１０
 50
0.0
 41
0.71875
 51
0.0
  7
KANJI20
  0
TEXT
  8
10
  6
CONTINUOUS
 62
     3
 10
1552.36
 20
761.48
 30
0.0
 40
12.8
  1
ｋｇ－ｍ
 50
0.0
 41
0.6875
 51
0.0
  7
KANJI21
  0
TEXT
  8
10
  6
CONTINUOUS
 62
     3
 10
1563.72
 20
732.2
 30
0.0
 40
12.8
  1
％
 50
0.0
 41
1.0
 51
0.0
  7
KANJI3
  0
TEXT
  8
10
  6
CONTINUOUS
 62
     3
 10
1519.44
 20
705.4
 30
0.0
 40
12.8
  1
無し
 50
0.0
 41
0.71875
 51
0.0
  7
KANJI20
  0
TEXT
  8
10
  6
CONTINUOUS
 62
     3
 10
1486.24
 20
648.48
 30
0.0
 40
12.8
  1
グリース方式
 50
0.0
 41
0.71875
 51
0.0
  7
KANJI20
  0
TEXT
  8
10
  6
CONTINUOUS
 62
     3
 10
1477.24
 20
620.28
 30
0.0
 40
12.8
  1
マンセル　７．５ＧＹ　５／４．５
 50
0.0
 41
0.5625
 51
0.0
  7
KANJI22
  0
TEXT
  8
10
  6
CONTINUOUS
 62
     3
 10
1487.44
 20
591.16
 30
0.0
 40
12.8
  1
入力キー
 50
0.0
 41
0.71875
 51
0.0
  7
KANJI20
  0
TEXT
  8
10
  6
CONTINUOUS
 62
     3
 10
1552.0
 20
677.68
 30
0.0
 40
12.8
  1
ｋｇ－ｍ
 50
0.0
 41
0.6875
 51
0.0
  7
KANJI21
  0
TEXT
  8
10
  6
CONTINUOUS
 62
     3
 10
1561.64
 20
816.32
 30
0.0
 40
12.8
  1
ｍｍ
 50
0.0
 41
0.6875
 51
0.0
  7
KANJI21
  0
TEXT
  8
10
  6
CONTINUOUS
 62
     3
 10
1354.44
 20
536.16
 30
0.0
 40
12.8
  1
台数
 50
0.0
 41
1.0
 51
0.0
  7
KANJI3
  0
TEXT
  8
10
  6
CONTINUOUS
 62
     3
 10
1354.44
 20
872.76
 30
0.0
 40
12.8
  1
ストローク
 50
0.0
 41
1.0
 51
0.0
  7
KANJI3
  0
TEXT
  8
10
  6
CONTINUOUS
 62
     3
 10
1561.8
 20
873.52
 30
0.0
 40
12.8
  1
ｍｍ
 50
0.0
 41
0.6875
 51
0.0
  7
KANJI21
  0
TEXT
  8
10
  6
CONTINUOUS
 62
     3
 10
1357.12
 20
761.32
 30
0.0
 40
12.8
  1
入力トルク（許容荷重時）
 50
0.0
 41
0.65625
 51
0.0
  7
KANJI19
  0
TEXT
  8
10
  6
CONTINUOUS
 62
     3
 10
1354.92
 20
677.12
 30
0.0
 40
12.8
  1
発生ネジ軸トルク
 50
0.0
 41
1.0
 51
0.0
  7
KANJI3
  0
TEXT
  8
10
  6
CONTINUOUS
 62
     3
 10
1517.84
 20
815.04
 30
0.0
 40
12.8
  1
１．２５
 50
0.0
 41
0.71875
 51
0.0
  7
KANJI20
  0
TEXT
  8
10
  6
CONTINUOUS
 62
     3
 10
1518.24
 20
787.16
 30
0.0
 40
12.8
  1
８
 50
0.0
 41
0.71875
 51
0.0
  7
KANJI20
  0
TEXT
  8
10
  6
CONTINUOUS
 62
     3
 10
1508.24
 20
733.24
 30
0.0
 40
12.8
  1
２１
 50
0.0
 41
0.71875
 51
0.0
  7
KANJI20
  0
TEXT
  8
10
  6
CONTINUOUS
 62
     3
 10
1508.24
 20
759.24
 30
0.0
 40
12.8
  1
１０
 50
0.0
 41
0.71875
 51
0.0
  7
KANJI20
  0
TEXT
  8
10
  6
CONTINUOUS
 62
     3
 10
1508.24
 20
676.44
 30
0.0
 40
12.8
  1
４６
 50
0.0
 41
0.71875
 51
0.0
  7
KANJI20
  0
TEXT
  8
10
  6
CONTINUOUS
 62
     3
 10
1490.24
 20
899.44
 30
0.0
 40
12.8
  1
９８ＫＮ（１０ｔｏｎ）
 50
0.0
 41
0.71875
 51
0.0
  7
KANJI20
  0
LINE
  8
10
  6
CONTINUOUS
 62
     2
 10
1350.84
 20
528.96
 30
0.0
 11
1350.84
 21
988.96
 31
0.0
  0
TEXT
  8
10
  6
CONTINUOUS
 62
     2
 10
1383.5200008
 20
959.16
 30
0.0
 40
18.0
  1
マイティジャッキ仕様
 50
0.0
 41
0.8888888
 51
0.0
  7
KANJI23
  0
LINE
  8
10
  6
CONTINUOUS
 62
     2
 10
1470.84
 20
528.96
 30
0.0
 11
1470.84
 21
948.96
 31
0.0
  0
LINE
  8
10
  6
CONTINUOUS
 62
     2
 10
1350.84
 20
988.96
 30
0.0
 11
1606.3639684
 21
988.96
 31
0.0
  0
LINE
  8
10
  6
CONTINUOUS
 62
     2
 10
1350.84
 20
948.96
 30
0.0
 11
1606.3639684
 21
948.96
 31
0.0
  0
LINE
  8
10
  6
CONTINUOUS
 62
     2
 10
1350.84
 20
920.96
 30
0.0
 11
1606.3639684
 21
920.96
 31
0.0
  0
LINE
  8
10
  6
CONTINUOUS
 62
     2
 10
1350.84
 20
892.96
 30
0.0
 11
1606.3639684
 21
892.96
 31
0.0
  0
LINE
  8
10
  6
CONTINUOUS
 62
     2
 10
1350.84
 20
864.96
 30
0.0
 11
1606.3639684
 21
864.96
 31
0.0
  0
LINE
  8
10
  6
CONTINUOUS
 62
     2
 10
1350.84
 20
836.96
 30
0.0
 11
1606.3639684
 21
836.96
 31
0.0
  0
LINE
  8
10
  6
CONTINUOUS
 62
     2
 10
1350.84
 20
808.96
 30
0.0
 11
1606.3639684
 21
808.96
 31
0.0
  0
LINE
  8
10
  6
CONTINUOUS
 62
     2
 10
1350.84
 20
780.96
 30
0.0
 11
1606.3639684
 21
780.96
 31
0.0
  0
LINE
  8
10
  6
CONTINUOUS
 62
     2
 10
1350.84
 20
752.96
 30
0.0
 11
1606.3639684
 21
752.96
 31
0.0
  0
LINE
  8
10
  6
CONTINUOUS
 62
     2
 10
1350.84
 20
724.96
 30
0.0
 11
1606.3639684
 21
724.96
 31
0.0
  0
LINE
  8
10
  6
CONTINUOUS
 62
     2
 10
1350.84
 20
696.96
 30
0.0
 11
1606.3639684
 21
696.96
 31
0.0
  0
LINE
  8
10
  6
CONTINUOUS
 62
     2
 10
1350.84
 20
668.96
 30
0.0
 11
1606.3639684
 21
668.96
 31
0.0
  0
LINE
  8
10
  6
CONTINUOUS
 62
     2
 10
1350.84
 20
640.96
 30
0.0
 11
1606.3639684
 21
640.96
 31
0.0
  0
LINE
  8
10
  6
CONTINUOUS
 62
     2
 10
1350.84
 20
612.96
 30
0.0
 11
1606.3639684
 21
612.96
 31
0.0
  0
LINE
  8
10
  6
CONTINUOUS
 62
     2
 10
1350.84
 20
584.96
 30
0.0
 11
1606.3639684
 21
584.96
 31
0.0
  0
LINE
  8
10
  6
CONTINUOUS
 62
     2
 10
1350.84
 20
556.96
 30
0.0
 11
1606.3639684
 21
556.96
 31
0.0
  0
LINE
  8
10
  6
CONTINUOUS
 62
     2
 10
1350.84
 20
528.96
 30
0.0
 11
1606.3639684
 21
528.96
 31
0.0
  0
TEXT
  8
0
  6
CONTINUOUS
 62
     3
 10
228.3639684
 20
13.6560152
 30
0.0
 40
12.0
  1
ＦＤ　Ｎｏ．ＡＪ９
 50
0.0
 41
0.9
 51
0.0
  7
KANJI18
  0
TEXT
  8
0
  6
CONTINUOUS
 62
     2
 10
1298.1839684
 20
93.6560152
 30
10.0
 40
16.8
  1
Ａ３００１０３５
 50
0.0
 41
0.857142857
 51
0.0
  7
KANJI24
  0
TEXT
  8
0
  6
CONTINUOUS
 62
     3
 10
1244.364
 20
157.456
 30
0.0
 40
12.0
  1
ＡＪ１０ＨＵＴ
 50
0.0
 41
0.9
 51
0.0
  7
KANJI18
  0
TEXT
  8
0
  6
CONTINUOUS
 62
     2
 10
1099.3639684
 20
78.6560152
 30
0.8
 40
14.0
  1
９９．０１．１８
 50
0.0
 41
0.628571429
 51
0.0
  7
KANJI25
  0
TEXT
  8
0
  6
CONTINUOUS
 62
     3
 10
1144.3639684
 20
48.6560152
 30
1.2
 40
18.0
  1
１／４
 50
0.0
 41
0.666666667
 51
0.0
  7
KANJI26
  0
TEXT
  8
0
  6
CONTINUOUS
 62
     2
 10
1111.0639684
 20
103.6560152
 30
4.0
 40
14.0
  1
信野（Ｍ）
 50
0.0
 41
0.9
 51
0.0
  7
KANJI27
  0
TEXT
  8
0
  6
CONTINUOUS
 62
     2
 10
1113.7
 20
159.1
 30
4.0
 40
14.0
  1
田口
 50
0.0
 41
0.914285714
 51
0.0
  7
KANJI28
  0
LINE
  8
0
  6
CONTINUOUS
 62
     4
 10
809.897363
 20
94.3893444
 30
0.0
 11
798.6306972
 21
77.0560124
 31
0.0
  0
LINE
  8
0
  6
CONTINUOUS
 62
     4
 10
809.897363
 20
94.3893444
 30
0.0
 11
821.1640288
 21
77.0560124
 31
0.0
  0
LINE
  8
0
  6
CONTINUOUS
 62
     4
 10
798.6306972
 20
77.0560124
 30
0.0
 11
821.1640288
 21
77.0560124
 31
0.0
  0
TEXT
  8
0
  6
CONTINUOUS
 62
     2
 10
806.1306952
 20
76.8560128
 30
0.0
 40
12.0
  1
１
 50
0.0
 41
0.9
 51
0.0
  7
KANJI18
  0
TEXT
  8
0
  6
CONTINUOUS
 62
     2
 10
827.2306952
 20
76.4560128
 30
0.0
 40
12.0
  1
２００２．０４．３０　岡田　寸法変更
 50
0.0
 41
0.9
 51
0.0
  7
KANJI18
  0
LINE
  8
0
  6
CONTINUOUS
 62
     4
 10
809.897363
 20
115.0893444
 30
0.0
 11
798.6306972
 21
97.7560124
 31
0.0
  0
LINE
  8
0
  6
CONTINUOUS
 62
     4
 10
809.897363
 20
115.0893444
 30
0.0
 11
821.1640288
 21
97.7560124
 31
0.0
  0
LINE
  8
0
  6
CONTINUOUS
 62
     4
 10
798.6306972
 20
97.7560124
 30
0.0
 11
821.1640288
 21
97.7560124
 31
0.0
  0
TEXT
  8
0
  6
CONTINUOUS
 62
     2
 10
806.1306952
 20
97.5560128
 30
0.0
 40
12.0
  1
２
 50
0.0
 41
0.9
 51
0.0
  7
KANJI18
  0
LINE
  8
0
  6
LTYPE2
 62
     2
 10
709.98
 20
889.72
 30
0.0
 11
1200.33
 21
889.72
 31
0.0
  0
LINE
  8
0
  6
LTYPE2
 62
     2
 10
1164.66
 20
838.72
 30
0.0
 11
1182.77
 21
838.72
 31
0.0
  0
LINE
  8
0
  6
LTYPE2
 62
     2
 10
1164.66
 20
940.72
 30
0.0
 11
1182.77
 21
940.72
 31
0.0
  0
LINE
  8
0
  6
LTYPE2
 62
     2
 10
1143.22
 20
761.73
 30
0.0
 11
1168.97
 21
761.73
 31
0.0
  0
LINE
  8
0
  6
LTYPE2
 62
     2
 10
1041.94
 20
823.72
 30
0.0
 11
1170.13
 21
823.72
 31
0.0
  0
LINE
  8
0
  6
LTYPE2
 62
     2
 10
1100.8
 20
761.14
 30
0.0
 11
1100.8
 21
993.75
 31
0.0
  0
ARC
  8
0
  6
LTYPE2
 62
     2
 10
1100.8
 20
823.72
 30
0.0
 40
40.0
 50
180.0
 51
0.0
  0
LINE
  8
0
  6
CONTINUOUS
 62
     2
 10
1035.41
 20
805.72
 30
0.0
 11
1035.41
 21
821.72
 31
0.0
  0
LINE
  8
0
  6
LTYPE2
 62
     2
 10
1032.05
 20
813.72
 30
0.0
 11
1059.41
 21
813.72
 31
0.0
  0
CIRCLE
  8
0
  6
CONTINUOUS
 62
     2
 10
1072.52
 20
795.45
 30
0.0
 40
7.39
  0
LINE
  8
0
  6
LTYPE2
 62
     2
 10
1065.44
 20
788.36
 30
0.0
 11
1080.11
 21
803.03
 31
0.0
  0
ARC
  8
0
  6
CONTINUOUS
 62
     2
 10
1060.8
 20
823.72
 30
0.0
 40
7.39
 50
180.0
 51
0.0
  0
LINE
  8
0
  6
LTYPE2
 62
     2
 10
1121.52
 20
803.03
 30
0.0
 11
1136.16
 21
788.36
 31
0.0
  0
CIRCLE
  8
0
  6
CONTINUOUS
 62
     2
 10
1129.11
 20
795.45
 30
0.0
 40
7.39
  0
ARC
  8
0
  6
CONTINUOUS
 62
     2
 10
1140.8
 20
823.72
 30
0.0
 40
7.39
 50
180.0
 51
0.0
  0
LINE
  8
0
  6
CONTINUOUS
 62
     2
 10
1180.41
 20
833.72
 30
0.0
 11
1180.41
 21
843.72
 31
0.0
  0
LINE
  8
0
  6
CONTINUOUS
 62
     2
 10
1180.41
 20
935.72
 30
0.0
 11
1180.41
 21
945.72
 31
0.0
  0
LINE
  8
0
  6
CONTINUOUS
 62
     2
 10
770.2
 20
909.47
 30
0.0
 11
842.64
 21
909.47
 31
0.0
  0
LINE
  8
0
  6
CONTINUOUS
 62
     2
 10
770.2
 20
869.97
 30
0.0
 11
842.64
 21
869.97
 31
0.0
  0
CIRCLE
  8
0
  6
CONTINUOUS
 62
     2
 10
867.28
 20
889.72
 30
0.0
 40
7.58
  0
LINE
  8
0
  6
LTYPE2
 62
     2
 10
867.28
 20
872.42
 30
0.0
 11
867.28
 21
907.0
 31
0.0
  0
LINE
  8
0
  6
LTYPE2
 62
     2
 10
896.11
 20
952.22
 30
0.0
 11
936.69
 21
952.22
 31
0.0
  0
LINE
  8
0
  6
LTYPE2
 62
     2
 10
896.11
 20
827.22
 30
0.0
 11
936.69
 21
827.22
 31
0.0
  0
LINE
  8
0
  6
CONTINUOUS
 62
     2
 10
1166.8
 20
638.4
 30
0.0
 11
1166.8
 21
735.28
 31
0.0
  0
ARC
  8
0
  6
LTYPE2
 62
     2
 10
1100.8
 20
823.72
 30
0.0
 40
40.0
 50
0.0
 51
180.0
  0
LINE
  8
0
  6
LTYPE2
 62
     2
 10
1121.52
 20
844.42
 30
0.0
 11
1136.16
 21
859.08
 31
0.0
  0
ARC
  8
0
  6
CONTINUOUS
 62
     2
 10
1140.8
 20
823.72
 30
0.0
 40
7.39
 50
0.0
 51
180.0
  0
LINE
  8
0
  6
LTYPE2
 62
     2
 10
1065.44
 20
859.08
 30
0.0
 11
1080.11
 21
844.42
 31
0.0
  0
CIRCLE
  8
0
  6
CONTINUOUS
 62
     2
 10
1072.52
 20
852.0
 30
0.0
 40
7.39
  0
ARC
  8
0
  6
CONTINUOUS
 62
     2
 10
1060.8
 20
823.72
 30
0.0
 40
7.39
 50
0.0
 51
180.0
  0
LINE
  8
0
  6
CONTINUOUS
 62
     2
 10
842.64
 20
1049.72
 30
0.0
 11
932.64
 21
1049.72
 31
0.0
  0
LINE
  8
0
  6
CONTINUOUS
 62
     2
 10
932.64
 20
973.72
 30
0.0
 11
932.64
 21
1055.72
 31
0.0
  0
LINE
  8
0
  6
CONTINUOUS
 62
     2
 10
842.64
 20
933.72
 30
0.0
 11
842.64
 21
1055.72
 31
0.0
  0
LINE
  8
0
  6
CONTINUOUS
 62
     2
 10
924.64
 20
1047.5564
 30
0.0
 11
932.64
 21
1049.7
 31
0.0
  0
LINE
  8
0
  6
CONTINUOUS
 62
     2
 10
932.64
 20
1049.7
 30
0.0
 11
924.64
 21
1051.8432
 31
0.0
  0
LINE
  8
0
  6
CONTINUOUS
 62
     2
 10
850.64
 20
1051.8432
 30
0.0
 11
842.64
 21
1049.7
 31
0.0
  0
LINE
  8
0
  6
CONTINUOUS
 62
     2
 10
842.64
 20
1049.7
 30
0.0
 11
850.64
 21
1047.5564
 31
0.0
  0
LINE
  8
0
  6
CONTINUOUS
 62
     2
 10
901.14
 20
1009.72
 30
0.0
 11
932.64
 21
1009.72
 31
0.0
  0
LINE
  8
0
  6
CONTINUOUS
 62
     2
 10
932.64
 20
973.72
 30
0.0
 11
932.64
 21
1015.72
 31
0.0
  0
LINE
  8
0
  6
CONTINUOUS
 62
     2
 10
901.14
 20
973.72
 30
0.0
 11
901.14
 21
1015.72
 31
0.0
  0
LINE
  8
0
  6
CONTINUOUS
 62
     2
 10
924.64
 20
1007.5564
 30
0.0
 11
932.64
 21
1009.7
 31
0.0
  0
LINE
  8
0
  6
CONTINUOUS
 62
     2
 10
932.64
 20
1009.7
 30
0.0
 11
924.64
 21
1011.8432
 31
0.0
  0
LINE
  8
0
  6
CONTINUOUS
 62
     2
 10
909.12
 20
1011.8432
 30
0.0
 11
901.12
 21
1009.7
 31
0.0
  0
LINE
  8
0
  6
CONTINUOUS
 62
     2
 10
901.12
 20
1009.7
 30
0.0
 11
909.12
 21
1007.5564
 31
0.0
  0
LINE
  8
0
  6
CONTINUOUS
 62
     2
 10
888.7
 20
827.22
 30
0.0
 11
888.7
 21
952.22
 31
0.0
  0
LINE
  8
0
  6
CONTINUOUS
 62
     2
 10
892.11
 20
952.22
 30
0.0
 11
882.7
 21
952.22
 31
0.0
  0
LINE
  8
0
  6
CONTINUOUS
 62
     2
 10
892.11
 20
827.22
 30
0.0
 11
882.7
 21
827.22
 31
0.0
  0
LINE
  8
0
  6
CONTINUOUS
 62
     2
 10
888.7
 20
968.22
 30
0.0
 11
888.7
 21
952.22
 31
0.0
  0
LINE
  8
0
  6
CONTINUOUS
 62
     2
 10
886.5364
 20
960.22
 30
0.0
 11
888.68
 21
952.22
 31
0.0
  0
LINE
  8
0
  6
CONTINUOUS
 62
     2
 10
888.68
 20
952.22
 30
0.0
 11
890.8232
 21
960.22
 31
0.0
  0
LINE
  8
0
  6
CONTINUOUS
 62
     2
 10
888.7
 20
827.22
 30
0.0
 11
888.7
 21
811.22
 31
0.0
  0
LINE
  8
0
  6
CONTINUOUS
 62
     2
 10
890.8232
 20
819.22
 30
0.0
 11
888.68
 21
827.22
 31
0.0
  0
LINE
  8
0
  6
CONTINUOUS
 62
     2
 10
888.68
 20
827.22
 30
0.0
 11
886.5364
 21
819.22
 31
0.0
  0
LINE
  8
0
  6
CONTINUOUS
 62
     2
 10
888.7
 20
811.22
 30
0.0
 11
888.7
 21
728.62
 31
0.0
  0
LINE
  8
0
  6
CONTINUOUS
 62
     2
 10
967.92
 20
809.72
 30
0.0
 11
967.92
 21
969.72
 31
0.0
  0
LINE
  8
0
  6
CONTINUOUS
 62
     2
 10
936.64
 20
969.72
 30
0.0
 11
973.92
 21
969.72
 31
0.0
  0
LINE
  8
0
  6
CONTINUOUS
 62
     2
 10
936.64
 20
809.72
 30
0.0
 11
973.92
 21
809.72
 31
0.0
  0
LINE
  8
0
  6
CONTINUOUS
 62
     2
 10
967.92
 20
985.72
 30
0.0
 11
967.92
 21
969.72
 31
0.0
  0
LINE
  8
0
  6
CONTINUOUS
 62
     2
 10
965.7764
 20
977.7
 30
0.0
 11
967.92
 21
969.7
 31
0.0
  0
LINE
  8
0
  6
CONTINUOUS
 62
     2
 10
967.92
 20
969.7
 30
0.0
 11
970.0632
 21
977.7
 31
0.0
  0
LINE
  8
0
  6
CONTINUOUS
 62
     2
 10
967.92
 20
809.72
 30
0.0
 11
967.92
 21
793.72
 31
0.0
  0
LINE
  8
0
  6
CONTINUOUS
 62
     2
 10
970.0632
 20
801.7
 30
0.0
 11
967.92
 21
809.7
 31
0.0
  0
LINE
  8
0
  6
CONTINUOUS
 62
     2
 10
967.92
 20
809.7
 30
0.0
 11
965.7764
 21
801.7
 31
0.0
  0
LINE
  8
0
  6
CONTINUOUS
 62
     2
 10
967.92
 20
793.72
 30
0.0
 11
967.92
 21
751.72
 31
0.0
  0
LINE
  8
0
  6
CONTINUOUS
 62
     2
 10
1178.8
 20
949.72
 30
0.0
 11
1282.8
 21
949.72
 31
0.0
  0
LINE
  8
0
  6
CONTINUOUS
 62
     2
 10
1178.8
 20
829.72
 30
0.0
 11
1282.8
 21
829.72
 31
0.0
  0
LINE
  8
0
  6
CONTINUOUS
 62
     2
 10
824.53
 20
849.72
 30
0.0
 11
824.53
 21
929.72
 31
0.0
  0
LINE
  8
0
  6
CONTINUOUS
 62
     2
 10
838.64
 20
929.72
 30
0.0
 11
818.53
 21
929.72
 31
0.0
  0
LINE
  8
0
  6
CONTINUOUS
 62
     2
 10
838.64
 20
849.72
 30
0.0
 11
818.53
 21
849.72
 31
0.0
  0
LINE
  8
0
  6
CONTINUOUS
 62
     2
 10
824.53
 20
945.72
 30
0.0
 11
824.53
 21
929.72
 31
0.0
  0
LINE
  8
0
  6
CONTINUOUS
 62
     2
 10
822.3764
 20
937.7
 30
0.0
 11
824.52
 21
929.7
 31
0.0
  0
LINE
  8
0
  6
CONTINUOUS
 62
     2
 10
824.52
 20
929.7
 30
0.0
 11
826.6632
 21
937.7
 31
0.0
  0
LINE
  8
0
  6
CONTINUOUS
 62
     2
 10
824.53
 20
849.72
 30
0.0
 11
824.53
 21
833.72
 31
0.0
  0
LINE
  8
0
  6
CONTINUOUS
 62
     2
 10
826.6632
 20
841.7
 30
0.0
 11
824.52
 21
849.7
 31
0.0
  0
LINE
  8
0
  6
CONTINUOUS
 62
     2
 10
824.52
 20
849.7
 30
0.0
 11
822.3764
 21
841.7
 31
0.0
  0
LINE
  8
0
  6
CONTINUOUS
 62
     2
 10
824.53
 20
833.72
 30
0.0
 11
824.53
 21
803.32
 31
0.0
  0
LINE
  8
0
  6
CONTINUOUS
 62
     2
 10
802.84
 20
864.72
 30
0.0
 11
802.84
 21
914.72
 31
0.0
  0
POINT
  8
0
  6
CONTINUOUS
 62
     2
 10
802.84
 20
914.72
 30
0.0
  0
POINT
  8
0
  6
CONTINUOUS
 62
     2
 10
802.84
 20
864.72
 30
0.0
  0
LINE
  8
0
  6
CONTINUOUS
 62
     2
 10
802.84
 20
930.72
 30
0.0
 11
802.84
 21
914.72
 31
0.0
  0
LINE
  8
0
  6
CONTINUOUS
 62
     2
 10
800.6968
 20
922.7
 30
0.0
 11
802.84
 21
914.7
 31
0.0
  0
LINE
  8
0
  6
CONTINUOUS
 62
     2
 10
802.84
 20
914.7
 30
0.0
 11
804.9836
 21
922.7
 31
0.0
  0
LINE
  8
0
  6
CONTINUOUS
 62
     2
 10
802.84
 20
864.72
 30
0.0
 11
802.84
 21
848.72
 31
0.0
  0
LINE
  8
0
  6
CONTINUOUS
 62
     2
 10
804.9836
 20
856.7
 30
0.0
 11
802.84
 21
864.7
 31
0.0
  0
LINE
  8
0
  6
CONTINUOUS
 62
     2
 10
802.84
 20
864.7
 30
0.0
 11
800.6968
 21
856.7
 31
0.0
  0
LINE
  8
0
  6
CONTINUOUS
 62
     2
 10
802.84
 20
848.72
 30
0.0
 11
802.84
 21
760.32
 31
0.0
  0
LINE
  8
0
  6
CONTINUOUS
 62
     2
 10
714.2
 20
814.14
 30
0.0
 11
770.2
 21
814.14
 31
0.0
  0
LINE
  8
0
  6
CONTINUOUS
 62
     2
 10
770.2
 20
860.72
 30
0.0
 11
770.2
 21
808.14
 31
0.0
  0
LINE
  8
0
  6
CONTINUOUS
 62
     2
 10
714.2
 20
870.22
 30
0.0
 11
714.2
 21
808.14
 31
0.0
  0
LINE
  8
0
  6
CONTINUOUS
 62
     2
 10
762.2
 20
811.9964
 30
0.0
 11
770.2
 21
814.14
 31
0.0
  0
LINE
  8
0
  6
CONTINUOUS
 62
     2
 10
770.2
 20
814.14
 30
0.0
 11
762.2
 21
816.2832
 31
0.0
  0
LINE
  8
0
  6
CONTINUOUS
 62
     2
 10
722.2
 20
816.2832
 30
0.0
 11
714.2
 21
814.14
 31
0.0
  0
LINE
  8
0
  6
CONTINUOUS
 62
     2
 10
714.2
 20
814.14
 30
0.0
 11
722.2
 21
811.9964
 31
0.0
  0
LINE
  8
0
  6
CONTINUOUS
 62
     2
 10
674.2
 20
872.22
 30
0.0
 11
674.2
 21
907.22
 31
0.0
  0
LINE
  8
0
  6
CONTINUOUS
 62
     2
 10
712.2
 20
907.22
 30
0.0
 11
668.2
 21
907.22
 31
0.0
  0
LINE
  8
0
  6
CONTINUOUS
 62
     2
 10
712.2
 20
872.22
 30
0.0
 11
668.2
 21
872.22
 31
0.0
  0
LINE
  8
0
  6
CONTINUOUS
 62
     2
 10
676.3436
 20
899.22
 30
0.0
 11
674.2
 21
907.22
 31
0.0
  0
LINE
  8
0
  6
CONTINUOUS
 62
     2
 10
674.2
 20
907.22
 30
0.0
 11
672.0568
 21
899.22
 31
0.0
  0
LINE
  8
0
  6
CONTINUOUS
 62
     2
 10
672.0568
 20
880.22
 30
0.0
 11
674.2
 21
872.22
 31
0.0
  0
LINE
  8
0
  6
CONTINUOUS
 62
     2
 10
674.2
 20
872.22
 30
0.0
 11
676.3436
 21
880.22
 31
0.0
  0
LINE
  8
0
  6
CONTINUOUS
 62
     2
 10
1166.8
 20
541.08
 30
0.0
 11
1196.8
 21
541.08
 31
0.0
  0
LINE
  8
0
  6
CONTINUOUS
 62
     2
 10
1196.8
 20
847.56
 30
0.0
 11
1196.8
 21
535.08
 31
0.0
  0
LINE
  8
0
  6
CONTINUOUS
 62
     2
 10
1166.8
 20
735.73
 30
0.0
 11
1166.8
 21
535.08
 31
0.0
  0
LINE
  8
0
  6
CONTINUOUS
 62
     2
 10
1188.8
 20
538.9568
 30
0.0
 11
1196.8
 21
541.1
 31
0.0
  0
LINE
  8
0
  6
CONTINUOUS
 62
     2
 10
1196.8
 20
541.1
 30
0.0
 11
1188.8
 21
543.2436
 31
0.0
  0
LINE
  8
0
  6
CONTINUOUS
 62
     2
 10
1174.8
 20
543.2436
 30
0.0
 11
1166.8
 21
541.1
 31
0.0
  0
LINE
  8
0
  6
CONTINUOUS
 62
     2
 10
1166.8
 20
541.1
 30
0.0
 11
1174.8
 21
538.9568
 31
0.0
  0
LINE
  8
0
  6
CONTINUOUS
 62
     2
 10
714.2
 20
539.73
 30
0.0
 11
1166.8
 21
539.73
 31
0.0
  0
LINE
  8
0
  6
CONTINUOUS
 62
     2
 10
1166.8
 20
735.73
 30
0.0
 11
1166.8
 21
533.73
 31
0.0
  0
LINE
  8
0
  6
CONTINUOUS
 62
     2
 10
714.2
 20
870.22
 30
0.0
 11
714.2
 21
533.73
 31
0.0
  0
LINE
  8
0
  6
CONTINUOUS
 62
     2
 10
1158.8
 20
537.5968
 30
0.0
 11
1166.8
 21
539.74
 31
0.0
  0
LINE
  8
0
  6
CONTINUOUS
 62
     2
 10
1166.8
 20
539.74
 30
0.0
 11
1158.8
 21
541.8836
 31
0.0
  0
LINE
  8
0
  6
CONTINUOUS
 62
     2
 10
722.2
 20
541.8836
 30
0.0
 11
714.2
 21
539.74
 31
0.0
  0
LINE
  8
0
  6
CONTINUOUS
 62
     2
 10
714.2
 20
539.74
 30
0.0
 11
722.2
 21
537.5968
 31
0.0
  0
LINE
  8
0
  6
CONTINUOUS
 62
     2
 10
1146.8
 20
699.73
 30
0.0
 11
1166.8
 21
699.73
 31
0.0
  0
LINE
  8
0
  6
CONTINUOUS
 62
     2
 10
1166.8
 20
735.73
 30
0.0
 11
1166.8
 21
693.73
 31
0.0
  0
LINE
  8
0
  6
CONTINUOUS
 62
     2
 10
1146.8
 20
739.28
 30
0.0
 11
1146.8
 21
693.73
 31
0.0
  0
LINE
  8
0
  6
CONTINUOUS
 62
     2
 10
1182.8
 20
699.73
 30
0.0
 11
1166.8
 21
699.73
 31
0.0
  0
LINE
  8
0
  6
CONTINUOUS
 62
     2
 10
1174.8
 20
701.8432
 30
0.0
 11
1166.8
 21
699.7
 31
0.0
  0
LINE
  8
0
  6
CONTINUOUS
 62
     2
 10
1166.8
 20
699.7
 30
0.0
 11
1174.8
 21
697.5564
 31
0.0
  0
LINE
  8
0
  6
CONTINUOUS
 62
     2
 10
1146.8
 20
699.73
 30
0.0
 11
1130.8
 21
699.73
 31
0.0
  0
LINE
  8
0
  6
CONTINUOUS
 62
     2
 10
1138.8
 20
697.5564
 30
0.0
 11
1146.8
 21
699.7
 31
0.0
  0
LINE
  8
0
  6
CONTINUOUS
 62
     2
 10
1146.8
 20
699.7
 30
0.0
 11
1138.8
 21
701.8432
 31
0.0
  0
LINE
  8
0
  6
CONTINUOUS
 62
     2
 10
1130.8
 20
699.73
 30
0.0
 11
1112.0
 21
699.73
 31
0.0
  0
LINE
  8
0
  6
CONTINUOUS
 62
     2
 10
1056.8
 20
619.73
 30
0.0
 11
1166.8
 21
619.73
 31
0.0
  0
LINE
  8
0
  6
CONTINUOUS
 62
     2
 10
1166.8
 20
735.73
 30
0.0
 11
1166.8
 21
613.73
 31
0.0
  0
LINE
  8
0
  6
CONTINUOUS
 62
     2
 10
1056.8
 20
796.72
 30
0.0
 11
1056.8
 21
613.73
 31
0.0
  0
LINE
  8
0
  6
CONTINUOUS
 62
     2
 10
1158.8
 20
617.5968
 30
0.0
 11
1166.8
 21
619.74
 31
0.0
  0
LINE
  8
0
  6
CONTINUOUS
 62
     2
 10
1166.8
 20
619.74
 30
0.0
 11
1158.8
 21
621.8836
 31
0.0
  0
LINE
  8
0
  6
CONTINUOUS
 62
     2
 10
1064.8
 20
621.8836
 30
0.0
 11
1056.8
 21
619.74
 31
0.0
  0
LINE
  8
0
  6
CONTINUOUS
 62
     2
 10
1056.8
 20
619.74
 30
0.0
 11
1064.8
 21
617.5968
 31
0.0
  0
LINE
  8
0
  6
CONTINUOUS
 62
     2
 10
1166.8
 20
735.73
 30
0.0
 11
1166.8
 21
573.73
 31
0.0
  0
LINE
  8
0
  6
CONTINUOUS
 62
     2
 10
1100.8
 20
656.43
 30
0.0
 11
1166.8
 21
656.43
 31
0.0
  0
LINE
  8
0
  6
CONTINUOUS
 62
     2
 10
1166.8
 20
735.73
 30
0.0
 11
1166.8
 21
650.43
 31
0.0
  0
LINE
  8
0
  6
CONTINUOUS
 62
     2
 10
1100.8
 20
757.14
 30
0.0
 11
1100.8
 21
650.43
 31
0.0
  0
LINE
  8
0
  6
CONTINUOUS
 62
     2
 10
1158.8
 20
654.2764
 30
0.0
 11
1166.8
 21
656.42
 31
0.0
  0
LINE
  8
0
  6
CONTINUOUS
 62
     2
 10
1166.8
 20
656.42
 30
0.0
 11
1158.8
 21
658.5632
 31
0.0
  0
LINE
  8
0
  6
CONTINUOUS
 62
     2
 10
1108.8
 20
658.5632
 30
0.0
 11
1100.8
 21
656.42
 31
0.0
  0
LINE
  8
0
  6
CONTINUOUS
 62
     2
 10
1100.8
 20
656.42
 30
0.0
 11
1108.8
 21
654.2764
 31
0.0
  0
LINE
  8
0
  6
CONTINUOUS
 62
     2
 10
932.64
 20
952.22
 30
0.0
 11
967.82
 21
999.72
 31
0.0
  0
LINE
  8
0
  6
CONTINUOUS
 62
     2
 10
935.6784
 20
959.9244
 30
0.0
 11
932.64
 21
952.22
 31
0.0
  0
LINE
  8
0
  6
CONTINUOUS
 62
     2
 10
932.64
 20
952.22
 30
0.0
 11
939.1236
 21
957.3728
 31
0.0
  0
LINE
  8
0
  6
CONTINUOUS
 62
     2
 10
967.82
 20
999.72
 30
0.0
 11
1025.82
 21
999.72
 31
0.0
  0
LINE
  8
0
  6
CONTINUOUS
 62
     2
 10
863.26
 20
883.29
 30
0.0
 11
819.89
 21
699.73
 31
0.0
  0
LINE
  8
0
  6
CONTINUOUS
 62
     2
 10
863.4864
 20
874.9812
 30
0.0
 11
863.24
 21
883.26
 31
0.0
  0
LINE
  8
0
  6
CONTINUOUS
 62
     2
 10
863.24
 20
883.26
 30
0.0
 11
859.314
 21
875.9672
 31
0.0
  0
LINE
  8
0
  6
CONTINUOUS
 62
     2
 10
819.89
 20
699.73
 30
0.0
 11
727.09
 21
699.73
 31
0.0
  0
LINE
  8
0
  6
CONTINUOUS
 62
     2
 10
1236.8
 20
851.71
 30
0.0
 11
1236.8
 21
927.71
 31
0.0
  0
LINE
  8
0
  6
CONTINUOUS
 62
     2
 10
1200.8
 20
927.71
 30
0.0
 11
1242.8
 21
927.71
 31
0.0
  0
LINE
  8
0
  6
CONTINUOUS
 62
     2
 10
1200.8
 20
851.71
 30
0.0
 11
1242.8
 21
851.71
 31
0.0
  0
LINE
  8
0
  6
CONTINUOUS
 62
     2
 10
1238.9432
 20
919.7
 30
0.0
 11
1236.8
 21
927.7
 31
0.0
  0
LINE
  8
0
  6
CONTINUOUS
 62
     2
 10
1236.8
 20
927.7
 30
0.0
 11
1234.6564
 21
919.7
 31
0.0
  0
LINE
  8
0
  6
CONTINUOUS
 62
     2
 10
1234.6564
 20
859.7
 30
0.0
 11
1236.8
 21
851.7
 31
0.0
  0
LINE
  8
0
  6
CONTINUOUS
 62
     2
 10
1236.8
 20
851.7
 30
0.0
 11
1238.9432
 21
859.7
 31
0.0
  0
LINE
  8
0
  6
LTYPE2
 62
     2
 10
307.84
 20
889.72
 30
0.0
 11
492.33
 21
889.72
 31
0.0
  0
LINE
  8
0
  6
LTYPE2
 62
     2
 10
399.87
 20
733.45
 30
0.0
 11
399.87
 21
980.88
 31
0.0
  0
LINE
  8
0
  6
LTYPE2
 62
     2
 10
326.87
 20
739.28
 30
0.0
 11
326.87
 21
784.17
 31
0.0
  0
LINE
  8
0
  6
LTYPE2
 62
     2
 10
304.42
 20
761.72
 30
0.0
 11
349.31
 21
761.72
 31
0.0
  0
LINE
  8
0
  6
LTYPE2
 62
     2
 10
450.42
 20
761.72
 30
0.0
 11
495.31
 21
761.72
 31
0.0
  0
LINE
  8
0
  6
LTYPE2
 62
     2
 10
472.86
 20
739.28
 30
0.0
 11
472.86
 21
784.17
 31
0.0
  0
LINE
  8
0
  6
LTYPE2
 62
     2
 10
367.17
 20
968.69
 30
0.0
 11
374.64
 21
950.66
 31
0.0
  0
LINE
  8
0
  6
LTYPE2
 62
     2
 10
320.9
 20
922.41
 30
0.0
 11
338.92
 21
914.94
 31
0.0
  0
LINE
  8
0
  6
LTYPE2
 62
     2
 10
460.81
 20
914.94
 30
0.0
 11
478.84
 21
922.41
 31
0.0
  0
LINE
  8
0
  6
LTYPE2
 62
     2
 10
425.11
 20
950.66
 30
0.0
 11
432.59
 21
968.69
 31
0.0
  0
CIRCLE
  8
0
  6
CONTINUOUS
 62
     2
 10
329.64
 20
918.8
 30
0.0
 40
7.39
  0
CIRCLE
  8
0
  6
CONTINUOUS
 62
     2
 10
370.78
 20
959.91
 30
0.0
 40
7.39
  0
CIRCLE
  8
0
  6
CONTINUOUS
 62
     2
 10
428.95
 20
959.91
 30
0.0
 40
7.39
  0
CIRCLE
  8
0
  6
CONTINUOUS
 62
     2
 10
470.09
 20
918.8
 30
0.0
 40
7.39
  0
ARC
  8
0
  6
LTYPE2
 62
     2
 10
399.87
 20
889.72
 30
0.0
 40
76.0
 50
13.374337
 51
30.897823
  0
ARC
  8
0
  6
LTYPE2
 62
     2
 10
399.87
 20
889.72
 30
0.0
 40
76.0
 50
58.759516
 51
75.614485
  0
ARC
  8
0
  6
LTYPE2
 62
     2
 10
399.87
 20
889.72
 30
0.0
 40
76.0
 50
103.83507
 51
120.90944
  0
ARC
  8
0
  6
LTYPE2
 62
     2
 10
399.87
 20
889.72
 30
0.0
 40
76.0
 50
148.39496
 51
166.9274
  0
LINE
  8
0
  6
LTYPE2
 62
     2
 10
471.75
 20
863.72
 30
0.0
 11
493.2
 21
863.72
 31
0.0
  0
LINE
  8
0
  6
LTYPE2
 62
     2
 10
256.87
 20
823.72
 30
0.0
 11
542.22
 21
823.72
 31
0.0
  0
LINE
  8
0
  6
LTYPE2
 62
     2
 10
306.9
 20
863.72
 30
0.0
 11
326.23
 21
863.72
 31
0.0
  0
LINE
  8
0
  6
LTYPE2
 62
     2
 10
472.09
 20
941.72
 30
0.0
 11
495.31
 21
941.72
 31
0.0
  0
LINE
  8
0
  6
LTYPE2
 62
     2
 10
472.86
 20
940.64
 30
0.0
 11
472.86
 21
964.16
 31
0.0
  0
LINE
  8
0
  6
LTYPE2
 62
     2
 10
304.42
 20
941.72
 30
0.0
 11
327.65
 21
941.72
 31
0.0
  0
LINE
  8
0
  6
LTYPE2
 62
     2
 10
326.87
 20
940.64
 30
0.0
 11
326.87
 21
964.16
 31
0.0
  0
ARC
  8
0
  6
LTYPE2
 62
     2
 10
399.87
 20
889.72
 30
0.0
 40
76.0
 50
239.10217
 51
256.16853
  0
CIRCLE
  8
0
  6
CONTINUOUS
 62
     2
 10
370.78
 20
819.5
 30
0.0
 40
7.39
  0
LINE
  8
0
  6
LTYPE2
 62
     2
 10
367.17
 20
810.75
 30
0.0
 11
374.64
 21
828.78
 31
0.0
  0
ARC
  8
0
  6
LTYPE2
 62
     2
 10
399.87
 20
889.72
 30
0.0
 40
76.0
 50
284.37989
 51
301.22875
  0
CIRCLE
  8
0
  6
CONTINUOUS
 62
     2
 10
428.95
 20
819.5
 30
0.0
 40
7.39
  0
LINE
  8
0
  6
LTYPE2
 62
     2
 10
425.11
 20
828.78
 30
0.0
 11
432.59
 21
810.75
 31
0.0
  0
ARC
  8
0
  6
LTYPE2
 62
     2
 10
399.87
 20
889.72
 30
0.0
 40
76.0
 50
329.08924
 51
346.60366
  0
CIRCLE
  8
0
  6
CONTINUOUS
 62
     2
 10
470.09
 20
860.64
 30
0.0
 40
7.39
  0
LINE
  8
0
  6
LTYPE2
 62
     2
 10
460.81
 20
864.47
 30
0.0
 11
478.84
 21
857.0
 31
0.0
  0
ARC
  8
0
  6
LTYPE2
 62
     2
 10
399.87
 20
889.72
 30
0.0
 40
76.0
 50
193.07259
 51
211.60503
  0
CIRCLE
  8
0
  6
CONTINUOUS
 62
     2
 10
329.64
 20
860.64
 30
0.0
 40
7.39
  0
LINE
  8
0
  6
LTYPE2
 62
     2
 10
320.9
 20
857.0
 30
0.0
 11
338.92
 21
864.47
 31
0.0
  0
LINE
  8
0
  6
CONTINUOUS
 62
     2
 10
326.87
 20
1008.72
 30
0.0
 11
472.86
 21
1008.72
 31
0.0
  0
LINE
  8
0
  6
CONTINUOUS
 62
     2
 10
472.86
 20
968.16
 30
0.0
 11
472.86
 21
1014.72
 31
0.0
  0
LINE
  8
0
  6
CONTINUOUS
 62
     2
 10
326.87
 20
967.72
 30
0.0
 11
326.87
 21
1014.72
 31
0.0
  0
LINE
  8
0
  6
CONTINUOUS
 62
     2
 10
464.88
 20
1006.5564
 30
0.0
 11
472.88
 21
1008.7
 31
0.0
  0
LINE
  8
0
  6
CONTINUOUS
 62
     2
 10
472.88
 20
1008.7
 30
0.0
 11
464.88
 21
1010.8432
 31
0.0
  0
LINE
  8
0
  6
CONTINUOUS
 62
     2
 10
334.88
 20
1010.8432
 30
0.0
 11
326.88
 21
1008.7
 31
0.0
  0
LINE
  8
0
  6
CONTINUOUS
 62
     2
 10
326.88
 20
1008.7
 30
0.0
 11
334.88
 21
1006.5564
 31
0.0
  0
LINE
  8
0
  6
CONTINUOUS
 62
     2
 10
304.87
 20
1048.72
 30
0.0
 11
494.86
 21
1048.72
 31
0.0
  0
LINE
  8
0
  6
CONTINUOUS
 62
     2
 10
494.86
 20
946.5
 30
0.0
 11
494.86
 21
1054.72
 31
0.0
  0
LINE
  8
0
  6
CONTINUOUS
 62
     2
 10
304.87
 20
946.33
 30
0.0
 11
304.87
 21
1054.72
 31
0.0
  0
LINE
  8
0
  6
CONTINUOUS
 62
     2
 10
486.88
 20
1046.5564
 30
0.0
 11
494.88
 21
1048.7
 31
0.0
  0
LINE
  8
0
  6
CONTINUOUS
 62
     2
 10
494.88
 20
1048.7
 30
0.0
 11
486.88
 21
1050.8432
 31
0.0
  0
LINE
  8
0
  6
CONTINUOUS
 62
     2
 10
312.88
 20
1050.8432
 30
0.0
 11
304.88
 21
1048.7
 31
0.0
  0
LINE
  8
0
  6
CONTINUOUS
 62
     2
 10
304.88
 20
1048.7
 30
0.0
 11
312.88
 21
1046.5564
 31
0.0
  0
LINE
  8
0
  6
CONTINUOUS
 62
     2
 10
219.87
 20
823.72
 30
0.0
 11
219.87
 21
889.72
 31
0.0
  0
LINE
  8
0
  6
CONTINUOUS
 62
     2
 10
303.41
 20
889.72
 30
0.0
 11
213.87
 21
889.72
 31
0.0
  0
LINE
  8
0
  6
CONTINUOUS
 62
     2
 10
253.52
 20
823.72
 30
0.0
 11
213.87
 21
823.72
 31
0.0
  0
LINE
  8
0
  6
CONTINUOUS
 62
     2
 10
222.0236
 20
881.7
 30
0.0
 11
219.88
 21
889.7
 31
0.0
  0
LINE
  8
0
  6
CONTINUOUS
 62
     2
 10
219.88
 20
889.7
 30
0.0
 11
217.7368
 21
881.7
 31
0.0
  0
LINE
  8
0
  6
CONTINUOUS
 62
     2
 10
217.7368
 20
831.7
 30
0.0
 11
219.88
 21
823.7
 31
0.0
  0
LINE
  8
0
  6
CONTINUOUS
 62
     2
 10
219.88
 20
823.7
 30
0.0
 11
222.0236
 21
831.7
 31
0.0
  0
LINE
  8
0
  6
CONTINUOUS
 62
     2
 10
259.87
 20
699.73
 30
0.0
 11
299.87
 21
699.73
 31
0.0
  0
LINE
  8
0
  6
CONTINUOUS
 62
     2
 10
299.87
 20
819.72
 30
0.0
 11
299.87
 21
693.73
 31
0.0
  0
LINE
  8
0
  6
CONTINUOUS
 62
     2
 10
259.87
 20
808.22
 30
0.0
 11
259.87
 21
693.73
 31
0.0
  0
LINE
  8
0
  6
CONTINUOUS
 62
     2
 10
291.88
 20
697.5564
 30
0.0
 11
299.88
 21
699.7
 31
0.0
  0
LINE
  8
0
  6
CONTINUOUS
 62
     2
 10
299.88
 20
699.7
 30
0.0
 11
291.88
 21
701.8432
 31
0.0
  0
LINE
  8
0
  6
CONTINUOUS
 62
     2
 10
267.88
 20
701.8432
 30
0.0
 11
259.88
 21
699.7
 31
0.0
  0
LINE
  8
0
  6
CONTINUOUS
 62
     2
 10
259.88
 20
699.7
 30
0.0
 11
267.88
 21
697.5564
 31
0.0
  0
LINE
  8
0
  6
CONTINUOUS
 62
     2
 10
259.87
 20
659.73
 30
0.0
 11
301.87
 21
659.73
 31
0.0
  0
LINE
  8
0
  6
CONTINUOUS
 62
     2
 10
301.87
 20
806.72
 30
0.0
 11
301.87
 21
653.73
 31
0.0
  0
LINE
  8
0
  6
CONTINUOUS
 62
     2
 10
259.87
 20
808.22
 30
0.0
 11
259.87
 21
653.73
 31
0.0
  0
LINE
  8
0
  6
CONTINUOUS
 62
     2
 10
293.88
 20
657.5564
 30
0.0
 11
301.88
 21
659.7
 31
0.0
  0
LINE
  8
0
  6
CONTINUOUS
 62
     2
 10
301.88
 20
659.7
 30
0.0
 11
293.88
 21
661.8432
 31
0.0
  0
LINE
  8
0
  6
CONTINUOUS
 62
     2
 10
267.88
 20
661.8432
 30
0.0
 11
259.88
 21
659.7
 31
0.0
  0
LINE
  8
0
  6
CONTINUOUS
 62
     2
 10
259.88
 20
659.7
 30
0.0
 11
267.88
 21
657.5564
 31
0.0
  0
LINE
  8
0
  6
CONTINUOUS
 62
     2
 10
259.87
 20
619.73
 30
0.0
 11
307.37
 21
619.73
 31
0.0
  0
LINE
  8
0
  6
CONTINUOUS
 62
     2
 10
307.37
 20
791.89
 30
0.0
 11
307.37
 21
613.73
 31
0.0
  0
LINE
  8
0
  6
CONTINUOUS
 62
     2
 10
259.87
 20
808.22
 30
0.0
 11
259.87
 21
613.73
 31
0.0
  0
LINE
  8
0
  6
CONTINUOUS
 62
     2
 10
299.4
 20
617.5968
 30
0.0
 11
307.4
 21
619.74
 31
0.0
  0
LINE
  8
0
  6
CONTINUOUS
 62
     2
 10
307.4
 20
619.74
 30
0.0
 11
299.4
 21
621.8836
 31
0.0
  0
LINE
  8
0
  6
CONTINUOUS
 62
     2
 10
267.88
 20
621.8836
 30
0.0
 11
259.88
 21
619.74
 31
0.0
  0
LINE
  8
0
  6
CONTINUOUS
 62
     2
 10
259.88
 20
619.74
 30
0.0
 11
267.88
 21
617.5968
 31
0.0
  0
LINE
  8
0
  6
CONTINUOUS
 62
     2
 10
499.86
 20
699.73
 30
0.0
 11
539.86
 21
699.73
 31
0.0
  0
LINE
  8
0
  6
CONTINUOUS
 62
     2
 10
539.86
 20
808.22
 30
0.0
 11
539.86
 21
693.73
 31
0.0
  0
LINE
  8
0
  6
CONTINUOUS
 62
     2
 10
499.86
 20
819.72
 30
0.0
 11
499.86
 21
693.73
 31
0.0
  0
LINE
  8
0
  6
CONTINUOUS
 62
     2
 10
531.88
 20
697.5564
 30
0.0
 11
539.88
 21
699.7
 31
0.0
  0
LINE
  8
0
  6
CONTINUOUS
 62
     2
 10
539.88
 20
699.7
 30
0.0
 11
531.88
 21
701.8432
 31
0.0
  0
LINE
  8
0
  6
CONTINUOUS
 62
     2
 10
507.88
 20
701.8432
 30
0.0
 11
499.88
 21
699.7
 31
0.0
  0
LINE
  8
0
  6
CONTINUOUS
 62
     2
 10
499.88
 20
699.7
 30
0.0
 11
507.88
 21
697.5564
 31
0.0
  0
LINE
  8
0
  6
CONTINUOUS
 62
     2
 10
497.86
 20
659.73
 30
0.0
 11
539.86
 21
659.73
 31
0.0
  0
LINE
  8
0
  6
CONTINUOUS
 62
     2
 10
539.86
 20
808.22
 30
0.0
 11
539.86
 21
653.73
 31
0.0
  0
LINE
  8
0
  6
CONTINUOUS
 62
     2
 10
497.86
 20
806.72
 30
0.0
 11
497.86
 21
653.73
 31
0.0
  0
LINE
  8
0
  6
CONTINUOUS
 62
     2
 10
531.88
 20
657.5564
 30
0.0
 11
539.88
 21
659.7
 31
0.0
  0
LINE
  8
0
  6
CONTINUOUS
 62
     2
 10
539.88
 20
659.7
 30
0.0
 11
531.88
 21
661.8432
 31
0.0
  0
LINE
  8
0
  6
CONTINUOUS
 62
     2
 10
505.88
 20
661.8432
 30
0.0
 11
497.88
 21
659.7
 31
0.0
  0
LINE
  8
0
  6
CONTINUOUS
 62
     2
 10
497.88
 20
659.7
 30
0.0
 11
505.88
 21
657.5564
 31
0.0
  0
LINE
  8
0
  6
CONTINUOUS
 62
     2
 10
492.36
 20
619.73
 30
0.0
 11
539.86
 21
619.73
 31
0.0
  0
LINE
  8
0
  6
CONTINUOUS
 62
     2
 10
539.86
 20
808.22
 30
0.0
 11
539.86
 21
613.73
 31
0.0
  0
LINE
  8
0
  6
CONTINUOUS
 62
     2
 10
492.36
 20
791.89
 30
0.0
 11
492.36
 21
613.73
 31
0.0
  0
LINE
  8
0
  6
CONTINUOUS
 62
     2
 10
531.88
 20
617.5968
 30
0.0
 11
539.88
 21
619.74
 31
0.0
  0
LINE
  8
0
  6
CONTINUOUS
 62
     2
 10
539.88
 20
619.74
 30
0.0
 11
531.88
 21
621.8836
 31
0.0
  0
LINE
  8
0
  6
CONTINUOUS
 62
     2
 10
500.36
 20
621.8836
 30
0.0
 11
492.36
 21
619.74
 31
0.0
  0
LINE
  8
0
  6
CONTINUOUS
 62
     2
 10
492.36
 20
619.74
 30
0.0
 11
500.36
 21
617.5968
 31
0.0
  0
LINE
  8
0
  6
CONTINUOUS
 62
     2
 10
307.37
 20
619.73
 30
0.0
 11
492.36
 21
619.73
 31
0.0
  0
LINE
  8
0
  6
CONTINUOUS
 62
     2
 10
492.36
 20
791.89
 30
0.0
 11
492.36
 21
613.73
 31
0.0
  0
LINE
  8
0
  6
CONTINUOUS
 62
     2
 10
307.37
 20
791.89
 30
0.0
 11
307.37
 21
613.73
 31
0.0
  0
LINE
  8
0
  6
CONTINUOUS
 62
     2
 10
484.36
 20
617.5968
 30
0.0
 11
492.36
 21
619.74
 31
0.0
  0
LINE
  8
0
  6
CONTINUOUS
 62
     2
 10
492.36
 20
619.74
 30
0.0
 11
484.36
 21
621.8836
 31
0.0
  0
LINE
  8
0
  6
CONTINUOUS
 62
     2
 10
315.4
 20
621.8836
 30
0.0
 11
307.4
 21
619.74
 31
0.0
  0
LINE
  8
0
  6
CONTINUOUS
 62
     2
 10
307.4
 20
619.74
 30
0.0
 11
315.4
 21
617.5968
 31
0.0
  0
LINE
  8
0
  6
CONTINUOUS
 62
     2
 10
259.87
 20
579.73
 30
0.0
 11
539.86
 21
579.73
 31
0.0
  0
LINE
  8
0
  6
CONTINUOUS
 62
     2
 10
539.86
 20
808.22
 30
0.0
 11
539.86
 21
573.73
 31
0.0
  0
LINE
  8
0
  6
CONTINUOUS
 62
     2
 10
259.87
 20
808.22
 30
0.0
 11
259.87
 21
573.73
 31
0.0
  0
LINE
  8
0
  6
CONTINUOUS
 62
     2
 10
531.88
 20
577.5968
 30
0.0
 11
539.88
 21
579.74
 31
0.0
  0
LINE
  8
0
  6
CONTINUOUS
 62
     2
 10
539.88
 20
579.74
 30
0.0
 11
531.88
 21
581.8836
 31
0.0
  0
LINE
  8
0
  6
CONTINUOUS
 62
     2
 10
267.88
 20
581.8836
 30
0.0
 11
259.88
 21
579.74
 31
0.0
  0
LINE
  8
0
  6
CONTINUOUS
 62
     2
 10
259.88
 20
579.74
 30
0.0
 11
267.88
 21
577.5968
 31
0.0
  0
LINE
  8
0
  6
CONTINUOUS
 62
     2
 10
292.24
 20
987.78
 30
0.0
 11
320.27
 21
950.51
 31
0.0
  0
LINE
  8
0
  6
CONTINUOUS
 62
     2
 10
313.7584
 20
955.6048
 30
0.0
 11
320.28
 21
950.5
 31
0.0
  0
LINE
  8
0
  6
CONTINUOUS
 62
     2
 10
320.28
 20
950.5
 30
0.0
 11
317.1848
 21
958.182
 31
0.0
  0
LINE
  8
0
  6
CONTINUOUS
 62
     2
 10
292.24
 20
987.78
 30
0.0
 11
234.24
 21
987.78
 31
0.0
  0
ARC
  8
0
  6
CONTINUOUS
 62
     2
 10
565.8
 20
823.44
 30
0.0
 40
22.5
 50
128.27018
 51
237.30609
  0
LINE
  8
0
  6
CONTINUOUS
 62
     2
 10
544.92
 20
808.29
 30
0.0
 11
553.65
 21
804.51
 31
0.0
  0
LINE
  8
0
  6
CONTINUOUS
 62
     2
 10
549.43
 20
811.92
 30
0.0
 11
553.62
 21
804.52
 31
0.0
  0
LINE
  8
0
  6
CONTINUOUS
 62
     2
 10
179.87
 20
739.75
 30
0.0
 11
179.87
 21
761.72
 31
0.0
  0
LINE
  8
0
  6
CONTINUOUS
 62
     2
 10
300.87
 20
761.72
 30
0.0
 11
173.87
 21
761.72
 31
0.0
  0
LINE
  8
0
  6
CONTINUOUS
 62
     2
 10
321.72
 20
739.75
 30
0.0
 11
173.87
 21
739.75
 31
0.0
  0
LINE
  8
0
  6
CONTINUOUS
 62
     2
 10
182.0236
 20
753.7
 30
0.0
 11
179.88
 21
761.7
 31
0.0
  0
LINE
  8
0
  6
CONTINUOUS
 62
     2
 10
179.88
 20
761.7
 30
0.0
 11
177.7368
 21
753.7
 31
0.0
  0
LINE
  8
0
  6
CONTINUOUS
 62
     2
 10
177.7368
 20
747.74
 30
0.0
 11
179.88
 21
739.74
 31
0.0
  0
LINE
  8
0
  6
CONTINUOUS
 62
     2
 10
179.88
 20
739.74
 30
0.0
 11
182.0236
 21
747.74
 31
0.0
  0
LINE
  8
0
  6
CONTINUOUS
 62
     2
 10
179.87
 20
761.72
 30
0.0
 11
179.87
 21
889.72
 31
0.0
  0
LINE
  8
0
  6
CONTINUOUS
 62
     2
 10
303.84
 20
889.72
 30
0.0
 11
173.87
 21
889.72
 31
0.0
  0
LINE
  8
0
  6
CONTINUOUS
 62
     2
 10
300.42
 20
761.72
 30
0.0
 11
173.87
 21
761.72
 31
0.0
  0
LINE
  8
0
  6
CONTINUOUS
 62
     2
 10
182.0236
 20
881.7
 30
0.0
 11
179.88
 21
889.7
 31
0.0
  0
LINE
  8
0
  6
CONTINUOUS
 62
     2
 10
179.88
 20
889.7
 30
0.0
 11
177.7368
 21
881.7
 31
0.0
  0
LINE
  8
0
  6
CONTINUOUS
 62
     2
 10
177.7368
 20
769.7
 30
0.0
 11
179.88
 21
761.7
 31
0.0
  0
LINE
  8
0
  6
CONTINUOUS
 62
     2
 10
179.88
 20
761.7
 30
0.0
 11
182.0236
 21
769.7
 31
0.0
  0
LINE
  8
0
  6
CONTINUOUS
 62
     2
 10
179.87
 20
889.72
 30
0.0
 11
179.87
 21
941.72
 31
0.0
  0
LINE
  8
0
  6
CONTINUOUS
 62
     2
 10
300.42
 20
941.72
 30
0.0
 11
173.87
 21
941.72
 31
0.0
  0
LINE
  8
0
  6
CONTINUOUS
 62
     2
 10
303.84
 20
889.72
 30
0.0
 11
173.87
 21
889.72
 31
0.0
  0
LINE
  8
0
  6
CONTINUOUS
 62
     2
 10
182.0236
 20
933.7
 30
0.0
 11
179.88
 21
941.7
 31
0.0
  0
LINE
  8
0
  6
CONTINUOUS
 62
     2
 10
179.88
 20
941.7
 30
0.0
 11
177.7368
 21
933.7
 31
0.0
  0
LINE
  8
0
  6
CONTINUOUS
 62
     2
 10
177.7368
 20
897.7
 30
0.0
 11
179.88
 21
889.7
 31
0.0
  0
LINE
  8
0
  6
CONTINUOUS
 62
     2
 10
179.88
 20
889.7
 30
0.0
 11
182.0236
 21
897.7
 31
0.0
  0
LINE
  8
0
  6
CONTINUOUS
 62
     2
 10
179.87
 20
941.72
 30
0.0
 11
179.87
 21
963.72
 31
0.0
  0
LINE
  8
0
  6
CONTINUOUS
 62
     2
 10
320.33
 20
963.72
 30
0.0
 11
173.87
 21
963.72
 31
0.0
  0
LINE
  8
0
  6
CONTINUOUS
 62
     2
 10
300.42
 20
941.72
 30
0.0
 11
173.87
 21
941.72
 31
0.0
  0
LINE
  8
0
  6
CONTINUOUS
 62
     2
 10
182.0236
 20
955.7
 30
0.0
 11
179.88
 21
963.7
 31
0.0
  0
LINE
  8
0
  6
CONTINUOUS
 62
     2
 10
179.88
 20
963.7
 30
0.0
 11
177.7368
 21
955.7
 31
0.0
  0
LINE
  8
0
  6
CONTINUOUS
 62
     2
 10
177.7368
 20
949.7
 30
0.0
 11
179.88
 21
941.7
 31
0.0
  0
LINE
  8
0
  6
CONTINUOUS
 62
     2
 10
179.88
 20
941.7
 30
0.0
 11
182.0236
 21
949.7
 31
0.0
  0
LINE
  8
0
  6
CONTINUOUS
 62
     2
 10
139.87
 20
739.72
 30
0.0
 11
139.87
 21
963.72
 31
0.0
  0
LINE
  8
0
  6
CONTINUOUS
 62
     2
 10
322.87
 20
963.72
 30
0.0
 11
133.87
 21
963.72
 31
0.0
  0
LINE
  8
0
  6
CONTINUOUS
 62
     2
 10
322.87
 20
739.72
 30
0.0
 11
133.87
 21
739.72
 31
0.0
  0
LINE
  8
0
  6
CONTINUOUS
 62
     2
 10
142.0236
 20
955.7
 30
0.0
 11
139.88
 21
963.7
 31
0.0
  0
LINE
  8
0
  6
CONTINUOUS
 62
     2
 10
139.88
 20
963.7
 30
0.0
 11
137.7368
 21
955.7
 31
0.0
  0
LINE
  8
0
  6
CONTINUOUS
 62
     2
 10
137.7368
 20
747.7
 30
0.0
 11
139.88
 21
739.7
 31
0.0
  0
LINE
  8
0
  6
CONTINUOUS
 62
     2
 10
139.88
 20
739.7
 30
0.0
 11
142.0236
 21
747.7
 31
0.0
  0
CIRCLE
  8
0
  6
CONTINUOUS
 62
     2
 10
399.87
 20
889.72
 30
0.0
 40
19.75
  0
LINE
  8
0
  6
CONTINUOUS
 62
     1
 10
1166.8
 20
739.73
 30
0.0
 11
1166.8
 21
889.72
 31
0.0
  0
LINE
  8
0
  6
CONTINUOUS
 62
     1
 10
1146.8
 20
742.73
 30
0.0
 11
1146.8
 21
780.73
 31
0.0
  0
LINE
  8
0
  6
CONTINUOUS
 62
     1
 10
1085.05
 20
777.78
 30
0.0
 11
1135.3
 21
748.78
 31
0.0
  0
LINE
  8
0
  6
CONTINUOUS
 62
     1
 10
1084.33
 20
780.5
 30
0.0
 11
1145.8
 21
745.0
 31
0.0
  0
LINE
  8
0
  6
CONTINUOUS
 62
     1
 10
1149.8
 20
739.73
 30
0.0
 11
1166.8
 21
739.73
 31
0.0
  0
ARC
  8
0
  6
CONTINUOUS
 62
     1
 10
1149.8
 20
742.73
 30
0.0
 40
3.0
 50
180.0
 51
270.0
  0
ARC
  8
0
  6
CONTINUOUS
 62
     1
 10
1144.8
 20
743.28
 30
0.0
 40
2.0
 50
0.0
 51
59.82648
  0
ARC
  8
0
  6
CONTINUOUS
 62
     1
 10
1149.8
 20
742.73
 30
0.0
 40
3.0
 50
180.0
 51
270.0
  0
LINE
  8
0
  6
CONTINUOUS
 62
     1
 10
1146.8
 20
742.73
 30
0.0
 11
1146.8
 21
743.28
 31
0.0
  0
ARC
  8
0
  6
CONTINUOUS
 62
     1
 10
1137.52
 20
748.64
 30
0.0
 40
1.0
 50
59.82648
 51
149.82648
  0
ARC
  8
0
  6
CONTINUOUS
 62
     1
 10
1135.8
 20
749.64
 30
0.0
 40
1.0
 50
239.82648
 51
329.82648
  0
LINE
  8
0
  6
CONTINUOUS
 62
     1
 10
1166.8
 20
949.72
 30
0.0
 11
1174.8
 21
949.72
 31
0.0
  0
LINE
  8
0
  6
CONTINUOUS
 62
     1
 10
1166.8
 20
829.72
 30
0.0
 11
1174.8
 21
829.72
 31
0.0
  0
LINE
  8
0
  6
CONTINUOUS
 62
     1
 10
1102.8
 20
973.72
 30
0.0
 11
1110.8
 21
989.72
 31
0.0
  0
LINE
  8
0
  6
CONTINUOUS
 62
     1
 10
1102.8
 20
989.72
 30
0.0
 11
1110.8
 21
973.72
 31
0.0
  0
LINE
  8
0
  6
CONTINUOUS
 62
     1
 10
1090.8
 20
973.72
 30
0.0
 11
1098.8
 21
989.72
 31
0.0
  0
LINE
  8
0
  6
CONTINUOUS
 62
     1
 10
1090.8
 20
989.72
 30
0.0
 11
1098.8
 21
973.72
 31
0.0
  0
LINE
  8
0
  6
CONTINUOUS
 62
     1
 10
1098.8
 20
973.72
 30
0.0
 11
1098.8
 21
989.72
 31
0.0
  0
LINE
  8
0
  6
CONTINUOUS
 62
     1
 10
1102.8
 20
973.72
 30
0.0
 11
1102.8
 21
989.72
 31
0.0
  0
LINE
  8
0
  6
CONTINUOUS
 62
     1
 10
1110.8
 20
973.72
 30
0.0
 11
1110.8
 21
989.72
 31
0.0
  0
LINE
  8
0
  6
CONTINUOUS
 62
     1
 10
1090.8
 20
973.72
 30
0.0
 11
1090.8
 21
989.72
 31
0.0
  0
LINE
  8
0
  6
CONTINUOUS
 62
     1
 10
770.2
 20
864.72
 30
0.0
 11
770.2
 21
914.72
 31
0.0
  0
LINE
  8
0
  6
CONTINUOUS
 62
     1
 10
1085.3
 20
820.22
 30
0.0
 11
1092.3
 21
820.22
 31
0.0
  0
ARC
  8
0
  6
CONTINUOUS
 62
     1
 10
1100.8
 20
823.72
 30
0.0
 40
12.5
 50
196.2602
 51
0.0
  0
LINE
  8
0
  6
CONTINUOUS
 62
     1
 10
1080.5
 20
782.72
 30
0.0
 11
1144.8
 21
782.72
 31
0.0
  0
ARC
  8
0
  6
CONTINUOUS
 62
     1
 10
1100.8
 20
823.72
 30
0.0
 40
31.0
 50
180.0
 51
0.0
  0
LINE
  8
0
  6
CONTINUOUS
 62
     1
 10
1034.8
 20
806.31
 30
0.0
 11
1034.8
 21
821.11
 31
0.0
  0
ARC
  8
0
  6
CONTINUOUS
 62
     1
 10
1060.8
 20
823.72
 30
0.0
 40
8.0
 50
180.0
 51
0.0
  0
LINE
  8
0
  6
CONTINUOUS
 62
     1
 10
1044.8
 20
805.72
 30
0.0
 11
1044.8
 21
889.72
 31
0.0
  0
ARC
  8
0
  6
CONTINUOUS
 62
     1
 10
1049.8
 20
805.72
 30
0.0
 40
5.0
 50
180.0
 51
270.0
  0
LINE
  8
0
  6
CONTINUOUS
 62
     1
 10
1035.41
 20
805.72
 30
0.0
 11
1044.8
 21
805.72
 31
0.0
  0
LINE
  8
0
  6
CONTINUOUS
 62
     1
 10
1034.8
 20
806.31
 30
0.0
 11
1035.41
 21
805.72
 31
0.0
  0
CIRCLE
  8
0
  6
CONTINUOUS
 62
     1
 10
1072.52
 20
795.45
 30
0.0
 40
8.0
  0
LINE
  8
0
  6
CONTINUOUS
 62
     1
 10
1080.5
 20
782.72
 30
0.0
 11
1084.33
 21
780.5
 31
0.0
  0
ARC
  8
0
  6
CONTINUOUS
 62
     1
 10
1083.83
 20
779.64
 30
0.0
 40
1.0
 50
329.82648
 51
59.82648
  0
ARC
  8
0
  6
CONTINUOUS
 62
     1
 10
1085.55
 20
778.64
 30
0.0
 40
1.0
 50
149.82648
 51
239.82648
  0
ARC
  8
0
  6
CONTINUOUS
 62
     1
 10
1039.8
 20
824.72
 30
0.0
 40
5.0
 50
0.0
 51
90.0
  0
LINE
  8
0
  6
CONTINUOUS
 62
     1
 10
1039.61
 20
817.28
 30
0.0
 11
1041.33
 21
820.25
 31
0.0
  0
LINE
  8
0
  6
CONTINUOUS
 62
     1
 10
1035.41
 20
821.72
 30
0.0
 11
1044.8
 21
821.72
 31
0.0
  0
LINE
  8
0
  6
CONTINUOUS
 62
     1
 10
1039.19
 20
818.64
 30
0.0
 11
1042.33
 21
816.59
 31
0.0
  0
LINE
  8
0
  6
CONTINUOUS
 62
     1
 10
1034.8
 20
821.11
 30
0.0
 11
1035.41
 21
821.72
 31
0.0
  0
LINE
  8
0
  6
CONTINUOUS
 62
     1
 10
1039.72
 20
819.45
 30
0.0
 11
1042.86
 21
817.36
 31
0.0
  0
LINE
  8
0
  6
CONTINUOUS
 62
     1
 10
1040.25
 20
820.25
 30
0.0
 11
1043.39
 21
818.17
 31
0.0
  0
LINE
  8
0
  6
CONTINUOUS
 62
     1
 10
1041.28
 20
816.31
 30
0.0
 11
1043.0
 21
819.28
 31
0.0
  0
LINE
  8
0
  6
CONTINUOUS
 62
     1
 10
1040.44
 20
816.81
 30
0.0
 11
1042.16
 21
819.78
 31
0.0
  0
LINE
  8
0
  6
CONTINUOUS
 62
     1
 10
1085.3
 20
820.22
 30
0.0
 11
1085.3
 21
823.72
 31
0.0
  0
ARC
  8
0
  6
CONTINUOUS
 62
     1
 10
1140.8
 20
823.72
 30
0.0
 40
8.0
 50
180.0
 51
0.0
  0
ARC
  8
0
  6
CONTINUOUS
 62
     1
 10
1100.8
 20
823.72
 30
0.0
 40
51.0
 50
306.49241
 51
0.0
  0
CIRCLE
  8
0
  6
CONTINUOUS
 62
     1
 10
1129.11
 20
795.45
 30
0.0
 40
8.0
  0
ARC
  8
0
  6
CONTINUOUS
 62
     1
 10
1144.8
 20
780.73
 30
0.0
 40
2.0
 50
0.0
 51
90.0
  0
LINE
  8
0
  6
CONTINUOUS
 62
     1
 10
1092.3
 20
820.22
 30
0.0
 11
1092.3
 21
823.72
 31
0.0
  0
LINE
  8
0
  6
CONTINUOUS
 62
     1
 10
1085.8
 20
973.72
 30
0.0
 11
1115.8
 21
973.72
 31
0.0
  0
LINE
  8
0
  6
CONTINUOUS
 62
     1
 10
1056.8
 20
968.72
 30
0.0
 11
1144.8
 21
968.72
 31
0.0
  0
LINE
  8
0
  6
CONTINUOUS
 62
     1
 10
1056.8
 20
889.72
 30
0.0
 11
1056.8
 21
968.72
 31
0.0
  0
LINE
  8
0
  6
CONTINUOUS
 62
     1
 10
1044.8
 20
889.72
 30
0.0
 11
1044.8
 21
963.72
 31
0.0
  0
ARC
  8
0
  6
CONTINUOUS
 62
     1
 10
1039.8
 20
954.72
 30
0.0
 40
5.0
 50
270.0
 51
0.0
  0
ARC
  8
0
  6
CONTINUOUS
 62
     1
 10
1049.8
 20
963.72
 30
0.0
 40
5.0
 50
90.0
 51
180.0
  0
LINE
  8
0
  6
CONTINUOUS
 62
     1
 10
1049.8
 20
968.72
 30
0.0
 11
1056.8
 21
968.72
 31
0.0
  0
LINE
  8
0
  6
CONTINUOUS
 62
     1
 10
1085.8
 20
968.72
 30
0.0
 11
1085.8
 21
973.72
 31
0.0
  0
LINE
  8
0
  6
CONTINUOUS
 62
     1
 10
1115.8
 20
968.72
 30
0.0
 11
1115.8
 21
973.72
 31
0.0
  0
LINE
  8
0
  6
CONTINUOUS
 62
     1
 10
1166.8
 20
889.72
 30
0.0
 11
1166.8
 21
963.72
 31
0.0
  0
LINE
  8
0
  6
CONTINUOUS
 62
     1
 10
1148.8
 20
963.72
 30
0.0
 11
1166.8
 21
963.72
 31
0.0
  0
ARC
  8
0
  6
CONTINUOUS
 62
     1
 10
1144.8
 20
966.72
 30
0.0
 40
2.0
 50
0.0
 51
90.0
  0
ARC
  8
0
  6
CONTINUOUS
 62
     1
 10
1148.8
 20
965.72
 30
0.0
 40
2.0
 50
180.0
 51
270.0
  0
LINE
  8
0
  6
CONTINUOUS
 62
     1
 10
1146.8
 20
965.72
 30
0.0
 11
1146.8
 21
966.72
 31
0.0
  0
LINE
  8
0
  6
CONTINUOUS
 62
     1
 10
1090.8
 20
989.72
 30
0.0
 11
1110.8
 21
989.72
 31
0.0
  0
LINE
  8
0
  6
CONTINUOUS
 62
     1
 10
1174.8
 20
927.71
 30
0.0
 11
1196.8
 21
927.71
 31
0.0
  0
LINE
  8
0
  6
CONTINUOUS
 62
     1
 10
1174.8
 20
851.71
 30
0.0
 11
1196.8
 21
851.71
 31
0.0
  0
LINE
  8
0
  6
CONTINUOUS
 62
     1
 10
1174.8
 20
829.72
 30
0.0
 11
1174.8
 21
889.72
 31
0.0
  0
LINE
  8
0
  6
CONTINUOUS
 62
     1
 10
1174.8
 20
843.72
 30
0.0
 11
1180.41
 21
843.72
 31
0.0
  0
LINE
  8
0
  6
CONTINUOUS
 62
     1
 10
1174.8
 20
833.72
 30
0.0
 11
1180.41
 21
833.72
 31
0.0
  0
LINE
  8
0
  6
CONTINUOUS
 62
     1
 10
1180.8
 20
834.11
 30
0.0
 11
1180.8
 21
843.31
 31
0.0
  0
LINE
  8
0
  6
CONTINUOUS
 62
     1
 10
1180.41
 20
843.72
 30
0.0
 11
1180.8
 21
843.31
 31
0.0
  0
LINE
  8
0
  6
CONTINUOUS
 62
     1
 10
1176.08
 20
840.78
 30
0.0
 11
1178.19
 21
842.14
 31
0.0
  0
LINE
  8
0
  6
CONTINUOUS
 62
     1
 10
1177.1
 20
842.7
 30
0.0
 11
1178.27
 21
840.7
 31
0.0
  0
LINE
  8
0
  6
CONTINUOUS
 62
     1
 10
1176.55
 20
842.36
 30
0.0
 11
1177.72
 21
840.39
 31
0.0
  0
LINE
  8
0
  6
CONTINUOUS
 62
     1
 10
1175.99
 20
842.06
 30
0.0
 11
1177.16
 21
840.06
 31
0.0
  0
LINE
  8
0
  6
CONTINUOUS
 62
     1
 10
1176.44
 20
840.22
 30
0.0
 11
1178.55
 21
841.61
 31
0.0
  0
LINE
  8
0
  6
CONTINUOUS
 62
     1
 10
1180.41
 20
833.72
 30
0.0
 11
1180.8
 21
834.11
 31
0.0
  0
LINE
  8
0
  6
CONTINUOUS
 62
     1
 10
1175.74
 20
841.31
 30
0.0
 11
1177.83
 21
842.7
 31
0.0
  0
LINE
  8
0
  6
CONTINUOUS
 62
     1
 10
1174.8
 20
889.72
 30
0.0
 11
1174.8
 21
949.72
 31
0.0
  0
LINE
  8
0
  6
CONTINUOUS
 62
     1
 10
1180.8
 20
936.11
 30
0.0
 11
1180.8
 21
945.3
 31
0.0
  0
LINE
  8
0
  6
CONTINUOUS
 62
     1
 10
1174.8
 20
935.72
 30
0.0
 11
1180.41
 21
935.72
 31
0.0
  0
LINE
  8
0
  6
CONTINUOUS
 62
     1
 10
1176.44
 20
939.19
 30
0.0
 11
1178.55
 21
937.83
 31
0.0
  0
LINE
  8
0
  6
CONTINUOUS
 62
     1
 10
1175.99
 20
937.39
 30
0.0
 11
1177.16
 21
939.36
 31
0.0
  0
LINE
  8
0
  6
CONTINUOUS
 62
     1
 10
1176.55
 20
937.08
 30
0.0
 11
1177.72
 21
939.05
 31
0.0
  0
LINE
  8
0
  6
CONTINUOUS
 62
     1
 10
1175.74
 20
938.14
 30
0.0
 11
1177.83
 21
936.75
 31
0.0
  0
LINE
  8
0
  6
CONTINUOUS
 62
     1
 10
1177.1
 20
936.75
 30
0.0
 11
1178.27
 21
938.72
 31
0.0
  0
LINE
  8
0
  6
CONTINUOUS
 62
     1
 10
1176.08
 20
938.67
 30
0.0
 11
1178.19
 21
937.28
 31
0.0
  0
LINE
  8
0
  6
CONTINUOUS
 62
     1
 10
1180.41
 20
935.72
 30
0.0
 11
1180.8
 21
936.11
 31
0.0
  0
LINE
  8
0
  6
CONTINUOUS
 62
     1
 10
1174.8
 20
945.72
 30
0.0
 11
1180.41
 21
945.72
 31
0.0
  0
LINE
  8
0
  6
CONTINUOUS
 62
     1
 10
1180.41
 20
945.72
 30
0.0
 11
1180.8
 21
945.3
 31
0.0
  0
LINE
  8
0
  6
CONTINUOUS
 62
     1
 10
932.64
 20
809.72
 30
0.0
 11
932.64
 21
969.72
 31
0.0
  0
LINE
  8
0
  6
CONTINUOUS
 62
     1
 10
901.14
 20
809.72
 30
0.0
 11
901.14
 21
969.72
 31
0.0
  0
LINE
  8
0
  6
CONTINUOUS
 62
     1
 10
842.64
 20
849.72
 30
0.0
 11
842.64
 21
929.72
 31
0.0
  0
LINE
  8
0
  6
CONTINUOUS
 62
     1
 10
901.14
 20
969.72
 30
0.0
 11
932.64
 21
969.72
 31
0.0
  0
LINE
  8
0
  6
CONTINUOUS
 62
     1
 10
901.14
 20
809.72
 30
0.0
 11
932.64
 21
809.72
 31
0.0
  0
LINE
  8
0
  6
CONTINUOUS
 62
     1
 10
842.64
 20
929.72
 30
0.0
 11
901.14
 21
929.72
 31
0.0
  0
LINE
  8
0
  6
CONTINUOUS
 62
     1
 10
842.64
 20
849.72
 30
0.0
 11
901.14
 21
849.72
 31
0.0
  0
LINE
  8
0
  6
CONTINUOUS
 62
     1
 10
770.2
 20
914.72
 30
0.0
 11
842.64
 21
914.72
 31
0.0
  0
LINE
  8
0
  6
CONTINUOUS
 62
     1
 10
770.2
 20
864.72
 30
0.0
 11
842.64
 21
864.72
 31
0.0
  0
CIRCLE
  8
0
  6
CONTINUOUS
 62
     1
 10
867.28
 20
889.72
 30
0.0
 40
5.58
  0
LINE
  8
0
  6
CONTINUOUS
 62
     1
 10
714.2
 20
874.22
 30
0.0
 11
714.2
 21
905.22
 31
0.0
  0
LINE
  8
0
  6
CONTINUOUS
 62
     1
 10
716.2
 20
907.22
 30
0.0
 11
770.2
 21
907.22
 31
0.0
  0
LINE
  8
0
  6
CONTINUOUS
 62
     1
 10
716.2
 20
872.22
 30
0.0
 11
770.2
 21
872.22
 31
0.0
  0
LINE
  8
0
  6
CONTINUOUS
 62
     1
 10
714.2
 20
905.22
 30
0.0
 11
716.2
 21
907.22
 31
0.0
  0
LINE
  8
0
  6
CONTINUOUS
 62
     1
 10
714.2
 20
874.22
 30
0.0
 11
716.2
 21
872.22
 31
0.0
  0
LINE
  8
0
  6
CONTINUOUS
 62
     1
 10
716.2
 20
872.22
 30
0.0
 11
716.2
 21
907.22
 31
0.0
  0
ARC
  8
0
  6
CONTINUOUS
 62
     1
 10
1100.8
 20
823.72
 30
0.0
 40
31.0
 50
0.0
 51
180.0
  0
ARC
  8
0
  6
CONTINUOUS
 62
     1
 10
1100.8
 20
823.72
 30
0.0
 40
51.0
 50
0.0
 51
90.0
  0
ARC
  8
0
  6
CONTINUOUS
 62
     1
 10
1140.8
 20
823.72
 30
0.0
 40
8.0
 50
0.0
 51
180.0
  0
LINE
  8
0
  6
CONTINUOUS
 62
     1
 10
1092.3
 20
823.72
 30
0.0
 11
1092.3
 21
827.22
 31
0.0
  0
LINE
  8
0
  6
CONTINUOUS
 62
     1
 10
1085.3
 20
823.72
 30
0.0
 11
1085.3
 21
827.22
 31
0.0
  0
ARC
  8
0
  6
CONTINUOUS
 62
     1
 10
1100.8
 20
823.72
 30
0.0
 40
12.5
 50
0.0
 51
163.73979
  0
LINE
  8
0
  6
CONTINUOUS
 62
     1
 10
1085.3
 20
827.22
 30
0.0
 11
1092.3
 21
827.22
 31
0.0
  0
CIRCLE
  8
0
  6
CONTINUOUS
 62
     1
 10
1072.52
 20
852.0
 30
0.0
 40
8.0
  0
ARC
  8
0
  6
CONTINUOUS
 62
     1
 10
1100.8
 20
823.72
 30
0.0
 40
51.0
 50
90.0
 51
180.0
  0
ARC
  8
0
  6
CONTINUOUS
 62
     1
 10
1060.8
 20
823.72
 30
0.0
 40
8.0
 50
0.0
 51
180.0
  0
LINE
  8
0
  6
CONTINUOUS
 62
     1
 10
1143.13
 20
914.58
 30
0.0
 11
1163.99
 21
914.58
 31
0.0
  0
LINE
  8
0
  6
CONTINUOUS
 62
     1
 10
1088.33
 20
914.58
 30
0.0
 11
1132.91
 21
914.58
 31
0.0
  0
ARC
  8
0
  6
CONTINUOUS
 62
     1
 10
1088.33
 20
928.47
 30
0.0
 40
13.89
 50
241.59031
 51
270.0
  0
LINE
  8
0
  6
CONTINUOUS
 62
     1
 10
1056.8
 20
921.05
 30
0.0
 11
1065.8
 21
921.05
 31
0.0
  0
ARC
  8
0
  6
CONTINUOUS
 62
     1
 10
1065.8
 20
893.28
 30
0.0
 40
27.78
 50
61.655976
 51
90.0
  0
LINE
  8
0
  6
CONTINUOUS
 62
     1
 10
1079.0
 20
917.75
 30
0.0
 11
1081.72
 21
916.25
 31
0.0
  0
ARC
  8
0
  6
CONTINUOUS
 62
     1
 10
1132.91
 20
928.47
 30
0.0
 40
13.89
 50
270.0
 51
0.0
  0
LINE
  8
0
  6
CONTINUOUS
 62
     1
 10
1072.8
 20
921.05
 30
0.0
 11
1072.8
 21
968.72
 31
0.0
  0
LINE
  8
0
  6
CONTINUOUS
 62
     1
 10
1146.8
 20
928.47
 30
0.0
 11
1146.8
 21
965.72
 31
0.0
  0
LINE
  8
0
  6
CONTINUOUS
 62
     1
 10
1068.47
 20
849.67
 30
0.0
 11
1072.52
 21
847.31
 31
0.0
  0
LINE
  8
0
  6
CONTINUOUS
 62
     1
 10
1068.47
 20
849.67
 30
0.0
 11
1068.47
 21
854.36
 31
0.0
  0
LINE
  8
0
  6
CONTINUOUS
 62
     1
 10
1068.47
 20
854.36
 30
0.0
 11
1072.52
 21
856.7
 31
0.0
  0
LINE
  8
0
  6
CONTINUOUS
 62
     1
 10
1072.52
 20
856.7
 30
0.0
 11
1076.61
 21
854.36
 31
0.0
  0
LINE
  8
0
  6
CONTINUOUS
 62
     1
 10
1076.61
 20
849.67
 30
0.0
 11
1076.61
 21
854.36
 31
0.0
  0
LINE
  8
0
  6
CONTINUOUS
 62
     1
 10
1072.52
 20
847.31
 30
0.0
 11
1076.61
 21
849.67
 31
0.0
  0
LINE
  8
0
  6
CONTINUOUS
 62
     1
 10
1056.75
 20
823.72
 30
0.0
 11
1056.75
 21
826.06
 31
0.0
  0
LINE
  8
0
  6
CONTINUOUS
 62
     1
 10
1056.75
 20
826.06
 30
0.0
 11
1060.8
 21
828.42
 31
0.0
  0
LINE
  8
0
  6
CONTINUOUS
 62
     1
 10
1060.8
 20
828.42
 30
0.0
 11
1064.89
 21
826.06
 31
0.0
  0
LINE
  8
0
  6
CONTINUOUS
 62
     1
 10
1064.89
 20
823.72
 30
0.0
 11
1064.89
 21
826.06
 31
0.0
  0
LINE
  8
0
  6
CONTINUOUS
 62
     1
 10
1136.74
 20
823.72
 30
0.0
 11
1136.74
 21
826.06
 31
0.0
  0
LINE
  8
0
  6
CONTINUOUS
 62
     1
 10
1136.74
 20
826.06
 30
0.0
 11
1140.8
 21
828.42
 31
0.0
  0
LINE
  8
0
  6
CONTINUOUS
 62
     1
 10
1140.8
 20
828.42
 30
0.0
 11
1144.88
 21
826.06
 31
0.0
  0
LINE
  8
0
  6
CONTINUOUS
 62
     1
 10
1144.88
 20
823.72
 30
0.0
 11
1144.88
 21
826.06
 31
0.0
  0
LINE
  8
0
  6
CONTINUOUS
 62
     1
 10
1136.74
 20
821.36
 30
0.0
 11
1136.74
 21
823.72
 31
0.0
  0
LINE
  8
0
  6
CONTINUOUS
 62
     1
 10
1136.74
 20
821.36
 30
0.0
 11
1140.8
 21
819.03
 31
0.0
  0
LINE
  8
0
  6
CONTINUOUS
 62
     1
 10
1140.8
 20
819.03
 30
0.0
 11
1144.88
 21
821.36
 31
0.0
  0
LINE
  8
0
  6
CONTINUOUS
 62
     1
 10
1144.88
 20
821.36
 30
0.0
 11
1144.88
 21
823.72
 31
0.0
  0
LINE
  8
0
  6
CONTINUOUS
 62
     1
 10
1129.11
 20
800.14
 30
0.0
 11
1133.16
 21
797.78
 31
0.0
  0
LINE
  8
0
  6
CONTINUOUS
 62
     1
 10
1133.16
 20
793.09
 30
0.0
 11
1133.16
 21
797.78
 31
0.0
  0
LINE
  8
0
  6
CONTINUOUS
 62
     1
 10
1129.11
 20
790.72
 30
0.0
 11
1133.16
 21
793.09
 31
0.0
  0
LINE
  8
0
  6
CONTINUOUS
 62
     1
 10
1125.02
 20
793.09
 30
0.0
 11
1129.11
 21
790.72
 31
0.0
  0
LINE
  8
0
  6
CONTINUOUS
 62
     1
 10
1125.02
 20
793.09
 30
0.0
 11
1125.02
 21
797.78
 31
0.0
  0
LINE
  8
0
  6
CONTINUOUS
 62
     1
 10
1125.02
 20
797.78
 30
0.0
 11
1129.11
 21
800.14
 31
0.0
  0
LINE
  8
0
  6
CONTINUOUS
 62
     1
 10
1056.75
 20
821.36
 30
0.0
 11
1056.75
 21
823.72
 31
0.0
  0
LINE
  8
0
  6
CONTINUOUS
 62
     1
 10
1056.75
 20
821.36
 30
0.0
 11
1060.8
 21
819.03
 31
0.0
  0
LINE
  8
0
  6
CONTINUOUS
 62
     1
 10
1060.8
 20
819.03
 30
0.0
 11
1064.89
 21
821.36
 31
0.0
  0
LINE
  8
0
  6
CONTINUOUS
 62
     1
 10
1064.89
 20
821.36
 30
0.0
 11
1064.89
 21
823.72
 31
0.0
  0
LINE
  8
0
  6
CONTINUOUS
 62
     1
 10
1068.47
 20
797.78
 30
0.0
 11
1072.52
 21
800.14
 31
0.0
  0
LINE
  8
0
  6
CONTINUOUS
 62
     1
 10
1068.47
 20
793.09
 30
0.0
 11
1068.47
 21
797.78
 31
0.0
  0
LINE
  8
0
  6
CONTINUOUS
 62
     1
 10
1068.47
 20
793.09
 30
0.0
 11
1072.52
 21
790.72
 31
0.0
  0
LINE
  8
0
  6
CONTINUOUS
 62
     1
 10
1072.52
 20
790.72
 30
0.0
 11
1076.61
 21
793.09
 31
0.0
  0
LINE
  8
0
  6
CONTINUOUS
 62
     1
 10
1076.61
 20
793.09
 30
0.0
 11
1076.61
 21
797.78
 31
0.0
  0
LINE
  8
0
  6
CONTINUOUS
 62
     1
 10
1072.52
 20
800.14
 30
0.0
 11
1076.61
 21
797.78
 31
0.0
  0
ARC
  8
0
  6
CONTINUOUS
 62
     1
 10
1100.8
 20
823.72
 30
0.0
 40
51.0
 50
306.49241
 51
260.84981
  0
LINE
  8
0
  6
CONTINUOUS
 62
     1
 10
1056.8
 20
849.51
 30
0.0
 11
1056.8
 21
889.72
 31
0.0
  0
LINE
  8
0
  6
CONTINUOUS
 62
     1
 10
1049.8
 20
800.72
 30
0.0
 11
1055.28
 21
800.72
 31
0.0
  0
LINE
  8
0
  6
CONTINUOUS
 62
     1
 10
1196.8
 20
851.71
 30
0.0
 11
1196.8
 21
927.71
 31
0.0
  0
ARC
  8
0
  6
CONTINUOUS
 62
     1
 10
326.87
 20
941.72
 30
0.0
 40
20.0
 50
46.357657
 51
242.79408
  0
ARC
  8
0
  6
CONTINUOUS
 62
     1
 10
326.87
 20
941.72
 30
0.0
 40
11.0
 50
47.764872
 51
241.36463
  0
ARC
  8
0
  6
CONTINUOUS
 62
     1
 10
472.86
 20
941.72
 30
0.0
 40
11.0
 50
298.63536
 51
132.23512
  0
ARC
  8
0
  6
CONTINUOUS
 62
     1
 10
472.86
 20
941.72
 30
0.0
 40
20.0
 50
297.28233
 51
133.64234
  0
CIRCLE
  8
0
  6
CONTINUOUS
 62
     1
 10
326.87
 20
761.72
 30
0.0
 40
11.0
  0
CIRCLE
  8
0
  6
CONTINUOUS
 62
     1
 10
326.87
 20
761.72
 30
0.0
 40
20.0
  0
CIRCLE
  8
0
  6
CONTINUOUS
 62
     1
 10
472.86
 20
761.72
 30
0.0
 40
20.0
  0
CIRCLE
  8
0
  6
CONTINUOUS
 62
     1
 10
472.86
 20
761.72
 30
0.0
 40
11.0
  0
LINE
  8
0
  6
CONTINUOUS
 62
     1
 10
326.87
 20
963.72
 30
0.0
 11
350.42
 21
963.72
 31
0.0
  0
LINE
  8
0
  6
CONTINUOUS
 62
     1
 10
449.31
 20
963.72
 30
0.0
 11
472.86
 21
963.72
 31
0.0
  0
ARC
  8
0
  6
CONTINUOUS
 62
     1
 10
472.86
 20
941.72
 30
0.0
 40
22.0
 50
296.79796
 51
90.0
  0
ARC
  8
0
  6
CONTINUOUS
 62
     1
 10
326.87
 20
941.72
 30
0.0
 40
22.0
 50
90.0
 51
243.20204
  0
LINE
  8
0
  6
CONTINUOUS
 62
     1
 10
361.87
 20
761.72
 30
0.0
 11
399.87
 21
761.72
 31
0.0
  0
LINE
  8
0
  6
CONTINUOUS
 62
     1
 10
317.37
 20
782.72
 30
0.0
 11
343.84
 21
782.72
 31
0.0
  0
ARC
  8
0
  6
CONTINUOUS
 62
     1
 10
326.87
 20
761.72
 30
0.0
 40
22.0
 50
107.34781
 51
270.0
  0
LINE
  8
0
  6
CONTINUOUS
 62
     1
 10
326.87
 20
739.72
 30
0.0
 11
472.86
 21
739.72
 31
0.0
  0
LINE
  8
0
  6
CONTINUOUS
 62
     1
 10
348.53
 20
779.45
 30
0.0
 11
352.37
 21
768.92
 31
0.0
  0
ARC
  8
0
  6
CONTINUOUS
 62
     1
 10
343.84
 20
777.72
 30
0.0
 40
5.0
 50
20.247501
 51
90.0
  0
ARC
  8
0
  6
CONTINUOUS
 62
     1
 10
357.87
 20
763.86
 30
0.0
 40
2.0
 50
0.0
 51
62.922248
  0
ARC
  8
0
  6
CONTINUOUS
 62
     1
 10
361.87
 20
763.72
 30
0.0
 40
2.0
 50
180.0
 51
270.0
  0
LINE
  8
0
  6
CONTINUOUS
 62
     1
 10
357.06
 20
765.64
 30
0.0
 11
358.78
 21
765.64
 31
0.0
  0
ARC
  8
0
  6
CONTINUOUS
 62
     1
 10
357.06
 20
770.64
 30
0.0
 40
5.0
 50
200.13989
 51
270.0
  0
ARC
  8
0
  6
CONTINUOUS
 62
     1
 10
472.86
 20
761.72
 30
0.0
 40
22.0
 50
270.0
 51
72.652189
  0
LINE
  8
0
  6
CONTINUOUS
 62
     1
 10
358.26
 20
746.06
 30
0.0
 11
399.87
 21
746.06
 31
0.0
  0
LINE
  8
0
  6
CONTINUOUS
 62
     1
 10
362.87
 20
749.11
 30
0.0
 11
399.87
 21
749.11
 31
0.0
  0
LINE
  8
0
  6
CONTINUOUS
 62
     1
 10
359.87
 20
752.11
 30
0.0
 11
359.87
 21
763.86
 31
0.0
  0
ARC
  8
0
  6
CONTINUOUS
 62
     1
 10
362.87
 20
752.11
 30
0.0
 40
3.0
 50
180.0
 51
270.0
  0
ARC
  8
0
  6
CONTINUOUS
 62
     1
 10
351.87
 20
749.06
 30
0.0
 40
3.0
 50
270.0
 51
0.0
  0
LINE
  8
0
  6
CONTINUOUS
 62
     1
 10
342.7
 20
782.72
 30
0.0
 11
354.87
 21
754.03
 31
0.0
  0
LINE
  8
0
  6
CONTINUOUS
 62
     1
 10
354.87
 20
749.06
 30
0.0
 11
354.87
 21
763.86
 31
0.0
  0
ARC
  8
0
  6
CONTINUOUS
 62
     1
 10
399.87
 20
889.72
 30
0.0
 40
89.0
 50
0.0
 51
90.0
  0
ARC
  8
0
  6
CONTINUOUS
 62
     1
 10
399.87
 20
889.72
 30
0.0
 40
60.0
 50
0.0
 51
180.0
  0
CIRCLE
  8
0
  6
CONTINUOUS
 62
     1
 10
329.64
 20
918.8
 30
0.0
 40
8.0
  0
CIRCLE
  8
0
  6
CONTINUOUS
 62
     1
 10
370.78
 20
959.91
 30
0.0
 40
8.0
  0
CIRCLE
  8
0
  6
CONTINUOUS
 62
     1
 10
428.95
 20
959.91
 30
0.0
 40
8.0
  0
CIRCLE
  8
0
  6
CONTINUOUS
 62
     1
 10
470.09
 20
918.8
 30
0.0
 40
8.0
  0
LINE
  8
0
  6
CONTINUOUS
 62
     1
 10
455.92
 20
782.72
 30
0.0
 11
482.36
 21
782.72
 31
0.0
  0
LINE
  8
0
  6
CONTINUOUS
 62
     1
 10
444.86
 20
754.03
 30
0.0
 11
457.06
 21
782.72
 31
0.0
  0
ARC
  8
0
  6
CONTINUOUS
 62
     1
 10
455.92
 20
777.72
 30
0.0
 40
5.0
 50
90.0
 51
159.79209
  0
ARC
  8
0
  6
CONTINUOUS
 62
     1
 10
442.67
 20
770.64
 30
0.0
 40
5.0
 50
270.0
 51
339.8601
  0
LINE
  8
0
  6
CONTINUOUS
 62
     1
 10
444.86
 20
749.06
 30
0.0
 11
444.86
 21
763.86
 31
0.0
  0
LINE
  8
0
  6
CONTINUOUS
 62
     1
 10
440.98
 20
765.64
 30
0.0
 11
442.67
 21
765.64
 31
0.0
  0
ARC
  8
0
  6
CONTINUOUS
 62
     1
 10
441.86
 20
763.86
 30
0.0
 40
2.0
 50
116.30696
 51
180.0
  0
LINE
  8
0
  6
CONTINUOUS
 62
     1
 10
447.36
 20
768.92
 30
0.0
 11
451.22
 21
779.45
 31
0.0
  0
LINE
  8
0
  6
CONTINUOUS
 62
     1
 10
399.87
 20
749.11
 30
0.0
 11
436.86
 21
749.11
 31
0.0
  0
LINE
  8
0
  6
CONTINUOUS
 62
     1
 10
399.87
 20
746.06
 30
0.0
 11
441.5
 21
746.06
 31
0.0
  0
LINE
  8
0
  6
CONTINUOUS
 62
     1
 10
399.87
 20
761.72
 30
0.0
 11
437.86
 21
761.72
 31
0.0
  0
ARC
  8
0
  6
CONTINUOUS
 62
     1
 10
447.86
 20
749.06
 30
0.0
 40
3.0
 50
180.0
 51
270.0
  0
ARC
  8
0
  6
CONTINUOUS
 62
     1
 10
436.86
 20
752.11
 30
0.0
 40
3.0
 50
270.0
 51
0.0
  0
LINE
  8
0
  6
CONTINUOUS
 62
     1
 10
439.86
 20
752.11
 30
0.0
 11
439.86
 21
763.86
 31
0.0
  0
ARC
  8
0
  6
CONTINUOUS
 62
     1
 10
437.86
 20
763.72
 30
0.0
 40
2.0
 50
270.0
 51
0.0
  0
LINE
  8
0
  6
CONTINUOUS
 62
     1
 10
259.87
 20
812.22
 30
0.0
 11
259.87
 21
835.22
 31
0.0
  0
LINE
  8
0
  6
CONTINUOUS
 62
     1
 10
301.87
 20
810.72
 30
0.0
 11
301.87
 21
836.72
 31
0.0
  0
LINE
  8
0
  6
CONTINUOUS
 62
     1
 10
260.87
 20
836.22
 30
0.0
 11
301.87
 21
836.22
 31
0.0
  0
LINE
  8
0
  6
CONTINUOUS
 62
     1
 10
260.87
 20
811.22
 30
0.0
 11
301.87
 21
811.22
 31
0.0
  0
LINE
  8
0
  6
CONTINUOUS
 62
     1
 10
259.87
 20
835.22
 30
0.0
 11
260.87
 21
836.22
 31
0.0
  0
LINE
  8
0
  6
CONTINUOUS
 62
     1
 10
259.87
 20
812.22
 30
0.0
 11
260.87
 21
811.22
 31
0.0
  0
LINE
  8
0
  6
CONTINUOUS
 62
     1
 10
260.87
 20
827.22
 30
0.0
 11
260.87
 21
836.22
 31
0.0
  0
LINE
  8
0
  6
CONTINUOUS
 62
     1
 10
259.87
 20
827.22
 30
0.0
 11
296.37
 21
827.22
 31
0.0
  0
LINE
  8
0
  6
CONTINUOUS
 62
     1
 10
259.87
 20
820.22
 30
0.0
 11
296.37
 21
820.22
 31
0.0
  0
ARC
  8
0
  6
CONTINUOUS
 62
     1
 10
296.37
 20
823.72
 30
0.0
 40
3.5
 50
270.0
 51
90.0
  0
LINE
  8
0
  6
CONTINUOUS
 62
     1
 10
260.87
 20
811.22
 30
0.0
 11
260.87
 21
820.22
 31
0.0
  0
LINE
  8
0
  6
CONTINUOUS
 62
     1
 10
302.87
 20
837.72
 30
0.0
 11
307.37
 21
837.72
 31
0.0
  0
LINE
  8
0
  6
CONTINUOUS
 62
     1
 10
302.87
 20
809.72
 30
0.0
 11
307.37
 21
809.72
 31
0.0
  0
LINE
  8
0
  6
CONTINUOUS
 62
     1
 10
301.87
 20
836.72
 30
0.0
 11
302.87
 21
837.72
 31
0.0
  0
LINE
  8
0
  6
CONTINUOUS
 62
     1
 10
301.87
 20
810.72
 30
0.0
 11
302.87
 21
809.72
 31
0.0
  0
LINE
  8
0
  6
CONTINUOUS
 62
     1
 10
302.87
 20
809.72
 30
0.0
 11
302.87
 21
837.72
 31
0.0
  0
LINE
  8
0
  6
CONTINUOUS
 62
     1
 10
497.86
 20
811.22
 30
0.0
 11
538.86
 21
811.22
 31
0.0
  0
LINE
  8
0
  6
CONTINUOUS
 62
     1
 10
497.86
 20
836.22
 30
0.0
 11
538.86
 21
836.22
 31
0.0
  0
LINE
  8
0
  6
CONTINUOUS
 62
     1
 10
503.36
 20
820.22
 30
0.0
 11
539.86
 21
820.22
 31
0.0
  0
LINE
  8
0
  6
CONTINUOUS
 62
     1
 10
503.36
 20
827.22
 30
0.0
 11
539.86
 21
827.22
 31
0.0
  0
LINE
  8
0
  6
CONTINUOUS
 62
     1
 10
538.86
 20
827.22
 30
0.0
 11
538.86
 21
836.22
 31
0.0
  0
LINE
  8
0
  6
CONTINUOUS
 62
     1
 10
539.86
 20
812.22
 30
0.0
 11
539.86
 21
835.22
 31
0.0
  0
LINE
  8
0
  6
CONTINUOUS
 62
     1
 10
538.86
 20
811.22
 30
0.0
 11
538.86
 21
820.22
 31
0.0
  0
LINE
  8
0
  6
CONTINUOUS
 62
     1
 10
538.86
 20
811.22
 30
0.0
 11
539.86
 21
812.22
 31
0.0
  0
LINE
  8
0
  6
CONTINUOUS
 62
     1
 10
538.86
 20
836.22
 30
0.0
 11
539.86
 21
835.22
 31
0.0
  0
LINE
  8
0
  6
CONTINUOUS
 62
     1
 10
496.86
 20
809.72
 30
0.0
 11
496.86
 21
837.72
 31
0.0
  0
LINE
  8
0
  6
CONTINUOUS
 62
     1
 10
497.86
 20
810.72
 30
0.0
 11
497.86
 21
836.72
 31
0.0
  0
LINE
  8
0
  6
CONTINUOUS
 62
     1
 10
492.36
 20
809.72
 30
0.0
 11
496.86
 21
809.72
 31
0.0
  0
LINE
  8
0
  6
CONTINUOUS
 62
     1
 10
496.86
 20
809.72
 30
0.0
 11
497.86
 21
810.72
 31
0.0
  0
ARC
  8
0
  6
CONTINUOUS
 62
     1
 10
503.36
 20
823.72
 30
0.0
 40
3.5
 50
90.0
 51
270.0
  0
LINE
  8
0
  6
CONTINUOUS
 62
     1
 10
492.36
 20
837.72
 30
0.0
 11
496.86
 21
837.72
 31
0.0
  0
LINE
  8
0
  6
CONTINUOUS
 62
     1
 10
496.86
 20
837.72
 30
0.0
 11
497.86
 21
836.72
 31
0.0
  0
ARC
  8
0
  6
CONTINUOUS
 62
     1
 10
399.87
 20
889.72
 30
0.0
 40
89.0
 50
90.0
 51
180.0
  0
LINE
  8
0
  6
CONTINUOUS
 62
     1
 10
492.36
 20
795.89
 30
0.0
 11
492.36
 21
823.72
 31
0.0
  0
LINE
  8
0
  6
CONTINUOUS
 62
     1
 10
482.36
 20
782.72
 30
0.0
 11
482.36
 21
823.72
 31
0.0
  0
LINE
  8
0
  6
CONTINUOUS
 62
     1
 10
490.36
 20
782.72
 30
0.0
 11
490.36
 21
823.72
 31
0.0
  0
ARC
  8
0
  6
CONTINUOUS
 62
     1
 10
487.36
 20
871.72
 30
0.0
 40
3.0
 50
0.0
 51
85.763605
  0
LINE
  8
0
  6
CONTINUOUS
 62
     1
 10
482.36
 20
823.72
 30
0.0
 11
482.36
 21
856.33
 31
0.0
  0
LINE
  8
0
  6
CONTINUOUS
 62
     1
 10
490.36
 20
794.72
 30
0.0
 11
492.36
 21
795.89
 31
0.0
  0
LINE
  8
0
  6
CONTINUOUS
 62
     1
 10
490.36
 20
852.72
 30
0.0
 11
492.36
 21
851.53
 31
0.0
  0
LINE
  8
0
  6
CONTINUOUS
 62
     1
 10
490.36
 20
823.72
 30
0.0
 11
490.36
 21
871.72
 31
0.0
  0
LINE
  8
0
  6
CONTINUOUS
 62
     1
 10
492.36
 20
823.72
 30
0.0
 11
492.36
 21
851.53
 31
0.0
  0
LINE
  8
0
  6
CONTINUOUS
 62
     1
 10
482.36
 20
782.72
 30
0.0
 11
490.36
 21
782.72
 31
0.0
  0
LINE
  8
0
  6
CONTINUOUS
 62
     1
 10
309.37
 20
823.72
 30
0.0
 11
309.37
 21
871.72
 31
0.0
  0
ARC
  8
0
  6
CONTINUOUS
 62
     1
 10
312.37
 20
871.72
 30
0.0
 40
3.0
 50
94.236394
 51
180.0
  0
LINE
  8
0
  6
CONTINUOUS
 62
     1
 10
317.37
 20
823.72
 30
0.0
 11
317.37
 21
856.33
 31
0.0
  0
LINE
  8
0
  6
CONTINUOUS
 62
     1
 10
307.37
 20
851.53
 30
0.0
 11
309.37
 21
852.72
 31
0.0
  0
LINE
  8
0
  6
CONTINUOUS
 62
     1
 10
307.37
 20
823.72
 30
0.0
 11
307.37
 21
851.53
 31
0.0
  0
LINE
  8
0
  6
CONTINUOUS
 62
     1
 10
307.37
 20
795.89
 30
0.0
 11
309.37
 21
794.72
 31
0.0
  0
LINE
  8
0
  6
CONTINUOUS
 62
     1
 10
309.37
 20
782.72
 30
0.0
 11
309.37
 21
823.72
 31
0.0
  0
LINE
  8
0
  6
CONTINUOUS
 62
     1
 10
307.37
 20
795.89
 30
0.0
 11
307.37
 21
823.72
 31
0.0
  0
LINE
  8
0
  6
CONTINUOUS
 62
     1
 10
309.37
 20
782.72
 30
0.0
 11
317.37
 21
782.72
 31
0.0
  0
LINE
  8
0
  6
CONTINUOUS
 62
     1
 10
317.37
 20
782.72
 30
0.0
 11
317.37
 21
823.72
 31
0.0
  0
CIRCLE
  8
0
  6
CONTINUOUS
 62
     1
 10
370.78
 20
819.5
 30
0.0
 40
8.0
  0
CIRCLE
  8
0
  6
CONTINUOUS
 62
     1
 10
428.95
 20
819.5
 30
0.0
 40
8.0
  0
CIRCLE
  8
0
  6
CONTINUOUS
 62
     1
 10
470.09
 20
860.64
 30
0.0
 40
8.0
  0
ARC
  8
0
  6
CONTINUOUS
 62
     1
 10
399.87
 20
889.72
 30
0.0
 40
89.0
 50
270.0
 51
0.0
  0
ARC
  8
0
  6
CONTINUOUS
 62
     1
 10
399.87
 20
889.72
 30
0.0
 40
89.0
 50
180.0
 51
270.0
  0
CIRCLE
  8
0
  6
CONTINUOUS
 62
     1
 10
329.64
 20
860.64
 30
0.0
 40
8.0
  0
LINE
  8
0
  6
CONTINUOUS
 62
     1
 10
346.7
 20
781.81
 30
0.0
 11
346.7
 21
818.36
 31
0.0
  0
LINE
  8
0
  6
CONTINUOUS
 62
     1
 10
359.87
 20
763.86
 30
0.0
 11
359.87
 21
810.22
 31
0.0
  0
LINE
  8
0
  6
CONTINUOUS
 62
     1
 10
439.86
 20
763.86
 30
0.0
 11
439.86
 21
810.22
 31
0.0
  0
LINE
  8
0
  6
CONTINUOUS
 62
     1
 10
453.06
 20
781.81
 30
0.0
 11
453.06
 21
818.36
 31
0.0
  0
ARC
  8
0
  6
CONTINUOUS
 62
     1
 10
399.87
 20
889.72
 30
0.0
 40
60.0
 50
180.0
 51
0.0
  0
LINE
  8
0
  6
CONTINUOUS
 62
     1
 10
325.59
 20
858.28
 30
0.0
 11
329.64
 21
855.94
 31
0.0
  0
LINE
  8
0
  6
CONTINUOUS
 62
     1
 10
325.59
 20
858.28
 30
0.0
 11
325.59
 21
862.97
 31
0.0
  0
LINE
  8
0
  6
CONTINUOUS
 62
     1
 10
325.59
 20
862.97
 30
0.0
 11
329.64
 21
865.33
 31
0.0
  0
LINE
  8
0
  6
CONTINUOUS
 62
     1
 10
329.64
 20
865.33
 30
0.0
 11
333.73
 21
862.97
 31
0.0
  0
LINE
  8
0
  6
CONTINUOUS
 62
     1
 10
333.73
 20
858.28
 30
0.0
 11
333.73
 21
862.97
 31
0.0
  0
LINE
  8
0
  6
CONTINUOUS
 62
     1
 10
329.64
 20
855.94
 30
0.0
 11
333.73
 21
858.28
 31
0.0
  0
LINE
  8
0
  6
CONTINUOUS
 62
     1
 10
466.0
 20
858.28
 30
0.0
 11
470.09
 21
855.94
 31
0.0
  0
LINE
  8
0
  6
CONTINUOUS
 62
     1
 10
466.0
 20
858.28
 30
0.0
 11
466.0
 21
862.97
 31
0.0
  0
LINE
  8
0
  6
CONTINUOUS
 62
     1
 10
466.0
 20
862.97
 30
0.0
 11
470.09
 21
865.33
 31
0.0
  0
LINE
  8
0
  6
CONTINUOUS
 62
     1
 10
470.09
 20
865.33
 30
0.0
 11
474.14
 21
862.97
 31
0.0
  0
LINE
  8
0
  6
CONTINUOUS
 62
     1
 10
474.14
 20
858.28
 30
0.0
 11
474.14
 21
862.97
 31
0.0
  0
LINE
  8
0
  6
CONTINUOUS
 62
     1
 10
470.09
 20
855.94
 30
0.0
 11
474.14
 21
858.28
 31
0.0
  0
LINE
  8
0
  6
CONTINUOUS
 62
     1
 10
424.89
 20
817.14
 30
0.0
 11
428.95
 21
814.81
 31
0.0
  0
LINE
  8
0
  6
CONTINUOUS
 62
     1
 10
424.89
 20
817.14
 30
0.0
 11
424.89
 21
821.86
 31
0.0
  0
LINE
  8
0
  6
CONTINUOUS
 62
     1
 10
424.89
 20
821.86
 30
0.0
 11
428.95
 21
824.19
 31
0.0
  0
LINE
  8
0
  6
CONTINUOUS
 62
     1
 10
428.95
 20
824.19
 30
0.0
 11
433.03
 21
821.86
 31
0.0
  0
LINE
  8
0
  6
CONTINUOUS
 62
     1
 10
433.03
 20
817.14
 30
0.0
 11
433.03
 21
821.86
 31
0.0
  0
LINE
  8
0
  6
CONTINUOUS
 62
     1
 10
428.95
 20
814.81
 30
0.0
 11
433.03
 21
817.14
 31
0.0
  0
LINE
  8
0
  6
CONTINUOUS
 62
     1
 10
366.73
 20
817.14
 30
0.0
 11
370.78
 21
814.81
 31
0.0
  0
LINE
  8
0
  6
CONTINUOUS
 62
     1
 10
366.73
 20
817.14
 30
0.0
 11
366.73
 21
821.86
 31
0.0
  0
LINE
  8
0
  6
CONTINUOUS
 62
     1
 10
366.73
 20
821.86
 30
0.0
 11
370.78
 21
824.19
 31
0.0
  0
LINE
  8
0
  6
CONTINUOUS
 62
     1
 10
370.78
 20
824.19
 30
0.0
 11
374.87
 21
821.86
 31
0.0
  0
LINE
  8
0
  6
CONTINUOUS
 62
     1
 10
374.87
 20
817.14
 30
0.0
 11
374.87
 21
821.86
 31
0.0
  0
LINE
  8
0
  6
CONTINUOUS
 62
     1
 10
370.78
 20
814.81
 30
0.0
 11
374.87
 21
817.14
 31
0.0
  0
LINE
  8
0
  6
CONTINUOUS
 62
     1
 10
466.0
 20
921.14
 30
0.0
 11
470.09
 21
923.5
 31
0.0
  0
LINE
  8
0
  6
CONTINUOUS
 62
     1
 10
466.0
 20
916.44
 30
0.0
 11
466.0
 21
921.14
 31
0.0
  0
LINE
  8
0
  6
CONTINUOUS
 62
     1
 10
466.0
 20
916.44
 30
0.0
 11
470.09
 21
914.11
 31
0.0
  0
LINE
  8
0
  6
CONTINUOUS
 62
     1
 10
470.09
 20
914.11
 30
0.0
 11
474.14
 21
916.44
 31
0.0
  0
LINE
  8
0
  6
CONTINUOUS
 62
     1
 10
474.14
 20
916.44
 30
0.0
 11
474.14
 21
921.14
 31
0.0
  0
LINE
  8
0
  6
CONTINUOUS
 62
     1
 10
470.09
 20
923.5
 30
0.0
 11
474.14
 21
921.14
 31
0.0
  0
LINE
  8
0
  6
CONTINUOUS
 62
     1
 10
424.89
 20
962.27
 30
0.0
 11
428.95
 21
964.63
 31
0.0
  0
LINE
  8
0
  6
CONTINUOUS
 62
     1
 10
424.89
 20
957.58
 30
0.0
 11
424.89
 21
962.27
 31
0.0
  0
LINE
  8
0
  6
CONTINUOUS
 62
     1
 10
424.89
 20
957.58
 30
0.0
 11
428.95
 21
955.22
 31
0.0
  0
LINE
  8
0
  6
CONTINUOUS
 62
     1
 10
428.95
 20
955.22
 30
0.0
 11
433.03
 21
957.58
 31
0.0
  0
LINE
  8
0
  6
CONTINUOUS
 62
     1
 10
433.03
 20
957.58
 30
0.0
 11
433.03
 21
962.27
 31
0.0
  0
LINE
  8
0
  6
CONTINUOUS
 62
     1
 10
428.95
 20
964.63
 30
0.0
 11
433.03
 21
962.27
 31
0.0
  0
LINE
  8
0
  6
CONTINUOUS
 62
     1
 10
366.73
 20
962.27
 30
0.0
 11
370.78
 21
964.63
 31
0.0
  0
LINE
  8
0
  6
CONTINUOUS
 62
     1
 10
366.73
 20
957.58
 30
0.0
 11
366.73
 21
962.27
 31
0.0
  0
LINE
  8
0
  6
CONTINUOUS
 62
     1
 10
366.73
 20
957.58
 30
0.0
 11
370.78
 21
955.22
 31
0.0
  0
LINE
  8
0
  6
CONTINUOUS
 62
     1
 10
370.78
 20
955.22
 30
0.0
 11
374.87
 21
957.58
 31
0.0
  0
LINE
  8
0
  6
CONTINUOUS
 62
     1
 10
374.87
 20
957.58
 30
0.0
 11
374.87
 21
962.27
 31
0.0
  0
LINE
  8
0
  6
CONTINUOUS
 62
     1
 10
370.78
 20
964.63
 30
0.0
 11
374.87
 21
962.27
 31
0.0
  0
LINE
  8
0
  6
CONTINUOUS
 62
     1
 10
325.59
 20
921.14
 30
0.0
 11
329.64
 21
923.5
 31
0.0
  0
LINE
  8
0
  6
CONTINUOUS
 62
     1
 10
325.59
 20
916.44
 30
0.0
 11
325.59
 21
921.14
 31
0.0
  0
LINE
  8
0
  6
CONTINUOUS
 62
     1
 10
325.59
 20
916.44
 30
0.0
 11
329.64
 21
914.11
 31
0.0
  0
LINE
  8
0
  6
CONTINUOUS
 62
     1
 10
329.64
 20
914.11
 30
0.0
 11
333.73
 21
916.44
 31
0.0
  0
LINE
  8
0
  6
CONTINUOUS
 62
     1
 10
333.73
 20
916.44
 30
0.0
 11
333.73
 21
921.14
 31
0.0
  0
LINE
  8
0
  6
CONTINUOUS
 62
     1
 10
329.64
 20
923.5
 30
0.0
 11
333.73
 21
921.14
 31
0.0
  0
CIRCLE
  8
0
  6
CONTINUOUS
 62
     1
 10
399.87
 20
889.72
 30
0.0
 40
17.5
  0
CIRCLE
  8
0
  6
CONTINUOUS
 62
     1
 10
399.87
 20
889.72
 30
0.0
 40
15.5
  0
CIRCLE
  8
0
  6
CONTINUOUS
 62
     1
 10
399.87
 20
889.72
 30
0.0
 40
25.0
  0
CIRCLE
  8
0
  6
CONTINUOUS
 62
     1
 10
399.87
 20
889.72
 30
0.0
 40
40.0
  0
LINE
  8
0
  6
CONTINUOUS
 62
     3
 10
1147.8
 20
741.73
 30
0.0
 11
1147.8
 21
781.73
 31
0.0
  0
LINE
  8
0
  6
CONTINUOUS
 62
     3
 10
1147.8
 20
750.73
 30
0.0
 11
1166.8
 21
750.73
 31
0.0
  0
LINE
  8
0
  6
CONTINUOUS
 62
     3
 10
1146.99
 20
741.73
 30
0.0
 11
1147.8
 21
741.73
 31
0.0
  0
LINE
  8
0
  6
CONTINUOUS
 62
     3
 10
1147.8
 20
772.73
 30
0.0
 11
1166.8
 21
772.73
 31
0.0
  0
LINE
  8
0
  6
CONTINUOUS
 62
     3
 10
1146.55
 20
781.73
 30
0.0
 11
1147.8
 21
781.73
 31
0.0
  0
TEXT
  8
0
  6
CONTINUOUS
 62
     3
 10
870.24
 20
1053.72
 30
0.0
 40
12.8
  1
９０
 50
0.0
 41
0.90625
 51
0.0
  7
KANJI29
  0
TEXT
  8
0
  6
CONTINUOUS
 62
     3
 10
884.7
 20
722.82
 30
0.0
 40
12.8
  1
Ｐ．Ｃ．Ｄ．１２５
 50
90.0
 41
0.90625
 51
0.0
  7
KANJI29
  0
TEXT
  8
0
  6
CONTINUOUS
 62
     3
 10
963.92
 20
745.92
 30
0.0
 40
12.8
  1
φ１６０
 50
90.0
 41
0.90625
 51
0.0
  7
KANJI29
  0
TEXT
  8
0
  6
CONTINUOUS
 62
     3
 10
1272.8
 20
860.72
 30
0.0
 40
12.8
  1
φ１２０
 50
90.0
 41
0.90625
 51
0.0
  7
KANJI29
  0
TEXT
  8
0
  6
CONTINUOUS
 62
     3
 10
820.53
 20
797.52
 30
0.0
 40
12.8
  1
φ８０
 50
90.0
 41
0.90625
 51
0.0
  7
KANJI29
  0
TEXT
  8
0
  6
CONTINUOUS
 62
     3
 10
798.84
 20
754.52
 30
0.0
 40
12.8
  1
φ５０
 50
90.0
 41
0.90625
 51
0.0
  7
KANJI29
  0
TEXT
  8
0
  6
CONTINUOUS
 62
     3
 10
798.84
 20
789.32
 30
0.0
 40
12.8
  1
　Ｌ＝１０
 50
90.0
 41
0.90625
 51
0.0
  7
KANJI29
  0
TEXT
  8
0
  6
CONTINUOUS
 62
     3
 10
724.8
 20
818.14
 30
0.0
 40
12.8
  1
５６
 50
0.0
 41
0.90625
 51
0.0
  7
KANJI29
  0
TEXT
  8
0
  6
CONTINUOUS
 62
     3
 10
670.2
 20
854.92
 30
0.0
 40
12.8
  1
φ３５
 50
90.0
 41
0.90625
 51
0.0
  7
KANJI29
  0
TEXT
  8
0
  6
CONTINUOUS
 62
     3
 10
670.2
 20
889.72
 30
0.0
 40
12.8
  1
ｈ７
 50
90.0
 41
0.90625
 51
0.0
  7
KANJI29
  0
TEXT
  8
0
  6
CONTINUOUS
 62
     3
 10
854.66
 20
543.73
 30
0.0
 40
12.8
  1
ＬＥ＝ストローク＋ＬＴ
 50
0.0
 41
0.90625
 51
0.0
  7
KANJI29
  0
TEXT
  8
0
  6
CONTINUOUS
 62
     3
 10
1106.2
 20
703.73
 30
0.0
 40
12.8
  1
２０
 50
0.0
 41
0.90625
 51
0.0
  7
KANJI29
  0
TEXT
  8
0
  6
CONTINUOUS
 62
     3
 10
1088.6
 20
623.73
 30
0.0
 40
12.8
  1
１１０
 50
0.0
 41
0.90625
 51
0.0
  7
KANJI29
  0
TEXT
  8
0
  6
CONTINUOUS
 62
     3
 10
962.02
 20
1003.72
 30
0.0
 40
12.8
  1
４－φ１８
 50
0.0
 41
0.90625
 51
0.0
  7
KANJI29
  0
TEXT
  8
0
  6
CONTINUOUS
 62
     3
 10
721.29
 20
703.73
 30
0.0
 40
12.8
  1
グリースニップル
 50
0.0
 41
0.90625
 51
0.0
  7
KANJI29
  0
TEXT
  8
0
  6
CONTINUOUS
 62
     3
 10
1232.8
 20
866.51
 30
0.0
 40
12.8
  1
φ７６
 50
90.0
 41
0.90625
 51
0.0
  7
KANJI29
  0
TEXT
  8
0
  6
CONTINUOUS
 62
     3
 10
376.6652
 20
1012.72
 30
0.0
 40
12.8
  1
１４６
 50
0.0
 41
0.90625
 51
0.0
  7
KANJI29
  0
TEXT
  8
0
  6
CONTINUOUS
 62
     3
 10
376.6652
 20
1052.72
 30
0.0
 40
12.8
  1
１９０
 50
0.0
 41
0.90625
 51
0.0
  7
KANJI29
  0
TEXT
  8
0
  6
CONTINUOUS
 62
     3
 10
215.87
 20
839.32
 30
0.0
 40
12.8
  1
６６
 50
90.0
 41
0.90625
 51
0.0
  7
KANJI29
  0
TEXT
  8
0
  6
CONTINUOUS
 62
     3
 10
376.6652
 20
623.73
 30
0.0
 40
12.8
  1
１８５
 50
0.0
 41
0.90625
 51
0.0
  7
KANJI29
  0
TEXT
  8
0
  6
CONTINUOUS
 62
     3
 10
376.6652
 20
583.73
 30
0.0
 40
12.8
  1
２８０
 50
0.0
 41
0.90625
 51
0.0
  7
KANJI29
  0
TEXT
  8
0
  6
CONTINUOUS
 62
     3
 10
228.44
 20
991.78
 30
0.0
 40
12.8
  1
４－φ２２
 50
0.0
 41
0.90625
 51
0.0
  7
KANJI29
  0
TEXT
  8
0
  6
CONTINUOUS
 62
     3
 10
506.18
 20
849.79
 30
0.0
 40
12.8
  1
反時計方向の回転
 50
0.0
 41
1.0
 51
0.0
  7
KANJI3
  0
TEXT
  8
0
  6
CONTINUOUS
 62
     3
 10
175.87
 20
802.52
 30
0.0
 40
12.8
  1
１２８
 50
90.0
 41
0.90625
 51
0.0
  7
KANJI29
  0
TEXT
  8
0
  6
CONTINUOUS
 62
     3
 10
175.87
 20
898.32
 30
0.0
 40
12.8
  1
５２
 50
90.0
 41
0.90625
 51
0.0
  7
KANJI29
  0
TEXT
  8
0
  6
CONTINUOUS
 62
     3
 10
135.87
 20
828.52
 30
0.0
 40
12.8
  1
２２４
 50
90.0
 41
0.90625
 51
0.0
  7
KANJI29
  0
TEXT
  8
0
  6
CONTINUOUS
 62
     3
 10
177.27
 20
739.9348
 30
0.0
 40
12.8
  1
２２
 50
90.0
 41
0.90625
 51
0.0
  7
KANJI29
  0
TEXT
  8
0
  6
CONTINUOUS
 62
     3
 10
176.07
 20
941.72
 30
0.0
 40
12.8
  1
２２
 50
90.0
 41
0.90625
 51
0.0
  7
KANJI29
  0
TEXT
  8
0
  6
CONTINUOUS
 62
     3
 10
1116.4
 20
660.43
 30
0.0
 40
12.8
  1
５６
 50
0.0
 41
0.90625
 51
0.0
  7
KANJI29
  0
LINE
  8
0
  6
CONTINUOUS
 62
     1
 10
1030.8
 20
949.72
 30
0.0
 11
1039.8
 21
949.72
 31
0.0
  0
LINE
  8
0
  6
CONTINUOUS
 62
     1
 10
1030.8
 20
829.72
 30
0.0
 11
1030.8
 21
949.72
 31
0.0
  0
LINE
  8
0
  6
CONTINUOUS
 62
     1
 10
1030.8
 20
829.72
 30
0.0
 11
1039.8
 21
829.72
 31
0.0
  0
LINE
  8
0
  6
CONTINUOUS
 62
     1
 10
932.64
 20
914.72
 30
0.0
 11
1030.8
 21
914.72
 31
0.0
  0
LINE
  8
0
  6
CONTINUOUS
 62
     2
 10
932.64
 20
909.47
 30
0.0
 11
1030.8
 21
909.47
 31
0.0
  0
LINE
  8
0
  6
CONTINUOUS
 62
     2
 10
932.64
 20
869.97
 30
0.0
 11
1030.8
 21
869.97
 31
0.0
  0
LINE
  8
0
  6
CONTINUOUS
 62
     1
 10
932.64
 20
864.72
 30
0.0
 11
1030.8
 21
864.72
 31
0.0
  0
LINE
  8
0
  6
CONTINUOUS
 62
     2
 10
1166.8
 20
592.65
 30
0.0
 11
1166.8
 21
583.6
 31
0.0
  0
LINE
  8
0
  6
CONTINUOUS
 62
     2
 10
1166.8
 20
587.6
 30
0.0
 11
1157.140741737
 21
590.188190451
 31
0.0
  0
LINE
  8
0
  6
CONTINUOUS
 62
     2
 10
1166.8
 20
587.6
 30
0.0
 11
1157.140741737
 21
585.011809549
 31
0.0
  0
LINE
  8
0
  6
CONTINUOUS
 62
     2
 10
1166.8
 20
587.6
 30
0.0
 11
1030.8
 21
587.6
 31
0.0
  0
LINE
  8
0
  6
CONTINUOUS
 62
     2
 10
1030.8
 20
587.6
 30
0.0
 11
1040.459258263
 21
585.011809549
 31
0.0
  0
LINE
  8
0
  6
CONTINUOUS
 62
     2
 10
1030.8
 20
587.6
 30
0.0
 11
1040.459258263
 21
590.188190451
 31
0.0
  0
LINE
  8
0
  6
CONTINUOUS
 62
     2
 10
1030.8
 20
825.72
 30
0.0
 11
1030.8
 21
583.6
 31
0.0
  0
TEXT
  8
0
  6
CONTINUOUS
 62
     2
 10
1081.4
 20
590.4
 30
0.0
 40
12.8
  1
１３６
 50
0.0
 41
0.90625
 51
0.0
  7
KANJI30
  0
LINE
  8
0
  6
CONTINUOUS
 62
     2
 10
1119.55
 20
592.12
 30
0.0
 11
1126.47820323
 21
604.12
 31
0.0
  0
LINE
  8
0
  6
CONTINUOUS
 62
     2
 10
1126.47820323
 20
604.12
 30
0.0
 11
1133.406406461
 21
592.12
 31
0.0
  0
LINE
  8
0
  6
CONTINUOUS
 62
     2
 10
1133.406406461
 20
592.12
 30
0.0
 11
1119.55
 21
592.12
 31
0.0
  0
TEXT
  8
0
  6
CONTINUOUS
 62
     2
 10
1123.649776106
 20
593.291572875
 30
0.0
 40
5.656854249
  1
２
 50
0.0
 41
1.0
 51
0.0
  7
KANJI31
  0
LINE
  8
0
  6
CONTINUOUS
 62
     2
 10
1141.45
 20
662.57
 30
0.0
 11
1148.37820323
 21
674.57
 31
0.0
  0
LINE
  8
0
  6
CONTINUOUS
 62
     2
 10
1148.37820323
 20
674.57
 30
0.0
 11
1155.306406461
 21
662.57
 31
0.0
  0
LINE
  8
0
  6
CONTINUOUS
 62
     2
 10
1155.306406461
 20
662.57
 30
0.0
 11
1141.45
 21
662.57
 31
0.0
  0
TEXT
  8
0
  6
CONTINUOUS
 62
     2
 10
1145.549776106
 20
663.741572875
 30
0.0
 40
5.656854249
  1
１
 50
0.0
 41
1.0
 51
0.0
  7
KANJI31
  0
LINE
  8
1
  6
CONTINUOUS
 62
     2
 10
377.44
 20
201.46
 30
0.0
 11
442.88
 21
201.46
 31
0.0
  0
LINE
  8
1
  6
LTYPE2
 62
     2
 10
352.68
 20
334.06
 30
0.0
 11
469.16
 21
334.06
 31
0.0
  0
LINE
  8
1
  6
LTYPE2
 62
     2
 10
410.92
 20
275.82
 30
0.0
 11
410.92
 21
403.14
 31
0.0
  0
LINE
  8
1
  6
CONTINUOUS
 62
     2
 10
396.92
 20
436.06
 30
0.0
 11
424.92
 21
436.06
 31
0.0
  0
LINE
  8
1
  6
CONTINUOUS
 62
     2
 10
424.92
 20
400.06
 30
0.0
 11
424.92
 21
442.06
 31
0.0
  0
LINE
  8
1
  6
CONTINUOUS
 62
     2
 10
396.92
 20
400.06
 30
0.0
 11
396.92
 21
442.06
 31
0.0
  0
LINE
  8
1
  6
CONTINUOUS
 62
     2
 10
416.92
 20
433.9168
 30
0.0
 11
424.92
 21
436.06
 31
0.0
  0
LINE
  8
1
  6
CONTINUOUS
 62
     2
 10
424.92
 20
436.06
 30
0.0
 11
416.92
 21
438.2036
 31
0.0
  0
LINE
  8
1
  6
CONTINUOUS
 62
     2
 10
404.92
 20
438.2036
 30
0.0
 11
396.92
 21
436.06
 31
0.0
  0
LINE
  8
1
  6
CONTINUOUS
 62
     2
 10
396.92
 20
436.06
 30
0.0
 11
404.92
 21
433.9168
 31
0.0
  0
LINE
  8
1
  6
CONTINUOUS
 62
     2
 10
377.64
 20
371.3
 30
0.0
 11
444.24
 21
296.82
 31
0.0
  0
LINE
  8
1
  6
CONTINUOUS
 62
     2
 10
454.9052
 20
284.8932
 30
0.0
 11
444.24
 21
296.82
 31
0.0
  0
LINE
  8
1
  6
CONTINUOUS
 62
     2
 10
451.1708
 20
292.2856
 30
0.0
 11
444.24
 21
296.82
 31
0.0
  0
LINE
  8
1
  6
CONTINUOUS
 62
     2
 10
444.24
 20
296.82
 30
0.0
 11
447.9748
 21
289.428
 31
0.0
  0
LINE
  8
1
  6
CONTINUOUS
 62
     2
 10
366.9752
 20
383.2272
 30
0.0
 11
377.64
 21
371.3
 31
0.0
  0
LINE
  8
1
  6
CONTINUOUS
 62
     2
 10
370.7096
 20
375.8348
 30
0.0
 11
377.64
 21
371.3
 31
0.0
  0
LINE
  8
1
  6
CONTINUOUS
 62
     2
 10
377.64
 20
371.3
 30
0.0
 11
373.9056
 21
378.6924
 31
0.0
  0
LINE
  8
1
  6
CONTINUOUS
 62
     2
 10
454.9068
 20
284.8944
 30
0.0
 11
489.0932
 21
246.6724
 31
0.0
  0
LINE
  8
1
  6
CONTINUOUS
 62
     2
 10
320.92
 20
384.06
 30
0.0
 11
320.92
 21
396.06
 31
0.0
  0
LINE
  8
1
  6
CONTINUOUS
 62
     2
 10
392.92
 20
396.06
 30
0.0
 11
314.92
 21
396.06
 31
0.0
  0
LINE
  8
1
  6
CONTINUOUS
 62
     2
 10
406.92
 20
384.06
 30
0.0
 11
314.92
 21
384.06
 31
0.0
  0
LINE
  8
1
  6
CONTINUOUS
 62
     2
 10
320.92
 20
412.06
 30
0.0
 11
320.92
 21
396.06
 31
0.0
  0
LINE
  8
1
  6
CONTINUOUS
 62
     2
 10
318.7768
 20
404.06
 30
0.0
 11
320.92
 21
396.06
 31
0.0
  0
LINE
  8
1
  6
CONTINUOUS
 62
     2
 10
320.92
 20
396.06
 30
0.0
 11
323.0636
 21
404.06
 31
0.0
  0
LINE
  8
1
  6
CONTINUOUS
 62
     2
 10
320.92
 20
384.06
 30
0.0
 11
320.92
 21
368.06
 31
0.0
  0
LINE
  8
1
  6
CONTINUOUS
 62
     2
 10
323.0636
 20
376.06
 30
0.0
 11
320.92
 21
384.06
 31
0.0
  0
LINE
  8
1
  6
CONTINUOUS
 62
     2
 10
320.92
 20
384.06
 30
0.0
 11
318.7768
 21
376.06
 31
0.0
  0
LINE
  8
1
  6
CONTINUOUS
 62
     2
 10
280.92
 20
368.06
 30
0.0
 11
280.92
 21
396.06
 31
0.0
  0
LINE
  8
1
  6
CONTINUOUS
 62
     2
 10
392.92
 20
396.06
 30
0.0
 11
274.92
 21
396.06
 31
0.0
  0
LINE
  8
1
  6
CONTINUOUS
 62
     2
 10
392.92
 20
368.06
 30
0.0
 11
274.92
 21
368.06
 31
0.0
  0
LINE
  8
1
  6
CONTINUOUS
 62
     2
 10
283.0636
 20
388.06
 30
0.0
 11
280.92
 21
396.06
 31
0.0
  0
LINE
  8
1
  6
CONTINUOUS
 62
     2
 10
280.92
 20
396.06
 30
0.0
 11
278.7768
 21
388.06
 31
0.0
  0
LINE
  8
1
  6
CONTINUOUS
 62
     2
 10
278.7768
 20
376.06
 30
0.0
 11
280.92
 21
368.06
 31
0.0
  0
LINE
  8
1
  6
CONTINUOUS
 62
     2
 10
280.92
 20
368.06
 30
0.0
 11
283.0636
 21
376.06
 31
0.0
  0
LINE
  8
1
  6
CONTINUOUS
 62
     2
 10
242.2
 20
284.06
 30
0.0
 11
242.2
 21
396.06
 31
0.0
  0
LINE
  8
1
  6
CONTINUOUS
 62
     2
 10
392.92
 20
396.06
 30
0.0
 11
236.2
 21
396.06
 31
0.0
  0
LINE
  8
1
  6
CONTINUOUS
 62
     2
 10
406.92
 20
284.06
 30
0.0
 11
236.2
 21
284.06
 31
0.0
  0
LINE
  8
1
  6
CONTINUOUS
 62
     2
 10
244.3436
 20
388.06
 30
0.0
 11
242.2
 21
396.06
 31
0.0
  0
LINE
  8
1
  6
CONTINUOUS
 62
     2
 10
242.2
 20
396.06
 30
0.0
 11
240.0568
 21
388.06
 31
0.0
  0
LINE
  8
1
  6
CONTINUOUS
 62
     2
 10
240.0568
 20
292.06
 30
0.0
 11
242.2
 21
284.06
 31
0.0
  0
LINE
  8
1
  6
CONTINUOUS
 62
     2
 10
242.2
 20
284.06
 30
0.0
 11
244.3436
 21
292.06
 31
0.0
  0
LINE
  8
1
  6
CONTINUOUS
 62
     1
 10
396.92
 20
396.06
 30
0.0
 11
424.92
 21
396.06
 31
0.0
  0
LINE
  8
1
  6
CONTINUOUS
 62
     1
 10
396.92
 20
368.06
 30
0.0
 11
396.92
 21
396.06
 31
0.0
  0
LINE
  8
1
  6
CONTINUOUS
 62
     1
 10
424.92
 20
368.06
 30
0.0
 11
424.92
 21
396.06
 31
0.0
  0
LINE
  8
1
  6
CONTINUOUS
 62
     1
 10
396.92
 20
368.06
 30
0.0
 11
424.92
 21
368.06
 31
0.0
  0
ARC
  8
1
  6
CONTINUOUS
 62
     1
 10
410.92
 20
334.06
 30
0.0
 40
50.0
 50
106.2602
 51
73.739795
  0
TEXT
  8
1
  6
CONTINUOUS
 62
     3
 10
449.541002631
 20
296.892411085
 30
0.0
 40
12.8
  1
φ２５
 50
311.82
 41
0.90625
 51
0.0
  7
KANJI29
  0
TEXT
  8
1
  6
CONTINUOUS
 62
     3
 10
472.740602631
 20
270.953611085
 30
0.0
 40
12.8
  1
ｈ６
 50
311.82
 41
0.90625
 51
0.0
  7
KANJI29
  0
TEXT
  8
1
  6
CONTINUOUS
 62
     3
 10
238.2
 20
322.66
 30
0.0
 40
12.8
  1
２８
 50
90.0
 41
0.90625
 51
0.0
  7
KANJI29
  0
TEXT
  8
1
  6
CONTINUOUS
 62
     3
 10
384.36
 20
204.9
 30
0.0
 40
18.0
  1
入力軸
 50
0.0
 41
1.0
 51
0.0
  7
KANJI32
  0
TEXT
  8
1
  6
CONTINUOUS
 62
     3
 10
405.32
 20
440.06
 30
0.0
 40
12.8
  1
７
 50
0.0
 41
0.90625
 51
0.0
  7
KANJI29
  0
TEXT
  8
1
  6
CONTINUOUS
 62
     3
 10
316.92
 20
382.86
 30
0.0
 40
12.8
  1
３
 50
90.0
 41
0.90625
 51
0.0
  7
KANJI29
  0
TEXT
  8
1
  6
CONTINUOUS
 62
     3
 10
276.52
 20
377.86
 30
0.0
 40
12.8
  1
７
 50
90.0
 41
0.90625
 51
0.0
  7
KANJI29
  0
TEXT
  8
10
  6
CONTINUOUS
 62
     3
 10
782.16
 20
421.42
 30
0.0
 40
12.8
  1
　４３０
 50
0.0
 41
0.78125
 51
0.0
  7
KANJI33
  0
TEXT
  8
10
  6
CONTINUOUS
 62
     3
 10
782.16
 20
393.42
 30
0.0
 40
12.8
  1
　５３０
 50
0.0
 41
0.78125
 51
0.0
  7
KANJI33
  0
TEXT
  8
10
  6
CONTINUOUS
 62
     3
 10
782.16
 20
365.42
 30
0.0
 40
12.8
  1
　６３０
 50
0.0
 41
0.78125
 51
0.0
  7
KANJI33
  0
TEXT
  8
10
  6
CONTINUOUS
 62
     3
 10
782.16
 20
337.42
 30
0.0
 40
12.8
  1
　７３０
 50
0.0
 41
0.78125
 51
0.0
  7
KANJI33
  0
TEXT
  8
10
  6
CONTINUOUS
 62
     3
 10
782.16
 20
309.42
 30
0.0
 40
12.8
  1
　８３０
 50
0.0
 41
0.78125
 51
0.0
  7
KANJI33
  0
TEXT
  8
10
  6
CONTINUOUS
 62
     3
 10
783.0
 20
253.38
 30
0.0
 40
12.8
  1
１０３０
 50
0.0
 41
0.78125
 51
0.0
  7
KANJI33
  0
TEXT
  8
10
  6
CONTINUOUS
 62
     3
 10
782.68
 20
226.18
 30
0.0
 40
12.8
  1
１３３０
 50
0.0
 41
0.78125
 51
0.0
  7
KANJI33
  0
TEXT
  8
10
  6
CONTINUOUS
 62
     3
 10
783.0
 20
281.38
 30
0.0
 40
12.8
  1
　９３０
 50
0.0
 41
0.78125
 51
0.0
  7
KANJI33
  0
TEXT
  8
10
  6
CONTINUOUS
 62
     3
 10
920.04
 20
423.1
 30
0.0
 40
12.8
  1
　４０
 50
0.0
 41
0.78125
 51
0.0
  7
KANJI33
  0
TEXT
  8
10
  6
CONTINUOUS
 62
     3
 10
920.04
 20
395.1
 30
0.0
 40
12.8
  1
　４２
 50
0.0
 41
0.78125
 51
0.0
  7
KANJI33
  0
TEXT
  8
10
  6
CONTINUOUS
 62
     3
 10
920.04
 20
367.1
 30
0.0
 40
12.8
  1
　４３
 50
0.0
 41
0.78125
 51
0.0
  7
KANJI33
  0
TEXT
  8
10
  6
CONTINUOUS
 62
     3
 10
920.04
 20
339.1
 30
0.0
 40
12.8
  1
　４４．５
 50
0.0
 41
0.78125
 51
0.0
  7
KANJI33
  0
TEXT
  8
10
  6
CONTINUOUS
 62
     3
 10
920.04
 20
311.1
 30
0.0
 40
12.8
  1
　４６
 50
0.0
 41
0.78125
 51
0.0
  7
KANJI33
  0
TEXT
  8
10
  6
CONTINUOUS
 62
     3
 10
920.04
 20
283.1
 30
0.0
 40
12.8
  1
　４７．５
 50
0.0
 41
0.78125
 51
0.0
  7
KANJI33
  0
TEXT
  8
10
  6
CONTINUOUS
 62
     3
 10
920.04
 20
255.1
 30
0.0
 40
12.8
  1
　５０
 50
0.0
 41
0.78125
 51
0.0
  7
KANJI33
  0
TEXT
  8
10
  6
CONTINUOUS
 62
     3
 10
920.04
 20
227.1
 30
0.0
 40
12.8
  1
　５３
 50
0.0
 41
0.78125
 51
0.0
  7
KANJI33
  0
TEXT
  8
10
  6
CONTINUOUS
 62
     3
 10
710.56
 20
450.22
 30
0.0
 40
12.8
  1
ストローク
 50
0.0
 41
0.78125
 51
0.0
  7
KANJI33
  0
TEXT
  8
10
  6
CONTINUOUS
 62
     3
 10
704.56
 20
421.74
 30
0.0
 40
12.8
  1
　　１００
 50
0.0
 41
0.78125
 51
0.0
  7
KANJI33
  0
TEXT
  8
10
  6
CONTINUOUS
 62
     3
 10
704.56
 20
393.74
 30
0.0
 40
12.8
  1
　　２００
 50
0.0
 41
0.78125
 51
0.0
  7
KANJI33
  0
TEXT
  8
10
  6
CONTINUOUS
 62
     3
 10
704.56
 20
365.74
 30
0.0
 40
12.8
  1
　　３００
 50
0.0
 41
0.78125
 51
0.0
  7
KANJI33
  0
TEXT
  8
10
  6
CONTINUOUS
 62
     3
 10
704.56
 20
337.74
 30
0.0
 40
12.8
  1
　　４００
 50
0.0
 41
0.78125
 51
0.0
  7
KANJI33
  0
TEXT
  8
10
  6
CONTINUOUS
 62
     3
 10
704.56
 20
309.74
 30
0.0
 40
12.8
  1
　　５００
 50
0.0
 41
0.78125
 51
0.0
  7
KANJI33
  0
TEXT
  8
10
  6
CONTINUOUS
 62
     3
 10
704.56
 20
281.74
 30
0.0
 40
12.8
  1
　　６００
 50
0.0
 41
0.78125
 51
0.0
  7
KANJI33
  0
TEXT
  8
10
  6
CONTINUOUS
 62
     3
 10
704.56
 20
253.74
 30
0.0
 40
12.8
  1
　　８００
 50
0.0
 41
0.78125
 51
0.0
  7
KANJI33
  0
TEXT
  8
10
  6
CONTINUOUS
 62
     3
 10
715.08
 20
226.5
 30
0.0
 40
12.8
  1
１０００
 50
0.0
 41
0.78125
 51
0.0
  7
KANJI33
  0
TEXT
  8
10
  6
CONTINUOUS
 62
     3
 10
787.16
 20
450.98
 30
0.0
 40
12.8
  1
ＬＥ
 50
0.0
 41
1.0
 51
0.0
  7
KANJI3
  0
TEXT
  8
10
  6
CONTINUOUS
 62
     3
 10
981.16
 20
450.22
 30
0.0
 40
12.8
  1
備考
 50
0.0
 41
1.0
 51
0.0
  7
KANJI3
  0
TEXT
  8
10
  6
CONTINUOUS
 62
     3
 10
916.36
 20
449.66
 30
0.0
 40
12.8
  1
概略重量
 50
0.0
 41
0.5625
 51
0.0
  7
KANJI22
  0
TEXT
  8
10
  6
CONTINUOUS
 62
     3
 10
948.52
 20
449.94
 30
0.0
 40
10.0
  1
（ｋｇ）
 50
0.0
 41
0.6
 51
0.0
  7
KANJI34
  0
TEXT
  8
10
  6
CONTINUOUS
 62
     3
 10
599.16
 20
450.42
 30
0.0
 40
12.8
  1
型式
 50
0.0
 41
1.0
 51
0.0
  7
KANJI3
  0
TEXT
  8
10
  6
CONTINUOUS
 62
     3
 10
837.76
 20
421.74
 30
0.0
 40
12.8
  1
　　３３０
 50
0.0
 41
0.78125
 51
0.0
  7
KANJI33
  0
TEXT
  8
10
  6
CONTINUOUS
 62
     3
 10
847.08
 20
226.5
 30
0.0
 40
12.8
  1
　３３０
 50
0.0
 41
0.78125
 51
0.0
  7
KANJI33
  0
TEXT
  8
10
  6
CONTINUOUS
 62
     3
 10
855.16
 20
450.98
 30
0.0
 40
12.8
  1
ＬＴ
 50
0.0
 41
1.0
 51
0.0
  7
KANJI3
  0
TEXT
  8
10
  6
CONTINUOUS
 62
     3
 10
837.76
 20
393.74
 30
0.0
 40
12.8
  1
　　３３０
 50
0.0
 41
0.78125
 51
0.0
  7
KANJI33
  0
TEXT
  8
10
  6
CONTINUOUS
 62
     3
 10
837.76
 20
365.74
 30
0.0
 40
12.8
  1
　　３３０
 50
0.0
 41
0.78125
 51
0.0
  7
KANJI33
  0
TEXT
  8
10
  6
CONTINUOUS
 62
     3
 10
837.76
 20
337.74
 30
0.0
 40
12.8
  1
　　３３０
 50
0.0
 41
0.78125
 51
0.0
  7
KANJI33
  0
TEXT
  8
10
  6
CONTINUOUS
 62
     3
 10
837.76
 20
309.74
 30
0.0
 40
12.8
  1
　　３３０
 50
0.0
 41
0.78125
 51
0.0
  7
KANJI33
  0
TEXT
  8
10
  6
CONTINUOUS
 62
     3
 10
837.76
 20
281.74
 30
0.0
 40
12.8
  1
　　３３０
 50
0.0
 41
0.78125
 51
0.0
  7
KANJI33
  0
TEXT
  8
10
  6
CONTINUOUS
 62
     3
 10
837.76
 20
253.74
 30
0.0
 40
12.8
  1
　　３３０
 50
0.0
 41
0.78125
 51
0.0
  7
KANJI33
  0
TEXT
  8
10
  6
CONTINUOUS
 62
     3
 10
591.8
 20
225.38
 30
0.0
 40
12.8
  1
ＡＪ１０ＨＵＴ－　１０
 50
0.0
 41
0.78125
 51
0.0
  7
KANJI33
  0
TEXT
  8
10
  6
CONTINUOUS
 62
     3
 10
591.8
 20
421.38
 30
0.0
 40
12.8
  1
ＡＪ１０ＨＵＴ－　　１
 50
0.0
 41
0.78125
 51
0.0
  7
KANJI33
  0
TEXT
  8
10
  6
CONTINUOUS
 62
     3
 10
591.8
 20
393.38
 30
0.0
 40
12.8
  1
ＡＪ１０ＨＵＴ－　　２
 50
0.0
 41
0.78125
 51
0.0
  7
KANJI33
  0
TEXT
  8
10
  6
CONTINUOUS
 62
     3
 10
591.8
 20
365.38
 30
0.0
 40
12.8
  1
ＡＪ１０ＨＵＴ－　　３
 50
0.0
 41
0.78125
 51
0.0
  7
KANJI33
  0
TEXT
  8
10
  6
CONTINUOUS
 62
     3
 10
591.8
 20
337.38
 30
0.0
 40
12.8
  1
ＡＪ１０ＨＵＴ－　　４
 50
0.0
 41
0.78125
 51
0.0
  7
KANJI33
  0
TEXT
  8
10
  6
CONTINUOUS
 62
     3
 10
591.8
 20
309.38
 30
0.0
 40
12.8
  1
ＡＪ１０ＨＵＴ－　　５
 50
0.0
 41
0.78125
 51
0.0
  7
KANJI33
  0
TEXT
  8
10
  6
CONTINUOUS
 62
     3
 10
591.8
 20
281.38
 30
0.0
 40
12.8
  1
ＡＪ１０ＨＵＴ－　　６
 50
0.0
 41
0.78125
 51
0.0
  7
KANJI33
  0
TEXT
  8
10
  6
CONTINUOUS
 62
     3
 10
591.8
 20
253.38
 30
0.0
 40
12.8
  1
ＡＪ１０ＨＵＴ－　　８
 50
0.0
 41
0.78125
 51
0.0
  7
KANJI33
  0
LINE
  8
10
  6
CONTINUOUS
 62
     2
 10
585.56
 20
191.3
 30
0.0
 11
585.56
 21
471.3
 31
0.0
  0
LINE
  8
10
  6
CONTINUOUS
 62
     2
 10
705.56
 20
191.3
 30
0.0
 11
705.56
 21
471.3
 31
0.0
  0
LINE
  8
10
  6
CONTINUOUS
 62
     2
 10
773.56
 20
191.3
 30
0.0
 11
773.56
 21
471.3
 31
0.0
  0
LINE
  8
10
  6
CONTINUOUS
 62
     2
 10
841.56
 20
191.3
 30
0.0
 11
841.56
 21
471.3
 31
0.0
  0
LINE
  8
10
  6
CONTINUOUS
 62
     2
 10
977.56
 20
191.3
 30
0.0
 11
977.56
 21
471.3
 31
0.0
  0
LINE
  8
10
  6
CONTINUOUS
 62
     2
 10
909.56
 20
191.3
 30
0.0
 11
909.56
 21
471.3
 31
0.0
  0
LINE
  8
10
  6
CONTINUOUS
 62
     2
 10
1037.56
 20
191.3
 30
0.0
 11
1037.56
 21
471.3
 31
0.0
  0
LINE
  8
10
  6
CONTINUOUS
 62
     2
 10
585.56
 20
191.3
 30
0.0
 11
773.56
 21
191.3
 31
0.0
  0
LINE
  8
10
  6
CONTINUOUS
 62
     2
 10
773.56
 20
191.3
 30
0.0
 11
1037.56
 21
191.3
 31
0.0
  0
LINE
  8
10
  6
CONTINUOUS
 62
     2
 10
585.56
 20
219.3
 30
0.0
 11
773.56
 21
219.3
 31
0.0
  0
LINE
  8
10
  6
CONTINUOUS
 62
     2
 10
773.56
 20
219.3
 30
0.0
 11
1037.56
 21
219.3
 31
0.0
  0
LINE
  8
10
  6
CONTINUOUS
 62
     2
 10
585.56
 20
247.3
 30
0.0
 11
773.56
 21
247.3
 31
0.0
  0
LINE
  8
10
  6
CONTINUOUS
 62
     2
 10
773.56
 20
247.3
 30
0.0
 11
1037.56
 21
247.3
 31
0.0
  0
LINE
  8
10
  6
CONTINUOUS
 62
     2
 10
585.56
 20
275.3
 30
0.0
 11
773.56
 21
275.3
 31
0.0
  0
LINE
  8
10
  6
CONTINUOUS
 62
     2
 10
773.56
 20
275.3
 30
0.0
 11
1037.56
 21
275.3
 31
0.0
  0
LINE
  8
10
  6
CONTINUOUS
 62
     2
 10
585.56
 20
303.3
 30
0.0
 11
773.56
 21
303.3
 31
0.0
  0
LINE
  8
10
  6
CONTINUOUS
 62
     2
 10
773.56
 20
303.3
 30
0.0
 11
1037.56
 21
303.3
 31
0.0
  0
LINE
  8
10
  6
CONTINUOUS
 62
     2
 10
585.56
 20
331.3
 30
0.0
 11
773.56
 21
331.3
 31
0.0
  0
LINE
  8
10
  6
CONTINUOUS
 62
     2
 10
773.56
 20
331.3
 30
0.0
 11
1037.56
 21
331.3
 31
0.0
  0
LINE
  8
10
  6
CONTINUOUS
 62
     2
 10
585.56
 20
387.3
 30
0.0
 11
773.56
 21
387.3
 31
0.0
  0
LINE
  8
10
  6
CONTINUOUS
 62
     2
 10
773.56
 20
387.3
 30
0.0
 11
1037.56
 21
387.3
 31
0.0
  0
LINE
  8
10
  6
CONTINUOUS
 62
     2
 10
585.56
 20
415.3
 30
0.0
 11
773.56
 21
415.3
 31
0.0
  0
LINE
  8
10
  6
CONTINUOUS
 62
     2
 10
773.56
 20
415.3
 30
0.0
 11
1037.56
 21
415.3
 31
0.0
  0
LINE
  8
10
  6
CONTINUOUS
 62
     2
 10
585.56
 20
443.3
 30
0.0
 11
773.56
 21
443.3
 31
0.0
  0
LINE
  8
10
  6
CONTINUOUS
 62
     2
 10
773.56
 20
443.3
 30
0.0
 11
1037.56
 21
443.3
 31
0.0
  0
LINE
  8
10
  6
CONTINUOUS
 62
     2
 10
585.56
 20
471.3
 30
0.0
 11
773.56
 21
471.3
 31
0.0
  0
LINE
  8
10
  6
CONTINUOUS
 62
     2
 10
773.56
 20
471.3
 30
0.0
 11
1037.56
 21
471.3
 31
0.0
  0
LINE
  8
10
  6
CONTINUOUS
 62
     2
 10
585.56
 20
359.3
 30
0.0
 11
773.56
 21
359.3
 31
0.0
  0
LINE
  8
10
  6
CONTINUOUS
 62
     2
 10
773.56
 20
359.3
 30
0.0
 11
1037.56
 21
359.3
 31
0.0
  0
LINE
  8
0
  6
CONTINUOUS
 62
     2
 10
1276.8
 20
829.72
 30
0.0
 11
1276.8
 21
949.72
 31
0.0
  0
LINE
  8
0
  6
CONTINUOUS
 62
     2
 10
1278.9432
 20
941.7
 30
0.0
 11
1276.8
 21
949.7
 31
0.0
  0
LINE
  8
0
  6
CONTINUOUS
 62
     2
 10
1276.8
 20
949.7
 30
0.0
 11
1274.6564
 21
941.7
 31
0.0
  0
LINE
  8
0
  6
CONTINUOUS
 62
     2
 10
1274.6564
 20
837.7
 30
0.0
 11
1276.8
 21
829.7
 31
0.0
  0
LINE
  8
0
  6
CONTINUOUS
 62
     2
 10
1276.8
 20
829.7
 30
0.0
 11
1278.9432
 21
837.7
 31
0.0
  0
CIRCLE
  8
0
  6
CONTINUOUS
 62
     2
 10
1129.11
 20
852.0
 30
0.0
 40
7.39
  0
CIRCLE
  8
0
  6
CONTINUOUS
 62
     1
 10
1129.11
 20
852.0
 30
0.0
 40
8.0
  0
LINE
  8
0
  6
CONTINUOUS
 62
     1
 10
1129.11
 20
856.7
 30
0.0
 11
1133.16
 21
854.36
 31
0.0
  0
LINE
  8
0
  6
CONTINUOUS
 62
     1
 10
1125.02
 20
854.36
 30
0.0
 11
1129.11
 21
856.7
 31
0.0
  0
LINE
  8
0
  6
CONTINUOUS
 62
     1
 10
1125.02
 20
849.67
 30
0.0
 11
1125.02
 21
854.36
 31
0.0
  0
LINE
  8
0
  6
CONTINUOUS
 62
     1
 10
1129.11
 20
847.31
 30
0.0
 11
1133.16
 21
849.67
 31
0.0
  0
LINE
  8
0
  6
CONTINUOUS
 62
     1
 10
1125.02
 20
849.67
 30
0.0
 11
1129.11
 21
847.31
 31
0.0
  0
LINE
  8
0
  6
CONTINUOUS
 62
     1
 10
1133.16
 20
849.67
 30
0.0
 11
1133.16
 21
854.36
 31
0.0
  0
CIRCLE
  8
0
  6
CONTINUOUS
 62
     2
 10
1100.821213203
 20
863.735172747
 30
0.0
 40
7.39
  0
CIRCLE
  8
0
  6
CONTINUOUS
 62
     1
 10
1100.821213203
 20
863.735172747
 30
0.0
 40
8.0
  0
LINE
  8
0
  6
CONTINUOUS
 62
     1
 10
1097.497811332
 20
867.058574619
 30
0.0
 11
1102.016223664
 21
868.267727215
 31
0.0
  0
LINE
  8
0
  6
CONTINUOUS
 62
     1
 10
1096.260374465
 20
862.511878016
 30
0.0
 11
1097.497811332
 21
867.058574619
 31
0.0
  0
LINE
  8
0
  6
CONTINUOUS
 62
     1
 10
1099.576705269
 20
859.195547212
 30
0.0
 11
1096.260374465
 21
862.511878016
 31
0.0
  0
LINE
  8
0
  6
CONTINUOUS
 62
     1
 10
1104.137544007
 20
860.418841944
 30
0.0
 11
1105.332554467
 21
864.951396411
 31
0.0
  0
LINE
  8
0
  6
CONTINUOUS
 62
     1
 10
1099.576705269
 20
859.195547212
 30
0.0
 11
1104.137544007
 21
860.418841944
 31
0.0
  0
LINE
  8
0
  6
CONTINUOUS
 62
     1
 10
1105.332554467
 20
864.951396411
 30
0.0
 11
1102.016223664
 21
868.267727215
 31
0.0
  0
CIRCLE
  8
0
  6
CONTINUOUS
 62
     1
 10
1100.8
 20
889.72
 30
0.0
 40
3.0
  0
CIRCLE
  8
0
  6
CONTINUOUS
 62
     1
 10
1100.8
 20
889.72
 30
0.0
 40
1.5
  0
LINE
  8
0
  6
CONTINUOUS
 62
     3
 10
307.8702
 20
892.72
 30
0.0
 11
308.8702
 21
892.22
 31
0.0
  0
LINE
  8
0
  6
CONTINUOUS
 62
     3
 10
305.3702
 20
891.22
 30
0.0
 11
307.8702
 21
892.72
 31
0.0
  0
LINE
  8
0
  6
CONTINUOUS
 62
     3
 10
305.3702
 20
891.22
 30
0.0
 11
305.3702
 21
888.22
 31
0.0
  0
LINE
  8
0
  6
CONTINUOUS
 62
     3
 10
305.3702
 20
888.22
 30
0.0
 11
307.8702
 21
886.72
 31
0.0
  0
LINE
  8
0
  6
CONTINUOUS
 62
     3
 10
307.8702
 20
886.72
 30
0.0
 11
308.8702
 21
887.22
 31
0.0
  0
LINE
  8
0
  6
CONTINUOUS
 62
     3
 10
308.8702
 20
892.22
 30
0.0
 11
310.8702
 21
892.22
 31
0.0
  0
LINE
  8
0
  6
CONTINUOUS
 62
     3
 10
308.8702
 20
887.22
 30
0.0
 11
310.8702
 21
887.22
 31
0.0
  0
LINE
  8
0
  6
CONTINUOUS
 62
     3
 10
494.3698
 20
888.22
 30
0.0
 11
491.8698
 21
886.72
 31
0.0
  0
LINE
  8
0
  6
CONTINUOUS
 62
     3
 10
491.8698
 20
886.72
 30
0.0
 11
490.8698
 21
887.22
 31
0.0
  0
LINE
  8
0
  6
CONTINUOUS
 62
     3
 10
490.8698
 20
887.22
 30
0.0
 11
488.8698
 21
887.22
 31
0.0
  0
LINE
  8
0
  6
CONTINUOUS
 62
     3
 10
491.8698
 20
892.72
 30
0.0
 11
490.8698
 21
892.22
 31
0.0
  0
LINE
  8
0
  6
CONTINUOUS
 62
     3
 10
490.8698
 20
892.22
 30
0.0
 11
488.8698
 21
892.22
 31
0.0
  0
LINE
  8
0
  6
CONTINUOUS
 62
     3
 10
494.3698
 20
891.22
 30
0.0
 11
491.8698
 21
892.72
 31
0.0
  0
LINE
  8
0
  6
CONTINUOUS
 62
     3
 10
494.3698
 20
891.22
 30
0.0
 11
494.3698
 21
888.22
 31
0.0
  0
LINE
  8
0
  6
CONTINUOUS
 62
     2
 10
493.97
 20
892.22
 30
0.0
 11
501.948207277
 21
898.248947557
 31
0.0
  0
LINE
  8
0
  6
CONTINUOUS
 62
     2
 10
493.97
 20
892.22
 30
0.0
 11
497.8648564
 21
901.430325381
 31
0.0
  0
LINE
  8
0
  6
CONTINUOUS
 62
     2
 10
493.97
 20
892.22
 30
0.0
 11
516.72
 21
921.42
 31
0.0
  0
TEXT
  8
0
  6
CONTINUOUS
 62
     2
 10
516.72
 20
924.22
 30
0.0
 40
12.0
  1
グリースニップル
 50
0.0
 41
0.9
 51
0.0
  7
KANJI18
  0
LINE
  8
0
  6
CONTINUOUS
 62
     2
 10
516.72
 20
921.42
 30
0.0
 11
603.15
 21
921.42
 31
0.0
  0
TEXT
  8
0
  6
CONTINUOUS
 62
     2
 10
827.2306952
 20
97.1560128
 30
0.0
 40
12.0
  1
２００４．０９．３０　岡田　寸法変更及び追記
 50
0.0
 41
0.9
 51
0.0
  7
KANJI18
  0
TEXT
  8
0
  6
CONTINUOUS
 62
     2
 10
1527.3
 20
98.3
 30
0.0
 40
12.0
  1
２
 50
0.0
 41
0.9
 51
0.0
  7
KANJI18
  0
TEXT
  8
0
  6
CONTINUOUS
 62
     3
 10
1170.25
 20
544.68
 30
0.0
 40
12.8
  1
３０
 50
0.0
 41
0.90625
 51
0.0
  7
KANJI29
  0
TEXT
  8
0
  6
CONTINUOUS
 62
     3
 10
259.89
 20
623.73
 30
0.0
 40
12.8
  1
４７．５
 50
0.0
 41
0.90625
 51
0.0
  7
KANJI29
  0
TEXT
  8
0
  6
CONTINUOUS
 62
     3
 10
491.58
 20
623.73
 30
0.0
 40
12.8
  1
４７．５
 50
0.0
 41
0.90625
 51
0.0
  7
KANJI29
  0
TEXT
  8
0
  6
CONTINUOUS
 62
     3
 10
267.97
 20
703.73
 30
0.0
 40
12.8
  1
４０
 50
0.0
 41
0.90625
 51
0.0
  7
KANJI29
  0
TEXT
  8
0
  6
CONTINUOUS
 62
     3
 10
268.97
 20
663.73
 30
0.0
 40
12.8
  1
４２
 50
0.0
 41
0.90625
 51
0.0
  7
KANJI29
  0
TEXT
  8
0
  6
CONTINUOUS
 62
     3
 10
506.96
 20
663.73
 30
0.0
 40
12.8
  1
４２
 50
0.0
 41
0.90625
 51
0.0
  7
KANJI29
  0
TEXT
  8
0
  6
CONTINUOUS
 62
     3
 10
507.96
 20
703.73
 30
0.0
 40
12.8
  1
４０
 50
0.0
 41
0.90625
 51
0.0
  7
KANJI29
  0
TEXT
  8
0
  6
CONTINUOUS
 62
     3
 10
887.26
 20
1013.72
 30
0.0
 40
12.8
  1
３１．５
 50
0.0
 41
0.90625
 51
0.0
  7
KANJI29
  0
LINE
  8
96
 62
    99
 10
0.0
 20
-2668390471133900900000000000000000000000000000000000000000000000000000000000000000000000000000000000000000000000000000000000000000000000000000000000000000000000000000000000000000000000000000000000000000000000000000000000000000000.0
 30
0.0
 11
-19991589056693612000000000000000000000.0
 21
-0.0
 31
0.0
  0
LINE
  8
96
 62
    99
 10
0.0
 20
-2668390471133900900000000000000000000000000000000000000000000000000000000000000000000000000000000000000000000000000000000000000000000000000000000000000000000000000000000000000000000000000000000000000000000000000000000000000000000.0
 30
0.0
 11
-268043386286490250000000000000000000000000000000000000000000000000000000000000000000000000000000000000000000000000000000000000000000000000000000000000000000000000000000000000000000000000000000.0
 21
-0.0
 31
0.0
  0
LINE
  8
96
 62
    99
 10
0.0
 20
-2668390471133900900000000000000000000000000000000000000000000000000000000000000000000000000000000000000000000000000000000000000000000000000000000000000000000000000000000000000000000000000000000000000000000000000000000000000000000.0
 30
0.0
 11
0.0
 21
-0.0
 31
0.0
  0
LINE
  8
96
 62
    99
 10
0.0
 20
-2668390471133900900000000000000000000000000000000000000000000000000000000000000000000000000000000000000000000000000000000000000000000000000000000000000000000000000000000000000000000000000000000000000000000000000000000000000000000.0
 30
0.0
 11
0.0
 21
-0.0
 31
0.0
  0
LINE
  8
96
 62
    99
 10
0.0
 20
-2668390471133900900000000000000000000000000000000000000000000000000000000000000000000000000000000000000000000000000000000000000000000000000000000000000000000000000000000000000000000000000000000000000000000000000000000000000000000.0
 30
0.0
 11
19991589056693612000000000000000000000.0
 21
-0.0
 31
0.0
  0
LINE
  8
96
 62
    99
 10
0.0
 20
-2668390471133900900000000000000000000000000000000000000000000000000000000000000000000000000000000000000000000000000000000000000000000000000000000000000000000000000000000000000000000000000000000000000000000000000000000000000000000.0
 30
0.0
 11
268043386286490250000000000000000000000000000000000000000000000000000000000000000000000000000000000000000000000000000000000000000000000000000000000000000000000000000000000000000000000000000000.0
 21
-0.0
 31
0.0
  0
LINE
  8
96
 62
    99
 10
0.0
 20
-2668390471133900900000000000000000000000000000000000000000000000000000000000000000000000000000000000000000000000000000000000000000000000000000000000000000000000000000000000000000000000000000000000000000000000000000000000000000000.0
 30
0.0
 11
-0.0
 21
-2668390471139448900000000000000000000000000000000000000000000000000000000000000000000000000000000000000000000000000000000000000000000000000000000000000000000000000000000000000000000000000000000000000000000000000000000000000000000.0
 31
0.0
  0
LINE
  8
96
 62
    99
 10
0.0
 20
-199017653376044830000000000000000000000000000000000000000000000000000000000.0
 30
0.0
 11
-0.0
 21
-199017653376458620000000000000000000000000000000000000000000000000000000000.0
 31
0.0
  0
ENDSEC
  0
EOF
