  0
SECTION
  2
HEADER
  9
$EXTMIN
 10
0.0
 20
0.0
 30
0.0
  9
$EXTMAX
 10
2100.0
 20
1485.0
 30
0.0
  9
$LIMMIN
 10
0.0
 20
0.0
  9
$LIMMAX
 10
2100.0
 20
1485.0
  9
$LTSCALE
 40
1.0
  9
$PDMODE
 70
     0
  0
ENDSEC
  0
SECTION
  2
TABLES
  0
TABLE
  2
LTYPE
 70
     6
  0
LTYPE
  2
CONTINUOUS
 70
    64
  3
Solid line
 72
    65
 73
     0
 40
0.0
  0
LTYPE
  2
LTYPE1
 70
    64
  3
HIDDEN
 72
    65
 73
     2
 40
15.0
 49
9.0
 49
-6.0
  0
LTYPE
  2
LTYPE2
 70
    64
  3
CENTER
 72
    65
 73
     4
 40
50.0
 49
35.0
 49
-5.0
 49
5.0
 49
-5.0
  0
LTYPE
  2
LTYPE3
 70
    64
  3
CENTER
 72
    65
 73
     4
 40
40.0
 49
28.0
 49
-4.0
 49
4.0
 49
-4.0
  0
LTYPE
  2
LTYPE4
 70
    64
  3
CENTER
 72
    65
 73
     4
 40
100.0
 49
70.0
 49
-10.0
 49
10.0
 49
-10.0
  0
LTYPE
  2
LTYPE5
 70
    64
  3
CENTER
 72
    65
 73
     4
 40
45.0
 49
31.5
 49
-4.5
 49
4.5
 49
-4.5
  0
ENDTAB
  0
TABLE
  2
LAYER
 70
   128
  0
LAYER
  2
0
 70
     0
 62
     7
  6
CONTINUOUS
  0
LAYER
  2
2
 70
     0
 62
     7
  6
CONTINUOUS
  0
LAYER
  2
3
 70
     0
 62
     7
  6
CONTINUOUS
  0
LAYER
  2
4
 70
     0
 62
     7
  6
CONTINUOUS
  0
LAYER
  2
5
 70
     0
 62
     7
  6
CONTINUOUS
  0
LAYER
  2
6
 70
     0
 62
     7
  6
CONTINUOUS
  0
LAYER
  2
7
 70
     0
 62
     7
  6
CONTINUOUS
  0
LAYER
  2
8
 70
     0
 62
     7
  6
CONTINUOUS
  0
LAYER
  2
9
 70
     0
 62
     7
  6
CONTINUOUS
  0
LAYER
  2
10
 70
     0
 62
     7
  6
CONTINUOUS
  0
LAYER
  2
11
 70
     0
 62
     7
  6
CONTINUOUS
  0
LAYER
  2
12
 70
     0
 62
     7
  6
CONTINUOUS
  0
LAYER
  2
13
 70
     0
 62
     7
  6
CONTINUOUS
  0
LAYER
  2
14
 70
     0
 62
     7
  6
CONTINUOUS
  0
LAYER
  2
15
 70
     0
 62
     7
  6
CONTINUOUS
  0
LAYER
  2
16
 70
     0
 62
     7
  6
CONTINUOUS
  0
LAYER
  2
17
 70
     0
 62
     7
  6
CONTINUOUS
  0
LAYER
  2
18
 70
     0
 62
     7
  6
CONTINUOUS
  0
LAYER
  2
19
 70
     0
 62
     7
  6
CONTINUOUS
  0
LAYER
  2
20
 70
     0
 62
     7
  6
CONTINUOUS
  0
LAYER
  2
21
 70
     0
 62
     7
  6
CONTINUOUS
  0
LAYER
  2
22
 70
     0
 62
     7
  6
CONTINUOUS
  0
LAYER
  2
23
 70
     0
 62
     7
  6
CONTINUOUS
  0
LAYER
  2
24
 70
     0
 62
     7
  6
CONTINUOUS
  0
LAYER
  2
25
 70
     0
 62
     7
  6
CONTINUOUS
  0
LAYER
  2
26
 70
     0
 62
     7
  6
CONTINUOUS
  0
LAYER
  2
27
 70
     0
 62
     7
  6
CONTINUOUS
  0
LAYER
  2
28
 70
     0
 62
     7
  6
CONTINUOUS
  0
LAYER
  2
29
 70
     0
 62
     7
  6
CONTINUOUS
  0
LAYER
  2
30
 70
     0
 62
     7
  6
CONTINUOUS
  0
LAYER
  2
31
 70
     0
 62
     7
  6
CONTINUOUS
  0
LAYER
  2
32
 70
     0
 62
     7
  6
CONTINUOUS
  0
LAYER
  2
33
 70
     0
 62
     7
  6
CONTINUOUS
  0
LAYER
  2
34
 70
     0
 62
     7
  6
CONTINUOUS
  0
LAYER
  2
35
 70
     0
 62
     7
  6
CONTINUOUS
  0
LAYER
  2
36
 70
     0
 62
     7
  6
CONTINUOUS
  0
LAYER
  2
37
 70
     0
 62
     7
  6
CONTINUOUS
  0
LAYER
  2
38
 70
     0
 62
     7
  6
CONTINUOUS
  0
LAYER
  2
39
 70
     0
 62
     7
  6
CONTINUOUS
  0
LAYER
  2
40
 70
     0
 62
     7
  6
CONTINUOUS
  0
LAYER
  2
41
 70
     0
 62
     7
  6
CONTINUOUS
  0
LAYER
  2
42
 70
     0
 62
     7
  6
CONTINUOUS
  0
LAYER
  2
43
 70
     0
 62
     7
  6
CONTINUOUS
  0
LAYER
  2
44
 70
     0
 62
     7
  6
CONTINUOUS
  0
LAYER
  2
45
 70
     0
 62
     7
  6
CONTINUOUS
  0
LAYER
  2
46
 70
     0
 62
     7
  6
CONTINUOUS
  0
LAYER
  2
47
 70
     0
 62
     7
  6
CONTINUOUS
  0
LAYER
  2
48
 70
     0
 62
     7
  6
CONTINUOUS
  0
LAYER
  2
49
 70
     0
 62
     7
  6
CONTINUOUS
  0
LAYER
  2
50
 70
     0
 62
     7
  6
CONTINUOUS
  0
LAYER
  2
51
 70
     0
 62
     7
  6
CONTINUOUS
  0
LAYER
  2
52
 70
     0
 62
     7
  6
CONTINUOUS
  0
LAYER
  2
53
 70
     0
 62
     7
  6
CONTINUOUS
  0
LAYER
  2
54
 70
     0
 62
     7
  6
CONTINUOUS
  0
LAYER
  2
55
 70
     0
 62
     7
  6
CONTINUOUS
  0
LAYER
  2
56
 70
     0
 62
     7
  6
CONTINUOUS
  0
LAYER
  2
57
 70
     0
 62
     7
  6
CONTINUOUS
  0
LAYER
  2
58
 70
     0
 62
     7
  6
CONTINUOUS
  0
LAYER
  2
59
 70
     0
 62
     7
  6
CONTINUOUS
  0
LAYER
  2
60
 70
     0
 62
     7
  6
CONTINUOUS
  0
LAYER
  2
61
 70
     0
 62
     7
  6
CONTINUOUS
  0
LAYER
  2
62
 70
     0
 62
     7
  6
CONTINUOUS
  0
LAYER
  2
63
 70
     0
 62
     7
  6
CONTINUOUS
  0
LAYER
  2
64
 70
     0
 62
     7
  6
CONTINUOUS
  0
LAYER
  2
65
 70
     0
 62
     7
  6
CONTINUOUS
  0
LAYER
  2
66
 70
     0
 62
     7
  6
CONTINUOUS
  0
LAYER
  2
67
 70
     0
 62
     7
  6
CONTINUOUS
  0
LAYER
  2
68
 70
     0
 62
     7
  6
CONTINUOUS
  0
LAYER
  2
69
 70
     0
 62
     7
  6
CONTINUOUS
  0
LAYER
  2
70
 70
     0
 62
     7
  6
CONTINUOUS
  0
LAYER
  2
71
 70
     0
 62
     7
  6
CONTINUOUS
  0
LAYER
  2
72
 70
     0
 62
     7
  6
CONTINUOUS
  0
LAYER
  2
73
 70
     0
 62
     7
  6
CONTINUOUS
  0
LAYER
  2
74
 70
     0
 62
     7
  6
CONTINUOUS
  0
LAYER
  2
75
 70
     0
 62
     7
  6
CONTINUOUS
  0
LAYER
  2
76
 70
     0
 62
     7
  6
CONTINUOUS
  0
LAYER
  2
77
 70
     0
 62
     7
  6
CONTINUOUS
  0
LAYER
  2
78
 70
     0
 62
     7
  6
CONTINUOUS
  0
LAYER
  2
79
 70
     0
 62
     7
  6
CONTINUOUS
  0
LAYER
  2
80
 70
     0
 62
     7
  6
CONTINUOUS
  0
LAYER
  2
81
 70
     0
 62
     7
  6
CONTINUOUS
  0
LAYER
  2
82
 70
     0
 62
     7
  6
CONTINUOUS
  0
LAYER
  2
83
 70
     0
 62
     7
  6
CONTINUOUS
  0
LAYER
  2
84
 70
     0
 62
     7
  6
CONTINUOUS
  0
LAYER
  2
85
 70
     0
 62
     7
  6
CONTINUOUS
  0
LAYER
  2
86
 70
     0
 62
     7
  6
CONTINUOUS
  0
LAYER
  2
87
 70
     0
 62
     7
  6
CONTINUOUS
  0
LAYER
  2
88
 70
     0
 62
     7
  6
CONTINUOUS
  0
LAYER
  2
89
 70
     0
 62
     7
  6
CONTINUOUS
  0
LAYER
  2
90
 70
     0
 62
     7
  6
CONTINUOUS
  0
LAYER
  2
91
 70
     0
 62
     7
  6
CONTINUOUS
  0
LAYER
  2
92
 70
     0
 62
     7
  6
CONTINUOUS
  0
LAYER
  2
93
 70
     0
 62
     7
  6
CONTINUOUS
  0
LAYER
  2
94
 70
     0
 62
     7
  6
CONTINUOUS
  0
LAYER
  2
95
 70
     0
 62
     7
  6
CONTINUOUS
  0
LAYER
  2
96
 70
     0
 62
     7
  6
CONTINUOUS
  0
LAYER
  2
97
 70
     0
 62
     7
  6
CONTINUOUS
  0
LAYER
  2
98
 70
     0
 62
     7
  6
CONTINUOUS
  0
LAYER
  2
99
 70
     0
 62
     7
  6
CONTINUOUS
  0
LAYER
  2
100
 70
     0
 62
     7
  6
CONTINUOUS
  0
LAYER
  2
101
 70
     0
 62
     7
  6
CONTINUOUS
  0
LAYER
  2
102
 70
     0
 62
     7
  6
CONTINUOUS
  0
LAYER
  2
103
 70
     0
 62
     7
  6
CONTINUOUS
  0
LAYER
  2
104
 70
     0
 62
     7
  6
CONTINUOUS
  0
LAYER
  2
105
 70
     0
 62
     7
  6
CONTINUOUS
  0
LAYER
  2
106
 70
     0
 62
     7
  6
CONTINUOUS
  0
LAYER
  2
107
 70
     0
 62
     7
  6
CONTINUOUS
  0
LAYER
  2
108
 70
     0
 62
     7
  6
CONTINUOUS
  0
LAYER
  2
109
 70
     0
 62
     7
  6
CONTINUOUS
  0
LAYER
  2
110
 70
     0
 62
     7
  6
CONTINUOUS
  0
LAYER
  2
111
 70
     0
 62
     7
  6
CONTINUOUS
  0
LAYER
  2
112
 70
     0
 62
     7
  6
CONTINUOUS
  0
LAYER
  2
113
 70
     0
 62
     7
  6
CONTINUOUS
  0
LAYER
  2
114
 70
     0
 62
     7
  6
CONTINUOUS
  0
LAYER
  2
115
 70
     0
 62
     7
  6
CONTINUOUS
  0
LAYER
  2
116
 70
     0
 62
     7
  6
CONTINUOUS
  0
LAYER
  2
117
 70
     0
 62
     7
  6
CONTINUOUS
  0
LAYER
  2
118
 70
     0
 62
     7
  6
CONTINUOUS
  0
LAYER
  2
119
 70
     0
 62
     7
  6
CONTINUOUS
  0
LAYER
  2
120
 70
     0
 62
     7
  6
CONTINUOUS
  0
LAYER
  2
121
 70
     0
 62
     7
  6
CONTINUOUS
  0
LAYER
  2
122
 70
     0
 62
     7
  6
CONTINUOUS
  0
LAYER
  2
123
 70
     0
 62
     7
  6
CONTINUOUS
  0
LAYER
  2
124
 70
     0
 62
     7
  6
CONTINUOUS
  0
LAYER
  2
125
 70
     0
 62
     7
  6
CONTINUOUS
  0
LAYER
  2
126
 70
     0
 62
     7
  6
CONTINUOUS
  0
LAYER
  2
127
 70
     0
 62
     7
  6
CONTINUOUS
  0
LAYER
  2
128
 70
     0
 62
     7
  6
CONTINUOUS
  0
ENDTAB
  0
TABLE
  2
STYLE
 70
    51
  0
STYLE
  2
STANDARD
 70
     0
 40
0.0
 41
1.0
 50
0.0
 71
     0
 42
0.2
  3
txt
  4

  0
STYLE
  2
KANJI0
 70
     0
 40
22.5
 41
0.9
 50
0.0
 71
     0
 42
22.5
  3

  4
bigfont
  0
STYLE
  2
KANJI1
 70
     0
 40
19.0
 41
0.9
 50
0.0
 71
     0
 42
19.0
  3

  4
bigfont
  0
STYLE
  2
KANJI2
 70
     0
 40
19.0
 41
0.9
 50
0.0
 71
     0
 42
19.0
  3

  4
bigfont
  0
STYLE
  2
KANJI3
 70
     0
 40
19.0
 41
0.9
 50
0.0
 71
     0
 42
19.0
  3

  4
bigfont
  0
STYLE
  2
KANJI4
 70
     0
 40
14.0
 41
0.8
 50
0.0
 71
     0
 42
14.0
  3

  4
bigfont
  0
STYLE
  2
KANJI5
 70
     0
 40
19.0
 41
0.9
 50
0.0
 71
     0
 42
19.0
  3

  4
bigfont
  0
STYLE
  2
KANJI6
 70
     0
 40
19.0
 41
0.9
 50
0.0
 71
     0
 42
19.0
  3

  4
bigfont
  0
STYLE
  2
KANJI7
 70
     0
 40
19.0
 41
0.9
 50
0.0
 71
     0
 42
19.0
  3

  4
bigfont
  0
STYLE
  2
KANJI8
 70
     0
 40
19.0
 41
0.9
 50
0.0
 71
     0
 42
19.0
  3

  4
bigfont
  0
STYLE
  2
KANJI9
 70
     0
 40
19.0
 41
0.9
 50
0.0
 71
     0
 42
19.0
  3

  4
bigfont
  0
STYLE
  2
KANJI10
 70
     0
 40
14.0
 41
0.9
 50
0.0
 71
     0
 42
14.0
  3

  4
bigfont
  0
STYLE
  2
KANJI11
 70
     0
 40
14.0
 41
0.785714286
 50
0.0
 71
     0
 42
14.0
  3

  4
bigfont
  0
STYLE
  2
KANJI12
 70
     0
 40
19.0
 41
0.9
 50
0.0
 71
     0
 42
19.0
  3

  4
bigfont
  0
STYLE
  2
KANJI13
 70
     0
 40
15.0
 41
0.9
 50
0.0
 71
     0
 42
15.0
  3

  4
bigfont
  0
STYLE
  2
KANJI14
 70
     0
 40
15.0
 41
0.9
 50
0.0
 71
     0
 42
15.0
  3

  4
bigfont
  0
STYLE
  2
KANJI15
 70
     0
 40
20.0
 41
0.9
 50
0.0
 71
     0
 42
20.0
  3

  4
bigfont
  0
STYLE
  2
KANJI16
 70
     0
 40
18.0
 41
0.857142857
 50
0.0
 71
     0
 42
18.0
  3

  4
bigfont
  0
STYLE
  2
KANJI17
 70
     0
 40
18.0
 41
0.857222222
 50
0.0
 71
     0
 42
18.0
  3

  4
bigfont
  0
STYLE
  2
KANJI18
 70
     0
 40
25.0
 41
0.9
 50
0.0
 71
     0
 42
25.0
  3

  4
bigfont
  0
STYLE
  2
KANJI19
 70
     0
 40
9.999997897
 41
0.6
 50
0.0
 71
     0
 42
9.999997897
  3

  4
bigfont
  0
STYLE
  2
KANJI20
 70
     0
 40
11.999997477
 41
0.9
 50
0.0
 71
     0
 42
11.999997477
  3

  4
bigfont
  0
STYLE
  2
KANJI21
 70
     0
 40
14.999996846
 41
0.9
 50
0.0
 71
     0
 42
14.999996846
  3

  4
bigfont
  0
STYLE
  2
KANJI22
 70
     0
 40
12.999999
 41
0.75
 50
0.0
 71
     0
 42
12.999999
  3

  4
bigfont
  0
STYLE
  2
KANJI23
 70
     0
 40
8.666666
 41
0.6
 50
0.0
 71
     0
 42
8.666666
  3

  4
bigfont
  0
STYLE
  2
KANJI24
 70
     0
 40
10.3999992
 41
0.6
 50
0.0
 71
     0
 42
10.3999992
  3

  4
bigfont
  0
STYLE
  2
KANJI25
 70
     0
 40
8.666666
 41
0.8
 50
0.0
 71
     0
 42
8.666666
  3

  4
bigfont
  0
STYLE
  2
KANJI26
 70
     0
 40
10.3999992
 41
0.8
 50
0.0
 71
     0
 42
10.3999992
  3

  4
bigfont
  0
STYLE
  2
KANJI27
 70
     0
 40
15.1666655
 41
0.42031746
 50
0.0
 71
     0
 42
15.1666655
  3

  4
bigfont
  0
STYLE
  2
KANJI28
 70
     0
 40
25.999998
 41
0.9
 50
0.0
 71
     0
 42
25.999998
  3

  4
bigfont
  0
STYLE
  2
KANJI29
 70
     0
 40
25.0
 41
1.0
 50
0.0
 71
     0
 42
25.0
  3

  4
bigfont
  0
STYLE
  2
KANJI30
 70
     0
 40
18.0
 41
1.111111111
 50
0.0
 71
     0
 42
18.0
  3

  4
bigfont
  0
STYLE
  2
KANJI31
 70
     0
 40
17.5
 41
0.857142857
 50
0.0
 71
     0
 42
17.5
  3

  4
bigfont
  0
STYLE
  2
KANJI32
 70
     0
 40
22.5
 41
0.666666667
 50
0.0
 71
     0
 42
22.5
  3

  4
bigfont
  0
STYLE
  2
KANJI33
 70
     0
 40
17.5
 41
0.571428571
 50
0.0
 71
     0
 42
17.5
  3

  4
bigfont
  0
STYLE
  2
KANJI34
 70
     0
 40
15.0
 41
0.9
 50
0.0
 71
     0
 42
15.0
  3

  4
bigfont
  0
STYLE
  2
KANJI35
 70
     0
 40
15.0
 41
0.9
 50
0.0
 71
     0
 42
15.0
  3

  4
bigfont
  0
STYLE
  2
KANJI36
 70
     0
 40
15.0
 41
0.75
 50
0.0
 71
     0
 42
15.0
  3

  4
bigfont
  0
STYLE
  2
KANJI37
 70
     0
 40
16.0
 41
0.9
 50
0.0
 71
     0
 42
16.0
  3

  4
bigfont
  0
STYLE
  2
KANJI38
 70
     0
 40
15.0
 41
0.933333333
 50
0.0
 71
     0
 42
15.0
  3

  4
bigfont
  0
STYLE
  2
KANJI39
 70
     0
 40
15.0
 41
0.933333333
 50
0.0
 71
     0
 42
15.0
  3

  4
bigfont
  0
STYLE
  2
KANJI40
 70
     0
 40
11.7
 41
0.75
 50
0.0
 71
     0
 42
11.7
  3

  4
bigfont
  0
STYLE
  2
KANJI41
 70
     0
 40
8.97
 41
0.75
 50
0.0
 71
     0
 42
8.97
  3

  4
bigfont
  0
STYLE
  2
KANJI42
 70
     0
 40
12.0
 41
0.777777778
 50
0.0
 71
     0
 42
12.0
  3

  4
bigfont
  0
STYLE
  2
KANJI43
 70
     0
 40
17.5
 41
0.9
 50
0.0
 71
     0
 42
17.5
  3

  4
bigfont
  0
STYLE
  2
KANJI44
 70
     0
 40
7.071067812
 41
1.0
 50
0.0
 71
     0
 42
7.071067812
  3

  4
bigfont
  0
STYLE
  2
KANJI45
 70
     0
 40
15.0
 41
0.833333333
 50
0.0
 71
     0
 42
15.0
  3

  4
bigfont
  0
STYLE
  2
KANJI46
 70
     0
 40
15.0
 41
0.833333333
 50
0.0
 71
     0
 42
15.0
  3

  4
bigfont
  0
STYLE
  2
KANJI47
 70
     0
 40
25.0
 41
0.8
 50
0.0
 71
     0
 42
25.0
  3

  4
bigfont
  0
STYLE
  2
KANJI48
 70
     0
 40
17.5
 41
0.9
 50
0.0
 71
     0
 42
17.5
  3

  4
bigfont
  0
STYLE
  2
KANJI49
 70
     0
 40
15.0
 41
0.666666667
 50
0.0
 71
     0
 42
15.0
  3

  4
bigfont
  0
ENDTAB
  0
TABLE
  2
VIEW
 70
     0
  0
ENDTAB
  0
ENDSEC
  0
SECTION
  2
BLOCKS
  0
ENDSEC
  0
SECTION
  2
ENTITIES
  0
LINE
  8
0
  6
CONTINUOUS
 62
     1
 10
1587.5
 20
1322.5
 11
1587.5
 21
712.5
  0
TEXT
  8
0
  6
CONTINUOUS
 62
     2
 10
1650.0
 20
1286.0
 30
14.2497
 40
22.5
  1
マイティシリンダ仕様
 50
0.0
 41
0.9
 51
0.0
  7
KANJI0
  0
TEXT
  8
0
  6
CONTINUOUS
 62
     2
 10
1625.0
 20
1246.5
 30
150.371428571
 40
19.0
  1
形式
 50
0.0
 41
0.9
 51
0.0
  7
KANJI1
  0
TEXT
  8
0
  6
CONTINUOUS
 62
     2
 10
1625.0
 20
1211.5
 30
150.371428571
 40
19.0
  1
推力
 50
0.0
 41
0.9
 51
0.0
  7
KANJI1
  0
TEXT
  8
0
  6
CONTINUOUS
 62
     2
 10
1625.0
 20
1176.5
 30
24.767857143
 40
19.0
  1
ストローク
 50
0.0
 41
0.9
 51
0.0
  7
KANJI2
  0
TEXT
  8
0
  6
CONTINUOUS
 62
     2
 10
1625.0
 20
1141.5
 30
38.723628571
 40
19.0
  1
公称速度
 50
0.0
 41
0.9
 51
0.0
  7
KANJI3
  0
TEXT
  8
0
  6
CONTINUOUS
 62
     2
 10
1994.25
 20
1178.5
 30
0.112
 40
14.0
  1
ｍｍ
 50
0.0
 41
0.8
 51
0.0
  7
KANJI4
  0
TEXT
  8
0
  6
CONTINUOUS
 62
     2
 10
1610.0
 20
966.5
 30
1.628571429
 40
19.0
  1
ピストンロッド回転トルク
 50
0.0
 41
0.9
 51
0.0
  7
KANJI5
  0
TEXT
  8
0
  6
CONTINUOUS
 62
     2
 10
1625.0
 20
931.5
 30
150.371428571
 40
19.0
  1
構造
 50
0.0
 41
0.9
 51
0.0
  7
KANJI1
  0
TEXT
  8
0
  6
CONTINUOUS
 62
     2
 10
1625.0
 20
1106.5
 30
66.635714286
 40
19.0
  1
減速比
 50
0.0
 41
0.9
 51
0.0
  7
KANJI6
  0
TEXT
  8
0
  6
CONTINUOUS
 62
     2
 10
1625.0
 20
1071.5
 30
4.25
 40
19.0
  1
進み量／入力１回転
 50
0.0
 41
0.9
 51
0.0
  7
KANJI7
  0
TEXT
  8
0
  6
CONTINUOUS
 62
     2
 10
1625.0
 20
1036.0
 30
150.371428571
 40
19.0
  1
効率
 50
0.0
 41
0.9
 51
0.0
  7
KANJI1
  0
TEXT
  8
0
  6
CONTINUOUS
 62
     2
 10
1625.0
 20
1002.0
 30
7.25
 40
19.0
  1
使用時入力トルク
 50
0.0
 41
0.9
 51
0.0
  7
KANJI8
  0
TEXT
  8
0
  6
CONTINUOUS
 62
     2
 10
1625.0
 20
896.5
 30
38.725
 40
19.0
  1
ギヤ方式
 50
0.0
 41
0.9
 51
0.0
  7
KANJI9
  0
LINE
  8
0
  6
CONTINUOUS
 62
     2
 10
1837.5
 20
1272.5
 11
1837.5
 21
712.5
  0
TEXT
  8
0
  6
CONTINUOUS
 62
     2
 10
1846.5
 20
793.0
 30
0.5
 40
14.0
  1
マンセル
 50
0.0
 41
0.9
 51
0.0
  7
KANJI10
  0
TEXT
  8
0
  6
CONTINUOUS
 62
     2
 10
1625.0
 20
791.5
 30
66.635714286
 40
19.0
  1
塗装色
 50
0.0
 41
0.9
 51
0.0
  7
KANJI6
  0
TEXT
  8
0
  6
CONTINUOUS
 62
     2
 10
1625.0
 20
756.5
 30
66.635714286
 40
19.0
  1
付属品
 50
0.0
 41
0.9
 51
0.0
  7
KANJI6
  0
TEXT
  8
0
  6
CONTINUOUS
 62
     2
 10
1625.0
 20
721.5
 30
150.371428571
 40
19.0
  1
台数
 50
0.0
 41
0.9
 51
0.0
  7
KANJI1
  0
TEXT
  8
0
  6
CONTINUOUS
 62
     2
 10
1625.0
 20
826.5
 30
150.371428571
 40
19.0
  1
潤滑
 50
0.0
 41
0.9
 51
0.0
  7
KANJI1
  0
TEXT
  8
0
  6
CONTINUOUS
 62
     2
 10
1905.0
 20
794.0
 30
0.2
 40
14.0
  1
７．５ＧＹ５／４．５
 50
0.0
 41
0.785714286
 51
0.0
  7
KANJI11
  0
TEXT
  8
0
  6
CONTINUOUS
 62
     2
 10
1625.0
 20
861.5
 30
10.8835
 40
19.0
  1
スクリュー方式
 50
0.0
 41
0.9
 51
0.0
  7
KANJI12
  0
TEXT
  8
0
  6
CONTINUOUS
 62
     2
 10
1908.0
 20
1107.0
 30
1.5
 40
15.0
  1
２　：　１
 50
0.0
 41
0.9
 51
0.0
  7
KANJI13
  0
TEXT
  8
0
  6
CONTINUOUS
 62
     2
 10
1994.25
 20
1073.5
 30
0.112
 40
14.0
  1
ｍｍ
 50
0.0
 41
0.8
 51
0.0
  7
KANJI4
  0
TEXT
  8
0
  6
CONTINUOUS
 62
     2
 10
1852.0
 20
1037.5
 30
10.0
 40
15.0
  1
約
 50
0.0
 41
0.9
 51
0.0
  7
KANJI14
  0
TEXT
  8
0
  6
CONTINUOUS
 62
     2
 10
2000.0
 20
1037.0
 30
10.0
 40
15.0
  1
％
 50
0.0
 41
0.9
 51
0.0
  7
KANJI14
  0
TEXT
  8
0
  6
CONTINUOUS
 62
     2
 10
1874.5
 20
899.0
 30
10.0
 40
15.0
  1
ベベルギヤ
 50
0.0
 41
0.9
 51
0.0
  7
KANJI14
  0
TEXT
  8
0
  6
CONTINUOUS
 62
     2
 10
1874.5
 20
863.0
 30
10.0
 40
15.0
  1
ボールネジ
 50
0.0
 41
0.9
 51
0.0
  7
KANJI14
  0
TEXT
  8
0
  6
CONTINUOUS
 62
     2
 10
1874.0
 20
828.0
 30
10.0
 40
15.0
  1
グリース方式
 50
0.0
 41
0.9
 51
0.0
  7
KANJI14
  0
TEXT
  8
0
  6
CONTINUOUS
 62
     2
 10
1874.0
 20
758.0
 30
1.5
 40
15.0
  1
入力キー
 50
0.0
 41
0.9
 51
0.0
  7
KANJI13
  0
TEXT
  8
0
  6
CONTINUOUS
 62
     2
 10
1926.0
 20
1037.5
 30
10.0
 40
15.0
  1
８５
 50
0.0
 41
0.9
 51
0.0
  7
KANJI14
  0
TEXT
  8
0
  6
CONTINUOUS
 62
     2
 10
1521.5
 20
634.0
 30
10.0
 40
20.0
  1
特記事項
 50
0.0
 41
0.9
 51
0.0
  7
KANJI15
  0
TEXT
  8
0
  6
CONTINUOUS
 62
     2
 10
1451.5
 20
594.0
 30
5.142857143
 40
18.0
  1
１。運転時は必ずピストンロッドの回転防止を行って下さい。
 50
0.0
 41
0.857142857
 51
0.0
  7
KANJI16
  0
TEXT
  8
0
  6
CONTINUOUS
 62
     2
 10
1451.5
 20
555.0
 30
5.13
 40
18.0
  1
２。形式表示ストロークは機械的最大ストロークです。
 50
0.0
 41
0.857222222
 51
0.0
  7
KANJI17
  0
TEXT
  8
0
  6
CONTINUOUS
 62
     2
 10
1451.5
 20
515.0
 30
5.13
 40
18.0
  1
　　実際に使用する場合は惰行距離を含め、両端に十分余裕を
 50
0.0
 41
0.857222222
 51
0.0
  7
KANJI17
  0
TEXT
  8
0
  6
CONTINUOUS
 62
     2
 10
1451.5
 20
475.0
 30
5.13
 40
18.0
  1
　　みて下さい。
 50
0.0
 41
0.857222222
 51
0.0
  7
KANJI17
  0
TEXT
  8
0
  6
CONTINUOUS
 62
     2
 10
1815.0
 20
176.0
 30
2.5
 40
25.0
  1
外形寸法図
 50
0.0
 41
0.9
 51
0.0
  7
KANJI18
  0
LINE
  8
0
  6
CONTINUOUS
 62
     6
 10
85.0
 20
60.0
 11
85.0
 21
1405.0
  0
LINE
  8
0
  6
CONTINUOUS
 62
     6
 10
85.0
 20
1405.0
 11
2020.0
 21
1405.0
  0
TEXT
  8
0
  6
CONTINUOUS
 62
     4
 10
99.999996846
 20
84.999994744
 30
0.99999979
 40
9.999997897
  1
ＰＡＲＴＳ　ＬＩＳＴ
 50
0.0
 41
0.6
 51
0.0
  7
KANJI19
  0
TEXT
  8
0
  6
CONTINUOUS
 62
     4
 10
324.999949538
 20
84.999994744
 30
0.99999979
 40
9.999997897
  1
Ｎ０．
 50
0.0
 41
0.6
 51
0.0
  7
KANJI19
  0
TEXT
  8
0
  6
CONTINUOUS
 62
     4
 10
99.999996846
 20
69.999997897
 30
1.199999748
 40
11.999997477
  1
部品表
 50
0.0
 41
0.9
 51
0.0
  7
KANJI20
  0
TEXT
  8
0
  6
CONTINUOUS
 62
     4
 10
324.999949538
 20
69.999997897
 30
1.199999748
 40
11.999997477
  1
項番
 50
0.0
 41
0.9
 51
0.0
  7
KANJI20
  0
LINE
  8
0
  6
CONTINUOUS
 62
     6
 10
2020.0
 20
60.0
 11
85.0
 21
60.0
  0
LINE
  8
0
  6
CONTINUOUS
 62
     6
 10
414.999930615
 20
64.999998949
 11
414.999930615
 21
134.999984231
  0
LINE
  8
0
  6
CONTINUOUS
 62
     6
 10
89.999998949
 20
134.999984231
 11
414.999930615
 21
134.999984231
  0
LINE
  8
0
  6
CONTINUOUS
 62
     6
 10
89.999998949
 20
64.999998949
 11
414.999930615
 21
64.999998949
  0
LINE
  8
0
  6
CONTINUOUS
 62
     6
 10
89.999998949
 20
64.999998949
 11
89.999998949
 21
134.999984231
  0
LINE
  8
0
  6
CONTINUOUS
 62
     6
 10
314.999951641
 20
64.999998949
 11
314.999951641
 21
134.999984231
  0
LINE
  8
0
  6
CONTINUOUS
 62
     6
 10
89.999998949
 20
99.99999159
 11
414.999930615
 21
99.99999159
  0
TEXT
  8
0
  6
CONTINUOUS
 62
     3
 10
99.999996846
 20
109.999989487
 30
1.499999685
 40
14.999996846
  1
ＰＬ
 50
0.0
 41
0.9
 51
0.0
  7
KANJI21
  0
LINE
  8
0
  6
CONTINUOUS
 62
     4
 10
25.583333
 20
65.583333
 11
77.583329
 21
65.583333
  0
LINE
  8
0
  6
CONTINUOUS
 62
     4
 10
25.583333
 20
91.583331
 11
77.583329
 21
91.583331
  0
LINE
  8
0
  6
CONTINUOUS
 62
     4
 10
25.583333
 20
117.583329
 11
77.583329
 21
117.583329
  0
LINE
  8
0
  6
CONTINUOUS
 62
     4
 10
25.583333
 20
143.583327
 11
77.583329
 21
143.583327
  0
LINE
  8
0
  6
CONTINUOUS
 62
     4
 10
25.583333
 20
169.583325
 11
77.583329
 21
169.583325
  0
LINE
  8
0
  6
CONTINUOUS
 62
     4
 10
25.583333
 20
195.583323
 11
77.583329
 21
195.583323
  0
LINE
  8
0
  6
CONTINUOUS
 62
     4
 10
25.583333
 20
221.583321
 11
77.583329
 21
221.583321
  0
LINE
  8
0
  6
CONTINUOUS
 62
     4
 10
25.583333
 20
247.583319
 11
77.583329
 21
247.583319
  0
LINE
  8
0
  6
CONTINUOUS
 62
     4
 10
25.583333
 20
273.583317
 11
77.583329
 21
273.583317
  0
LINE
  8
0
  6
CONTINUOUS
 62
     4
 10
25.583333
 20
299.583315
 11
77.583329
 21
299.583315
  0
LINE
  8
0
  6
CONTINUOUS
 62
     4
 10
77.583329
 20
65.583333
 11
77.583329
 21
299.583315
  0
LINE
  8
0
  6
CONTINUOUS
 62
     4
 10
51.583331
 20
65.583333
 11
51.583331
 21
273.583317
  0
TEXT
  8
0
  6
CONTINUOUS
 62
     4
 10
34.46666565
 20
73.16666575
 30
1.2999999
 40
12.999999
  1
計
 50
0.0
 41
0.75
 51
0.0
  7
KANJI22
  0
TEXT
  8
0
  6
CONTINUOUS
 62
     4
 10
34.46666565
 20
125.59999505
 30
1.2999999
 40
12.999999
  1
設
 50
0.0
 41
0.75
 51
0.0
  7
KANJI22
  0
TEXT
  8
0
  6
CONTINUOUS
 62
     4
 10
34.46666565
 20
151.16665975
 30
1.2999999
 40
12.999999
  1
管
 50
0.0
 41
0.75
 51
0.0
  7
KANJI22
  0
TEXT
  8
0
  6
CONTINUOUS
 62
     4
 10
34.46666565
 20
177.16665775
 30
1.2999999
 40
12.999999
  1
製
 50
0.0
 41
0.75
 51
0.0
  7
KANJI22
  0
TEXT
  8
0
  6
CONTINUOUS
 62
     4
 10
34.46666565
 20
203.16665575
 30
1.2999999
 40
12.999999
  1
資
 50
0.0
 41
0.75
 51
0.0
  7
KANJI22
  0
TEXT
  8
0
  6
CONTINUOUS
 62
     4
 10
34.46666565
 20
229.16665375
 30
1.2999999
 40
12.999999
  1
営
 50
0.0
 41
0.75
 51
0.0
  7
KANJI22
  0
TEXT
  8
0
  6
CONTINUOUS
 62
     4
 10
34.46666565
 20
255.16665175
 30
1.2999999
 40
12.999999
  1
客
 50
0.0
 41
0.75
 51
0.0
  7
KANJI22
  0
TEXT
  8
0
  6
CONTINUOUS
 62
     4
 10
34.249999
 20
282.249983
 30
1.2999999
 40
12.999999
  1
出　図
 50
0.0
 41
0.75
 51
0.0
  7
KANJI22
  0
LINE
  8
0
  6
CONTINUOUS
 62
     4
 10
25.583333
 20
65.583333
 11
25.583333
 21
299.583315
  0
TEXT
  8
0
  6
CONTINUOUS
 62
     4
 10
1357.000051
 20
153.1666595
 30
0.8666666
 40
8.666666
  1
ＤＲＡＷＮ
 50
0.0
 41
0.6
 51
0.0
  7
KANJI23
  0
TEXT
  8
0
  6
CONTINUOUS
 62
     4
 10
1357.000051
 20
187.8333235
 30
0.8666666
 40
8.666666
  1
ＤＥＳＩＧＮ
 50
0.0
 41
0.6
 51
0.0
  7
KANJI23
  0
TEXT
  8
0
  6
CONTINUOUS
 62
     4
 10
1357.000051
 20
222.4999875
 30
0.8666666
 40
8.666666
  1
ＣＨＥＣＫ
 50
0.0
 41
0.6
 51
0.0
  7
KANJI23
  0
TEXT
  8
0
  6
CONTINUOUS
 62
     4
 10
1357.000051
 20
257.1666515
 30
0.8666666
 40
8.666666
  1
ＣＯＤＥ
 50
0.0
 41
0.6
 51
0.0
  7
KANJI23
  0
LINE
  8
0
  6
CONTINUOUS
 62
     4
 10
1348.333385
 20
202.999989
 11
1506.5000395
 21
202.999989
  0
LINE
  8
0
  6
CONTINUOUS
 62
     4
 10
1348.333385
 20
168.333325
 11
1506.5000395
 21
168.333325
  0
LINE
  8
0
  6
CONTINUOUS
 62
     4
 10
1348.333385
 20
237.666653
 11
1506.5000395
 21
237.666653
  0
LINE
  8
0
  6
CONTINUOUS
 62
     4
 10
1348.333385
 20
272.333317
 11
2015.666667
 21
272.333317
  0
TEXT
  8
0
  6
CONTINUOUS
 62
     4
 10
1357.000051
 20
174.8333245
 30
1.03999992
 40
10.3999992
  1
設計
 50
0.0
 41
0.6
 51
0.0
  7
KANJI24
  0
TEXT
  8
0
  6
CONTINUOUS
 62
     4
 10
1357.000051
 20
209.4999885
 30
1.03999992
 40
10.3999992
  1
検図
 50
0.0
 41
0.6
 51
0.0
  7
KANJI24
  0
TEXT
  8
0
  6
CONTINUOUS
 62
     4
 10
1357.000051
 20
244.1666525
 30
1.03999992
 40
10.3999992
  1
分類
 50
0.0
 41
0.6
 51
0.0
  7
KANJI24
  0
LINE
  8
0
  6
CONTINUOUS
 62
     4
 10
1519.28337185
 20
237.666653
 11
2015.666667
 21
237.666653
  0
LINE
  8
0
  6
CONTINUOUS
 62
     4
 10
1506.5000395
 20
168.333325
 11
2015.666667
 21
168.333325
  0
TEXT
  8
0
  6
CONTINUOUS
 62
     4
 10
1515.1667055
 20
153.1666595
 30
0.8666666
 40
8.666666
  1
ＤＲＡＷＩＮＧ　ＮＯ．
 50
0.0
 41
0.8
 51
0.0
  7
KANJI25
  0
TEXT
  8
0
  6
CONTINUOUS
 62
     4
 10
1515.1667055
 20
187.8333235
 30
0.8666666
 40
8.666666
  1
ＭＦＧ　ＮＯ．
 50
0.0
 41
0.8
 51
0.0
  7
KANJI25
  0
TEXT
  8
0
  6
CONTINUOUS
 62
     4
 10
1515.1667055
 20
222.4999875
 30
0.8666666
 40
8.666666
  1
ＴＹＰＥ
 50
0.0
 41
0.8
 51
0.0
  7
KANJI25
  0
LINE
  8
0
  6
CONTINUOUS
 62
     4
 10
1519.5000385
 20
202.999989
 11
1718.8333565
 21
202.999989
  0
TEXT
  8
0
  6
CONTINUOUS
 62
     4
 10
1515.1667055
 20
137.999994
 30
1.03999992
 40
10.3999992
  1
図　面　番　号
 50
0.0
 41
0.8
 51
0.0
  7
KANJI26
  0
TEXT
  8
0
  6
CONTINUOUS
 62
     4
 10
1515.1667055
 20
172.666658
 30
1.03999992
 40
10.3999992
  1
製番
 50
0.0
 41
0.8
 51
0.0
  7
KANJI26
  0
TEXT
  8
0
  6
CONTINUOUS
 62
     4
 10
1515.1667055
 20
207.333322
 30
1.03999992
 40
10.3999992
  1
機種
 50
0.0
 41
0.8
 51
0.0
  7
KANJI26
  0
LINE
  8
0
  6
CONTINUOUS
 62
     4
 10
1348.333385
 20
98.999997
 11
1506.5000395
 21
98.999997
  0
LINE
  8
0
  6
CONTINUOUS
 62
     4
 10
1348.333385
 20
133.666661
 11
1506.5000395
 21
133.666661
  0
TEXT
  8
0
  6
CONTINUOUS
 62
     4
 10
1357.000051
 20
83.8333315
 30
0.8666666
 40
8.666666
  1
ＳＣＡＬＥ
 50
0.0
 41
0.6
 51
0.0
  7
KANJI23
  0
TEXT
  8
0
  6
CONTINUOUS
 62
     4
 10
1357.000051
 20
118.4999955
 30
0.8666666
 40
8.666666
  1
ＤＡＴＥ
 50
0.0
 41
0.6
 51
0.0
  7
KANJI23
  0
TEXT
  8
0
  6
CONTINUOUS
 62
     4
 10
1357.000051
 20
70.8333325
 30
1.03999992
 40
10.3999992
  1
尺度
 50
0.0
 41
0.6
 51
0.0
  7
KANJI24
  0
TEXT
  8
0
  6
CONTINUOUS
 62
     4
 10
1357.000051
 20
105.4999965
 30
1.03999992
 40
10.3999992
  1
日付
 50
0.0
 41
0.6
 51
0.0
  7
KANJI24
  0
TEXT
  8
0
  6
CONTINUOUS
 62
     4
 10
1357.000051
 20
140.1666605
 30
1.03999992
 40
10.3999992
  1
作図
 50
0.0
 41
0.6
 51
0.0
  7
KANJI24
  0
LINE
  8
0
  6
CONTINUOUS
 62
     4
 10
1103.5000705
 20
64.333333
 11
1103.5000705
 21
98.999997
  0
LINE
  8
0
  6
CONTINUOUS
 62
     4
 10
1142.5000675
 20
64.333333
 11
1142.5000675
 21
98.999997
  0
TEXT
  8
0
  6
CONTINUOUS
 62
     4
 10
1116.5000695
 20
83.8333315
 30
0.8666666
 40
8.666666
  1
ＢＹ
 50
0.0
 41
0.6
 51
0.0
  7
KANJI23
  0
TEXT
  8
0
  6
CONTINUOUS
 62
     4
 10
1211.8333955
 20
83.8333315
 30
0.8666666
 40
8.666666
  1
ＤＥＳＣＲＩＰＴＩＯＮ
 50
0.0
 41
0.6
 51
0.0
  7
KANJI23
  0
TEXT
  8
0
  6
CONTINUOUS
 62
     4
 10
1116.5000695
 20
70.8333325
 30
1.03999992
 40
10.3999992
  1
担当
 50
0.0
 41
0.6
 51
0.0
  7
KANJI24
  0
TEXT
  8
0
  6
CONTINUOUS
 62
     4
 10
1224.8333945
 20
70.8333325
 30
1.03999992
 40
10.3999992
  1
記　　　　事
 50
0.0
 41
0.6
 51
0.0
  7
KANJI24
  0
LINE
  8
0
  6
CONTINUOUS
 62
     4
 10
1024.41674325
 20
92.4999975
 11
1010.333411
 21
70.8333325
  0
TEXT
  8
0
  6
CONTINUOUS
 62
     4
 10
1060.1667405
 20
83.8333315
 30
0.8666666
 40
8.666666
  1
ＤＡＴＥ
 50
0.0
 41
0.6
 51
0.0
  7
KANJI23
  0
TEXT
  8
0
  6
CONTINUOUS
 62
     4
 10
1066.66674
 20
70.8333325
 30
1.03999992
 40
10.3999992
  1
日付
 50
0.0
 41
0.6
 51
0.0
  7
KANJI24
  0
LINE
  8
0
  6
CONTINUOUS
 62
     4
 10
1010.333411
 20
70.8333325
 11
1038.5000755
 21
70.8333325
  0
LINE
  8
0
  6
CONTINUOUS
 62
     4
 10
1042.8334085
 20
64.333333
 11
1042.8334085
 21
98.999997
  0
LINE
  8
0
  6
CONTINUOUS
 62
     4
 10
1024.41674325
 20
92.4999975
 11
1038.5000755
 21
70.8333325
  0
LINE
  8
0
  6
CONTINUOUS
 62
     4
 10
1506.5000395
 20
118.4999955
 11
2015.666667
 21
118.4999955
  0
LINE
  8
0
  6
LTYPE1
 62
     4
 10
1870.5000115
 20
124.999995
 11
1870.5000115
 21
159.666659
  0
LINE
  8
0
  6
LTYPE1
 62
     4
 10
1840.1666805
 20
124.999995
 11
1840.1666805
 21
159.666659
  0
LINE
  8
0
  6
LTYPE1
 62
     4
 10
1809.8333495
 20
124.999995
 11
1809.8333495
 21
159.666659
  0
LINE
  8
0
  6
LTYPE1
 62
     4
 10
1779.5000185
 20
124.999995
 11
1779.5000185
 21
159.666659
  0
LINE
  8
0
  6
LTYPE1
 62
     4
 10
1749.1666875
 20
124.999995
 11
1749.1666875
 21
159.666659
  0
LINE
  8
0
  6
LTYPE1
 62
     4
 10
1718.8333565
 20
124.999995
 11
1718.8333565
 21
159.666659
  0
LINE
  8
0
  6
LTYPE1
 62
     4
 10
1688.5000255
 20
124.999995
 11
1688.5000255
 21
159.666659
  0
LINE
  8
0
  6
LTYPE1
 62
     4
 10
1658.1666945
 20
124.999995
 11
1658.1666945
 21
159.666659
  0
LINE
  8
0
  6
LTYPE1
 62
     4
 10
1658.1666945
 20
159.666659
 11
1870.5000115
 21
159.666659
  0
LINE
  8
0
  6
LTYPE1
 62
     4
 10
1658.1666945
 20
124.999995
 11
1870.5000115
 21
124.999995
  0
LINE
  8
0
  6
CONTINUOUS
 62
     4
 10
1942.000006
 20
130.41666125
 11
1911.666675
 21
130.41666125
  0
LINE
  8
0
  6
CONTINUOUS
 62
     4
 10
1911.666675
 20
130.41666125
 11
1926.8333405
 21
156.41665925
  0
LINE
  8
0
  6
CONTINUOUS
 62
     4
 10
1926.8333405
 20
156.41665925
 11
1942.000006
 21
130.41666125
  0
TEXT
  8
0
  6
CONTINUOUS
 62
     4
 10
1731.8333555
 20
222.4999875
 30
0.8666666
 40
8.666666
  1
ＴＩＴＬＥ
 50
0.0
 41
0.8
 51
0.0
  7
KANJI25
  0
TEXT
  8
0
  6
CONTINUOUS
 62
     4
 10
1731.8333555
 20
207.333322
 30
1.03999992
 40
10.3999992
  1
名称
 50
0.0
 41
0.8
 51
0.0
  7
KANJI26
  0
LINE
  8
0
  6
CONTINUOUS
 62
     6
 10
2020.0
 20
1405.0
 11
2020.0
 21
60.0
  0
LINE
  8
0
  6
CONTINUOUS
 62
     6
 10
1006.000078
 20
64.333333
 11
1006.000078
 21
98.999997
  0
LINE
  8
0
  6
CONTINUOUS
 62
     6
 10
1006.000078
 20
98.999997
 11
1348.333385
 21
98.999997
  0
LINE
  8
0
  6
CONTINUOUS
 62
     6
 10
1006.000078
 20
64.333333
 11
2015.666667
 21
64.333333
  0
TEXT
  8
0
  6
CONTINUOUS
 62
     6
 10
1510.8333725
 20
83.8333315
 30
0.0
 40
15.1666655
  1
ＵＮＩＴＥＣ　ＩＮＤＵＳＴＲＹ　ＣＯ．，ＬＴＤ．
 50
0.0
 41
0.42031746
 51
0.0
  7
KANJI27
  0
TEXT
  8
0
  6
CONTINUOUS
 62
     6
 10
1723.545856138
 20
78.1999986
 30
2.5999998
 40
25.999998
  1
ユニテック工業株式会社
 50
0.0
 41
0.9
 51
0.0
  7
KANJI28
  0
LINE
  8
0
  6
CONTINUOUS
 62
     4
 10
1887.8333435
 20
143.41666025
 11
1896.5000095
 21
143.41666025
  0
CIRCLE
  8
0
  6
CONTINUOUS
 62
     3
 10
1609.2500115
 20
184.999995
 40
15.051993223
  0
TEXT
  8
0
  6
CONTINUOUS
 62
     2
 10
1780.0
 20
205.0
 30
3.571428571
 40
25.0
  1
マイティシリンダ
 50
0.0
 41
1.0
 51
0.0
  7
KANJI29
  0
LINE
  8
0
  6
CONTINUOUS
 62
     6
 10
1348.958385
 20
306.999981
 11
2016.291667
 21
306.999981
  0
LINE
  8
0
  6
CONTINUOUS
 62
     6
 10
1348.333385
 20
341.666645
 11
2015.666667
 21
341.666645
  0
TEXT
  8
0
  6
CONTINUOUS
 62
     4
 10
1363.75
 20
277.5
 30
5.0
 40
18.0
  1
ご注文主
 50
0.0
 41
1.111111111
 51
0.0
  7
KANJI30
  0
TEXT
  8
0
  6
CONTINUOUS
 62
     4
 10
1363.75
 20
312.166664
 30
5.0
 40
18.0
  1
ご用途
 50
0.0
 41
1.111111111
 51
0.0
  7
KANJI30
  0
LINE
  8
0
  6
CONTINUOUS
 62
     6
 10
1348.333385
 20
64.333333
 11
1348.333385
 21
341.666645
  0
LINE
  8
0
  6
CONTINUOUS
 62
     4
 10
1506.5000395
 20
64.333333
 11
1506.5000395
 21
341.666645
  0
LINE
  8
0
  6
CONTINUOUS
 62
     6
 10
2015.666667
 20
64.333333
 11
2015.666667
 21
341.666645
  0
LINE
  8
0
  6
CONTINUOUS
 62
     6
 10
1688.85335371
 20
87.83999832
 11
1677.41335459
 21
87.83999832
  0
LINE
  8
0
  6
CONTINUOUS
 62
     6
 10
1688.85335371
 20
89.91999816
 11
1677.41335459
 21
89.91999816
  0
LINE
  8
0
  6
CONTINUOUS
 62
     6
 10
1688.85335371
 20
87.83999832
 11
1700.29335283
 21
87.83999832
  0
LINE
  8
0
  6
CONTINUOUS
 62
     6
 10
1688.85335371
 20
89.91999816
 11
1700.29335283
 21
89.91999816
  0
LINE
  8
0
  6
CONTINUOUS
 62
     6
 10
1700.29335283
 20
89.91999816
 11
1700.29335283
 21
87.83999832
  0
ARC
  8
0
  6
CONTINUOUS
 62
     6
 10
1702.89335263
 20
88.87999824
 40
10.3999992
 50
185.739170477
 51
90.0
  0
ARC
  8
0
  6
CONTINUOUS
 62
     6
 10
1702.89335263
 20
88.87999824
 40
12.47999904
 50
184.780191847
 51
90.0
  0
LINE
  8
0
  6
CONTINUOUS
 62
     6
 10
1677.41335459
 20
87.83999832
 11
1677.41335459
 21
89.91999816
  0
LINE
  8
0
  6
CONTINUOUS
 62
     6
 10
1687.29335383
 20
101.35999728
 11
1674.81335479
 21
101.35999728
  0
LINE
  8
0
  6
CONTINUOUS
 62
     6
 10
1690.41335359
 20
101.35999728
 11
1702.89335263
 21
101.35999728
  0
ARC
  8
0
  6
CONTINUOUS
 62
     6
 10
1674.81335479
 20
88.87999824
 40
10.3999992
 50
90.0
 51
354.260829523
  0
ARC
  8
0
  6
CONTINUOUS
 62
     6
 10
1674.81335479
 20
88.87999824
 40
12.47999904
 50
90.0
 51
355.219808153
  0
LINE
  8
0
  6
CONTINUOUS
 62
     6
 10
1687.29335383
 20
101.35999728
 11
1687.29335383
 21
99.27999744
  0
LINE
  8
0
  6
CONTINUOUS
 62
     6
 10
1674.81335479
 20
99.27999744
 11
1687.29335383
 21
99.27999744
  0
LINE
  8
0
  6
CONTINUOUS
 62
     6
 10
1690.41335359
 20
101.35999728
 11
1690.41335359
 21
99.27999744
  0
LINE
  8
0
  6
CONTINUOUS
 62
     6
 10
1702.89335263
 20
99.27999744
 11
1690.41335359
 21
99.27999744
  0
LINE
  8
0
  6
CONTINUOUS
 62
     1
 10
1587.5
 20
712.5
 11
2020.0
 21
712.5
  0
LINE
  8
0
  6
CONTINUOUS
 62
     2
 10
1587.5
 20
747.5
 11
2020.0
 21
747.5
  0
LINE
  8
0
  6
CONTINUOUS
 62
     2
 10
1587.5
 20
782.5
 11
2020.0
 21
782.5
  0
LINE
  8
0
  6
CONTINUOUS
 62
     2
 10
1587.5
 20
817.5
 11
2020.0
 21
817.5
  0
LINE
  8
0
  6
CONTINUOUS
 62
     2
 10
1587.5
 20
852.5
 11
2020.0
 21
852.5
  0
LINE
  8
0
  6
CONTINUOUS
 62
     2
 10
1587.5
 20
887.5
 11
2020.0
 21
887.5
  0
LINE
  8
0
  6
CONTINUOUS
 62
     2
 10
1587.5
 20
922.5
 11
2020.0
 21
922.5
  0
LINE
  8
0
  6
CONTINUOUS
 62
     2
 10
1587.5
 20
957.5
 11
2020.0
 21
957.5
  0
LINE
  8
0
  6
CONTINUOUS
 62
     2
 10
1587.5
 20
992.5
 11
2020.0
 21
992.5
  0
LINE
  8
0
  6
CONTINUOUS
 62
     2
 10
1587.5
 20
1027.5
 11
2020.0
 21
1027.5
  0
LINE
  8
0
  6
CONTINUOUS
 62
     2
 10
1587.5
 20
1062.5
 11
2020.0
 21
1062.5
  0
LINE
  8
0
  6
CONTINUOUS
 62
     2
 10
1587.5
 20
1097.5
 11
2020.0
 21
1097.5
  0
LINE
  8
0
  6
CONTINUOUS
 62
     2
 10
1587.5
 20
1132.5
 11
2020.0
 21
1132.5
  0
LINE
  8
0
  6
CONTINUOUS
 62
     2
 10
1587.5
 20
1167.5
 11
2020.0
 21
1167.5
  0
LINE
  8
0
  6
CONTINUOUS
 62
     2
 10
1587.5
 20
1202.5
 11
2020.0
 21
1202.5
  0
LINE
  8
0
  6
CONTINUOUS
 62
     2
 10
1587.5
 20
1237.5
 11
2020.0
 21
1237.5
  0
LINE
  8
0
  6
CONTINUOUS
 62
     2
 10
1587.5
 20
1272.5
 11
2020.0
 21
1272.5
  0
LINE
  8
0
  6
CONTINUOUS
 62
     1
 10
1587.5
 20
1322.5
 11
2020.0
 21
1322.5
  0
TEXT
  8
0
  6
CONTINUOUS
 62
     2
 10
1951.75
 20
1140.0
 30
0.112
 40
14.0
  1
ｍｍ／ｓｅｃ
 50
0.0
 41
0.8
 51
0.0
  7
KANJI4
  0
TEXT
  8
0
  6
CONTINUOUS
 62
     2
 10
1844.875
 20
1141.375
 30
1.5
 40
15.0
  1
ＭＡＸ．１２０
 50
0.0
 41
0.9
 51
0.0
  7
KANJI13
  0
TEXT
  8
0
  6
CONTINUOUS
 62
     3
 10
1602.1666945
 20
175.499995
 30
46.0
 40
17.5
  1
Ｓ
 50
0.0
 41
0.857142857
 51
0.0
  7
KANJI31
  0
TEXT
  8
0
  6
CONTINUOUS
 62
     3
 10
1440.0
 20
70.0
 30
1.5
 40
22.5
  1
１／５
 50
0.0
 41
0.666666667
 51
0.0
  7
KANJI32
  0
TEXT
  8
0
  6
CONTINUOUS
 62
     3
 10
1404.1666945
 20
177.166659
 30
1.5
 40
17.5
  1
山本
 50
0.0
 41
0.571428571
 51
0.0
  7
KANJI33
  0
LINE
  8
0
  6
CONTINUOUS
 62
     1
 10
431.1
 20
868.5
 11
431.1
 21
1072.5
  0
LINE
  8
0
  6
CONTINUOUS
 62
     1
 10
251.1
 20
1075.5
 11
391.1
 21
1075.5
  0
LINE
  8
0
  6
CONTINUOUS
 62
     1
 10
391.1
 20
1072.5
 11
431.1
 21
1072.5
  0
LINE
  8
0
  6
CONTINUOUS
 62
     1
 10
391.1
 20
868.5
 11
431.1
 21
868.5
  0
LINE
  8
0
  6
CONTINUOUS
 62
     1
 10
391.1
 20
1042.5
 11
391.1
 21
1075.5
  0
LINE
  8
0
  6
CONTINUOUS
 62
     1
 10
391.1
 20
865.5
 11
391.1
 21
898.5
  0
LINE
  8
0
  6
CONTINUOUS
 62
     1
 10
251.1
 20
865.5
 11
251.1
 21
1075.5
  0
LINE
  8
0
  6
CONTINUOUS
 62
     1
 10
251.1
 20
865.5
 11
391.1
 21
865.5
  0
ARC
  8
0
  6
CONTINUOUS
 62
     1
 10
401.1
 20
970.5
 40
12.5
 50
23.5
 51
156.5
  0
ARC
  8
0
  6
CONTINUOUS
 62
     1
 10
421.1
 20
970.5
 40
5.0
 50
270.0
 51
0.0
  0
ARC
  8
0
  6
CONTINUOUS
 62
     1
 10
421.1
 20
970.5
 40
5.0
 50
0.0
 51
90.0
  0
POINT
  8
0
  6
CONTINUOUS
 62
     1
 10
426.1
 20
970.5
  0
ARC
  8
0
  6
CONTINUOUS
 62
     1
 10
381.1
 20
970.5
 40
5.0
 50
90.0
 51
180.0
  0
LINE
  8
0
  6
CONTINUOUS
 62
     1
 10
381.1
 20
975.5
 11
421.1
 21
975.5
  0
LINE
  8
0
  6
CONTINUOUS
 62
     1
 10
421.1
 20
965.5
 11
381.1
 21
965.5
  0
ARC
  8
0
  6
CONTINUOUS
 62
     1
 10
381.1
 20
970.5
 40
5.0
 50
180.0
 51
270.0
  0
POINT
  8
0
  6
CONTINUOUS
 62
     1
 10
376.1
 20
970.5
  0
ARC
  8
0
  6
CONTINUOUS
 62
     1
 10
401.1
 20
970.5
 40
12.5
 50
203.5
 51
336.5
  0
LINE
  8
0
  6
CONTINUOUS
 62
     1
 10
534.1
 20
905.5
 11
571.1
 21
905.5
  0
LINE
  8
0
  6
CONTINUOUS
 62
     1
 10
431.1
 20
869.5
 11
451.1
 21
869.5
  0
LINE
  8
0
  6
CONTINUOUS
 62
     1
 10
451.1
 20
869.5
 11
451.1
 21
970.5
  0
LINE
  8
0
  6
CONTINUOUS
 62
     1
 10
518.1
 20
915.5
 11
518.1
 21
970.5
  0
LINE
  8
0
  6
CONTINUOUS
 62
     1
 10
534.1
 20
905.5
 11
534.1
 21
970.5
  0
LINE
  8
0
  6
CONTINUOUS
 62
     1
 10
518.1
 20
915.5
 11
534.1
 21
905.5
  0
LINE
  8
0
  6
CONTINUOUS
 62
     1
 10
455.1
 20
911.11
 11
455.1
 21
924.940988098
  0
LINE
  8
0
  6
CONTINUOUS
 62
     1
 10
455.1
 20
911.11
 11
455.1
 21
897.279011902
  0
POINT
  8
0
  6
CONTINUOUS
 62
     1
 10
451.1
 20
925.11
  0
LINE
  8
0
  6
CONTINUOUS
 62
     1
 10
451.1
 20
925.11
 11
455.1
 21
925.11
  0
LINE
  8
0
  6
CONTINUOUS
 62
     1
 10
451.1
 20
911.11
 11
455.099996995
 21
915.109996995
  0
LINE
  8
0
  6
CONTINUOUS
 62
     1
 10
455.099996995
 20
911.11
 11
451.1
 21
907.110003005
  0
POINT
  8
0
  6
CONTINUOUS
 62
     1
 10
451.1
 20
897.11
  0
LINE
  8
0
  6
CONTINUOUS
 62
     1
 10
451.1
 20
897.11
 11
455.1
 21
897.11
  0
LINE
  8
0
  6
CONTINUOUS
 62
     1
 10
470.1
 20
911.109999776
 11
470.1
 21
923.11
  0
LINE
  8
0
  6
CONTINUOUS
 62
     1
 10
455.1
 20
923.11
 11
470.1
 21
923.11
  0
LINE
  8
0
  6
CONTINUOUS
 62
     1
 10
470.1
 20
923.11
 11
471.1
 21
921.377949192
  0
LINE
  8
0
  6
CONTINUOUS
 62
     1
 10
471.1
 20
911.109999762
 11
471.1
 21
921.377949192
  0
LINE
  8
0
  6
CONTINUOUS
 62
     1
 10
470.1
 20
911.110000224
 11
470.1
 21
899.11
  0
LINE
  8
0
  6
CONTINUOUS
 62
     1
 10
455.1
 20
899.11
 11
470.1
 21
899.11
  0
LINE
  8
0
  6
CONTINUOUS
 62
     1
 10
470.1
 20
899.11
 11
471.1
 21
900.842050808
  0
LINE
  8
0
  6
CONTINUOUS
 62
     1
 10
471.1
 20
911.110000238
 11
471.1
 21
900.842050808
  0
LINE
  8
0
  6
CONTINUOUS
 62
     1
 10
468.1
 20
923.11
 11
468.1
 21
970.5
  0
LINE
  8
0
  6
CONTINUOUS
 62
     1
 10
471.1
 20
915.5
 11
518.1
 21
915.5
  0
LINE
  8
0
  6
CONTINUOUS
 62
     1
 10
283.6
 20
1127.5
 11
358.6
 21
1127.5
  0
LINE
  8
0
  6
CONTINUOUS
 62
     1
 10
251.6
 20
1095.5
 11
390.6
 21
1095.5
  0
LINE
  8
0
  6
CONTINUOUS
 62
     1
 10
390.6
 20
1075.5
 11
390.6
 21
1095.5
  0
LINE
  8
0
  6
CONTINUOUS
 62
     1
 10
251.6
 20
1075.5
 11
251.6
 21
1095.5
  0
LINE
  8
0
  6
CONTINUOUS
 62
     1
 10
283.6
 20
1095.5
 11
283.6
 21
1127.5
  0
LINE
  8
0
  6
CONTINUOUS
 62
     1
 10
358.6
 20
1095.5
 11
358.6
 21
1127.5
  0
LINE
  8
0
  6
CONTINUOUS
 62
     1
 10
308.6
 20
1130.5
 11
333.6
 21
1130.5
  0
LINE
  8
0
  6
CONTINUOUS
 62
     1
 10
309.1
 20
1170.5
 11
333.1
 21
1170.5
  0
LINE
  8
0
  6
CONTINUOUS
 62
     1
 10
309.1
 20
1130.5
 11
309.1
 21
1170.5
  0
LINE
  8
0
  6
CONTINUOUS
 62
     1
 10
333.1
 20
1130.5
 11
333.1
 21
1170.5
  0
LINE
  8
0
  6
CONTINUOUS
 62
     1
 10
333.6
 20
1127.5
 11
333.6
 21
1130.5
  0
LINE
  8
0
  6
CONTINUOUS
 62
     1
 10
308.6
 20
1127.5
 11
308.6
 21
1130.5
  0
ARC
  8
0
  6
CONTINUOUS
 62
     1
 10
321.1
 20
1134.5
 40
4.0
 50
180.0
 51
0.0
  0
LINE
  8
0
  6
CONTINUOUS
 62
     1
 10
317.1
 20
1134.5
 11
317.1
 21
1170.5
  0
LINE
  8
0
  6
CONTINUOUS
 62
     1
 10
325.1
 20
1134.5
 11
325.1
 21
1170.5
  0
LINE
  8
0
  6
CONTINUOUS
 62
     1
 10
251.1
 20
865.5
 11
391.1
 21
865.5
  0
LINE
  8
0
  6
CONTINUOUS
 62
     1
 10
283.6
 20
813.5
 11
358.6
 21
813.5
  0
LINE
  8
0
  6
CONTINUOUS
 62
     1
 10
251.6
 20
845.5
 11
390.6
 21
845.5
  0
LINE
  8
0
  6
CONTINUOUS
 62
     1
 10
390.6
 20
865.5
 11
390.6
 21
845.5
  0
LINE
  8
0
  6
CONTINUOUS
 62
     1
 10
251.6
 20
865.5
 11
251.6
 21
845.5
  0
LINE
  8
0
  6
CONTINUOUS
 62
     1
 10
283.6
 20
845.5
 11
283.6
 21
813.5
  0
LINE
  8
0
  6
CONTINUOUS
 62
     1
 10
358.6
 20
845.5
 11
358.6
 21
813.5
  0
LINE
  8
0
  6
CONTINUOUS
 62
     1
 10
308.6
 20
810.5
 11
333.6
 21
810.5
  0
LINE
  8
0
  6
CONTINUOUS
 62
     1
 10
309.1
 20
770.5
 11
333.1
 21
770.5
  0
LINE
  8
0
  6
CONTINUOUS
 62
     1
 10
309.1
 20
810.5
 11
309.1
 21
770.5
  0
LINE
  8
0
  6
CONTINUOUS
 62
     1
 10
333.1
 20
810.5
 11
333.1
 21
770.5
  0
LINE
  8
0
  6
CONTINUOUS
 62
     1
 10
333.6
 20
813.5
 11
333.6
 21
810.5
  0
LINE
  8
0
  6
CONTINUOUS
 62
     1
 10
308.6
 20
813.5
 11
308.6
 21
810.5
  0
ARC
  8
0
  6
CONTINUOUS
 62
     1
 10
321.1
 20
806.5
 40
4.0
 50
0.0
 51
180.0
  0
LINE
  8
0
  6
CONTINUOUS
 62
     1
 10
317.1
 20
806.5
 11
317.1
 21
770.5
  0
LINE
  8
0
  6
CONTINUOUS
 62
     1
 10
325.1
 20
806.5
 11
325.1
 21
770.5
  0
LINE
  8
0
  6
CONTINUOUS
 62
     1
 10
239.1
 20
1070.5
 11
251.1
 21
1070.5
  0
LINE
  8
0
  6
CONTINUOUS
 62
     1
 10
239.1
 20
870.5
 11
251.1
 21
870.5
  0
LINE
  8
0
  6
CONTINUOUS
 62
     1
 10
239.1
 20
870.5
 11
239.1
 21
1070.5
  0
LINE
  8
0
  6
CONTINUOUS
 62
     1
 10
571.1
 20
903.0
 11
571.1
 21
970.5
  0
LINE
  8
0
  6
CONTINUOUS
 62
     1
 10
571.1
 20
903.0
 11
583.1
 21
903.0
  0
LINE
  8
0
  6
CONTINUOUS
 62
     1
 10
583.1
 20
903.0
 11
583.1
 21
970.5
  0
LINE
  8
0
  6
CONTINUOUS
 62
     1
 10
571.1
 20
907.0
 11
583.1
 21
907.0
  0
LINE
  8
0
  6
CONTINUOUS
 62
     1
 10
571.1
 20
965.5
 11
583.1
 21
965.5
  0
LINE
  8
0
  6
CONTINUOUS
 62
     1
 10
534.1
 20
1035.5
 11
571.1
 21
1035.5
  0
LINE
  8
0
  6
CONTINUOUS
 62
     1
 10
431.1
 20
1071.5
 11
451.1
 21
1071.5
  0
LINE
  8
0
  6
CONTINUOUS
 62
     1
 10
451.1
 20
1071.5
 11
451.1
 21
970.5
  0
LINE
  8
0
  6
CONTINUOUS
 62
     1
 10
518.1
 20
1025.5
 11
518.1
 21
970.5
  0
LINE
  8
0
  6
CONTINUOUS
 62
     1
 10
534.1
 20
1035.5
 11
534.1
 21
970.5
  0
LINE
  8
0
  6
CONTINUOUS
 62
     1
 10
518.1
 20
1025.5
 11
534.1
 21
1035.5
  0
LINE
  8
0
  6
CONTINUOUS
 62
     1
 10
455.1
 20
1029.89
 11
455.1
 21
1016.059011902
  0
LINE
  8
0
  6
CONTINUOUS
 62
     1
 10
455.1
 20
1029.89
 11
455.1
 21
1043.720988098
  0
POINT
  8
0
  6
CONTINUOUS
 62
     1
 10
451.1
 20
1015.89
  0
LINE
  8
0
  6
CONTINUOUS
 62
     1
 10
451.1
 20
1015.89
 11
455.1
 21
1015.89
  0
LINE
  8
0
  6
CONTINUOUS
 62
     1
 10
451.1
 20
1029.89
 11
455.099996995
 21
1025.890003005
  0
LINE
  8
0
  6
CONTINUOUS
 62
     1
 10
455.099996995
 20
1029.89
 11
451.1
 21
1033.889996995
  0
POINT
  8
0
  6
CONTINUOUS
 62
     1
 10
451.1
 20
1043.89
  0
LINE
  8
0
  6
CONTINUOUS
 62
     1
 10
451.1
 20
1043.89
 11
455.1
 21
1043.89
  0
LINE
  8
0
  6
CONTINUOUS
 62
     1
 10
470.1
 20
1029.890000224
 11
470.1
 21
1017.89
  0
LINE
  8
0
  6
CONTINUOUS
 62
     1
 10
455.1
 20
1017.89
 11
470.1
 21
1017.89
  0
LINE
  8
0
  6
CONTINUOUS
 62
     1
 10
470.1
 20
1017.89
 11
471.1
 21
1019.622050808
  0
LINE
  8
0
  6
CONTINUOUS
 62
     1
 10
471.1
 20
1029.890000238
 11
471.1
 21
1019.622050808
  0
LINE
  8
0
  6
CONTINUOUS
 62
     1
 10
470.1
 20
1029.889999776
 11
470.1
 21
1041.89
  0
LINE
  8
0
  6
CONTINUOUS
 62
     1
 10
455.1
 20
1041.89
 11
470.1
 21
1041.89
  0
LINE
  8
0
  6
CONTINUOUS
 62
     1
 10
470.1
 20
1041.89
 11
471.1
 21
1040.157949192
  0
LINE
  8
0
  6
CONTINUOUS
 62
     1
 10
471.1
 20
1029.889999762
 11
471.1
 21
1040.157949192
  0
LINE
  8
0
  6
CONTINUOUS
 62
     1
 10
468.1
 20
1017.89
 11
468.1
 21
970.5
  0
LINE
  8
0
  6
CONTINUOUS
 62
     1
 10
471.1
 20
1025.5
 11
518.1
 21
1025.5
  0
LINE
  8
0
  6
CONTINUOUS
 62
     1
 10
571.1
 20
1038.0
 11
571.1
 21
970.5
  0
LINE
  8
0
  6
CONTINUOUS
 62
     1
 10
571.1
 20
1038.0
 11
583.1
 21
1038.0
  0
LINE
  8
0
  6
CONTINUOUS
 62
     1
 10
583.1
 20
1038.0
 11
583.1
 21
970.5
  0
LINE
  8
0
  6
CONTINUOUS
 62
     1
 10
571.1
 20
1034.0
 11
583.1
 21
1034.0
  0
LINE
  8
0
  6
CONTINUOUS
 62
     1
 10
571.1
 20
975.5
 11
583.1
 21
975.5
  0
LINE
  8
0
  6
CONTINUOUS
 62
     1
 10
1029.1
 20
990.5
 11
1114.1
 21
990.5
  0
LINE
  8
0
  6
CONTINUOUS
 62
     1
 10
1114.1
 20
990.5
 11
1114.1
 21
1010.5
  0
LINE
  8
0
  6
CONTINUOUS
 62
     1
 10
1009.1
 20
930.5
 11
1114.1
 21
930.5
  0
LINE
  8
0
  6
CONTINUOUS
 62
     1
 10
1114.1
 20
930.5
 11
1114.1
 21
950.5
  0
LINE
  8
0
  6
CONTINUOUS
 62
     1
 10
1029.1
 20
950.5
 11
1114.1
 21
950.5
  0
LINE
  8
0
  6
CONTINUOUS
 62
     1
 10
1029.1
 20
950.5
 11
1029.1
 21
990.5
  0
LINE
  8
0
  6
CONTINUOUS
 62
     1
 10
239.1
 20
908.275
 11
239.1
 21
898.475
  0
LINE
  8
0
  6
CONTINUOUS
 62
     1
 10
239.1
 20
898.475
 11
233.485640646
 21
898.475
  0
LINE
  8
0
  6
CONTINUOUS
 62
     1
 10
232.1
 20
900.875
 11
233.485640646
 21
898.475
  0
LINE
  8
0
  6
CONTINUOUS
 62
     1
 10
232.1
 20
908.275
 11
232.1
 21
900.875
  0
LINE
  8
0
  6
CONTINUOUS
 62
     1
 10
239.1
 20
903.375
 11
233.485640646
 21
903.375
  0
LINE
  8
0
  6
CONTINUOUS
 62
     1
 10
239.1
 20
908.275
 11
239.1
 21
918.075
  0
LINE
  8
0
  6
CONTINUOUS
 62
     1
 10
239.1
 20
918.075
 11
233.485640646
 21
918.075
  0
LINE
  8
0
  6
CONTINUOUS
 62
     1
 10
232.1
 20
915.675
 11
233.485640646
 21
918.075
  0
LINE
  8
0
  6
CONTINUOUS
 62
     1
 10
232.1
 20
908.275
 11
232.1
 21
915.675
  0
LINE
  8
0
  6
CONTINUOUS
 62
     1
 10
239.1
 20
913.175
 11
233.485640646
 21
913.175
  0
ARC
  8
0
  6
CONTINUOUS
 62
     1
 10
241.4566828
 20
908.275
 40
9.3566828
 50
148.419912243
 51
211.580087757
  0
ARC
  8
0
  6
CONTINUOUS
 62
     1
 10
234.957883832
 20
900.925
 40
2.858321186
 50
121.002313915
 51
182.989498403
  0
LINE
  8
0
  6
CONTINUOUS
 62
     1
 10
232.1
 20
915.675
 11
233.485640646
 21
918.075
  0
ARC
  8
0
  6
CONTINUOUS
 62
     1
 10
234.957883832
 20
915.625
 40
2.858321186
 50
177.010501597
 51
238.997686085
  0
LINE
  8
0
  6
CONTINUOUS
 62
     1
 10
239.1
 20
1042.525
 11
233.485640646
 21
1042.525
  0
LINE
  8
0
  6
CONTINUOUS
 62
     1
 10
232.1
 20
1040.125
 11
233.485640646
 21
1042.525
  0
LINE
  8
0
  6
CONTINUOUS
 62
     1
 10
232.1
 20
1032.725
 11
232.1
 21
1040.125
  0
LINE
  8
0
  6
CONTINUOUS
 62
     1
 10
239.1
 20
1037.625
 11
233.485640646
 21
1037.625
  0
LINE
  8
0
  6
CONTINUOUS
 62
     1
 10
239.1
 20
1022.925
 11
233.485640646
 21
1022.925
  0
LINE
  8
0
  6
CONTINUOUS
 62
     1
 10
232.1
 20
1025.325
 11
233.485640646
 21
1022.925
  0
LINE
  8
0
  6
CONTINUOUS
 62
     1
 10
232.1
 20
1032.725
 11
232.1
 21
1025.325
  0
LINE
  8
0
  6
CONTINUOUS
 62
     1
 10
239.1
 20
1027.825
 11
233.485640646
 21
1027.825
  0
ARC
  8
0
  6
CONTINUOUS
 62
     1
 10
241.4566828
 20
1032.725
 40
9.3566828
 50
148.419912243
 51
211.580087757
  0
ARC
  8
0
  6
CONTINUOUS
 62
     1
 10
234.957883832
 20
1040.075
 40
2.858321186
 50
177.010501597
 51
238.997686085
  0
LINE
  8
0
  6
CONTINUOUS
 62
     1
 10
232.1
 20
1025.325
 11
233.485640646
 21
1022.925
  0
ARC
  8
0
  6
CONTINUOUS
 62
     1
 10
234.957883832
 20
1025.375
 40
2.858321186
 50
121.002313915
 51
182.989498403
  0
LINE
  8
0
  6
CONTINUOUS
 62
     1
 10
1009.1
 20
1189.7
 11
1009.1
 21
1264.7
  0
CIRCLE
  8
0
  6
CONTINUOUS
 62
     1
 10
1079.1
 20
1227.2
 40
15.0
  0
LINE
  8
0
  6
CONTINUOUS
 62
     1
 10
1099.1
 20
1189.7
 11
1009.1
 21
1189.7
  0
LINE
  8
0
  6
CONTINUOUS
 62
     1
 10
1114.1
 20
1204.7
 11
1099.1
 21
1189.7
  0
LINE
  8
0
  6
CONTINUOUS
 62
     1
 10
1099.1
 20
1264.7
 11
1009.1
 21
1264.7
  0
LINE
  8
0
  6
CONTINUOUS
 62
     1
 10
1114.1
 20
1204.7
 11
1114.1
 21
1249.7
  0
LINE
  8
0
  6
CONTINUOUS
 62
     1
 10
1099.1
 20
1264.7
 11
1114.1
 21
1249.7
  0
CIRCLE
  8
0
  6
CONTINUOUS
 62
     1
 10
492.7
 20
970.5
 40
5.0
  0
CIRCLE
  8
0
  6
CONTINUOUS
 62
     1
 10
492.7
 20
970.5
 40
10.0
  0
LINE
  8
0
  6
CONTINUOUS
 62
     1
 10
1384.6
 20
950.5
 11
1459.6
 21
950.5
  0
LINE
  8
0
  6
CONTINUOUS
 62
     1
 10
1384.6
 20
930.5
 11
1459.6
 21
930.5
  0
LINE
  8
0
  6
CONTINUOUS
 62
     1
 10
1384.6
 20
990.5
 11
1459.6
 21
990.5
  0
LINE
  8
0
  6
CONTINUOUS
 62
     1
 10
1384.6
 20
930.5
 11
1384.6
 21
1010.5
  0
LINE
  8
0
  6
CONTINUOUS
 62
     1
 10
1384.6
 20
1010.5
 11
1459.6
 21
1010.5
  0
LINE
  8
0
  6
CONTINUOUS
 62
     1
 10
1459.6
 20
930.5
 11
1459.6
 21
1010.5
  0
LINE
  8
0
  6
CONTINUOUS
 62
     1
 10
1352.1
 20
1075.5
 11
1492.1
 21
1075.5
  0
LINE
  8
0
  6
CONTINUOUS
 62
     1
 10
1352.1
 20
1043.307966597
 11
1352.1
 21
1075.5
  0
LINE
  8
0
  6
CONTINUOUS
 62
     1
 10
1492.1
 20
1043.307966597
 11
1492.1
 21
1075.5
  0
LINE
  8
0
  6
CONTINUOUS
 62
     1
 10
1492.1
 20
865.5
 11
1492.1
 21
897.692033403
  0
LINE
  8
0
  6
CONTINUOUS
 62
     1
 10
1352.1
 20
1075.5
 11
1492.1
 21
1075.5
  0
LINE
  8
0
  6
CONTINUOUS
 62
     1
 10
1384.6
 20
1127.5
 11
1459.6
 21
1127.5
  0
LINE
  8
0
  6
CONTINUOUS
 62
     1
 10
1352.6
 20
1095.5
 11
1491.6
 21
1095.5
  0
LINE
  8
0
  6
CONTINUOUS
 62
     1
 10
1491.6
 20
1075.5
 11
1491.6
 21
1095.5
  0
LINE
  8
0
  6
CONTINUOUS
 62
     1
 10
1352.6
 20
1075.5
 11
1352.6
 21
1095.5
  0
LINE
  8
0
  6
CONTINUOUS
 62
     1
 10
1384.6
 20
1095.5
 11
1384.6
 21
1127.5
  0
LINE
  8
0
  6
CONTINUOUS
 62
     1
 10
1459.6
 20
1095.5
 11
1459.6
 21
1127.5
  0
LINE
  8
0
  6
CONTINUOUS
 62
     1
 10
1409.6
 20
1130.5
 11
1434.6
 21
1130.5
  0
LINE
  8
0
  6
CONTINUOUS
 62
     1
 10
1410.1
 20
1170.5
 11
1434.1
 21
1170.5
  0
LINE
  8
0
  6
CONTINUOUS
 62
     1
 10
1410.1
 20
1130.5
 11
1410.1
 21
1170.5
  0
LINE
  8
0
  6
CONTINUOUS
 62
     1
 10
1434.1
 20
1130.5
 11
1434.1
 21
1170.5
  0
LINE
  8
0
  6
CONTINUOUS
 62
     1
 10
1434.6
 20
1127.5
 11
1434.6
 21
1130.5
  0
LINE
  8
0
  6
CONTINUOUS
 62
     1
 10
1409.6
 20
1127.5
 11
1409.6
 21
1130.5
  0
ARC
  8
0
  6
CONTINUOUS
 62
     1
 10
1422.1
 20
1134.5
 40
4.0
 50
180.0
 51
0.0
  0
LINE
  8
0
  6
CONTINUOUS
 62
     1
 10
1418.1
 20
1134.5
 11
1418.1
 21
1170.5
  0
LINE
  8
0
  6
CONTINUOUS
 62
     1
 10
1426.1
 20
1134.5
 11
1426.1
 21
1170.5
  0
LINE
  8
0
  6
CONTINUOUS
 62
     1
 10
1384.6
 20
813.5
 11
1459.6
 21
813.5
  0
LINE
  8
0
  6
CONTINUOUS
 62
     1
 10
1491.6
 20
865.5
 11
1491.6
 21
845.5
  0
LINE
  8
0
  6
CONTINUOUS
 62
     1
 10
1384.6
 20
845.5
 11
1384.6
 21
813.5
  0
LINE
  8
0
  6
CONTINUOUS
 62
     1
 10
1459.6
 20
845.5
 11
1459.6
 21
813.5
  0
LINE
  8
0
  6
CONTINUOUS
 62
     1
 10
1409.6
 20
810.5
 11
1434.6
 21
810.5
  0
LINE
  8
0
  6
CONTINUOUS
 62
     1
 10
1410.1
 20
770.5
 11
1434.1
 21
770.5
  0
LINE
  8
0
  6
CONTINUOUS
 62
     1
 10
1410.1
 20
810.5
 11
1410.1
 21
770.5
  0
LINE
  8
0
  6
CONTINUOUS
 62
     1
 10
1434.1
 20
810.5
 11
1434.1
 21
770.5
  0
LINE
  8
0
  6
CONTINUOUS
 62
     1
 10
1434.6
 20
813.5
 11
1434.6
 21
810.5
  0
LINE
  8
0
  6
CONTINUOUS
 62
     1
 10
1409.6
 20
813.5
 11
1409.6
 21
810.5
  0
ARC
  8
0
  6
CONTINUOUS
 62
     1
 10
1422.1
 20
806.5
 40
4.0
 50
0.0
 51
180.0
  0
LINE
  8
0
  6
CONTINUOUS
 62
     1
 10
1418.1
 20
806.5
 11
1418.1
 21
770.5
  0
LINE
  8
0
  6
CONTINUOUS
 62
     1
 10
1426.1
 20
806.5
 11
1426.1
 21
770.5
  0
ARC
  8
0
  6
CONTINUOUS
 62
     1
 10
321.1
 20
1321.5
 40
25.0
 50
108.7
 51
71.3
  0
LINE
  8
0
  6
CONTINUOUS
 62
     1
 10
313.1
 20
1345.1
 11
313.1
 21
1338.5
  0
LINE
  8
0
  6
CONTINUOUS
 62
     1
 10
313.1
 20
1338.5
 11
329.1
 21
1338.5
  0
LINE
  8
0
  6
CONTINUOUS
 62
     1
 10
329.1
 20
1338.5
 11
329.1
 21
1345.1
  0
CIRCLE
  8
0
  6
CONTINUOUS
 62
     1
 10
321.1
 20
1346.5
 40
0.6
  0
LINE
  8
0
  6
CONTINUOUS
 62
     1
 10
682.2
 20
995.5
 11
732.2
 21
995.5
  0
LINE
  8
0
  6
CONTINUOUS
 62
     1
 10
732.2
 20
995.5
 11
732.2
 21
945.5
  0
LINE
  8
0
  6
CONTINUOUS
 62
     1
 10
682.2
 20
945.5
 11
732.2
 21
945.5
  0
LINE
  8
0
  6
CONTINUOUS
 62
     1
 10
682.2
 20
995.5
 11
682.2
 21
945.5
  0
CIRCLE
  8
0
  6
CONTINUOUS
 62
     1
 10
707.2
 20
970.5
 40
25.0
  0
POLYLINE
  8
0
  6
LTYPE2
 62
     2
 66
     1
 70
     1
  0
VERTEX
  8
0
  6
LTYPE2
 62
     2
 10
368.6
 20
1021.5
 42
0.025187664
  0
VERTEX
  8
0
  6
LTYPE2
 62
     2
 10
368.552433726
 20
1022.443488591
 42
0.025076847
  0
VERTEX
  8
0
  6
LTYPE2
 62
     2
 10
368.410096913
 20
1023.379796665
 42
0.024845864
  0
VERTEX
  8
0
  6
LTYPE2
 62
     2
 10
368.174072829
 20
1024.301798351
 42
0.024508071
  0
VERTEX
  8
0
  6
LTYPE2
 62
     2
 10
367.84615776
 20
1025.202476659
 42
0.024082007
  0
VERTEX
  8
0
  6
LTYPE2
 62
     2
 10
367.428847338
 20
1026.074976885
 42
0.023589414
  0
VERTEX
  8
0
  6
LTYPE2
 62
     2
 10
366.925317547
 20
1026.912658774
 42
0.02305322
  0
VERTEX
  8
0
  6
LTYPE2
 62
     2
 10
366.339400554
 20
1027.709147061
 42
0.022495771
  0
VERTEX
  8
0
  6
LTYPE2
 62
     2
 10
365.675555539
 20
1028.45837999
 42
0.021937539
  0
VERTEX
  8
0
  6
LTYPE2
 62
     2
 10
364.938834765
 20
1029.154655446
 42
0.021396316
  0
VERTEX
  8
0
  6
LTYPE2
 62
     2
 10
364.134845121
 20
1029.792674352
 42
0.02088689
  0
VERTEX
  8
0
  6
LTYPE2
 62
     2
 10
363.269705454
 20
1030.367580999
 42
0.020421065
  0
VERTEX
  8
0
  6
LTYPE2
 62
     2
 10
362.35
 20
1030.875
 42
0.020007926
  0
VERTEX
  8
0
  6
LTYPE2
 62
     2
 10
361.382728272
 20
1031.31106959
 42
0.019654221
  0
VERTEX
  8
0
  6
LTYPE2
 62
     2
 10
360.375251792
 20
1031.672471017
 42
0.019364797
  0
VERTEX
  8
0
  6
LTYPE2
 62
     2
 10
359.335238064
 20
1031.956453797
 42
0.019143001
  0
VERTEX
  8
0
  6
LTYPE2
 62
     2
 10
358.270602221
 20
1032.160856649
 42
0.018991036
  0
VERTEX
  8
0
  6
LTYPE2
 62
     2
 10
357.189446784
 20
1032.284123946
 42
0.018910232
  0
VERTEX
  8
0
  6
LTYPE2
 62
     2
 10
356.1
 20
1032.325317547
 42
0.018901239
  0
VERTEX
  8
0
  6
LTYPE2
 62
     2
 10
355.010553216
 20
1032.284123946
 42
0.018964128
  0
VERTEX
  8
0
  6
LTYPE2
 62
     2
 10
353.929397779
 20
1032.160856649
 42
0.019098398
  0
VERTEX
  8
0
  6
LTYPE2
 62
     2
 10
352.864761936
 20
1031.956453797
 42
0.019302905
  0
VERTEX
  8
0
  6
LTYPE2
 62
     2
 10
351.824748208
 20
1031.672471017
 42
0.019575685
  0
VERTEX
  8
0
  6
LTYPE2
 62
     2
 10
350.817271728
 20
1031.31106959
 42
0.019913709
  0
VERTEX
  8
0
  6
LTYPE2
 62
     2
 10
349.85
 20
1030.875
 42
0.020312541
  0
VERTEX
  8
0
  6
LTYPE2
 62
     2
 10
348.930294546
 20
1030.367580999
 42
0.020765948
  0
VERTEX
  8
0
  6
LTYPE2
 62
     2
 10
348.065154879
 20
1029.792674352
 42
0.021265468
  0
VERTEX
  8
0
  6
LTYPE2
 62
     2
 10
347.261165235
 20
1029.154655446
 42
0.021800009
  0
VERTEX
  8
0
  6
LTYPE2
 62
     2
 10
346.524444461
 20
1028.45837999
 42
0.022355542
  0
VERTEX
  8
0
  6
LTYPE2
 62
     2
 10
345.860599446
 20
1027.709147061
 42
0.022915011
  0
VERTEX
  8
0
  6
LTYPE2
 62
     2
 10
345.274682453
 20
1026.912658774
 42
0.023458559
  0
VERTEX
  8
0
  6
LTYPE2
 62
     2
 10
344.771152662
 20
1026.074976885
 42
0.023964205
  0
VERTEX
  8
0
  6
LTYPE2
 62
     2
 10
344.35384224
 20
1025.202476659
 42
0.02440902
  0
VERTEX
  8
0
  6
LTYPE2
 62
     2
 10
344.025927171
 20
1024.301798351
 42
0.02477078
  0
VERTEX
  8
0
  6
LTYPE2
 62
     2
 10
343.789903087
 20
1023.379796665
 42
0.02502995
  0
VERTEX
  8
0
  6
LTYPE2
 62
     2
 10
343.647566274
 20
1022.443488591
 42
0.025171713
  0
VERTEX
  8
0
  6
LTYPE2
 62
     2
 10
343.6
 20
1021.5
 42
0.025187664
  0
VERTEX
  8
0
  6
LTYPE2
 62
     2
 10
343.647566274
 20
1020.556511409
 42
0.025076847
  0
VERTEX
  8
0
  6
LTYPE2
 62
     2
 10
343.789903087
 20
1019.620203335
 42
0.024845864
  0
VERTEX
  8
0
  6
LTYPE2
 62
     2
 10
344.025927171
 20
1018.698201649
 42
0.024508071
  0
VERTEX
  8
0
  6
LTYPE2
 62
     2
 10
344.35384224
 20
1017.797523341
 42
0.024082007
  0
VERTEX
  8
0
  6
LTYPE2
 62
     2
 10
344.771152662
 20
1016.925023115
 42
0.023589414
  0
VERTEX
  8
0
  6
LTYPE2
 62
     2
 10
345.274682453
 20
1016.087341226
 42
0.02305322
  0
VERTEX
  8
0
  6
LTYPE2
 62
     2
 10
345.860599446
 20
1015.290852939
 42
0.022495771
  0
VERTEX
  8
0
  6
LTYPE2
 62
     2
 10
346.524444461
 20
1014.54162001
 42
0.021937539
  0
VERTEX
  8
0
  6
LTYPE2
 62
     2
 10
347.261165235
 20
1013.845344554
 42
0.021396316
  0
VERTEX
  8
0
  6
LTYPE2
 62
     2
 10
348.065154879
 20
1013.207325648
 42
0.02088689
  0
VERTEX
  8
0
  6
LTYPE2
 62
     2
 10
348.930294546
 20
1012.632419001
 42
0.020421065
  0
VERTEX
  8
0
  6
LTYPE2
 62
     2
 10
349.85
 20
1012.125
 42
0.020007926
  0
VERTEX
  8
0
  6
LTYPE2
 62
     2
 10
350.817271728
 20
1011.68893041
 42
0.019654221
  0
VERTEX
  8
0
  6
LTYPE2
 62
     2
 10
351.824748208
 20
1011.327528983
 42
0.019364797
  0
VERTEX
  8
0
  6
LTYPE2
 62
     2
 10
352.864761936
 20
1011.043546203
 42
0.019143001
  0
VERTEX
  8
0
  6
LTYPE2
 62
     2
 10
353.929397779
 20
1010.839143351
 42
0.018991036
  0
VERTEX
  8
0
  6
LTYPE2
 62
     2
 10
355.010553216
 20
1010.715876054
 42
0.018910232
  0
VERTEX
  8
0
  6
LTYPE2
 62
     2
 10
356.1
 20
1010.674682453
 42
0.018901239
  0
VERTEX
  8
0
  6
LTYPE2
 62
     2
 10
357.189446784
 20
1010.715876054
 42
0.018964128
  0
VERTEX
  8
0
  6
LTYPE2
 62
     2
 10
358.270602221
 20
1010.839143351
 42
0.019098398
  0
VERTEX
  8
0
  6
LTYPE2
 62
     2
 10
359.335238064
 20
1011.043546203
 42
0.019302905
  0
VERTEX
  8
0
  6
LTYPE2
 62
     2
 10
360.375251792
 20
1011.327528983
 42
0.019575685
  0
VERTEX
  8
0
  6
LTYPE2
 62
     2
 10
361.382728272
 20
1011.68893041
 42
0.019913709
  0
VERTEX
  8
0
  6
LTYPE2
 62
     2
 10
362.35
 20
1012.125
 42
0.020312541
  0
VERTEX
  8
0
  6
LTYPE2
 62
     2
 10
363.269705454
 20
1012.632419001
 42
0.020765948
  0
VERTEX
  8
0
  6
LTYPE2
 62
     2
 10
364.134845121
 20
1013.207325648
 42
0.021265468
  0
VERTEX
  8
0
  6
LTYPE2
 62
     2
 10
364.938834765
 20
1013.845344554
 42
0.021800009
  0
VERTEX
  8
0
  6
LTYPE2
 62
     2
 10
365.675555539
 20
1014.54162001
 42
0.022355542
  0
VERTEX
  8
0
  6
LTYPE2
 62
     2
 10
366.339400554
 20
1015.290852939
 42
0.022915011
  0
VERTEX
  8
0
  6
LTYPE2
 62
     2
 10
366.925317547
 20
1016.087341226
 42
0.023458559
  0
VERTEX
  8
0
  6
LTYPE2
 62
     2
 10
367.428847338
 20
1016.925023115
 42
0.023964205
  0
VERTEX
  8
0
  6
LTYPE2
 62
     2
 10
367.84615776
 20
1017.797523341
 42
0.02440902
  0
VERTEX
  8
0
  6
LTYPE2
 62
     2
 10
368.174072829
 20
1018.698201649
 42
0.02477078
  0
VERTEX
  8
0
  6
LTYPE2
 62
     2
 10
368.410096913
 20
1019.620203335
 42
0.02502995
  0
VERTEX
  8
0
  6
LTYPE2
 62
     2
 10
368.552433726
 20
1020.556511409
 42
0.025171713
  0
SEQEND
  8
0
  6
LTYPE2
 62
     2
  0
POLYLINE
  8
0
  6
LTYPE2
 62
     2
 66
     1
 70
     1
  0
VERTEX
  8
0
  6
LTYPE2
 62
     2
 10
367.4
 20
1021.5
 42
0.025607274
  0
VERTEX
  8
0
  6
LTYPE2
 62
     2
 10
367.357000088
 20
1022.3389017
 42
0.025479511
  0
VERTEX
  8
0
  6
LTYPE2
 62
     2
 10
367.228327609
 20
1023.171418852
 42
0.025213695
  0
VERTEX
  8
0
  6
LTYPE2
 62
     2
 10
367.014961837
 20
1023.991215496
 42
0.024826139
  0
VERTEX
  8
0
  6
LTYPE2
 62
     2
 10
366.718526615
 20
1024.792052487
 42
0.024339292
  0
VERTEX
  8
0
  6
LTYPE2
 62
     2
 10
366.341277994
 20
1025.567834971
 42
0.023779168
  0
VERTEX
  8
0
  6
LTYPE2
 62
     2
 10
365.886087063
 20
1026.312658774
 42
0.023172781
  0
VERTEX
  8
0
  6
LTYPE2
 62
     2
 10
365.3564181
 20
1027.020855338
 42
0.022545992
  0
VERTEX
  8
0
  6
LTYPE2
 62
     2
 10
364.756302207
 20
1027.687034859
 42
0.021922002
  0
VERTEX
  8
0
  6
LTYPE2
 62
     2
 10
364.090306627
 20
1028.306127309
 42
0.021320512
  0
VERTEX
  8
0
  6
LTYPE2
 62
     2
 10
363.363499989
 20
1028.87342102
 42
0.020757468
  0
VERTEX
  8
0
  6
LTYPE2
 62
     2
 10
362.581413731
 20
1029.384598546
 42
0.020245233
  0
VERTEX
  8
0
  6
LTYPE2
 62
     2
 10
361.75
 20
1029.835769515
 42
0.01979301
  0
VERTEX
  8
0
  6
LTYPE2
 62
     2
 10
360.875586358
 20
1030.223500246
 42
0.019407387
  0
VERTEX
  8
0
  6
LTYPE2
 62
     2
 10
359.96482762
 20
1030.544839872
 42
0.019092897
  0
VERTEX
  8
0
  6
LTYPE2
 62
     2
 10
359.02465521
 20
1030.797342805
 42
0.018852531
  0
VERTEX
  8
0
  6
LTYPE2
 62
     2
 10
358.062224408
 20
1030.979087346
 42
0.018688161
  0
VERTEX
  8
0
  6
LTYPE2
 62
     2
 10
357.084859893
 20
1031.088690308
 42
0.018600865
  0
VERTEX
  8
0
  6
LTYPE2
 62
     2
 10
356.1
 20
1031.125317547
 42
0.018591155
  0
VERTEX
  8
0
  6
LTYPE2
 62
     2
 10
355.115140107
 20
1031.088690308
 42
0.018659083
  0
VERTEX
  8
0
  6
LTYPE2
 62
     2
 10
354.137775592
 20
1030.979087346
 42
0.01880426
  0
VERTEX
  8
0
  6
LTYPE2
 62
     2
 10
353.17534479
 20
1030.797342805
 42
0.019025767
  0
VERTEX
  8
0
  6
LTYPE2
 62
     2
 10
352.23517238
 20
1030.544839872
 42
0.019321956
  0
VERTEX
  8
0
  6
LTYPE2
 62
     2
 10
351.324413642
 20
1030.223500246
 42
0.019690152
  0
VERTEX
  8
0
  6
LTYPE2
 62
     2
 10
350.45
 20
1029.835769515
 42
0.020126254
  0
VERTEX
  8
0
  6
LTYPE2
 62
     2
 10
349.618586269
 20
1029.384598546
 42
0.020624237
  0
VERTEX
  8
0
  6
LTYPE2
 62
     2
 10
348.836500011
 20
1028.87342102
 42
0.021175605
  0
VERTEX
  8
0
  6
LTYPE2
 62
     2
 10
348.109693373
 20
1028.306127309
 42
0.021768833
  0
VERTEX
  8
0
  6
LTYPE2
 62
     2
 10
347.443697793
 20
1027.687034859
 42
0.022388899
  0
VERTEX
  8
0
  6
LTYPE2
 62
     2
 10
346.8435819
 20
1027.020855338
 42
0.023017036
  0
VERTEX
  8
0
  6
LTYPE2
 62
     2
 10
346.313912937
 20
1026.312658774
 42
0.023630865
  0
VERTEX
  8
0
  6
LTYPE2
 62
     2
 10
345.858722006
 20
1025.567834971
 42
0.024205074
  0
VERTEX
  8
0
  6
LTYPE2
 62
     2
 10
345.481473385
 20
1024.792052487
 42
0.02471276
  0
VERTEX
  8
0
  6
LTYPE2
 62
     2
 10
345.185038163
 20
1023.991215496
 42
0.025127428
  0
VERTEX
  8
0
  6
LTYPE2
 62
     2
 10
344.971672391
 20
1023.171418852
 42
0.02542549
  0
VERTEX
  8
0
  6
LTYPE2
 62
     2
 10
344.842999912
 20
1022.3389017
 42
0.025588874
  0
VERTEX
  8
0
  6
LTYPE2
 62
     2
 10
344.8
 20
1021.5
 42
0.025607274
  0
VERTEX
  8
0
  6
LTYPE2
 62
     2
 10
344.842999912
 20
1020.6610983
 42
0.025479511
  0
VERTEX
  8
0
  6
LTYPE2
 62
     2
 10
344.971672391
 20
1019.828581148
 42
0.025213695
  0
VERTEX
  8
0
  6
LTYPE2
 62
     2
 10
345.185038163
 20
1019.008784504
 42
0.024826139
  0
VERTEX
  8
0
  6
LTYPE2
 62
     2
 10
345.481473385
 20
1018.207947513
 42
0.024339292
  0
VERTEX
  8
0
  6
LTYPE2
 62
     2
 10
345.858722006
 20
1017.432165029
 42
0.023779168
  0
VERTEX
  8
0
  6
LTYPE2
 62
     2
 10
346.313912937
 20
1016.687341226
 42
0.023172781
  0
VERTEX
  8
0
  6
LTYPE2
 62
     2
 10
346.8435819
 20
1015.979144662
 42
0.022545992
  0
VERTEX
  8
0
  6
LTYPE2
 62
     2
 10
347.443697793
 20
1015.312965141
 42
0.021922002
  0
VERTEX
  8
0
  6
LTYPE2
 62
     2
 10
348.109693373
 20
1014.693872691
 42
0.021320512
  0
VERTEX
  8
0
  6
LTYPE2
 62
     2
 10
348.836500011
 20
1014.12657898
 42
0.020757468
  0
VERTEX
  8
0
  6
LTYPE2
 62
     2
 10
349.618586269
 20
1013.615401454
 42
0.020245233
  0
VERTEX
  8
0
  6
LTYPE2
 62
     2
 10
350.45
 20
1013.164230485
 42
0.01979301
  0
VERTEX
  8
0
  6
LTYPE2
 62
     2
 10
351.324413642
 20
1012.776499754
 42
0.019407387
  0
VERTEX
  8
0
  6
LTYPE2
 62
     2
 10
352.23517238
 20
1012.455160128
 42
0.019092897
  0
VERTEX
  8
0
  6
LTYPE2
 62
     2
 10
353.17534479
 20
1012.202657195
 42
0.018852531
  0
VERTEX
  8
0
  6
LTYPE2
 62
     2
 10
354.137775592
 20
1012.020912654
 42
0.018688161
  0
VERTEX
  8
0
  6
LTYPE2
 62
     2
 10
355.115140107
 20
1011.911309692
 42
0.018600865
  0
VERTEX
  8
0
  6
LTYPE2
 62
     2
 10
356.1
 20
1011.874682453
 42
0.018591155
  0
VERTEX
  8
0
  6
LTYPE2
 62
     2
 10
357.084859893
 20
1011.911309692
 42
0.018659083
  0
VERTEX
  8
0
  6
LTYPE2
 62
     2
 10
358.062224408
 20
1012.020912654
 42
0.01880426
  0
VERTEX
  8
0
  6
LTYPE2
 62
     2
 10
359.02465521
 20
1012.202657195
 42
0.019025767
  0
VERTEX
  8
0
  6
LTYPE2
 62
     2
 10
359.96482762
 20
1012.455160128
 42
0.019321956
  0
VERTEX
  8
0
  6
LTYPE2
 62
     2
 10
360.875586358
 20
1012.776499754
 42
0.019690152
  0
VERTEX
  8
0
  6
LTYPE2
 62
     2
 10
361.75
 20
1013.164230485
 42
0.020126254
  0
VERTEX
  8
0
  6
LTYPE2
 62
     2
 10
362.581413731
 20
1013.615401454
 42
0.020624237
  0
VERTEX
  8
0
  6
LTYPE2
 62
     2
 10
363.363499989
 20
1014.12657898
 42
0.021175605
  0
VERTEX
  8
0
  6
LTYPE2
 62
     2
 10
364.090306627
 20
1014.693872691
 42
0.021768833
  0
VERTEX
  8
0
  6
LTYPE2
 62
     2
 10
364.756302207
 20
1015.312965141
 42
0.022388899
  0
VERTEX
  8
0
  6
LTYPE2
 62
     2
 10
365.3564181
 20
1015.979144662
 42
0.023017036
  0
VERTEX
  8
0
  6
LTYPE2
 62
     2
 10
365.886087063
 20
1016.687341226
 42
0.023630865
  0
VERTEX
  8
0
  6
LTYPE2
 62
     2
 10
366.341277994
 20
1017.432165029
 42
0.024205074
  0
VERTEX
  8
0
  6
LTYPE2
 62
     2
 10
366.718526615
 20
1018.207947513
 42
0.02471276
  0
VERTEX
  8
0
  6
LTYPE2
 62
     2
 10
367.014961837
 20
1019.008784504
 42
0.025127428
  0
VERTEX
  8
0
  6
LTYPE2
 62
     2
 10
367.228327609
 20
1019.828581148
 42
0.02542549
  0
VERTEX
  8
0
  6
LTYPE2
 62
     2
 10
367.357000088
 20
1020.6610983
 42
0.025588874
  0
SEQEND
  8
0
  6
LTYPE2
 62
     2
  0
LINE
  8
0
  6
LTYPE3
 62
     2
 10
401.1
 20
954.0
 11
401.1
 21
987.0
  0
LINE
  8
0
  6
LTYPE3
 62
     2
 10
372.1
 20
970.5
 11
430.1
 21
970.5
  0
LINE
  8
0
  6
LTYPE2
 62
     2
 10
416.1
 20
911.11
 11
476.6
 21
911.11
  0
LINE
  8
0
  6
LTYPE2
 62
     2
 10
336.1
 20
1021.5
 11
377.6
 21
1021.5
  0
LINE
  8
0
  6
LTYPE2
 62
     2
 10
356.1
 20
1003.61
 11
356.1
 21
1037.61
  0
LINE
  8
0
  6
LTYPE2
 62
     2
 10
416.1
 20
1029.89
 11
476.6
 21
1029.89
  0
LINE
  8
0
  6
LTYPE1
 62
     2
 10
1094.1
 20
930.5
 11
1094.1
 21
950.5
  0
LINE
  8
0
  6
LTYPE1
 62
     2
 10
1064.1
 20
930.5
 11
1064.1
 21
950.5
  0
LINE
  8
0
  6
LTYPE1
 62
     2
 10
1064.1
 20
990.5
 11
1064.1
 21
1010.5
  0
LINE
  8
0
  6
LTYPE1
 62
     2
 10
1094.1
 20
990.5
 11
1094.1
 21
1010.5
  0
LINE
  8
0
  6
LTYPE2
 62
     2
 10
1079.1
 20
919.45
 11
1079.1
 21
1018.2
  0
LINE
  8
0
  6
LTYPE2
 62
     2
 10
223.7
 20
908.275
 11
272.2
 21
908.275
  0
LINE
  8
0
  6
LTYPE2
 62
     2
 10
223.7
 20
1032.725
 11
272.2
 21
1032.725
  0
LINE
  8
0
  6
LTYPE1
 62
     2
 10
1029.1
 20
1189.7
 11
1029.1
 21
1264.7
  0
LINE
  8
0
  6
LTYPE2
 62
     2
 10
1123.1
 20
1227.2
 11
999.1
 21
1227.2
  0
LINE
  8
0
  6
LTYPE2
 62
     2
 10
1079.1
 20
1179.0
 11
1079.1
 21
1273.0
  0
LINE
  8
0
  6
LTYPE2
 62
     2
 10
321.1
 20
763.0
 11
321.1
 21
1172.0
  0
LINE
  8
0
  6
CONTINUOUS
 62
     2
 10
321.1
 20
763.0
 11
321.1
 21
713.5
  0
LINE
  8
0
  6
CONTINUOUS
 62
     2
 10
321.1
 20
718.5
 11
333.174072829
 21
715.264761936
  0
LINE
  8
0
  6
CONTINUOUS
 62
     2
 10
321.1
 20
718.5
 11
333.174072829
 21
721.735238064
  0
LINE
  8
0
  6
CONTINUOUS
 62
     2
 10
1079.1
 20
718.5
 11
1067.025927171
 21
721.735238064
  0
LINE
  8
0
  6
CONTINUOUS
 62
     2
 10
1079.1
 20
718.5
 11
1067.025927171
 21
715.264761936
  0
LINE
  8
0
  6
CONTINUOUS
 62
     2
 10
1079.1
 20
919.45
 11
1079.1
 21
713.5
  0
LINE
  8
0
  6
CONTINUOUS
 62
     2
 10
239.1
 20
675.4375
 11
251.174072829
 21
672.202261936
  0
LINE
  8
0
  6
CONTINUOUS
 62
     2
 10
239.1
 20
675.4375
 11
251.174072829
 21
678.672738064
  0
LINE
  8
0
  6
CONTINUOUS
 62
     2
 10
239.1
 20
675.4375
 11
1079.1
 21
675.4375
  0
LINE
  8
0
  6
CONTINUOUS
 62
     2
 10
1079.1
 20
675.4375
 11
1067.025927171
 21
678.672738064
  0
LINE
  8
0
  6
CONTINUOUS
 62
     2
 10
1079.1
 20
675.4375
 11
1067.025927171
 21
672.202261936
  0
LINE
  8
0
  6
CONTINUOUS
 62
     2
 10
1079.1
 20
718.5
 11
1079.1
 21
670.4375
  0
LINE
  8
0
  6
CONTINUOUS
 62
     2
 10
1099.1
 20
1189.7
 11
1157.1
 21
1189.7
  0
LINE
  8
0
  6
CONTINUOUS
 62
     2
 10
1152.1
 20
1189.7
 11
1155.335238064
 21
1201.774072829
  0
LINE
  8
0
  6
CONTINUOUS
 62
     2
 10
1152.1
 20
1189.7
 11
1148.864761936
 21
1201.774072829
  0
LINE
  8
0
  6
CONTINUOUS
 62
     2
 10
1152.1
 20
1189.7
 11
1152.1
 21
1264.7
  0
LINE
  8
0
  6
CONTINUOUS
 62
     2
 10
1152.1
 20
1264.7
 11
1148.864761936
 21
1252.625927171
  0
LINE
  8
0
  6
CONTINUOUS
 62
     2
 10
1152.1
 20
1264.7
 11
1155.335238064
 21
1252.625927171
  0
LINE
  8
0
  6
CONTINUOUS
 62
     2
 10
1099.1
 20
1264.7
 11
1157.1
 21
1264.7
  0
LINE
  8
0
  6
LTYPE2
 62
     2
 10
230.5
 20
970.5
 11
1103.6
 21
970.5
  0
LINE
  8
0
  6
CONTINUOUS
 62
     2
 10
1114.1
 20
990.5
 11
1159.6
 21
990.5
  0
LINE
  8
0
  6
CONTINUOUS
 62
     2
 10
493.6
 20
976.0
 11
500.868737801
 21
986.169338758
  0
LINE
  8
0
  6
CONTINUOUS
 62
     2
 10
493.6
 20
976.0
 11
494.81024221
 21
988.441274605
  0
LINE
  8
0
  6
CONTINUOUS
 62
     2
 10
493.6
 20
976.0
 11
538.6
 21
1096.0
  0
LINE
  8
0
  6
CONTINUOUS
 62
     2
 10
538.6
 20
1096.0
 11
646.6
 21
1096.0
  0
TEXT
  8
0
  6
CONTINUOUS
 62
     2
 10
538.6
 20
1101.0
 30
0.0
 40
15.0
  1
グリースニップル
 50
0.0
 41
0.9
 51
0.0
  7
KANJI34
  0
LINE
  8
0
  6
CONTINUOUS
 62
     2
 10
365.6
 20
1026.0
 11
373.460143323
 21
1035.719472565
  0
LINE
  8
0
  6
CONTINUOUS
 62
     2
 10
365.6
 20
1026.0
 11
367.547347512
 21
1038.347381814
  0
LINE
  8
0
  6
CONTINUOUS
 62
     2
 10
365.6
 20
1026.0
 11
425.6
 21
1161.0
  0
LINE
  8
0
  6
CONTINUOUS
 62
     2
 10
425.6
 20
1161.0
 11
533.6
 21
1161.0
  0
TEXT
  8
0
  6
CONTINUOUS
 62
     2
 10
425.6
 20
1166.0
 30
0.0
 40
15.0
  1
給脂口兼、点検口
 50
0.0
 41
0.9
 51
0.0
  7
KANJI34
  0
LINE
  8
0
  6
CONTINUOUS
 62
     2
 10
1073.1
 20
1238.75
 11
1071.855425985
 21
1251.1878871
  0
LINE
  8
0
  6
CONTINUOUS
 62
     2
 10
1073.1
 20
1238.75
 11
1065.803223736
 21
1248.899239191
  0
LINE
  8
0
  6
CONTINUOUS
 62
     2
 10
1073.1
 20
1238.75
 11
1050.6
 21
1298.25
  0
LINE
  8
0
  6
CONTINUOUS
 62
     2
 10
1050.6
 20
1298.25
 11
983.1
 21
1298.25
  0
LINE
  8
0
  6
CONTINUOUS
 62
     2
 10
1194.6
 20
1010.5
 11
1191.364761936
 21
998.425927171
  0
LINE
  8
0
  6
CONTINUOUS
 62
     2
 10
1194.6
 20
1010.5
 11
1197.835238064
 21
998.425927171
  0
LINE
  8
0
  6
CONTINUOUS
 62
     2
 10
1114.1
 20
1010.5
 11
1199.6
 21
1010.5
  0
LINE
  8
0
  6
LTYPE4
 62
     2
 10
492.7
 20
951.775
 11
492.7
 21
990.675
  0
LINE
  8
0
  6
LTYPE2
 62
     2
 10
1269.6
 20
970.5
 11
1540.6
 21
970.5
  0
LINE
  8
0
  6
LTYPE1
 62
     2
 10
1437.1
 20
990.5
 11
1437.1
 21
1010.5
  0
LINE
  8
0
  6
LTYPE1
 62
     2
 10
1407.1
 20
990.5
 11
1407.1
 21
1010.5
  0
LINE
  8
0
  6
LTYPE1
 62
     2
 10
1407.1
 20
950.5
 11
1407.1
 21
930.5
  0
LINE
  8
0
  6
LTYPE1
 62
     2
 10
1437.1
 20
950.5
 11
1437.1
 21
930.5
  0
LINE
  8
0
  6
LTYPE2
 62
     2
 10
1470.2625
 20
1018.6625
 11
1490.4625
 21
1038.8625
  0
ARC
  8
0
  6
LTYPE2
 62
     2
 10
1422.1
 20
970.5
 40
84.0
 50
32.347922451
 51
57.782852555
  0
LINE
  8
0
  6
LTYPE2
 62
     2
 10
1373.9375
 20
1018.6625
 11
1353.7375
 21
1038.8625
  0
ARC
  8
0
  6
LTYPE2
 62
     2
 10
1422.1
 20
970.5
 40
84.0
 50
122.347922451
 51
147.782852555
  0
LINE
  8
0
  6
LTYPE2
 62
     2
 10
1373.9375
 20
922.3375
 11
1353.7375
 21
902.1375
  0
ARC
  8
0
  6
LTYPE2
 62
     2
 10
1422.1
 20
970.5
 40
84.0
 50
212.347922451
 51
237.782852555
  0
LINE
  8
0
  6
LTYPE2
 62
     2
 10
1470.2625
 20
922.3375
 11
1490.4625
 21
902.1375
  0
ARC
  8
0
  6
LTYPE2
 62
     2
 10
1422.1
 20
970.5
 40
84.0
 50
302.347922451
 51
327.782852555
  0
LINE
  8
0
  6
LTYPE5
 62
     2
 10
1326.1
 20
970.5
 11
1267.6
 21
970.5
  0
LINE
  8
0
  6
LTYPE2
 62
     2
 10
1422.1
 20
766.5
 11
1422.1
 21
1177.5
  0
LINE
  8
0
  6
CONTINUOUS
 62
     2
 10
283.6
 20
1127.5
 11
283.6
 21
1194.75
  0
LINE
  8
0
  6
CONTINUOUS
 62
     2
 10
283.6
 20
1187.25
 11
295.674072829
 21
1184.014761936
  0
LINE
  8
0
  6
CONTINUOUS
 62
     2
 10
283.6
 20
1187.25
 11
295.674072829
 21
1190.485238064
  0
LINE
  8
0
  6
CONTINUOUS
 62
     2
 10
283.6
 20
1187.25
 11
358.6
 21
1187.25
  0
LINE
  8
0
  6
CONTINUOUS
 62
     2
 10
358.6
 20
1187.25
 11
346.525927171
 21
1190.485238064
  0
LINE
  8
0
  6
CONTINUOUS
 62
     2
 10
358.6
 20
1187.25
 11
346.525927171
 21
1184.014761936
  0
LINE
  8
0
  6
CONTINUOUS
 62
     2
 10
358.6
 20
1127.5
 11
358.6
 21
1194.75
  0
TEXT
  8
0
  6
CONTINUOUS
 62
     2
 10
286.35
 20
1192.25
 30
0.5
 40
15.0
  1
φ７５ｄ９
 50
0.0
 41
0.9
 51
0.0
  7
KANJI35
  0
LINE
  8
0
  6
LTYPE3
 62
     2
 10
321.1
 20
1286.5
 11
321.1
 21
1354.5
  0
LINE
  8
0
  6
LTYPE3
 62
     2
 10
286.1
 20
1321.5
 11
356.1
 21
1321.5
  0
LINE
  8
0
  6
CONTINUOUS
 62
     2
 10
257.1
 20
1298.3
 11
344.5
 21
1330.1
  0
LINE
  8
0
  6
CONTINUOUS
 62
     2
 10
329.1
 20
1338.5
 11
365.1
 21
1338.5
  0
LINE
  8
0
  6
CONTINUOUS
 62
     2
 10
321.1
 20
1346.5
 11
365.1
 21
1346.5
  0
LINE
  8
0
  6
CONTINUOUS
 62
     2
 10
361.1
 20
1328.5
 11
361.1
 21
1367.1
  0
LINE
  8
0
  6
CONTINUOUS
 62
     2
 10
313.1
 20
1345.1
 11
313.1
 21
1371.5
  0
LINE
  8
0
  6
CONTINUOUS
 62
     2
 10
329.1
 20
1347.5
 11
329.1
 21
1371.5
  0
LINE
  8
0
  6
CONTINUOUS
 62
     2
 10
278.1
 20
1367.5
 11
339.1
 21
1367.5
  0
ARC
  8
0
  6
CONTINUOUS
 62
     2
 10
320.9
 20
1321.5
 40
25.0
 50
70.7
 51
89.4
  0
TEXT
  8
0
  6
CONTINUOUS
 62
     2
 10
272.2
 20
1370.5
 30
1.875
 40
15.0
  1
８
 50
0.0
 41
0.75
 51
0.0
  7
KANJI36
  0
LINE
  8
0
  6
CONTINUOUS
 62
     2
 10
359.8
 20
1351.0125
 11
361.6
 21
1343.8125
  0
LINE
  8
0
  6
CONTINUOUS
 62
     2
 10
304.938909919
 20
1313.495112794
 11
297.438909919
 21
1312.895112794
  0
LINE
  8
0
  6
CONTINUOUS
 62
     2
 10
297.438909919
 20
1312.895112794
 11
303.438909919
 21
1317.095112794
  0
LINE
  8
0
  6
CONTINUOUS
 62
     2
 10
338.167251553
 20
1325.588084661
 11
344.467251553
 21
1330.088084661
  0
LINE
  8
0
  6
CONTINUOUS
 62
     2
 10
344.467251553
 20
1330.088084661
 11
336.967251553
 21
1329.188084661
  0
LINE
  8
0
  6
CONTINUOUS
 62
     2
 10
359.3
 20
1331.3
 11
361.1
 21
1338.5
  0
LINE
  8
0
  6
CONTINUOUS
 62
     2
 10
361.1
 20
1338.5
 11
362.9
 21
1331.3
  0
LINE
  8
0
  6
CONTINUOUS
 62
     2
 10
361.1
 20
1346.5
 11
362.9
 21
1353.7
  0
LINE
  8
0
  6
CONTINUOUS
 62
     2
 10
305.9
 20
1369.3
 11
313.1
 21
1367.5
  0
LINE
  8
0
  6
CONTINUOUS
 62
     2
 10
313.1
 20
1367.5
 11
305.9
 21
1365.7
  0
LINE
  8
0
  6
CONTINUOUS
 62
     2
 10
336.3
 20
1369.3
 11
329.1
 21
1367.5
  0
LINE
  8
0
  6
CONTINUOUS
 62
     2
 10
329.1
 20
1367.5
 11
336.3
 21
1365.7
  0
TEXT
  8
0
  6
CONTINUOUS
 62
     2
 10
273.06
 20
1260.31
 30
1.6
 40
16.0
  1
入力シャフト
 50
0.0
 41
0.9
 51
0.0
  7
KANJI37
  0
LINE
  8
0
  6
CONTINUOUS
 62
     2
 10
270.5
 20
1253.75
 11
365.3
 21
1253.75
  0
LINE
  8
0
  6
CONTINUOUS
 62
     2
 10
675.0
 20
913.5
 11
678.235238064
 21
925.574072829
  0
LINE
  8
0
  6
CONTINUOUS
 62
     2
 10
675.0
 20
913.5
 11
671.764761936
 21
925.574072829
  0
LINE
  8
0
  6
CONTINUOUS
 62
     2
 10
675.0
 20
913.5
 11
675.0
 21
1027.5
  0
LINE
  8
0
  6
CONTINUOUS
 62
     2
 10
675.0
 20
1027.5
 11
671.764761936
 21
1015.425927171
  0
LINE
  8
0
  6
CONTINUOUS
 62
     2
 10
675.0
 20
1027.5
 11
678.235238064
 21
1015.425927171
  0
TEXT
  8
0
  6
CONTINUOUS
 62
     2
 10
670.0
 20
940.25
 30
1.5
 40
15.0
  1
φ１１４
 50
90.0
 41
0.933333333
 51
0.0
  7
KANJI38
  0
LINE
  8
0
  6
LTYPE2
 62
     2
 10
707.2
 20
1007.7
 11
707.2
 21
933.7
  0
LINE
  8
0
  6
CONTINUOUS
 62
     2
 10
711.6
 20
985.7
 11
718.594541906
 21
996.059844763
  0
LINE
  8
0
  6
CONTINUOUS
 62
     2
 10
711.6
 20
985.7
 11
712.477528597
 21
998.169159697
  0
LINE
  8
0
  6
CONTINUOUS
 62
     2
 10
711.6
 20
985.7
 11
751.6
 21
1101.7
  0
LINE
  8
0
  6
CONTINUOUS
 62
     2
 10
751.6
 20
1101.7
 11
792.1
 21
1101.7
  0
TEXT
  8
0
  6
CONTINUOUS
 62
     2
 10
751.6
 20
1106.7
 30
0.0
 40
15.0
  1
給脂口
 50
0.0
 41
0.9
 51
0.0
  7
KANJI34
  0
LINE
  8
0
  6
CONTINUOUS
 62
     2
 10
1095.1
 20
970.5
 11
1106.1
 21
970.5
  0
LINE
  8
0
  6
CONTINUOUS
 62
     2
 10
1079.1
 20
1179.0
 11
1079.1
 21
1147.5
  0
LINE
  8
0
  6
CONTINUOUS
 62
     2
 10
1079.1
 20
1152.5
 11
1067.025927171
 21
1155.735238064
  0
LINE
  8
0
  6
CONTINUOUS
 62
     2
 10
1079.1
 20
1152.5
 11
1067.025927171
 21
1149.264761936
  0
LINE
  8
0
  6
CONTINUOUS
 62
     2
 10
1079.1
 20
1152.5
 11
1029.1
 21
1152.5
  0
LINE
  8
0
  6
CONTINUOUS
 62
     2
 10
1029.1
 20
1152.5
 11
1041.174072829
 21
1149.264761936
  0
LINE
  8
0
  6
CONTINUOUS
 62
     2
 10
1029.1
 20
1152.5
 11
1041.174072829
 21
1155.735238064
  0
LINE
  8
0
  6
CONTINUOUS
 62
     2
 10
1029.1
 20
1189.7
 11
1029.1
 21
1147.5
  0
LINE
  8
0
  6
CONTINUOUS
 62
     2
 10
1079.1
 20
1152.5
 11
1091.174072829
 21
1149.264761936
  0
LINE
  8
0
  6
CONTINUOUS
 62
     2
 10
1079.1
 20
1152.5
 11
1091.174072829
 21
1155.735238064
  0
LINE
  8
0
  6
CONTINUOUS
 62
     2
 10
1079.1
 20
1152.5
 11
1114.1
 21
1152.5
  0
LINE
  8
0
  6
CONTINUOUS
 62
     2
 10
1114.1
 20
1152.5
 11
1102.025927171
 21
1155.735238064
  0
LINE
  8
0
  6
CONTINUOUS
 62
     2
 10
1114.1
 20
1152.5
 11
1102.025927171
 21
1149.264761936
  0
LINE
  8
0
  6
CONTINUOUS
 62
     2
 10
1114.1
 20
1204.7
 11
1114.1
 21
1147.5
  0
TEXT
  8
0
  6
CONTINUOUS
 62
     2
 10
1039.35
 20
1157.5
 30
1.5
 40
15.0
  1
５０
 50
0.0
 41
0.933333333
 51
0.0
  7
KANJI39
  0
TEXT
  8
0
  6
CONTINUOUS
 62
     2
 10
1081.85
 20
1157.5
 30
1.5
 40
15.0
  1
３５
 50
0.0
 41
0.933333333
 51
0.0
  7
KANJI39
  0
TEXT
  8
0
  6
CONTINUOUS
 62
     2
 10
1147.1
 20
1212.45
 30
1.5
 40
15.0
  1
７５
 50
90.0
 41
0.933333333
 51
0.0
  7
KANJI39
  0
LINE
  8
0
  6
CONTINUOUS
 62
     2
 10
1114.1
 20
950.5
 11
1159.6
 21
950.5
  0
LINE
  8
0
  6
CONTINUOUS
 62
     2
 10
1154.6
 20
950.5
 11
1157.835238064
 21
962.574072829
  0
LINE
  8
0
  6
CONTINUOUS
 62
     2
 10
1154.6
 20
950.5
 11
1151.364761936
 21
962.574072829
  0
LINE
  8
0
  6
CONTINUOUS
 62
     2
 10
1154.6
 20
950.5
 11
1154.6
 21
990.5
  0
LINE
  8
0
  6
CONTINUOUS
 62
     2
 10
1154.6
 20
990.5
 11
1151.364761936
 21
978.425927171
  0
LINE
  8
0
  6
CONTINUOUS
 62
     2
 10
1154.6
 20
990.5
 11
1157.835238064
 21
978.425927171
  0
LINE
  8
0
  6
CONTINUOUS
 62
     2
 10
1114.1
 20
930.5
 11
1199.6
 21
930.5
  0
LINE
  8
0
  6
CONTINUOUS
 62
     2
 10
1194.6
 20
930.5
 11
1197.835238064
 21
942.574072829
  0
LINE
  8
0
  6
CONTINUOUS
 62
     2
 10
1194.6
 20
930.5
 11
1191.364761936
 21
942.574072829
  0
LINE
  8
0
  6
CONTINUOUS
 62
     2
 10
1194.6
 20
930.5
 11
1194.6
 21
1010.5
  0
TEXT
  8
0
  6
CONTINUOUS
 62
     2
 10
1149.6
 20
955.75
 30
1.5
 40
15.0
  1
４０
 50
90.0
 41
0.933333333
 51
0.0
  7
KANJI39
  0
TEXT
  8
0
  6
CONTINUOUS
 62
     2
 10
1189.6
 20
955.75
 30
1.5
 40
15.0
  1
８０
 50
90.0
 41
0.933333333
 51
0.0
  7
KANJI39
  0
TEXT
  8
0
  6
CONTINUOUS
 62
     2
 10
1235.0
 20
948.0
 30
1.5
 40
15.0
  1
３２０
 50
90.0
 41
0.933333333
 51
0.0
  7
KANJI39
  0
LINE
  8
0
  6
CONTINUOUS
 62
     2
 10
1410.1
 20
770.5
 11
1235.0
 21
770.5
  0
LINE
  8
0
  6
CONTINUOUS
 62
     2
 10
1240.0
 20
770.5
 11
1243.235238064
 21
782.574072829
  0
LINE
  8
0
  6
CONTINUOUS
 62
     2
 10
1240.0
 20
770.5
 11
1236.764761936
 21
782.574072829
  0
LINE
  8
0
  6
CONTINUOUS
 62
     2
 10
1240.0
 20
770.5
 11
1240.0
 21
810.5
  0
LINE
  8
0
  6
CONTINUOUS
 62
     2
 10
1240.0
 20
810.5
 11
1236.764761936
 21
798.425927171
  0
LINE
  8
0
  6
CONTINUOUS
 62
     2
 10
1240.0
 20
810.5
 11
1243.235238064
 21
798.425927171
  0
LINE
  8
0
  6
CONTINUOUS
 62
     2
 10
1410.1
 20
810.5
 11
1235.0
 21
810.5
  0
LINE
  8
0
  6
CONTINUOUS
 62
     2
 10
1240.0
 20
810.5
 11
1243.235238064
 21
822.574072829
  0
LINE
  8
0
  6
CONTINUOUS
 62
     2
 10
1240.0
 20
810.5
 11
1236.764761936
 21
822.574072829
  0
TEXT
  8
0
  6
CONTINUOUS
 62
     2
 10
1235.0
 20
775.75
 30
1.5
 40
15.0
  1
４０
 50
90.0
 41
0.933333333
 51
0.0
  7
KANJI39
  0
LINE
  8
0
  6
CONTINUOUS
 62
     2
 10
1240.0
 20
1130.5
 11
1236.764761936
 21
1118.425927171
  0
LINE
  8
0
  6
CONTINUOUS
 62
     2
 10
1240.0
 20
1130.5
 11
1243.235238064
 21
1118.425927171
  0
LINE
  8
0
  6
CONTINUOUS
 62
     2
 10
1410.1
 20
1130.5
 11
1235.0
 21
1130.5
  0
LINE
  8
0
  6
CONTINUOUS
 62
     2
 10
1240.0
 20
1130.5
 11
1243.235238064
 21
1142.574072829
  0
LINE
  8
0
  6
CONTINUOUS
 62
     2
 10
1240.0
 20
1130.5
 11
1236.764761936
 21
1142.574072829
  0
LINE
  8
0
  6
CONTINUOUS
 62
     2
 10
1240.0
 20
1130.5
 11
1240.0
 21
1170.5
  0
LINE
  8
0
  6
CONTINUOUS
 62
     2
 10
1240.0
 20
1170.5
 11
1236.764761936
 21
1158.425927171
  0
LINE
  8
0
  6
CONTINUOUS
 62
     2
 10
1240.0
 20
1170.5
 11
1243.235238064
 21
1158.425927171
  0
LINE
  8
0
  6
CONTINUOUS
 62
     2
 10
1410.1
 20
1170.5
 11
1235.0
 21
1170.5
  0
TEXT
  8
0
  6
CONTINUOUS
 62
     2
 10
1235.0
 20
1135.75
 30
1.5
 40
15.0
  1
４０
 50
90.0
 41
0.933333333
 51
0.0
  7
KANJI39
  0
LINE
  8
0
  6
CONTINUOUS
 62
     2
 10
1240.0
 20
810.5
 11
1240.0
 21
1130.5
  0
LINE
  8
0
  6
CONTINUOUS
 62
     2
 10
251.6
 20
845.5
 11
186.1
 21
845.5
  0
LINE
  8
0
  6
CONTINUOUS
 62
     2
 10
191.1
 20
845.5
 11
194.335238064
 21
857.574072829
  0
LINE
  8
0
  6
CONTINUOUS
 62
     2
 10
191.1
 20
845.5
 11
187.864761936
 21
857.574072829
  0
LINE
  8
0
  6
CONTINUOUS
 62
     2
 10
191.1
 20
845.5
 11
191.1
 21
1095.5
  0
LINE
  8
0
  6
CONTINUOUS
 62
     2
 10
191.1
 20
1095.5
 11
187.864761936
 21
1083.425927171
  0
LINE
  8
0
  6
CONTINUOUS
 62
     2
 10
191.1
 20
1095.5
 11
194.335238064
 21
1083.425927171
  0
LINE
  8
0
  6
CONTINUOUS
 62
     2
 10
251.6
 20
1095.5
 11
186.1
 21
1095.5
  0
LINE
  8
0
  6
CONTINUOUS
 62
     2
 10
191.1
 20
1095.5
 11
194.335238064
 21
1107.574072829
  0
LINE
  8
0
  6
CONTINUOUS
 62
     2
 10
191.1
 20
1095.5
 11
187.864761936
 21
1107.574072829
  0
LINE
  8
0
  6
CONTINUOUS
 62
     2
 10
191.1
 20
1095.5
 11
191.1
 21
1127.5
  0
LINE
  8
0
  6
CONTINUOUS
 62
     2
 10
191.1
 20
1127.5
 11
187.864761936
 21
1115.425927171
  0
LINE
  8
0
  6
CONTINUOUS
 62
     2
 10
191.1
 20
1127.5
 11
194.335238064
 21
1115.425927171
  0
LINE
  8
0
  6
CONTINUOUS
 62
     2
 10
283.6
 20
1127.5
 11
186.1
 21
1127.5
  0
LINE
  8
0
  6
CONTINUOUS
 62
     2
 10
191.1
 20
845.5
 11
187.864761936
 21
833.425927171
  0
LINE
  8
0
  6
CONTINUOUS
 62
     2
 10
191.1
 20
845.5
 11
194.335238064
 21
833.425927171
  0
LINE
  8
0
  6
CONTINUOUS
 62
     2
 10
191.1
 20
845.5
 11
191.1
 21
813.5
  0
LINE
  8
0
  6
CONTINUOUS
 62
     2
 10
191.1
 20
813.5
 11
194.335238064
 21
825.574072829
  0
LINE
  8
0
  6
CONTINUOUS
 62
     2
 10
191.1
 20
813.5
 11
187.864761936
 21
825.574072829
  0
LINE
  8
0
  6
CONTINUOUS
 62
     2
 10
283.6
 20
813.5
 11
186.1
 21
813.5
  0
LINE
  8
0
  6
CONTINUOUS
 62
     2
 10
309.1
 20
770.5
 11
147.1
 21
770.5
  0
LINE
  8
0
  6
CONTINUOUS
 62
     2
 10
152.1
 20
770.5
 11
155.335238064
 21
782.574072829
  0
LINE
  8
0
  6
CONTINUOUS
 62
     2
 10
152.1
 20
770.5
 11
148.864761936
 21
782.574072829
  0
LINE
  8
0
  6
CONTINUOUS
 62
     2
 10
152.1
 20
770.5
 11
152.1
 21
1170.5
  0
LINE
  8
0
  6
CONTINUOUS
 62
     2
 10
152.1
 20
1170.5
 11
148.864761936
 21
1158.425927171
  0
LINE
  8
0
  6
CONTINUOUS
 62
     2
 10
152.1
 20
1170.5
 11
155.335238064
 21
1158.425927171
  0
LINE
  8
0
  6
CONTINUOUS
 62
     2
 10
309.1
 20
1170.5
 11
147.1
 21
1170.5
  0
TEXT
  8
0
  6
CONTINUOUS
 62
     2
 10
186.1
 20
948.0
 30
1.5
 40
15.0
  1
２５０
 50
90.0
 41
0.933333333
 51
0.0
  7
KANJI39
  0
TEXT
  8
0
  6
CONTINUOUS
 62
     2
 10
186.1
 20
1096.75
 30
1.5
 40
15.0
  1
３２
 50
90.0
 41
0.933333333
 51
0.0
  7
KANJI39
  0
TEXT
  8
0
  6
CONTINUOUS
 62
     2
 10
186.1
 20
814.75
 30
1.5
 40
15.0
  1
３２
 50
90.0
 41
0.933333333
 51
0.0
  7
KANJI39
  0
TEXT
  8
0
  6
CONTINUOUS
 62
     2
 10
147.1
 20
948.0
 30
1.5
 40
15.0
  1
４００
 50
90.0
 41
0.933333333
 51
0.0
  7
KANJI39
  0
LINE
  8
0
  6
CONTINUOUS
 62
     2
 10
239.1
 20
870.5
 11
239.1
 21
713.5
  0
LINE
  8
0
  6
CONTINUOUS
 62
     2
 10
239.1
 20
718.5
 11
251.174072829
 21
715.264761936
  0
LINE
  8
0
  6
CONTINUOUS
 62
     2
 10
239.1
 20
718.5
 11
251.174072829
 21
721.735238064
  0
LINE
  8
0
  6
CONTINUOUS
 62
     2
 10
239.1
 20
718.5
 11
321.1
 21
718.5
  0
LINE
  8
0
  6
CONTINUOUS
 62
     2
 10
321.1
 20
718.5
 11
309.025927171
 21
721.735238064
  0
LINE
  8
0
  6
CONTINUOUS
 62
     2
 10
321.1
 20
718.5
 11
309.025927171
 21
715.264761936
  0
LINE
  8
0
  6
CONTINUOUS
 62
     2
 10
239.1
 20
713.5
 11
239.1
 21
670.4375
  0
TEXT
  8
0
  6
CONTINUOUS
 62
     2
 10
265.35
 20
723.5
 30
1.5
 40
15.0
  1
８２
 50
0.0
 41
0.933333333
 51
0.0
  7
KANJI39
  0
LINE
  8
0
  6
CONTINUOUS
 62
     2
 10
321.1
 20
718.5
 11
1079.1
 21
718.5
  0
TEXT
  8
0
  6
CONTINUOUS
 62
     2
 10
662.1
 20
723.5
 30
1.5
 40
15.0
  1
ｍｉｎ．Ｌ
 50
0.0
 41
0.933333333
 51
0.0
  7
KANJI39
  0
TEXT
  8
0
  6
CONTINUOUS
 62
     2
 10
613.35
 20
680.4375
 30
1.5
 40
15.0
  1
ｍｉｎ．ＡＬ
 50
0.0
 41
0.933333333
 51
0.0
  7
KANJI39
  0
LINE
  8
0
  6
CONTINUOUS
 62
     2
 10
321.1
 20
760.0
 11
333.174072829
 21
756.764761936
  0
LINE
  8
0
  6
CONTINUOUS
 62
     2
 10
321.1
 20
760.0
 11
333.174072829
 21
763.235238064
  0
LINE
  8
0
  6
CONTINUOUS
 62
     2
 10
321.1
 20
749.5
 11
321.1
 21
767.5
  0
TEXT
  8
0
  6
CONTINUOUS
 62
     2
 10
613.85
 20
765.0
 30
0.5
 40
15.0
  1
Ｃ
 50
0.0
 41
0.9
 51
0.0
  7
KANJI35
  0
LINE
  8
0
  6
CONTINUOUS
 62
     2
 10
1079.1
 20
760.5
 11
1079.1
 21
752.5
  0
LINE
  8
0
  6
CONTINUOUS
 62
     2
 10
1079.1
 20
760.0
 11
1067.025927171
 21
763.235238064
  0
LINE
  8
0
  6
CONTINUOUS
 62
     2
 10
1079.1
 20
760.0
 11
1067.025927171
 21
756.764761936
  0
LINE
  8
0
  6
CONTINUOUS
 62
     2
 10
1079.1
 20
760.0
 11
1009.1
 21
760.0
  0
LINE
  8
0
  6
CONTINUOUS
 62
     2
 10
1009.1
 20
760.0
 11
1021.174072829
 21
756.764761936
  0
LINE
  8
0
  6
CONTINUOUS
 62
     2
 10
1009.1
 20
760.0
 11
1021.174072829
 21
763.235238064
  0
TEXT
  8
0
  6
CONTINUOUS
 62
     2
 10
1030.35
 20
765.0
 30
0.5
 40
15.0
  1
７０
 50
0.0
 41
0.9
 51
0.0
  7
KANJI35
  0
LINE
  8
0
  6
CONTINUOUS
 62
     2
 10
1009.1
 20
760.0
 11
997.025927171
 21
763.235238064
  0
LINE
  8
0
  6
CONTINUOUS
 62
     2
 10
1009.1
 20
760.0
 11
997.025927171
 21
756.764761936
  0
LINE
  8
0
  6
CONTINUOUS
 62
     2
 10
1009.1
 20
760.0
 11
1009.1
 21
752.5
  0
TEXT
  8
0
  6
CONTINUOUS
 62
     2
 10
357.28
 20
1351.22625
 30
1.4625
 40
11.7
  1
４
 50
90.0
 41
0.75
 51
0.0
  7
KANJI40
  0
TEXT
  8
0
  6
CONTINUOUS
 62
     2
 10
349.48
 20
1361.36625
 30
1.12125
 40
8.97
  1
＋０．２
 50
90.0
 41
0.75
 51
0.0
  7
KANJI41
  0
TEXT
  8
0
  6
CONTINUOUS
 62
     2
 10
360.4
 20
1361.36625
 30
1.12125
 40
8.97
  1
　０
 50
90.0
 41
0.75
 51
0.0
  7
KANJI41
  0
TEXT
  8
0
  6
CONTINUOUS
 62
     2
 10
281.055
 20
1379.97625
 30
1.12125
 40
8.97
  1
　０
 50
0.0
 41
0.75
 51
0.0
  7
KANJI41
  0
TEXT
  8
0
  6
CONTINUOUS
 62
     2
 10
281.055
 20
1369.44625
 30
1.12125
 40
8.97
  1
－０．０３６
 50
0.0
 41
0.75
 51
0.0
  7
KANJI41
  0
TEXT
  8
0
  6
CONTINUOUS
 62
     2
 10
242.635
 20
1299.48625
 30
1.4625
 40
11.7
  1
φ２４ｈ７
 50
20.0
 41
0.75
 51
0.0
  7
KANJI40
  0
LINE
  8
0
  6
CONTINUOUS
 62
     2
 10
1422.1
 20
1182.5
 11
1422.1
 21
1232.5
  0
LINE
  8
0
  6
CONTINUOUS
 62
     2
 10
1422.1
 20
1227.5
 11
1434.174072829
 21
1224.264761936
  0
LINE
  8
0
  6
CONTINUOUS
 62
     2
 10
1422.1
 20
1227.5
 11
1434.174072829
 21
1230.735238064
  0
LINE
  8
0
  6
CONTINUOUS
 62
     2
 10
1422.1
 20
1227.5
 11
1524.1
 21
1227.5
  0
LINE
  8
0
  6
CONTINUOUS
 62
     2
 10
1524.1
 20
1227.5
 11
1512.025927171
 21
1230.735238064
  0
LINE
  8
0
  6
CONTINUOUS
 62
     2
 10
1524.1
 20
1227.5
 11
1512.025927171
 21
1224.264761936
  0
LINE
  8
0
  6
CONTINUOUS
 62
     2
 10
1524.1
 20
975.5
 11
1524.1
 21
1232.5
  0
TEXT
  8
0
  6
CONTINUOUS
 62
     2
 10
1452.85
 20
1231.0
 30
0.0
 40
15.0
  1
１０２
 50
0.0
 41
0.9
 51
0.0
  7
KANJI34
  0
ARC
  8
0
  6
CONTINUOUS
 62
     1
 10
1319.650012201
 20
993.5
 40
3.0
 50
270.000291421
 51
347.346898752
  0
LINE
  8
0
  6
LTYPE5
 62
     2
 10
1320.1
 20
970.5
 11
1261.6
 21
970.5
  0
LINE
  8
0
  6
CONTINUOUS
 62
     1
 10
1319.1
 20
990.5
 11
1319.65002746
 21
990.5
  0
ARC
  8
0
  6
CONTINUOUS
 62
     1
 10
1319.1
 20
988.5
 40
2.0
 50
90.0
 51
180.0
  0
LINE
  8
0
  6
CONTINUOUS
 62
     1
 10
1319.1
 20
950.5
 11
1319.65003378
 21
950.5
  0
LINE
  8
0
  6
CONTINUOUS
 62
     1
 10
1396.234665205
 20
865.5
 11
1492.1
 21
865.5
  0
LINE
  8
0
  6
CONTINUOUS
 62
     1
 10
1383.417531964
 20
865.5
 11
1492.1
 21
865.5
  0
POLYLINE
  8
0
  6
CONTINUOUS
 62
     4
 66
     1
  0
VERTEX
  8
0
  6
CONTINUOUS
 62
     4
 10
1024.2334805
 20
125.11666175
  0
VERTEX
  8
0
  6
CONTINUOUS
 62
     4
 10
1010.15014825
 20
103.44999675
  0
VERTEX
  8
0
  6
CONTINUOUS
 62
     4
 10
1038.31681275
 20
103.44999675
  0
SEQEND
  0
LINE
  8
0
  6
CONTINUOUS
 62
     4
 10
1024.2334805
 20
125.11666175
 11
1038.31681275
 21
103.44999675
  0
TEXT
  8
0
  6
CONTINUOUS
 62
     2
 10
1018.31681525
 20
104.44999725
 30
0.0
 40
15.0
  1
１
 50
0.0
 41
0.9
 51
0.0
  7
KANJI34
  0
LINE
  8
0
  6
CONTINUOUS
 62
     1
 10
1009.1
 20
1010.5
 11
1114.1
 21
1010.5
  0
LINE
  8
0
  6
CONTINUOUS
 62
     1
 10
1009.1
 20
930.5
 11
1009.1
 21
1010.5
  0
LINE
  8
0
  6
CONTINUOUS
 62
     2
 10
1009.1
 20
930.5
 11
1009.1
 21
752.5
  0
CIRCLE
  8
0
  6
CONTINUOUS
 62
     1
 10
1422.1
 20
970.5
 40
101.0
  0
CIRCLE
  8
0
  6
CONTINUOUS
 62
     1
 10
1422.1
 20
970.5
 40
102.0
  0
ARC
  8
0
  6
CONTINUOUS
 62
     1
 10
1319.650012201
 20
947.5
 40
3.0
 50
12.653101248
 51
89.999587868
  0
LINE
  8
0
  6
CONTINUOUS
 62
     1
 10
1317.1
 20
952.500015259
 11
1317.1
 21
988.5
  0
ARC
  8
0
  6
CONTINUOUS
 62
     1
 10
1319.1
 20
952.5
 40
2.0
 50
179.999562868
 51
270.0
  0
LINE
  8
0
  6
LTYPE5
 62
     2
 10
1321.1
 20
970.5
 11
1262.6
 21
970.5
  0
LINE
  8
0
  6
CONTINUOUS
 62
     1
 10
1317.1
 20
958.0
 11
1317.1
 21
983.0
  0
LINE
  8
0
  6
CONTINUOUS
 62
     1
 10
1317.1
 20
958.0
 11
1309.5
 21
958.7
  0
ARC
  8
0
  6
CONTINUOUS
 62
     1
 10
1309.6
 20
960.2
 40
1.5
 50
180.0
 51
264.9
  0
ARC
  8
0
  6
CONTINUOUS
 62
     1
 10
1309.6
 20
980.8
 40
1.5
 50
95.1
 51
180.0
  0
LINE
  8
0
  6
CONTINUOUS
 62
     1
 10
1309.5
 20
982.3
 11
1317.1
 21
983.0
  0
LINE
  8
0
  6
CONTINUOUS
 62
     1
 10
1308.1
 20
960.2
 11
1307.1
 21
965.5
  0
LINE
  8
0
  6
CONTINUOUS
 62
     1
 10
1313.4
 20
975.5
 11
1271.1
 21
975.5
  0
LINE
  8
0
  6
CONTINUOUS
 62
     1
 10
1313.4
 20
965.5
 11
1271.1
 21
965.5
  0
LINE
  8
0
  6
CONTINUOUS
 62
     1
 10
1308.1
 20
980.8
 11
1307.1
 21
975.5
  0
ARC
  8
0
  6
CONTINUOUS
 62
     1
 10
1271.1
 20
970.5
 40
5.0
 50
90.0
 51
270.0
  0
ARC
  8
0
  6
CONTINUOUS
 62
     1
 10
1313.4
 20
964.1
 40
1.4
 50
0.0
 51
90.0
  0
ARC
  8
0
  6
CONTINUOUS
 62
     1
 10
1313.4
 20
976.9
 40
1.4
 50
270.0
 51
0.0
  0
LINE
  8
0
  6
CONTINUOUS
 62
     2
 10
1422.1
 20
1225.5
 11
1422.1
 21
1232.5
  0
LINE
  8
0
  6
CONTINUOUS
 62
     2
 10
1422.1
 20
1227.5
 11
1410.025927171
 21
1230.735238064
  0
LINE
  8
0
  6
CONTINUOUS
 62
     2
 10
1422.1
 20
1227.5
 11
1410.025927171
 21
1224.264761936
  0
LINE
  8
0
  6
CONTINUOUS
 62
     2
 10
1422.1
 20
1227.5
 11
1266.1
 21
1227.5
  0
LINE
  8
0
  6
CONTINUOUS
 62
     2
 10
1266.1
 20
1227.5
 11
1278.174072829
 21
1224.264761936
  0
LINE
  8
0
  6
CONTINUOUS
 62
     2
 10
1266.1
 20
1227.5
 11
1278.174072829
 21
1230.735238064
  0
LINE
  8
0
  6
CONTINUOUS
 62
     2
 10
1266.1
 20
975.5
 11
1266.1
 21
1232.5
  0
TEXT
  8
0
  6
CONTINUOUS
 62
     2
 10
1323.85
 20
1231.0
 30
0.0
 40
15.0
  1
１５６
 50
0.0
 41
0.9
 51
0.0
  7
KANJI34
  0
LINE
  8
0
  6
CONTINUOUS
 62
     1
 10
1352.1
 20
897.692033403
 11
1352.1
 21
865.5
  0
LINE
  8
0
  6
CONTINUOUS
 62
     1
 10
1352.1
 20
865.5
 11
1492.1
 21
865.5
  0
LINE
  8
0
  6
CONTINUOUS
 62
     1
 10
1352.6
 20
865.5
 11
1352.6
 21
845.5
  0
LINE
  8
0
  6
CONTINUOUS
 62
     1
 10
1352.6
 20
845.5
 11
1491.6
 21
845.5
  0
LINE
  8
0
  6
CONTINUOUS
 62
     1
 10
400.0
 20
430.0
 11
1175.0
 21
430.0
  0
LINE
  8
0
  6
CONTINUOUS
 62
     1
 10
400.0
 20
395.0
 11
1175.0
 21
395.0
  0
LINE
  8
0
  6
CONTINUOUS
 62
     1
 10
1175.0
 20
430.0
 11
1175.0
 21
185.0
  0
LINE
  8
0
  6
CONTINUOUS
 62
     1
 10
400.0
 20
185.0
 11
1175.0
 21
185.0
  0
LINE
  8
0
  6
CONTINUOUS
 62
     1
 10
400.0
 20
430.0
 11
400.0
 21
185.0
  0
LINE
  8
0
  6
CONTINUOUS
 62
     1
 10
575.0
 20
430.0
 11
575.0
 21
185.0
  0
LINE
  8
0
  6
CONTINUOUS
 62
     2
 10
675.0
 20
430.0
 11
675.0
 21
185.0
  0
LINE
  8
0
  6
CONTINUOUS
 62
     2
 10
775.0
 20
430.0
 11
775.0
 21
185.0
  0
LINE
  8
0
  6
CONTINUOUS
 62
     2
 10
875.0
 20
430.0
 11
875.0
 21
185.0
  0
LINE
  8
0
  6
CONTINUOUS
 62
     2
 10
975.0
 20
430.0
 11
975.0
 21
185.0
  0
LINE
  8
0
  6
CONTINUOUS
 62
     2
 10
1075.0
 20
430.0
 11
1075.0
 21
185.0
  0
LINE
  8
0
  6
CONTINUOUS
 62
     2
 10
400.0
 20
220.0
 11
1175.0
 21
220.0
  0
LINE
  8
0
  6
CONTINUOUS
 62
     2
 10
400.0
 20
360.0
 11
1175.0
 21
360.0
  0
LINE
  8
0
  6
CONTINUOUS
 62
     2
 10
400.0
 20
325.0
 11
1175.0
 21
325.0
  0
LINE
  8
0
  6
CONTINUOUS
 62
     2
 10
400.0
 20
290.0
 11
1175.0
 21
290.0
  0
LINE
  8
0
  6
CONTINUOUS
 62
     2
 10
400.0
 20
255.0
 11
1175.0
 21
255.0
  0
TEXT
  8
0
  6
CONTINUOUS
 62
     2
 10
588.0
 20
405.0
 30
1.5
 40
15.0
  1
ストローク
 50
0.0
 41
0.9
 51
0.0
  7
KANJI13
  0
TEXT
  8
0
  6
CONTINUOUS
 62
     2
 10
684.0
 20
404.0
 30
0.0
 40
15.0
  1
ｍｉｎ　
 50
0.0
 41
0.9
 51
0.0
  7
KANJI34
  0
TEXT
  8
0
  6
CONTINUOUS
 62
     2
 10
784.0
 20
404.0
 30
0.0
 40
15.0
  1
ｍｉｎ　
 50
0.0
 41
0.9
 51
0.0
  7
KANJI34
  0
TEXT
  8
0
  6
CONTINUOUS
 62
     2
 10
984.0
 20
404.0
 30
0.0
 40
15.0
  1
ｍｉｎ　
 50
0.0
 41
0.9
 51
0.0
  7
KANJI34
  0
TEXT
  8
0
  6
CONTINUOUS
 62
     2
 10
1139.375
 20
406.125
 30
0.0
 40
12.0
  1
（ｋｇ）
 50
0.0
 41
0.777777778
 51
0.0
  7
KANJI42
  0
TEXT
  8
0
  6
CONTINUOUS
 62
     2
 10
1079.375
 20
404.375
 30
1.6
 40
16.0
  1
概算重量
 50
0.0
 41
0.9
 51
0.0
  7
KANJI37
  0
TEXT
  8
0
  6
CONTINUOUS
 62
     2
 10
435.0
 20
405.0
 30
1.6
 40
16.0
  1
形
 50
0.0
 41
0.9
 51
0.0
  7
KANJI37
  0
TEXT
  8
0
  6
CONTINUOUS
 62
     2
 10
532.5
 20
405.0
 30
1.6
 40
16.0
  1
式
 50
0.0
 41
0.9
 51
0.0
  7
KANJI37
  0
TEXT
  8
0
  6
CONTINUOUS
 62
     2
 10
735.0
 20
405.0
 30
1.75
 40
17.5
  1
ＡＬ
 50
0.0
 41
0.9
 51
0.0
  7
KANJI43
  0
TEXT
  8
0
  6
CONTINUOUS
 62
     2
 10
835.0
 20
405.0
 30
1.75
 40
17.5
  1
Ｌ
 50
0.0
 41
0.9
 51
0.0
  7
KANJI43
  0
TEXT
  8
0
  6
CONTINUOUS
 62
     2
 10
920.0
 20
405.0
 30
1.75
 40
17.5
  1
Ｃ
 50
0.0
 41
0.9
 51
0.0
  7
KANJI43
  0
TEXT
  8
0
  6
CONTINUOUS
 62
     2
 10
605.0
 20
368.375
 30
1.5
 40
15.0
  1
３００
 50
0.0
 41
0.9
 51
0.0
  7
KANJI13
  0
TEXT
  8
0
  6
CONTINUOUS
 62
     2
 10
605.0
 20
333.375
 30
1.5
 40
15.0
  1
５００
 50
0.0
 41
0.9
 51
0.0
  7
KANJI13
  0
TEXT
  8
0
  6
CONTINUOUS
 62
     2
 10
605.0
 20
298.375
 30
1.5
 40
15.0
  1
７００
 50
0.0
 41
0.9
 51
0.0
  7
KANJI13
  0
TEXT
  8
0
  6
CONTINUOUS
 62
     2
 10
590.0
 20
263.375
 30
1.5
 40
15.0
  1
１０００
 50
0.0
 41
0.9
 51
0.0
  7
KANJI13
  0
TEXT
  8
0
  6
CONTINUOUS
 62
     2
 10
590.0
 20
228.375
 30
1.5
 40
15.0
  1
１５００
 50
0.0
 41
0.9
 51
0.0
  7
KANJI13
  0
TEXT
  8
0
  6
CONTINUOUS
 62
     2
 10
590.0
 20
193.375
 30
1.5
 40
15.0
  1
２０００
 50
0.0
 41
0.9
 51
0.0
  7
KANJI13
  0
TEXT
  8
0
  6
CONTINUOUS
 62
     2
 10
1012.375
 20
370.625
 30
1.5
 40
15.0
  1
４５
 50
0.0
 41
0.9
 51
0.0
  7
KANJI13
  0
TEXT
  8
0
  6
CONTINUOUS
 62
     2
 10
1035.0
 20
405.0
 30
1.75
 40
17.5
  1
Ｐ
 50
0.0
 41
0.9
 51
0.0
  7
KANJI43
  0
TEXT
  8
0
  6
CONTINUOUS
 62
     2
 10
1919.0000395
 20
132.999989
 30
0.0
 40
15.0
  1
２
 50
0.0
 41
0.9
 51
0.0
  7
KANJI34
  0
POLYLINE
  8
0
  6
CONTINUOUS
 62
     4
 66
     1
  0
VERTEX
  8
0
  6
CONTINUOUS
 62
     4
 10
1024.366955
 20
149.71666225
  0
VERTEX
  8
0
  6
CONTINUOUS
 62
     4
 10
1010.28362275
 20
128.04999725
  0
VERTEX
  8
0
  6
CONTINUOUS
 62
     4
 10
1038.45028725
 20
128.04999725
  0
SEQEND
  0
LINE
  8
0
  6
CONTINUOUS
 62
     4
 10
1024.366955
 20
149.71666225
 11
1038.45028725
 21
128.04999725
  0
TEXT
  8
0
  6
CONTINUOUS
 62
     2
 10
1018.45028975
 20
129.04999775
 30
0.0
 40
15.0
  1
２
 50
0.0
 41
0.9
 51
0.0
  7
KANJI34
  0
TEXT
  8
0
  6
CONTINUOUS
 62
     2
 10
1045.81681525
 20
101.94999725
 30
0.0
 40
15.0
  1
１９９６．７．１２　山本　重量見直し
 50
0.0
 41
0.9
 51
0.0
  7
KANJI34
  0
LINE
  8
0
  6
CONTINUOUS
 62
     2
 10
1374.6
 20
1238.7
 11
1383.260254038
 21
1253.7
  0
LINE
  8
0
  6
CONTINUOUS
 62
     2
 10
1383.260254038
 20
1253.7
 11
1391.920508076
 21
1238.7
  0
LINE
  8
0
  6
CONTINUOUS
 62
     2
 10
1391.920508076
 20
1238.7
 11
1374.6
 21
1238.7
  0
TEXT
  8
0
  6
CONTINUOUS
 62
     2
 10
1379.724720132
 20
1240.164466094
 30
0.0
 40
7.071067812
  1
２
 50
0.0
 41
1.0
 51
0.0
  7
KANJI44
  0
TEXT
  8
0
  6
CONTINUOUS
 62
     2
 10
903.5
 20
370.625
 30
1.5
 40
15.0
  1
７０７
 50
0.0
 41
0.9
 51
0.0
  7
KANJI13
  0
TEXT
  8
0
  6
CONTINUOUS
 62
     2
 10
903.5
 20
335.625
 30
1.5
 40
15.0
  1
９０７
 50
0.0
 41
0.9
 51
0.0
  7
KANJI13
  0
TEXT
  8
0
  6
CONTINUOUS
 62
     2
 10
888.5
 20
300.625
 30
1.5
 40
15.0
  1
１１４７
 50
0.0
 41
0.9
 51
0.0
  7
KANJI13
  0
TEXT
  8
0
  6
CONTINUOUS
 62
     2
 10
888.5
 20
265.625
 30
1.5
 40
15.0
  1
１４４７
 50
0.0
 41
0.9
 51
0.0
  7
KANJI13
  0
TEXT
  8
0
  6
CONTINUOUS
 62
     2
 10
888.5
 20
230.625
 30
1.5
 40
15.0
  1
１９４７
 50
0.0
 41
0.9
 51
0.0
  7
KANJI13
  0
TEXT
  8
0
  6
CONTINUOUS
 62
     2
 10
888.5
 20
195.625
 30
1.5
 40
15.0
  1
２４７７
 50
0.0
 41
0.9
 51
0.0
  7
KANJI13
  0
TEXT
  8
0
  6
CONTINUOUS
 62
     2
 10
803.75
 20
369.75
 30
1.5
 40
15.0
  1
８２２
 50
0.0
 41
0.9
 51
0.0
  7
KANJI13
  0
TEXT
  8
0
  6
CONTINUOUS
 62
     2
 10
703.25
 20
368.75
 30
1.5
 40
15.0
  1
９０４
 50
0.0
 41
0.9
 51
0.0
  7
KANJI13
  0
TEXT
  8
0
  6
CONTINUOUS
 62
     2
 10
983.1
 20
1303.25
 30
0.0
 40
15.0
  1
φ３０Ｈ１０
 50
0.0
 41
0.9
 51
0.0
  7
KANJI34
  0
TEXT
  8
0
  6
CONTINUOUS
 62
     2
 10
1930.5
 20
1072.5
 30
10.0
 40
15.0
  1
５
 50
0.0
 41
0.9
 51
0.0
  7
KANJI14
  0
TEXT
  8
0
  6
CONTINUOUS
 62
     2
 10
168.542318289
 20
31.5
 30
0.0
 40
15.0
  1
ＦＤ　Ｎｏ．ＳＣ１９
 50
0.0
 41
0.9
 51
0.0
  7
KANJI34
  0
LINE
  8
0
  6
CONTINUOUS
 62
     1
 10
583.1
 20
913.5
 11
964.1
 21
913.5
  0
POLYLINE
  8
0
  6
CONTINUOUS
 62
     1
 66
     1
  0
VERTEX
  8
0
  6
CONTINUOUS
 62
     1
 10
964.1
 20
913.5
  0
VERTEX
  8
0
  6
CONTINUOUS
 62
     1
 10
964.1
 20
1027.5
  0
VERTEX
  8
0
  6
CONTINUOUS
 62
     1
 10
583.1
 20
1027.5
  0
SEQEND
  0
LINE
  8
0
  6
CONTINUOUS
 62
     1
 10
964.1
 20
933.0
 11
1009.1
 21
933.0
  0
LINE
  8
0
  6
CONTINUOUS
 62
     1
 10
899.1
 20
913.5
 11
899.1
 21
1027.5
  0
LINE
  8
0
  6
CONTINUOUS
 62
     1
 10
964.1
 20
1008.0
 11
1009.1
 21
1008.0
  0
LINE
  8
0
  6
CONTINUOUS
 62
     2
 10
964.1
 20
913.5
 11
964.1
 21
752.5
  0
LINE
  8
0
  6
CONTINUOUS
 62
     2
 10
964.1
 20
760.0
 11
952.025927171
 21
763.235238064
  0
LINE
  8
0
  6
CONTINUOUS
 62
     2
 10
964.1
 20
760.0
 11
976.174072829
 21
763.235238064
  0
LINE
  8
0
  6
CONTINUOUS
 62
     2
 10
964.1
 20
760.0
 11
952.025927171
 21
756.764761936
  0
LINE
  8
0
  6
CONTINUOUS
 62
     2
 10
964.1
 20
760.0
 11
976.174072829
 21
756.764761936
  0
LINE
  8
0
  6
CONTINUOUS
 62
     2
 10
964.1
 20
760.0
 11
1009.1
 21
760.0
  0
LINE
  8
0
  6
CONTINUOUS
 62
     2
 10
964.1
 20
760.0
 11
321.1
 21
760.0
  0
TEXT
  8
0
  6
CONTINUOUS
 62
     2
 10
968.16
 20
777.68
 30
0.0
 40
15.0
  1
ｍｉｎ．
 50
0.0
 41
0.833333333
 51
0.0
  7
KANJI45
  0
TEXT
  8
0
  6
CONTINUOUS
 62
     2
 10
989.92
 20
761.52
 30
0.0
 40
15.0
  1
Ｐ
 50
0.0
 41
0.833333333
 51
0.0
  7
KANJI45
  0
TEXT
  8
0
  6
CONTINUOUS
 62
     2
 10
416.25
 20
368.0
 30
1.0
 40
15.0
  1
ＳＣＤ５Ａ－　３
 50
0.0
 41
0.833333333
 51
0.0
  7
KANJI46
  0
TEXT
  8
0
  6
CONTINUOUS
 62
     2
 10
416.25
 20
333.0
 30
1.0
 40
15.0
  1
ＳＣＤ５Ａ－　５
 50
0.0
 41
0.833333333
 51
0.0
  7
KANJI46
  0
TEXT
  8
0
  6
CONTINUOUS
 62
     2
 10
416.25
 20
298.0
 30
1.0
 40
15.0
  1
ＳＣＤ５Ａ－　７
 50
0.0
 41
0.833333333
 51
0.0
  7
KANJI46
  0
TEXT
  8
0
  6
CONTINUOUS
 62
     2
 10
416.25
 20
263.0
 30
1.0
 40
15.0
  1
ＳＣＤ５Ａ－１０
 50
0.0
 41
0.833333333
 51
0.0
  7
KANJI46
  0
TEXT
  8
0
  6
CONTINUOUS
 62
     2
 10
416.25
 20
228.0
 30
1.0
 40
15.0
  1
ＳＣＤ５Ａ－１５
 50
0.0
 41
0.833333333
 51
0.0
  7
KANJI46
  0
TEXT
  8
0
  6
CONTINUOUS
 62
     2
 10
416.25
 20
193.0
 30
1.0
 40
15.0
  1
ＳＣＤ５Ａ－２０
 50
0.0
 41
0.833333333
 51
0.0
  7
KANJI46
  0
TEXT
  8
0
  6
CONTINUOUS
 62
     2
 10
1111.75
 20
370.25
 30
1.5
 40
15.0
  1
５７
 50
0.0
 41
0.9
 51
0.0
  7
KANJI13
  0
TEXT
  8
0
  6
CONTINUOUS
 62
     2
 10
1111.75
 20
335.25
 30
1.5
 40
15.0
  1
６４
 50
0.0
 41
0.9
 51
0.0
  7
KANJI13
  0
TEXT
  8
0
  6
CONTINUOUS
 62
     2
 10
1097.75
 20
300.25
 30
1.5
 40
15.0
  1
　７２
 50
0.0
 41
0.9
 51
0.0
  7
KANJI13
  0
TEXT
  8
0
  6
CONTINUOUS
 62
     2
 10
1097.75
 20
265.25
 30
1.5
 40
15.0
  1
　８２
 50
0.0
 41
0.9
 51
0.0
  7
KANJI13
  0
TEXT
  8
0
  6
CONTINUOUS
 62
     2
 10
1097.75
 20
195.25
 30
1.5
 40
15.0
  1
１２０
 50
0.0
 41
0.9
 51
0.0
  7
KANJI13
  0
TEXT
  8
0
  6
CONTINUOUS
 62
     3
 10
1393.20028975
 20
105.43999775
 30
0.0
 40
15.0
  1
９５．１．１９
 50
0.0
 41
0.9
 51
0.0
  7
KANJI34
  0
TEXT
  8
0
  6
CONTINUOUS
 62
     2
 10
1568.75
 20
211.0
 30
1.5
 40
15.0
  1
ＳＣＤ５Ａ－
 50
0.0
 41
0.9
 51
0.0
  7
KANJI13
  0
TEXT
  8
0
  6
CONTINUOUS
 62
     3
 10
1632.8333635
 20
129.999995
 30
10.833333333
 40
25.0
  1
Ａ３０００３６４
 50
0.0
 41
0.8
 51
0.0
  7
KANJI47
  0
TEXT
  8
0
  6
CONTINUOUS
 62
     2
 10
1861.25
 20
1245.75
 30
1.0
 40
15.0
  1
ＳＣＤ５Ａ－　
 50
0.0
 41
0.833333333
 51
0.0
  7
KANJI46
  0
TEXT
  8
0
  6
CONTINUOUS
 62
     2
 10
1874.5
 20
932.0
 30
12.8125
 40
17.5
  1
全閉屋内形
 50
0.0
 41
0.9
 51
0.0
  7
KANJI48
  0
TEXT
  8
0
  6
CONTINUOUS
 62
     2
 10
997.375
 20
335.625
 30
1.5
 40
15.0
  1
　４５
 50
0.0
 41
0.9
 51
0.0
  7
KANJI13
  0
TEXT
  8
0
  6
CONTINUOUS
 62
     2
 10
997.375
 20
300.625
 30
1.5
 40
15.0
  1
　４５
 50
0.0
 41
0.9
 51
0.0
  7
KANJI13
  0
TEXT
  8
0
  6
CONTINUOUS
 62
     2
 10
997.375
 20
265.625
 30
1.5
 40
15.0
  1
　４５
 50
0.0
 41
0.9
 51
0.0
  7
KANJI13
  0
TEXT
  8
0
  6
CONTINUOUS
 62
     2
 10
997.375
 20
230.625
 30
1.5
 40
15.0
  1
　４５
 50
0.0
 41
0.9
 51
0.0
  7
KANJI13
  0
TEXT
  8
0
  6
CONTINUOUS
 62
     2
 10
997.375
 20
195.625
 30
1.5
 40
15.0
  1
　４５
 50
0.0
 41
0.9
 51
0.0
  7
KANJI13
  0
TEXT
  8
0
  6
CONTINUOUS
 62
     2
 10
789.75
 20
334.75
 30
1.5
 40
15.0
  1
１０２２
 50
0.0
 41
0.9
 51
0.0
  7
KANJI13
  0
TEXT
  8
0
  6
CONTINUOUS
 62
     2
 10
789.75
 20
299.75
 30
1.5
 40
15.0
  1
１２６２
 50
0.0
 41
0.9
 51
0.0
  7
KANJI13
  0
TEXT
  8
0
  6
CONTINUOUS
 62
     2
 10
788.75
 20
264.75
 30
1.5
 40
15.0
  1
１５６２
 50
0.0
 41
0.9
 51
0.0
  7
KANJI13
  0
TEXT
  8
0
  6
CONTINUOUS
 62
     2
 10
788.75
 20
229.75
 30
1.5
 40
15.0
  1
２０６２
 50
0.0
 41
0.9
 51
0.0
  7
KANJI13
  0
TEXT
  8
0
  6
CONTINUOUS
 62
     2
 10
788.75
 20
194.75
 30
1.5
 40
15.0
  1
２５９２
 50
0.0
 41
0.9
 51
0.0
  7
KANJI13
  0
TEXT
  8
0
  6
CONTINUOUS
 62
     2
 10
689.25
 20
333.75
 30
1.5
 40
15.0
  1
１１０４
 50
0.0
 41
0.9
 51
0.0
  7
KANJI13
  0
TEXT
  8
0
  6
CONTINUOUS
 62
     2
 10
688.625
 20
298.75
 30
1.5
 40
15.0
  1
１３４４
 50
0.0
 41
0.9
 51
0.0
  7
KANJI13
  0
TEXT
  8
0
  6
CONTINUOUS
 62
     2
 10
688.25
 20
263.75
 30
1.5
 40
15.0
  1
１６４４
 50
0.0
 41
0.9
 51
0.0
  7
KANJI13
  0
TEXT
  8
0
  6
CONTINUOUS
 62
     2
 10
688.25
 20
228.75
 30
1.5
 40
15.0
  1
２１４４
 50
0.0
 41
0.9
 51
0.0
  7
KANJI13
  0
TEXT
  8
0
  6
CONTINUOUS
 62
     2
 10
688.25
 20
193.75
 30
1.5
 40
15.0
  1
２６７４
 50
0.0
 41
0.9
 51
0.0
  7
KANJI13
  0
CIRCLE
  8
0
  6
CONTINUOUS
 62
     1
 10
1422.1
 20
970.5
 40
67.5
  0
CIRCLE
  8
0
  6
CONTINUOUS
 62
     1
 10
1362.70303038
 20
1029.89696962
 40
12.0
  0
CIRCLE
  8
0
  6
CONTINUOUS
 62
     1
 10
1481.49696962
 20
1029.89696962
 40
12.0
  0
CIRCLE
  8
0
  6
CONTINUOUS
 62
     1
 10
1481.49696962
 20
911.10303038
 40
12.0
  0
CIRCLE
  8
0
  6
CONTINUOUS
 62
     1
 10
1362.70303038
 20
911.10303038
 40
12.0
  0
TEXT
  8
0
  6
CONTINUOUS
 62
     2
 10
1097.75
 20
230.25
 30
1.5
 40
15.0
  1
１００
 50
0.0
 41
0.9
 51
0.0
  7
KANJI13
  0
TEXT
  8
0
  6
CONTINUOUS
 62
     2
 10
1867.0
 20
1211.5
 30
1.5
 40
15.0
  1
４９ＫＮ（５ｔｏｎ）
 50
0.0
 41
0.9
 51
0.0
  7
KANJI13
  0
TEXT
  8
0
  6
CONTINUOUS
 62
     2
 10
1852.0
 20
1002.5
 30
0.0
 40
15.0
  1
４４．１Ｎ．ｍ（４．５ｋｇｍ）
 50
0.0
 41
0.666666667
 51
0.0
  7
KANJI49
  0
TEXT
  8
0
  6
CONTINUOUS
 62
     2
 10
1852.0
 20
967.5
 30
0.0
 40
15.0
  1
８５．３Ｎ．ｍ（８．７ｋｇｍ）
 50
0.0
 41
0.666666667
 51
0.0
  7
KANJI49
  0
TEXT
  8
0
  6
CONTINUOUS
 62
     2
 10
1045.95028975
 20
126.54999775
 30
0.0
 40
15.0
  1
２００４．０６．０７　岡田　変更書替
 50
0.0
 41
0.9
 51
0.0
  7
KANJI34
  0
CIRCLE
  8
0
  6
CONTINUOUS
 62
     1
 10
1422.1
 20
970.5
 40
57.0
  0
ENDSEC
  0
EOF
