  0
SECTION
  2
HEADER
  9
$EXTMIN
 10
0.0
 20
0.0
 30
0.0
  9
$EXTMAX
 10
4200.0
 20
2970.0
 30
0.0
  9
$LIMMIN
 10
0.0
 20
0.0
  9
$LIMMAX
 10
4200.0
 20
2970.0
  9
$LTSCALE
 40
1.0
  9
$PDMODE
 70
     0
  0
ENDSEC
  0
SECTION
  2
TABLES
  0
TABLE
  2
LTYPE
 70
     6
  0
LTYPE
  2
CONTINUOUS
 70
    64
  3
Solid line
 72
    65
 73
     0
 40
0.0
  0
LTYPE
  2
LTYPE1
 70
    64
  3
HIDDEN
 72
    65
 73
     2
 40
30.0
 49
18.0
 49
-12.0
  0
LTYPE
  2
LTYPE2
 70
    64
  3
CENTER
 72
    65
 73
     4
 40
100.0
 49
70.0
 49
-10.0
 49
10.0
 49
-10.0
  0
LTYPE
  2
LTYPE3
 70
    64
  3
HIDDEN
 72
    65
 73
     2
 40
20.0
 49
12.0
 49
-8.0
  0
LTYPE
  2
LTYPE4
 70
    64
  3
CENTERX2
 72
    65
 73
     4
 40
300.0
 49
255.0
 49
-15.0
 49
15.0
 49
-15.0
  0
LTYPE
  2
LTYPE5
 70
    64
  3
CENTER
 72
    65
 73
     4
 40
80.0
 49
56.0
 49
-8.0
 49
8.0
 49
-8.0
  0
ENDTAB
  0
TABLE
  2
LAYER
 70
   128
  0
LAYER
  2
0
 70
     0
 62
     7
  6
CONTINUOUS
  0
LAYER
  2
2
 70
     0
 62
     7
  6
CONTINUOUS
  0
LAYER
  2
3
 70
     0
 62
     7
  6
CONTINUOUS
  0
LAYER
  2
4
 70
     0
 62
     7
  6
CONTINUOUS
  0
LAYER
  2
5
 70
     0
 62
     7
  6
CONTINUOUS
  0
LAYER
  2
6
 70
     0
 62
     7
  6
CONTINUOUS
  0
LAYER
  2
7
 70
     0
 62
     7
  6
CONTINUOUS
  0
LAYER
  2
8
 70
     0
 62
     7
  6
CONTINUOUS
  0
LAYER
  2
9
 70
     0
 62
     7
  6
CONTINUOUS
  0
LAYER
  2
10
 70
     0
 62
     7
  6
CONTINUOUS
  0
LAYER
  2
11
 70
     0
 62
     7
  6
CONTINUOUS
  0
LAYER
  2
12
 70
     0
 62
     7
  6
CONTINUOUS
  0
LAYER
  2
13
 70
     0
 62
     7
  6
CONTINUOUS
  0
LAYER
  2
14
 70
     0
 62
     7
  6
CONTINUOUS
  0
LAYER
  2
15
 70
     0
 62
     7
  6
CONTINUOUS
  0
LAYER
  2
16
 70
     0
 62
     7
  6
CONTINUOUS
  0
LAYER
  2
17
 70
     0
 62
     7
  6
CONTINUOUS
  0
LAYER
  2
18
 70
     0
 62
     7
  6
CONTINUOUS
  0
LAYER
  2
19
 70
     0
 62
     7
  6
CONTINUOUS
  0
LAYER
  2
20
 70
     0
 62
     7
  6
CONTINUOUS
  0
LAYER
  2
21
 70
     0
 62
     7
  6
CONTINUOUS
  0
LAYER
  2
22
 70
     0
 62
     7
  6
CONTINUOUS
  0
LAYER
  2
23
 70
     0
 62
     7
  6
CONTINUOUS
  0
LAYER
  2
24
 70
     0
 62
     7
  6
CONTINUOUS
  0
LAYER
  2
25
 70
     0
 62
     7
  6
CONTINUOUS
  0
LAYER
  2
26
 70
     0
 62
     7
  6
CONTINUOUS
  0
LAYER
  2
27
 70
     0
 62
     7
  6
CONTINUOUS
  0
LAYER
  2
28
 70
     0
 62
     7
  6
CONTINUOUS
  0
LAYER
  2
29
 70
     0
 62
     7
  6
CONTINUOUS
  0
LAYER
  2
30
 70
     0
 62
     7
  6
CONTINUOUS
  0
LAYER
  2
31
 70
     0
 62
     7
  6
CONTINUOUS
  0
LAYER
  2
32
 70
     0
 62
     7
  6
CONTINUOUS
  0
LAYER
  2
33
 70
     0
 62
     7
  6
CONTINUOUS
  0
LAYER
  2
34
 70
     0
 62
     7
  6
CONTINUOUS
  0
LAYER
  2
35
 70
     0
 62
     7
  6
CONTINUOUS
  0
LAYER
  2
36
 70
     0
 62
     7
  6
CONTINUOUS
  0
LAYER
  2
37
 70
     0
 62
     7
  6
CONTINUOUS
  0
LAYER
  2
38
 70
     0
 62
     7
  6
CONTINUOUS
  0
LAYER
  2
39
 70
     0
 62
     7
  6
CONTINUOUS
  0
LAYER
  2
40
 70
     0
 62
     7
  6
CONTINUOUS
  0
LAYER
  2
41
 70
     0
 62
     7
  6
CONTINUOUS
  0
LAYER
  2
42
 70
     0
 62
     7
  6
CONTINUOUS
  0
LAYER
  2
43
 70
     0
 62
     7
  6
CONTINUOUS
  0
LAYER
  2
44
 70
     0
 62
     7
  6
CONTINUOUS
  0
LAYER
  2
45
 70
     0
 62
     7
  6
CONTINUOUS
  0
LAYER
  2
46
 70
     0
 62
     7
  6
CONTINUOUS
  0
LAYER
  2
47
 70
     0
 62
     7
  6
CONTINUOUS
  0
LAYER
  2
48
 70
     0
 62
     7
  6
CONTINUOUS
  0
LAYER
  2
49
 70
     0
 62
     7
  6
CONTINUOUS
  0
LAYER
  2
50
 70
     0
 62
     7
  6
CONTINUOUS
  0
LAYER
  2
51
 70
     0
 62
     7
  6
CONTINUOUS
  0
LAYER
  2
52
 70
     0
 62
     7
  6
CONTINUOUS
  0
LAYER
  2
53
 70
     0
 62
     7
  6
CONTINUOUS
  0
LAYER
  2
54
 70
     0
 62
     7
  6
CONTINUOUS
  0
LAYER
  2
55
 70
     0
 62
     7
  6
CONTINUOUS
  0
LAYER
  2
56
 70
     0
 62
     7
  6
CONTINUOUS
  0
LAYER
  2
57
 70
     0
 62
     7
  6
CONTINUOUS
  0
LAYER
  2
58
 70
     0
 62
     7
  6
CONTINUOUS
  0
LAYER
  2
59
 70
     0
 62
     7
  6
CONTINUOUS
  0
LAYER
  2
60
 70
     0
 62
     7
  6
CONTINUOUS
  0
LAYER
  2
61
 70
     0
 62
     7
  6
CONTINUOUS
  0
LAYER
  2
62
 70
     0
 62
     7
  6
CONTINUOUS
  0
LAYER
  2
63
 70
     0
 62
     7
  6
CONTINUOUS
  0
LAYER
  2
64
 70
     0
 62
     7
  6
CONTINUOUS
  0
LAYER
  2
65
 70
     0
 62
     7
  6
CONTINUOUS
  0
LAYER
  2
66
 70
     0
 62
     7
  6
CONTINUOUS
  0
LAYER
  2
67
 70
     0
 62
     7
  6
CONTINUOUS
  0
LAYER
  2
68
 70
     0
 62
     7
  6
CONTINUOUS
  0
LAYER
  2
69
 70
     0
 62
     7
  6
CONTINUOUS
  0
LAYER
  2
70
 70
     0
 62
     7
  6
CONTINUOUS
  0
LAYER
  2
71
 70
     0
 62
     7
  6
CONTINUOUS
  0
LAYER
  2
72
 70
     0
 62
     7
  6
CONTINUOUS
  0
LAYER
  2
73
 70
     0
 62
     7
  6
CONTINUOUS
  0
LAYER
  2
74
 70
     0
 62
     7
  6
CONTINUOUS
  0
LAYER
  2
75
 70
     0
 62
     7
  6
CONTINUOUS
  0
LAYER
  2
76
 70
     0
 62
     7
  6
CONTINUOUS
  0
LAYER
  2
77
 70
     0
 62
     7
  6
CONTINUOUS
  0
LAYER
  2
78
 70
     0
 62
     7
  6
CONTINUOUS
  0
LAYER
  2
79
 70
     0
 62
     7
  6
CONTINUOUS
  0
LAYER
  2
80
 70
     0
 62
     7
  6
CONTINUOUS
  0
LAYER
  2
81
 70
     0
 62
     7
  6
CONTINUOUS
  0
LAYER
  2
82
 70
     0
 62
     7
  6
CONTINUOUS
  0
LAYER
  2
83
 70
     0
 62
     7
  6
CONTINUOUS
  0
LAYER
  2
84
 70
     0
 62
     7
  6
CONTINUOUS
  0
LAYER
  2
85
 70
     0
 62
     7
  6
CONTINUOUS
  0
LAYER
  2
86
 70
     0
 62
     7
  6
CONTINUOUS
  0
LAYER
  2
87
 70
     0
 62
     7
  6
CONTINUOUS
  0
LAYER
  2
88
 70
     0
 62
     7
  6
CONTINUOUS
  0
LAYER
  2
89
 70
     0
 62
     7
  6
CONTINUOUS
  0
LAYER
  2
90
 70
     0
 62
     7
  6
CONTINUOUS
  0
LAYER
  2
91
 70
     0
 62
     7
  6
CONTINUOUS
  0
LAYER
  2
92
 70
     0
 62
     7
  6
CONTINUOUS
  0
LAYER
  2
93
 70
     0
 62
     7
  6
CONTINUOUS
  0
LAYER
  2
94
 70
     0
 62
     7
  6
CONTINUOUS
  0
LAYER
  2
95
 70
     0
 62
     7
  6
CONTINUOUS
  0
LAYER
  2
96
 70
     0
 62
     7
  6
CONTINUOUS
  0
LAYER
  2
97
 70
     0
 62
     7
  6
CONTINUOUS
  0
LAYER
  2
98
 70
     0
 62
     7
  6
CONTINUOUS
  0
LAYER
  2
99
 70
     0
 62
     7
  6
CONTINUOUS
  0
LAYER
  2
100
 70
     0
 62
     7
  6
CONTINUOUS
  0
LAYER
  2
101
 70
     0
 62
     7
  6
CONTINUOUS
  0
LAYER
  2
102
 70
     0
 62
     7
  6
CONTINUOUS
  0
LAYER
  2
103
 70
     0
 62
     7
  6
CONTINUOUS
  0
LAYER
  2
104
 70
     0
 62
     7
  6
CONTINUOUS
  0
LAYER
  2
105
 70
     0
 62
     7
  6
CONTINUOUS
  0
LAYER
  2
106
 70
     0
 62
     7
  6
CONTINUOUS
  0
LAYER
  2
107
 70
     0
 62
     7
  6
CONTINUOUS
  0
LAYER
  2
108
 70
     0
 62
     7
  6
CONTINUOUS
  0
LAYER
  2
109
 70
     0
 62
     7
  6
CONTINUOUS
  0
LAYER
  2
110
 70
     0
 62
     7
  6
CONTINUOUS
  0
LAYER
  2
111
 70
     0
 62
     7
  6
CONTINUOUS
  0
LAYER
  2
112
 70
     0
 62
     7
  6
CONTINUOUS
  0
LAYER
  2
113
 70
     0
 62
     7
  6
CONTINUOUS
  0
LAYER
  2
114
 70
     0
 62
     7
  6
CONTINUOUS
  0
LAYER
  2
115
 70
     0
 62
     7
  6
CONTINUOUS
  0
LAYER
  2
116
 70
     0
 62
     7
  6
CONTINUOUS
  0
LAYER
  2
117
 70
     0
 62
     7
  6
CONTINUOUS
  0
LAYER
  2
118
 70
     0
 62
     7
  6
CONTINUOUS
  0
LAYER
  2
119
 70
     0
 62
     7
  6
CONTINUOUS
  0
LAYER
  2
120
 70
     0
 62
     7
  6
CONTINUOUS
  0
LAYER
  2
121
 70
     0
 62
     7
  6
CONTINUOUS
  0
LAYER
  2
122
 70
     0
 62
     7
  6
CONTINUOUS
  0
LAYER
  2
123
 70
     0
 62
     7
  6
CONTINUOUS
  0
LAYER
  2
124
 70
     0
 62
     7
  6
CONTINUOUS
  0
LAYER
  2
125
 70
     0
 62
     7
  6
CONTINUOUS
  0
LAYER
  2
126
 70
     0
 62
     7
  6
CONTINUOUS
  0
LAYER
  2
127
 70
     0
 62
     7
  6
CONTINUOUS
  0
LAYER
  2
128
 70
     0
 62
     7
  6
CONTINUOUS
  0
ENDTAB
  0
TABLE
  2
STYLE
 70
    49
  0
STYLE
  2
STANDARD
 70
     0
 40
0.0
 41
1.0
 50
0.0
 71
     0
 42
0.2
  3
txt
  4

  0
STYLE
  2
KANJI0
 70
     0
 40
19.999995795
 41
0.6
 50
0.0
 71
     0
 42
19.999995795
  3

  4
bigfont
  0
STYLE
  2
KANJI1
 70
     0
 40
23.999994954
 41
0.9
 50
0.0
 71
     0
 42
23.999994954
  3

  4
bigfont
  0
STYLE
  2
KANJI2
 70
     0
 40
29.999993692
 41
0.9
 50
0.0
 71
     0
 42
29.999993692
  3

  4
bigfont
  0
STYLE
  2
KANJI3
 70
     0
 40
25.999998
 41
0.75
 50
0.0
 71
     0
 42
25.999998
  3

  4
bigfont
  0
STYLE
  2
KANJI4
 70
     0
 40
17.333332
 41
0.6
 50
0.0
 71
     0
 42
17.333332
  3

  4
bigfont
  0
STYLE
  2
KANJI5
 70
     0
 40
20.7999984
 41
0.6
 50
0.0
 71
     0
 42
20.7999984
  3

  4
bigfont
  0
STYLE
  2
KANJI6
 70
     0
 40
86.66666
 41
0.9
 50
0.0
 71
     0
 42
86.66666
  3

  4
bigfont
  0
STYLE
  2
KANJI7
 70
     0
 40
30.333331
 41
0.42031746
 50
0.0
 71
     0
 42
30.333331
  3

  4
bigfont
  0
STYLE
  2
KANJI8
 70
     0
 40
51.999996
 41
0.9
 50
0.0
 71
     0
 42
51.999996
  3

  4
bigfont
  0
STYLE
  2
KANJI9
 70
     0
 40
17.333332
 41
0.8
 50
0.0
 71
     0
 42
17.333332
  3

  4
bigfont
  0
STYLE
  2
KANJI10
 70
     0
 40
20.7999984
 41
0.8
 50
0.0
 71
     0
 42
20.7999984
  3

  4
bigfont
  0
STYLE
  2
KANJI11
 70
     0
 40
50.0
 41
0.9
 50
0.0
 71
     0
 42
50.0
  3

  4
bigfont
  0
STYLE
  2
KANJI12
 70
     0
 40
36.0
 41
0.833333333
 50
0.0
 71
     0
 42
36.0
  3

  4
bigfont
  0
STYLE
  2
KANJI13
 70
     0
 40
35.0
 41
0.857142857
 50
0.0
 71
     0
 42
35.0
  3

  4
bigfont
  0
STYLE
  2
KANJI14
 70
     0
 40
45.0
 41
0.666666667
 50
0.0
 71
     0
 42
45.0
  3

  4
bigfont
  0
STYLE
  2
KANJI15
 70
     0
 40
30.0
 41
0.933333333
 50
0.0
 71
     0
 42
30.0
  3

  4
bigfont
  0
STYLE
  2
KANJI16
 70
     0
 40
35.0
 41
0.9
 50
0.0
 71
     0
 42
35.0
  3

  4
bigfont
  0
STYLE
  2
KANJI17
 70
     0
 40
30.0
 41
0.9
 50
0.0
 71
     0
 42
30.0
  3

  4
bigfont
  0
STYLE
  2
KANJI18
 70
     0
 40
30.0
 41
0.833333333
 50
0.0
 71
     0
 42
30.0
  3

  4
bigfont
  0
STYLE
  2
KANJI19
 70
     0
 40
30.0
 41
0.9
 50
0.0
 71
     0
 42
30.0
  3

  4
bigfont
  0
STYLE
  2
KANJI20
 70
     0
 40
40.0
 41
0.925
 50
0.0
 71
     0
 42
40.0
  3

  4
bigfont
  0
STYLE
  2
KANJI21
 70
     0
 40
40.0
 41
1.0
 50
0.0
 71
     0
 42
40.0
  3

  4
bigfont
  0
STYLE
  2
KANJI22
 70
     0
 40
18.0
 41
0.933333333
 50
0.0
 71
     0
 42
18.0
  3

  4
bigfont
  0
STYLE
  2
KANJI23
 70
     0
 40
50.0
 41
0.8
 50
0.0
 71
     0
 42
50.0
  3

  4
bigfont
  0
STYLE
  2
KANJI24
 70
     0
 40
45.0
 41
0.9
 50
0.0
 71
     0
 42
45.0
  3

  4
bigfont
  0
STYLE
  2
KANJI25
 70
     0
 40
38.0
 41
0.9
 50
0.0
 71
     0
 42
38.0
  3

  4
bigfont
  0
STYLE
  2
KANJI26
 70
     0
 40
30.0
 41
0.9
 50
0.0
 71
     0
 42
30.0
  3

  4
bigfont
  0
STYLE
  2
KANJI27
 70
     0
 40
28.0
 41
0.8
 50
0.0
 71
     0
 42
28.0
  3

  4
bigfont
  0
STYLE
  2
KANJI28
 70
     0
 40
38.0
 41
0.9
 50
0.0
 71
     0
 42
38.0
  3

  4
bigfont
  0
STYLE
  2
KANJI29
 70
     0
 40
38.0
 41
0.9
 50
0.0
 71
     0
 42
38.0
  3

  4
bigfont
  0
STYLE
  2
KANJI30
 70
     0
 40
38.0
 41
0.9
 50
0.0
 71
     0
 42
38.0
  3

  4
bigfont
  0
STYLE
  2
KANJI31
 70
     0
 40
38.0
 41
0.9
 50
0.0
 71
     0
 42
38.0
  3

  4
bigfont
  0
STYLE
  2
KANJI32
 70
     0
 40
38.0
 41
0.9
 50
0.0
 71
     0
 42
38.0
  3

  4
bigfont
  0
STYLE
  2
KANJI33
 70
     0
 40
38.0
 41
0.9
 50
0.0
 71
     0
 42
38.0
  3

  4
bigfont
  0
STYLE
  2
KANJI34
 70
     0
 40
30.0
 41
0.9
 50
0.0
 71
     0
 42
30.0
  3

  4
bigfont
  0
STYLE
  2
KANJI35
 70
     0
 40
38.0
 41
0.9
 50
0.0
 71
     0
 42
38.0
  3

  4
bigfont
  0
STYLE
  2
KANJI36
 70
     0
 40
28.0
 41
0.9
 50
0.0
 71
     0
 42
28.0
  3

  4
bigfont
  0
STYLE
  2
KANJI37
 70
     0
 40
30.0
 41
0.9
 50
0.0
 71
     0
 42
30.0
  3

  4
bigfont
  0
STYLE
  2
KANJI38
 70
     0
 40
30.0
 41
0.833333333
 50
0.0
 71
     0
 42
30.0
  3

  4
bigfont
  0
STYLE
  2
KANJI39
 70
     0
 40
35.0
 41
0.9
 50
0.0
 71
     0
 42
35.0
  3

  4
bigfont
  0
STYLE
  2
KANJI40
 70
     0
 40
38.0
 41
0.9
 50
0.0
 71
     0
 42
38.0
  3

  4
bigfont
  0
STYLE
  2
KANJI41
 70
     0
 40
40.0
 41
0.925
 50
0.0
 71
     0
 42
40.0
  3

  4
bigfont
  0
STYLE
  2
KANJI42
 70
     0
 40
25.92
 41
0.9
 50
0.0
 71
     0
 42
25.92
  3

  4
bigfont
  0
STYLE
  2
KANJI43
 70
     0
 40
25.92
 41
0.9
 50
0.0
 71
     0
 42
25.92
  3

  4
bigfont
  0
STYLE
  2
KANJI44
 70
     0
 40
30.0
 41
0.666666667
 50
0.0
 71
     0
 42
30.0
  3

  4
bigfont
  0
STYLE
  2
KANJI45
 70
     0
 40
35.0
 41
0.571428571
 50
0.0
 71
     0
 42
35.0
  3

  4
bigfont
  0
STYLE
  2
KANJI46
 70
     0
 40
24.0
 41
0.777777778
 50
0.0
 71
     0
 42
24.0
  3

  4
bigfont
  0
STYLE
  2
KANJI47
 70
     0
 40
32.0
 41
0.9
 50
0.0
 71
     0
 42
32.0
  3

  4
bigfont
  0
ENDTAB
  0
TABLE
  2
VIEW
 70
     0
  0
ENDTAB
  0
ENDSEC
  0
SECTION
  2
BLOCKS
  0
ENDSEC
  0
SECTION
  2
ENTITIES
  0
LINE
  8
0
  6
CONTINUOUS
 62
     6
 10
183.0
 20
111.0
 11
183.0
 21
2801.0
  0
LINE
  8
0
  6
CONTINUOUS
 62
     6
 10
183.0
 20
2801.0
 11
4053.0
 21
2801.0
  0
TEXT
  8
0
  6
CONTINUOUS
 62
     4
 10
212.999993692
 20
160.999989487
 30
1.999999579
 40
19.999995795
  1
ＰＡＲＴＳ　ＬＩＳＴ
 50
0.0
 41
0.6
 51
0.0
  7
KANJI0
  0
TEXT
  8
0
  6
CONTINUOUS
 62
     4
 10
662.999899077
 20
160.999989487
 30
1.999999579
 40
19.999995795
  1
Ｎ０．
 50
0.0
 41
0.6
 51
0.0
  7
KANJI0
  0
TEXT
  8
0
  6
CONTINUOUS
 62
     4
 10
212.999993692
 20
130.999995795
 30
2.399999495
 40
23.999994954
  1
部品表
 50
0.0
 41
0.9
 51
0.0
  7
KANJI1
  0
TEXT
  8
0
  6
CONTINUOUS
 62
     4
 10
662.999899077
 20
130.999995795
 30
2.399999495
 40
23.999994954
  1
項番
 50
0.0
 41
0.9
 51
0.0
  7
KANJI1
  0
LINE
  8
0
  6
CONTINUOUS
 62
     6
 10
4053.0
 20
111.0
 11
183.0
 21
111.0
  0
LINE
  8
0
  6
CONTINUOUS
 62
     6
 10
192.999997897
 20
260.999968462
 11
842.999861231
 21
260.999968462
  0
LINE
  8
0
  6
CONTINUOUS
 62
     6
 10
192.999997897
 20
120.999997897
 11
842.999861231
 21
120.999997897
  0
LINE
  8
0
  6
CONTINUOUS
 62
     6
 10
192.999997897
 20
120.999997897
 11
192.999997897
 21
260.999968462
  0
LINE
  8
0
  6
CONTINUOUS
 62
     6
 10
642.999903282
 20
120.999997897
 11
642.999903282
 21
260.999968462
  0
LINE
  8
0
  6
CONTINUOUS
 62
     6
 10
192.999997897
 20
190.999983179
 11
842.999861231
 21
190.999983179
  0
TEXT
  8
0
  6
CONTINUOUS
 62
     3
 10
212.999993692
 20
210.999978974
 30
2.999999369
 40
29.999993692
  1
ＰＬ
 50
0.0
 41
0.9
 51
0.0
  7
KANJI2
  0
LINE
  8
0
  6
CONTINUOUS
 62
     4
 10
56.246666
 20
118.446666
 11
160.246658
 21
118.446666
  0
LINE
  8
0
  6
CONTINUOUS
 62
     4
 10
56.246666
 20
170.446662
 11
160.246658
 21
170.446662
  0
LINE
  8
0
  6
CONTINUOUS
 62
     4
 10
56.246666
 20
222.446658
 11
160.246658
 21
222.446658
  0
LINE
  8
0
  6
CONTINUOUS
 62
     4
 10
56.246666
 20
274.446654
 11
160.246658
 21
274.446654
  0
LINE
  8
0
  6
CONTINUOUS
 62
     4
 10
56.246666
 20
326.44665
 11
160.246658
 21
326.44665
  0
LINE
  8
0
  6
CONTINUOUS
 62
     4
 10
56.246666
 20
378.446646
 11
160.246658
 21
378.446646
  0
LINE
  8
0
  6
CONTINUOUS
 62
     4
 10
56.246666
 20
430.446642
 11
160.246658
 21
430.446642
  0
LINE
  8
0
  6
CONTINUOUS
 62
     4
 10
56.246666
 20
482.446638
 11
160.246658
 21
482.446638
  0
LINE
  8
0
  6
CONTINUOUS
 62
     4
 10
56.246666
 20
534.446634
 11
160.246658
 21
534.446634
  0
LINE
  8
0
  6
CONTINUOUS
 62
     4
 10
56.246666
 20
586.44663
 11
160.246658
 21
586.44663
  0
LINE
  8
0
  6
CONTINUOUS
 62
     4
 10
160.246658
 20
118.446666
 11
160.246658
 21
586.44663
  0
LINE
  8
0
  6
CONTINUOUS
 62
     4
 10
108.246662
 20
118.446666
 11
108.246662
 21
534.446634
  0
TEXT
  8
0
  6
CONTINUOUS
 62
     4
 10
74.0133313
 20
133.6133315
 30
2.5999998
 40
25.999998
  1
計
 50
0.0
 41
0.75
 51
0.0
  7
KANJI3
  0
TEXT
  8
0
  6
CONTINUOUS
 62
     4
 10
74.0133313
 20
238.4799901
 30
2.5999998
 40
25.999998
  1
設
 50
0.0
 41
0.75
 51
0.0
  7
KANJI3
  0
TEXT
  8
0
  6
CONTINUOUS
 62
     4
 10
74.0133313
 20
289.6133195
 30
2.5999998
 40
25.999998
  1
管
 50
0.0
 41
0.75
 51
0.0
  7
KANJI3
  0
TEXT
  8
0
  6
CONTINUOUS
 62
     4
 10
74.0133313
 20
341.6133155
 30
2.5999998
 40
25.999998
  1
製
 50
0.0
 41
0.75
 51
0.0
  7
KANJI3
  0
TEXT
  8
0
  6
CONTINUOUS
 62
     4
 10
74.0133313
 20
393.6133115
 30
2.5999998
 40
25.999998
  1
資
 50
0.0
 41
0.75
 51
0.0
  7
KANJI3
  0
TEXT
  8
0
  6
CONTINUOUS
 62
     4
 10
74.0133313
 20
445.6133075
 30
2.5999998
 40
25.999998
  1
営
 50
0.0
 41
0.75
 51
0.0
  7
KANJI3
  0
TEXT
  8
0
  6
CONTINUOUS
 62
     4
 10
74.0133313
 20
497.6133035
 30
2.5999998
 40
25.999998
  1
客
 50
0.0
 41
0.75
 51
0.0
  7
KANJI3
  0
TEXT
  8
0
  6
CONTINUOUS
 62
     4
 10
73.579998
 20
551.779966
 30
2.5999998
 40
25.999998
  1
出　図
 50
0.0
 41
0.75
 51
0.0
  7
KANJI3
  0
LINE
  8
0
  6
CONTINUOUS
 62
     4
 10
56.246666
 20
118.446666
 11
56.246666
 21
586.44663
  0
LINE
  8
0
  6
CONTINUOUS
 62
     6
 10
842.999861231
 20
120.999997897
 11
842.999861231
 21
260.999968462
  0
LINE
  8
0
  6
CONTINUOUS
 62
     4
 10
2709.66677
 20
188.999994
 11
3026.000079
 21
188.999994
  0
TEXT
  8
0
  6
CONTINUOUS
 62
     4
 10
2727.000102
 20
158.666663
 30
1.7333332
 40
17.333332
  1
ＳＣＡＬＥ
 50
0.0
 41
0.6
 51
0.0
  7
KANJI4
  0
TEXT
  8
0
  6
CONTINUOUS
 62
     4
 10
2727.000102
 20
227.999991
 30
1.7333332
 40
17.333332
  1
ＤＡＴＥ
 50
0.0
 41
0.6
 51
0.0
  7
KANJI4
  0
TEXT
  8
0
  6
CONTINUOUS
 62
     4
 10
2727.000102
 20
132.666665
 30
2.07999984
 40
20.7999984
  1
尺度
 50
0.0
 41
0.6
 51
0.0
  7
KANJI5
  0
TEXT
  8
0
  6
CONTINUOUS
 62
     4
 10
2727.000102
 20
201.999993
 30
2.07999984
 40
20.7999984
  1
日付
 50
0.0
 41
0.6
 51
0.0
  7
KANJI5
  0
LINE
  8
0
  6
CONTINUOUS
 62
     4
 10
2220.000141
 20
119.666666
 11
2220.000141
 21
188.999994
  0
LINE
  8
0
  6
CONTINUOUS
 62
     4
 10
2298.000135
 20
119.666666
 11
2298.000135
 21
188.999994
  0
TEXT
  8
0
  6
CONTINUOUS
 62
     4
 10
2246.000139
 20
158.666663
 30
1.7333332
 40
17.333332
  1
ＢＹ
 50
0.0
 41
0.6
 51
0.0
  7
KANJI4
  0
TEXT
  8
0
  6
CONTINUOUS
 62
     4
 10
2436.666791
 20
158.666663
 30
1.7333332
 40
17.333332
  1
ＤＥＳＣＲＩＰＴＩＯＮ
 50
0.0
 41
0.6
 51
0.0
  7
KANJI4
  0
TEXT
  8
0
  6
CONTINUOUS
 62
     4
 10
2246.000139
 20
132.666665
 30
2.07999984
 40
20.7999984
  1
担当
 50
0.0
 41
0.6
 51
0.0
  7
KANJI5
  0
TEXT
  8
0
  6
CONTINUOUS
 62
     4
 10
2462.666789
 20
132.666665
 30
2.07999984
 40
20.7999984
  1
記　　　　事
 50
0.0
 41
0.6
 51
0.0
  7
KANJI5
  0
LINE
  8
0
  6
CONTINUOUS
 62
     4
 10
2061.8334865
 20
175.999995
 11
2033.666822
 21
132.666665
  0
TEXT
  8
0
  6
CONTINUOUS
 62
     4
 10
2133.333481
 20
158.666663
 30
1.7333332
 40
17.333332
  1
ＤＡＴＥ
 50
0.0
 41
0.6
 51
0.0
  7
KANJI4
  0
TEXT
  8
0
  6
CONTINUOUS
 62
     4
 10
2146.33348
 20
132.666665
 30
2.07999984
 40
20.7999984
  1
日付
 50
0.0
 41
0.6
 51
0.0
  7
KANJI5
  0
LINE
  8
0
  6
CONTINUOUS
 62
     4
 10
2033.666822
 20
132.666665
 11
2090.000151
 21
132.666665
  0
LINE
  8
0
  6
CONTINUOUS
 62
     4
 10
2098.666817
 20
119.666666
 11
2098.666817
 21
188.999994
  0
LINE
  8
0
  6
CONTINUOUS
 62
     4
 10
2061.8334865
 20
175.999995
 11
2090.000151
 21
132.666665
  0
LINE
  8
0
  6
CONTINUOUS
 62
     4
 10
3026.000079
 20
227.999991
 11
4044.333334
 21
227.999991
  0
LINE
  8
0
  6
CONTINUOUS
 62
     4
 10
3026.000079
 20
119.666666
 11
3026.000079
 21
535.666634
  0
LINE
  8
0
  6
LTYPE1
 62
     4
 10
3754.000023
 20
240.99999
 11
3754.000023
 21
310.333318
  0
LINE
  8
0
  6
LTYPE1
 62
     4
 10
3693.333361
 20
240.99999
 11
3693.333361
 21
310.333318
  0
LINE
  8
0
  6
LTYPE1
 62
     4
 10
3632.666699
 20
240.99999
 11
3632.666699
 21
310.333318
  0
LINE
  8
0
  6
LTYPE1
 62
     4
 10
3572.000037
 20
240.99999
 11
3572.000037
 21
310.333318
  0
LINE
  8
0
  6
LTYPE1
 62
     4
 10
3511.333375
 20
240.99999
 11
3511.333375
 21
310.333318
  0
LINE
  8
0
  6
LTYPE1
 62
     4
 10
3450.666713
 20
240.99999
 11
3450.666713
 21
310.333318
  0
LINE
  8
0
  6
LTYPE1
 62
     4
 10
3390.000051
 20
240.99999
 11
3390.000051
 21
310.333318
  0
LINE
  8
0
  6
LTYPE1
 62
     4
 10
3329.333389
 20
240.99999
 11
3329.333389
 21
310.333318
  0
LINE
  8
0
  6
LTYPE1
 62
     4
 10
3329.333389
 20
240.99999
 11
3754.000023
 21
240.99999
  0
TEXT
  8
0
  6
CONTINUOUS
 62
     4
 10
3905.666678
 20
24.33334
 30
8.666666
 40
86.66666
  1
／
 50
0.0
 41
0.9
 51
0.0
  7
KANJI6
  0
LINE
  8
0
  6
CONTINUOUS
 62
     6
 10
4053.0
 20
2801.0
 11
4053.0
 21
111.0
  0
LINE
  8
0
  6
CONTINUOUS
 62
     6
 10
2025.000156
 20
119.666666
 11
2025.000156
 21
188.999994
  0
LINE
  8
0
  6
CONTINUOUS
 62
     6
 10
2025.000156
 20
188.999994
 11
2709.66677
 21
188.999994
  0
LINE
  8
0
  6
CONTINUOUS
 62
     6
 10
2025.000156
 20
119.666666
 11
4044.333334
 21
119.666666
  0
TEXT
  8
0
  6
CONTINUOUS
 62
     6
 10
3034.666745
 20
158.666663
 30
0.0
 40
30.333331
  1
ＵＮＩＴＥＣ　ＩＮＤＵＳＴＲＹ　ＣＯ．，ＬＴＤ．
 50
0.0
 41
0.42031746
 51
0.0
  7
KANJI7
  0
TEXT
  8
0
  6
CONTINUOUS
 62
     6
 10
3460.091712275
 20
147.3999972
 30
5.1999996
 40
51.999996
  1
ユニテック工業株式会社
 50
0.0
 41
0.9
 51
0.0
  7
KANJI8
  0
LINE
  8
0
  6
CONTINUOUS
 62
     6
 10
2709.66677
 20
119.666666
 11
2709.66677
 21
674.33329
  0
LINE
  8
0
  6
CONTINUOUS
 62
     6
 10
4044.333334
 20
119.666666
 11
4044.333334
 21
674.33329
  0
TEXT
  8
0
  6
CONTINUOUS
 62
     4
 10
2727.000102
 20
297.333319
 30
1.7333332
 40
17.333332
  1
ＤＲＡＷＮ
 50
0.0
 41
0.6
 51
0.0
  7
KANJI4
  0
TEXT
  8
0
  6
CONTINUOUS
 62
     4
 10
2727.000102
 20
366.666647
 30
1.7333332
 40
17.333332
  1
ＤＥＳＩＧＮ
 50
0.0
 41
0.6
 51
0.0
  7
KANJI4
  0
TEXT
  8
0
  6
CONTINUOUS
 62
     4
 10
2727.000102
 20
435.999975
 30
1.7333332
 40
17.333332
  1
ＣＨＥＣＫ
 50
0.0
 41
0.6
 51
0.0
  7
KANJI4
  0
TEXT
  8
0
  6
CONTINUOUS
 62
     4
 10
2727.000102
 20
505.333303
 30
1.7333332
 40
17.333332
  1
ＣＯＤＥ
 50
0.0
 41
0.6
 51
0.0
  7
KANJI4
  0
LINE
  8
0
  6
CONTINUOUS
 62
     4
 10
2709.66677
 20
396.999978
 11
3026.000079
 21
396.999978
  0
LINE
  8
0
  6
CONTINUOUS
 62
     4
 10
2709.66677
 20
327.66665
 11
3026.000079
 21
327.66665
  0
LINE
  8
0
  6
CONTINUOUS
 62
     4
 10
2709.66677
 20
466.333306
 11
3026.000079
 21
466.333306
  0
LINE
  8
0
  6
CONTINUOUS
 62
     4
 10
2709.66677
 20
535.666634
 11
4044.333334
 21
535.666634
  0
TEXT
  8
0
  6
CONTINUOUS
 62
     4
 10
2727.000102
 20
340.666649
 30
2.07999984
 40
20.7999984
  1
設計
 50
0.0
 41
0.6
 51
0.0
  7
KANJI5
  0
TEXT
  8
0
  6
CONTINUOUS
 62
     4
 10
2727.000102
 20
409.999977
 30
2.07999984
 40
20.7999984
  1
検図
 50
0.0
 41
0.6
 51
0.0
  7
KANJI5
  0
TEXT
  8
0
  6
CONTINUOUS
 62
     4
 10
2727.000102
 20
479.333305
 30
2.07999984
 40
20.7999984
  1
分類
 50
0.0
 41
0.6
 51
0.0
  7
KANJI5
  0
LINE
  8
0
  6
CONTINUOUS
 62
     4
 10
3051.5667437
 20
466.333306
 11
4044.333334
 21
466.333306
  0
LINE
  8
0
  6
CONTINUOUS
 62
     4
 10
3026.000079
 20
327.66665
 11
4044.333334
 21
327.66665
  0
TEXT
  8
0
  6
CONTINUOUS
 62
     4
 10
3043.333411
 20
297.333319
 30
1.7333332
 40
17.333332
  1
ＤＲＡＷＩＮＧ　ＮＯ．
 50
0.0
 41
0.8
 51
0.0
  7
KANJI9
  0
TEXT
  8
0
  6
CONTINUOUS
 62
     4
 10
3043.333411
 20
366.666647
 30
1.7333332
 40
17.333332
  1
ＭＦＧ　ＮＯ．
 50
0.0
 41
0.8
 51
0.0
  7
KANJI9
  0
TEXT
  8
0
  6
CONTINUOUS
 62
     4
 10
3043.333411
 20
435.999975
 30
1.7333332
 40
17.333332
  1
ＴＹＰＥ
 50
0.0
 41
0.8
 51
0.0
  7
KANJI9
  0
LINE
  8
0
  6
CONTINUOUS
 62
     4
 10
3052.000077
 20
396.999978
 11
3450.666713
 21
396.999978
  0
TEXT
  8
0
  6
CONTINUOUS
 62
     4
 10
3043.333411
 20
266.999988
 30
2.07999984
 40
20.7999984
  1
図　面　番　号
 50
0.0
 41
0.8
 51
0.0
  7
KANJI10
  0
TEXT
  8
0
  6
CONTINUOUS
 62
     4
 10
3043.333411
 20
336.333316
 30
2.07999984
 40
20.7999984
  1
製番
 50
0.0
 41
0.8
 51
0.0
  7
KANJI10
  0
TEXT
  8
0
  6
CONTINUOUS
 62
     4
 10
3043.333411
 20
405.666644
 30
2.07999984
 40
20.7999984
  1
機種
 50
0.0
 41
0.8
 51
0.0
  7
KANJI10
  0
LINE
  8
0
  6
CONTINUOUS
 62
     4
 10
2709.66677
 20
258.333322
 11
3026.000079
 21
258.333322
  0
TEXT
  8
0
  6
CONTINUOUS
 62
     4
 10
2727.000102
 20
271.333321
 30
2.07999984
 40
20.7999984
  1
作図
 50
0.0
 41
0.6
 51
0.0
  7
KANJI5
  0
LINE
  8
0
  6
LTYPE1
 62
     4
 10
3329.333389
 20
310.333318
 11
3754.000023
 21
310.333318
  0
LINE
  8
0
  6
CONTINUOUS
 62
     4
 10
3788.666687
 20
277.8333205
 11
3806.000019
 21
277.8333205
  0
LINE
  8
0
  6
CONTINUOUS
 62
     4
 10
3897.000012
 20
251.8333225
 11
3836.33335
 21
251.8333225
  0
LINE
  8
0
  6
CONTINUOUS
 62
     4
 10
3836.33335
 20
251.8333225
 11
3866.666681
 21
303.8333185
  0
LINE
  8
0
  6
CONTINUOUS
 62
     4
 10
3866.666681
 20
303.8333185
 11
3897.000012
 21
251.8333225
  0
TEXT
  8
0
  6
CONTINUOUS
 62
     4
 10
3476.666711
 20
435.999975
 30
1.7333332
 40
17.333332
  1
ＴＩＴＬＥ
 50
0.0
 41
0.8
 51
0.0
  7
KANJI9
  0
TEXT
  8
0
  6
CONTINUOUS
 62
     4
 10
3476.666711
 20
405.666644
 30
2.07999984
 40
20.7999984
  1
名称
 50
0.0
 41
0.8
 51
0.0
  7
KANJI10
  0
TEXT
  8
0
  6
CONTINUOUS
 62
     3
 10
3668.0
 20
342.0
 30
5.0
 40
50.0
  1
外形寸法図
 50
0.0
 41
0.9
 51
0.0
  7
KANJI11
  0
TEXT
  8
0
  6
CONTINUOUS
 62
     3
 10
3575.5
 20
405.0
 30
5.0
 40
50.0
  1
マイティシリンダ
 50
0.0
 41
0.9
 51
0.0
  7
KANJI11
  0
LINE
  8
0
  6
CONTINUOUS
 62
     6
 10
2710.91677
 20
604.999962
 11
4045.583334
 21
604.999962
  0
LINE
  8
0
  6
CONTINUOUS
 62
     6
 10
2709.66677
 20
674.33329
 11
4044.333334
 21
674.33329
  0
LINE
  8
0
  6
CONTINUOUS
 62
     6
 10
3026.000079
 20
535.666634
 11
3026.000079
 21
674.33329
  0
TEXT
  8
0
  6
CONTINUOUS
 62
     6
 10
2780.5
 20
615.333328
 30
10.0
 40
36.0
  1
ご用途
 50
0.0
 41
0.833333333
 51
0.0
  7
KANJI12
  0
TEXT
  8
0
  6
CONTINUOUS
 62
     6
 10
2780.5
 20
546.0
 30
10.0
 40
36.0
  1
ご注文主
 50
0.0
 41
0.833333333
 51
0.0
  7
KANJI12
  0
TEXT
  8
0
  6
CONTINUOUS
 62
     3
 10
2821.333389
 20
275.99999
 30
10.0
 40
35.0
  1
岡田
 50
0.0
 41
0.857142857
 51
0.0
  7
KANJI13
  0
TEXT
  8
0
  6
CONTINUOUS
 62
     3
 10
2836.5
 20
131.0
 30
3.0
 40
45.0
  1
１／１０
 50
0.0
 41
0.666666667
 51
0.0
  7
KANJI14
  0
LINE
  8
0
  6
CONTINUOUS
 62
     1
 10
581.5
 20
1259.5
 11
639.5
 21
1259.5
  0
LINE
  8
0
  6
CONTINUOUS
 62
     1
 10
545.5
 20
1351.5
 11
675.5
 21
1351.5
  0
LINE
  8
0
  6
CONTINUOUS
 62
     1
 10
805.5
 20
1455.5
 11
837.5
 21
1455.5
  0
LINE
  8
0
  6
CONTINUOUS
 62
     1
 10
545.5
 20
1351.5
 11
545.5
 21
1413.5
  0
LINE
  8
0
  6
CONTINUOUS
 62
     1
 10
675.5
 20
1351.5
 11
675.5
 21
1413.5
  0
LINE
  8
0
  6
CONTINUOUS
 62
     1
 10
581.5
 20
1259.5
 11
581.5
 21
1344.5
  0
LINE
  8
0
  6
CONTINUOUS
 62
     1
 10
639.5
 20
1259.5
 11
639.5
 21
1344.5
  0
LINE
  8
0
  6
CONTINUOUS
 62
     1
 10
580.5
 20
1344.5
 11
640.5
 21
1344.5
  0
LINE
  8
0
  6
CONTINUOUS
 62
     1
 10
580.5
 20
1344.5
 11
580.5
 21
1351.5
  0
LINE
  8
0
  6
CONTINUOUS
 62
     1
 10
640.5
 20
1344.5
 11
640.5
 21
1351.5
  0
ARC
  8
0
  6
CONTINUOUS
 62
     1
 10
610.5
 20
1329.5
 40
8.0
 50
0.0
 51
180.0
  0
LINE
  8
0
  6
CONTINUOUS
 62
     1
 10
602.5
 20
1259.5
 11
602.5
 21
1329.5
  0
LINE
  8
0
  6
CONTINUOUS
 62
     1
 10
602.5
 20
1329.5
 11
618.5
 21
1329.5
  0
LINE
  8
0
  6
CONTINUOUS
 62
     1
 10
618.5
 20
1259.5
 11
618.5
 21
1329.5
  0
LINE
  8
0
  6
CONTINUOUS
 62
     1
 10
837.5
 20
1455.5
 11
837.5
 21
1659.5
  0
LINE
  8
0
  6
CONTINUOUS
 62
     1
 10
581.5
 20
2059.5
 11
639.5
 21
2059.5
  0
LINE
  8
0
  6
CONTINUOUS
 62
     1
 10
545.5
 20
1967.5
 11
675.5
 21
1967.5
  0
LINE
  8
0
  6
CONTINUOUS
 62
     1
 10
675.5
 20
1967.5
 11
675.5
 21
1905.5
  0
LINE
  8
0
  6
CONTINUOUS
 62
     1
 10
639.5
 20
2059.5
 11
639.5
 21
1974.5
  0
LINE
  8
0
  6
CONTINUOUS
 62
     1
 10
580.5
 20
1974.5
 11
640.5
 21
1974.5
  0
LINE
  8
0
  6
CONTINUOUS
 62
     1
 10
640.5
 20
1974.5
 11
640.5
 21
1967.5
  0
ARC
  8
0
  6
CONTINUOUS
 62
     1
 10
610.5
 20
1989.5
 40
8.0
 50
180.0
 51
0.0
  0
LINE
  8
0
  6
CONTINUOUS
 62
     1
 10
602.5
 20
1989.5
 11
618.5
 21
1989.5
  0
LINE
  8
0
  6
CONTINUOUS
 62
     1
 10
618.5
 20
2059.5
 11
618.5
 21
1989.5
  0
LINE
  8
0
  6
CONTINUOUS
 62
     1
 10
837.5
 20
1863.5
 11
837.5
 21
1659.5
  0
LINE
  8
0
  6
CONTINUOUS
 62
     1
 10
545.5
 20
1967.5
 11
545.5
 21
1905.5
  0
LINE
  8
0
  6
CONTINUOUS
 62
     1
 10
580.5
 20
1974.5
 11
580.5
 21
1967.5
  0
LINE
  8
0
  6
CONTINUOUS
 62
     1
 10
581.5
 20
2059.5
 11
581.5
 21
1974.5
  0
LINE
  8
0
  6
CONTINUOUS
 62
     1
 10
602.5
 20
2059.5
 11
602.5
 21
1989.5
  0
POINT
  8
0
  6
CONTINUOUS
 62
     1
 10
837.5
 20
1502.0
  0
POINT
  8
0
  6
CONTINUOUS
 62
     1
 10
837.5
 20
1467.0
  0
POINT
  8
0
  6
CONTINUOUS
 62
     1
 10
837.5
 20
1817.0
  0
POINT
  8
0
  6
CONTINUOUS
 62
     1
 10
837.5
 20
1852.0
  0
LINE
  8
0
  6
CONTINUOUS
 62
     2
 10
761.5
 20
1966.75
 11
977.5
 21
1966.75
  0
LINE
  8
0
  6
CONTINUOUS
 62
     2
 10
581.5
 20
2059.5
 11
581.5
 21
2161.5
  0
LINE
  8
0
  6
CONTINUOUS
 62
     2
 10
581.5
 20
2146.5
 11
557.351854343
 21
2152.970476128
  0
LINE
  8
0
  6
CONTINUOUS
 62
     2
 10
581.5
 20
2146.5
 11
557.351854343
 21
2140.029523872
  0
LINE
  8
0
  6
CONTINUOUS
 62
     2
 10
531.5
 20
2146.5
 11
841.5
 21
2146.5
  0
LINE
  8
0
  6
CONTINUOUS
 62
     2
 10
639.5
 20
2146.5
 11
663.648145657
 21
2140.029523872
  0
LINE
  8
0
  6
CONTINUOUS
 62
     2
 10
639.5
 20
2146.5
 11
663.648145657
 21
2152.970476128
  0
LINE
  8
0
  6
CONTINUOUS
 62
     2
 10
639.5
 20
2059.5
 11
639.5
 21
2161.5
  0
TEXT
  8
0
  6
CONTINUOUS
 62
     2
 10
689.5
 20
2156.5
 30
3.0
 40
30.0
  1
φ５８ｈ７
 50
0.0
 41
0.933333333
 51
0.0
  7
KANJI15
  0
LINE
  8
0
  6
CONTINUOUS
 62
     2
 10
545.5
 20
1967.5
 11
545.5
 21
2237.5
  0
LINE
  8
0
  6
CONTINUOUS
 62
     2
 10
545.5
 20
2222.5
 11
569.648145657
 21
2216.029523872
  0
LINE
  8
0
  6
CONTINUOUS
 62
     2
 10
545.5
 20
2222.5
 11
569.648145657
 21
2228.970476128
  0
LINE
  8
0
  6
CONTINUOUS
 62
     2
 10
545.5
 20
2222.5
 11
675.5
 21
2222.5
  0
LINE
  8
0
  6
CONTINUOUS
 62
     2
 10
675.5
 20
2222.5
 11
651.351854343
 21
2228.970476128
  0
LINE
  8
0
  6
CONTINUOUS
 62
     2
 10
675.5
 20
2222.5
 11
651.351854343
 21
2216.029523872
  0
LINE
  8
0
  6
CONTINUOUS
 62
     2
 10
675.5
 20
1967.5
 11
675.5
 21
2237.5
  0
TEXT
  8
0
  6
CONTINUOUS
 62
     2
 10
519.0
 20
2232.5
 30
3.0
 40
30.0
  1
φ１３０ｄ９
 50
0.0
 41
0.933333333
 51
0.0
  7
KANJI15
  0
LINE
  8
0
  6
CONTINUOUS
 62
     2
 10
282.0
 20
1259.5
 11
288.470476128
 21
1283.648145657
  0
LINE
  8
0
  6
CONTINUOUS
 62
     2
 10
282.0
 20
1259.5
 11
275.529523872
 21
1283.648145657
  0
LINE
  8
0
  6
CONTINUOUS
 62
     2
 10
573.0
 20
1259.5
 11
267.0
 21
1259.5
  0
LINE
  8
0
  6
CONTINUOUS
 62
     2
 10
352.5
 20
1413.5
 11
358.970476128
 21
1437.648145657
  0
LINE
  8
0
  6
CONTINUOUS
 62
     2
 10
352.5
 20
1413.5
 11
346.029523872
 21
1437.648145657
  0
LINE
  8
0
  6
CONTINUOUS
 62
     2
 10
352.5
 20
1413.5
 11
358.970476128
 21
1389.351854343
  0
LINE
  8
0
  6
CONTINUOUS
 62
     2
 10
352.5
 20
1413.5
 11
346.029523872
 21
1389.351854343
  0
LINE
  8
0
  6
CONTINUOUS
 62
     2
 10
352.5
 20
1413.5
 11
352.5
 21
1351.5
  0
LINE
  8
0
  6
CONTINUOUS
 62
     2
 10
352.5
 20
1351.5
 11
346.029523872
 21
1375.648145657
  0
LINE
  8
0
  6
CONTINUOUS
 62
     2
 10
352.5
 20
1351.5
 11
358.970476128
 21
1375.648145657
  0
LINE
  8
0
  6
CONTINUOUS
 62
     2
 10
537.0
 20
1351.5
 11
337.5
 21
1351.5
  0
LINE
  8
0
  6
CONTINUOUS
 62
     2
 10
352.5
 20
1351.5
 11
352.5
 21
1344.5
  0
LINE
  8
0
  6
CONTINUOUS
 62
     2
 10
572.0
 20
1344.5
 11
337.5
 21
1344.5
  0
LINE
  8
0
  6
CONTINUOUS
 62
     2
 10
352.5
 20
1344.5
 11
346.029523872
 21
1320.351854343
  0
LINE
  8
0
  6
CONTINUOUS
 62
     2
 10
352.5
 20
1344.5
 11
358.970476128
 21
1320.351854343
  0
LINE
  8
0
  6
CONTINUOUS
 62
     2
 10
352.5
 20
1305.375
 11
352.5
 21
1344.5
  0
TEXT
  8
0
  6
CONTINUOUS
 62
     2
 10
342.5
 20
1358.0
 30
3.0
 40
30.0
  1
６２
 50
90.0
 41
0.933333333
 51
0.0
  7
KANJI15
  0
LINE
  8
0
  6
CONTINUOUS
 62
     2
 10
352.5
 20
1905.5
 11
346.029523872
 21
1881.351854343
  0
LINE
  8
0
  6
CONTINUOUS
 62
     2
 10
352.5
 20
1905.5
 11
358.970476128
 21
1881.351854343
  0
TEXT
  8
0
  6
CONTINUOUS
 62
     2
 10
342.5
 20
1614.5
 30
3.0
 40
30.0
  1
４９２
 50
90.0
 41
0.933333333
 51
0.0
  7
KANJI15
  0
LINE
  8
0
  6
CONTINUOUS
 62
     2
 10
352.5
 20
1905.5
 11
358.970476128
 21
1929.648145657
  0
LINE
  8
0
  6
CONTINUOUS
 62
     2
 10
352.5
 20
1905.5
 11
346.029523872
 21
1929.648145657
  0
LINE
  8
0
  6
CONTINUOUS
 62
     2
 10
352.5
 20
1905.5
 11
352.5
 21
1967.5
  0
LINE
  8
0
  6
CONTINUOUS
 62
     2
 10
352.5
 20
1967.5
 11
346.029523872
 21
1943.351854343
  0
LINE
  8
0
  6
CONTINUOUS
 62
     2
 10
352.5
 20
1967.5
 11
358.970476128
 21
1943.351854343
  0
LINE
  8
0
  6
CONTINUOUS
 62
     2
 10
537.0
 20
1967.5
 11
337.5
 21
1967.5
  0
TEXT
  8
0
  6
CONTINUOUS
 62
     2
 10
342.5
 20
1907.0
 30
3.0
 40
30.0
  1
６２
 50
90.0
 41
0.933333333
 51
0.0
  7
KANJI15
  0
LINE
  8
0
  6
CONTINUOUS
 62
     2
 10
352.5
 20
1967.5
 11
352.5
 21
1974.5
  0
LINE
  8
0
  6
CONTINUOUS
 62
     2
 10
352.5
 20
1974.5
 11
346.029523872
 21
1998.648145657
  0
LINE
  8
0
  6
CONTINUOUS
 62
     2
 10
352.5
 20
1974.5
 11
358.970476128
 21
1998.648145657
  0
LINE
  8
0
  6
CONTINUOUS
 62
     2
 10
352.5
 20
2013.625
 11
352.5
 21
1974.5
  0
LINE
  8
0
  6
CONTINUOUS
 62
     2
 10
573.0
 20
2059.5
 11
267.0
 21
2059.5
  0
LINE
  8
0
  6
CONTINUOUS
 62
     2
 10
282.0
 20
2059.5
 11
275.529523872
 21
2035.351854343
  0
LINE
  8
0
  6
CONTINUOUS
 62
     2
 10
282.0
 20
2059.5
 11
288.470476128
 21
2035.351854343
  0
LINE
  8
0
  6
CONTINUOUS
 62
     2
 10
282.0
 20
2059.5
 11
282.0
 21
1259.5
  0
TEXT
  8
0
  6
CONTINUOUS
 62
     2
 10
272.0
 20
1614.5
 30
3.0
 40
30.0
  1
８００
 50
90.0
 41
0.933333333
 51
0.0
  7
KANJI15
  0
LINE
  8
0
  6
CONTINUOUS
 62
     2
 10
352.5
 20
1413.5
 11
352.5
 21
1905.5
  0
LINE
  8
0
  6
CONTINUOUS
 62
     2
 10
506.0
 20
1905.5
 11
337.5
 21
1905.5
  0
LINE
  8
0
  6
CONTINUOUS
 62
     2
 10
508.0
 20
1413.5
 11
337.5
 21
1413.5
  0
LINE
  8
0
  6
CONTINUOUS
 62
     2
 10
573.5
 20
1974.5
 11
337.5
 21
1974.5
  0
LINE
  8
0
  6
LTYPE1
 62
     2
 10
545.5
 20
1974.5
 11
573.5
 21
1974.5
  0
TEXT
  8
0
  6
CONTINUOUS
 62
     2
 10
759.5
 20
1973.75
 30
0.0
 40
35.0
  1
給油口兼点検口
 50
0.0
 41
0.9
 51
0.0
  7
KANJI16
  0
LINE
  8
0
  6
CONTINUOUS
 62
     1
 10
734.5
 20
1413.5
 11
734.5
 21
1453.5
  0
LINE
  8
0
  6
CONTINUOUS
 62
     1
 10
734.5
 20
1905.5
 11
734.5
 21
1865.5
  0
CIRCLE
  8
0
  6
CONTINUOUS
 62
     1
 10
680.5
 20
1729.5
 40
50.0
  0
LINE
  8
0
  6
LTYPE2
 62
     2
 10
620.39
 20
1729.5
 11
741.61
 21
1729.5
  0
LINE
  8
0
  6
LTYPE2
 62
     2
 10
680.5
 20
1669.03
 11
680.5
 21
1787.54
  0
LINE
  8
0
  6
CONTINUOUS
 62
     2
 10
696.842984203
 20
1776.753643958
 11
710.748118805
 21
1797.52976563
  0
LINE
  8
0
  6
CONTINUOUS
 62
     2
 10
696.842984203
 20
1776.753643958
 11
698.497123176
 21
1801.698860419
  0
LINE
  8
0
  6
CONTINUOUS
 62
     2
 10
696.842984203
 20
1776.753643958
 11
761.5
 21
1966.75
  0
LINE
  8
7
  6
CONTINUOUS
 62
     2
 10
490.5
 20
1865.5
 11
385.0
 21
1865.5
  0
LINE
  8
7
  6
CONTINUOUS
 62
     2
 10
405.0
 20
1865.5
 11
398.529523872
 21
1841.351854343
  0
LINE
  8
7
  6
CONTINUOUS
 62
     2
 10
405.0
 20
1865.5
 11
411.470476128
 21
1841.351854343
  0
LINE
  8
7
  6
CONTINUOUS
 62
     2
 10
405.0
 20
1865.5
 11
405.0
 21
1453.5
  0
LINE
  8
7
  6
CONTINUOUS
 62
     2
 10
405.0
 20
1453.5
 11
411.470476128
 21
1477.648145657
  0
LINE
  8
7
  6
CONTINUOUS
 62
     2
 10
405.0
 20
1453.5
 11
398.529523872
 21
1477.648145657
  0
LINE
  8
7
  6
CONTINUOUS
 62
     2
 10
496.5
 20
1453.5
 11
385.0
 21
1453.5
  0
TEXT
  8
7
  6
CONTINUOUS
 62
     2
 10
395.0
 20
1616.0
 30
3.0
 40
30.0
  1
４１２
 50
90.0
 41
0.9
 51
0.0
  7
KANJI17
  0
LINE
  8
7
  6
CONTINUOUS
 62
     2
 10
496.5
 20
1413.5
 11
385.0
 21
1413.5
  0
LINE
  8
7
  6
CONTINUOUS
 62
     2
 10
405.0
 20
1413.5
 11
398.529523872
 21
1389.351854343
  0
LINE
  8
7
  6
CONTINUOUS
 62
     2
 10
405.0
 20
1413.5
 11
411.470476128
 21
1389.351854343
  0
LINE
  8
7
  6
CONTINUOUS
 62
     2
 10
405.0
 20
1376.0
 11
405.0
 21
1413.5
  0
LINE
  8
7
  6
CONTINUOUS
 62
     2
 10
405.0
 20
1413.5
 11
405.0
 21
1453.5
  0
LINE
  8
7
  6
CONTINUOUS
 62
     2
 10
405.0
 20
1453.5
 11
405.0
 21
1491.0
  0
LINE
  8
7
  6
CONTINUOUS
 62
     2
 10
405.0
 20
1453.5
 11
411.470476128
 21
1477.648145657
  0
LINE
  8
7
  6
CONTINUOUS
 62
     2
 10
405.0
 20
1453.5
 11
398.529523872
 21
1477.648145657
  0
LINE
  8
7
  6
CONTINUOUS
 62
     2
 10
405.0
 20
1865.5
 11
398.529523872
 21
1841.351854343
  0
LINE
  8
7
  6
CONTINUOUS
 62
     2
 10
405.0
 20
1865.5
 11
411.470476128
 21
1841.351854343
  0
LINE
  8
7
  6
CONTINUOUS
 62
     2
 10
405.0
 20
1828.0
 11
405.0
 21
1865.5
  0
LINE
  8
7
  6
CONTINUOUS
 62
     2
 10
405.0
 20
1865.5
 11
405.0
 21
1905.5
  0
LINE
  8
7
  6
CONTINUOUS
 62
     2
 10
405.0
 20
1905.5
 11
405.0
 21
1943.0
  0
LINE
  8
7
  6
CONTINUOUS
 62
     2
 10
405.0
 20
1905.5
 11
411.470476128
 21
1929.648145657
  0
LINE
  8
7
  6
CONTINUOUS
 62
     2
 10
405.0
 20
1905.5
 11
398.529523872
 21
1929.648145657
  0
LINE
  8
7
  6
CONTINUOUS
 62
     2
 10
496.5
 20
1905.5
 11
385.0
 21
1905.5
  0
TEXT
  8
0
  6
CONTINUOUS
 62
     2
 10
396.5
 20
1308.0
 30
3.0
 40
30.0
  1
７
 50
90.0
 41
0.933333333
 51
0.0
  7
KANJI15
  0
LINE
  8
7
  6
CONTINUOUS
 62
     2
 10
352.5
 20
1344.5
 11
346.029523872
 21
1320.351854343
  0
LINE
  8
7
  6
CONTINUOUS
 62
     2
 10
352.5
 20
1344.5
 11
358.970476128
 21
1320.351854343
  0
LINE
  8
7
  6
CONTINUOUS
 62
     2
 10
352.5
 20
1344.5
 11
352.5
 21
1259.5
  0
LINE
  8
7
  6
CONTINUOUS
 62
     2
 10
352.5
 20
1259.5
 11
358.970476128
 21
1283.648145657
  0
LINE
  8
7
  6
CONTINUOUS
 62
     2
 10
352.5
 20
1259.5
 11
346.029523872
 21
1283.648145657
  0
LINE
  8
7
  6
CONTINUOUS
 62
     2
 10
292.0
 20
1259.5
 11
372.5
 21
1259.5
  0
TEXT
  8
7
  6
CONTINUOUS
 62
     2
 10
342.5
 20
1273.5
 30
3.0
 40
30.0
  1
８５
 50
90.0
 41
0.9
 51
0.0
  7
KANJI17
  0
TEXT
  8
0
  6
CONTINUOUS
 62
     2
 10
398.5
 20
1990.0
 30
3.0
 40
30.0
  1
７
 50
90.0
 41
0.933333333
 51
0.0
  7
KANJI15
  0
LINE
  8
7
  6
CONTINUOUS
 62
     2
 10
352.5
 20
1974.5
 11
358.970476128
 21
1998.648145657
  0
LINE
  8
7
  6
CONTINUOUS
 62
     2
 10
352.5
 20
1974.5
 11
346.029523872
 21
1998.648145657
  0
LINE
  8
7
  6
CONTINUOUS
 62
     2
 10
352.5
 20
1974.5
 11
352.5
 21
2059.5
  0
LINE
  8
7
  6
CONTINUOUS
 62
     2
 10
352.5
 20
2059.5
 11
346.029523872
 21
2035.351854343
  0
LINE
  8
7
  6
CONTINUOUS
 62
     2
 10
352.5
 20
2059.5
 11
358.970476128
 21
2035.351854343
  0
LINE
  8
7
  6
CONTINUOUS
 62
     2
 10
292.0
 20
2059.5
 11
372.5
 21
2059.5
  0
TEXT
  8
7
  6
CONTINUOUS
 62
     2
 10
342.5
 20
1988.5
 30
3.0
 40
30.0
  1
８５
 50
90.0
 41
0.9
 51
0.0
  7
KANJI17
  0
LINE
  8
0
  6
CONTINUOUS
 62
     2
 10
761.25
 20
1462.75
 11
761.25
 21
1532.75
  0
LINE
  8
0
  6
CONTINUOUS
 62
     2
 10
726.25
 20
1497.75
 11
796.25
 21
1497.75
  0
CIRCLE
  8
0
  6
LTYPE3
 62
     1
 10
761.25
 20
1497.75
 40
17.5
  0
CIRCLE
  8
0
  6
LTYPE3
 62
     1
 10
761.25
 20
1497.75
 40
28.0
  0
LINE
  8
0
  6
CONTINUOUS
 62
     2
 10
581.5
 20
1344.5
 11
559.849364905
 21
1332.0
  0
LINE
  8
0
  6
CONTINUOUS
 62
     2
 10
581.5
 20
1344.5
 11
569.0
 21
1322.849364905
  0
TEXT
  8
0
  6
CONTINUOUS
 62
     2
 10
520.377652485
 20
1298.519788108
 30
3.0
 40
30.0
  1
Ｒ
 50
45.0
 41
0.933333333
 51
0.0
  7
KANJI15
  0
LINE
  8
0
  6
CONTINUOUS
 62
     2
 10
581.5
 20
1344.5
 11
524.269788108
 21
1287.269788108
  0
POLYLINE
  8
0
  6
CONTINUOUS
 62
     1
 66
     1
  0
VERTEX
  8
0
  6
CONTINUOUS
 62
     1
 10
2070.0
 20
1738.5
  0
VERTEX
  8
0
  6
CONTINUOUS
 62
     1
 10
2085.0
 20
1738.5
  0
VERTEX
  8
0
  6
CONTINUOUS
 62
     1
 10
2085.0
 20
1709.5
  0
VERTEX
  8
0
  6
CONTINUOUS
 62
     1
 10
2325.0
 20
1709.5
  0
SEQEND
  0
LINE
  8
0
  6
CONTINUOUS
 62
     1
 10
2325.0
 20
1609.5
 11
2325.0
 21
1709.5
  0
LINE
  8
0
  6
LTYPE3
 62
     1
 10
2200.0
 20
1709.5
 11
2200.0
 21
1609.5
  0
LINE
  8
0
  6
LTYPE3
 62
     1
 10
2280.0
 20
1709.5
 11
2280.0
 21
1609.5
  0
LINE
  8
0
  6
CONTINUOUS
 62
     1
 10
2085.0
 20
1609.5
 11
2325.0
 21
1609.5
  0
LINE
  8
0
  6
CONTINUOUS
 62
     1
 10
2070.0
 20
1580.5
 11
2085.0
 21
1580.5
  0
LINE
  8
0
  6
CONTINUOUS
 62
     1
 10
2085.0
 20
1580.5
 11
2085.0
 21
1609.5
  0
LINE
  8
0
  6
CONTINUOUS
 62
     1
 10
2070.0
 20
1579.5
 11
2070.0
 21
1659.5
  0
TEXT
  8
7
  6
CONTINUOUS
 62
     2
 10
395.0
 20
1857.0
 30
0.0
 40
30.0
  1
４０
 50
90.0
 41
0.833333333
 51
0.0
  7
KANJI18
  0
TEXT
  8
7
  6
CONTINUOUS
 62
     2
 10
395.0
 20
1411.5
 30
0.0
 40
30.0
  1
４０
 50
90.0
 41
0.833333333
 51
0.0
  7
KANJI18
  0
LINE
  8
0
  6
LTYPE2
 62
     2
 10
2240.0
 20
1724.5
 11
2240.0
 21
1589.5
  0
LINE
  8
0
  6
CONTINUOUS
 62
     1
 10
2878.3
 20
1259.5
 11
2936.3
 21
1259.5
  0
LINE
  8
0
  6
CONTINUOUS
 62
     1
 10
2842.3
 20
1351.5
 11
2972.3
 21
1351.5
  0
LINE
  8
0
  6
CONTINUOUS
 62
     1
 10
2783.3
 20
1413.5
 11
3031.3
 21
1413.5
  0
LINE
  8
0
  6
CONTINUOUS
 62
     1
 10
2842.3
 20
1351.5
 11
2842.3
 21
1413.5
  0
LINE
  8
0
  6
CONTINUOUS
 62
     1
 10
2972.3
 20
1351.5
 11
2972.3
 21
1413.5
  0
LINE
  8
0
  6
CONTINUOUS
 62
     1
 10
2878.3
 20
1259.5
 11
2878.3
 21
1344.5
  0
LINE
  8
0
  6
CONTINUOUS
 62
     1
 10
2936.3
 20
1259.5
 11
2936.3
 21
1344.5
  0
LINE
  8
0
  6
CONTINUOUS
 62
     1
 10
2877.3
 20
1344.5
 11
2937.3
 21
1344.5
  0
LINE
  8
0
  6
CONTINUOUS
 62
     1
 10
2877.3
 20
1344.5
 11
2877.3
 21
1351.5
  0
LINE
  8
0
  6
CONTINUOUS
 62
     1
 10
2937.3
 20
1344.5
 11
2937.3
 21
1351.5
  0
ARC
  8
0
  6
CONTINUOUS
 62
     1
 10
2907.3
 20
1329.5
 40
8.0
 50
0.0
 51
180.0
  0
LINE
  8
0
  6
CONTINUOUS
 62
     1
 10
2899.3
 20
1259.5
 11
2899.3
 21
1329.5
  0
LINE
  8
0
  6
CONTINUOUS
 62
     1
 10
2899.3
 20
1329.5
 11
2915.3
 21
1329.5
  0
LINE
  8
0
  6
CONTINUOUS
 62
     1
 10
2915.3
 20
1259.5
 11
2915.3
 21
1329.5
  0
LINE
  8
0
  6
CONTINUOUS
 62
     1
 10
2936.3
 20
2059.5
 11
2878.3
 21
2059.5
  0
LINE
  8
0
  6
CONTINUOUS
 62
     1
 10
2972.3
 20
1967.5
 11
2842.3
 21
1967.5
  0
LINE
  8
0
  6
CONTINUOUS
 62
     1
 10
3031.3
 20
1905.5
 11
2783.3
 21
1905.5
  0
LINE
  8
0
  6
CONTINUOUS
 62
     1
 10
2972.3
 20
1967.5
 11
2972.3
 21
1905.5
  0
LINE
  8
0
  6
CONTINUOUS
 62
     1
 10
2842.3
 20
1967.5
 11
2842.3
 21
1905.5
  0
LINE
  8
0
  6
CONTINUOUS
 62
     1
 10
2936.3
 20
2059.5
 11
2936.3
 21
1974.5
  0
LINE
  8
0
  6
CONTINUOUS
 62
     1
 10
2878.3
 20
2059.5
 11
2878.3
 21
1974.5
  0
LINE
  8
0
  6
CONTINUOUS
 62
     1
 10
2937.3
 20
1974.5
 11
2877.3
 21
1974.5
  0
LINE
  8
0
  6
CONTINUOUS
 62
     1
 10
2937.3
 20
1974.5
 11
2937.3
 21
1967.5
  0
LINE
  8
0
  6
CONTINUOUS
 62
     1
 10
2877.3
 20
1974.5
 11
2877.3
 21
1967.5
  0
ARC
  8
0
  6
CONTINUOUS
 62
     1
 10
2907.3
 20
1989.5
 40
8.0
 50
180.0
 51
0.0
  0
LINE
  8
0
  6
CONTINUOUS
 62
     1
 10
2915.3
 20
2059.5
 11
2915.3
 21
1989.5
  0
LINE
  8
0
  6
CONTINUOUS
 62
     1
 10
2915.3
 20
1989.5
 11
2899.3
 21
1989.5
  0
LINE
  8
0
  6
CONTINUOUS
 62
     1
 10
2899.3
 20
2059.5
 11
2899.3
 21
1989.5
  0
LINE
  8
0
  6
CONTINUOUS
 62
     2
 10
2512.6
 20
1974.5
 11
2506.129523872
 21
1950.351854343
  0
LINE
  8
0
  6
CONTINUOUS
 62
     2
 10
2512.6
 20
1974.5
 11
2519.070476128
 21
1950.351854343
  0
LINE
  8
0
  6
CONTINUOUS
 62
     2
 10
2512.6
 20
1974.5
 11
2512.6
 21
1344.5
  0
LINE
  8
0
  6
CONTINUOUS
 62
     2
 10
2512.6
 20
1344.5
 11
2519.070476128
 21
1368.648145657
  0
LINE
  8
0
  6
CONTINUOUS
 62
     2
 10
2512.6
 20
1344.5
 11
2506.129523872
 21
1368.648145657
  0
TEXT
  8
0
  6
CONTINUOUS
 62
     2
 10
2502.6
 20
1614.5
 30
3.0
 40
30.0
  1
６３０
 50
90.0
 41
0.933333333
 51
0.0
  7
KANJI15
  0
LINE
  8
0
  6
CONTINUOUS
 62
     2
 10
2512.6
 20
1344.5
 11
2506.129523872
 21
1320.351854343
  0
LINE
  8
0
  6
CONTINUOUS
 62
     2
 10
2512.6
 20
1344.5
 11
2519.070476128
 21
1320.351854343
  0
LINE
  8
0
  6
CONTINUOUS
 62
     2
 10
2512.6
 20
1344.5
 11
2512.6
 21
1259.5
  0
LINE
  8
0
  6
CONTINUOUS
 62
     2
 10
2512.6
 20
1259.5
 11
2519.070476128
 21
1283.648145657
  0
LINE
  8
0
  6
CONTINUOUS
 62
     2
 10
2512.6
 20
1259.5
 11
2506.129523872
 21
1283.648145657
  0
TEXT
  8
0
  6
CONTINUOUS
 62
     2
 10
2502.6
 20
1272.5
 30
3.0
 40
30.0
  1
８５
 50
90.0
 41
0.933333333
 51
0.0
  7
KANJI15
  0
LINE
  8
0
  6
CONTINUOUS
 62
     2
 10
2512.6
 20
1974.5
 11
2519.070476128
 21
1998.648145657
  0
LINE
  8
0
  6
CONTINUOUS
 62
     2
 10
2512.6
 20
1974.5
 11
2506.129523872
 21
1998.648145657
  0
LINE
  8
0
  6
CONTINUOUS
 62
     2
 10
2512.6
 20
1974.5
 11
2512.6
 21
2059.5
  0
LINE
  8
0
  6
CONTINUOUS
 62
     2
 10
2512.6
 20
2059.5
 11
2506.129523872
 21
2035.351854343
  0
LINE
  8
0
  6
CONTINUOUS
 62
     2
 10
2512.6
 20
2059.5
 11
2519.070476128
 21
2035.351854343
  0
TEXT
  8
0
  6
CONTINUOUS
 62
     2
 10
2502.6
 20
1987.5
 30
3.0
 40
30.0
  1
８５
 50
90.0
 41
0.933333333
 51
0.0
  7
KANJI15
  0
LINE
  8
0
  6
CONTINUOUS
 62
     2
 10
2869.1
 20
2059.5
 11
2497.6
 21
2059.5
  0
LINE
  8
0
  6
CONTINUOUS
 62
     2
 10
2866.1
 20
1974.5
 11
2497.6
 21
1974.5
  0
LINE
  8
0
  6
CONTINUOUS
 62
     2
 10
2869.1
 20
1259.5
 11
2497.6
 21
1259.5
  0
LINE
  8
0
  6
LTYPE2
 62
     2
 10
2907.3
 20
2084.5
 11
2907.3
 21
1232.5
  0
LINE
  8
0
  6
CONTINUOUS
 62
     1
 10
2783.3
 20
1905.5
 11
2783.3
 21
1865.5
  0
LINE
  8
0
  6
CONTINUOUS
 62
     1
 10
3031.3
 20
1905.5
 11
3031.3
 21
1865.5
  0
LINE
  8
0
  6
CONTINUOUS
 62
     1
 10
3031.3
 20
1413.5
 11
3031.3
 21
1453.5
  0
LINE
  8
0
  6
CONTINUOUS
 62
     1
 10
2783.3
 20
1413.5
 11
2783.3
 21
1453.5
  0
CIRCLE
  8
0
  6
CONTINUOUS
 62
     1
 10
2907.3
 20
1659.5
 40
204.0
  0
LINE
  8
0
  6
CONTINUOUS
 62
     2
 10
2865.1
 20
1344.5
 11
2497.6
 21
1344.5
  0
LINE
  8
0
  6
CONTINUOUS
 62
     2
 10
2335.0
 20
1709.5
 11
2431.5
 21
1709.5
  0
LINE
  8
0
  6
CONTINUOUS
 62
     2
 10
2421.5
 20
1709.5
 11
2415.029523872
 21
1685.351854343
  0
LINE
  8
0
  6
CONTINUOUS
 62
     2
 10
2421.5
 20
1709.5
 11
2427.970476128
 21
1685.351854343
  0
LINE
  8
0
  6
CONTINUOUS
 62
     2
 10
2421.5
 20
1709.5
 11
2421.5
 21
1609.5
  0
LINE
  8
0
  6
CONTINUOUS
 62
     2
 10
2421.5
 20
1609.5
 11
2427.970476128
 21
1633.648145657
  0
LINE
  8
0
  6
CONTINUOUS
 62
     2
 10
2421.5
 20
1609.5
 11
2415.029523872
 21
1633.648145657
  0
LINE
  8
0
  6
CONTINUOUS
 62
     2
 10
2335.0
 20
1609.5
 11
2431.5
 21
1609.5
  0
TEXT
  8
0
  6
CONTINUOUS
 62
     2
 10
2414.5
 20
1619.0
 30
0.0
 40
30.0
  1
１００
 50
90.0
 41
0.9
 51
0.0
  7
KANJI19
  0
ARC
  8
0
  6
CONTINUOUS
 62
     1
 10
2907.3
 20
1659.5
 40
61.0
 50
304.94801372
 51
55.05198628
  0
ARC
  8
0
  6
CONTINUOUS
 62
     1
 10
2907.3
 20
1659.5
 40
61.0
 50
124.94801372
 51
235.05198628
  0
LINE
  8
0
  6
CONTINUOUS
 62
     1
 10
2846.136285267
 20
1709.5
 11
2968.463714733
 21
1709.5
  0
ARC
  8
0
  6
CONTINUOUS
 62
     1
 10
2907.3
 20
1659.5
 40
79.0
 50
140.734752086
 51
219.265247914
  0
LINE
  8
0
  6
CONTINUOUS
 62
     1
 10
2846.136285267
 20
1609.5
 11
2968.463714733
 21
1609.5
  0
ARC
  8
0
  6
CONTINUOUS
 62
     1
 10
2907.3
 20
1659.5
 40
79.0
 50
320.734752086
 51
39.265247914
  0
CIRCLE
  8
0
  6
CONTINUOUS
 62
     1
 10
2907.3
 20
1659.5
 40
80.0
  0
LINE
  8
0
  6
CONTINUOUS
 62
     2
 10
2200.0
 20
1719.5
 11
2200.0
 21
1762.0
  0
LINE
  8
0
  6
CONTINUOUS
 62
     2
 10
2200.0
 20
1752.0
 11
2224.148145657
 21
1745.529523872
  0
LINE
  8
0
  6
CONTINUOUS
 62
     2
 10
2200.0
 20
1752.0
 11
2224.148145657
 21
1758.470476128
  0
LINE
  8
0
  6
CONTINUOUS
 62
     2
 10
2200.0
 20
1752.0
 11
2280.0
 21
1752.0
  0
LINE
  8
0
  6
CONTINUOUS
 62
     2
 10
2280.0
 20
1752.0
 11
2255.851854343
 21
1758.470476128
  0
LINE
  8
0
  6
CONTINUOUS
 62
     2
 10
2280.0
 20
1752.0
 11
2255.851854343
 21
1745.529523872
  0
LINE
  8
0
  6
CONTINUOUS
 62
     2
 10
2280.0
 20
1719.5
 11
2280.0
 21
1762.0
  0
TEXT
  8
0
  6
CONTINUOUS
 62
     2
 10
2159.0
 20
1759.0
 30
0.0
 40
30.0
  1
φ８０Ｈ１０
 50
0.0
 41
0.9
 51
0.0
  7
KANJI19
  0
TEXT
  8
0
  6
CONTINUOUS
 62
     2
 10
3243.0
 20
346.0
 30
0.0
 40
30.0
  1
Ｓ
 50
0.0
 41
0.9
 51
0.0
  7
KANJI19
  0
CIRCLE
  8
0
  6
CONTINUOUS
 62
     2
 10
3256.5
 20
360.5
 40
17.0
  0
LINE
  8
0
  6
CONTINUOUS
 62
     2
 10
610.5
 20
1193.375
 11
610.5
 21
1228.375
  0
LINE
  8
0
  6
CONTINUOUS
 62
     1
 10
1958.0
 20
1579.5
 11
2070.0
 21
1579.5
  0
TEXT
  8
0
  6
CONTINUOUS
 62
     3
 10
362.686658
 20
42.306666
 30
0.0
 40
40.0
  1
ＦＤ　Ｎｏ．ＳＣ２０
 50
0.0
 41
0.925
 51
0.0
  7
KANJI20
  0
LINE
  8
0
  6
CONTINUOUS
 62
     1
 10
2070.0
 20
1739.5
 11
2070.0
 21
1659.5
  0
LINE
  8
0
  6
CONTINUOUS
 62
     1
 10
1958.0
 20
1739.5
 11
2070.0
 21
1739.5
  0
TEXT
  8
0
  6
CONTINUOUS
 62
     2
 10
958.0
 20
2293.5
 30
3.0
 40
30.0
  1
新ＪＩＳキー付
 50
0.0
 41
0.9
 51
0.0
  7
KANJI17
  0
LINE
  8
0
  6
CONTINUOUS
 62
     2
 10
919.0
 20
2332.5
 11
1247.0
 21
2332.5
  0
TEXT
  8
0
  6
CONTINUOUS
 62
     2
 10
948.0
 20
2346.5
 30
5.0
 40
40.0
  1
入力シャフト
 50
0.0
 41
1.0
 51
0.0
  7
KANJI21
  0
LINE
  8
0
  6
CONTINUOUS
 62
     1
 10
1049.0
 20
2540.5
 11
1081.0
 21
2540.5
  0
LINE
  8
0
  6
CONTINUOUS
 62
     1
 10
1081.0
 20
2540.5
 11
1081.0
 21
2520.5
  0
ARC
  8
0
  6
CONTINUOUS
 62
     1
 10
1065.0
 20
2474.5
 40
58.0
 50
106.013394424
 51
0.0
  0
LINE
  8
0
  6
CONTINUOUS
 62
     1
 10
1049.0
 20
2520.5
 11
1081.0
 21
2520.5
  0
LINE
  8
0
  6
CONTINUOUS
 62
     1
 10
1049.0
 20
2540.5
 11
1049.0
 21
2520.5
  0
ARC
  8
0
  6
CONTINUOUS
 62
     1
 10
1065.0
 20
2474.5
 40
58.0
 50
0.0
 51
73.986605576
  0
ARC
  8
0
  6
LTYPE2
 62
     2
 10
1065.0
 20
2474.5
 40
58.0
 50
73.986605576
 51
90.000060026
  0
LINE
  8
0
  6
LTYPE2
 62
     2
 10
1065.0
 20
2550.5625
 11
1065.0
 21
2475.0625
  0
LINE
  8
0
  6
LTYPE2
 62
     2
 10
995.0
 20
2474.5
 11
1135.0
 21
2474.5
  0
LINE
  8
0
  6
LTYPE2
 62
     2
 10
1065.0
 20
2475.0625
 11
1065.0
 21
2409.5
  0
LINE
  8
7
  6
CONTINUOUS
 62
     2
 10
1049.0
 20
2550.5
 11
1049.0
 21
2622.0
  0
LINE
  8
7
  6
CONTINUOUS
 62
     2
 10
1049.0
 20
2602.0
 11
1024.851854343
 21
2608.470476128
  0
LINE
  8
7
  6
CONTINUOUS
 62
     2
 10
1049.0
 20
2602.0
 11
1024.851854343
 21
2595.529523872
  0
LINE
  8
7
  6
CONTINUOUS
 62
     2
 10
1011.5
 20
2602.0
 11
1049.0
 21
2602.0
  0
LINE
  8
7
  6
CONTINUOUS
 62
     2
 10
1049.0
 20
2602.0
 11
1081.0
 21
2602.0
  0
LINE
  8
7
  6
CONTINUOUS
 62
     2
 10
1081.0
 20
2602.0
 11
1118.5
 21
2602.0
  0
LINE
  8
7
  6
CONTINUOUS
 62
     2
 10
1081.0
 20
2602.0
 11
1105.148145657
 21
2595.529523872
  0
LINE
  8
7
  6
CONTINUOUS
 62
     2
 10
1081.0
 20
2602.0
 11
1105.148145657
 21
2608.470476128
  0
LINE
  8
7
  6
CONTINUOUS
 62
     2
 10
1081.0
 20
2550.5
 11
1081.0
 21
2622.0
  0
TEXT
  8
7
  6
CONTINUOUS
 62
     2
 10
1021.0
 20
2612.0
 30
3.0
 40
30.0
  1
１６
 50
0.0
 41
0.9
 51
0.0
  7
KANJI17
  0
LINE
  8
7
  6
CONTINUOUS
 62
     2
 10
1039.0
 20
2520.5
 11
931.0
 21
2520.5
  0
LINE
  8
7
  6
CONTINUOUS
 62
     2
 10
951.0
 20
2520.5
 11
944.529523872
 21
2496.351854343
  0
LINE
  8
7
  6
CONTINUOUS
 62
     2
 10
951.0
 20
2520.5
 11
957.470476128
 21
2496.351854343
  0
LINE
  8
7
  6
CONTINUOUS
 62
     2
 10
951.0
 20
2483.0
 11
951.0
 21
2520.5
  0
LINE
  8
7
  6
CONTINUOUS
 62
     2
 10
951.0
 20
2520.5
 11
951.0
 21
2540.5
  0
LINE
  8
7
  6
CONTINUOUS
 62
     2
 10
951.0
 20
2540.5
 11
951.0
 21
2635.0
  0
LINE
  8
7
  6
CONTINUOUS
 62
     2
 10
951.0
 20
2540.5
 11
957.470476128
 21
2564.648145657
  0
LINE
  8
7
  6
CONTINUOUS
 62
     2
 10
951.0
 20
2540.5
 11
944.529523872
 21
2564.648145657
  0
LINE
  8
7
  6
CONTINUOUS
 62
     2
 10
1039.0
 20
2540.5
 11
931.0
 21
2540.5
  0
TEXT
  8
7
  6
CONTINUOUS
 62
     2
 10
941.0
 20
2578.0
 30
3.0
 40
30.0
  1
１０
 50
90.0
 41
0.9
 51
0.0
  7
KANJI17
  0
LINE
  8
7
  6
CONTINUOUS
 62
     2
 10
1091.0
 20
2520.5
 11
1214.0
 21
2520.5
  0
LINE
  8
7
  6
CONTINUOUS
 62
     2
 10
1194.0
 20
2520.5
 11
1187.529523872
 21
2496.351854343
  0
LINE
  8
7
  6
CONTINUOUS
 62
     2
 10
1194.0
 20
2520.5
 11
1200.470476128
 21
2496.351854343
  0
LINE
  8
7
  6
CONTINUOUS
 62
     2
 10
1194.0
 20
2483.0
 11
1194.0
 21
2520.5
  0
LINE
  8
7
  6
CONTINUOUS
 62
     2
 10
1194.0
 20
2520.5
 11
1194.0
 21
2532.5
  0
LINE
  8
7
  6
CONTINUOUS
 62
     2
 10
1194.0
 20
2532.5
 11
1194.0
 21
2597.0
  0
LINE
  8
7
  6
CONTINUOUS
 62
     2
 10
1194.0
 20
2532.5
 11
1200.470476128
 21
2556.648145657
  0
LINE
  8
7
  6
CONTINUOUS
 62
     2
 10
1194.0
 20
2532.5
 11
1187.529523872
 21
2556.648145657
  0
LINE
  8
7
  6
CONTINUOUS
 62
     2
 10
1074.999939236
 20
2532.5
 11
1214.0
 21
2532.5
  0
TEXT
  8
7
  6
CONTINUOUS
 62
     2
 10
1184.0
 20
2570.0
 30
3.0
 40
30.0
  1
６
 50
90.0
 41
0.9
 51
0.0
  7
KANJI17
  0
TEXT
  8
0
  6
CONTINUOUS
 62
     2
 10
1185.0
 20
2596.5
 30
1.8
 40
18.0
  1
－０
 50
90.0
 41
0.933333333
 51
0.0
  7
KANJI22
  0
TEXT
  8
0
  6
CONTINUOUS
 62
     2
 10
1167.0
 20
2596.5
 30
1.8
 40
18.0
  1
＋０．２
 50
90.0
 41
0.933333333
 51
0.0
  7
KANJI22
  0
TEXT
  8
0
  6
CONTINUOUS
 62
     2
 10
495.0
 20
2404.0
 30
0.0
 40
30.0
  1
シャフト回転方向
 50
0.0
 41
0.9
 51
0.0
  7
KANJI19
  0
LINE
  8
0
  6
CONTINUOUS
 62
     2
 10
661.0
 20
2374.0
 11
636.851854343
 21
2380.470476128
  0
LINE
  8
0
  6
CONTINUOUS
 62
     2
 10
661.0
 20
2374.0
 11
636.851854343
 21
2367.529523872
  0
LINE
  8
0
  6
CONTINUOUS
 62
     2
 10
661.0
 20
2374.0
 11
513.0
 21
2374.0
  0
LINE
  8
0
  6
LTYPE1
 62
     2
 10
513.0
 20
2344.0
 11
537.148145657
 21
2350.470476128
  0
LINE
  8
0
  6
LTYPE1
 62
     2
 10
513.0
 20
2344.0
 11
537.148145657
 21
2337.529523872
  0
LINE
  8
0
  6
LTYPE1
 62
     2
 10
513.0
 20
2344.0
 11
661.0
 21
2344.0
  0
LINE
  8
0
  6
CONTINUOUS
 62
     1
 10
480.5
 20
1865.5
 11
480.5
 21
1453.5
  0
LINE
  8
0
  6
CONTINUOUS
 62
     1
 10
460.5
 20
1469.5
 11
460.5
 21
1458.55046
  0
LINE
  8
0
  6
CONTINUOUS
 62
     1
 10
460.5
 20
1469.5
 11
460.5
 21
1480.44954
  0
LINE
  8
0
  6
CONTINUOUS
 62
     1
 10
452.4789
 20
1461.23198
 11
454.027076294
 21
1458.55046
  0
LINE
  8
0
  6
CONTINUOUS
 62
     1
 10
452.4789
 20
1469.5
 11
452.4789
 21
1461.23198
  0
LINE
  8
0
  6
CONTINUOUS
 62
     1
 10
452.4789
 20
1477.76802
 11
454.027076294
 21
1480.44954
  0
LINE
  8
0
  6
CONTINUOUS
 62
     1
 10
452.4789
 20
1469.5
 11
452.4789
 21
1477.76802
  0
ARC
  8
0
  6
CONTINUOUS
 62
     1
 10
462.933121693
 20
1469.5
 40
10.454221693
 50
148.419912243
 51
211.580087757
  0
ARC
  8
0
  6
CONTINUOUS
 62
     1
 10
455.672013606
 20
1461.287845
 40
3.193602261
 50
121.002313915
 51
182.989498403
  0
LINE
  8
0
  6
CONTINUOUS
 62
     1
 10
452.4789
 20
1477.76802
 11
454.027076294
 21
1480.44954
  0
ARC
  8
0
  6
CONTINUOUS
 62
     1
 10
455.672013606
 20
1477.712155
 40
3.193602261
 50
177.010501597
 51
238.997686085
  0
LINE
  8
0
  6
CONTINUOUS
 62
     1
 10
460.5
 20
1458.55046
 11
454.027076294
 21
1458.55046
  0
LINE
  8
0
  6
CONTINUOUS
 62
     1
 10
460.5
 20
1464.02523
 11
454.027076294
 21
1464.02523
  0
LINE
  8
0
  6
CONTINUOUS
 62
     1
 10
460.5
 20
1474.97477
 11
454.027076294
 21
1474.97477
  0
LINE
  8
0
  6
CONTINUOUS
 62
     1
 10
460.5
 20
1480.44954
 11
454.027076294
 21
1480.44954
  0
LINE
  8
0
  6
CONTINUOUS
 62
     1
 10
460.5
 20
1865.5
 11
460.5
 21
1453.5
  0
LINE
  8
0
  6
CONTINUOUS
 62
     1
 10
460.5
 20
1849.5
 11
460.5
 21
1860.44954
  0
LINE
  8
0
  6
CONTINUOUS
 62
     1
 10
460.5
 20
1849.5
 11
460.5
 21
1838.55046
  0
LINE
  8
0
  6
CONTINUOUS
 62
     1
 10
452.4789
 20
1857.76802
 11
454.027076294
 21
1860.44954
  0
LINE
  8
0
  6
CONTINUOUS
 62
     1
 10
452.4789
 20
1849.5
 11
452.4789
 21
1857.76802
  0
LINE
  8
0
  6
CONTINUOUS
 62
     1
 10
452.4789
 20
1841.23198
 11
454.027076294
 21
1838.55046
  0
LINE
  8
0
  6
CONTINUOUS
 62
     1
 10
452.4789
 20
1849.5
 11
452.4789
 21
1841.23198
  0
ARC
  8
0
  6
CONTINUOUS
 62
     1
 10
462.933121693
 20
1849.5
 40
10.454221693
 50
148.419912243
 51
211.580087757
  0
ARC
  8
0
  6
CONTINUOUS
 62
     1
 10
455.672013606
 20
1857.712155
 40
3.193602261
 50
177.010501597
 51
238.997686085
  0
LINE
  8
0
  6
CONTINUOUS
 62
     1
 10
452.4789
 20
1841.23198
 11
454.027076294
 21
1838.55046
  0
ARC
  8
0
  6
CONTINUOUS
 62
     1
 10
455.672013606
 20
1841.287845
 40
3.193602261
 50
121.002313915
 51
182.989498403
  0
LINE
  8
0
  6
CONTINUOUS
 62
     1
 10
460.5
 20
1860.44954
 11
454.027076294
 21
1860.44954
  0
LINE
  8
0
  6
CONTINUOUS
 62
     1
 10
460.5
 20
1854.97477
 11
454.027076294
 21
1854.97477
  0
LINE
  8
0
  6
CONTINUOUS
 62
     1
 10
460.5
 20
1844.02523
 11
454.027076294
 21
1844.02523
  0
LINE
  8
0
  6
CONTINUOUS
 62
     1
 10
460.5
 20
1838.55046
 11
454.027076294
 21
1838.55046
  0
LINE
  8
0
  6
LTYPE2
 62
     2
 10
449.5
 20
1849.5
 11
505.5
 21
1849.5
  0
LINE
  8
0
  6
LTYPE2
 62
     2
 10
449.5
 20
1469.5
 11
505.5
 21
1469.5
  0
TEXT
  8
0
  6
CONTINUOUS
 62
     3
 10
3158.5
 20
404.0
 30
3.0
 40
30.0
  1
ＳＣＤ３０Ａ
 50
0.0
 41
0.9
 51
0.0
  7
KANJI17
  0
TEXT
  8
0
  6
CONTINUOUS
 62
     3
 10
3278.666727
 20
250.99999
 30
21.666666667
 40
50.0
  1
Ａ３００２０２８
 50
0.0
 41
0.8
 51
0.0
  7
KANJI23
  0
TEXT
  8
0
  6
CONTINUOUS
 62
     2
 10
3311.333333333
 20
2584.333333333
 30
28.4994
 40
45.0
  1
マイティシリンダ仕様
 50
0.0
 41
0.9
 51
0.0
  7
KANJI24
  0
TEXT
  8
0
  6
CONTINUOUS
 62
     2
 10
3261.333333333
 20
2505.333333333
 30
300.742857143
 40
38.0
  1
形式
 50
0.0
 41
0.9
 51
0.0
  7
KANJI25
  0
LINE
  8
0
  6
CONTINUOUS
 62
     1
 10
3186.333333333
 20
2657.333333333
 11
4050.0
 21
2657.333333333
  0
LINE
  8
0
  6
CONTINUOUS
 62
     2
 10
3186.333333333
 20
2557.333333333
 11
4050.0
 21
2557.333333333
  0
LINE
  8
0
  6
CONTINUOUS
 62
     2
 10
3186.333333333
 20
2487.333333333
 11
4050.0
 21
2487.333333333
  0
LINE
  8
0
  6
CONTINUOUS
 62
     2
 10
3186.333333333
 20
2417.333333333
 11
4050.0
 21
2417.333333333
  0
TEXT
  8
0
  6
CONTINUOUS
 62
     2
 10
3261.333333333
 20
2435.333333333
 30
300.742857143
 40
38.0
  1
推力
 50
0.0
 41
0.9
 51
0.0
  7
KANJI25
  0
TEXT
  8
0
  6
CONTINUOUS
 62
     2
 10
3703.833333333
 20
2435.333333333
 30
3.0
 40
30.0
  1
２９４ＫＮ（３ｔｏｎ）
 50
0.0
 41
0.9
 51
0.0
  7
KANJI26
  0
TEXT
  8
0
  6
CONTINUOUS
 62
     2
 10
3999.833333333
 20
2369.333333333
 30
0.224
 40
28.0
  1
ｍｍ
 50
0.0
 41
0.8
 51
0.0
  7
KANJI27
  0
TEXT
  8
0
  6
CONTINUOUS
 62
     2
 10
3259.833333333
 20
2296.333333333
 30
77.447257143
 40
38.0
  1
公称速度
 50
0.0
 41
0.9
 51
0.0
  7
KANJI28
  0
TEXT
  8
0
  6
CONTINUOUS
 62
     2
 10
3229.833333333
 20
1946.333333333
 30
3.257142857
 40
38.0
  1
ピストンロッド回転トルク
 50
0.0
 41
0.9
 51
0.0
  7
KANJI29
  0
TEXT
  8
0
  6
CONTINUOUS
 62
     2
 10
3259.833333333
 20
2156.333333333
 30
8.5
 40
38.0
  1
進み量／入力１回転
 50
0.0
 41
0.9
 51
0.0
  7
KANJI30
  0
TEXT
  8
0
  6
CONTINUOUS
 62
     2
 10
3259.833333333
 20
2085.333333333
 30
300.742857143
 40
38.0
  1
効率
 50
0.0
 41
0.9
 51
0.0
  7
KANJI25
  0
TEXT
  8
0
  6
CONTINUOUS
 62
     2
 10
3259.833333333
 20
1806.333333333
 30
77.45
 40
38.0
  1
ギヤ方式
 50
0.0
 41
0.9
 51
0.0
  7
KANJI31
  0
TEXT
  8
0
  6
CONTINUOUS
 62
     2
 10
3259.833333333
 20
1596.333333333
 30
133.271428571
 40
38.0
  1
塗装色
 50
0.0
 41
0.9
 51
0.0
  7
KANJI32
  0
TEXT
  8
0
  6
CONTINUOUS
 62
     2
 10
3259.833333333
 20
1526.333333333
 30
133.271428571
 40
38.0
  1
付属品
 50
0.0
 41
0.9
 51
0.0
  7
KANJI32
  0
TEXT
  8
0
  6
CONTINUOUS
 62
     2
 10
3259.833333333
 20
1456.333333333
 30
300.742857143
 40
38.0
  1
台数
 50
0.0
 41
0.9
 51
0.0
  7
KANJI25
  0
TEXT
  8
0
  6
CONTINUOUS
 62
     2
 10
3259.833333333
 20
1666.333333333
 30
300.742857143
 40
38.0
  1
潤滑
 50
0.0
 41
0.9
 51
0.0
  7
KANJI25
  0
TEXT
  8
0
  6
CONTINUOUS
 62
     2
 10
3259.833333333
 20
1736.333333333
 30
21.767
 40
38.0
  1
スクリュー方式
 50
0.0
 41
0.9
 51
0.0
  7
KANJI33
  0
TEXT
  8
0
  6
CONTINUOUS
 62
     2
 10
3861.833333333
 20
2088.333333333
 30
20.0
 40
30.0
  1
８５
 50
0.0
 41
0.9
 51
0.0
  7
KANJI34
  0
TEXT
  8
0
  6
CONTINUOUS
 62
     2
 10
3998.333333333
 20
2160.333333333
 30
0.224
 40
28.0
  1
ｍｍ
 50
0.0
 41
0.8
 51
0.0
  7
KANJI27
  0
TEXT
  8
0
  6
CONTINUOUS
 62
     2
 10
3713.833333333
 20
2088.333333333
 30
20.0
 40
30.0
  1
約
 50
0.0
 41
0.9
 51
0.0
  7
KANJI34
  0
TEXT
  8
0
  6
CONTINUOUS
 62
     2
 10
3713.833333333
 20
2018.333333333
 30
20.0
 40
30.0
  1
約
 50
0.0
 41
0.9
 51
0.0
  7
KANJI34
  0
TEXT
  8
0
  6
CONTINUOUS
 62
     2
 10
3713.833333333
 20
1948.333333333
 30
20.0
 40
30.0
  1
約
 50
0.0
 41
0.9
 51
0.0
  7
KANJI34
  0
TEXT
  8
0
  6
CONTINUOUS
 62
     2
 10
4009.833333333
 20
2087.333333333
 30
20.0
 40
30.0
  1
％
 50
0.0
 41
0.9
 51
0.0
  7
KANJI34
  0
TEXT
  8
0
  6
CONTINUOUS
 62
     2
 10
3758.833333333
 20
1811.333333333
 30
20.0
 40
30.0
  1
ベベルギヤ
 50
0.0
 41
0.9
 51
0.0
  7
KANJI34
  0
TEXT
  8
0
  6
CONTINUOUS
 62
     2
 10
3757.833333333
 20
1529.333333333
 30
3.0
 40
30.0
  1
入力キー
 50
0.0
 41
0.9
 51
0.0
  7
KANJI26
  0
TEXT
  8
0
  6
CONTINUOUS
 62
     2
 10
3259.833333333
 20
2017.333333333
 30
14.5
 40
38.0
  1
定格時入力トルク
 50
0.0
 41
0.9
 51
0.0
  7
KANJI35
  0
LINE
  8
0
  6
CONTINUOUS
 62
     2
 10
3184.833333333
 20
2348.333333333
 11
4048.5
 21
2348.333333333
  0
LINE
  8
0
  6
CONTINUOUS
 62
     2
 10
3184.833333333
 20
2278.333333333
 11
4048.5
 21
2278.333333333
  0
LINE
  8
0
  6
CONTINUOUS
 62
     2
 10
3184.833333333
 20
2208.333333333
 11
4048.5
 21
2208.333333333
  0
LINE
  8
0
  6
CONTINUOUS
 62
     2
 10
3184.833333333
 20
2138.333333333
 11
4048.5
 21
2138.333333333
  0
LINE
  8
0
  6
CONTINUOUS
 62
     2
 10
3184.833333333
 20
2068.333333333
 11
4048.5
 21
2068.333333333
  0
LINE
  8
0
  6
CONTINUOUS
 62
     2
 10
3184.833333333
 20
1998.333333333
 11
4048.5
 21
1998.333333333
  0
LINE
  8
0
  6
CONTINUOUS
 62
     2
 10
3184.833333333
 20
1928.333333333
 11
4048.5
 21
1928.333333333
  0
LINE
  8
0
  6
CONTINUOUS
 62
     2
 10
3184.833333333
 20
1858.333333333
 11
4048.5
 21
1858.333333333
  0
LINE
  8
0
  6
CONTINUOUS
 62
     2
 10
3184.833333333
 20
1788.333333333
 11
4048.5
 21
1788.333333333
  0
LINE
  8
0
  6
CONTINUOUS
 62
     2
 10
3184.833333333
 20
1718.333333333
 11
4048.5
 21
1718.333333333
  0
LINE
  8
0
  6
CONTINUOUS
 62
     2
 10
3184.833333333
 20
1648.333333333
 11
4048.5
 21
1648.333333333
  0
LINE
  8
0
  6
CONTINUOUS
 62
     2
 10
3184.833333333
 20
1578.333333333
 11
4048.5
 21
1578.333333333
  0
LINE
  8
0
  6
CONTINUOUS
 62
     2
 10
3184.833333333
 20
1508.333333333
 11
4048.5
 21
1508.333333333
  0
TEXT
  8
0
  6
CONTINUOUS
 62
     2
 10
3750.33974359
 20
1739.333333333
 30
20.0
 40
30.0
  1
ボールネジ
 50
0.0
 41
0.9
 51
0.0
  7
KANJI34
  0
TEXT
  8
0
  6
CONTINUOUS
 62
     2
 10
3687.833333333
 20
1599.333333333
 30
1.0
 40
28.0
  1
マンセル７．５ＧＹ５／４．５
 50
0.0
 41
0.9
 51
0.0
  7
KANJI36
  0
TEXT
  8
0
  6
CONTINUOUS
 62
     2
 10
3761.583333333
 20
2296.083333333
 30
3.0
 40
30.0
  1
１５０
 50
0.0
 41
0.9
 51
0.0
  7
KANJI26
  0
TEXT
  8
0
  6
CONTINUOUS
 62
     2
 10
3909.333333333
 20
2303.333333333
 30
0.224
 40
28.0
  1
ｍｍ／ｓｅｃ
 50
0.0
 41
0.8
 51
0.0
  7
KANJI27
  0
TEXT
  8
0
  6
CONTINUOUS
 62
     2
 10
3259.833333333
 20
2226.333333333
 30
133.271428571
 40
38.0
  1
減速比
 50
0.0
 41
0.9
 51
0.0
  7
KANJI32
  0
TEXT
  8
0
  6
CONTINUOUS
 62
     2
 10
3259.833333333
 20
1875.333333333
 30
300.742857143
 40
38.0
  1
構造
 50
0.0
 41
0.9
 51
0.0
  7
KANJI25
  0
TEXT
  8
0
  6
CONTINUOUS
 62
     2
 10
3757.833333333
 20
1669.333333333
 30
10.0
 40
30.0
  1
グリース方式
 50
0.0
 41
0.9
 51
0.0
  7
KANJI37
  0
LINE
  8
0
  6
CONTINUOUS
 62
     1
 10
3186.333333333
 20
1437.333333333
 11
4050.0
 21
1437.333333333
  0
LINE
  8
0
  6
CONTINUOUS
 62
     1
 10
3186.333333333
 20
2657.333333333
 11
3186.333333333
 21
1437.333333333
  0
LINE
  8
0
  6
CONTINUOUS
 62
     2
 10
3684.833333333
 20
2557.333333333
 11
3684.833333333
 21
1437.333333333
  0
TEXT
  8
0
  6
CONTINUOUS
 62
     2
 10
3825.833333333
 20
2227.333333333
 30
3.0
 40
30.0
  1
２　：　１
 50
0.0
 41
0.9
 51
0.0
  7
KANJI26
  0
TEXT
  8
0
  6
CONTINUOUS
 62
     2
 10
3708.833333333
 20
2503.833333333
 30
2.0
 40
30.0
  1
ＳＣＤ３０Ａ－　　
 50
0.0
 41
0.833333333
 51
0.0
  7
KANJI38
  0
TEXT
  8
0
  6
CONTINUOUS
 62
     2
 10
3758.833333333
 20
1877.333333333
 30
0.0
 40
35.0
  1
全閉屋内形
 50
0.0
 41
0.9
 51
0.0
  7
KANJI16
  0
LINE
  8
3
 62
    99
 10
0.0
 20
0.0
 11
0.0
 21
0.0
  0
LINE
  8
2
 62
    99
 10
0.0
 20
0.0
 11
0.0
 21
1252892309676819500000000000000000000000000000000000000000000000000000000000000000000000000000000000.0
  0
CIRCLE
  8
0
  6
CONTINUOUS
 62
     1
 10
2907.3
 20
1659.5
 40
121.0
  0
ARC
  8
0
  6
CONTINUOUS
 62
     1
 10
2907.3
 20
1659.5
 40
136.0
 50
40.881810296
 51
49.258846122
  0
ARC
  8
0
  6
CONTINUOUS
 62
     1
 10
2907.3
 20
1659.5
 40
136.0
 50
220.975771532
 51
228.814074834
  0
ARC
  8
0
  6
CONTINUOUS
 62
     1
 10
2907.3
 20
1659.5
 40
136.0
 50
311.262370457
 51
319.775645835
  0
ARC
  8
0
  6
CONTINUOUS
 62
     1
 10
2907.3
 20
1659.5
 40
199.0
 50
42.119601973
 51
47.880398027
  0
ARC
  8
0
  6
CONTINUOUS
 62
     1
 10
2907.3
 20
1659.5
 40
199.0
 50
132.119601973
 51
137.880398027
  0
ARC
  8
0
  6
CONTINUOUS
 62
     1
 10
2907.3
 20
1659.5
 40
199.0
 50
222.119601973
 51
227.880398027
  0
ARC
  8
0
  6
CONTINUOUS
 62
     1
 10
2907.3
 20
1659.5
 40
199.0
 50
312.119601973
 51
317.880398027
  0
LINE
  8
0
  6
CONTINUOUS
 62
     1
 10
2998.942135624
 20
1582.0
 11
3054.907539946
 21
1526.034595677
  0
LINE
  8
0
  6
CONTINUOUS
 62
     1
 10
2985.157864376
 20
1567.5
 11
3040.765404323
 21
1511.892460054
  0
LINE
  8
0
  6
CONTINUOUS
 62
     1
 10
2828.3
 20
1566.357864376
 11
2773.834595677
 21
1511.892460054
  0
LINE
  8
0
  6
CONTINUOUS
 62
     1
 10
2814.657864376
 20
1581.0
 11
2759.692460054
 21
1526.034595677
  0
LINE
  8
0
  6
CONTINUOUS
 62
     1
 10
2813.657864376
 20
1739.0
 11
2759.692460054
 21
1792.965404323
  0
LINE
  8
0
  6
CONTINUOUS
 62
     1
 10
2828.3
 20
1752.642135624
 11
2773.834595677
 21
1807.107539946
  0
LINE
  8
0
  6
CONTINUOUS
 62
     1
 10
2985.3
 20
1751.642135624
 11
3040.765404323
 21
1807.107539946
  0
LINE
  8
0
  6
CONTINUOUS
 62
     1
 10
3000.942135624
 20
1739.0
 11
3054.907539946
 21
1792.965404323
  0
ARC
  8
0
  6
CONTINUOUS
 62
     1
 10
2907.3
 20
1659.5
 40
136.0
 50
130.555893878
 51
138.833676537
  0
LINE
  8
0
  6
CONTINUOUS
 62
     1
 10
460.5
 20
1865.5
 11
763.5
 21
1865.5
  0
LINE
  8
0
  6
CONTINUOUS
 62
     1
 10
460.5
 20
1453.5
 11
763.5
 21
1453.5
  0
LINE
  8
0
  6
CONTINUOUS
 62
     1
 10
763.5
 20
1862.7
 11
805.5
 21
1862.7
  0
LINE
  8
0
  6
CONTINUOUS
 62
     1
 10
763.5
 20
1456.3
 11
805.5
 21
1456.3
  0
LINE
  8
0
  6
CONTINUOUS
 62
     1
 10
805.5
 20
1863.5
 11
837.5
 21
1863.5
  0
LINE
  8
0
  6
CONTINUOUS
 62
     1
 10
784.5
 20
1669.5
 11
744.5
 21
1669.5
  0
ARC
  8
0
  6
CONTINUOUS
 62
     1
 10
744.5
 20
1659.5
 40
10.0
 50
90.0
 51
270.0
  0
ARC
  8
0
  6
CONTINUOUS
 62
     1
 10
784.5
 20
1659.5
 40
22.5
 50
26.387799961
 51
153.612200039
  0
ARC
  8
0
  6
CONTINUOUS
 62
     1
 10
784.5
 20
1659.5
 40
30.0
 50
19.471220634
 51
160.528779366
  0
LINE
  8
0
  6
CONTINUOUS
 62
     1
 10
784.5
 20
1649.5
 11
744.5
 21
1649.5
  0
ARC
  8
0
  6
CONTINUOUS
 62
     1
 10
784.5
 20
1659.5
 40
22.5
 50
206.387799961
 51
333.612200039
  0
ARC
  8
0
  6
CONTINUOUS
 62
     1
 10
784.5
 20
1659.5
 40
30.0
 50
199.471220634
 51
340.528779366
  0
LINE
  8
0
  6
LTYPE2
 62
     2
 10
784.5
 20
1695.3
 11
784.5
 21
1623.7
  0
LINE
  8
0
  6
CONTINUOUS
 62
     1
 10
784.5
 20
1649.5
 11
824.5
 21
1649.5
  0
ARC
  8
0
  6
CONTINUOUS
 62
     1
 10
824.5
 20
1659.5
 40
10.0
 50
270.0
 51
90.0
  0
LINE
  8
0
  6
CONTINUOUS
 62
     1
 10
784.5
 20
1669.5
 11
824.5
 21
1669.5
  0
LINE
  8
0
  6
CONTINUOUS
 62
     1
 10
763.5
 20
1681.0
 11
763.5
 21
1865.5
  0
LINE
  8
0
  6
CONTINUOUS
 62
     1
 10
763.5
 20
1453.5
 11
763.5
 21
1638.4
  0
LINE
  8
0
  6
CONTINUOUS
 62
     1
 10
805.5
 20
1456.3
 11
805.5
 21
1638.4
  0
LINE
  8
0
  6
CONTINUOUS
 62
     1
 10
805.5
 20
1681.2
 11
805.5
 21
1863.5
  0
LINE
  8
0
  6
CONTINUOUS
 62
     1
 10
486.5
 20
1905.5
 11
734.5
 21
1905.5
  0
LINE
  8
0
  6
CONTINUOUS
 62
     1
 10
486.5
 20
1413.5
 11
734.5
 21
1413.5
  0
LINE
  8
0
  6
CONTINUOUS
 62
     1
 10
486.5
 20
1866.0
 11
486.5
 21
1905.5
  0
LINE
  8
0
  6
CONTINUOUS
 62
     1
 10
486.5
 20
1413.5
 11
486.5
 21
1453.5
  0
ARC
  8
0
  6
LTYPE4
 62
     2
 10
2907.3
 20
1659.5
 40
167.0
 50
102.882234098
 51
122.117765902
  0
LINE
  8
0
  6
CONTINUOUS
 62
     1
 10
2737.029002158
 20
1730.028556585
 11
2739.234114652
 21
1712.879286079
  0
TEXT
  8
0
  6
CONTINUOUS
 62
     2
 10
1742.0
 20
1981.125
 30
3.5
 40
35.0
  1
ピストンロッド
 50
0.0
 41
0.9
 51
0.0
  7
KANJI39
  0
LINE
  8
0
  6
CONTINUOUS
 62
     2
 10
1751.0
 20
1953.625
 11
1971.0
 21
1953.625
  0
LINE
  8
0
  6
CONTINUOUS
 62
     2
 10
1975.0
 20
1953.625
 11
1935.0
 21
1963.125
  0
LINE
  8
0
  6
CONTINUOUS
 62
     2
 10
1751.0
 20
1953.625
 11
1971.0
 21
1953.625
  0
LINE
  8
0
  6
CONTINUOUS
 62
     2
 10
1975.0
 20
1953.625
 11
1935.0
 21
1944.125
  0
LINE
  8
0
  6
LTYPE1
 62
     2
 10
1973.0
 20
1923.625
 11
1753.0
 21
1923.625
  0
LINE
  8
0
  6
LTYPE1
 62
     2
 10
1749.0
 20
1923.625
 11
1789.0
 21
1933.125
  0
LINE
  8
0
  6
LTYPE1
 62
     2
 10
1973.0
 20
1923.625
 11
1753.0
 21
1923.625
  0
LINE
  8
0
  6
LTYPE1
 62
     2
 10
1749.0
 20
1923.625
 11
1789.0
 21
1914.125
  0
LINE
  8
0
  6
CONTINUOUS
 62
     1
 10
2080.0
 20
2304.442286341
 11
2080.0
 21
2236.0
  0
LINE
  8
0
  6
CONTINUOUS
 62
     1
 10
2080.0
 20
2304.442286341
 11
2301.0
 21
2304.442286341
  0
LINE
  8
0
  6
CONTINUOUS
 62
     1
 10
2065.0
 20
2315.5
 11
2301.0
 21
2315.5
  0
LINE
  8
0
  6
CONTINUOUS
 62
     1
 10
2080.0
 20
2168.557713659
 11
2080.0
 21
2236.0
  0
LINE
  8
0
  6
CONTINUOUS
 62
     1
 10
2080.0
 20
2168.557713659
 11
2301.0
 21
2168.557713659
  0
CIRCLE
  8
0
  6
CONTINUOUS
 62
     1
 10
2235.0
 20
2236.0
 40
40.0
  0
LINE
  8
0
  6
LTYPE2
 62
     2
 10
2235.0
 20
2113.125
 11
2235.0
 21
2364.125
  0
LINE
  8
0
  6
CONTINUOUS
 62
     1
 10
2320.0
 20
2297.5
 11
2320.0
 21
2236.5
  0
LINE
  8
0
  6
CONTINUOUS
 62
     1
 10
2301.0
 20
2304.442286341
 11
2320.0
 21
2281.335189467
  0
LINE
  8
0
  6
CONTINUOUS
 62
     1
 10
2301.0
 20
2315.5
 11
2320.0
 21
2297.5
  0
LINE
  8
0
  6
CONTINUOUS
 62
     1
 10
2301.0
 20
2315.5
 11
2301.0
 21
2304.442286341
  0
LINE
  8
0
  6
CONTINUOUS
 62
     1
 10
2301.0
 20
2168.557713659
 11
2320.0
 21
2191.664810533
  0
LINE
  8
0
  6
CONTINUOUS
 62
     1
 10
2320.0
 20
2175.5
 11
2320.0
 21
2236.5
  0
LINE
  8
0
  6
CONTINUOUS
 62
     1
 10
2301.0
 20
2157.5
 11
2320.0
 21
2175.5
  0
LINE
  8
0
  6
CONTINUOUS
 62
     1
 10
2301.0
 20
2157.5
 11
2301.0
 21
2168.557713659
  0
LINE
  8
0
  6
CONTINUOUS
 62
     1
 10
2065.0
 20
2157.5
 11
2301.0
 21
2157.5
  0
LINE
  8
0
  6
CONTINUOUS
 62
     1
 10
2065.0
 20
2157.5
 11
2065.0
 21
2316.5
  0
LINE
  8
0
  6
LTYPE2
 62
     2
 10
2020.5
 20
2236.5
 11
2308.7
 21
2236.5
  0
LINE
  8
0
  6
CONTINUOUS
 62
     2
 10
2311.0
 20
2315.5
 11
2400.5
 21
2315.5
  0
LINE
  8
0
  6
CONTINUOUS
 62
     2
 10
2390.5
 20
2315.5
 11
2384.029523872
 21
2291.351854343
  0
LINE
  8
0
  6
CONTINUOUS
 62
     2
 10
2390.5
 20
2315.5
 11
2396.970476128
 21
2291.351854343
  0
LINE
  8
0
  6
CONTINUOUS
 62
     2
 10
2390.5
 20
2315.5
 11
2390.5
 21
2157.5
  0
LINE
  8
0
  6
CONTINUOUS
 62
     2
 10
2390.5
 20
2157.5
 11
2396.970476128
 21
2181.648145657
  0
LINE
  8
0
  6
CONTINUOUS
 62
     2
 10
2390.5
 20
2157.5
 11
2384.029523872
 21
2181.648145657
  0
LINE
  8
0
  6
CONTINUOUS
 62
     2
 10
2311.0
 20
2157.5
 11
2400.5
 21
2157.5
  0
TEXT
  8
0
  6
CONTINUOUS
 62
     2
 10
2383.5
 20
2182.5
 30
0.0
 40
30.0
  1
φ１６０
 50
90.0
 41
0.9
 51
0.0
  7
KANJI19
  0
LINE
  8
0
  6
CONTINUOUS
 62
     2
 10
2080.0
 20
2158.557713659
 11
2080.0
 21
2049.0
  0
LINE
  8
0
  6
CONTINUOUS
 62
     2
 10
2080.0
 20
2059.0
 11
2104.148145657
 21
2052.529523872
  0
LINE
  8
0
  6
CONTINUOUS
 62
     2
 10
2080.0
 20
2059.0
 11
2104.148145657
 21
2065.470476128
  0
LINE
  8
0
  6
CONTINUOUS
 62
     2
 10
2080.0
 20
2059.0
 11
2235.0
 21
2059.0
  0
LINE
  8
0
  6
CONTINUOUS
 62
     2
 10
2235.0
 20
2059.0
 11
2210.851854343
 21
2065.470476128
  0
LINE
  8
0
  6
CONTINUOUS
 62
     2
 10
2235.0
 20
2059.0
 11
2210.851854343
 21
2052.529523872
  0
LINE
  8
0
  6
CONTINUOUS
 62
     2
 10
2235.0
 20
2111.057713659
 11
2235.0
 21
2049.0
  0
TEXT
  8
0
  6
CONTINUOUS
 62
     2
 10
2117.0
 20
2066.0
 30
0.0
 40
30.0
  1
１５５
 50
0.0
 41
0.9
 51
0.0
  7
KANJI19
  0
LINE
  8
0
  6
CONTINUOUS
 62
     2
 10
2235.0
 20
2071.0
 11
2235.0
 21
2049.0
  0
LINE
  8
0
  6
CONTINUOUS
 62
     2
 10
2235.0
 20
2059.0
 11
2259.148145657
 21
2052.529523872
  0
LINE
  8
0
  6
CONTINUOUS
 62
     2
 10
2235.0
 20
2059.0
 11
2259.148145657
 21
2065.470476128
  0
LINE
  8
0
  6
CONTINUOUS
 62
     2
 10
2235.0
 20
2059.0
 11
2320.0
 21
2059.0
  0
LINE
  8
0
  6
CONTINUOUS
 62
     2
 10
2320.0
 20
2059.0
 11
2295.851854343
 21
2065.470476128
  0
LINE
  8
0
  6
CONTINUOUS
 62
     2
 10
2320.0
 20
2059.0
 11
2295.851854343
 21
2052.529523872
  0
LINE
  8
0
  6
CONTINUOUS
 62
     2
 10
2320.0
 20
2165.5
 11
2320.0
 21
2049.0
  0
TEXT
  8
0
  6
CONTINUOUS
 62
     2
 10
2250.5
 20
2066.0
 30
0.0
 40
30.0
  1
８５
 50
0.0
 41
0.9
 51
0.0
  7
KANJI19
  0
TEXT
  8
0
  6
CONTINUOUS
 62
     2
 10
3263.833333333
 20
2361.733333333
 30
14.0
 40
38.0
  1
機械的ストローク
 50
0.0
 41
0.9
 51
0.0
  7
KANJI40
  0
TEXT
  8
0
  6
CONTINUOUS
 62
     2
 10
3009.16453248
 20
1131.299992483
 30
3.0
 40
40.0
  1
特記事項
 50
0.0
 41
0.925
 51
0.0
  7
KANJI41
  0
TEXT
  8
0
  6
CONTINUOUS
 62
     2
 10
2904.16453248
 20
1065.049992483
 30
3.0
 40
40.0
  1
１。運転時は必ずピストンロッドの回転防止を行って下さい。
 50
0.0
 41
0.925
 51
0.0
  7
KANJI41
  0
TEXT
  8
0
  6
CONTINUOUS
 62
     2
 10
2906.66453248
 20
1000.299992483
 30
3.0
 40
40.0
  1
２。形式表示ストロークは機械的最大ストロークです。
 50
0.0
 41
0.925
 51
0.0
  7
KANJI41
  0
TEXT
  8
0
  6
CONTINUOUS
 62
     2
 10
2906.66453248
 20
935.249992483
 30
3.0
 40
40.0
  1
　　実際に使用する場合は惰行距離を含め、両端に十分余裕を
 50
0.0
 41
0.925
 51
0.0
  7
KANJI41
  0
TEXT
  8
0
  6
CONTINUOUS
 62
     2
 10
2904.16453248
 20
872.374992483
 30
3.0
 40
40.0
  1
　　みて下さい。
 50
0.0
 41
0.925
 51
0.0
  7
KANJI41
  0
LINE
  8
0
  6
CONTINUOUS
 62
     6
 10
3391.54006142
 20
165.34665464
 11
3368.66006318
 21
165.34665464
  0
LINE
  8
0
  6
CONTINUOUS
 62
     6
 10
3391.54006142
 20
169.50665432
 11
3368.66006318
 21
169.50665432
  0
LINE
  8
0
  6
CONTINUOUS
 62
     6
 10
3391.54006142
 20
165.34665464
 11
3414.42005966
 21
165.34665464
  0
LINE
  8
0
  6
CONTINUOUS
 62
     6
 10
3391.54006142
 20
169.50665432
 11
3414.42005966
 21
169.50665432
  0
LINE
  8
0
  6
CONTINUOUS
 62
     6
 10
3414.42005966
 20
169.50665432
 11
3414.42005966
 21
165.34665464
  0
ARC
  8
0
  6
CONTINUOUS
 62
     6
 10
3419.62005926
 20
167.42665448
 40
20.7999984
 50
185.739170477
 51
90.0
  0
ARC
  8
0
  6
CONTINUOUS
 62
     6
 10
3419.62005926
 20
167.42665448
 40
24.95999808
 50
184.780191847
 51
90.0
  0
LINE
  8
0
  6
CONTINUOUS
 62
     6
 10
3368.66006318
 20
165.34665464
 11
3368.66006318
 21
169.50665432
  0
LINE
  8
0
  6
CONTINUOUS
 62
     6
 10
3388.42006166
 20
192.38665256
 11
3363.46006358
 21
192.38665256
  0
LINE
  8
0
  6
CONTINUOUS
 62
     6
 10
3394.66006118
 20
192.38665256
 11
3419.62005926
 21
192.38665256
  0
ARC
  8
0
  6
CONTINUOUS
 62
     6
 10
3363.46006358
 20
167.42665448
 40
20.7999984
 50
90.0
 51
354.260829523
  0
ARC
  8
0
  6
CONTINUOUS
 62
     6
 10
3363.46006358
 20
167.42665448
 40
24.95999808
 50
90.0
 51
355.219808153
  0
LINE
  8
0
  6
CONTINUOUS
 62
     6
 10
3388.42006166
 20
192.38665256
 11
3388.42006166
 21
188.22665288
  0
LINE
  8
0
  6
CONTINUOUS
 62
     6
 10
3363.46006358
 20
188.22665288
 11
3388.42006166
 21
188.22665288
  0
LINE
  8
0
  6
CONTINUOUS
 62
     6
 10
3394.66006118
 20
192.38665256
 11
3394.66006118
 21
188.22665288
  0
LINE
  8
0
  6
CONTINUOUS
 62
     6
 10
3419.62005926
 20
188.22665288
 11
3394.66006118
 21
188.22665288
  0
LINE
  8
0
  6
LTYPE2
 62
     2
 10
754.169656263
 20
1813.787881929
 11
894.169656263
 21
1813.787881929
  0
LINE
  8
0
  6
CONTINUOUS
 62
     1
 10
842.5
 20
1723.408133205
 11
842.5
 21
1706.119398083
  0
LINE
  8
0
  6
CONTINUOUS
 62
     1
 10
842.5
 20
1723.408133205
 11
842.5
 21
1740.696868327
  0
LINE
  8
0
  6
CONTINUOUS
 62
     1
 10
837.5
 20
1723.408133205
 11
842.499996244
 21
1718.408136961
  0
LINE
  8
0
  6
CONTINUOUS
 62
     1
 10
842.499996244
 20
1723.408133205
 11
837.5
 21
1728.408129449
  0
LINE
  8
0
  6
CONTINUOUS
 62
     1
 10
861.25
 20
1723.408133484
 11
861.25
 21
1708.408133205
  0
LINE
  8
0
  6
CONTINUOUS
 62
     1
 10
862.5
 20
1723.408133503
 11
862.5
 21
1710.573196714
  0
LINE
  8
0
  6
CONTINUOUS
 62
     1
 10
861.25
 20
1723.408132926
 11
861.25
 21
1738.408133205
  0
LINE
  8
0
  6
CONTINUOUS
 62
     1
 10
862.5
 20
1723.408132907
 11
862.5
 21
1736.243069696
  0
LINE
  8
0
  6
LTYPE2
 62
     2
 10
754.169656263
 20
1723.408133205
 11
894.169656263
 21
1723.408133205
  0
LINE
  8
0
  6
CONTINUOUS
 62
     1
 10
842.5
 20
1708.408133205
 11
861.25
 21
1708.408133205
  0
LINE
  8
0
  6
CONTINUOUS
 62
     1
 10
861.25
 20
1708.408133205
 11
862.5
 21
1710.573196714
  0
LINE
  8
0
  6
CONTINUOUS
 62
     1
 10
837.5
 20
1740.908133205
 11
842.5
 21
1740.908133205
  0
LINE
  8
0
  6
CONTINUOUS
 62
     1
 10
842.5
 20
1738.408133205
 11
861.25
 21
1738.408133205
  0
LINE
  8
0
  6
CONTINUOUS
 62
     1
 10
861.25
 20
1738.408133205
 11
862.5
 21
1736.243069696
  0
LINE
  8
0
  6
CONTINUOUS
 62
     1
 10
837.5
 20
1705.908133205
 11
842.5
 21
1705.908133205
  0
LINE
  8
0
  6
CONTINUOUS
 62
     1
 10
842.5
 20
1813.787881929
 11
842.5
 21
1831.076617052
  0
LINE
  8
0
  6
CONTINUOUS
 62
     1
 10
842.499996244
 20
1813.787881929
 11
837.5
 21
1818.787878173
  0
LINE
  8
0
  6
CONTINUOUS
 62
     1
 10
837.5
 20
1831.287881929
 11
842.5
 21
1831.287881929
  0
LINE
  8
0
  6
CONTINUOUS
 62
     1
 10
861.25
 20
1813.78788165
 11
861.25
 21
1828.787881929
  0
LINE
  8
0
  6
CONTINUOUS
 62
     1
 10
842.5
 20
1828.787881929
 11
861.25
 21
1828.787881929
  0
LINE
  8
0
  6
CONTINUOUS
 62
     1
 10
861.25
 20
1828.787881929
 11
862.5
 21
1826.62281842
  0
LINE
  8
0
  6
CONTINUOUS
 62
     1
 10
862.5
 20
1813.787881631
 11
862.5
 21
1826.62281842
  0
LINE
  8
0
  6
CONTINUOUS
 62
     1
 10
842.5
 20
1813.787881929
 11
842.5
 21
1796.499146807
  0
LINE
  8
0
  6
CONTINUOUS
 62
     1
 10
837.5
 20
1796.287881929
 11
842.5
 21
1796.287881929
  0
LINE
  8
0
  6
CONTINUOUS
 62
     1
 10
837.5
 20
1813.787881929
 11
842.499996244
 21
1808.787885685
  0
LINE
  8
0
  6
CONTINUOUS
 62
     1
 10
861.25
 20
1813.787882209
 11
861.25
 21
1798.787881929
  0
LINE
  8
0
  6
CONTINUOUS
 62
     1
 10
842.5
 20
1798.787881929
 11
861.25
 21
1798.787881929
  0
LINE
  8
0
  6
CONTINUOUS
 62
     1
 10
861.25
 20
1798.787881929
 11
862.5
 21
1800.952945439
  0
LINE
  8
0
  6
CONTINUOUS
 62
     1
 10
862.5
 20
1813.787882227
 11
862.5
 21
1800.952945439
  0
LINE
  8
0
  6
CONTINUOUS
 62
     1
 10
842.5
 20
1595.591866795
 11
842.5
 21
1612.880601917
  0
LINE
  8
0
  6
CONTINUOUS
 62
     1
 10
842.5
 20
1595.591866795
 11
842.5
 21
1578.303131673
  0
LINE
  8
0
  6
CONTINUOUS
 62
     1
 10
837.5
 20
1595.591866795
 11
842.499996244
 21
1600.591863039
  0
LINE
  8
0
  6
CONTINUOUS
 62
     1
 10
842.499996244
 20
1595.591866795
 11
837.5
 21
1590.591870551
  0
LINE
  8
0
  6
CONTINUOUS
 62
     1
 10
861.25
 20
1595.591866516
 11
861.25
 21
1610.591866795
  0
LINE
  8
0
  6
CONTINUOUS
 62
     1
 10
862.5
 20
1595.591866497
 11
862.5
 21
1608.426803286
  0
LINE
  8
0
  6
CONTINUOUS
 62
     1
 10
861.25
 20
1595.591867074
 11
861.25
 21
1580.591866795
  0
LINE
  8
0
  6
CONTINUOUS
 62
     1
 10
862.5
 20
1595.591867093
 11
862.5
 21
1582.756930304
  0
LINE
  8
0
  6
LTYPE2
 62
     2
 10
754.169656263
 20
1595.591866795
 11
894.169656263
 21
1595.591866795
  0
LINE
  8
0
  6
CONTINUOUS
 62
     1
 10
842.5
 20
1610.591866795
 11
861.25
 21
1610.591866795
  0
LINE
  8
0
  6
CONTINUOUS
 62
     1
 10
861.25
 20
1610.591866795
 11
862.5
 21
1608.426803286
  0
LINE
  8
0
  6
CONTINUOUS
 62
     1
 10
837.5
 20
1578.091866795
 11
842.5
 21
1578.091866795
  0
LINE
  8
0
  6
CONTINUOUS
 62
     1
 10
842.5
 20
1580.591866795
 11
861.25
 21
1580.591866795
  0
LINE
  8
0
  6
CONTINUOUS
 62
     1
 10
861.25
 20
1580.591866795
 11
862.5
 21
1582.756930304
  0
LINE
  8
0
  6
CONTINUOUS
 62
     1
 10
837.5
 20
1613.091866795
 11
842.5
 21
1613.091866795
  0
LINE
  8
0
  6
LTYPE2
 62
     2
 10
754.169656263
 20
1505.212118071
 11
894.169656263
 21
1505.212118071
  0
LINE
  8
0
  6
CONTINUOUS
 62
     1
 10
842.5
 20
1505.212118071
 11
842.5
 21
1487.923382948
  0
LINE
  8
0
  6
CONTINUOUS
 62
     1
 10
842.499996244
 20
1505.212118071
 11
837.5
 21
1500.212121827
  0
LINE
  8
0
  6
CONTINUOUS
 62
     1
 10
837.5
 20
1487.712118071
 11
842.5
 21
1487.712118071
  0
LINE
  8
0
  6
CONTINUOUS
 62
     1
 10
861.25
 20
1505.21211835
 11
861.25
 21
1490.212118071
  0
LINE
  8
0
  6
CONTINUOUS
 62
     1
 10
842.5
 20
1490.212118071
 11
861.25
 21
1490.212118071
  0
LINE
  8
0
  6
CONTINUOUS
 62
     1
 10
861.25
 20
1490.212118071
 11
862.5
 21
1492.37718158
  0
LINE
  8
0
  6
CONTINUOUS
 62
     1
 10
862.5
 20
1505.212118369
 11
862.5
 21
1492.37718158
  0
LINE
  8
0
  6
CONTINUOUS
 62
     1
 10
842.5
 20
1505.212118071
 11
842.5
 21
1522.500853193
  0
LINE
  8
0
  6
CONTINUOUS
 62
     1
 10
837.5
 20
1522.712118071
 11
842.5
 21
1522.712118071
  0
LINE
  8
0
  6
CONTINUOUS
 62
     1
 10
837.5
 20
1505.212118071
 11
842.499996244
 21
1510.212114315
  0
LINE
  8
0
  6
CONTINUOUS
 62
     1
 10
861.25
 20
1505.212117791
 11
861.25
 21
1520.212118071
  0
LINE
  8
0
  6
CONTINUOUS
 62
     1
 10
842.5
 20
1520.212118071
 11
861.25
 21
1520.212118071
  0
LINE
  8
0
  6
CONTINUOUS
 62
     1
 10
861.25
 20
1520.212118071
 11
862.5
 21
1518.047054561
  0
LINE
  8
0
  6
CONTINUOUS
 62
     1
 10
862.5
 20
1505.212117773
 11
862.5
 21
1518.047054561
  0
CIRCLE
  8
0
  6
CONTINUOUS
 62
     1
 10
2843.391866795
 20
1813.787881929
 40
15.0
  0
LINE
  8
0
  6
CONTINUOUS
 62
     1
 10
2826.204327946
 20
1816.085382377
 11
2832.863019669
 21
1800.009878511
  0
LINE
  8
0
  6
CONTINUOUS
 62
     1
 10
2832.863019669
 20
1800.009878511
 11
2850.012290175
 21
1797.804766017
  0
LINE
  8
0
  6
CONTINUOUS
 62
     1
 10
2850.012290175
 20
1797.804766017
 11
2860.579405644
 21
1811.490381482
  0
LINE
  8
0
  6
CONTINUOUS
 62
     1
 10
2860.579405644
 20
1811.490381482
 11
2853.920713921
 21
1827.565885348
  0
LINE
  8
0
  6
CONTINUOUS
 62
     1
 10
2836.771443415
 20
1829.770997842
 11
2826.204327946
 21
1816.085382377
  0
LINE
  8
0
  6
LTYPE5
 62
     2
 10
2851.925707337
 20
1793.185368354
 11
2834.858026253
 21
1834.390395504
  0
CIRCLE
  8
0
  6
CONTINUOUS
 62
     1
 10
2843.391866795
 20
1813.787881929
 40
17.5
  0
CIRCLE
  8
0
  6
CONTINUOUS
 62
     1
 10
2753.012118071
 20
1723.408133205
 40
15.0
  0
LINE
  8
0
  6
CONTINUOUS
 62
     1
 10
2739.234114652
 20
1712.879286079
 11
2755.309618518
 21
1706.220594356
  0
LINE
  8
0
  6
CONTINUOUS
 62
     1
 10
2755.309618518
 20
1706.220594356
 11
2768.995233983
 21
1716.787709825
  0
LINE
  8
0
  6
CONTINUOUS
 62
     1
 10
2768.995233983
 20
1716.787709825
 11
2766.790121489
 21
1733.936980331
  0
LINE
  8
0
  6
CONTINUOUS
 62
     1
 10
2766.790121489
 20
1733.936980331
 11
2750.714617623
 21
1740.595672054
  0
LINE
  8
0
  6
LTYPE5
 62
     2
 10
2773.614631646
 20
1714.874292663
 11
2732.409604496
 21
1731.941973747
  0
CIRCLE
  8
0
  6
CONTINUOUS
 62
     1
 10
2753.012118071
 20
1723.408133205
 40
17.5
  0
ARC
  8
0
  6
LTYPE4
 62
     2
 10
2907.3
 20
1659.5
 40
167.0
 50
147.882234098
 51
167.117765902
  0
CIRCLE
  8
0
  6
CONTINUOUS
 62
     1
 10
2753.012118071
 20
1595.591866795
 40
15.0
  0
LINE
  8
0
  6
CONTINUOUS
 62
     1
 10
2750.714617623
 20
1578.404327946
 11
2766.790121489
 21
1585.063019669
  0
LINE
  8
0
  6
CONTINUOUS
 62
     1
 10
2766.790121489
 20
1585.063019669
 11
2768.995233983
 21
1602.212290175
  0
LINE
  8
0
  6
CONTINUOUS
 62
     1
 10
2768.995233983
 20
1602.212290175
 11
2755.309618518
 21
1612.779405644
  0
LINE
  8
0
  6
CONTINUOUS
 62
     1
 10
2755.309618518
 20
1612.779405644
 11
2739.234114652
 21
1606.120713921
  0
LINE
  8
0
  6
CONTINUOUS
 62
     1
 10
2737.029002158
 20
1588.971443415
 11
2750.714617623
 21
1578.404327946
  0
LINE
  8
0
  6
LTYPE5
 62
     2
 10
2773.614631646
 20
1604.125707337
 11
2732.409604496
 21
1587.058026253
  0
CIRCLE
  8
0
  6
CONTINUOUS
 62
     1
 10
2753.012118071
 20
1595.591866795
 40
17.5
  0
ARC
  8
0
  6
LTYPE4
 62
     2
 10
2907.3
 20
1659.5
 40
167.0
 50
192.882234098
 51
212.117765902
  0
CIRCLE
  8
0
  6
CONTINUOUS
 62
     1
 10
2843.391866795
 20
1505.212118071
 40
15.0
  0
LINE
  8
0
  6
CONTINUOUS
 62
     1
 10
2853.920713921
 20
1491.434114652
 11
2860.579405644
 21
1507.509618518
  0
LINE
  8
0
  6
CONTINUOUS
 62
     1
 10
2860.579405644
 20
1507.509618518
 11
2850.012290175
 21
1521.195233983
  0
LINE
  8
0
  6
CONTINUOUS
 62
     1
 10
2850.012290175
 20
1521.195233983
 11
2832.863019669
 21
1518.990121489
  0
LINE
  8
0
  6
CONTINUOUS
 62
     1
 10
2832.863019669
 20
1518.990121489
 11
2826.204327946
 21
1502.914617623
  0
LINE
  8
0
  6
LTYPE5
 62
     2
 10
2851.925707337
 20
1525.814631646
 11
2834.858026253
 21
1484.609604496
  0
CIRCLE
  8
0
  6
CONTINUOUS
 62
     1
 10
2843.391866795
 20
1505.212118071
 40
17.5
  0
ARC
  8
0
  6
LTYPE4
 62
     2
 10
2907.3
 20
1659.5
 40
167.0
 50
237.882234098
 51
257.117765902
  0
LINE
  8
0
  6
CONTINUOUS
 62
     1
 10
2836.771443415
 20
1489.229002158
 11
2853.920713921
 21
1491.434114652
  0
CIRCLE
  8
0
  6
CONTINUOUS
 62
     1
 10
2971.208133205
 20
1505.212118071
 40
15.0
  0
LINE
  8
0
  6
CONTINUOUS
 62
     1
 10
2988.395672054
 20
1502.914617623
 11
2981.736980331
 21
1518.990121489
  0
LINE
  8
0
  6
CONTINUOUS
 62
     1
 10
2981.736980331
 20
1518.990121489
 11
2964.587709825
 21
1521.195233983
  0
LINE
  8
0
  6
CONTINUOUS
 62
     1
 10
2964.587709825
 20
1521.195233983
 11
2954.020594356
 21
1507.509618518
  0
LINE
  8
0
  6
CONTINUOUS
 62
     1
 10
2954.020594356
 20
1507.509618518
 11
2960.679286079
 21
1491.434114652
  0
LINE
  8
0
  6
CONTINUOUS
 62
     1
 10
2977.828556585
 20
1489.229002158
 11
2988.395672054
 21
1502.914617623
  0
LINE
  8
0
  6
LTYPE5
 62
     2
 10
2962.674292663
 20
1525.814631646
 11
2979.741973747
 21
1484.609604496
  0
CIRCLE
  8
0
  6
CONTINUOUS
 62
     1
 10
2971.208133205
 20
1505.212118071
 40
17.5
  0
ARC
  8
0
  6
LTYPE4
 62
     2
 10
2907.3
 20
1659.5
 40
167.0
 50
282.882234098
 51
302.117765902
  0
CIRCLE
  8
0
  6
CONTINUOUS
 62
     1
 10
3061.587881929
 20
1595.591866795
 40
15.0
  0
LINE
  8
0
  6
CONTINUOUS
 62
     1
 10
3075.365885348
 20
1606.120713921
 11
3059.290381482
 21
1612.779405644
  0
LINE
  8
0
  6
CONTINUOUS
 62
     1
 10
3059.290381482
 20
1612.779405644
 11
3045.604766017
 21
1602.212290175
  0
LINE
  8
0
  6
CONTINUOUS
 62
     1
 10
3045.604766017
 20
1602.212290175
 11
3047.809878511
 21
1585.063019669
  0
LINE
  8
0
  6
CONTINUOUS
 62
     1
 10
3047.809878511
 20
1585.063019669
 11
3063.885382377
 21
1578.404327946
  0
LINE
  8
0
  6
CONTINUOUS
 62
     1
 10
3077.570997842
 20
1588.971443415
 11
3075.365885348
 21
1606.120713921
  0
LINE
  8
0
  6
LTYPE5
 62
     2
 10
3040.985368354
 20
1604.125707337
 11
3082.190395504
 21
1587.058026253
  0
CIRCLE
  8
0
  6
CONTINUOUS
 62
     1
 10
3061.587881929
 20
1595.591866795
 40
17.5
  0
ARC
  8
0
  6
LTYPE4
 62
     2
 10
2907.3
 20
1659.5
 40
167.0
 50
327.882234098
 51
347.117765902
  0
CIRCLE
  8
0
  6
CONTINUOUS
 62
     1
 10
3061.587881929
 20
1723.408133205
 40
15.0
  0
LINE
  8
0
  6
CONTINUOUS
 62
     1
 10
3063.885382377
 20
1740.595672054
 11
3047.809878511
 21
1733.936980331
  0
LINE
  8
0
  6
CONTINUOUS
 62
     1
 10
3047.809878511
 20
1733.936980331
 11
3045.604766017
 21
1716.787709825
  0
LINE
  8
0
  6
CONTINUOUS
 62
     1
 10
3045.604766017
 20
1716.787709825
 11
3059.290381482
 21
1706.220594356
  0
LINE
  8
0
  6
CONTINUOUS
 62
     1
 10
3059.290381482
 20
1706.220594356
 11
3075.365885348
 21
1712.879286079
  0
LINE
  8
0
  6
CONTINUOUS
 62
     1
 10
3075.365885348
 20
1712.879286079
 11
3077.570997842
 21
1730.028556585
  0
LINE
  8
0
  6
CONTINUOUS
 62
     1
 10
3077.570997842
 20
1730.028556585
 11
3063.885382377
 21
1740.595672054
  0
LINE
  8
0
  6
LTYPE5
 62
     2
 10
3040.985368354
 20
1714.874292663
 11
3082.190395504
 21
1731.941973747
  0
CIRCLE
  8
0
  6
CONTINUOUS
 62
     1
 10
3061.587881929
 20
1723.408133205
 40
17.5
  0
ARC
  8
0
  6
LTYPE4
 62
     2
 10
2907.3
 20
1659.5
 40
167.0
 50
12.882234098
 51
32.117765902
  0
CIRCLE
  8
0
  6
CONTINUOUS
 62
     1
 10
2971.208133205
 20
1813.787881929
 40
15.0
  0
LINE
  8
0
  6
CONTINUOUS
 62
     1
 10
2960.679286079
 20
1827.565885348
 11
2954.020594356
 21
1811.490381482
  0
LINE
  8
0
  6
CONTINUOUS
 62
     1
 10
2954.020594356
 20
1811.490381482
 11
2964.587709825
 21
1797.804766017
  0
LINE
  8
0
  6
CONTINUOUS
 62
     1
 10
2964.587709825
 20
1797.804766017
 11
2981.736980331
 21
1800.009878511
  0
LINE
  8
0
  6
CONTINUOUS
 62
     1
 10
2981.736980331
 20
1800.009878511
 11
2988.395672054
 21
1816.085382377
  0
LINE
  8
0
  6
CONTINUOUS
 62
     1
 10
2977.828556585
 20
1829.770997842
 11
2960.679286079
 21
1827.565885348
  0
LINE
  8
0
  6
LTYPE5
 62
     2
 10
2962.674292663
 20
1793.185368354
 11
2979.741973747
 21
1834.390395504
  0
CIRCLE
  8
0
  6
CONTINUOUS
 62
     1
 10
2971.208133205
 20
1813.787881929
 40
17.5
  0
ARC
  8
0
  6
LTYPE4
 62
     2
 10
2907.3
 20
1659.5
 40
167.0
 50
57.882234098
 51
77.117765902
  0
LINE
  8
0
  6
CONTINUOUS
 62
     2
 10
3007.589333333
 20
2620.721333333
 11
3007.589333333
 21
2577.089333333
  0
LINE
  8
0
  6
CONTINUOUS
 62
     2
 10
3073.253333333
 20
2640.593333333
 11
3052.389335485
 21
2646.183824708
  0
LINE
  8
0
  6
CONTINUOUS
 62
     2
 10
3073.253333333
 20
2640.593333333
 11
3052.389335485
 21
2635.002841959
  0
LINE
  8
0
  6
CONTINUOUS
 62
     2
 10
2661.989333333
 20
2598.689333333
 11
2682.853331181
 21
2593.098841959
  0
LINE
  8
0
  6
CONTINUOUS
 62
     2
 10
2661.989333333
 20
2598.689333333
 11
2682.853331181
 21
2604.279824708
  0
LINE
  8
0
  6
CONTINUOUS
 62
     2
 10
3007.589333333
 20
2598.689333333
 11
2986.725335485
 21
2604.279824708
  0
LINE
  8
0
  6
CONTINUOUS
 62
     2
 10
3007.589333333
 20
2598.689333333
 11
2986.725335485
 21
2593.098841959
  0
LINE
  8
0
  6
CONTINUOUS
 62
     2
 10
2661.989333333
 20
2598.689333333
 11
2641.125335485
 21
2604.279824708
  0
LINE
  8
0
  6
CONTINUOUS
 62
     2
 10
2661.989333333
 20
2598.689333333
 11
2641.125335485
 21
2593.098841959
  0
LINE
  8
0
  6
CONTINUOUS
 62
     2
 10
3007.589333333
 20
2598.689333333
 11
3028.453331181
 21
2593.098841959
  0
LINE
  8
0
  6
CONTINUOUS
 62
     2
 10
3007.589333333
 20
2598.689333333
 11
3028.453331181
 21
2604.279824708
  0
LINE
  8
0
  6
CONTINUOUS
 62
     2
 10
3073.253333333
 20
2598.689333333
 11
3052.389335485
 21
2604.279824708
  0
LINE
  8
0
  6
CONTINUOUS
 62
     2
 10
3073.253333333
 20
2598.689333333
 11
3052.389335485
 21
2593.098841959
  0
LINE
  8
0
  6
CONTINUOUS
 62
     2
 10
2630.453333333
 20
2593.937333333
 11
2645.658327841
 21
2578.595620847
  0
LINE
  8
0
  6
CONTINUOUS
 62
     2
 10
2630.453333333
 20
2593.937333333
 11
2651.292101085
 21
2588.253517836
  0
LINE
  8
0
  6
CONTINUOUS
 62
     2
 10
2630.453333333
 20
2593.937333333
 11
2785.973333333
 21
2503.217333333
  0
LINE
  8
0
  6
CONTINUOUS
 62
     2
 10
3042.581333333
 20
2599.553333333
 11
3021.083583834
 21
2597.454103366
  0
LINE
  8
0
  6
CONTINUOUS
 62
     2
 10
3042.581333333
 20
2599.553333333
 11
3025.013351126
 21
2586.986472104
  0
LINE
  8
0
  6
CONTINUOUS
 62
     2
 10
3042.581333333
 20
2599.553333333
 11
2785.973333333
 21
2503.217333333
  0
TEXT
  8
0
  6
CONTINUOUS
 62
     2
 10
2894.837333333
 20
2511.857333333
 30
0.0
 40
25.92
  1
惰行距離＋ストローク余裕
 50
0.0
 41
0.9
 51
0.0
  7
KANJI42
  0
LINE
  8
0
  6
CONTINUOUS
 62
     2
 10
2589.845333333
 20
2666.513333333
 11
2589.845333333
 21
2573.633333333
  0
LINE
  8
0
  6
CONTINUOUS
 62
     2
 10
2589.845333333
 20
2640.593333333
 11
2610.709331181
 21
2635.002841959
  0
LINE
  8
0
  6
CONTINUOUS
 62
     2
 10
2589.845333333
 20
2640.593333333
 11
2610.709331181
 21
2646.183824708
  0
LINE
  8
0
  6
CONTINUOUS
 62
     2
 10
2589.845333333
 20
2598.689333333
 11
2610.709331181
 21
2593.098841959
  0
LINE
  8
0
  6
CONTINUOUS
 62
     2
 10
2589.845333333
 20
2598.689333333
 11
2610.709331181
 21
2604.279824708
  0
LINE
  8
0
  6
CONTINUOUS
 62
     2
 10
2589.845333333
 20
2640.593333333
 11
3073.253333333
 21
2640.593333333
  0
LINE
  8
0
  6
CONTINUOUS
 62
     2
 10
2589.845333333
 20
2598.689333333
 11
2568.981335485
 21
2593.098841959
  0
LINE
  8
0
  6
CONTINUOUS
 62
     2
 10
2589.845333333
 20
2598.689333333
 11
2568.981335485
 21
2604.279824708
  0
LINE
  8
0
  6
CONTINUOUS
 62
     2
 10
2661.989333333
 20
2621.585333333
 11
2661.989333333
 21
2526.437333333
  0
LINE
  8
0
  6
CONTINUOUS
 62
     2
 10
2661.989333333
 20
2535.941333333
 11
2385.941333333
 21
2535.941333333
  0
LINE
  8
0
  6
CONTINUOUS
 62
     2
 10
2661.989333333
 20
2535.941333333
 11
2641.125335485
 21
2530.350841959
  0
LINE
  8
0
  6
CONTINUOUS
 62
     2
 10
2661.989333333
 20
2535.941333333
 11
2641.125335485
 21
2541.531824708
  0
LINE
  8
0
  6
CONTINUOUS
 62
     2
 10
3073.253333333
 20
2698.805333333
 11
3073.253333333
 21
2582.273333333
  0
TEXT
  8
0
  6
CONTINUOUS
 62
     2
 10
2446.853333333
 20
2545.445333333
 30
2.592
 40
25.92
  1
取付ｍｉｎ．寸法
 50
0.0
 41
0.9
 51
0.0
  7
KANJI43
  0
LINE
  8
0
  6
CONTINUOUS
 62
     2
 10
2309.477333333
 20
2598.689333333
 11
3073.685333333
 21
2598.689333333
  0
LINE
  8
0
  6
CONTINUOUS
 62
     2
 10
3072.902333333
 20
2685.521333333
 11
3052.038335485
 21
2691.111824708
  0
LINE
  8
0
  6
CONTINUOUS
 62
     2
 10
3072.902333333
 20
2685.521333333
 11
3052.038335485
 21
2679.930841959
  0
LINE
  8
0
  6
CONTINUOUS
 62
     2
 10
3073.253333333
 20
2685.413333333
 11
2582.069333333
 21
2685.413333333
  0
TEXT
  8
0
  6
CONTINUOUS
 62
     2
 10
2449.877333333
 20
2494.037333333
 30
2.592
 40
25.92
  1
（　　　　　）
 50
0.0
 41
0.9
 51
0.0
  7
KANJI43
  0
TEXT
  8
0
  6
CONTINUOUS
 62
     2
 10
2317.685333333
 20
2609.813333333
 30
2.592
 40
25.92
  1
ｍｉｎ．Ｌ（　　　　）
 50
0.0
 41
0.9
 51
0.0
  7
KANJI43
  0
TEXT
  8
0
  6
CONTINUOUS
 62
     2
 10
2674.517333333
 20
2694.485333333
 30
2.592
 40
25.92
  1
ｍａｘ．Ｌ（　　　　）
 50
0.0
 41
0.9
 51
0.0
  7
KANJI43
  0
TEXT
  8
0
  6
CONTINUOUS
 62
     2
 10
2677.109333333
 20
2653.553333333
 30
2.592
 40
25.92
  1
機械的ストローク（　　　　）
 50
0.0
 41
0.9
 51
0.0
  7
KANJI43
  0
TEXT
  8
0
  6
CONTINUOUS
 62
     2
 10
2720.741333333
 20
2606.465333333
 30
2.592
 40
25.92
  1
使用ストローク（　　　　）
 50
0.0
 41
0.9
 51
0.0
  7
KANJI43
  0
LINE
  8
0
  6
CONTINUOUS
 62
     2
 10
3178.661333333
 20
2503.217333333
 11
2785.973333333
 21
2503.217333333
  0
LINE
  8
0
  6
CONTINUOUS
 62
     1
 10
2782.3
 20
1865.5
 11
3032.3
 21
1865.5
  0
LINE
  8
0
  6
CONTINUOUS
 62
     1
 10
2782.3
 20
1453.5
 11
3032.3
 21
1453.5
  0
LINE
  8
0
  6
CONTINUOUS
 62
     1
 10
2705.1
 20
1682.0
 11
2687.1
 21
1679.0
  0
LINE
  8
0
  6
CONTINUOUS
 62
     1
 10
2705.1
 20
1637.0
 11
2687.1
 21
1640.0
  0
LINE
  8
0
  6
CONTINUOUS
 62
     1
 10
2705.1
 20
1637.0
 11
2705.1
 21
1682.0
  0
LINE
  8
0
  6
CONTINUOUS
 62
     1
 10
2698.2
 20
1649.5
 11
2625.1
 21
1649.5
  0
LINE
  8
0
  6
CONTINUOUS
 62
     1
 10
2698.2
 20
1669.5
 11
2625.1
 21
1669.5
  0
ARC
  8
0
  6
CONTINUOUS
 62
     1
 10
2625.1
 20
1659.5
 40
10.0
 50
90.0
 51
269.999994536
  0
ARC
  8
0
  6
CONTINUOUS
 62
     1
 10
2698.225
 20
1671.5
 40
2.0
 50
270.0
 51
0.0
  0
ARC
  8
0
  6
CONTINUOUS
 62
     1
 10
2698.225
 20
1647.5
 40
2.0
 50
0.0
 51
90.0
  0
LINE
  8
0
  6
CONTINUOUS
 62
     1
 10
2687.1
 20
1640.0
 11
2686.125641026
 21
1649.5
  0
LINE
  8
0
  6
CONTINUOUS
 62
     1
 10
2687.1
 20
1649.5
 11
2687.1
 21
1640.0
  0
LINE
  8
0
  6
CONTINUOUS
 62
     1
 10
2687.1
 20
1679.0
 11
2686.125641026
 21
1669.5
  0
LINE
  8
0
  6
CONTINUOUS
 62
     1
 10
2687.1
 20
1669.5
 11
2687.1
 21
1679.0
  0
LINE
  8
0
  6
LTYPE2
 62
     2
 10
2660.1
 20
1639.5
 11
2660.1
 21
1679.7
  0
LINE
  8
0
  6
LTYPE2
 62
     2
 10
2605.1
 20
1659.5
 11
3154.1
 21
1659.5
  0
LINE
  8
0
  6
CONTINUOUS
 62
     2
 10
610.5
 20
1074.5
 11
610.5
 21
1034.5
  0
LINE
  8
0
  6
CONTINUOUS
 62
     2
 10
610.5
 20
1072.0
 11
610.5
 21
1034.5
  0
LINE
  8
0
  6
CONTINUOUS
 62
     2
 10
610.5
 20
1071.5
 11
610.5
 21
1039.5
  0
LINE
  8
0
  6
CONTINUOUS
 62
     2
 10
610.5
 20
1049.5
 11
586.351854343
 21
1055.970476128
  0
LINE
  8
0
  6
CONTINUOUS
 62
     2
 10
610.5
 20
1049.5
 11
586.351854343
 21
1043.029523872
  0
LINE
  8
0
  6
CONTINUOUS
 62
     2
 10
610.5
 20
1049.5
 11
460.5
 21
1049.5
  0
LINE
  8
0
  6
CONTINUOUS
 62
     2
 10
460.5
 20
1049.5
 11
484.648145657
 21
1043.029523872
  0
LINE
  8
0
  6
CONTINUOUS
 62
     2
 10
460.5
 20
1049.5
 11
484.648145657
 21
1055.970476128
  0
TEXT
  8
0
  6
CONTINUOUS
 62
     2
 10
495.0
 20
1056.5
 30
0.0
 40
30.0
  1
１５０
 50
0.0
 41
0.9
 51
0.0
  7
KANJI19
  0
LINE
  8
0
  6
CONTINUOUS
 62
     2
 10
610.5
 20
1199.4
 11
610.5
 21
1215.3
  0
LINE
  8
0
  6
LTYPE2
 62
     2
 10
610.5
 20
1069.1
 11
610.5
 21
2085.5
  0
LINE
  8
0
  6
CONTINUOUS
 62
     2
 10
460.5
 20
1445.2
 11
460.5
 21
1039.5
  0
LINE
  8
0
  6
LTYPE2
 62
     2
 10
1635.4
 20
1659.5
 11
2357.0
 21
1659.5
  0
LINE
  8
0
  6
LTYPE2
 62
     2
 10
462.0
 20
1659.5
 11
1271.8
 21
1659.5
  0
TEXT
  8
0
  6
CONTINUOUS
 62
     2
 10
3870.833333333
 20
2158.333333333
 30
20.0
 40
30.0
  1
１０
 50
0.0
 41
0.9
 51
0.0
  7
KANJI34
  0
TEXT
  8
0
  6
CONTINUOUS
 62
     2
 10
3756.083333333
 20
2016.083333333
 30
0.0
 40
30.0
  1
　５５９Ｎｍ（５７ｋｇｍ）
 50
0.0
 41
0.666666667
 51
0.0
  7
KANJI44
  0
TEXT
  8
0
  6
CONTINUOUS
 62
     2
 10
3758.083333333
 20
1946.083333333
 30
0.0
 40
30.0
  1
１０４９Ｎｍ（１０７ｋｇｍ）
 50
0.0
 41
0.666666667
 51
0.0
  7
KANJI44
  0
TEXT
  8
0
  6
CONTINUOUS
 62
     3
 10
2792.333389
 20
202.99999
 30
3.0
 40
35.0
  1
２００５．０５．２５
 50
0.0
 41
0.571428571
 51
0.0
  7
KANJI45
  0
LINE
  8
0
  6
CONTINUOUS
 62
     1
 10
808.1
 20
885.5
 11
2358.1
 21
885.5
  0
LINE
  8
0
  6
CONTINUOUS
 62
     1
 10
808.1
 20
815.5
 11
2358.1
 21
815.5
  0
TEXT
  8
0
  6
CONTINUOUS
 62
     2
 10
1184.1
 20
835.5
 30
3.0
 40
30.0
  1
ストローク
 50
0.0
 41
0.9
 51
0.0
  7
KANJI17
  0
TEXT
  8
0
  6
CONTINUOUS
 62
     2
 10
1376.1
 20
833.5
 30
0.0
 40
30.0
  1
ｍｉｎ　
 50
0.0
 41
0.9
 51
0.0
  7
KANJI19
  0
TEXT
  8
0
  6
CONTINUOUS
 62
     2
 10
1576.1
 20
833.5
 30
0.0
 40
30.0
  1
ｍｉｎ　
 50
0.0
 41
0.9
 51
0.0
  7
KANJI19
  0
TEXT
  8
0
  6
CONTINUOUS
 62
     2
 10
1976.1
 20
833.5
 30
0.0
 40
30.0
  1
ｍｉｎ　
 50
0.0
 41
0.9
 51
0.0
  7
KANJI19
  0
TEXT
  8
0
  6
CONTINUOUS
 62
     2
 10
2286.85
 20
837.75
 30
0.0
 40
24.0
  1
（ｋｇ）
 50
0.0
 41
0.777777778
 51
0.0
  7
KANJI46
  0
TEXT
  8
0
  6
CONTINUOUS
 62
     2
 10
2166.85
 20
834.25
 30
3.2
 40
32.0
  1
概算重量
 50
0.0
 41
0.9
 51
0.0
  7
KANJI47
  0
TEXT
  8
0
  6
CONTINUOUS
 62
     2
 10
878.1
 20
835.5
 30
3.2
 40
32.0
  1
形
 50
0.0
 41
0.9
 51
0.0
  7
KANJI47
  0
TEXT
  8
0
  6
CONTINUOUS
 62
     2
 10
1073.1
 20
835.5
 30
3.2
 40
32.0
  1
式
 50
0.0
 41
0.9
 51
0.0
  7
KANJI47
  0
TEXT
  8
0
  6
CONTINUOUS
 62
     2
 10
1478.1
 20
835.5
 30
3.5
 40
35.0
  1
ＡＬ
 50
0.0
 41
0.9
 51
0.0
  7
KANJI39
  0
TEXT
  8
0
  6
CONTINUOUS
 62
     2
 10
1678.1
 20
835.5
 30
3.5
 40
35.0
  1
Ｌ
 50
0.0
 41
0.9
 51
0.0
  7
KANJI39
  0
TEXT
  8
0
  6
CONTINUOUS
 62
     2
 10
1848.1
 20
835.5
 30
3.5
 40
35.0
  1
Ｃ
 50
0.0
 41
0.9
 51
0.0
  7
KANJI39
  0
TEXT
  8
0
  6
CONTINUOUS
 62
     2
 10
2078.1
 20
835.5
 30
3.5
 40
35.0
  1
Ｐ
 50
0.0
 41
0.9
 51
0.0
  7
KANJI39
  0
TEXT
  8
0
  6
CONTINUOUS
 62
     2
 10
2057.85
 20
766.75
 30
3.0
 40
30.0
  1
５０
 50
0.0
 41
0.9
 51
0.0
  7
KANJI17
  0
LINE
  8
0
  6
CONTINUOUS
 62
     3
 10
808.1
 20
465.5
 11
2358.1
 21
465.5
  0
LINE
  8
0
  6
CONTINUOUS
 62
     3
 10
808.1
 20
745.5
 11
2358.1
 21
745.5
  0
LINE
  8
0
  6
CONTINUOUS
 62
     3
 10
808.1
 20
675.5
 11
2358.1
 21
675.5
  0
LINE
  8
0
  6
CONTINUOUS
 62
     3
 10
808.1
 20
605.5
 11
2358.1
 21
605.5
  0
LINE
  8
0
  6
CONTINUOUS
 62
     3
 10
808.1
 20
535.5
 11
2358.1
 21
535.5
  0
LINE
  8
0
  6
CONTINUOUS
 62
     3
 10
808.1
 20
395.5
 11
2358.1
 21
395.5
  0
LINE
  8
0
  6
CONTINUOUS
 62
     1
 10
808.1
 20
325.5
 11
2358.1
 21
325.5
  0
LINE
  8
0
  6
CONTINUOUS
 62
     1
 10
808.1
 20
885.5
 11
808.1
 21
325.5
  0
LINE
  8
0
  6
CONTINUOUS
 62
     1
 10
1158.1
 20
885.5
 11
1158.1
 21
325.5
  0
LINE
  8
0
  6
CONTINUOUS
 62
     3
 10
1358.1
 20
885.5
 11
1358.1
 21
325.5
  0
LINE
  8
0
  6
CONTINUOUS
 62
     3
 10
1558.1
 20
885.5
 11
1558.1
 21
325.5
  0
LINE
  8
0
  6
CONTINUOUS
 62
     3
 10
1758.1
 20
885.5
 11
1758.1
 21
325.5
  0
LINE
  8
0
  6
CONTINUOUS
 62
     3
 10
1958.1
 20
885.5
 11
1958.1
 21
325.5
  0
LINE
  8
0
  6
CONTINUOUS
 62
     3
 10
2158.1
 20
885.5
 11
2158.1
 21
325.5
  0
LINE
  8
0
  6
CONTINUOUS
 62
     1
 10
2358.1
 20
885.5
 11
2358.1
 21
325.5
  0
TEXT
  8
0
  6
CONTINUOUS
 62
     2
 10
1243.1
 20
762.25
 30
3.0
 40
30.0
  1
３００
 50
0.0
 41
0.9
 51
0.0
  7
KANJI17
  0
TEXT
  8
0
  6
CONTINUOUS
 62
     2
 10
1243.1
 20
692.25
 30
3.0
 40
30.0
  1
５００
 50
0.0
 41
0.9
 51
0.0
  7
KANJI17
  0
TEXT
  8
0
  6
CONTINUOUS
 62
     2
 10
1243.1
 20
622.25
 30
3.0
 40
30.0
  1
７００
 50
0.0
 41
0.9
 51
0.0
  7
KANJI17
  0
TEXT
  8
0
  6
CONTINUOUS
 62
     2
 10
1213.1
 20
552.25
 30
3.0
 40
30.0
  1
１０００
 50
0.0
 41
0.9
 51
0.0
  7
KANJI17
  0
TEXT
  8
0
  6
CONTINUOUS
 62
     2
 10
1213.1
 20
482.25
 30
3.0
 40
30.0
  1
１５００
 50
0.0
 41
0.9
 51
0.0
  7
KANJI17
  0
TEXT
  8
0
  6
CONTINUOUS
 62
     2
 10
1213.1
 20
412.25
 30
3.0
 40
30.0
  1
２０００
 50
0.0
 41
0.9
 51
0.0
  7
KANJI17
  0
TEXT
  8
0
  6
CONTINUOUS
 62
     2
 10
1810.1
 20
766.75
 30
3.0
 40
30.0
  1
１３０６
 50
0.0
 41
0.9
 51
0.0
  7
KANJI17
  0
TEXT
  8
0
  6
CONTINUOUS
 62
     2
 10
1810.1
 20
696.75
 30
3.0
 40
30.0
  1
１５０６
 50
0.0
 41
0.9
 51
0.0
  7
KANJI17
  0
TEXT
  8
0
  6
CONTINUOUS
 62
     2
 10
1810.1
 20
626.75
 30
3.0
 40
30.0
  1
１７４６
 50
0.0
 41
0.9
 51
0.0
  7
KANJI17
  0
TEXT
  8
0
  6
CONTINUOUS
 62
     2
 10
1810.1
 20
556.75
 30
3.0
 40
30.0
  1
２０４６
 50
0.0
 41
0.9
 51
0.0
  7
KANJI17
  0
TEXT
  8
0
  6
CONTINUOUS
 62
     2
 10
1810.1
 20
486.75
 30
3.0
 40
30.0
  1
２６０１
 50
0.0
 41
0.9
 51
0.0
  7
KANJI17
  0
TEXT
  8
0
  6
CONTINUOUS
 62
     2
 10
1810.1
 20
416.75
 30
3.0
 40
30.0
  1
３１７１
 50
0.0
 41
0.9
 51
0.0
  7
KANJI17
  0
TEXT
  8
0
  6
CONTINUOUS
 62
     2
 10
1612.6
 20
765.0
 30
3.0
 40
30.0
  1
１５２６
 50
0.0
 41
0.9
 51
0.0
  7
KANJI17
  0
TEXT
  8
0
  6
CONTINUOUS
 62
     2
 10
1411.6
 20
763.0
 30
3.0
 40
30.0
  1
１６７６
 50
0.0
 41
0.9
 51
0.0
  7
KANJI17
  0
TEXT
  8
0
  6
CONTINUOUS
 62
     2
 10
2228.6
 20
766.0
 30
3.0
 40
30.0
  1
５５０
 50
0.0
 41
0.9
 51
0.0
  7
KANJI17
  0
TEXT
  8
0
  6
CONTINUOUS
 62
     2
 10
2228.6
 20
696.0
 30
3.0
 40
30.0
  1
６００
 50
0.0
 41
0.9
 51
0.0
  7
KANJI17
  0
TEXT
  8
0
  6
CONTINUOUS
 62
     2
 10
2228.6
 20
626.0
 30
3.0
 40
30.0
  1
６６０
 50
0.0
 41
0.9
 51
0.0
  7
KANJI17
  0
TEXT
  8
0
  6
CONTINUOUS
 62
     2
 10
2228.6
 20
556.0
 30
3.0
 40
30.0
  1
７３０
 50
0.0
 41
0.9
 51
0.0
  7
KANJI17
  0
TEXT
  8
0
  6
CONTINUOUS
 62
     2
 10
2228.6
 20
486.0
 30
3.0
 40
30.0
  1
８２０
 50
0.0
 41
0.9
 51
0.0
  7
KANJI17
  0
TEXT
  8
0
  6
CONTINUOUS
 62
     2
 10
2228.6
 20
416.0
 30
3.0
 40
30.0
  1
９５０
 50
0.0
 41
0.9
 51
0.0
  7
KANJI17
  0
TEXT
  8
0
  6
CONTINUOUS
 62
     2
 10
2027.85
 20
696.75
 30
3.0
 40
30.0
  1
　５０
 50
0.0
 41
0.9
 51
0.0
  7
KANJI17
  0
TEXT
  8
0
  6
CONTINUOUS
 62
     2
 10
2027.85
 20
626.75
 30
3.0
 40
30.0
  1
　５０
 50
0.0
 41
0.9
 51
0.0
  7
KANJI17
  0
TEXT
  8
0
  6
CONTINUOUS
 62
     2
 10
2027.85
 20
556.75
 30
3.0
 40
30.0
  1
　５０
 50
0.0
 41
0.9
 51
0.0
  7
KANJI17
  0
TEXT
  8
0
  6
CONTINUOUS
 62
     2
 10
2027.85
 20
486.75
 30
3.0
 40
30.0
  1
　５０
 50
0.0
 41
0.9
 51
0.0
  7
KANJI17
  0
TEXT
  8
0
  6
CONTINUOUS
 62
     2
 10
2027.85
 20
416.75
 30
3.0
 40
30.0
  1
　５０
 50
0.0
 41
0.9
 51
0.0
  7
KANJI17
  0
TEXT
  8
0
  6
CONTINUOUS
 62
     2
 10
1612.6
 20
695.0
 30
3.0
 40
30.0
  1
１７２６
 50
0.0
 41
0.9
 51
0.0
  7
KANJI17
  0
TEXT
  8
0
  6
CONTINUOUS
 62
     2
 10
1612.6
 20
625.0
 30
3.0
 40
30.0
  1
１９６６
 50
0.0
 41
0.9
 51
0.0
  7
KANJI17
  0
TEXT
  8
0
  6
CONTINUOUS
 62
     2
 10
1610.6
 20
555.0
 30
3.0
 40
30.0
  1
２２６６
 50
0.0
 41
0.9
 51
0.0
  7
KANJI17
  0
TEXT
  8
0
  6
CONTINUOUS
 62
     2
 10
1610.6
 20
485.0
 30
3.0
 40
30.0
  1
２８２１
 50
0.0
 41
0.9
 51
0.0
  7
KANJI17
  0
TEXT
  8
0
  6
CONTINUOUS
 62
     2
 10
1610.6
 20
415.0
 30
3.0
 40
30.0
  1
３３９１
 50
0.0
 41
0.9
 51
0.0
  7
KANJI17
  0
TEXT
  8
0
  6
CONTINUOUS
 62
     2
 10
1411.6
 20
693.0
 30
3.0
 40
30.0
  1
１８７６
 50
0.0
 41
0.9
 51
0.0
  7
KANJI17
  0
TEXT
  8
0
  6
CONTINUOUS
 62
     2
 10
1410.35
 20
623.0
 30
3.0
 40
30.0
  1
２１１６
 50
0.0
 41
0.9
 51
0.0
  7
KANJI17
  0
TEXT
  8
0
  6
CONTINUOUS
 62
     2
 10
1409.6
 20
553.0
 30
3.0
 40
30.0
  1
２４１６
 50
0.0
 41
0.9
 51
0.0
  7
KANJI17
  0
TEXT
  8
0
  6
CONTINUOUS
 62
     2
 10
1409.6
 20
483.0
 30
3.0
 40
30.0
  1
２９７１
 50
0.0
 41
0.9
 51
0.0
  7
KANJI17
  0
TEXT
  8
0
  6
CONTINUOUS
 62
     2
 10
1409.6
 20
413.0
 30
3.0
 40
30.0
  1
３５４１
 50
0.0
 41
0.9
 51
0.0
  7
KANJI17
  0
TEXT
  8
0
  6
CONTINUOUS
 62
     2
 10
840.6
 20
761.5
 30
2.0
 40
30.0
  1
ＳＣＤ３０Ａ－　３
 50
0.0
 41
0.833333333
 51
0.0
  7
KANJI38
  0
TEXT
  8
0
  6
CONTINUOUS
 62
     2
 10
840.6
 20
691.5
 30
2.0
 40
30.0
  1
ＳＣＤ３０Ａ－　５
 50
0.0
 41
0.833333333
 51
0.0
  7
KANJI38
  0
TEXT
  8
0
  6
CONTINUOUS
 62
     2
 10
840.6
 20
621.5
 30
2.0
 40
30.0
  1
ＳＣＤ３０Ａ－　７
 50
0.0
 41
0.833333333
 51
0.0
  7
KANJI38
  0
TEXT
  8
0
  6
CONTINUOUS
 62
     2
 10
840.6
 20
551.5
 30
2.0
 40
30.0
  1
ＳＣＤ３０Ａ－１０
 50
0.0
 41
0.833333333
 51
0.0
  7
KANJI38
  0
TEXT
  8
0
  6
CONTINUOUS
 62
     2
 10
840.6
 20
481.5
 30
2.0
 40
30.0
  1
ＳＣＤ３０Ａ－１５
 50
0.0
 41
0.833333333
 51
0.0
  7
KANJI38
  0
TEXT
  8
0
  6
CONTINUOUS
 62
     2
 10
840.6
 20
411.5
 30
2.0
 40
30.0
  1
ＳＣＤ３０Ａ－２０
 50
0.0
 41
0.833333333
 51
0.0
  7
KANJI38
  0
TEXT
  8
0
  6
CONTINUOUS
 62
     2
 10
840.6
 20
341.5
 30
2.0
 40
30.0
  1
ＳＣＤ３０Ａ－　　
 50
0.0
 41
0.833333333
 51
0.0
  7
KANJI38
  0
LINE
  8
0
  6
CONTINUOUS
 62
     1
 10
1958.0
 20
1538.6
 11
1958.0
 21
1780.4
  0
LINE
  8
0
  6
CONTINUOUS
 62
     1
 10
1264.979596489
 20
1780.4
 11
1958.0
 21
1780.4
  0
LINE
  8
0
  6
CONTINUOUS
 62
     1
 10
1264.979596489
 20
1538.6
 11
1958.0
 21
1538.6
  0
LINE
  8
0
  6
CONTINUOUS
 62
     1
 10
1848.0
 20
1538.6
 11
1848.0
 21
1780.4
  0
LINE
  8
0
  6
CONTINUOUS
 62
     2
 10
1619.0
 20
1780.4
 11
1610.6
 21
1780.4
  0
LINE
  8
0
  6
CONTINUOUS
 62
     2
 10
1620.6
 20
1780.4
 11
1614.129523872
 21
1756.251854343
  0
LINE
  8
0
  6
CONTINUOUS
 62
     2
 10
1620.6
 20
1780.4
 11
1627.070476128
 21
1756.251854343
  0
LINE
  8
0
  6
CONTINUOUS
 62
     2
 10
1620.6
 20
1780.4
 11
1620.6
 21
1538.6
  0
LINE
  8
0
  6
CONTINUOUS
 62
     2
 10
1620.6
 20
1538.6
 11
1627.070476128
 21
1562.748145657
  0
LINE
  8
0
  6
CONTINUOUS
 62
     2
 10
1620.6
 20
1538.6
 11
1614.129523872
 21
1562.748145657
  0
LINE
  8
0
  6
CONTINUOUS
 62
     2
 10
1614.2
 20
1538.6
 11
1610.6
 21
1538.6
  0
LINE
  8
0
  6
LTYPE2
 62
     2
 10
1331.7
 20
1659.5
 11
1576.1
 21
1659.5
  0
LINE
  8
0
  6
CONTINUOUS
 62
     2
 10
2907.3
 20
2084.5
 11
2907.3
 21
2187.0
  0
LINE
  8
0
  6
CONTINUOUS
 62
     2
 10
2907.3
 20
2160.1
 11
2907.3
 21
2182.0
  0
LINE
  8
0
  6
CONTINUOUS
 62
     2
 10
2907.3
 20
2172.0
 11
2883.151854343
 21
2178.470476128
  0
LINE
  8
0
  6
CONTINUOUS
 62
     2
 10
2907.3
 20
2172.0
 11
2883.151854343
 21
2165.529523872
  0
LINE
  8
0
  6
CONTINUOUS
 62
     2
 10
2907.3
 20
2172.0
 11
2615.1
 21
2172.0
  0
LINE
  8
0
  6
CONTINUOUS
 62
     2
 10
2615.1
 20
2172.0
 11
2639.248145657
 21
2165.529523872
  0
LINE
  8
0
  6
CONTINUOUS
 62
     2
 10
2615.1
 20
2172.0
 11
2639.248145657
 21
2178.470476128
  0
LINE
  8
0
  6
CONTINUOUS
 62
     2
 10
2615.1
 20
1669.5
 11
2615.1
 21
2182.0
  0
LINE
  8
0
  6
CONTINUOUS
 62
     2
 10
2907.3
 20
2155.5
 11
2907.3
 21
2182.0
  0
LINE
  8
0
  6
CONTINUOUS
 62
     2
 10
2907.3
 20
2172.0
 11
2931.448145657
 21
2165.529523872
  0
LINE
  8
0
  6
CONTINUOUS
 62
     2
 10
2907.3
 20
2172.0
 11
2931.448145657
 21
2178.470476128
  0
LINE
  8
0
  6
CONTINUOUS
 62
     2
 10
2907.3
 20
2172.0
 11
3111.3
 21
2172.0
  0
LINE
  8
0
  6
CONTINUOUS
 62
     2
 10
3111.3
 20
2172.0
 11
3087.151854343
 21
2178.470476128
  0
LINE
  8
0
  6
CONTINUOUS
 62
     2
 10
3111.3
 20
2172.0
 11
3087.151854343
 21
2165.529523872
  0
LINE
  8
0
  6
CONTINUOUS
 62
     2
 10
3111.3
 20
1669.5
 11
3111.3
 21
2182.0
  0
TEXT
  8
0
  6
CONTINUOUS
 62
     3
 10
2968.8
 20
2182.0
 30
0.0
 40
30.0
  1
２０４
 50
0.0
 41
0.9
 51
0.0
  7
KANJI19
  0
LINE
  8
0
  6
CONTINUOUS
 62
     1
 10
2782.3
 20
1865.5
 11
2782.3
 21
1827.907275017
  0
ARC
  8
0
  6
CONTINUOUS
 62
     1
 10
2767.3
 20
1827.9072445
 40
15.0
 50
309.737362524
 51
0.000116567
  0
LINE
  8
0
  6
CONTINUOUS
 62
     1
 10
3032.3
 20
1865.5
 11
3032.3
 21
1827.907287658
  0
ARC
  8
0
  6
CONTINUOUS
 62
     1
 10
3047.3
 20
1827.9072445
 40
15.0
 50
179.999835147
 51
230.262637476
  0
LINE
  8
0
  6
CONTINUOUS
 62
     1
 10
2782.3
 20
1491.092786018
 11
2782.3
 21
1453.5
  0
ARC
  8
0
  6
CONTINUOUS
 62
     1
 10
2767.3
 20
1491.0927555
 40
15.0
 50
0.000116567
 51
50.262637476
  0
ARC
  8
0
  6
CONTINUOUS
 62
     1
 10
3047.3
 20
1491.0927555
 40
15.0
 50
129.737362524
 51
179.999883433
  0
LINE
  8
0
  6
CONTINUOUS
 62
     1
 10
3032.3
 20
1491.092786018
 11
3032.3
 21
1453.5
  0
LINE
  8
0
  6
CONTINUOUS
 62
     1
 10
1343.5
 20
1709.5
 11
1443.5
 21
1709.5
  0
LINE
  8
0
  6
CONTINUOUS
 62
     1
 10
1443.5
 20
1609.5
 11
1443.5
 21
1709.5
  0
LINE
  8
0
  6
CONTINUOUS
 62
     1
 10
1343.5
 20
1609.5
 11
1343.5
 21
1709.5
  0
LINE
  8
0
  6
LTYPE2
 62
     2
 10
1393.5
 20
1577.5
 11
1393.5
 21
1752.5
  0
LINE
  8
0
  6
CONTINUOUS
 62
     2
 10
1415.5
 20
1685.75
 11
1429.630824256
 21
1706.3732831
  0
LINE
  8
0
  6
CONTINUOUS
 62
     2
 10
1415.5
 20
1685.75
 11
1417.426011232
 21
1710.675699203
  0
LINE
  8
0
  6
CONTINUOUS
 62
     2
 10
1415.5
 20
1685.75
 11
1496.579136691
 21
1915.75
  0
CIRCLE
  8
0
  6
CONTINUOUS
 62
     1
 10
1393.5
 20
1659.5
 40
35.0
  0
LINE
  8
0
  6
CONTINUOUS
 62
     1
 10
1343.5
 20
1609.5
 11
1443.5
 21
1609.5
  0
TEXT
  8
0
  6
CONTINUOUS
 62
     2
 10
1497.5
 20
1925.75
 30
0.0
 40
35.0
  1
給脂口
 50
0.0
 41
0.9
 51
0.0
  7
KANJI16
  0
LINE
  8
0
  6
CONTINUOUS
 62
     2
 10
1496.579136691
 20
1915.75
 11
1592.0
 21
1915.75
  0
LINE
  8
0
  6
CONTINUOUS
 62
     1
 10
1150.5
 20
1456.3
 11
1150.5
 21
1863.5
  0
LINE
  8
0
  6
CONTINUOUS
 62
     2
 10
1192.5
 20
1863.5
 11
1331.4
 21
1863.5
  0
LINE
  8
0
  6
CONTINUOUS
 62
     2
 10
1321.4
 20
1863.5
 11
1314.929523872
 21
1839.351854343
  0
LINE
  8
0
  6
CONTINUOUS
 62
     2
 10
1321.4
 20
1863.5
 11
1327.870476128
 21
1839.351854343
  0
LINE
  8
0
  6
CONTINUOUS
 62
     2
 10
1321.4
 20
1863.5
 11
1321.4
 21
1455.5
  0
LINE
  8
0
  6
CONTINUOUS
 62
     1
 10
1115.5
 20
1863.5
 11
1115.5
 21
1455.5
  0
TEXT
  8
0
  6
CONTINUOUS
 62
     3
 10
1311.4
 20
1605.5
 30
0.0
 40
30.0
  1
φ４０８
 50
90.0
 41
0.9
 51
0.0
  7
KANJI19
  0
POINT
  8
0
  6
CONTINUOUS
 62
     1
 10
1182.5
 20
1475.0
  0
LINE
  8
0
  6
CONTINUOUS
 62
     2
 10
1192.5
 20
1455.5
 11
1331.4
 21
1455.5
  0
LINE
  8
0
  6
CONTINUOUS
 62
     2
 10
1321.4
 20
1455.5
 11
1327.870476128
 21
1479.648145657
  0
LINE
  8
0
  6
CONTINUOUS
 62
     2
 10
1321.4
 20
1455.5
 11
1314.929523872
 21
1479.648145657
  0
LINE
  8
0
  6
CONTINUOUS
 62
     1
 10
837.5
 20
1780.4
 11
1073.5
 21
1780.4
  0
LINE
  8
0
  6
CONTINUOUS
 62
     1
 10
837.5
 20
1855.4
 11
1073.5
 21
1855.4
  0
LINE
  8
0
  6
CONTINUOUS
 62
     1
 10
1073.5
 20
1863.5
 11
1073.5
 21
1455.5
  0
LINE
  8
0
  6
CONTINUOUS
 62
     1
 10
837.5
 20
1538.6
 11
1073.5
 21
1538.6
  0
LINE
  8
0
  6
CONTINUOUS
 62
     1
 10
837.5
 20
1463.6
 11
1073.5
 21
1463.6
  0
LINE
  8
0
  6
CONTINUOUS
 62
     2
 10
610.5
 20
1049.5
 11
634.648145657
 21
1043.029523872
  0
LINE
  8
0
  6
CONTINUOUS
 62
     2
 10
610.5
 20
1049.5
 11
634.648145657
 21
1055.970476128
  0
LINE
  8
0
  6
CONTINUOUS
 62
     2
 10
610.5
 20
1049.5
 11
2240.0
 21
1049.5
  0
LINE
  8
0
  6
CONTINUOUS
 62
     2
 10
460.5
 20
971.5
 11
2240.0
 21
971.5
  0
LINE
  8
0
  6
CONTINUOUS
 62
     2
 10
610.5
 20
1117.375
 11
634.648145657
 21
1110.904523872
  0
LINE
  8
0
  6
CONTINUOUS
 62
     2
 10
610.5
 20
1117.375
 11
634.648145657
 21
1123.845476128
  0
TEXT
  8
0
  6
CONTINUOUS
 62
     2
 10
1208.0
 20
1124.375
 30
0.0
 40
30.0
  1
Ｃ
 50
0.0
 41
0.9
 51
0.0
  7
KANJI19
  0
LINE
  8
0
  6
CONTINUOUS
 62
     2
 10
1958.0
 20
1117.375
 11
610.5
 21
1117.375
  0
LINE
  8
0
  6
CONTINUOUS
 62
     2
 10
460.5
 20
971.5
 11
484.648145657
 21
965.029523872
  0
LINE
  8
0
  6
CONTINUOUS
 62
     2
 10
460.5
 20
971.5
 11
484.648145657
 21
977.970476128
  0
LINE
  8
0
  6
CONTINUOUS
 62
     2
 10
460.5
 20
1074.0
 11
460.5
 21
961.5
  0
TEXT
  8
0
  6
CONTINUOUS
 62
     2
 10
1357.75
 20
1056.5
 30
0.0
 40
30.0
  1
ｍｉｎ．Ｌ
 50
0.0
 41
0.9
 51
0.0
  7
KANJI19
  0
TEXT
  8
0
  6
CONTINUOUS
 62
     2
 10
1279.25
 20
978.5
 30
0.0
 40
30.0
  1
ｍｉｎ．ＡＬ
 50
0.0
 41
0.9
 51
0.0
  7
KANJI19
  0
LINE
  8
0
  6
CONTINUOUS
 62
     2
 10
2070.0
 20
1117.375
 11
2094.148145657
 21
1110.904523872
  0
LINE
  8
0
  6
CONTINUOUS
 62
     2
 10
2070.0
 20
1117.375
 11
2094.148145657
 21
1123.845476128
  0
LINE
  8
0
  6
CONTINUOUS
 62
     2
 10
2070.0
 20
1117.375
 11
2240.0
 21
1117.375
  0
LINE
  8
0
  6
CONTINUOUS
 62
     2
 10
2070.0
 20
1137.375
 11
2070.0
 21
1107.375
  0
LINE
  8
0
  6
CONTINUOUS
 62
     2
 10
2070.0
 20
1117.375
 11
2045.851854343
 21
1123.845476128
  0
LINE
  8
0
  6
CONTINUOUS
 62
     2
 10
2070.0
 20
1117.375
 11
2045.851854343
 21
1110.904523872
  0
LINE
  8
0
  6
CONTINUOUS
 62
     2
 10
1958.0
 20
1117.375
 11
1982.148145657
 21
1123.845476128
  0
LINE
  8
0
  6
CONTINUOUS
 62
     2
 10
1958.0
 20
1127.375
 11
1958.0
 21
1107.375
  0
LINE
  8
0
  6
CONTINUOUS
 62
     2
 10
1958.0
 20
1117.375
 11
1933.851854343
 21
1123.845476128
  0
LINE
  8
0
  6
CONTINUOUS
 62
     2
 10
1958.0
 20
1117.375
 11
1982.148145657
 21
1110.904523872
  0
LINE
  8
0
  6
CONTINUOUS
 62
     2
 10
1958.0
 20
1117.375
 11
1933.851854343
 21
1110.904523872
  0
TEXT
  8
0
  6
CONTINUOUS
 62
     2
 10
1963.25
 20
1124.375
 30
0.0
 40
30.0
  1
ｍｉｎ．Ｐ
 50
0.0
 41
0.666666667
 51
0.0
  7
KANJI44
  0
LINE
  8
0
  6
CONTINUOUS
 62
     2
 10
2070.0
 20
1117.375
 11
1958.0
 21
1117.375
  0
LINE
  8
0
  6
CONTINUOUS
 62
     2
 10
1958.0
 20
1520.0
 11
1958.0
 21
1107.375
  0
LINE
  8
0
  6
CONTINUOUS
 62
     2
 10
2070.0
 20
1547.7
 11
2070.0
 21
1107.375
  0
LINE
  8
0
  6
CONTINUOUS
 62
     2
 10
2240.0
 20
1049.5
 11
2215.851854343
 21
1055.970476128
  0
LINE
  8
0
  6
CONTINUOUS
 62
     2
 10
2240.0
 20
1049.5
 11
2215.851854343
 21
1043.029523872
  0
LINE
  8
0
  6
CONTINUOUS
 62
     2
 10
2240.0
 20
1134.0
 11
2240.0
 21
1039.5
  0
LINE
  8
0
  6
CONTINUOUS
 62
     2
 10
2240.0
 20
971.5
 11
2215.851854343
 21
977.970476128
  0
LINE
  8
0
  6
CONTINUOUS
 62
     2
 10
2240.0
 20
971.5
 11
2215.851854343
 21
965.029523872
  0
LINE
  8
0
  6
CONTINUOUS
 62
     2
 10
2240.0
 20
1079.0
 11
2240.0
 21
961.5
  0
LINE
  8
0
  6
CONTINUOUS
 62
     2
 10
2240.0
 20
1117.375
 11
2215.851854343
 21
1123.845476128
  0
LINE
  8
0
  6
CONTINUOUS
 62
     2
 10
2240.0
 20
1117.375
 11
2215.851854343
 21
1110.904523872
  0
TEXT
  8
0
  6
CONTINUOUS
 62
     2
 10
2114.5
 20
1124.375
 30
0.0
 40
30.0
  1
１７０
 50
0.0
 41
0.9
 51
0.0
  7
KANJI19
  0
ARC
  8
0
  6
CONTINUOUS
 62
     1
 10
610.5
 20
2022.903745275
 40
203.2
 50
232.03663602
 51
307.96336398
  0
ARC
  8
0
  6
CONTINUOUS
 62
     1
 10
610.5
 20
2022.903745275
 40
203.2
 50
232.03663602
 51
307.96336398
  0
ARC
  8
0
  6
CONTINUOUS
 62
     1
 10
610.5
 20
1296.096254725
 40
203.2
 50
52.03663602
 51
127.96336398
  0
TEXT
  8
0
  6
CONTINUOUS
 62
     3
 10
1611.6
 20
1601.3
 30
0.0
 40
30.0
  1
φ２４１
 50
90.0
 41
0.9
 51
0.0
  7
KANJI19
  0
TEXT
  8
0
  6
CONTINUOUS
 62
     3
 10
2715.5
 20
2182.0
 30
0.0
 40
30.0
  1
２９２
 50
0.0
 41
0.9
 51
0.0
  7
KANJI19
  0
POINT
  8
0
  6
CONTINUOUS
 62
     1
 10
1183.5
 20
1809.0
  0
POINT
  8
0
  6
CONTINUOUS
 62
     1
 10
1183.5
 20
1844.0
  0
LINE
  8
0
  6
CONTINUOUS
 62
     1
 10
1198.5
 20
1804.983495
 11
1183.5
 21
1804.983495
  0
LINE
  8
0
  6
CONTINUOUS
 62
     1
 10
1303.5
 20
1766.730940016
 11
1198.5
 21
1804.983495
  0
LINE
  8
0
  6
CONTINUOUS
 62
     1
 10
1198.5
 20
1804.983495
 11
1198.5
 21
1790.841359376
  0
LINE
  8
0
  6
CONTINUOUS
 62
     1
 10
1183.5
 20
1813.787881929
 11
1188.499996244
 21
1808.787885685
  0
LINE
  8
0
  6
CONTINUOUS
 62
     1
 10
1188.499996244
 20
1813.787881929
 11
1183.5
 21
1818.787878173
  0
LINE
  8
0
  6
CONTINUOUS
 62
     1
 10
1207.25
 20
1813.78788165
 11
1207.25
 21
1828.787881929
  0
LINE
  8
0
  6
CONTINUOUS
 62
     1
 10
1208.5
 20
1813.787881631
 11
1208.5
 21
1826.62281842
  0
LINE
  8
0
  6
CONTINUOUS
 62
     1
 10
1183.5
 20
1831.287881929
 11
1188.5
 21
1831.287881929
  0
LINE
  8
0
  6
CONTINUOUS
 62
     1
 10
1188.5
 20
1828.787881929
 11
1207.25
 21
1828.787881929
  0
LINE
  8
0
  6
CONTINUOUS
 62
     1
 10
1207.25
 20
1828.787881929
 11
1208.5
 21
1826.62281842
  0
LINE
  8
0
  6
CONTINUOUS
 62
     1
 10
1188.5
 20
1804.983495
 11
1188.5
 21
1831.076617052
  0
LINE
  8
0
  6
CONTINUOUS
 62
     1
 10
1188.5
 20
1813.787881929
 11
1188.5
 21
1804.983495
  0
LINE
  8
0
  6
CONTINUOUS
 62
     1
 10
1207.25
 20
1813.787882209
 11
1207.25
 21
1801.795782084
  0
LINE
  8
0
  6
CONTINUOUS
 62
     1
 10
1208.5
 20
1813.787882227
 11
1208.5
 21
1801.340394525
  0
LINE
  8
0
  6
LTYPE2
 62
     2
 10
1062.1
 20
1813.787881929
 11
1240.169656263
 21
1813.787881929
  0
LINE
  8
0
  6
CONTINUOUS
 62
     1
 10
1303.5
 20
1752.588804393
 11
1198.5
 21
1790.841359376
  0
LINE
  8
0
  6
CONTINUOUS
 62
     1
 10
1198.5
 20
1790.841359376
 11
1183.5
 21
1790.841359376
  0
LINE
  8
0
  6
CONTINUOUS
 62
     1
 10
1303.5
 20
1741.952672056
 11
1183.5
 21
1741.952672056
  0
LINE
  8
0
  6
CONTINUOUS
 62
     1
 10
1303.5
 20
1766.730940016
 11
1303.5
 21
1741.952672056
  0
LINE
  8
0
  6
CONTINUOUS
 62
     1
 10
1207.25
 20
1723.408133484
 11
1207.25
 21
1708.408133205
  0
LINE
  8
0
  6
CONTINUOUS
 62
     1
 10
1208.5
 20
1723.408133503
 11
1208.5
 21
1710.573196714
  0
LINE
  8
0
  6
CONTINUOUS
 62
     1
 10
1207.25
 20
1723.408132926
 11
1207.25
 21
1738.408133205
  0
LINE
  8
0
  6
CONTINUOUS
 62
     1
 10
1208.5
 20
1723.408132907
 11
1208.5
 21
1736.243069696
  0
LINE
  8
0
  6
CONTINUOUS
 62
     1
 10
1188.5
 20
1738.408133205
 11
1207.25
 21
1738.408133205
  0
LINE
  8
0
  6
CONTINUOUS
 62
     1
 10
1207.25
 20
1738.408133205
 11
1208.5
 21
1736.243069696
  0
LINE
  8
0
  6
LTYPE2
 62
     2
 10
1057.9
 20
1723.408133205
 11
1240.169656263
 21
1723.408133205
  0
LINE
  8
0
  6
CONTINUOUS
 62
     1
 10
1188.5
 20
1723.408133205
 11
1188.5
 21
1706.119398083
  0
LINE
  8
0
  6
CONTINUOUS
 62
     1
 10
1188.5
 20
1723.408133205
 11
1188.5
 21
1740.696868327
  0
LINE
  8
0
  6
CONTINUOUS
 62
     1
 10
1183.5
 20
1723.408133205
 11
1188.499996244
 21
1718.408136961
  0
LINE
  8
0
  6
CONTINUOUS
 62
     1
 10
1188.499996244
 20
1723.408133205
 11
1183.5
 21
1728.408129449
  0
LINE
  8
0
  6
CONTINUOUS
 62
     1
 10
1188.5
 20
1708.408133205
 11
1207.25
 21
1708.408133205
  0
LINE
  8
0
  6
CONTINUOUS
 62
     1
 10
1207.25
 20
1708.408133205
 11
1208.5
 21
1710.573196714
  0
LINE
  8
0
  6
CONTINUOUS
 62
     1
 10
1183.5
 20
1705.908133205
 11
1188.5
 21
1705.908133205
  0
LINE
  8
0
  6
CONTINUOUS
 62
     1
 10
1183.5
 20
1740.908133205
 11
1188.5
 21
1740.908133205
  0
LINE
  8
0
  6
CONTINUOUS
 62
     1
 10
1303.5
 20
1577.047327944
 11
1183.5
 21
1577.047327944
  0
LINE
  8
0
  6
CONTINUOUS
 62
     1
 10
1188.5
 20
1595.591866795
 11
1188.5
 21
1612.880601917
  0
LINE
  8
0
  6
CONTINUOUS
 62
     1
 10
1188.5
 20
1595.591866795
 11
1188.5
 21
1578.303131673
  0
LINE
  8
0
  6
CONTINUOUS
 62
     1
 10
1183.5
 20
1595.591866795
 11
1188.499996244
 21
1600.591863039
  0
LINE
  8
0
  6
CONTINUOUS
 62
     1
 10
1188.499996244
 20
1595.591866795
 11
1183.5
 21
1590.591870551
  0
LINE
  8
0
  6
CONTINUOUS
 62
     1
 10
1207.25
 20
1595.591866516
 11
1207.25
 21
1610.591866795
  0
LINE
  8
0
  6
CONTINUOUS
 62
     1
 10
1208.5
 20
1595.591866497
 11
1208.5
 21
1608.426803286
  0
LINE
  8
0
  6
CONTINUOUS
 62
     1
 10
1207.25
 20
1595.591867074
 11
1207.25
 21
1580.591866795
  0
LINE
  8
0
  6
CONTINUOUS
 62
     1
 10
1208.5
 20
1595.591867093
 11
1208.5
 21
1582.756930304
  0
LINE
  8
0
  6
CONTINUOUS
 62
     1
 10
1188.5
 20
1610.591866795
 11
1207.25
 21
1610.591866795
  0
LINE
  8
0
  6
CONTINUOUS
 62
     1
 10
1207.25
 20
1610.591866795
 11
1208.5
 21
1608.426803286
  0
LINE
  8
0
  6
CONTINUOUS
 62
     1
 10
1183.5
 20
1578.091866795
 11
1188.5
 21
1578.091866795
  0
LINE
  8
0
  6
CONTINUOUS
 62
     1
 10
1188.5
 20
1580.591866795
 11
1207.25
 21
1580.591866795
  0
LINE
  8
0
  6
CONTINUOUS
 62
     1
 10
1207.25
 20
1580.591866795
 11
1208.5
 21
1582.756930304
  0
LINE
  8
0
  6
CONTINUOUS
 62
     1
 10
1183.5
 20
1613.091866795
 11
1188.5
 21
1613.091866795
  0
LINE
  8
0
  6
LTYPE2
 62
     2
 10
1045.6
 20
1595.591866795
 11
1240.169656263
 21
1595.591866795
  0
LINE
  8
0
  6
CONTINUOUS
 62
     1
 10
1303.5
 20
1566.411195607
 11
1198.5
 21
1528.158640624
  0
LINE
  8
0
  6
CONTINUOUS
 62
     1
 10
1303.5
 20
1552.269059984
 11
1198.5
 21
1514.016505
  0
POINT
  8
0
  6
CONTINUOUS
 62
     1
 10
1183.5
 20
1510.0
  0
LINE
  8
0
  6
CONTINUOUS
 62
     1
 10
1198.5
 20
1528.158640624
 11
1183.5
 21
1528.158640624
  0
LINE
  8
0
  6
CONTINUOUS
 62
     1
 10
1198.5
 20
1514.016505
 11
1183.5
 21
1514.016505
  0
LINE
  8
0
  6
CONTINUOUS
 62
     1
 10
1198.5
 20
1514.016505
 11
1198.5
 21
1528.158640624
  0
LINE
  8
0
  6
CONTINUOUS
 62
     1
 10
1183.5
 20
1505.212118071
 11
1188.499996244
 21
1510.212114315
  0
LINE
  8
0
  6
CONTINUOUS
 62
     1
 10
1188.499996244
 20
1505.212118071
 11
1183.5
 21
1500.212121827
  0
LINE
  8
0
  6
CONTINUOUS
 62
     1
 10
1207.25
 20
1505.21211835
 11
1207.25
 21
1490.212118071
  0
LINE
  8
0
  6
CONTINUOUS
 62
     1
 10
1208.5
 20
1505.212118369
 11
1208.5
 21
1492.37718158
  0
LINE
  8
0
  6
CONTINUOUS
 62
     1
 10
1183.5
 20
1487.712118071
 11
1188.5
 21
1487.712118071
  0
LINE
  8
0
  6
CONTINUOUS
 62
     1
 10
1188.5
 20
1490.212118071
 11
1207.25
 21
1490.212118071
  0
LINE
  8
0
  6
CONTINUOUS
 62
     1
 10
1207.25
 20
1490.212118071
 11
1208.5
 21
1492.37718158
  0
LINE
  8
0
  6
CONTINUOUS
 62
     1
 10
1188.5
 20
1514.016505
 11
1188.5
 21
1487.923382948
  0
LINE
  8
0
  6
CONTINUOUS
 62
     1
 10
1188.5
 20
1505.212118071
 11
1188.5
 21
1514.016505
  0
LINE
  8
0
  6
CONTINUOUS
 62
     1
 10
1207.25
 20
1505.212117791
 11
1207.25
 21
1517.204217916
  0
LINE
  8
0
  6
CONTINUOUS
 62
     1
 10
1208.5
 20
1505.212117773
 11
1208.5
 21
1517.659605475
  0
LINE
  8
0
  6
LTYPE2
 62
     2
 10
1056.0
 20
1505.212118071
 11
1240.169656263
 21
1505.212118071
  0
LINE
  8
0
  6
CONTINUOUS
 62
     1
 10
1303.5
 20
1552.269059984
 11
1303.5
 21
1577.047327944
  0
LINE
  8
0
  6
CONTINUOUS
 62
     1
 10
1073.5
 20
1863.5
 11
1183.5
 21
1863.5
  0
LINE
  8
0
  6
CONTINUOUS
 62
     1
 10
1183.5
 20
1863.5
 11
1183.5
 21
1455.5
  0
LINE
  8
0
  6
CONTINUOUS
 62
     1
 10
1073.5
 20
1455.5
 11
1183.5
 21
1455.5
  0
LINE
  8
0
  6
CONTINUOUS
 62
     2
 10
610.5
 20
1194.2
 11
610.5
 21
1213.6
  0
LINE
  8
0
  6
CONTINUOUS
 62
     2
 10
610.5
 20
1203.6
 11
634.648145657
 21
1197.129523872
  0
LINE
  8
0
  6
CONTINUOUS
 62
     2
 10
610.5
 20
1203.6
 11
634.648145657
 21
1210.070476128
  0
LINE
  8
0
  6
CONTINUOUS
 62
     2
 10
610.5
 20
1203.6
 11
1183.5
 21
1203.6
  0
LINE
  8
0
  6
CONTINUOUS
 62
     2
 10
1183.5
 20
1203.6
 11
1159.351854343
 21
1210.070476128
  0
LINE
  8
0
  6
CONTINUOUS
 62
     2
 10
1183.5
 20
1203.6
 11
1159.351854343
 21
1197.129523872
  0
LINE
  8
0
  6
CONTINUOUS
 62
     2
 10
1183.5
 20
1445.5
 11
1183.5
 21
1193.6
  0
TEXT
  8
0
  6
CONTINUOUS
 62
     3
 10
856.5
 20
1213.6
 30
0.0
 40
30.0
  1
５７３
 50
0.0
 41
0.9
 51
0.0
  7
KANJI19
  0
LINE
  8
0
  6
CONTINUOUS
 62
     2
 10
2240.0
 20
1570.9
 11
2240.0
 21
1107.375
  0
ENDSEC
  0
EOF
