  0
SECTION
  2
HEADER
  9
$EXTMIN
 10
0.0
 20
0.0
 30
0.0
  9
$EXTMAX
 10
1680.0
 20
1188.0
 30
0.0
  9
$LIMMIN
 10
0.0
 20
0.0
  9
$LIMMAX
 10
1680.0
 20
1188.0
  9
$LTSCALE
 40
1.0
  9
$PDMODE
 70
     0
  0
ENDSEC
  0
SECTION
  2
TABLES
  0
TABLE
  2
LTYPE
 70
     6
  0
LTYPE
  2
CONTINUOUS
 70
    64
  3
Solid line
 72
    65
 73
     0
 40
0.0
  0
LTYPE
  2
LTYPE1
 70
    64
  3
CENTER
 72
    65
 73
     4
 40
40.0
 49
28.0
 49
-4.0
 49
4.0
 49
-4.0
  0
LTYPE
  2
LTYPE2
 70
    64
  3
CENTER
 72
    65
 73
     4
 40
80.0
 49
56.0
 49
-8.0
 49
8.0
 49
-8.0
  0
LTYPE
  2
LTYPE3
 70
    64
  3
CENTER
 72
    65
 73
     4
 40
60.0
 49
42.0
 49
-6.0
 49
6.0
 49
-6.0
  0
LTYPE
  2
LTYPE4
 70
    64
  3
HIDDEN
 72
    65
 73
     2
 40
12.0
 49
7.2
 49
-4.8
  0
LTYPE
  2
LTYPE5
 70
    64
  3
CENTER
 72
    65
 73
     4
 40
32.0
 49
22.4
 49
-3.2
 49
3.2
 49
-3.2
  0
ENDTAB
  0
TABLE
  2
LAYER
 70
   128
  0
LAYER
  2
0
 70
     0
 62
     7
  6
CONTINUOUS
  0
LAYER
  2
2
 70
     0
 62
     7
  6
CONTINUOUS
  0
LAYER
  2
3
 70
     0
 62
     7
  6
CONTINUOUS
  0
LAYER
  2
4
 70
     0
 62
     7
  6
CONTINUOUS
  0
LAYER
  2
5
 70
     0
 62
     7
  6
CONTINUOUS
  0
LAYER
  2
6
 70
     0
 62
     7
  6
CONTINUOUS
  0
LAYER
  2
7
 70
     0
 62
     7
  6
CONTINUOUS
  0
LAYER
  2
8
 70
     0
 62
     7
  6
CONTINUOUS
  0
LAYER
  2
9
 70
     0
 62
     7
  6
CONTINUOUS
  0
LAYER
  2
10
 70
     0
 62
     7
  6
CONTINUOUS
  0
LAYER
  2
11
 70
     0
 62
     7
  6
CONTINUOUS
  0
LAYER
  2
12
 70
     0
 62
     7
  6
CONTINUOUS
  0
LAYER
  2
13
 70
     0
 62
     7
  6
CONTINUOUS
  0
LAYER
  2
14
 70
     0
 62
     7
  6
CONTINUOUS
  0
LAYER
  2
15
 70
     0
 62
     7
  6
CONTINUOUS
  0
LAYER
  2
16
 70
     0
 62
     7
  6
CONTINUOUS
  0
LAYER
  2
17
 70
     0
 62
     7
  6
CONTINUOUS
  0
LAYER
  2
18
 70
     0
 62
     7
  6
CONTINUOUS
  0
LAYER
  2
19
 70
     0
 62
     7
  6
CONTINUOUS
  0
LAYER
  2
20
 70
     0
 62
     7
  6
CONTINUOUS
  0
LAYER
  2
21
 70
     0
 62
     7
  6
CONTINUOUS
  0
LAYER
  2
22
 70
     0
 62
     7
  6
CONTINUOUS
  0
LAYER
  2
23
 70
     0
 62
     7
  6
CONTINUOUS
  0
LAYER
  2
24
 70
     0
 62
     7
  6
CONTINUOUS
  0
LAYER
  2
25
 70
     0
 62
     7
  6
CONTINUOUS
  0
LAYER
  2
26
 70
     0
 62
     7
  6
CONTINUOUS
  0
LAYER
  2
27
 70
     0
 62
     7
  6
CONTINUOUS
  0
LAYER
  2
28
 70
     0
 62
     7
  6
CONTINUOUS
  0
LAYER
  2
29
 70
     0
 62
     7
  6
CONTINUOUS
  0
LAYER
  2
30
 70
     0
 62
     7
  6
CONTINUOUS
  0
LAYER
  2
31
 70
     0
 62
     7
  6
CONTINUOUS
  0
LAYER
  2
32
 70
     0
 62
     7
  6
CONTINUOUS
  0
LAYER
  2
33
 70
     0
 62
     7
  6
CONTINUOUS
  0
LAYER
  2
34
 70
     0
 62
     7
  6
CONTINUOUS
  0
LAYER
  2
35
 70
     0
 62
     7
  6
CONTINUOUS
  0
LAYER
  2
36
 70
     0
 62
     7
  6
CONTINUOUS
  0
LAYER
  2
37
 70
     0
 62
     7
  6
CONTINUOUS
  0
LAYER
  2
38
 70
     0
 62
     7
  6
CONTINUOUS
  0
LAYER
  2
39
 70
     0
 62
     7
  6
CONTINUOUS
  0
LAYER
  2
40
 70
     0
 62
     7
  6
CONTINUOUS
  0
LAYER
  2
41
 70
     0
 62
     7
  6
CONTINUOUS
  0
LAYER
  2
42
 70
     0
 62
     7
  6
CONTINUOUS
  0
LAYER
  2
43
 70
     0
 62
     7
  6
CONTINUOUS
  0
LAYER
  2
44
 70
     0
 62
     7
  6
CONTINUOUS
  0
LAYER
  2
45
 70
     0
 62
     7
  6
CONTINUOUS
  0
LAYER
  2
46
 70
     0
 62
     7
  6
CONTINUOUS
  0
LAYER
  2
47
 70
     0
 62
     7
  6
CONTINUOUS
  0
LAYER
  2
48
 70
     0
 62
     7
  6
CONTINUOUS
  0
LAYER
  2
49
 70
     0
 62
     7
  6
CONTINUOUS
  0
LAYER
  2
50
 70
     0
 62
     7
  6
CONTINUOUS
  0
LAYER
  2
51
 70
     0
 62
     7
  6
CONTINUOUS
  0
LAYER
  2
52
 70
     0
 62
     7
  6
CONTINUOUS
  0
LAYER
  2
53
 70
     0
 62
     7
  6
CONTINUOUS
  0
LAYER
  2
54
 70
     0
 62
     7
  6
CONTINUOUS
  0
LAYER
  2
55
 70
     0
 62
     7
  6
CONTINUOUS
  0
LAYER
  2
56
 70
     0
 62
     7
  6
CONTINUOUS
  0
LAYER
  2
57
 70
     0
 62
     7
  6
CONTINUOUS
  0
LAYER
  2
58
 70
     0
 62
     7
  6
CONTINUOUS
  0
LAYER
  2
59
 70
     0
 62
     7
  6
CONTINUOUS
  0
LAYER
  2
60
 70
     0
 62
     7
  6
CONTINUOUS
  0
LAYER
  2
61
 70
     0
 62
     7
  6
CONTINUOUS
  0
LAYER
  2
62
 70
     0
 62
     7
  6
CONTINUOUS
  0
LAYER
  2
63
 70
     0
 62
     7
  6
CONTINUOUS
  0
LAYER
  2
64
 70
     0
 62
     7
  6
CONTINUOUS
  0
LAYER
  2
65
 70
     0
 62
     7
  6
CONTINUOUS
  0
LAYER
  2
66
 70
     0
 62
     7
  6
CONTINUOUS
  0
LAYER
  2
67
 70
     0
 62
     7
  6
CONTINUOUS
  0
LAYER
  2
68
 70
     0
 62
     7
  6
CONTINUOUS
  0
LAYER
  2
69
 70
     0
 62
     7
  6
CONTINUOUS
  0
LAYER
  2
70
 70
     0
 62
     7
  6
CONTINUOUS
  0
LAYER
  2
71
 70
     0
 62
     7
  6
CONTINUOUS
  0
LAYER
  2
72
 70
     0
 62
     7
  6
CONTINUOUS
  0
LAYER
  2
73
 70
     0
 62
     7
  6
CONTINUOUS
  0
LAYER
  2
74
 70
     0
 62
     7
  6
CONTINUOUS
  0
LAYER
  2
75
 70
     0
 62
     7
  6
CONTINUOUS
  0
LAYER
  2
76
 70
     0
 62
     7
  6
CONTINUOUS
  0
LAYER
  2
77
 70
     0
 62
     7
  6
CONTINUOUS
  0
LAYER
  2
78
 70
     0
 62
     7
  6
CONTINUOUS
  0
LAYER
  2
79
 70
     0
 62
     7
  6
CONTINUOUS
  0
LAYER
  2
80
 70
     0
 62
     7
  6
CONTINUOUS
  0
LAYER
  2
81
 70
     0
 62
     7
  6
CONTINUOUS
  0
LAYER
  2
82
 70
     0
 62
     7
  6
CONTINUOUS
  0
LAYER
  2
83
 70
     0
 62
     7
  6
CONTINUOUS
  0
LAYER
  2
84
 70
     0
 62
     7
  6
CONTINUOUS
  0
LAYER
  2
85
 70
     0
 62
     7
  6
CONTINUOUS
  0
LAYER
  2
86
 70
     0
 62
     7
  6
CONTINUOUS
  0
LAYER
  2
87
 70
     0
 62
     7
  6
CONTINUOUS
  0
LAYER
  2
88
 70
     0
 62
     7
  6
CONTINUOUS
  0
LAYER
  2
89
 70
     0
 62
     7
  6
CONTINUOUS
  0
LAYER
  2
90
 70
     0
 62
     7
  6
CONTINUOUS
  0
LAYER
  2
91
 70
     0
 62
     7
  6
CONTINUOUS
  0
LAYER
  2
92
 70
     0
 62
     7
  6
CONTINUOUS
  0
LAYER
  2
93
 70
     0
 62
     7
  6
CONTINUOUS
  0
LAYER
  2
94
 70
     0
 62
     7
  6
CONTINUOUS
  0
LAYER
  2
95
 70
     0
 62
     7
  6
CONTINUOUS
  0
LAYER
  2
96
 70
     0
 62
     7
  6
CONTINUOUS
  0
LAYER
  2
97
 70
     0
 62
     7
  6
CONTINUOUS
  0
LAYER
  2
98
 70
     0
 62
     7
  6
CONTINUOUS
  0
LAYER
  2
99
 70
     0
 62
     7
  6
CONTINUOUS
  0
LAYER
  2
100
 70
     0
 62
     7
  6
CONTINUOUS
  0
LAYER
  2
101
 70
     0
 62
     7
  6
CONTINUOUS
  0
LAYER
  2
102
 70
     0
 62
     7
  6
CONTINUOUS
  0
LAYER
  2
103
 70
     0
 62
     7
  6
CONTINUOUS
  0
LAYER
  2
104
 70
     0
 62
     7
  6
CONTINUOUS
  0
LAYER
  2
105
 70
     0
 62
     7
  6
CONTINUOUS
  0
LAYER
  2
106
 70
     0
 62
     7
  6
CONTINUOUS
  0
LAYER
  2
107
 70
     0
 62
     7
  6
CONTINUOUS
  0
LAYER
  2
108
 70
     0
 62
     7
  6
CONTINUOUS
  0
LAYER
  2
109
 70
     0
 62
     7
  6
CONTINUOUS
  0
LAYER
  2
110
 70
     0
 62
     7
  6
CONTINUOUS
  0
LAYER
  2
111
 70
     0
 62
     7
  6
CONTINUOUS
  0
LAYER
  2
112
 70
     0
 62
     7
  6
CONTINUOUS
  0
LAYER
  2
113
 70
     0
 62
     7
  6
CONTINUOUS
  0
LAYER
  2
114
 70
     0
 62
     7
  6
CONTINUOUS
  0
LAYER
  2
115
 70
     0
 62
     7
  6
CONTINUOUS
  0
LAYER
  2
116
 70
     0
 62
     7
  6
CONTINUOUS
  0
LAYER
  2
117
 70
     0
 62
     7
  6
CONTINUOUS
  0
LAYER
  2
118
 70
     0
 62
     7
  6
CONTINUOUS
  0
LAYER
  2
119
 70
     0
 62
     7
  6
CONTINUOUS
  0
LAYER
  2
120
 70
     0
 62
     7
  6
CONTINUOUS
  0
LAYER
  2
121
 70
     0
 62
     7
  6
CONTINUOUS
  0
LAYER
  2
122
 70
     0
 62
     7
  6
CONTINUOUS
  0
LAYER
  2
123
 70
     0
 62
     7
  6
CONTINUOUS
  0
LAYER
  2
124
 70
     0
 62
     7
  6
CONTINUOUS
  0
LAYER
  2
125
 70
     0
 62
     7
  6
CONTINUOUS
  0
LAYER
  2
126
 70
     0
 62
     7
  6
CONTINUOUS
  0
LAYER
  2
127
 70
     0
 62
     7
  6
CONTINUOUS
  0
LAYER
  2
128
 70
     0
 62
     7
  6
CONTINUOUS
  0
ENDTAB
  0
TABLE
  2
STYLE
 70
    58
  0
STYLE
  2
STANDARD
 70
     0
 40
0.0
 41
1.0
 50
0.0
 71
     0
 42
0.2
  3
txt
  4

  0
STYLE
  2
KANJI0
 70
     0
 40
18.0
 41
0.9
 50
0.0
 71
     0
 42
18.0
  3

  4
bigfont
  0
STYLE
  2
KANJI1
 70
     0
 40
12.0
 41
0.9
 50
0.0
 71
     0
 42
12.0
  3

  4
bigfont
  0
STYLE
  2
KANJI2
 70
     0
 40
12.0
 41
0.9
 50
0.0
 71
     0
 42
12.0
  3

  4
bigfont
  0
STYLE
  2
KANJI3
 70
     0
 40
9.6
 41
0.777777778
 50
0.0
 71
     0
 42
9.6
  3

  4
bigfont
  0
STYLE
  2
KANJI4
 70
     0
 40
12.8
 41
0.9
 50
0.0
 71
     0
 42
12.8
  3

  4
bigfont
  0
STYLE
  2
KANJI5
 70
     0
 40
15.2
 41
0.9
 50
0.0
 71
     0
 42
15.2
  3

  4
bigfont
  0
STYLE
  2
KANJI6
 70
     0
 40
15.2
 41
0.9
 50
0.0
 71
     0
 42
15.2
  3

  4
bigfont
  0
STYLE
  2
KANJI7
 70
     0
 40
15.2
 41
0.9
 50
0.0
 71
     0
 42
15.2
  3

  4
bigfont
  0
STYLE
  2
KANJI8
 70
     0
 40
11.2
 41
0.8
 50
0.0
 71
     0
 42
11.2
  3

  4
bigfont
  0
STYLE
  2
KANJI9
 70
     0
 40
14.0
 41
0.9
 50
0.0
 71
     0
 42
14.0
  3

  4
bigfont
  0
STYLE
  2
KANJI10
 70
     0
 40
15.2
 41
0.9
 50
0.0
 71
     0
 42
15.2
  3

  4
bigfont
  0
STYLE
  2
KANJI11
 70
     0
 40
15.2
 41
0.9
 50
0.0
 71
     0
 42
15.2
  3

  4
bigfont
  0
STYLE
  2
KANJI12
 70
     0
 40
15.2
 41
0.9
 50
0.0
 71
     0
 42
15.2
  3

  4
bigfont
  0
STYLE
  2
KANJI13
 70
     0
 40
15.2
 41
0.9
 50
0.0
 71
     0
 42
15.2
  3

  4
bigfont
  0
STYLE
  2
KANJI14
 70
     0
 40
15.2
 41
0.9
 50
0.0
 71
     0
 42
15.2
  3

  4
bigfont
  0
STYLE
  2
KANJI15
 70
     0
 40
11.2
 41
0.9
 50
0.0
 71
     0
 42
11.2
  3

  4
bigfont
  0
STYLE
  2
KANJI16
 70
     0
 40
11.2
 41
0.785714286
 50
0.0
 71
     0
 42
11.2
  3

  4
bigfont
  0
STYLE
  2
KANJI17
 70
     0
 40
15.2
 41
0.9
 50
0.0
 71
     0
 42
15.2
  3

  4
bigfont
  0
STYLE
  2
KANJI18
 70
     0
 40
12.0
 41
0.9
 50
0.0
 71
     0
 42
12.0
  3

  4
bigfont
  0
STYLE
  2
KANJI19
 70
     0
 40
80.0
 41
0.9
 50
0.0
 71
     0
 42
80.0
  3

  4
bigfont
  0
STYLE
  2
KANJI20
 70
     0
 40
72.0
 41
0.857142857
 50
0.0
 71
     0
 42
72.0
  3

  4
bigfont
  0
STYLE
  2
KANJI21
 70
     0
 40
72.0
 41
0.857222222
 50
0.0
 71
     0
 42
72.0
  3

  4
bigfont
  0
STYLE
  2
KANJI22
 70
     0
 40
110.0
 41
0.9
 50
0.0
 71
     0
 42
110.0
  3

  4
bigfont
  0
STYLE
  2
KANJI23
 70
     0
 40
100.0
 41
0.9
 50
0.0
 71
     0
 42
100.0
  3

  4
bigfont
  0
STYLE
  2
KANJI24
 70
     0
 40
64.0
 41
0.9
 50
0.0
 71
     0
 42
64.0
  3

  4
bigfont
  0
STYLE
  2
KANJI25
 70
     0
 40
16.0
 41
0.9
 50
0.0
 71
     0
 42
16.0
  3

  4
bigfont
  0
STYLE
  2
KANJI26
 70
     0
 40
14.4
 41
0.857142857
 50
0.0
 71
     0
 42
14.4
  3

  4
bigfont
  0
STYLE
  2
KANJI27
 70
     0
 40
14.4
 41
0.857222222
 50
0.0
 71
     0
 42
14.4
  3

  4
bigfont
  0
STYLE
  2
KANJI28
 70
     0
 40
12.0
 41
0.9
 50
0.0
 71
     0
 42
12.0
  3

  4
bigfont
  0
STYLE
  2
KANJI29
 70
     0
 40
12.0
 41
0.9
 50
0.0
 71
     0
 42
12.0
  3

  4
bigfont
  0
STYLE
  2
KANJI30
 70
     0
 40
12.0
 41
0.833333333
 50
0.0
 71
     0
 42
12.0
  3

  4
bigfont
  0
STYLE
  2
KANJI31
 70
     0
 40
14.0
 41
0.9
 50
0.0
 71
     0
 42
14.0
  3

  4
bigfont
  0
STYLE
  2
KANJI32
 70
     0
 40
12.8
 41
0.9
 50
0.0
 71
     0
 42
12.8
  3

  4
bigfont
  0
STYLE
  2
KANJI33
 70
     0
 40
12.0
 41
0.9
 50
0.0
 71
     0
 42
12.0
  3

  4
bigfont
  0
STYLE
  2
KANJI34
 70
     0
 40
12.0
 41
0.9
 50
0.0
 71
     0
 42
12.0
  3

  4
bigfont
  0
STYLE
  2
KANJI35
 70
     0
 40
10.3999992
 41
0.75
 50
0.0
 71
     0
 42
10.3999992
  3

  4
bigfont
  0
STYLE
  2
KANJI36
 70
     0
 40
7.999998318
 41
0.6
 50
0.0
 71
     0
 42
7.999998318
  3

  4
bigfont
  0
STYLE
  2
KANJI37
 70
     0
 40
9.599997982
 41
0.9
 50
0.0
 71
     0
 42
9.599997982
  3

  4
bigfont
  0
STYLE
  2
KANJI38
 70
     0
 40
11.999997477
 41
0.9
 50
0.0
 71
     0
 42
11.999997477
  3

  4
bigfont
  0
STYLE
  2
KANJI39
 70
     0
 40
6.9333328
 41
0.6
 50
0.0
 71
     0
 42
6.9333328
  3

  4
bigfont
  0
STYLE
  2
KANJI40
 70
     0
 40
8.31999936
 41
0.6
 50
0.0
 71
     0
 42
8.31999936
  3

  4
bigfont
  0
STYLE
  2
KANJI41
 70
     0
 40
12.1333324
 41
0.42031746
 50
0.0
 71
     0
 42
12.1333324
  3

  4
bigfont
  0
STYLE
  2
KANJI42
 70
     0
 40
20.7999984
 41
0.9
 50
0.0
 71
     0
 42
20.7999984
  3

  4
bigfont
  0
STYLE
  2
KANJI43
 70
     0
 40
14.4
 41
1.111111111
 50
0.0
 71
     0
 42
14.4
  3

  4
bigfont
  0
STYLE
  2
KANJI44
 70
     0
 40
6.9333328
 41
0.8
 50
0.0
 71
     0
 42
6.9333328
  3

  4
bigfont
  0
STYLE
  2
KANJI45
 70
     0
 40
8.31999936
 41
0.8
 50
0.0
 71
     0
 42
8.31999936
  3

  4
bigfont
  0
STYLE
  2
KANJI46
 70
     0
 40
20.0
 41
1.0
 50
0.0
 71
     0
 42
20.0
  3

  4
bigfont
  0
STYLE
  2
KANJI47
 70
     0
 40
20.0
 41
1.0
 50
0.0
 71
     0
 42
20.0
  3

  4
bigfont
  0
STYLE
  2
KANJI48
 70
     0
 40
20.0
 41
0.8
 50
0.0
 71
     0
 42
20.0
  3

  4
bigfont
  0
STYLE
  2
KANJI49
 70
     0
 40
16.0
 41
1.0
 50
0.0
 71
     0
 42
16.0
  3

  4
bigfont
  0
STYLE
  2
KANJI50
 70
     0
 40
20.0
 41
0.8
 50
0.0
 71
     0
 42
20.0
  3

  4
bigfont
  0
STYLE
  2
KANJI51
 70
     0
 40
14.0
 41
0.571428571
 50
0.0
 71
     0
 42
14.0
  3

  4
bigfont
  0
STYLE
  2
KANJI52
 70
     0
 40
18.0
 41
0.666666667
 50
0.0
 71
     0
 42
18.0
  3

  4
bigfont
  0
STYLE
  2
KANJI53
 70
     0
 40
14.0
 41
0.857142857
 50
0.0
 71
     0
 42
14.0
  3

  4
bigfont
  0
STYLE
  2
KANJI54
 70
     0
 40
7.2
 41
0.9
 50
0.0
 71
     0
 42
7.2
  3

  4
bigfont
  0
STYLE
  2
KANJI55
 70
     0
 40
20.0
 41
0.9
 50
0.0
 71
     0
 42
20.0
  3

  4
bigfont
  0
STYLE
  2
KANJI56
 70
     0
 40
12.0
 41
0.9
 50
0.0
 71
     0
 42
12.0
  3

  4
bigfont
  0
ENDTAB
  0
TABLE
  2
VIEW
 70
     0
  0
ENDTAB
  0
ENDSEC
  0
SECTION
  2
BLOCKS
  0
ENDSEC
  0
SECTION
  2
ENTITIES
  0
LINE
  8
0
  6
CONTINUOUS
 62
     1
 10
1270.0
 20
1058.0
 11
1620.0
 21
1058.0
  0
LINE
  8
0
  6
CONTINUOUS
 62
     1
 10
320.0
 20
360.0
 11
940.0
 21
360.0
  0
LINE
  8
0
  6
CONTINUOUS
 62
     1
 10
320.0
 20
332.0
 11
940.0
 21
332.0
  0
LINE
  8
0
  6
CONTINUOUS
 62
     1
 10
940.0
 20
360.0
 11
940.0
 21
164.0
  0
LINE
  8
0
  6
CONTINUOUS
 62
     1
 10
320.0
 20
164.0
 11
940.0
 21
164.0
  0
LINE
  8
0
  6
CONTINUOUS
 62
     1
 10
320.0
 20
360.0
 11
320.0
 21
164.0
  0
LINE
  8
0
  6
CONTINUOUS
 62
     1
 10
460.0
 20
360.0
 11
460.0
 21
164.0
  0
LINE
  8
0
  6
CONTINUOUS
 62
     1
 10
1270.0
 20
570.0
 11
1620.0
 21
570.0
  0
LINE
  8
0
  6
CONTINUOUS
 62
     1
 10
1270.0
 20
1058.0
 11
1270.0
 21
570.0
  0
CIRCLE
  8
0
  6
CONTINUOUS
 62
     1
 10
540.0
 20
673.5
 40
16.575
  0
LINE
  8
0
  6
CONTINUOUS
 62
     1
 10
523.0
 20
690.5
 11
557.0
 21
690.5
  0
LINE
  8
0
  6
CONTINUOUS
 62
     1
 10
557.0
 20
656.5
 11
557.0
 21
690.5
  0
LINE
  8
0
  6
CONTINUOUS
 62
     1
 10
523.0
 20
656.5
 11
557.0
 21
656.5
  0
LINE
  8
0
  6
CONTINUOUS
 62
     1
 10
523.0
 20
656.5
 11
523.0
 21
690.5
  0
LINE
  8
0
  6
CONTINUOUS
 62
     1
 10
1129.0
 20
701.0
 11
1129.0
 21
686.0
  0
LINE
  8
0
  6
CONTINUOUS
 62
     1
 10
1129.0
 20
646.0
 11
1129.0
 21
686.0
  0
LINE
  8
0
  6
CONTINUOUS
 62
     1
 10
1179.0
 20
701.0
 11
1129.0
 21
701.0
  0
LINE
  8
0
  6
CONTINUOUS
 62
     1
 10
1179.0
 20
646.0
 11
1179.0
 21
701.0
  0
LINE
  8
0
  6
CONTINUOUS
 62
     1
 10
1179.0
 20
686.0
 11
1129.0
 21
686.0
  0
LINE
  8
0
  6
CONTINUOUS
 62
     1
 10
1179.0
 20
661.0
 11
1129.0
 21
661.0
  0
LINE
  8
0
  6
CONTINUOUS
 62
     1
 10
1179.0
 20
646.0
 11
1129.0
 21
646.0
  0
POINT
  8
0
  6
CONTINUOUS
 62
     1
 10
1066.0
 20
673.5
  0
LINE
  8
0
  6
CONTINUOUS
 62
     1
 10
166.0
 20
639.5
 11
166.0
 21
633.735346
  0
LINE
  8
0
  6
CONTINUOUS
 62
     1
 10
166.0
 20
639.5
 11
166.0
 21
645.264654
  0
LINE
  8
0
  6
CONTINUOUS
 62
     1
 10
162.00039
 20
635.147098
 11
162.815465397
 21
633.735346
  0
LINE
  8
0
  6
CONTINUOUS
 62
     1
 10
162.00039
 20
639.5
 11
162.00039
 21
635.147098
  0
LINE
  8
0
  6
CONTINUOUS
 62
     1
 10
162.00039
 20
643.852902
 11
162.815465397
 21
645.264654
  0
LINE
  8
0
  6
CONTINUOUS
 62
     1
 10
162.00039
 20
639.5
 11
162.00039
 21
643.852902
  0
ARC
  8
0
  6
CONTINUOUS
 62
     1
 10
167.504271523
 20
639.5
 40
5.503881523
 50
148.419912243
 51
211.580087757
  0
ARC
  8
0
  6
CONTINUOUS
 62
     1
 10
163.681483007
 20
635.1765095
 40
1.681350271
 50
121.002313915
 51
182.989498403
  0
LINE
  8
0
  6
CONTINUOUS
 62
     1
 10
162.00039
 20
643.852902
 11
162.815465397
 21
645.264654
  0
ARC
  8
0
  6
CONTINUOUS
 62
     1
 10
163.681483007
 20
643.8234905
 40
1.681350271
 50
177.010501597
 51
238.997686085
  0
LINE
  8
0
  6
CONTINUOUS
 62
     1
 10
166.0
 20
636.617673
 11
162.815465397
 21
636.617673
  0
LINE
  8
0
  6
CONTINUOUS
 62
     1
 10
166.0
 20
633.735346
 11
162.815465397
 21
633.735346
  0
LINE
  8
0
  6
CONTINUOUS
 62
     1
 10
166.0
 20
642.382327
 11
162.815465397
 21
642.382327
  0
LINE
  8
0
  6
CONTINUOUS
 62
     1
 10
166.0
 20
645.264654
 11
162.815465397
 21
645.264654
  0
LINE
  8
0
  6
CONTINUOUS
 62
     1
 10
166.0
 20
707.5
 11
166.0
 21
713.264654
  0
LINE
  8
0
  6
CONTINUOUS
 62
     1
 10
166.0
 20
707.5
 11
166.0
 21
701.735346
  0
LINE
  8
0
  6
CONTINUOUS
 62
     1
 10
162.00039
 20
711.852902
 11
162.815465397
 21
713.264654
  0
LINE
  8
0
  6
CONTINUOUS
 62
     1
 10
162.00039
 20
707.5
 11
162.00039
 21
711.852902
  0
LINE
  8
0
  6
CONTINUOUS
 62
     1
 10
162.00039
 20
703.147098
 11
162.815465397
 21
701.735346
  0
LINE
  8
0
  6
CONTINUOUS
 62
     1
 10
162.00039
 20
707.5
 11
162.00039
 21
703.147098
  0
ARC
  8
0
  6
CONTINUOUS
 62
     1
 10
167.504271523
 20
707.5
 40
5.503881523
 50
148.419912243
 51
211.580087757
  0
ARC
  8
0
  6
CONTINUOUS
 62
     1
 10
163.681483007
 20
711.8234905
 40
1.681350271
 50
177.010501597
 51
238.997686085
  0
LINE
  8
0
  6
CONTINUOUS
 62
     1
 10
162.00039
 20
703.147098
 11
162.815465397
 21
701.735346
  0
ARC
  8
0
  6
CONTINUOUS
 62
     1
 10
163.681483007
 20
703.1765095
 40
1.681350271
 50
121.002313915
 51
182.989498403
  0
LINE
  8
0
  6
CONTINUOUS
 62
     1
 10
166.0
 20
710.382327
 11
162.815465397
 21
710.382327
  0
LINE
  8
0
  6
CONTINUOUS
 62
     1
 10
166.0
 20
713.264654
 11
162.815465397
 21
713.264654
  0
LINE
  8
0
  6
CONTINUOUS
 62
     1
 10
166.0
 20
704.617673
 11
162.815465397
 21
704.617673
  0
LINE
  8
0
  6
CONTINUOUS
 62
     1
 10
166.0
 20
701.735346
 11
162.815465397
 21
701.735346
  0
LINE
  8
0
  6
CONTINUOUS
 62
     1
 10
253.0
 20
551.5
 11
253.0
 21
573.5
  0
LINE
  8
0
  6
CONTINUOUS
 62
     1
 10
237.5
 20
520.5
 11
237.5
 21
548.5
  0
LINE
  8
0
  6
CONTINUOUS
 62
     1
 10
238.0
 20
548.5
 11
238.0
 21
551.5
  0
LINE
  8
0
  6
CONTINUOUS
 62
     1
 10
218.0
 20
548.5
 11
218.0
 21
551.5
  0
LINE
  8
0
  6
CONTINUOUS
 62
     1
 10
203.0
 20
551.5
 11
203.0
 21
573.5
  0
LINE
  8
0
  6
CONTINUOUS
 62
     1
 10
203.0
 20
551.5
 11
253.0
 21
551.5
  0
LINE
  8
0
  6
CONTINUOUS
 62
     1
 10
218.0
 20
548.5
 11
238.0
 21
548.5
  0
LINE
  8
0
  6
CONTINUOUS
 62
     1
 10
218.5
 20
520.5
 11
218.5
 21
548.5
  0
LINE
  8
0
  6
CONTINUOUS
 62
     1
 10
180.5
 20
573.5
 11
275.5
 21
573.5
  0
LINE
  8
0
  6
CONTINUOUS
 62
     1
 10
218.5
 20
520.5
 11
237.5
 21
520.5
  0
CIRCLE
  8
0
  6
CONTINUOUS
 62
     1
 10
1154.0
 20
673.5
 40
78.0
  0
LINE
  8
0
  6
CONTINUOUS
 62
     1
 10
1179.0
 20
551.5
 11
1179.0
 21
573.5
  0
LINE
  8
0
  6
CONTINUOUS
 62
     1
 10
1163.5
 20
520.5
 11
1163.5
 21
548.5
  0
LINE
  8
0
  6
CONTINUOUS
 62
     1
 10
1164.0
 20
548.5
 11
1164.0
 21
551.5
  0
LINE
  8
0
  6
CONTINUOUS
 62
     1
 10
1144.0
 20
548.5
 11
1144.0
 21
551.5
  0
LINE
  8
0
  6
CONTINUOUS
 62
     1
 10
1129.0
 20
551.5
 11
1129.0
 21
573.5
  0
LINE
  8
0
  6
CONTINUOUS
 62
     1
 10
1129.0
 20
551.5
 11
1179.0
 21
551.5
  0
LINE
  8
0
  6
CONTINUOUS
 62
     1
 10
1144.0
 20
548.5
 11
1164.0
 21
548.5
  0
LINE
  8
0
  6
CONTINUOUS
 62
     1
 10
1144.5
 20
520.5
 11
1144.5
 21
548.5
  0
LINE
  8
0
  6
CONTINUOUS
 62
     1
 10
1106.5
 20
573.5
 11
1201.5
 21
573.5
  0
LINE
  8
0
  6
CONTINUOUS
 62
     1
 10
1144.5
 20
520.5
 11
1163.5
 21
520.5
  0
TEXT
  8
0
  6
CONTINUOUS
 62
     2
 10
1320.0
 20
1028.8
 30
11.39976
 40
18.0
  1
マイティシリンダ仕様
 50
0.0
 41
0.9
 51
0.0
  7
KANJI0
  0
LINE
  8
0
  6
CONTINUOUS
 62
     2
 10
1270.0
 20
626.0
 11
1620.0
 21
626.0
  0
LINE
  8
0
  6
CONTINUOUS
 62
     2
 10
1270.0
 20
850.0
 11
1620.0
 21
850.0
  0
LINE
  8
0
  6
CONTINUOUS
 62
     2
 10
1270.0
 20
822.0
 11
1620.0
 21
822.0
  0
LINE
  8
0
  6
CONTINUOUS
 62
     2
 10
1270.0
 20
794.0
 11
1620.0
 21
794.0
  0
LINE
  8
0
  6
CONTINUOUS
 62
     2
 10
1270.0
 20
990.0
 11
1620.0
 21
990.0
  0
LINE
  8
0
  6
CONTINUOUS
 62
     2
 10
1270.0
 20
962.0
 11
1620.0
 21
962.0
  0
LINE
  8
0
  6
CONTINUOUS
 62
     2
 10
1270.0
 20
934.0
 11
1620.0
 21
934.0
  0
LINE
  8
0
  6
CONTINUOUS
 62
     2
 10
1270.0
 20
906.0
 11
1620.0
 21
906.0
  0
LINE
  8
0
  6
CONTINUOUS
 62
     2
 10
1270.0
 20
878.0
 11
1620.0
 21
878.0
  0
LINE
  8
0
  6
CONTINUOUS
 62
     2
 10
1270.0
 20
1018.0
 11
1620.0
 21
1018.0
  0
TEXT
  8
0
  6
CONTINUOUS
 62
     2
 10
484.0
 20
310.7
 30
1.2
 40
12.0
  1
２００
 50
0.0
 41
0.9
 51
0.0
  7
KANJI1
  0
TEXT
  8
0
  6
CONTINUOUS
 62
     2
 10
484.0
 20
282.7
 30
1.2
 40
12.0
  1
３００
 50
0.0
 41
0.9
 51
0.0
  7
KANJI1
  0
LINE
  8
0
  6
CONTINUOUS
 62
     2
 10
540.0
 20
360.0
 11
540.0
 21
164.0
  0
LINE
  8
0
  6
CONTINUOUS
 62
     2
 10
620.0
 20
360.0
 11
620.0
 21
164.0
  0
LINE
  8
0
  6
CONTINUOUS
 62
     2
 10
700.0
 20
360.0
 11
700.0
 21
164.0
  0
LINE
  8
0
  6
CONTINUOUS
 62
     2
 10
780.0
 20
360.0
 11
780.0
 21
164.0
  0
LINE
  8
0
  6
CONTINUOUS
 62
     2
 10
860.0
 20
360.0
 11
860.0
 21
164.0
  0
LINE
  8
0
  6
CONTINUOUS
 62
     2
 10
320.0
 20
192.0
 11
940.0
 21
192.0
  0
LINE
  8
0
  6
CONTINUOUS
 62
     2
 10
320.0
 20
304.0
 11
940.0
 21
304.0
  0
LINE
  8
0
  6
CONTINUOUS
 62
     2
 10
320.0
 20
276.0
 11
940.0
 21
276.0
  0
LINE
  8
0
  6
CONTINUOUS
 62
     2
 10
320.0
 20
248.0
 11
940.0
 21
248.0
  0
LINE
  8
0
  6
CONTINUOUS
 62
     2
 10
320.0
 20
220.0
 11
940.0
 21
220.0
  0
TEXT
  8
0
  6
CONTINUOUS
 62
     2
 10
470.4
 20
340.0
 30
1.2
 40
12.0
  1
ストローク
 50
0.0
 41
0.9
 51
0.0
  7
KANJI1
  0
TEXT
  8
0
  6
CONTINUOUS
 62
     2
 10
547.2
 20
339.2
 30
0.0
 40
12.0
  1
ｍｉｎ　
 50
0.0
 41
0.9
 51
0.0
  7
KANJI2
  0
TEXT
  8
0
  6
CONTINUOUS
 62
     2
 10
627.2
 20
339.2
 30
0.0
 40
12.0
  1
ｍｉｎ　
 50
0.0
 41
0.9
 51
0.0
  7
KANJI2
  0
TEXT
  8
0
  6
CONTINUOUS
 62
     2
 10
787.2
 20
339.2
 30
0.0
 40
12.0
  1
ｍｉｎ　
 50
0.0
 41
0.9
 51
0.0
  7
KANJI2
  0
TEXT
  8
0
  6
CONTINUOUS
 62
     2
 10
911.5
 20
340.9
 30
0.0
 40
9.6
  1
（ｋｇ）
 50
0.0
 41
0.777777778
 51
0.0
  7
KANJI3
  0
TEXT
  8
0
  6
CONTINUOUS
 62
     2
 10
863.5
 20
339.5
 30
1.28
 40
12.8
  1
概算重量
 50
0.0
 41
0.9
 51
0.0
  7
KANJI4
  0
TEXT
  8
0
  6
CONTINUOUS
 62
     2
 10
348.0
 20
340.0
 30
1.28
 40
12.8
  1
形
 50
0.0
 41
0.9
 51
0.0
  7
KANJI4
  0
TEXT
  8
0
  6
CONTINUOUS
 62
     2
 10
426.0
 20
340.0
 30
1.28
 40
12.8
  1
式
 50
0.0
 41
0.9
 51
0.0
  7
KANJI4
  0
TEXT
  8
0
  6
CONTINUOUS
 62
     2
 10
1300.0
 20
997.2
 30
120.297142857
 40
15.2
  1
形式
 50
0.0
 41
0.9
 51
0.0
  7
KANJI5
  0
TEXT
  8
0
  6
CONTINUOUS
 62
     2
 10
1300.0
 20
969.2
 30
120.297142857
 40
15.2
  1
推力
 50
0.0
 41
0.9
 51
0.0
  7
KANJI5
  0
TEXT
  8
0
  6
CONTINUOUS
 62
     2
 10
1300.0
 20
941.2
 30
19.814285714
 40
15.2
  1
ストローク
 50
0.0
 41
0.9
 51
0.0
  7
KANJI6
  0
TEXT
  8
0
  6
CONTINUOUS
 62
     2
 10
1300.0
 20
913.2
 30
30.978902857
 40
15.2
  1
公称速度
 50
0.0
 41
0.9
 51
0.0
  7
KANJI7
  0
TEXT
  8
0
  6
CONTINUOUS
 62
     2
 10
1595.4
 20
942.8
 30
0.0896
 40
11.2
  1
ｍｍ
 50
0.0
 41
0.8
 51
0.0
  7
KANJI8
  0
TEXT
  8
0
  6
CONTINUOUS
 62
     2
 10
1565.4
 20
916.0
 30
0.0896
 40
11.2
  1
ｍｍ／ｓｅｃ
 50
0.0
 41
0.8
 51
0.0
  7
KANJI8
  0
TEXT
  8
0
  6
CONTINUOUS
 62
     2
 10
588.0
 20
340.0
 30
1.4
 40
14.0
  1
ＡＬ
 50
0.0
 41
0.9
 51
0.0
  7
KANJI9
  0
TEXT
  8
0
  6
CONTINUOUS
 62
     2
 10
668.0
 20
340.0
 30
1.4
 40
14.0
  1
Ｌ
 50
0.0
 41
0.9
 51
0.0
  7
KANJI9
  0
TEXT
  8
0
  6
CONTINUOUS
 62
     2
 10
736.0
 20
340.0
 30
1.4
 40
14.0
  1
Ｃ
 50
0.0
 41
0.9
 51
0.0
  7
KANJI9
  0
TEXT
  8
0
  6
CONTINUOUS
 62
     2
 10
828.0
 20
340.0
 30
1.4
 40
14.0
  1
Ｐ
 50
0.0
 41
0.9
 51
0.0
  7
KANJI9
  0
LINE
  8
0
  6
CONTINUOUS
 62
     2
 10
1270.0
 20
766.0
 11
1620.0
 21
766.0
  0
LINE
  8
0
  6
CONTINUOUS
 62
     2
 10
1270.0
 20
738.0
 11
1620.0
 21
738.0
  0
LINE
  8
0
  6
CONTINUOUS
 62
     2
 10
1270.0
 20
710.0
 11
1620.0
 21
710.0
  0
LINE
  8
0
  6
CONTINUOUS
 62
     2
 10
1270.0
 20
682.0
 11
1620.0
 21
682.0
  0
LINE
  8
0
  6
CONTINUOUS
 62
     2
 10
1270.0
 20
654.0
 11
1620.0
 21
654.0
  0
TEXT
  8
0
  6
CONTINUOUS
 62
     2
 10
1288.0
 20
773.2
 30
1.302857143
 40
15.2
  1
ピストンロッド回転トルク
 50
0.0
 41
0.9
 51
0.0
  7
KANJI10
  0
TEXT
  8
0
  6
CONTINUOUS
 62
     2
 10
1300.0
 20
745.2
 30
120.297142857
 40
15.2
  1
構造
 50
0.0
 41
0.9
 51
0.0
  7
KANJI5
  0
TEXT
  8
0
  6
CONTINUOUS
 62
     2
 10
1589.0
 20
775.2
 30
0.0896
 40
11.2
  1
ｋｇｍ
 50
0.0
 41
0.8
 51
0.0
  7
KANJI8
  0
TEXT
  8
0
  6
CONTINUOUS
 62
     2
 10
1300.0
 20
885.2
 30
53.308571429
 40
15.2
  1
減速比
 50
0.0
 41
0.9
 51
0.0
  7
KANJI11
  0
TEXT
  8
0
  6
CONTINUOUS
 62
     2
 10
1300.0
 20
857.2
 30
3.4
 40
15.2
  1
進み量／入力１回転
 50
0.0
 41
0.9
 51
0.0
  7
KANJI12
  0
TEXT
  8
0
  6
CONTINUOUS
 62
     2
 10
1300.0
 20
828.8
 30
120.297142857
 40
15.2
  1
効率
 50
0.0
 41
0.9
 51
0.0
  7
KANJI5
  0
TEXT
  8
0
  6
CONTINUOUS
 62
     2
 10
1300.0
 20
801.6
 30
5.8
 40
15.2
  1
使用時入力トルク
 50
0.0
 41
0.9
 51
0.0
  7
KANJI13
  0
TEXT
  8
0
  6
CONTINUOUS
 62
     2
 10
1300.0
 20
717.2
 30
30.98
 40
15.2
  1
ギヤ方式
 50
0.0
 41
0.9
 51
0.0
  7
KANJI14
  0
LINE
  8
0
  6
CONTINUOUS
 62
     2
 10
1270.0
 20
598.0
 11
1620.0
 21
598.0
  0
LINE
  8
0
  6
CONTINUOUS
 62
     2
 10
1470.0
 20
1018.0
 11
1470.0
 21
570.0
  0
TEXT
  8
0
  6
CONTINUOUS
 62
     2
 10
1477.2
 20
634.4
 30
0.4
 40
11.2
  1
マンセル
 50
0.0
 41
0.9
 51
0.0
  7
KANJI15
  0
TEXT
  8
0
  6
CONTINUOUS
 62
     2
 10
1300.0
 20
633.2
 30
53.308571429
 40
15.2
  1
塗装色
 50
0.0
 41
0.9
 51
0.0
  7
KANJI11
  0
TEXT
  8
0
  6
CONTINUOUS
 62
     2
 10
1300.0
 20
605.2
 30
53.308571429
 40
15.2
  1
付属品
 50
0.0
 41
0.9
 51
0.0
  7
KANJI11
  0
TEXT
  8
0
  6
CONTINUOUS
 62
     2
 10
1300.0
 20
577.2
 30
120.297142857
 40
15.2
  1
台数
 50
0.0
 41
0.9
 51
0.0
  7
KANJI5
  0
TEXT
  8
0
  6
CONTINUOUS
 62
     2
 10
1300.0
 20
661.2
 30
120.297142857
 40
15.2
  1
潤滑
 50
0.0
 41
0.9
 51
0.0
  7
KANJI5
  0
TEXT
  8
0
  6
CONTINUOUS
 62
     2
 10
1524.0
 20
635.2
 30
0.16
 40
11.2
  1
７．５ＧＹ５／４．５
 50
0.0
 41
0.785714286
 51
0.0
  7
KANJI16
  0
TEXT
  8
0
  6
CONTINUOUS
 62
     2
 10
1300.0
 20
689.2
 30
8.7068
 40
15.2
  1
スクリュー方式
 50
0.0
 41
0.9
 51
0.0
  7
KANJI17
  0
TEXT
  8
0
  6
CONTINUOUS
 62
     2
 10
1540.8
 20
830.0
 30
8.0
 40
12.0
  1
８５
 50
0.0
 41
0.9
 51
0.0
  7
KANJI18
  0
TEXT
  8
0
  6
CONTINUOUS
 62
     2
 10
1595.4
 20
858.8
 30
0.0896
 40
11.2
  1
ｍｍ
 50
0.0
 41
0.8
 51
0.0
  7
KANJI8
  0
TEXT
  8
0
  6
CONTINUOUS
 62
     2
 10
1589.0
 20
803.2
 30
0.0896
 40
11.2
  1
ｋｇｍ
 50
0.0
 41
0.8
 51
0.0
  7
KANJI8
  0
TEXT
  8
0
  6
CONTINUOUS
 62
     2
 10
1481.6
 20
830.0
 30
8.0
 40
12.0
  1
約
 50
0.0
 41
0.9
 51
0.0
  7
KANJI18
  0
TEXT
  8
0
  6
CONTINUOUS
 62
     2
 10
1481.6
 20
802.0
 30
8.0
 40
12.0
  1
約
 50
0.0
 41
0.9
 51
0.0
  7
KANJI18
  0
TEXT
  8
0
  6
CONTINUOUS
 62
     2
 10
1481.6
 20
774.0
 30
8.0
 40
12.0
  1
約
 50
0.0
 41
0.9
 51
0.0
  7
KANJI18
  0
TEXT
  8
0
  6
CONTINUOUS
 62
     2
 10
1600.0
 20
829.6
 30
8.0
 40
12.0
  1
％
 50
0.0
 41
0.9
 51
0.0
  7
KANJI18
  0
TEXT
  8
0
  6
CONTINUOUS
 62
     2
 10
1499.6
 20
719.2
 30
8.0
 40
12.0
  1
ベベルギヤ
 50
0.0
 41
0.9
 51
0.0
  7
KANJI18
  0
TEXT
  8
0
  6
CONTINUOUS
 62
     2
 10
1499.6
 20
690.4
 30
8.0
 40
12.0
  1
ボールネジ
 50
0.0
 41
0.9
 51
0.0
  7
KANJI18
  0
TEXT
  8
0
  6
CONTINUOUS
 62
     2
 10
1499.2
 20
662.4
 30
8.0
 40
12.0
  1
グリース方式
 50
0.0
 41
0.9
 51
0.0
  7
KANJI18
  0
TEXT
  8
0
  6
CONTINUOUS
 62
     2
 10
1499.2
 20
606.4
 30
1.2
 40
12.0
  1
入力キー
 50
0.0
 41
0.9
 51
0.0
  7
KANJI1
  0
TEXT
  8
0
  6
CONTINUOUS
 62
     2
 10
1548.0
 20
605.2
 30
1.2
 40
12.0
  1
、コラム
 50
0.0
 41
0.9
 51
0.0
  7
KANJI1
  0
TEXT
  8
0
  6
CONTINUOUS
 62
     2
 10
484.0
 20
254.7
 30
1.2
 40
12.0
  1
４００
 50
0.0
 41
0.9
 51
0.0
  7
KANJI1
  0
TEXT
  8
0
  6
CONTINUOUS
 62
     2
 10
484.0
 20
226.7
 30
1.2
 40
12.0
  1
５００
 50
0.0
 41
0.9
 51
0.0
  7
KANJI1
  0
TEXT
  8
0
  6
CONTINUOUS
 62
     2
 10
484.0
 20
198.7
 30
1.2
 40
12.0
  1
７００
 50
0.0
 41
0.9
 51
0.0
  7
KANJI1
  0
LINE
  8
0
  6
LTYPE1
 62
     2
 10
540.0
 20
652.165
 11
540.0
 21
694.58
  0
LINE
  8
0
  6
LTYPE2
 62
     2
 10
474.7
 20
673.5
 11
933.2
 21
673.5
  0
LINE
  8
0
  6
CONTINUOUS
 62
     2
 10
228.0
 20
546.0
 11
228.0
 21
528.8
  0
LINE
  8
0
  6
LTYPE2
 62
     2
 10
162.1
 20
673.5
 11
448.7
 21
673.5
  0
LINE
  8
0
  6
CONTINUOUS
 62
     2
 10
301.9
 20
787.0
 11
336.7
 21
787.0
  0
TEXT
  8
0
  6
CONTINUOUS
 62
     2
 10
301.9
 20
791.0
 30
1.2
 40
12.0
  1
給脂口
 50
0.0
 41
0.9
 51
0.0
  7
KANJI1
  0
TEXT
  8
0
  6
CONTINUOUS
 62
     2
 10
303.0
 20
770.2
 30
1.2
 40
12.0
  1
点検口
 50
0.0
 41
0.9
 51
0.0
  7
KANJI1
  0
LINE
  8
0
  6
CONTINUOUS
 62
     2
 10
549.5
 20
684.1
 11
555.490432965
 21
692.107166346
  0
LINE
  8
0
  6
CONTINUOUS
 62
     2
 10
549.5
 20
684.1
 11
550.684283954
 21
694.02962595
  0
LINE
  8
0
  6
CONTINUOUS
 62
     2
 10
549.5
 20
684.1
 11
589.5
 21
784.1
  0
LINE
  8
0
  6
CONTINUOUS
 62
     2
 10
589.5
 20
784.1
 11
621.9
 21
784.1
  0
TEXT
  8
0
  6
CONTINUOUS
 62
     2
 10
589.5
 20
788.1
 30
0.0
 40
12.0
  1
給脂口
 50
0.0
 41
0.9
 51
0.0
  7
KANJI2
  0
TEXT
  8
0
  6
CONTINUOUS
 62
     2
 10
6080.0
 20
2494.0
 30
40.0
 40
80.0
  1
特記事項
 50
0.0
 41
0.9
 51
0.0
  7
KANJI19
  0
TEXT
  8
0
  6
CONTINUOUS
 62
     2
 10
5800.0
 20
2334.0
 30
20.571428571
 40
72.0
  1
１。運転時は必ずピストンロッドの回転防止を行って下さい。
 50
0.0
 41
0.857142857
 51
0.0
  7
KANJI20
  0
TEXT
  8
0
  6
CONTINUOUS
 62
     2
 10
5800.0
 20
2178.0
 30
20.52
 40
72.0
  1
２。形式表示ストロークは機械的最大ストロークです。
 50
0.0
 41
0.857222222
 51
0.0
  7
KANJI21
  0
TEXT
  8
0
  6
CONTINUOUS
 62
     2
 10
5800.0
 20
2021.2
 30
20.52
 40
72.0
  1
　　実際に使用する場合は惰行距離を含め、両端に十分余裕を
 50
0.0
 41
0.857222222
 51
0.0
  7
KANJI21
  0
TEXT
  8
0
  6
CONTINUOUS
 62
     2
 10
5800.0
 20
1865.2
 30
20.52
 40
72.0
  1
　　みて下さい。
 50
0.0
 41
0.857222222
 51
0.0
  7
KANJI21
  0
TEXT
  8
0
  6
CONTINUOUS
 62
     2
 10
5800.0
 20
1711.2
 30
20.52
 40
72.0
  1
３．外部ＬＳユニット：信号確認用
 50
0.0
 41
0.857222222
 51
0.0
  7
KANJI21
  0
TEXT
  8
0
  6
CONTINUOUS
 62
     2
 10
5800.0
 20
1553.2
 30
20.52
 40
72.0
  1
　　リミットＳＷ　形式：ＷＬＣＡ２　Ｘ　２　（ＯＭＲＯＮ）
 50
0.0
 41
0.857222222
 51
0.0
  7
KANJI21
  0
TEXT
  8
0
  6
CONTINUOUS
 62
     2
 10
7292.0
 20
736.0
 30
55.0
 40
110.0
  1
外寸図
 50
0.0
 41
0.9
 51
0.0
  7
KANJI22
  0
TEXT
  8
0
  6
CONTINUOUS
 62
     2
 10
7138.0
 20
850.0
 30
10.0
 40
100.0
  1
マイティシリンダ
 50
0.0
 41
0.9
 51
0.0
  7
KANJI23
  0
TEXT
  8
0
  6
CONTINUOUS
 62
     2
 10
6320.0
 20
828.0
 30
6.4
 40
64.0
  1
ＳＣＤ５Ｂ－ＪＬＳ
 50
0.0
 41
0.9
 51
0.0
  7
KANJI24
  0
TEXT
  8
0
  6
CONTINUOUS
 62
     2
 10
1216.0
 20
498.8
 30
8.0
 40
16.0
  1
特記事項
 50
0.0
 41
0.9
 51
0.0
  7
KANJI25
  0
TEXT
  8
0
  6
CONTINUOUS
 62
     2
 10
1160.0
 20
466.8
 30
4.114285714
 40
14.4
  1
１。運転時は必ずピストンロッドの回転防止を行って下さい。
 50
0.0
 41
0.857142857
 51
0.0
  7
KANJI26
  0
TEXT
  8
0
  6
CONTINUOUS
 62
     2
 10
1160.0
 20
435.6
 30
4.104
 40
14.4
  1
２。形式表示ストロークは機械的最大ストロークです。
 50
0.0
 41
0.857222222
 51
0.0
  7
KANJI27
  0
TEXT
  8
0
  6
CONTINUOUS
 62
     2
 10
1160.0
 20
404.24
 30
4.104
 40
14.4
  1
　　実際に使用する場合は惰行距離を含め、両端に十分余裕を
 50
0.0
 41
0.857222222
 51
0.0
  7
KANJI27
  0
TEXT
  8
0
  6
CONTINUOUS
 62
     2
 10
1160.0
 20
373.04
 30
4.104
 40
14.4
  1
　　みて下さい。
 50
0.0
 41
0.857222222
 51
0.0
  7
KANJI27
  0
LINE
  8
0
  6
LTYPE3
 62
     2
 10
166.9
 20
639.5
 11
194.257364708
 21
639.5
  0
LINE
  8
0
  6
LTYPE3
 62
     2
 10
166.9
 20
707.5
 11
194.257364708
 21
707.5
  0
LINE
  8
0
  6
CONTINUOUS
 62
     2
 10
470.0
 20
629.0
 11
472.588190451
 21
638.659258263
  0
LINE
  8
0
  6
CONTINUOUS
 62
     2
 10
470.0
 20
629.0
 11
467.411809549
 21
638.659258263
  0
LINE
  8
0
  6
CONTINUOUS
 62
     2
 10
470.0
 20
629.0
 11
470.0
 21
718.0
  0
LINE
  8
0
  6
CONTINUOUS
 62
     2
 10
470.0
 20
718.0
 11
467.411809549
 21
708.340741737
  0
LINE
  8
0
  6
CONTINUOUS
 62
     2
 10
470.0
 20
718.0
 11
472.588190451
 21
708.340741737
  0
TEXT
  8
0
  6
CONTINUOUS
 62
     2
 10
466.0
 20
656.9
 30
0.4
 40
12.0
  1
φ８９
 50
90.0
 41
0.9
 51
0.0
  7
KANJI28
  0
TEXT
  8
0
  6
CONTINUOUS
 62
     2
 10
473.0
 20
171.2
 30
1.2
 40
12.0
  1
１０００
 50
0.0
 41
0.9
 51
0.0
  7
KANJI1
  0
TEXT
  8
0
  6
CONTINUOUS
 62
     2
 10
1526.4
 20
885.6
 30
1.2
 40
12.0
  1
２　：　１
 50
0.0
 41
0.9
 51
0.0
  7
KANJI1
  0
TEXT
  8
0
  6
CONTINUOUS
 62
     2
 10
1544.4
 20
858.0
 30
8.0
 40
12.0
  1
３
 50
0.0
 41
0.9
 51
0.0
  7
KANJI18
  0
TEXT
  8
0
  6
CONTINUOUS
 62
     2
 10
1530.4
 20
799.75
 30
1.2
 40
12.0
  1
１．１
 50
0.0
 41
0.9
 51
0.0
  7
KANJI1
  0
TEXT
  8
0
  6
CONTINUOUS
 62
     2
 10
1530.9
 20
773.1
 30
1.2
 40
12.0
  1
２．１　
 50
0.0
 41
0.9
 51
0.0
  7
KANJI1
  0
LINE
  8
0
  6
CONTINUOUS
 62
     2
 10
228.0
 20
504.8
 11
237.659258263
 21
502.211809549
  0
LINE
  8
0
  6
CONTINUOUS
 62
     2
 10
228.0
 20
504.8
 11
237.659258263
 21
507.388190451
  0
LINE
  8
0
  6
CONTINUOUS
 62
     2
 10
228.0
 20
498.8
 11
228.0
 21
460.2
  0
LINE
  8
0
  6
CONTINUOUS
 62
     2
 10
228.0
 20
466.2
 11
237.659258263
 21
463.611809549
  0
LINE
  8
0
  6
CONTINUOUS
 62
     2
 10
228.0
 20
466.2
 11
237.659258263
 21
468.788190451
  0
TEXT
  8
0
  6
CONTINUOUS
 62
     2
 10
507.6
 20
508.8
 30
1.2
 40
12.0
  1
Ｃ
 50
0.0
 41
0.9
 51
0.0
  7
KANJI29
  0
TEXT
  8
0
  6
CONTINUOUS
 62
     2
 10
533.6
 20
470.2
 30
1.2
 40
12.0
  1
ｍｉｎ．Ｌ
 50
0.0
 41
0.9
 51
0.0
  7
KANJI29
  0
TEXT
  8
0
  6
CONTINUOUS
 62
     2
 10
500.1
 20
432.2
 30
1.2
 40
12.0
  1
ｍｉｎ．ＡＬ
 50
0.0
 41
0.9
 51
0.0
  7
KANJI29
  0
LINE
  8
0
  6
CONTINUOUS
 62
     1
 10
166.0
 20
595.5
 11
172.0
 21
595.5
  0
LINE
  8
0
  6
CONTINUOUS
 62
     1
 10
180.5
 20
573.5
 11
180.5
 21
583.5
  0
LINE
  8
0
  6
CONTINUOUS
 62
     1
 10
275.5
 20
573.5
 11
275.5
 21
583.5
  0
LINE
  8
0
  6
CONTINUOUS
 62
     1
 10
400.0
 20
618.5
 11
400.0
 21
728.5
  0
LINE
  8
0
  6
CONTINUOUS
 62
     1
 10
303.0
 20
733.5
 11
303.0
 21
744.44954
  0
LINE
  8
0
  6
CONTINUOUS
 62
     1
 10
303.0
 20
733.5
 11
303.0
 21
722.55046
  0
LINE
  8
0
  6
CONTINUOUS
 62
     1
 10
300.0
 20
744.25
 11
303.0
 21
744.25
  0
LINE
  8
0
  6
CONTINUOUS
 62
     1
 10
300.0
 20
733.5
 11
303.000254073
 21
736.500254073
  0
LINE
  8
0
  6
CONTINUOUS
 62
     1
 10
303.000254073
 20
733.5
 11
300.0
 21
730.499745927
  0
LINE
  8
0
  6
CONTINUOUS
 62
     1
 10
300.0
 20
722.75
 11
303.0
 21
722.75
  0
LINE
  8
0
  6
CONTINUOUS
 62
     1
 10
303.0
 20
744.25
 11
314.3
 21
744.25
  0
LINE
  8
0
  6
CONTINUOUS
 62
     1
 10
314.3
 20
733.5
 11
314.3
 21
744.25
  0
LINE
  8
0
  6
CONTINUOUS
 62
     1
 10
314.3
 20
744.25
 11
315.0
 21
743.037564435
  0
LINE
  8
0
  6
CONTINUOUS
 62
     1
 10
315.0
 20
733.5
 11
315.0
 21
743.037564435
  0
LINE
  8
0
  6
CONTINUOUS
 62
     1
 10
303.0
 20
722.75
 11
314.3
 21
722.75
  0
LINE
  8
0
  6
CONTINUOUS
 62
     1
 10
314.3
 20
733.5
 11
314.3
 21
722.75
  0
LINE
  8
0
  6
CONTINUOUS
 62
     1
 10
314.3
 20
722.75
 11
315.0
 21
723.962435565
  0
LINE
  8
0
  6
CONTINUOUS
 62
     1
 10
315.0
 20
733.5
 11
315.0
 21
723.962435565
  0
LINE
  8
0
  6
CONTINUOUS
 62
     1
 10
303.0
 20
613.5
 11
303.0
 21
624.44954
  0
LINE
  8
0
  6
CONTINUOUS
 62
     1
 10
303.0
 20
613.5
 11
303.0
 21
602.55046
  0
LINE
  8
0
  6
CONTINUOUS
 62
     1
 10
300.0
 20
624.25
 11
303.0
 21
624.25
  0
LINE
  8
0
  6
CONTINUOUS
 62
     1
 10
300.0
 20
613.5
 11
303.000254073
 21
616.500254073
  0
LINE
  8
0
  6
CONTINUOUS
 62
     1
 10
303.000254073
 20
613.5
 11
300.0
 21
610.499745927
  0
LINE
  8
0
  6
CONTINUOUS
 62
     1
 10
300.0
 20
602.75
 11
303.0
 21
602.75
  0
LINE
  8
0
  6
CONTINUOUS
 62
     1
 10
303.0
 20
624.25
 11
314.3
 21
624.25
  0
LINE
  8
0
  6
CONTINUOUS
 62
     1
 10
314.3
 20
613.5
 11
314.3
 21
624.25
  0
LINE
  8
0
  6
CONTINUOUS
 62
     1
 10
314.3
 20
624.25
 11
315.0
 21
623.037564435
  0
LINE
  8
0
  6
CONTINUOUS
 62
     1
 10
315.0
 20
613.5
 11
315.0
 21
623.037564435
  0
LINE
  8
0
  6
CONTINUOUS
 62
     1
 10
303.0
 20
602.75
 11
314.3
 21
602.75
  0
LINE
  8
0
  6
CONTINUOUS
 62
     1
 10
314.3
 20
613.5
 11
314.3
 21
602.75
  0
LINE
  8
0
  6
CONTINUOUS
 62
     1
 10
314.3
 20
602.75
 11
315.0
 21
603.962435565
  0
LINE
  8
0
  6
CONTINUOUS
 62
     1
 10
315.0
 20
613.5
 11
315.0
 21
603.962435565
  0
LINE
  8
0
  6
LTYPE3
 62
     2
 10
275.0
 20
613.5
 11
320.0
 21
613.5
  0
LINE
  8
0
  6
LTYPE3
 62
     2
 10
275.0
 20
733.5
 11
320.0
 21
733.5
  0
LINE
  8
0
  6
CONTINUOUS
 62
     2
 10
400.0
 20
716.8
 11
403.0
 21
716.8
  0
LINE
  8
0
  6
CONTINUOUS
 62
     1
 10
403.0
 20
718.0
 11
403.0
 21
629.0
  0
LINE
  8
0
  6
CONTINUOUS
 62
     1
 10
400.0
 20
629.0
 11
798.0
 21
629.0
  0
LINE
  8
0
  6
CONTINUOUS
 62
     2
 10
400.0
 20
630.2
 11
403.0
 21
630.2
  0
LINE
  8
0
  6
CONTINUOUS
 62
     1
 10
288.0
 20
595.5
 11
288.0
 21
751.5
  0
LINE
  8
0
  6
CONTINUOUS
 62
     1
 10
276.5
 20
583.5
 11
276.5
 21
595.5
  0
LINE
  8
0
  6
CONTINUOUS
 62
     1
 10
179.5
 20
583.5
 11
179.5
 21
595.5
  0
LINE
  8
0
  6
CONTINUOUS
 62
     1
 10
179.5
 20
583.5
 11
276.5
 21
583.5
  0
LINE
  8
0
  6
CONTINUOUS
 62
     1
 10
253.0
 20
795.5
 11
253.0
 21
773.5
  0
LINE
  8
0
  6
CONTINUOUS
 62
     1
 10
237.5
 20
826.5
 11
237.5
 21
798.5
  0
LINE
  8
0
  6
CONTINUOUS
 62
     1
 10
238.0
 20
798.5
 11
238.0
 21
795.5
  0
LINE
  8
0
  6
CONTINUOUS
 62
     1
 10
218.0
 20
798.5
 11
218.0
 21
795.5
  0
LINE
  8
0
  6
CONTINUOUS
 62
     1
 10
203.0
 20
795.5
 11
203.0
 21
773.5
  0
LINE
  8
0
  6
CONTINUOUS
 62
     1
 10
203.0
 20
795.5
 11
253.0
 21
795.5
  0
LINE
  8
0
  6
CONTINUOUS
 62
     1
 10
218.0
 20
798.5
 11
238.0
 21
798.5
  0
LINE
  8
0
  6
CONTINUOUS
 62
     1
 10
218.5
 20
826.5
 11
218.5
 21
798.5
  0
LINE
  8
0
  6
CONTINUOUS
 62
     1
 10
180.5
 20
773.5
 11
275.5
 21
773.5
  0
LINE
  8
0
  6
CONTINUOUS
 62
     1
 10
218.5
 20
826.5
 11
237.5
 21
826.5
  0
LINE
  8
0
  6
CONTINUOUS
 62
     1
 10
166.0
 20
751.5
 11
172.0
 21
751.5
  0
LINE
  8
0
  6
CONTINUOUS
 62
     1
 10
180.5
 20
773.5
 11
180.5
 21
763.5
  0
LINE
  8
0
  6
CONTINUOUS
 62
     1
 10
275.5
 20
773.5
 11
275.5
 21
763.5
  0
LINE
  8
0
  6
CONTINUOUS
 62
     1
 10
276.5
 20
763.5
 11
276.5
 21
751.5
  0
LINE
  8
0
  6
CONTINUOUS
 62
     1
 10
179.5
 20
763.5
 11
179.5
 21
751.5
  0
LINE
  8
0
  6
CONTINUOUS
 62
     1
 10
179.5
 20
763.5
 11
276.5
 21
763.5
  0
LINE
  8
0
  6
CONTINUOUS
 62
     1
 10
172.0
 20
595.5
 11
172.0
 21
751.5
  0
LINE
  8
0
  6
CONTINUOUS
 62
     1
 10
166.0
 20
595.5
 11
166.0
 21
751.5
  0
ARC
  8
0
  6
CONTINUOUS
 62
     1
 10
228.0
 20
545.024758544
 40
70.0
 50
46.143295798
 51
133.856704202
  0
LINE
  8
0
  6
CONTINUOUS
 62
     1
 10
276.1
 20
595.5
 11
288.0
 21
595.5
  0
LINE
  8
0
  6
CONTINUOUS
 62
     1
 10
172.0
 20
595.5
 11
179.8
 21
595.5
  0
ARC
  8
0
  6
CONTINUOUS
 62
     1
 10
228.0
 20
801.975241456
 40
70.0
 50
226.143295798
 51
313.856704202
  0
LINE
  8
0
  6
CONTINUOUS
 62
     1
 10
276.5
 20
751.5
 11
288.0
 21
751.5
  0
LINE
  8
0
  6
CONTINUOUS
 62
     1
 10
166.0
 20
751.5
 11
179.5
 21
751.5
  0
LINE
  8
0
  6
CONTINUOUS
 62
     2
 10
228.0
 20
504.8
 11
798.0
 21
504.8
  0
LINE
  8
0
  6
CONTINUOUS
 62
     2
 10
798.0
 20
504.8
 11
788.340741737
 21
507.388190451
  0
LINE
  8
0
  6
CONTINUOUS
 62
     2
 10
798.0
 20
504.8
 11
788.340741737
 21
502.211809549
  0
LINE
  8
0
  6
CONTINUOUS
 62
     2
 10
798.0
 20
504.8
 11
807.659258263
 21
502.211809549
  0
LINE
  8
0
  6
CONTINUOUS
 62
     2
 10
798.0
 20
504.8
 11
807.659258263
 21
507.388190451
  0
LINE
  8
0
  6
CONTINUOUS
 62
     2
 10
798.0
 20
632.5
 11
798.0
 21
495.4
  0
LINE
  8
0
  6
CONTINUOUS
 62
     2
 10
228.0
 20
466.2
 11
218.340741737
 21
468.788190451
  0
LINE
  8
0
  6
CONTINUOUS
 62
     2
 10
228.0
 20
466.2
 11
218.340741737
 21
463.611809549
  0
LINE
  8
0
  6
CONTINUOUS
 62
     2
 10
228.0
 20
466.2
 11
166.0
 21
466.2
  0
LINE
  8
0
  6
CONTINUOUS
 62
     2
 10
166.0
 20
466.2
 11
175.659258263
 21
463.611809549
  0
LINE
  8
0
  6
CONTINUOUS
 62
     2
 10
166.0
 20
466.2
 11
175.659258263
 21
468.788190451
  0
TEXT
  8
0
  6
CONTINUOUS
 62
     2
 10
185.6
 20
470.2
 30
1.2
 40
12.0
  1
６２
 50
0.0
 41
0.9
 51
0.0
  7
KANJI29
  0
LINE
  8
0
  6
CONTINUOUS
 62
     2
 10
166.0
 20
589.5
 11
166.0
 21
419.75
  0
LINE
  8
0
  6
CONTINUOUS
 62
     2
 10
166.0
 20
428.2
 11
175.659258263
 21
425.611809549
  0
LINE
  8
0
  6
CONTINUOUS
 62
     2
 10
166.0
 20
428.2
 11
175.659258263
 21
430.788190451
  0
LINE
  8
0
  6
CONTINUOUS
 62
     1
 10
1201.5
 20
573.5
 11
1201.5
 21
583.5
  0
LINE
  8
0
  6
CONTINUOUS
 62
     1
 10
1106.5
 20
573.5
 11
1106.5
 21
583.5
  0
LINE
  8
0
  6
CONTINUOUS
 62
     1
 10
1105.5
 20
583.5
 11
1105.5
 21
612.5
  0
LINE
  8
0
  6
CONTINUOUS
 62
     1
 10
1105.5
 20
583.5
 11
1202.5
 21
583.5
  0
LINE
  8
0
  6
CONTINUOUS
 62
     1
 10
1202.5
 20
583.5
 11
1202.5
 21
612.5
  0
LINE
  8
0
  6
LTYPE2
 62
     2
 10
1154.0
 20
510.5
 11
1154.0
 21
620.95
  0
LINE
  8
0
  6
CONTINUOUS
 62
     1
 10
1179.0
 20
795.5
 11
1179.0
 21
773.5
  0
LINE
  8
0
  6
CONTINUOUS
 62
     1
 10
1163.5
 20
826.5
 11
1163.5
 21
798.5
  0
LINE
  8
0
  6
CONTINUOUS
 62
     1
 10
1164.0
 20
798.5
 11
1164.0
 21
795.5
  0
LINE
  8
0
  6
CONTINUOUS
 62
     1
 10
1144.0
 20
798.5
 11
1144.0
 21
795.5
  0
LINE
  8
0
  6
CONTINUOUS
 62
     1
 10
1129.0
 20
795.5
 11
1129.0
 21
773.5
  0
LINE
  8
0
  6
CONTINUOUS
 62
     1
 10
1129.0
 20
795.5
 11
1179.0
 21
795.5
  0
LINE
  8
0
  6
CONTINUOUS
 62
     1
 10
1144.0
 20
798.5
 11
1164.0
 21
798.5
  0
LINE
  8
0
  6
CONTINUOUS
 62
     1
 10
1144.5
 20
826.5
 11
1144.5
 21
798.5
  0
LINE
  8
0
  6
CONTINUOUS
 62
     1
 10
1106.5
 20
773.5
 11
1201.5
 21
773.5
  0
LINE
  8
0
  6
CONTINUOUS
 62
     1
 10
1144.5
 20
826.5
 11
1163.5
 21
826.5
  0
LINE
  8
0
  6
CONTINUOUS
 62
     1
 10
1201.5
 20
773.5
 11
1201.5
 21
763.5
  0
LINE
  8
0
  6
CONTINUOUS
 62
     1
 10
1106.5
 20
773.5
 11
1106.5
 21
763.5
  0
LINE
  8
0
  6
CONTINUOUS
 62
     1
 10
1105.5
 20
763.5
 11
1105.5
 21
734.5
  0
LINE
  8
0
  6
CONTINUOUS
 62
     1
 10
1105.5
 20
763.5
 11
1202.5
 21
763.5
  0
LINE
  8
0
  6
CONTINUOUS
 62
     1
 10
1202.5
 20
763.5
 11
1202.5
 21
734.5
  0
LINE
  8
0
  6
LTYPE2
 62
     2
 10
228.0
 20
498.5
 11
228.0
 21
832.3
  0
LINE
  8
0
  6
CONTINUOUS
 62
     1
 10
225.0
 20
804.5
 11
225.0
 21
826.5
  0
ARC
  8
0
  6
CONTINUOUS
 62
     1
 10
228.0
 20
804.5
 40
3.0
 50
180.0
 51
270.0
  0
LINE
  8
0
  6
CONTINUOUS
 62
     1
 10
231.0
 20
804.5
 11
231.0
 21
826.5
  0
ARC
  8
0
  6
CONTINUOUS
 62
     1
 10
228.0
 20
804.5
 40
3.0
 50
270.0
 51
0.0
  0
LINE
  8
0
  6
CONTINUOUS
 62
     1
 10
225.0
 20
542.5
 11
225.0
 21
520.5
  0
ARC
  8
0
  6
CONTINUOUS
 62
     1
 10
228.0
 20
542.5
 40
3.0
 50
90.0
 51
180.0
  0
LINE
  8
0
  6
CONTINUOUS
 62
     1
 10
231.0
 20
542.5
 11
231.0
 21
520.5
  0
ARC
  8
0
  6
CONTINUOUS
 62
     1
 10
228.0
 20
542.5
 40
3.0
 50
0.0
 51
90.0
  0
LINE
  8
0
  6
CONTINUOUS
 62
     2
 10
174.5
 20
773.5
 11
123.9
 21
773.5
  0
LINE
  8
0
  6
CONTINUOUS
 62
     2
 10
129.9
 20
773.5
 11
127.311809549
 21
763.840741737
  0
LINE
  8
0
  6
CONTINUOUS
 62
     2
 10
129.9
 20
773.5
 11
132.488190451
 21
763.840741737
  0
LINE
  8
0
  6
CONTINUOUS
 62
     2
 10
129.9
 20
773.5
 11
129.9
 21
573.5
  0
LINE
  8
0
  6
CONTINUOUS
 62
     2
 10
129.9
 20
573.5
 11
132.488190451
 21
583.159258263
  0
LINE
  8
0
  6
CONTINUOUS
 62
     2
 10
129.9
 20
573.5
 11
127.311809549
 21
583.159258263
  0
LINE
  8
0
  6
CONTINUOUS
 62
     2
 10
174.5
 20
573.5
 11
123.9
 21
573.5
  0
TEXT
  8
0
  6
CONTINUOUS
 62
     2
 10
125.9
 20
656.1
 30
1.2
 40
12.0
  1
２００
 50
90.0
 41
0.9
 51
0.0
  7
KANJI29
  0
LINE
  8
0
  6
CONTINUOUS
 62
     2
 10
129.9
 20
573.5
 11
127.311809549
 21
563.840741737
  0
LINE
  8
0
  6
CONTINUOUS
 62
     2
 10
129.9
 20
573.5
 11
132.488190451
 21
563.840741737
  0
LINE
  8
0
  6
CONTINUOUS
 62
     2
 10
129.9
 20
573.5
 11
129.9
 21
551.5
  0
LINE
  8
0
  6
CONTINUOUS
 62
     2
 10
129.9
 20
551.5
 11
132.488190451
 21
561.159258263
  0
LINE
  8
0
  6
CONTINUOUS
 62
     2
 10
129.9
 20
551.5
 11
127.311809549
 21
561.159258263
  0
LINE
  8
0
  6
CONTINUOUS
 62
     2
 10
197.0
 20
551.5
 11
123.9
 21
551.5
  0
TEXT
  8
0
  6
CONTINUOUS
 62
     2
 10
125.9
 20
551.1
 30
1.2
 40
12.0
  1
２２
 50
90.0
 41
0.9
 51
0.0
  7
KANJI29
  0
LINE
  8
0
  6
CONTINUOUS
 62
     2
 10
129.9
 20
773.5
 11
132.488190451
 21
783.159258263
  0
LINE
  8
0
  6
CONTINUOUS
 62
     2
 10
129.9
 20
773.5
 11
127.311809549
 21
783.159258263
  0
LINE
  8
0
  6
CONTINUOUS
 62
     2
 10
129.9
 20
773.5
 11
129.9
 21
795.5
  0
LINE
  8
0
  6
CONTINUOUS
 62
     2
 10
129.9
 20
795.5
 11
127.311809549
 21
785.840741737
  0
LINE
  8
0
  6
CONTINUOUS
 62
     2
 10
129.9
 20
795.5
 11
132.488190451
 21
785.840741737
  0
LINE
  8
0
  6
CONTINUOUS
 62
     2
 10
197.0
 20
795.5
 11
123.9
 21
795.5
  0
TEXT
  8
0
  6
CONTINUOUS
 62
     2
 10
125.9
 20
773.1
 30
1.2
 40
12.0
  1
２２
 50
90.0
 41
0.9
 51
0.0
  7
KANJI29
  0
LINE
  8
0
  6
CONTINUOUS
 62
     2
 10
212.5
 20
826.5
 11
98.9
 21
826.5
  0
LINE
  8
0
  6
CONTINUOUS
 62
     2
 10
104.9
 20
826.5
 11
102.311809549
 21
816.840741737
  0
LINE
  8
0
  6
CONTINUOUS
 62
     2
 10
104.9
 20
826.5
 11
107.488190451
 21
816.840741737
  0
LINE
  8
0
  6
CONTINUOUS
 62
     2
 10
104.9
 20
826.5
 11
104.9
 21
520.5
  0
LINE
  8
0
  6
CONTINUOUS
 62
     2
 10
104.9
 20
520.5
 11
107.488190451
 21
530.159258263
  0
LINE
  8
0
  6
CONTINUOUS
 62
     2
 10
104.9
 20
520.5
 11
102.311809549
 21
530.159258263
  0
LINE
  8
0
  6
CONTINUOUS
 62
     2
 10
212.5
 20
520.5
 11
98.9
 21
520.5
  0
TEXT
  8
0
  6
CONTINUOUS
 62
     2
 10
100.9
 20
656.1
 30
1.2
 40
12.0
  1
３０６
 50
90.0
 41
0.9
 51
0.0
  7
KANJI29
  0
LINE
  8
0
  6
CONTINUOUS
 62
     2
 10
218.5
 20
832.5
 11
218.5
 21
849.1
  0
LINE
  8
0
  6
CONTINUOUS
 62
     2
 10
218.5
 20
843.1
 11
208.840741737
 21
845.688190451
  0
LINE
  8
0
  6
CONTINUOUS
 62
     2
 10
218.5
 20
843.1
 11
208.840741737
 21
840.511809549
  0
LINE
  8
0
  6
CONTINUOUS
 62
     2
 10
237.5
 20
843.1
 11
247.159258263
 21
840.511809549
  0
LINE
  8
0
  6
CONTINUOUS
 62
     2
 10
237.5
 20
843.1
 11
247.159258263
 21
845.688190451
  0
LINE
  8
0
  6
CONTINUOUS
 62
     2
 10
237.5
 20
832.5
 11
237.5
 21
849.1
  0
LINE
  8
0
  6
CONTINUOUS
 62
     2
 10
1154.0
 20
839.3
 11
1154.0
 21
885.1
  0
LINE
  8
0
  6
CONTINUOUS
 62
     2
 10
1154.0
 20
879.1
 11
1163.659258263
 21
876.511809549
  0
LINE
  8
0
  6
CONTINUOUS
 62
     2
 10
1154.0
 20
879.1
 11
1163.659258263
 21
881.688190451
  0
LINE
  8
0
  6
CONTINUOUS
 62
     2
 10
1154.0
 20
879.1
 11
1232.0
 21
879.1
  0
LINE
  8
0
  6
CONTINUOUS
 62
     2
 10
1232.0
 20
879.1
 11
1222.340741737
 21
881.688190451
  0
LINE
  8
0
  6
CONTINUOUS
 62
     2
 10
1232.0
 20
879.1
 11
1222.340741737
 21
876.511809549
  0
LINE
  8
0
  6
CONTINUOUS
 62
     2
 10
1232.0
 20
679.5
 11
1232.0
 21
885.1
  0
TEXT
  8
0
  6
CONTINUOUS
 62
     2
 10
1181.6
 20
883.1
 30
1.2
 40
12.0
  1
７８
 50
0.0
 41
0.9
 51
0.0
  7
KANJI29
  0
LINE
  8
0
  6
LTYPE2
 62
     2
 10
1021.7
 20
673.5
 11
1227.0
 21
673.5
  0
LINE
  8
0
  6
CONTINUOUS
 62
     2
 10
1154.0
 20
879.1
 11
1144.340741737
 21
881.688190451
  0
LINE
  8
0
  6
CONTINUOUS
 62
     2
 10
1154.0
 20
879.1
 11
1144.340741737
 21
876.511809549
  0
LINE
  8
0
  6
CONTINUOUS
 62
     2
 10
1154.0
 20
879.1
 11
1028.5
 21
879.1
  0
LINE
  8
0
  6
CONTINUOUS
 62
     2
 10
1028.5
 20
879.1
 11
1038.159258263
 21
876.511809549
  0
LINE
  8
0
  6
CONTINUOUS
 62
     2
 10
1028.5
 20
879.1
 11
1038.159258263
 21
881.688190451
  0
LINE
  8
0
  6
CONTINUOUS
 62
     2
 10
1028.5
 20
679.5
 11
1028.5
 21
885.1
  0
TEXT
  8
0
  6
CONTINUOUS
 62
     2
 10
1061.85
 20
883.1
 30
1.2
 40
12.0
  1
１２５．５
 50
0.0
 41
0.9
 51
0.0
  7
KANJI29
  0
LINE
  8
0
  6
CONTINUOUS
 62
     2
 10
1138.0
 20
798.5
 11
1008.7
 21
798.5
  0
LINE
  8
0
  6
CONTINUOUS
 62
     2
 10
1014.7
 20
798.5
 11
1012.111809549
 21
788.840741737
  0
LINE
  8
0
  6
CONTINUOUS
 62
     2
 10
1014.7
 20
798.5
 11
1017.288190451
 21
788.840741737
  0
LINE
  8
0
  6
CONTINUOUS
 62
     2
 10
1014.7
 20
798.5
 11
1014.7
 21
548.5
  0
LINE
  8
0
  6
CONTINUOUS
 62
     2
 10
1014.7
 20
548.5
 11
1017.288190451
 21
558.159258263
  0
LINE
  8
0
  6
CONTINUOUS
 62
     2
 10
1014.7
 20
548.5
 11
1012.111809549
 21
558.159258263
  0
LINE
  8
0
  6
CONTINUOUS
 62
     2
 10
1138.0
 20
548.5
 11
1008.7
 21
548.5
  0
TEXT
  8
0
  6
CONTINUOUS
 62
     2
 10
1010.7
 20
656.1
 30
1.2
 40
12.0
  1
２５０
 50
90.0
 41
0.9
 51
0.0
  7
KANJI29
  0
LINE
  8
0
  6
CONTINUOUS
 62
     2
 10
1014.7
 20
548.5
 11
1012.111809549
 21
538.840741737
  0
LINE
  8
0
  6
CONTINUOUS
 62
     2
 10
1014.7
 20
548.5
 11
1017.288190451
 21
538.840741737
  0
LINE
  8
0
  6
CONTINUOUS
 62
     2
 10
1014.7
 20
548.5
 11
1014.7
 21
520.5
  0
LINE
  8
0
  6
CONTINUOUS
 62
     2
 10
1014.7
 20
520.5
 11
1017.288190451
 21
530.159258263
  0
LINE
  8
0
  6
CONTINUOUS
 62
     2
 10
1014.7
 20
520.5
 11
1012.111809549
 21
530.159258263
  0
LINE
  8
0
  6
CONTINUOUS
 62
     2
 10
1138.5
 20
520.5
 11
1008.7
 21
520.5
  0
TEXT
  8
0
  6
CONTINUOUS
 62
     2
 10
1010.7
 20
523.1
 30
1.2
 40
12.0
  1
２８
 50
90.0
 41
0.9
 51
0.0
  7
KANJI29
  0
LINE
  8
0
  6
CONTINUOUS
 62
     2
 10
1014.7
 20
798.5
 11
1017.288190451
 21
808.159258263
  0
LINE
  8
0
  6
CONTINUOUS
 62
     2
 10
1014.7
 20
798.5
 11
1012.111809549
 21
808.159258263
  0
LINE
  8
0
  6
CONTINUOUS
 62
     2
 10
1014.7
 20
798.5
 11
1014.7
 21
826.5
  0
LINE
  8
0
  6
CONTINUOUS
 62
     2
 10
1014.7
 20
826.5
 11
1012.111809549
 21
816.840741737
  0
LINE
  8
0
  6
CONTINUOUS
 62
     2
 10
1014.7
 20
826.5
 11
1017.288190451
 21
816.840741737
  0
LINE
  8
0
  6
CONTINUOUS
 62
     2
 10
1138.5
 20
826.5
 11
1008.7
 21
826.5
  0
TEXT
  8
0
  6
CONTINUOUS
 62
     2
 10
1010.7
 20
801.1
 30
1.2
 40
12.0
  1
２８
 50
90.0
 41
0.9
 51
0.0
  7
KANJI29
  0
LINE
  8
0
  6
LTYPE3
 62
     2
 10
1053.5
 20
662.7
 11
1053.5
 21
683.9
  0
ARC
  8
0
  6
CONTINUOUS
 62
     1
 10
1034.5
 20
673.5
 40
6.0
 50
180.0
 51
270.0
  0
LINE
  8
0
  6
CONTINUOUS
 62
     1
 10
1028.5
 20
673.5
 11
1028.5
 21
673.5
  0
ARC
  8
0
  6
CONTINUOUS
 62
     1
 10
1034.5
 20
673.5
 40
6.0
 50
90.0
 51
180.0
  0
LINE
  8
0
  6
CONTINUOUS
 62
     1
 10
1034.5
 20
679.5
 11
1069.6
 21
679.5
  0
LINE
  8
0
  6
CONTINUOUS
 62
     1
 10
1034.5
 20
667.5
 11
1069.6
 21
667.5
  0
LINE
  8
0
  6
CONTINUOUS
 62
     1
 10
1076.0
 20
661.0
 11
1076.0
 21
686.0
  0
LINE
  8
0
  6
CONTINUOUS
 62
     1
 10
1077.008117311
 20
686.0
 11
1067.0
 21
684.251008625
  0
LINE
  8
0
  6
CONTINUOUS
 62
     1
 10
1067.0
 20
679.5
 11
1067.0
 21
684.251008625
  0
LINE
  8
0
  6
CONTINUOUS
 62
     1
 10
1067.0
 20
684.251008625
 11
1065.7
 21
679.551008625
  0
LINE
  8
0
  6
CONTINUOUS
 62
     1
 10
1077.008117311
 20
661.0
 11
1067.0
 21
662.748991375
  0
LINE
  8
0
  6
CONTINUOUS
 62
     1
 10
1067.0
 20
667.5
 11
1067.0
 21
662.748991375
  0
LINE
  8
0
  6
CONTINUOUS
 62
     1
 10
1067.0
 20
662.748991375
 11
1065.7
 21
667.448991375
  0
TEXT
  8
0
  6
CONTINUOUS
 62
     2
 10
154.8
 20
846.6
 30
1.2
 40
12.0
  1
φ１９ｈ７
 50
0.0
 41
0.9
 51
0.0
  7
KANJI29
  0
LINE
  8
0
  6
CONTINUOUS
 62
     2
 10
167.7
 20
843.1
 11
250.8
 21
843.1
  0
CIRCLE
  8
0
  6
CONTINUOUS
 62
     1
 10
248.684718855
 20
715.409184924
 40
10.0
  0
CIRCLE
  8
0
  6
CONTINUOUS
 62
     1
 10
248.684718855
 20
715.409184924
 40
11.0
  0
LINE
  8
0
  6
LTYPE3
 62
     2
 10
236.0
 20
715.35
 11
263.0
 21
715.35
  0
LINE
  8
0
  6
LTYPE3
 62
     2
 10
263.0
 20
715.35
 11
248.4
 21
715.35
  0
LINE
  8
0
  6
LTYPE3
 62
     2
 10
248.3
 20
728.6
 11
248.3
 21
700.0
  0
LINE
  8
0
  6
CONTINUOUS
 62
     2
 10
255.2
 20
722.5
 11
262.961091894
 21
728.805985459
  0
LINE
  8
0
  6
CONTINUOUS
 62
     2
 10
255.2
 20
722.5
 11
258.768310012
 21
731.841689551
  0
LINE
  8
0
  6
CONTINUOUS
 62
     2
 10
255.2
 20
722.5
 11
301.9
 21
787.0
  0
LINE
  8
0
  6
CONTINUOUS
 62
     2
 10
1129.0
 20
801.5
 11
1129.0
 21
858.9
  0
LINE
  8
0
  6
CONTINUOUS
 62
     2
 10
1129.0
 20
852.9
 11
1138.659258263
 21
850.311809549
  0
LINE
  8
0
  6
CONTINUOUS
 62
     2
 10
1129.0
 20
852.9
 11
1138.659258263
 21
855.488190451
  0
LINE
  8
0
  6
CONTINUOUS
 62
     2
 10
1129.0
 20
852.9
 11
1179.0
 21
852.9
  0
LINE
  8
0
  6
CONTINUOUS
 62
     2
 10
1179.0
 20
852.9
 11
1169.340741737
 21
855.488190451
  0
LINE
  8
0
  6
CONTINUOUS
 62
     2
 10
1179.0
 20
852.9
 11
1169.340741737
 21
850.311809549
  0
LINE
  8
0
  6
CONTINUOUS
 62
     2
 10
1179.0
 20
801.5
 11
1179.0
 21
858.9
  0
TEXT
  8
0
  6
CONTINUOUS
 62
     2
 10
1131.0
 20
857.0
 30
1.2
 40
12.0
  1
φ５０ｄ９
 50
0.0
 41
0.9
 51
0.0
  7
KANJI29
  0
TEXT
  8
0
  6
CONTINUOUS
 62
     2
 10
1489.0
 20
996.6
 30
0.8
 40
12.0
  1
ＳＣＤ２－　　
 50
0.0
 41
0.833333333
 51
0.0
  7
KANJI30
  0
TEXT
  8
0
  6
CONTINUOUS
 62
     2
 10
1479.4
 20
913.1
 30
1.2
 40
12.0
  1
ＭＡＸ．　９０
 50
0.0
 41
0.9
 51
0.0
  7
KANJI1
  0
TEXT
  8
0
  6
CONTINUOUS
 62
     2
 10
1499.6
 20
745.6
 30
10.25
 40
14.0
  1
全閉屋内形
 50
0.0
 41
0.9
 51
0.0
  7
KANJI31
  0
TEXT
  8
0
  6
CONTINUOUS
 62
     2
 10
1264.0
 20
165.6
 30
1.28
 40
12.8
  1
ＳＣＤ２－
 50
0.0
 41
0.9
 51
0.0
  7
KANJI32
  0
TEXT
  8
0
  6
CONTINUOUS
 62
     2
 10
333.0
 20
310.4
 30
0.8
 40
12.0
  1
ＳＣＤ２－　２
 50
0.0
 41
0.833333333
 51
0.0
  7
KANJI30
  0
TEXT
  8
0
  6
CONTINUOUS
 62
     2
 10
333.0
 20
282.4
 30
0.8
 40
12.0
  1
ＳＣＤ２－　３
 50
0.0
 41
0.833333333
 51
0.0
  7
KANJI30
  0
TEXT
  8
0
  6
CONTINUOUS
 62
     2
 10
333.0
 20
254.4
 30
0.8
 40
12.0
  1
ＳＣＤ２－　４
 50
0.0
 41
0.833333333
 51
0.0
  7
KANJI30
  0
TEXT
  8
0
  6
CONTINUOUS
 62
     2
 10
333.0
 20
226.4
 30
0.8
 40
12.0
  1
ＳＣＤ２－　５
 50
0.0
 41
0.833333333
 51
0.0
  7
KANJI30
  0
TEXT
  8
0
  6
CONTINUOUS
 62
     2
 10
333.0
 20
198.4
 30
0.8
 40
12.0
  1
ＳＣＤ２－　７
 50
0.0
 41
0.833333333
 51
0.0
  7
KANJI30
  0
TEXT
  8
0
  6
CONTINUOUS
 62
     2
 10
333.0
 20
170.4
 30
0.8
 40
12.0
  1
ＳＣＤ２－１０
 50
0.0
 41
0.833333333
 51
0.0
  7
KANJI30
  0
TEXT
  8
0
  6
CONTINUOUS
 62
     2
 10
711.3
 20
200.5
 30
1.2
 40
12.0
  1
１０３３
 50
0.0
 41
0.9
 51
0.0
  7
KANJI1
  0
TEXT
  8
0
  6
CONTINUOUS
 62
     2
 10
711.3
 20
172.5
 30
1.2
 40
12.0
  1
１３３３
 50
0.0
 41
0.9
 51
0.0
  7
KANJI1
  0
CIRCLE
  8
0
  6
CONTINUOUS
 62
     1
 10
1154.0
 20
673.5
 40
44.5
  0
LINE
  8
0
  6
CONTINUOUS
 62
     1
 10
748.0
 20
629.0
 11
748.0
 21
718.0
  0
LINE
  8
0
  6
CONTINUOUS
 62
     1
 10
400.0
 20
718.0
 11
798.0
 21
718.0
  0
LINE
  8
0
  6
CONTINUOUS
 62
     1
 10
798.0
 20
629.0
 11
798.0
 21
718.0
  0
LINE
  8
7
  6
CONTINUOUS
 62
     2
 10
828.0
 20
648.5
 11
825.411809549
 21
638.840741737
  0
LINE
  8
7
  6
CONTINUOUS
 62
     2
 10
828.0
 20
648.5
 11
830.588190451
 21
638.840741737
  0
LINE
  8
7
  6
CONTINUOUS
 62
     2
 10
828.0
 20
633.5
 11
828.0
 21
747.5
  0
LINE
  8
7
  6
CONTINUOUS
 62
     2
 10
828.0
 20
698.5
 11
830.588190451
 21
708.159258263
  0
LINE
  8
7
  6
CONTINUOUS
 62
     2
 10
828.0
 20
698.5
 11
825.411809549
 21
708.159258263
  0
LINE
  8
7
  6
CONTINUOUS
 62
     2
 10
822.0
 20
698.5
 11
822.0
 21
698.5
  0
TEXT
  8
7
  6
CONTINUOUS
 62
     2
 10
824.0
 20
713.5
 30
0.8
 40
12.0
  1
φ５０
 50
90.0
 41
0.9
 51
0.0
  7
KANJI33
  0
LINE
  8
7
  6
CONTINUOUS
 62
     2
 10
129.9
 20
795.5
 11
127.311809549
 21
785.840741737
  0
LINE
  8
7
  6
CONTINUOUS
 62
     2
 10
129.9
 20
795.5
 11
132.488190451
 21
785.840741737
  0
LINE
  8
7
  6
CONTINUOUS
 62
     2
 10
129.9
 20
780.5
 11
129.9
 21
824.3
  0
LINE
  8
7
  6
CONTINUOUS
 62
     2
 10
129.9
 20
798.5
 11
132.488190451
 21
808.159258263
  0
LINE
  8
7
  6
CONTINUOUS
 62
     2
 10
129.9
 20
798.5
 11
127.311809549
 21
808.159258263
  0
LINE
  8
7
  6
CONTINUOUS
 62
     2
 10
212.0
 20
798.5
 11
123.9
 21
798.5
  0
TEXT
  8
7
  6
CONTINUOUS
 62
     2
 10
125.9
 20
813.5
 30
0.8
 40
12.0
  1
３
 50
90.0
 41
0.9
 51
0.0
  7
KANJI33
  0
LINE
  8
7
  6
CONTINUOUS
 62
     2
 10
129.9
 20
551.5
 11
132.488190451
 21
561.159258263
  0
LINE
  8
7
  6
CONTINUOUS
 62
     2
 10
129.9
 20
551.5
 11
127.311809549
 21
561.159258263
  0
LINE
  8
7
  6
CONTINUOUS
 62
     2
 10
129.9
 20
566.5
 11
129.9
 21
522.7
  0
LINE
  8
7
  6
CONTINUOUS
 62
     2
 10
129.9
 20
548.5
 11
127.311809549
 21
538.840741737
  0
LINE
  8
7
  6
CONTINUOUS
 62
     2
 10
129.9
 20
548.5
 11
132.488190451
 21
538.840741737
  0
LINE
  8
7
  6
CONTINUOUS
 62
     2
 10
212.0
 20
548.5
 11
123.9
 21
548.5
  0
TEXT
  8
7
  6
CONTINUOUS
 62
     2
 10
125.9
 20
522.7
 30
0.8
 40
12.0
  1
３
 50
90.0
 41
0.9
 51
0.0
  7
KANJI33
  0
LINE
  8
0
  6
CONTINUOUS
 62
     2
 10
1163.2
 20
988.65
 11
1163.2
 21
968.45
  0
LINE
  8
0
  6
CONTINUOUS
 62
     2
 10
1193.6
 20
997.85
 11
1183.940741737
 21
1000.438190451
  0
LINE
  8
0
  6
CONTINUOUS
 62
     2
 10
1193.6
 20
997.85
 11
1183.940741737
 21
995.261809549
  0
LINE
  8
0
  6
CONTINUOUS
 62
     2
 10
1003.2
 20
978.45
 11
1012.859258263
 21
975.861809549
  0
LINE
  8
0
  6
CONTINUOUS
 62
     2
 10
1003.2
 20
978.45
 11
1012.859258263
 21
981.038190451
  0
LINE
  8
0
  6
CONTINUOUS
 62
     2
 10
1163.2
 20
978.45
 11
1153.540741737
 21
981.038190451
  0
LINE
  8
0
  6
CONTINUOUS
 62
     2
 10
1163.2
 20
978.45
 11
1153.540741737
 21
975.861809549
  0
LINE
  8
0
  6
CONTINUOUS
 62
     2
 10
1003.2
 20
978.45
 11
993.540741737
 21
981.038190451
  0
LINE
  8
0
  6
CONTINUOUS
 62
     2
 10
1003.2
 20
978.45
 11
993.540741737
 21
975.861809549
  0
LINE
  8
0
  6
CONTINUOUS
 62
     2
 10
1163.2
 20
978.45
 11
1172.859258263
 21
975.861809549
  0
LINE
  8
0
  6
CONTINUOUS
 62
     2
 10
1163.2
 20
978.45
 11
1172.859258263
 21
981.038190451
  0
LINE
  8
0
  6
CONTINUOUS
 62
     2
 10
1193.6
 20
978.45
 11
1183.940741737
 21
981.038190451
  0
LINE
  8
0
  6
CONTINUOUS
 62
     2
 10
1193.6
 20
978.45
 11
1183.940741737
 21
975.861809549
  0
LINE
  8
0
  6
CONTINUOUS
 62
     2
 10
988.6
 20
976.25
 11
995.639349309
 21
969.14735533
  0
LINE
  8
0
  6
CONTINUOUS
 62
     2
 10
988.6
 20
976.25
 11
998.247577663
 21
973.618603936
  0
LINE
  8
0
  6
CONTINUOUS
 62
     2
 10
988.6
 20
976.25
 11
1060.6
 21
934.25
  0
LINE
  8
0
  6
CONTINUOUS
 62
     2
 10
1179.4
 20
978.85
 11
1169.447338195
 21
977.878134275
  0
LINE
  8
0
  6
CONTINUOUS
 62
     2
 10
1179.4
 20
978.85
 11
1171.266674904
 21
973.03200869
  0
LINE
  8
0
  6
CONTINUOUS
 62
     2
 10
1179.4
 20
978.85
 11
1060.6
 21
934.25
  0
LINE
  8
0
  6
CONTINUOUS
 62
     2
 10
1242.4
 20
934.25
 11
1060.6
 21
934.25
  0
TEXT
  8
0
  6
CONTINUOUS
 62
     2
 10
1111.0
 20
938.25
 30
0.0
 40
12.0
  1
惰行距離＋ストローク余裕
 50
0.0
 41
0.9
 51
0.0
  7
KANJI2
  0
LINE
  8
0
  6
CONTINUOUS
 62
     2
 10
969.8
 20
1009.85
 11
969.8
 21
966.85
  0
LINE
  8
0
  6
CONTINUOUS
 62
     2
 10
969.8
 20
997.85
 11
979.459258263
 21
995.261809549
  0
LINE
  8
0
  6
CONTINUOUS
 62
     2
 10
969.8
 20
997.85
 11
979.459258263
 21
1000.438190451
  0
LINE
  8
0
  6
CONTINUOUS
 62
     2
 10
969.8
 20
978.45
 11
979.459258263
 21
975.861809549
  0
LINE
  8
0
  6
CONTINUOUS
 62
     2
 10
969.8
 20
978.45
 11
979.459258263
 21
981.038190451
  0
LINE
  8
0
  6
CONTINUOUS
 62
     2
 10
969.8
 20
997.85
 11
1193.6
 21
997.85
  0
LINE
  8
0
  6
CONTINUOUS
 62
     2
 10
969.8
 20
978.45
 11
960.140741737
 21
975.861809549
  0
LINE
  8
0
  6
CONTINUOUS
 62
     2
 10
969.8
 20
978.45
 11
960.140741737
 21
981.038190451
  0
LINE
  8
0
  6
CONTINUOUS
 62
     2
 10
1003.2
 20
989.05
 11
1003.2
 21
945.0
  0
LINE
  8
0
  6
CONTINUOUS
 62
     2
 10
1003.2
 20
949.4
 11
875.4
 21
949.4
  0
LINE
  8
0
  6
CONTINUOUS
 62
     2
 10
1003.2
 20
949.4
 11
993.540741737
 21
946.811809549
  0
LINE
  8
0
  6
CONTINUOUS
 62
     2
 10
1003.2
 20
949.4
 11
993.540741737
 21
951.988190451
  0
LINE
  8
0
  6
CONTINUOUS
 62
     2
 10
1193.6
 20
1024.8
 11
1193.6
 21
970.85
  0
TEXT
  8
0
  6
CONTINUOUS
 62
     2
 10
903.6
 20
953.8
 30
1.2
 40
12.0
  1
取付ｍｉｎ．寸法
 50
0.0
 41
0.9
 51
0.0
  7
KANJI34
  0
LINE
  8
0
  6
CONTINUOUS
 62
     2
 10
840.0
 20
978.45
 11
1193.8
 21
978.45
  0
LINE
  8
0
  6
CONTINUOUS
 62
     2
 10
1193.4375
 20
1018.65
 11
1183.778241737
 21
1021.238190451
  0
LINE
  8
0
  6
CONTINUOUS
 62
     2
 10
1193.4375
 20
1018.65
 11
1183.778241737
 21
1016.061809549
  0
LINE
  8
0
  6
CONTINUOUS
 62
     2
 10
1193.6
 20
1018.6
 11
966.2
 21
1018.6
  0
TEXT
  8
0
  6
CONTINUOUS
 62
     2
 10
905.0
 20
930.0
 30
1.2
 40
12.0
  1
（　　　　　）
 50
0.0
 41
0.9
 51
0.0
  7
KANJI34
  0
TEXT
  8
0
  6
CONTINUOUS
 62
     2
 10
843.8
 20
983.6
 30
1.2
 40
12.0
  1
ｍｉｎ．Ｌ（　　　　）
 50
0.0
 41
0.9
 51
0.0
  7
KANJI34
  0
TEXT
  8
0
  6
CONTINUOUS
 62
     2
 10
1009.0
 20
1022.8
 30
1.2
 40
12.0
  1
ｍａｘ．Ｌ（　　　　）
 50
0.0
 41
0.9
 51
0.0
  7
KANJI34
  0
TEXT
  8
0
  6
CONTINUOUS
 62
     2
 10
1010.2
 20
1003.85
 30
1.2
 40
12.0
  1
機械的ストローク（　　　　）
 50
0.0
 41
0.9
 51
0.0
  7
KANJI34
  0
TEXT
  8
0
  6
CONTINUOUS
 62
     2
 10
1030.4
 20
982.05
 30
1.2
 40
12.0
  1
使用ストローク（　　　　）
 50
0.0
 41
0.9
 51
0.0
  7
KANJI34
  0
POLYLINE
  8
0
  6
CONTINUOUS
 62
     6
 66
     1
  0
VERTEX
  8
0
  6
CONTINUOUS
 62
     6
 10
72.0
 20
44.0
  0
VERTEX
  8
0
  6
CONTINUOUS
 62
     6
 10
72.0
 20
1120.0
  0
VERTEX
  8
0
  6
CONTINUOUS
 62
     6
 10
1620.0
 20
1120.0
  0
SEQEND
  0
LINE
  8
0
  6
CONTINUOUS
 62
     6
 10
75.999999159
 20
47.999999159
 11
335.999944492
 21
47.999999159
  0
LINE
  8
0
  6
CONTINUOUS
 62
     6
 10
75.999999159
 20
47.999999159
 11
75.999999159
 21
103.999987385
  0
LINE
  8
0
  6
CONTINUOUS
 62
     6
 10
75.999999159
 20
75.999993272
 11
335.999944492
 21
75.999993272
  0
LINE
  8
0
  6
CONTINUOUS
 62
     4
 10
26.4666664
 20
47.4666664
 11
68.0666632
 21
47.4666664
  0
LINE
  8
0
  6
CONTINUOUS
 62
     4
 10
26.4666664
 20
68.2666648
 11
68.0666632
 21
68.2666648
  0
LINE
  8
0
  6
CONTINUOUS
 62
     4
 10
26.4666664
 20
89.0666632
 11
68.0666632
 21
89.0666632
  0
LINE
  8
0
  6
CONTINUOUS
 62
     4
 10
26.4666664
 20
109.8666616
 11
68.0666632
 21
109.8666616
  0
LINE
  8
0
  6
CONTINUOUS
 62
     4
 10
26.4666664
 20
130.66666
 11
68.0666632
 21
130.66666
  0
LINE
  8
0
  6
CONTINUOUS
 62
     4
 10
26.4666664
 20
151.4666584
 11
68.0666632
 21
151.4666584
  0
LINE
  8
0
  6
CONTINUOUS
 62
     4
 10
26.4666664
 20
172.2666568
 11
68.0666632
 21
172.2666568
  0
LINE
  8
0
  6
CONTINUOUS
 62
     4
 10
26.4666664
 20
193.0666552
 11
68.0666632
 21
193.0666552
  0
LINE
  8
0
  6
CONTINUOUS
 62
     4
 10
26.4666664
 20
213.8666536
 11
68.0666632
 21
213.8666536
  0
LINE
  8
0
  6
CONTINUOUS
 62
     4
 10
26.4666664
 20
234.666652
 11
68.0666632
 21
234.666652
  0
LINE
  8
0
  6
CONTINUOUS
 62
     4
 10
68.0666632
 20
47.4666664
 11
68.0666632
 21
234.666652
  0
LINE
  8
0
  6
CONTINUOUS
 62
     4
 10
47.2666648
 20
47.4666664
 11
47.2666648
 21
213.8666536
  0
TEXT
  8
0
  6
CONTINUOUS
 62
     4
 10
33.57333252
 20
53.5333326
 30
1.03999992
 40
10.3999992
  1
計
 50
0.0
 41
0.75
 51
0.0
  7
KANJI35
  0
TEXT
  8
0
  6
CONTINUOUS
 62
     4
 10
33.57333252
 20
95.47999604
 30
1.03999992
 40
10.3999992
  1
設
 50
0.0
 41
0.75
 51
0.0
  7
KANJI35
  0
TEXT
  8
0
  6
CONTINUOUS
 62
     4
 10
33.57333252
 20
115.9333278
 30
1.03999992
 40
10.3999992
  1
管
 50
0.0
 41
0.75
 51
0.0
  7
KANJI35
  0
TEXT
  8
0
  6
CONTINUOUS
 62
     4
 10
33.57333252
 20
136.7333262
 30
1.03999992
 40
10.3999992
  1
製
 50
0.0
 41
0.75
 51
0.0
  7
KANJI35
  0
TEXT
  8
0
  6
CONTINUOUS
 62
     4
 10
33.57333252
 20
157.5333246
 30
1.03999992
 40
10.3999992
  1
資
 50
0.0
 41
0.75
 51
0.0
  7
KANJI35
  0
TEXT
  8
0
  6
CONTINUOUS
 62
     4
 10
33.57333252
 20
178.333323
 30
1.03999992
 40
10.3999992
  1
営
 50
0.0
 41
0.75
 51
0.0
  7
KANJI35
  0
TEXT
  8
0
  6
CONTINUOUS
 62
     4
 10
33.57333252
 20
199.1333214
 30
1.03999992
 40
10.3999992
  1
客
 50
0.0
 41
0.75
 51
0.0
  7
KANJI35
  0
TEXT
  8
0
  6
CONTINUOUS
 62
     4
 10
33.3999992
 20
220.7999864
 30
1.03999992
 40
10.3999992
  1
出　図
 50
0.0
 41
0.75
 51
0.0
  7
KANJI35
  0
LINE
  8
0
  6
CONTINUOUS
 62
     4
 10
26.4666664
 20
47.4666664
 11
26.4666664
 21
234.666652
  0
LINE
  8
0
  6
CONTINUOUS
 62
     6
 10
1620.0
 20
44.0
 11
72.0
 21
44.0
  0
TEXT
  8
0
  6
CONTINUOUS
 62
     4
 10
83.999997477
 20
63.999995795
 30
0.799999832
 40
7.999998318
  1
ＰＡＲＴＳ　ＬＩＳＴ
 50
0.0
 41
0.6
 51
0.0
  7
KANJI36
  0
TEXT
  8
0
  6
CONTINUOUS
 62
     4
 10
83.999997477
 20
51.999998318
 30
0.959999798
 40
9.599997982
  1
部品表
 50
0.0
 41
0.9
 51
0.0
  7
KANJI37
  0
TEXT
  8
0
  6
CONTINUOUS
 62
     3
 10
83.999997477
 20
83.99999159
 30
1.199999748
 40
11.999997477
  1
ＰＬ
 50
0.0
 41
0.9
 51
0.0
  7
KANJI38
  0
LINE
  8
0
  6
CONTINUOUS
 62
     6
 10
75.999999159
 20
103.999987385
 11
335.999944492
 21
103.999987385
  0
TEXT
  8
0
  6
CONTINUOUS
 62
     4
 10
263.999959631
 20
63.999995795
 30
0.799999832
 40
7.999998318
  1
Ｎ０．
 50
0.0
 41
0.6
 51
0.0
  7
KANJI36
  0
TEXT
  8
0
  6
CONTINUOUS
 62
     4
 10
263.999959631
 20
51.999998318
 30
0.959999798
 40
9.599997982
  1
項番
 50
0.0
 41
0.9
 51
0.0
  7
KANJI37
  0
LINE
  8
0
  6
CONTINUOUS
 62
     6
 10
255.999961313
 20
47.999999159
 11
255.999961313
 21
103.999987385
  0
LINE
  8
0
  6
CONTINUOUS
 62
     6
 10
335.999944492
 20
47.999999159
 11
335.999944492
 21
103.999987385
  0
LINE
  8
0
  6
CONTINUOUS
 62
     6
 10
1620.0
 20
1120.0
 11
1620.0
 21
44.0
  0
LINE
  8
0
  6
CONTINUOUS
 62
     6
 10
1082.666708
 20
47.4666664
 11
1082.666708
 21
269.333316
  0
LINE
  8
0
  6
CONTINUOUS
 62
     4
 10
1209.2000316
 20
47.4666664
 11
1209.2000316
 21
269.333316
  0
LINE
  8
0
  6
CONTINUOUS
 62
     4
 10
1082.666708
 20
75.1999976
 11
1209.2000316
 21
75.1999976
  0
TEXT
  8
0
  6
CONTINUOUS
 62
     4
 10
1089.6000408
 20
63.0666652
 30
0.69333328
 40
6.9333328
  1
ＳＣＡＬＥ
 50
0.0
 41
0.6
 51
0.0
  7
KANJI39
  0
TEXT
  8
0
  6
CONTINUOUS
 62
     4
 10
1089.6000408
 20
52.666666
 30
0.831999936
 40
8.31999936
  1
尺度
 50
0.0
 41
0.6
 51
0.0
  7
KANJI40
  0
LINE
  8
0
  6
CONTINUOUS
 62
     6
 10
808.8000624
 20
75.1999976
 11
1082.666708
 21
75.1999976
  0
LINE
  8
0
  6
CONTINUOUS
 62
     6
 10
808.8000624
 20
47.4666664
 11
1616.5333336
 21
47.4666664
  0
TEXT
  8
0
  6
CONTINUOUS
 62
     6
 10
1212.666698
 20
63.0666652
 30
0.0
 40
12.1333324
  1
ＵＮＩＴＥＣ　ＩＮＤＵＳＴＲＹ　ＣＯ．，ＬＴＤ．
 50
0.0
 41
0.42031746
 51
0.0
  7
KANJI41
  0
TEXT
  8
0
  6
CONTINUOUS
 62
     6
 10
1382.83668491
 20
58.55999888
 30
2.07999984
 40
20.7999984
  1
ユニテック工業株式会社
 50
0.0
 41
0.9
 51
0.0
  7
KANJI42
  0
LINE
  8
0
  6
CONTINUOUS
 62
     6
 10
1355.10335371
 20
65.83999832
 11
1345.951354414
 21
65.83999832
  0
LINE
  8
0
  6
CONTINUOUS
 62
     6
 10
1355.10335371
 20
67.503998192
 11
1345.951354414
 21
67.503998192
  0
LINE
  8
0
  6
CONTINUOUS
 62
     6
 10
1355.10335371
 20
65.83999832
 11
1364.255353006
 21
65.83999832
  0
LINE
  8
0
  6
CONTINUOUS
 62
     6
 10
1355.10335371
 20
67.503998192
 11
1364.255353006
 21
67.503998192
  0
LINE
  8
0
  6
CONTINUOUS
 62
     6
 10
1364.255353006
 20
67.503998192
 11
1364.255353006
 21
65.83999832
  0
ARC
  8
0
  6
CONTINUOUS
 62
     6
 10
1366.335352846
 20
66.671998256
 40
8.31999936
 50
185.739170477
 51
90.0
  0
ARC
  8
0
  6
CONTINUOUS
 62
     6
 10
1366.335352846
 20
66.671998256
 40
9.983999232
 50
184.780191847
 51
90.0
  0
LINE
  8
0
  6
CONTINUOUS
 62
     6
 10
1345.951354414
 20
65.83999832
 11
1345.951354414
 21
67.503998192
  0
ARC
  8
0
  6
CONTINUOUS
 62
     6
 10
1343.871354574
 20
66.671998256
 40
8.31999936
 50
90.0
 51
354.260829523
  0
ARC
  8
0
  6
CONTINUOUS
 62
     6
 10
1343.871354574
 20
66.671998256
 40
9.983999232
 50
90.0
 51
355.219808153
  0
LINE
  8
0
  6
CONTINUOUS
 62
     6
 10
1353.855353806
 20
76.655997488
 11
1353.855353806
 21
74.991997616
  0
LINE
  8
0
  6
CONTINUOUS
 62
     6
 10
1343.871354574
 20
74.991997616
 11
1353.855353806
 21
74.991997616
  0
LINE
  8
0
  6
CONTINUOUS
 62
     6
 10
1356.351353614
 20
76.655997488
 11
1356.351353614
 21
74.991997616
  0
LINE
  8
0
  6
CONTINUOUS
 62
     6
 10
1366.335352846
 20
74.991997616
 11
1356.351353614
 21
74.991997616
  0
TEXT
  8
0
  6
CONTINUOUS
 62
     4
 10
897.2000556
 20
63.0666652
 30
0.69333328
 40
6.9333328
  1
ＢＹ
 50
0.0
 41
0.6
 51
0.0
  7
KANJI39
  0
TEXT
  8
0
  6
CONTINUOUS
 62
     4
 10
973.4667164
 20
63.0666652
 30
0.69333328
 40
6.9333328
  1
ＤＥＳＣＲＩＰＴＩＯＮ
 50
0.0
 41
0.6
 51
0.0
  7
KANJI39
  0
TEXT
  8
0
  6
CONTINUOUS
 62
     4
 10
897.2000556
 20
52.666666
 30
0.831999936
 40
8.31999936
  1
担当
 50
0.0
 41
0.6
 51
0.0
  7
KANJI40
  0
TEXT
  8
0
  6
CONTINUOUS
 62
     4
 10
983.8667156
 20
52.666666
 30
0.831999936
 40
8.31999936
  1
記　　　　事
 50
0.0
 41
0.6
 51
0.0
  7
KANJI40
  0
LINE
  8
0
  6
CONTINUOUS
 62
     4
 10
823.5333946
 20
69.999998
 11
812.2667288
 21
52.666666
  0
TEXT
  8
0
  6
CONTINUOUS
 62
     4
 10
852.1333924
 20
63.0666652
 30
0.69333328
 40
6.9333328
  1
ＤＡＴＥ
 50
0.0
 41
0.6
 51
0.0
  7
KANJI39
  0
TEXT
  8
0
  6
CONTINUOUS
 62
     4
 10
857.333392
 20
52.666666
 30
0.831999936
 40
8.31999936
  1
日付
 50
0.0
 41
0.6
 51
0.0
  7
KANJI40
  0
LINE
  8
0
  6
CONTINUOUS
 62
     4
 10
812.2667288
 20
52.666666
 11
834.8000604
 21
52.666666
  0
LINE
  8
0
  6
CONTINUOUS
 62
     4
 10
823.5333946
 20
69.999998
 11
834.8000604
 21
52.666666
  0
LINE
  8
0
  6
CONTINUOUS
 62
     6
 10
808.8000624
 20
47.4666664
 11
808.8000624
 21
75.1999976
  0
LINE
  8
0
  6
CONTINUOUS
 62
     4
 10
838.2667268
 20
47.4666664
 11
838.2667268
 21
75.1999976
  0
LINE
  8
0
  6
CONTINUOUS
 62
     4
 10
886.8000564
 20
47.4666664
 11
886.8000564
 21
75.1999976
  0
LINE
  8
0
  6
CONTINUOUS
 62
     4
 10
918.000054
 20
47.4666664
 11
918.000054
 21
75.1999976
  0
TEXT
  8
0
  6
CONTINUOUS
 62
     4
 10
1089.6000408
 20
80.3999972
 30
0.831999936
 40
8.31999936
  1
日付
 50
0.0
 41
0.6
 51
0.0
  7
KANJI40
  0
LINE
  8
0
  6
CONTINUOUS
 62
     6
 10
1353.855353806
 20
76.655997488
 11
1343.871354574
 21
76.655997488
  0
LINE
  8
0
  6
CONTINUOUS
 62
     6
 10
1356.351353614
 20
76.655997488
 11
1366.335352846
 21
76.655997488
  0
TEXT
  8
0
  6
CONTINUOUS
 62
     4
 10
1089.6000408
 20
201.7333212
 30
0.69333328
 40
6.9333328
  1
ＣＯＤＥ
 50
0.0
 41
0.6
 51
0.0
  7
KANJI39
  0
LINE
  8
0
  6
CONTINUOUS
 62
     4
 10
1082.666708
 20
213.8666536
 11
1616.5333336
 21
213.8666536
  0
TEXT
  8
0
  6
CONTINUOUS
 62
     4
 10
1089.6000408
 20
191.333322
 30
0.831999936
 40
8.31999936
  1
分類
 50
0.0
 41
0.6
 51
0.0
  7
KANJI40
  0
TEXT
  8
0
  6
CONTINUOUS
 62
     4
 10
1095.0
 20
218.0
 30
4.0
 40
14.4
  1
ご注文主
 50
0.0
 41
1.111111111
 51
0.0
  7
KANJI43
  0
TEXT
  8
0
  6
CONTINUOUS
 62
     4
 10
1089.6000408
 20
118.5333276
 30
0.69333328
 40
6.9333328
  1
ＤＲＡＷＮ
 50
0.0
 41
0.6
 51
0.0
  7
KANJI39
  0
TEXT
  8
0
  6
CONTINUOUS
 62
     4
 10
1089.6000408
 20
146.2666588
 30
0.69333328
 40
6.9333328
  1
ＤＥＳＩＧＮ
 50
0.0
 41
0.6
 51
0.0
  7
KANJI39
  0
TEXT
  8
0
  6
CONTINUOUS
 62
     4
 10
1089.6000408
 20
173.99999
 30
0.69333328
 40
6.9333328
  1
ＣＨＥＣＫ
 50
0.0
 41
0.6
 51
0.0
  7
KANJI39
  0
LINE
  8
0
  6
CONTINUOUS
 62
     4
 10
1082.666708
 20
158.3999912
 11
1209.2000316
 21
158.3999912
  0
LINE
  8
0
  6
CONTINUOUS
 62
     4
 10
1082.666708
 20
130.66666
 11
1209.2000316
 21
130.66666
  0
LINE
  8
0
  6
CONTINUOUS
 62
     4
 10
1082.666708
 20
186.1333224
 11
1209.2000316
 21
186.1333224
  0
TEXT
  8
0
  6
CONTINUOUS
 62
     4
 10
1089.6000408
 20
135.8666596
 30
0.831999936
 40
8.31999936
  1
設計
 50
0.0
 41
0.6
 51
0.0
  7
KANJI40
  0
TEXT
  8
0
  6
CONTINUOUS
 62
     4
 10
1089.6000408
 20
163.5999908
 30
0.831999936
 40
8.31999936
  1
検図
 50
0.0
 41
0.6
 51
0.0
  7
KANJI40
  0
LINE
  8
0
  6
CONTINUOUS
 62
     4
 10
1219.42669748
 20
186.1333224
 11
1616.5333336
 21
186.1333224
  0
LINE
  8
0
  6
CONTINUOUS
 62
     4
 10
1209.2000316
 20
130.66666
 11
1616.5333336
 21
130.66666
  0
TEXT
  8
0
  6
CONTINUOUS
 62
     4
 10
1216.1333644
 20
118.5333276
 30
0.69333328
 40
6.9333328
  1
ＤＲＡＷＩＮＧ　ＮＯ．
 50
0.0
 41
0.8
 51
0.0
  7
KANJI44
  0
TEXT
  8
0
  6
CONTINUOUS
 62
     4
 10
1216.1333644
 20
146.2666588
 30
0.69333328
 40
6.9333328
  1
ＭＦＧ　ＮＯ．
 50
0.0
 41
0.8
 51
0.0
  7
KANJI44
  0
TEXT
  8
0
  6
CONTINUOUS
 62
     4
 10
1216.1333644
 20
173.99999
 30
0.69333328
 40
6.9333328
  1
ＴＹＰＥ
 50
0.0
 41
0.8
 51
0.0
  7
KANJI44
  0
LINE
  8
0
  6
CONTINUOUS
 62
     4
 10
1219.6000308
 20
158.3999912
 11
1379.0666852
 21
158.3999912
  0
TEXT
  8
0
  6
CONTINUOUS
 62
     4
 10
1216.1333644
 20
106.3999952
 30
0.831999936
 40
8.31999936
  1
図　面　番　号
 50
0.0
 41
0.8
 51
0.0
  7
KANJI45
  0
TEXT
  8
0
  6
CONTINUOUS
 62
     4
 10
1216.1333644
 20
134.1333264
 30
0.831999936
 40
8.31999936
  1
製番
 50
0.0
 41
0.8
 51
0.0
  7
KANJI45
  0
TEXT
  8
0
  6
CONTINUOUS
 62
     4
 10
1216.1333644
 20
161.8666576
 30
0.831999936
 40
8.31999936
  1
機種
 50
0.0
 41
0.8
 51
0.0
  7
KANJI45
  0
LINE
  8
0
  6
CONTINUOUS
 62
     4
 10
1082.666708
 20
102.9333288
 11
1209.2000316
 21
102.9333288
  0
TEXT
  8
0
  6
CONTINUOUS
 62
     4
 10
1089.6000408
 20
90.7999964
 30
0.69333328
 40
6.9333328
  1
ＤＡＴＥ
 50
0.0
 41
0.6
 51
0.0
  7
KANJI39
  0
TEXT
  8
0
  6
CONTINUOUS
 62
     4
 10
1089.6000408
 20
108.1333284
 30
0.831999936
 40
8.31999936
  1
作図
 50
0.0
 41
0.6
 51
0.0
  7
KANJI40
  0
LINE
  8
0
  6
CONTINUOUS
 62
     4
 10
1209.2000316
 20
90.7999964
 11
1616.5333336
 21
90.7999964
  0
LINE
  8
0
  6
LTYPE4
 62
     4
 10
1500.4000092
 20
95.999996
 11
1500.4000092
 21
123.7333272
  0
LINE
  8
0
  6
LTYPE4
 62
     4
 10
1476.1333444
 20
95.999996
 11
1476.1333444
 21
123.7333272
  0
LINE
  8
0
  6
LTYPE4
 62
     4
 10
1451.8666796
 20
95.999996
 11
1451.8666796
 21
123.7333272
  0
LINE
  8
0
  6
LTYPE4
 62
     4
 10
1427.6000148
 20
95.999996
 11
1427.6000148
 21
123.7333272
  0
LINE
  8
0
  6
LTYPE4
 62
     4
 10
1403.33335
 20
95.999996
 11
1403.33335
 21
123.7333272
  0
LINE
  8
0
  6
LTYPE4
 62
     4
 10
1379.0666852
 20
95.999996
 11
1379.0666852
 21
123.7333272
  0
LINE
  8
0
  6
LTYPE4
 62
     4
 10
1354.8000204
 20
95.999996
 11
1354.8000204
 21
123.7333272
  0
LINE
  8
0
  6
LTYPE4
 62
     4
 10
1330.5333556
 20
95.999996
 11
1330.5333556
 21
123.7333272
  0
LINE
  8
0
  6
LTYPE4
 62
     4
 10
1330.5333556
 20
123.7333272
 11
1500.4000092
 21
123.7333272
  0
LINE
  8
0
  6
LTYPE4
 62
     4
 10
1330.5333556
 20
95.999996
 11
1500.4000092
 21
95.999996
  0
LINE
  8
0
  6
CONTINUOUS
 62
     4
 10
1514.2666748
 20
110.7333282
 11
1521.2000076
 21
110.7333282
  0
LINE
  8
0
  6
CONTINUOUS
 62
     4
 10
1557.6000048
 20
100.333329
 11
1533.33334
 21
100.333329
  0
LINE
  8
0
  6
CONTINUOUS
 62
     4
 10
1533.33334
 20
100.333329
 11
1545.4666724
 21
121.1333274
  0
LINE
  8
0
  6
CONTINUOUS
 62
     4
 10
1545.4666724
 20
121.1333274
 11
1557.6000048
 21
100.333329
  0
TEXT
  8
0
  6
CONTINUOUS
 62
     4
 10
1389.4666844
 20
173.99999
 30
0.69333328
 40
6.9333328
  1
ＴＩＴＬＥ
 50
0.0
 41
0.8
 51
0.0
  7
KANJI44
  0
TEXT
  8
0
  6
CONTINUOUS
 62
     4
 10
1389.4666844
 20
161.8666576
 30
0.831999936
 40
8.31999936
  1
名称
 50
0.0
 41
0.8
 51
0.0
  7
KANJI45
  0
TEXT
  8
0
  6
CONTINUOUS
 62
     2
 10
1446.0
 20
136.0
 30
10.0
 40
20.0
  1
外形寸法図
 50
0.0
 41
1.0
 51
0.0
  7
KANJI46
  0
TEXT
  8
0
  6
CONTINUOUS
 62
     2
 10
1422.0
 20
160.0
 30
2.857142857
 40
20.0
  1
マイティシリンダ
 50
0.0
 41
1.0
 51
0.0
  7
KANJI47
  0
TEXT
  8
0
  6
CONTINUOUS
 62
     2
 10
1309.5333556
 20
99.999996
 30
1.2
 40
20.0
  1
Ａ
 50
0.0
 41
0.8
 51
0.0
  7
KANJI48
  0
CIRCLE
  8
0
  6
CONTINUOUS
 62
     2
 10
1283.5333556
 20
142.999996
 40
10.0
  0
TEXT
  8
0
  6
CONTINUOUS
 62
     2
 10
1276.0333556
 20
135.499996
 30
1.2
 40
16.0
  1
Ｓ
 50
0.0
 41
1.0
 51
0.0
  7
KANJI49
  0
LINE
  8
0
  6
CONTINUOUS
 62
     4
 10
1616.5333336
 20
241.5999848
 11
1616.5333336
 21
269.333316
  0
LINE
  8
0
  6
CONTINUOUS
 62
     6
 10
1083.166708
 20
241.5999848
 11
1617.0333336
 21
241.5999848
  0
LINE
  8
0
  6
CONTINUOUS
 62
     6
 10
1082.666708
 20
269.333316
 11
1616.5333336
 21
269.333316
  0
TEXT
  8
0
  6
CONTINUOUS
 62
     4
 10
1095.0
 20
245.7333312
 30
4.0
 40
14.4
  1
ご用途
 50
0.0
 41
1.111111111
 51
0.0
  7
KANJI43
  0
LINE
  8
0
  6
CONTINUOUS
 62
     6
 10
1616.5333336
 20
47.4666664
 11
1616.5333336
 21
269.333316
  0
TEXT
  8
0
  6
CONTINUOUS
 62
     2
 10
1336.171684584
 20
98.666662667
 30
8.666666667
 40
20.0
  1
３０００４７１
 50
0.0
 41
0.8
 51
0.0
  7
KANJI50
  0
TEXT
  8
0
  6
CONTINUOUS
 62
     2
 10
1115.7333556
 20
80.799996
 30
1.2
 40
14.0
  1
９５．６．７
 50
0.0
 41
0.571428571
 51
0.0
  7
KANJI51
  0
TEXT
  8
0
  6
CONTINUOUS
 62
     2
 10
1156.0
 20
52.0
 30
1.2
 40
18.0
  1
１／４
 50
0.0
 41
0.666666667
 51
0.0
  7
KANJI52
  0
TEXT
  8
0
  6
CONTINUOUS
 62
     2
 10
1127.3333556
 20
137.7333272
 30
4.0
 40
14.0
  1
山本
 50
0.0
 41
0.857142857
 51
0.0
  7
KANJI53
  0
POLYLINE
  8
0
  6
CONTINUOUS
 62
     4
 66
     1
  0
VERTEX
  8
0
  6
CONTINUOUS
 62
     4
 10
823.5333946
 20
97.7333292
  0
VERTEX
  8
0
  6
CONTINUOUS
 62
     4
 10
812.2667288
 20
80.3999972
  0
VERTEX
  8
0
  6
CONTINUOUS
 62
     4
 10
834.8000604
 20
80.3999972
  0
SEQEND
  0
LINE
  8
0
  6
CONTINUOUS
 62
     4
 10
823.5333946
 20
97.7333292
 11
834.8000604
 21
80.3999972
  0
TEXT
  8
0
  6
CONTINUOUS
 62
     2
 10
819.2
 20
81.2
 30
0.0
 40
12.0
  1
１
 50
0.0
 41
0.9
 51
0.0
  7
KANJI2
  0
TEXT
  8
0
  6
CONTINUOUS
 62
     2
 10
889.4
 20
312.2
 30
1.2
 40
12.0
  1
２９
 50
0.0
 41
0.9
 51
0.0
  7
KANJI1
  0
TEXT
  8
0
  6
CONTINUOUS
 62
     2
 10
889.4
 20
284.2
 30
1.2
 40
12.0
  1
３１
 50
0.0
 41
0.9
 51
0.0
  7
KANJI1
  0
TEXT
  8
0
  6
CONTINUOUS
 62
     2
 10
889.4
 20
256.2
 30
1.2
 40
12.0
  1
３３
 50
0.0
 41
0.9
 51
0.0
  7
KANJI1
  0
TEXT
  8
0
  6
CONTINUOUS
 62
     2
 10
889.4
 20
228.2
 30
1.2
 40
12.0
  1
３５
 50
0.0
 41
0.9
 51
0.0
  7
KANJI1
  0
TEXT
  8
0
  6
CONTINUOUS
 62
     2
 10
889.4
 20
200.2
 30
1.2
 40
12.0
  1
３８
 50
0.0
 41
0.9
 51
0.0
  7
KANJI1
  0
TEXT
  8
0
  6
CONTINUOUS
 62
     2
 10
889.4
 20
172.2
 30
1.2
 40
12.0
  1
４４
 50
0.0
 41
0.9
 51
0.0
  7
KANJI1
  0
LINE
  8
0
  6
LTYPE5
 62
     2
 10
263.0
 20
657.0
 11
263.0
 21
690.0
  0
LINE
  8
0
  6
LTYPE5
 62
     2
 10
234.0
 20
673.5
 11
292.0
 21
673.5
  0
ARC
  8
0
  6
CONTINUOUS
 62
     1
 10
263.0
 20
673.5
 40
12.5
 50
23.5
 51
156.5
  0
ARC
  8
0
  6
CONTINUOUS
 62
     1
 10
283.0
 20
673.5
 40
5.0
 50
270.0
 51
0.0
  0
ARC
  8
0
  6
CONTINUOUS
 62
     1
 10
283.0
 20
673.5
 40
5.0
 50
0.0
 51
90.0
  0
POINT
  8
0
  6
CONTINUOUS
 62
     1
 10
288.0
 20
673.5
  0
ARC
  8
0
  6
CONTINUOUS
 62
     1
 10
243.0
 20
673.5
 40
5.0
 50
90.0
 51
180.0
  0
LINE
  8
0
  6
CONTINUOUS
 62
     1
 10
243.0
 20
678.5
 11
283.0
 21
678.5
  0
LINE
  8
0
  6
CONTINUOUS
 62
     1
 10
283.0
 20
668.5
 11
243.0
 21
668.5
  0
ARC
  8
0
  6
CONTINUOUS
 62
     1
 10
243.0
 20
673.5
 40
5.0
 50
180.0
 51
270.0
  0
POINT
  8
0
  6
CONTINUOUS
 62
     1
 10
238.0
 20
673.5
  0
ARC
  8
0
  6
CONTINUOUS
 62
     1
 10
263.0
 20
673.5
 40
12.5
 50
203.5
 51
336.5
  0
LINE
  8
0
  6
CONTINUOUS
 62
     1
 10
652.0
 20
1030.5
 11
676.0
 21
1030.5
  0
LINE
  8
0
  6
CONTINUOUS
 62
     1
 10
676.0
 20
1006.5
 11
676.0
 21
1030.5
  0
LINE
  8
0
  6
CONTINUOUS
 62
     1
 10
652.0
 20
1006.5
 11
676.0
 21
1006.5
  0
LINE
  8
0
  6
CONTINUOUS
 62
     1
 10
652.0
 20
1006.5
 11
652.0
 21
1030.5
  0
ARC
  8
0
  6
CONTINUOUS
 62
     1
 10
664.0
 20
982.5
 40
38.0
 50
108.408480171
 51
0.0
  0
ARC
  8
0
  6
CONTINUOUS
 62
     1
 10
664.0
 20
982.5
 40
38.0
 50
0.0
 51
71.591519829
  0
LINE
  8
0
  6
LTYPE2
 62
     2
 10
599.0
 20
982.5
 11
729.0
 21
982.5
  0
LINE
  8
0
  6
LTYPE2
 62
     2
 10
664.0
 20
930.25
 11
664.0
 21
1045.8
  0
ARC
  8
0
  6
CONTINUOUS
 62
     2
 10
664.0
 20
982.5
 40
38.0
 50
71.591519829
 51
108.408480171
  0
LINE
  8
0
  6
CONTINUOUS
 62
     2
 10
652.0
 20
1030.5
 11
652.0
 21
1061.555512755
  0
LINE
  8
0
  6
CONTINUOUS
 62
     2
 10
652.0
 20
1055.555512755
 11
661.659258263
 21
1052.967322304
  0
LINE
  8
0
  6
CONTINUOUS
 62
     2
 10
652.0
 20
1055.555512755
 11
661.659258263
 21
1058.143703206
  0
LINE
  8
0
  6
CONTINUOUS
 62
     2
 10
652.0
 20
1055.555512755
 11
676.0
 21
1055.555512755
  0
LINE
  8
0
  6
CONTINUOUS
 62
     2
 10
676.0
 20
1055.555512755
 11
666.340741737
 21
1058.143703206
  0
LINE
  8
0
  6
CONTINUOUS
 62
     2
 10
676.0
 20
1055.555512755
 11
666.340741737
 21
1052.967322304
  0
LINE
  8
0
  6
CONTINUOUS
 62
     2
 10
676.0
 20
1030.5
 11
676.0
 21
1061.555512755
  0
TEXT
  8
0
  6
CONTINUOUS
 62
     2
 10
658.6
 20
1059.555512755
 30
0.4
 40
12.0
  1
６
 50
0.0
 41
0.9
 51
0.0
  7
KANJI28
  0
LINE
  8
0
  6
CONTINUOUS
 62
     2
 10
652.0
 20
1030.5
 11
598.0
 21
1030.5
  0
LINE
  8
0
  6
CONTINUOUS
 62
     2
 10
604.0
 20
1030.5
 11
601.411809549
 21
1020.840741737
  0
LINE
  8
0
  6
CONTINUOUS
 62
     2
 10
604.0
 20
1030.5
 11
606.588190451
 21
1020.840741737
  0
LINE
  8
0
  6
CONTINUOUS
 62
     2
 10
604.0
 20
1030.5
 11
604.0
 21
1006.5
  0
LINE
  8
0
  6
CONTINUOUS
 62
     2
 10
604.0
 20
1006.5
 11
606.588190451
 21
1016.159258263
  0
LINE
  8
0
  6
CONTINUOUS
 62
     2
 10
604.0
 20
1006.5
 11
601.411809549
 21
1016.159258263
  0
LINE
  8
0
  6
CONTINUOUS
 62
     2
 10
652.0
 20
1006.5
 11
598.0
 21
1006.5
  0
TEXT
  8
0
  6
CONTINUOUS
 62
     2
 10
600.0
 20
1013.1
 30
0.4
 40
12.0
  1
６
 50
90.0
 41
0.9
 51
0.0
  7
KANJI28
  0
LINE
  8
0
  6
CONTINUOUS
 62
     2
 10
676.0
 20
1006.5
 11
736.0
 21
1006.5
  0
LINE
  8
0
  6
CONTINUOUS
 62
     2
 10
730.0
 20
1006.5
 11
727.411809549
 21
996.840741737
  0
LINE
  8
0
  6
CONTINUOUS
 62
     2
 10
730.0
 20
1006.5
 11
732.588190451
 21
996.840741737
  0
LINE
  8
0
  6
CONTINUOUS
 62
     2
 10
730.0
 20
986.5
 11
730.0
 21
1100.34
  0
LINE
  8
0
  6
CONTINUOUS
 62
     2
 10
730.0
 20
1020.5
 11
732.588190451
 21
1030.159258263
  0
LINE
  8
0
  6
CONTINUOUS
 62
     2
 10
730.0
 20
1020.5
 11
727.411809549
 21
1030.159258263
  0
LINE
  8
0
  6
CONTINUOUS
 62
     2
 10
664.0
 20
1020.5
 11
736.0
 21
1020.5
  0
TEXT
  8
0
  6
CONTINUOUS
 62
     2
 10
726.0
 20
1040.5
 30
0.4
 40
12.0
  1
３．５
 50
90.0
 41
0.9
 51
0.0
  7
KANJI28
  0
TEXT
  8
0
  6
CONTINUOUS
 62
     2
 10
726.0
 20
1073.7
 30
0.24
 40
7.2
  1
－０
 50
90.0
 41
0.9
 51
0.0
  7
KANJI54
  0
TEXT
  8
0
  6
CONTINUOUS
 62
     2
 10
718.8
 20
1073.7
 30
0.24
 40
7.2
  1
＋０．１
 50
90.0
 41
0.9
 51
0.0
  7
KANJI54
  0
TEXT
  8
0
  6
CONTINUOUS
 62
     2
 10
609.5
 20
905.8
 30
2.0
 40
20.0
  1
入力シャフト
 50
0.0
 41
0.9
 51
0.0
  7
KANJI55
  0
LINE
  8
0
  6
CONTINUOUS
 62
     2
 10
604.3
 20
899.7
 11
725.3
 21
899.7
  0
TEXT
  8
0
  6
CONTINUOUS
 62
     2
 10
631.9
 20
883.0
 30
1.2
 40
12.0
  1
６Ｘ６Ｘ２０キー付
 50
0.0
 41
0.9
 51
0.0
  7
KANJI1
  0
TEXT
  8
0
  6
CONTINUOUS
 62
     2
 10
803.3
 20
522.8
 30
1.2
 40
12.0
  1
ｍｉｎ．
 50
0.0
 41
0.9
 51
0.0
  7
KANJI29
  0
TEXT
  8
0
  6
CONTINUOUS
 62
     2
 10
816.6
 20
509.7
 30
1.2
 40
12.0
  1
Ｐ
 50
0.0
 41
0.9
 51
0.0
  7
KANJI29
  0
TEXT
  8
0
  6
CONTINUOUS
 62
     2
 10
846.1
 20
19.7
 30
0.0
 40
12.0
  1
重量見直し　９６．７．１２
 50
0.0
 41
0.9
 51
0.0
  7
KANJI2
  0
TEXT
  8
0
  6
CONTINUOUS
 62
     2
 10
1480.4
 20
969.2
 30
1.2
 40
12.0
  1
１９．６ＫＮ（２ｔｏｎ）
 50
0.0
 41
0.9
 51
0.0
  7
KANJI1
  0
LINE
  8
0
  6
CONTINUOUS
 62
     1
 10
843.0
 20
829.5
 11
843.0
 21
879.5
  0
LINE
  8
0
  6
CONTINUOUS
 62
     1
 10
843.0
 20
854.5
 11
843.0
 21
829.5
  0
LINE
  8
0
  6
CONTINUOUS
 62
     1
 10
843.0
 20
829.5
 11
910.0
 21
829.5
  0
ARC
  8
0
  6
CONTINUOUS
 62
     1
 10
910.0
 20
837.5
 40
8.0
 50
270.0
 51
0.0
  0
LINE
  8
0
  6
CONTINUOUS
 62
     1
 10
843.0
 20
879.5
 11
910.0
 21
879.5
  0
LINE
  8
0
  6
CONTINUOUS
 62
     1
 10
918.0
 20
837.5
 11
918.0
 21
871.5
  0
ARC
  8
0
  6
CONTINUOUS
 62
     1
 10
910.0
 20
871.5
 40
8.0
 50
0.0
 51
90.0
  0
CIRCLE
  8
0
  6
CONTINUOUS
 62
     1
 10
893.0
 20
854.5
 40
12.5
  0
CIRCLE
  8
0
  6
CONTINUOUS
 62
     1
 10
893.0
 20
854.5
 40
22.0
  0
CIRCLE
  8
0
  6
CONTINUOUS
 62
     1
 10
893.0
 20
870.0
 40
3.0
  0
LINE
  8
0
  6
CONTINUOUS
 62
     1
 10
888.8
 20
837.7
 11
890.8
 21
837.4
  0
LINE
  8
0
  6
CONTINUOUS
 62
     1
 10
891.3
 20
842.1
 11
891.064615385
 21
840.530769231
  0
LINE
  8
0
  6
CONTINUOUS
 62
     1
 10
891.064615385
 20
840.530769231
 11
888.8
 21
837.7
  0
LINE
  8
0
  6
CONTINUOUS
 62
     1
 10
893.0
 20
840.1
 11
890.8
 21
837.4
  0
LINE
  8
0
  6
CONTINUOUS
 62
     1
 10
897.2
 20
837.7
 11
895.2
 21
837.4
  0
LINE
  8
0
  6
CONTINUOUS
 62
     1
 10
894.7
 20
842.1
 11
894.935384615
 21
840.530769231
  0
LINE
  8
0
  6
CONTINUOUS
 62
     1
 10
894.935384615
 20
840.530769231
 11
897.2
 21
837.7
  0
LINE
  8
0
  6
CONTINUOUS
 62
     1
 10
893.0
 20
840.1
 11
895.2
 21
837.4
  0
LINE
  8
0
  6
LTYPE2
 62
     2
 10
893.0
 20
854.5
 11
893.0
 21
673.5
  0
LINE
  8
0
  6
LTYPE2
 62
     2
 10
893.0
 20
829.5
 11
893.0
 21
879.5
  0
LINE
  8
0
  6
LTYPE4
 62
     2
 10
858.0
 20
829.5
 11
858.0
 21
879.5
  0
LINE
  8
0
  6
LTYPE2
 62
     2
 10
928.5
 20
854.5
 11
834.0
 21
854.5
  0
LINE
  8
0
  6
CONTINUOUS
 62
     2
 10
916.0
 20
879.5
 11
971.0
 21
879.5
  0
LINE
  8
0
  6
CONTINUOUS
 62
     2
 10
965.0
 20
879.5
 11
962.411809549
 21
869.840741737
  0
LINE
  8
0
  6
CONTINUOUS
 62
     2
 10
965.0
 20
879.5
 11
967.588190451
 21
869.840741737
  0
LINE
  8
0
  6
CONTINUOUS
 62
     2
 10
965.0
 20
879.5
 11
965.0
 21
829.5
  0
LINE
  8
0
  6
CONTINUOUS
 62
     2
 10
965.0
 20
829.5
 11
967.588190451
 21
839.159258263
  0
LINE
  8
0
  6
CONTINUOUS
 62
     2
 10
965.0
 20
829.5
 11
962.411809549
 21
839.159258263
  0
LINE
  8
0
  6
CONTINUOUS
 62
     2
 10
916.0
 20
829.5
 11
971.0
 21
829.5
  0
TEXT
  8
0
  6
CONTINUOUS
 62
     2
 10
961.0
 20
843.1
 30
1.2
 40
12.0
  1
５０
 50
90.0
 41
0.9
 51
0.0
  7
KANJI29
  0
LINE
  8
0
  6
CONTINUOUS
 62
     2
 10
893.0
 20
804.4
 11
902.659258263
 21
801.811809549
  0
LINE
  8
0
  6
CONTINUOUS
 62
     2
 10
893.0
 20
804.4
 11
902.659258263
 21
806.988190451
  0
LINE
  8
0
  6
CONTINUOUS
 62
     2
 10
893.0
 20
804.4
 11
918.0
 21
804.4
  0
LINE
  8
0
  6
CONTINUOUS
 62
     2
 10
918.0
 20
804.4
 11
908.340741737
 21
806.988190451
  0
LINE
  8
0
  6
CONTINUOUS
 62
     2
 10
918.0
 20
804.4
 11
908.340741737
 21
801.811809549
  0
LINE
  8
0
  6
CONTINUOUS
 62
     2
 10
918.0
 20
831.5
 11
918.0
 21
798.4
  0
TEXT
  8
0
  6
CONTINUOUS
 62
     2
 10
894.1
 20
808.4
 30
1.2
 40
12.0
  1
２５
 50
0.0
 41
0.9
 51
0.0
  7
KANJI29
  0
LINE
  8
0
  6
CONTINUOUS
 62
     2
 10
893.0
 20
804.4
 11
883.340741737
 21
806.988190451
  0
LINE
  8
0
  6
CONTINUOUS
 62
     2
 10
893.0
 20
804.4
 11
883.340741737
 21
801.811809549
  0
LINE
  8
0
  6
CONTINUOUS
 62
     2
 10
893.0
 20
804.4
 11
858.0
 21
804.4
  0
LINE
  8
0
  6
CONTINUOUS
 62
     2
 10
858.0
 20
804.4
 11
867.659258263
 21
801.811809549
  0
LINE
  8
0
  6
CONTINUOUS
 62
     2
 10
858.0
 20
804.4
 11
867.659258263
 21
806.988190451
  0
LINE
  8
0
  6
CONTINUOUS
 62
     2
 10
858.0
 20
823.5
 11
858.0
 21
798.4
  0
TEXT
  8
0
  6
CONTINUOUS
 62
     2
 10
864.1
 20
808.4
 30
1.2
 40
12.0
  1
３５
 50
0.0
 41
0.9
 51
0.0
  7
KANJI29
  0
LINE
  8
0
  6
CONTINUOUS
 62
     2
 10
858.0
 20
810.4
 11
858.0
 21
810.4
  0
LINE
  8
0
  6
CONTINUOUS
 62
     2
 10
858.0
 20
804.4
 11
848.340741737
 21
806.988190451
  0
LINE
  8
0
  6
CONTINUOUS
 62
     2
 10
858.0
 20
804.4
 11
848.340741737
 21
801.811809549
  0
LINE
  8
0
  6
CONTINUOUS
 62
     2
 10
858.0
 20
804.4
 11
843.0
 21
804.4
  0
LINE
  8
0
  6
CONTINUOUS
 62
     2
 10
843.0
 20
804.4
 11
852.659258263
 21
801.811809549
  0
LINE
  8
0
  6
CONTINUOUS
 62
     2
 10
843.0
 20
804.4
 11
852.659258263
 21
806.988190451
  0
LINE
  8
0
  6
CONTINUOUS
 62
     2
 10
843.0
 20
823.5
 11
843.0
 21
798.4
  0
TEXT
  8
0
  6
CONTINUOUS
 62
     2
 10
821.1
 20
808.4
 30
1.2
 40
12.0
  1
１５
 50
0.0
 41
0.9
 51
0.0
  7
KANJI29
  0
LINE
  8
0
  6
CONTINUOUS
 62
     1
 10
918.0
 20
701.0
 11
918.0
 21
686.0
  0
LINE
  8
0
  6
CONTINUOUS
 62
     1
 10
858.0
 20
686.0
 11
918.0
 21
686.0
  0
LINE
  8
0
  6
CONTINUOUS
 62
     1
 10
843.0
 20
701.0
 11
918.0
 21
701.0
  0
LINE
  8
0
  6
CONTINUOUS
 62
     1
 10
858.0
 20
686.0
 11
858.0
 21
673.5
  0
LINE
  8
0
  6
CONTINUOUS
 62
     2
 10
924.0
 20
686.0
 11
956.0
 21
686.0
  0
LINE
  8
0
  6
CONTINUOUS
 62
     2
 10
950.0
 20
686.0
 11
947.411809549
 21
676.340741737
  0
LINE
  8
0
  6
CONTINUOUS
 62
     2
 10
950.0
 20
686.0
 11
952.588190451
 21
676.340741737
  0
LINE
  8
0
  6
CONTINUOUS
 62
     2
 10
950.0
 20
686.0
 11
950.0
 21
661.0
  0
LINE
  8
0
  6
CONTINUOUS
 62
     2
 10
924.0
 20
701.0
 11
988.1
 21
701.0
  0
LINE
  8
0
  6
CONTINUOUS
 62
     2
 10
982.1
 20
701.0
 11
979.511809549
 21
691.340741737
  0
LINE
  8
0
  6
CONTINUOUS
 62
     2
 10
982.1
 20
701.0
 11
984.688190451
 21
691.340741737
  0
LINE
  8
0
  6
CONTINUOUS
 62
     2
 10
982.1
 20
701.0
 11
982.1
 21
646.0
  0
TEXT
  8
0
  6
CONTINUOUS
 62
     2
 10
955.7
 20
725.9
 30
1.2
 40
12.0
  1
ｄ９
 50
0.0
 41
0.9
 51
0.0
  7
KANJI1
  0
TEXT
  8
0
  6
CONTINUOUS
 62
     2
 10
918.0
 20
741.7
 30
1.2
 40
12.0
  1
φ２５Ｈ１０
 50
0.0
 41
0.9
 51
0.0
  7
KANJI29
  0
LINE
  8
0
  6
CONTINUOUS
 62
     1
 10
843.0
 20
701.0
 11
843.0
 21
646.0
  0
LINE
  8
0
  6
CONTINUOUS
 62
     1
 10
918.0
 20
646.0
 11
918.0
 21
661.0
  0
LINE
  8
0
  6
CONTINUOUS
 62
     1
 10
858.0
 20
661.0
 11
918.0
 21
661.0
  0
LINE
  8
0
  6
CONTINUOUS
 62
     1
 10
843.0
 20
646.0
 11
918.0
 21
646.0
  0
LINE
  8
0
  6
CONTINUOUS
 62
     1
 10
858.0
 20
661.0
 11
858.0
 21
673.5
  0
LINE
  8
0
  6
LTYPE2
 62
     2
 10
893.0
 20
613.5
 11
893.0
 21
673.5
  0
LINE
  8
0
  6
CONTINUOUS
 62
     2
 10
950.0
 20
661.0
 11
952.588190451
 21
670.659258263
  0
LINE
  8
0
  6
CONTINUOUS
 62
     2
 10
950.0
 20
661.0
 11
947.411809549
 21
670.659258263
  0
LINE
  8
0
  6
CONTINUOUS
 62
     2
 10
924.0
 20
661.0
 11
956.0
 21
661.0
  0
LINE
  8
0
  6
CONTINUOUS
 62
     2
 10
982.1
 20
646.0
 11
984.688190451
 21
655.659258263
  0
LINE
  8
0
  6
CONTINUOUS
 62
     2
 10
982.1
 20
646.0
 11
979.511809549
 21
655.659258263
  0
LINE
  8
0
  6
CONTINUOUS
 62
     2
 10
924.0
 20
646.0
 11
988.1
 21
646.0
  0
LINE
  8
0
  6
CONTINUOUS
 62
     2
 10
843.0
 20
634.5
 11
843.0
 21
496.3
  0
TEXT
  8
0
  6
CONTINUOUS
 62
     2
 10
946.0
 20
662.1
 30
1.2
 40
12.0
  1
２５
 50
90.0
 41
0.9
 51
0.0
  7
KANJI29
  0
TEXT
  8
0
  6
CONTINUOUS
 62
     2
 10
978.1
 20
662.1
 30
1.2
 40
12.0
  1
５５
 50
90.0
 41
0.9
 51
0.0
  7
KANJI29
  0
LINE
  8
0
  6
CONTINUOUS
 62
     2
 10
893.0
 20
607.5
 11
893.0
 21
528.8
  0
LINE
  8
0
  6
CONTINUOUS
 62
     2
 10
893.0
 20
528.8
 11
893.0
 21
490.2
  0
LINE
  8
0
  6
CONTINUOUS
 62
     2
 10
843.0
 20
504.8
 11
833.340741737
 21
507.388190451
  0
LINE
  8
0
  6
CONTINUOUS
 62
     2
 10
843.0
 20
504.8
 11
833.340741737
 21
502.211809549
  0
LINE
  8
0
  6
CONTINUOUS
 62
     2
 10
843.0
 20
504.8
 11
852.659258263
 21
502.211809549
  0
LINE
  8
0
  6
CONTINUOUS
 62
     2
 10
843.0
 20
504.8
 11
852.659258263
 21
507.388190451
  0
LINE
  8
0
  6
CONTINUOUS
 62
     2
 10
843.0
 20
504.8
 11
893.0
 21
504.8
  0
LINE
  8
0
  6
CONTINUOUS
 62
     2
 10
893.0
 20
504.8
 11
883.340741737
 21
507.388190451
  0
LINE
  8
0
  6
CONTINUOUS
 62
     2
 10
893.0
 20
504.8
 11
883.340741737
 21
502.211809549
  0
TEXT
  8
0
  6
CONTINUOUS
 62
     2
 10
856.6
 20
508.8
 30
1.2
 40
12.0
  1
５０
 50
0.0
 41
0.9
 51
0.0
  7
KANJI29
  0
LINE
  8
0
  6
CONTINUOUS
 62
     2
 10
893.0
 20
490.2
 11
893.0
 21
420.3
  0
LINE
  8
0
  6
CONTINUOUS
 62
     2
 10
893.0
 20
466.2
 11
883.340741737
 21
468.788190451
  0
LINE
  8
0
  6
CONTINUOUS
 62
     2
 10
893.0
 20
466.2
 11
883.340741737
 21
463.611809549
  0
LINE
  8
0
  6
CONTINUOUS
 62
     2
 10
893.0
 20
428.2
 11
883.340741737
 21
430.788190451
  0
LINE
  8
0
  6
CONTINUOUS
 62
     2
 10
893.0
 20
428.2
 11
883.340741737
 21
425.611809549
  0
LINE
  8
0
  6
CONTINUOUS
 62
     1
 10
798.0
 20
698.5
 11
843.0
 21
698.5
  0
LINE
  8
0
  6
CONTINUOUS
 62
     1
 10
798.0
 20
648.5
 11
843.0
 21
648.5
  0
LINE
  8
0
  6
CONTINUOUS
 62
     2
 10
798.0
 20
504.8
 11
843.0
 21
504.8
  0
LINE
  8
0
  6
CONTINUOUS
 62
     2
 10
228.0
 20
466.2
 11
893.0
 21
466.2
  0
LINE
  8
0
  6
CONTINUOUS
 62
     2
 10
893.0
 20
428.2
 11
166.0
 21
428.2
  0
TEXT
  8
0
  6
CONTINUOUS
 62
     2
 10
809.9
 20
312.5
 30
1.2
 40
12.0
  1
４５
 50
0.0
 41
0.9
 51
0.0
  7
KANJI1
  0
TEXT
  8
0
  6
CONTINUOUS
 62
     2
 10
809.9
 20
284.5
 30
1.2
 40
12.0
  1
４５
 50
0.0
 41
0.9
 51
0.0
  7
KANJI1
  0
TEXT
  8
0
  6
CONTINUOUS
 62
     2
 10
809.9
 20
256.5
 30
1.2
 40
12.0
  1
４５
 50
0.0
 41
0.9
 51
0.0
  7
KANJI1
  0
TEXT
  8
0
  6
CONTINUOUS
 62
     2
 10
809.9
 20
228.5
 30
1.2
 40
12.0
  1
４５
 50
0.0
 41
0.9
 51
0.0
  7
KANJI1
  0
TEXT
  8
0
  6
CONTINUOUS
 62
     2
 10
809.9
 20
200.5
 30
1.2
 40
12.0
  1
４５
 50
0.0
 41
0.9
 51
0.0
  7
KANJI1
  0
TEXT
  8
0
  6
CONTINUOUS
 62
     2
 10
809.9
 20
172.5
 30
1.2
 40
12.0
  1
４５
 50
0.0
 41
0.9
 51
0.0
  7
KANJI1
  0
TEXT
  8
0
  6
CONTINUOUS
 62
     2
 10
722.8
 20
312.5
 30
1.2
 40
12.0
  1
４９３
 50
0.0
 41
0.9
 51
0.0
  7
KANJI1
  0
TEXT
  8
0
  6
CONTINUOUS
 62
     2
 10
722.8
 20
284.5
 30
1.2
 40
12.0
  1
５９３
 50
0.0
 41
0.9
 51
0.0
  7
KANJI1
  0
TEXT
  8
0
  6
CONTINUOUS
 62
     2
 10
722.8
 20
256.5
 30
1.2
 40
12.0
  1
６９３
 50
0.0
 41
0.9
 51
0.0
  7
KANJI1
  0
TEXT
  8
0
  6
CONTINUOUS
 62
     2
 10
722.8
 20
228.5
 30
1.2
 40
12.0
  1
７９３
 50
0.0
 41
0.9
 51
0.0
  7
KANJI1
  0
TEXT
  8
0
  6
CONTINUOUS
 62
     2
 10
643.0
 20
311.8
 30
1.2
 40
12.0
  1
５８８
 50
0.0
 41
0.9
 51
0.0
  7
KANJI1
  0
TEXT
  8
0
  6
CONTINUOUS
 62
     2
 10
643.0
 20
283.8
 30
1.2
 40
12.0
  1
６８８
 50
0.0
 41
0.9
 51
0.0
  7
KANJI1
  0
TEXT
  8
0
  6
CONTINUOUS
 62
     2
 10
643.0
 20
255.8
 30
1.2
 40
12.0
  1
７８８
 50
0.0
 41
0.9
 51
0.0
  7
KANJI1
  0
TEXT
  8
0
  6
CONTINUOUS
 62
     2
 10
643.0
 20
227.8
 30
1.2
 40
12.0
  1
８８８
 50
0.0
 41
0.9
 51
0.0
  7
KANJI1
  0
TEXT
  8
0
  6
CONTINUOUS
 62
     2
 10
631.5
 20
199.8
 30
1.2
 40
12.0
  1
１１２８
 50
0.0
 41
0.9
 51
0.0
  7
KANJI1
  0
TEXT
  8
0
  6
CONTINUOUS
 62
     2
 10
631.5
 20
171.8
 30
1.2
 40
12.0
  1
１４２８
 50
0.0
 41
0.9
 51
0.0
  7
KANJI1
  0
TEXT
  8
0
  6
CONTINUOUS
 62
     2
 10
562.6
 20
311.0
 30
1.2
 40
12.0
  1
６５０
 50
0.0
 41
0.9
 51
0.0
  7
KANJI1
  0
TEXT
  8
0
  6
CONTINUOUS
 62
     2
 10
562.6
 20
283.0
 30
1.2
 40
12.0
  1
７５０
 50
0.0
 41
0.9
 51
0.0
  7
KANJI1
  0
TEXT
  8
0
  6
CONTINUOUS
 62
     2
 10
550.9
 20
255.0
 30
1.2
 40
12.0
  1
　８５０
 50
0.0
 41
0.9
 51
0.0
  7
KANJI1
  0
TEXT
  8
0
  6
CONTINUOUS
 62
     2
 10
552.1
 20
227.0
 30
1.2
 40
12.0
  1
　９５０
 50
0.0
 41
0.9
 51
0.0
  7
KANJI1
  0
TEXT
  8
0
  6
CONTINUOUS
 62
     2
 10
551.1
 20
199.0
 30
1.2
 40
12.0
  1
１１９０
 50
0.0
 41
0.9
 51
0.0
  7
KANJI1
  0
TEXT
  8
0
  6
CONTINUOUS
 62
     2
 10
551.1
 20
171.0
 30
1.2
 40
12.0
  1
１４９０
 50
0.0
 41
0.9
 51
0.0
  7
KANJI1
  0
TEXT
  8
0
  6
CONTINUOUS
 62
     2
 10
842.4
 20
79.6
 30
0.0
 40
12.0
  1
０７．１１．２１　岡田　ＣＡＤ化の為書替え及び寸法変更
 50
0.0
 41
0.9
 51
0.0
  7
KANJI2
  0
TEXT
  8
0
  6
CONTINUOUS
 62
     2
 10
134.32
 20
22.0
 30
0.0
 40
12.0
  1
ＦＤ　Ｎｏ．ＳＣ２
 50
0.0
 41
0.9
 51
0.0
  7
KANJI56
  0
LINE
  8
0
  6
CONTINUOUS
 62
     2
 10
880.5
 20
716.5
 11
880.5
 21
741.7
  0
LINE
  8
0
  6
CONTINUOUS
 62
     2
 10
880.5
 20
737.7
 11
870.840741737
 21
740.288190451
  0
LINE
  8
0
  6
CONTINUOUS
 62
     2
 10
880.5
 20
737.7
 11
870.840741737
 21
735.111809549
  0
LINE
  8
0
  6
CONTINUOUS
 62
     2
 10
865.5
 20
737.7
 11
880.5
 21
737.7
  0
LINE
  8
0
  6
CONTINUOUS
 62
     2
 10
880.5
 20
737.7
 11
905.5
 21
737.7
  0
LINE
  8
0
  6
CONTINUOUS
 62
     2
 10
905.5
 20
737.7
 11
915.159258263
 21
735.111809549
  0
LINE
  8
0
  6
CONTINUOUS
 62
     2
 10
905.5
 20
737.7
 11
915.159258263
 21
740.288190451
  0
LINE
  8
0
  6
CONTINUOUS
 62
     2
 10
905.5
 20
716.5
 11
905.5
 21
741.7
  0
LINE
  8
0
  6
CONTINUOUS
 62
     2
 10
905.5
 20
737.7
 11
987.4
 21
737.7
  0
LINE
  8
0
  6
CONTINUOUS
 62
     1
 10
880.5
 20
712.5
 11
905.5
 21
712.5
  0
LINE
  8
0
  6
LTYPE3
 62
     2
 10
889.2
 20
707.5
 11
897.2
 21
707.5
  0
CIRCLE
  8
0
  6
CONTINUOUS
 62
     1
 10
893.0
 20
707.5
 40
2.5
  0
LINE
  8
0
  6
CONTINUOUS
 62
     1
 10
871.0
 20
705.0
 11
915.0
 21
705.0
  0
LINE
  8
0
  6
CONTINUOUS
 62
     1
 10
871.0
 20
705.0
 11
871.0
 21
701.0
  0
LINE
  8
0
  6
CONTINUOUS
 62
     1
 10
880.5
 20
712.5
 11
880.5
 21
705.0
  0
LINE
  8
0
  6
LTYPE4
 62
     2
 10
880.5
 20
704.9
 11
880.5
 21
686.0
  0
LINE
  8
0
  6
CONTINUOUS
 62
     1
 10
915.0
 20
705.0
 11
915.0
 21
701.0
  0
LINE
  8
0
  6
CONTINUOUS
 62
     1
 10
905.5
 20
712.5
 11
905.5
 21
705.0
  0
LINE
  8
0
  6
LTYPE4
 62
     2
 10
905.5
 20
704.9
 11
905.5
 21
686.0
  0
LINE
  8
0
  6
CONTINUOUS
 62
     1
 10
880.5
 20
686.0
 11
880.5
 21
661.1
  0
LINE
  8
0
  6
CONTINUOUS
 62
     1
 10
905.5
 20
685.9
 11
905.5
 21
661.0
  0
LINE
  8
0
  6
LTYPE4
 62
     2
 10
880.5
 20
661.0
 11
880.5
 21
642.1
  0
LINE
  8
0
  6
LTYPE4
 62
     2
 10
905.5
 20
661.0
 11
905.5
 21
642.0
  0
LINE
  8
0
  6
CONTINUOUS
 62
     1
 10
880.5
 20
634.5
 11
905.5
 21
634.5
  0
LINE
  8
0
  6
LTYPE3
 62
     2
 10
889.2
 20
639.5
 11
897.2
 21
639.5
  0
CIRCLE
  8
0
  6
CONTINUOUS
 62
     1
 10
893.0
 20
639.5
 40
2.5
  0
LINE
  8
0
  6
CONTINUOUS
 62
     1
 10
871.0
 20
642.0
 11
915.0
 21
642.0
  0
LINE
  8
0
  6
CONTINUOUS
 62
     1
 10
915.0
 20
642.0
 11
915.0
 21
646.0
  0
LINE
  8
0
  6
CONTINUOUS
 62
     1
 10
905.5
 20
642.0
 11
905.5
 21
634.5
  0
LINE
  8
0
  6
CONTINUOUS
 62
     1
 10
871.0
 20
642.0
 11
871.0
 21
646.0
  0
LINE
  8
0
  6
CONTINUOUS
 62
     1
 10
880.5
 20
642.0
 11
880.5
 21
634.5
  0
LINE
  8
0
  6
CONTINUOUS
 62
     1
 10
1141.5
 20
712.5
 11
1166.5
 21
712.5
  0
LINE
  8
0
  6
LTYPE3
 62
     2
 10
1150.2
 20
707.5
 11
1158.2
 21
707.5
  0
CIRCLE
  8
0
  6
CONTINUOUS
 62
     1
 10
1154.0
 20
707.5
 40
2.5
  0
LINE
  8
0
  6
CONTINUOUS
 62
     1
 10
1132.0
 20
705.0
 11
1176.0
 21
705.0
  0
LINE
  8
0
  6
CONTINUOUS
 62
     1
 10
1132.0
 20
705.0
 11
1132.0
 21
701.0
  0
LINE
  8
0
  6
CONTINUOUS
 62
     1
 10
1141.5
 20
712.5
 11
1141.5
 21
705.0
  0
LINE
  8
0
  6
LTYPE4
 62
     2
 10
1141.5
 20
704.9
 11
1141.5
 21
686.0
  0
LINE
  8
0
  6
CONTINUOUS
 62
     1
 10
1176.0
 20
705.0
 11
1176.0
 21
701.0
  0
LINE
  8
0
  6
CONTINUOUS
 62
     1
 10
1166.5
 20
712.5
 11
1166.5
 21
705.0
  0
LINE
  8
0
  6
LTYPE4
 62
     2
 10
1166.5
 20
704.9
 11
1166.5
 21
686.0
  0
LINE
  8
0
  6
CONTINUOUS
 62
     1
 10
1141.5
 20
686.0
 11
1141.5
 21
661.1
  0
LINE
  8
0
  6
CONTINUOUS
 62
     1
 10
1166.5
 20
685.9
 11
1166.5
 21
661.0
  0
LINE
  8
0
  6
LTYPE4
 62
     2
 10
1141.5
 20
661.0
 11
1141.5
 21
642.1
  0
LINE
  8
0
  6
LTYPE4
 62
     2
 10
1166.5
 20
661.0
 11
1166.5
 21
642.0
  0
LINE
  8
0
  6
CONTINUOUS
 62
     1
 10
1141.5
 20
634.5
 11
1166.5
 21
634.5
  0
LINE
  8
0
  6
LTYPE3
 62
     2
 10
1150.2
 20
639.5
 11
1158.2
 21
639.5
  0
CIRCLE
  8
0
  6
CONTINUOUS
 62
     1
 10
1154.0
 20
639.5
 40
2.5
  0
LINE
  8
0
  6
CONTINUOUS
 62
     1
 10
1132.0
 20
642.0
 11
1176.0
 21
642.0
  0
LINE
  8
0
  6
CONTINUOUS
 62
     1
 10
1176.0
 20
642.0
 11
1176.0
 21
646.0
  0
LINE
  8
0
  6
CONTINUOUS
 62
     1
 10
1166.5
 20
642.0
 11
1166.5
 21
634.5
  0
LINE
  8
0
  6
CONTINUOUS
 62
     1
 10
1132.0
 20
642.0
 11
1132.0
 21
646.0
  0
LINE
  8
0
  6
CONTINUOUS
 62
     1
 10
1141.5
 20
642.0
 11
1141.5
 21
634.5
  0
LINE
  8
0
  6
LTYPE2
 62
     2
 10
1154.0
 20
552.0
 11
1154.0
 21
798.5
  0
LINE
  8
0
  6
LTYPE2
 62
     2
 10
1154.0
 20
621.35
 11
1154.0
 21
833.3
  0
LINE
  8
0
  6
CONTINUOUS
 62
     1
 10
1149.0
 20
730.5
 11
1159.0
 21
730.5
  0
LINE
  8
0
  6
CONTINUOUS
 62
     1
 10
1149.0
 20
730.5
 11
1149.0
 21
734.294736614
  0
ARC
  8
0
  6
CONTINUOUS
 62
     1
 10
1154.0
 20
673.5
 40
61.0
 50
94.701650197
 51
205.298349803
  0
LINE
  8
0
  6
CONTINUOUS
 62
     1
 10
1159.0
 20
730.5
 11
1159.0
 21
734.294736614
  0
ARC
  8
0
  6
CONTINUOUS
 62
     1
 10
1154.0
 20
673.5
 40
61.0
 50
334.701650197
 51
85.298349803
  0
LINE
  8
0
  6
CONTINUOUS
 62
     1
 10
1205.863448016
 20
649.330127019
 11
1200.863448016
 21
640.669872981
  0
LINE
  8
0
  6
CONTINUOUS
 62
     1
 10
1205.863448016
 20
649.330127019
 11
1209.149786324
 21
647.432758712
  0
LINE
  8
0
  6
LTYPE2
 62
     2
 10
1198.6
 20
647.750177994
 11
1212.1
 21
639.95594936
  0
ARC
  8
0
  6
CONTINUOUS
 62
     1
 10
1154.0
 20
673.5
 40
61.0
 50
214.701650197
 51
325.298349803
  0
LINE
  8
0
  6
CONTINUOUS
 62
     1
 10
1200.863448016
 20
640.669872981
 11
1204.149786324
 21
638.772504674
  0
LINE
  8
0
  6
CONTINUOUS
 62
     1
 10
1107.136551984
 20
640.669872981
 11
1102.136551984
 21
649.330127019
  0
LINE
  8
0
  6
LTYPE2
 62
     2
 10
1108.0
 20
646.941887617
 11
1096.0
 21
640.013684387
  0
LINE
  8
0
  6
CONTINUOUS
 62
     1
 10
1102.136551984
 20
649.330127019
 11
1098.850213676
 21
647.432758712
  0
LINE
  8
0
  6
CONTINUOUS
 62
     1
 10
1107.136551984
 20
640.669872981
 11
1103.850213676
 21
638.772504674
  0
CIRCLE
  8
0
  6
CONTINUOUS
 62
     1
 10
1154.0
 20
673.5
 40
74.0
  0
LINE
  8
0
  6
CONTINUOUS
 62
     1
 10
300.0
 20
599.5
 11
300.0
 21
747.5
  0
LINE
  8
0
  6
CONTINUOUS
 62
     1
 10
288.0
 20
747.5
 11
300.0
 21
747.5
  0
LINE
  8
0
  6
CONTINUOUS
 62
     1
 10
288.0
 20
599.5
 11
300.0
 21
599.5
  0
LINE
  8
0
  6
CONTINUOUS
 62
     2
 10
333.5
 20
679.1
 11
375.5
 21
752.1
  0
LINE
  8
0
  6
CONTINUOUS
 62
     2
 10
375.5
 20
752.1
 11
470.3
 21
752.1
  0
TEXT
  8
0
  6
CONTINUOUS
 62
     2
 10
375.5
 20
756.1
 30
1.2
 40
12.0
  1
グリースニップル
 50
0.0
 41
0.9
 51
0.0
  7
KANJI1
  0
LINE
  8
0
  6
CONTINUOUS
 62
     2
 10
333.5
 20
679.1
 11
340.560402542
 21
686.18171702
  0
LINE
  8
0
  6
CONTINUOUS
 62
     2
 10
333.5
 20
679.1
 11
336.073629452
 21
688.763148112
  0
LINE
  8
0
  6
LTYPE3
 62
     2
 10
330.0
 20
664.042635292
 11
330.0
 21
686.642635292
  0
CIRCLE
  8
0
  6
CONTINUOUS
 62
     1
 10
330.0
 20
673.5
 40
3.0
  0
CIRCLE
  8
0
  6
CONTINUOUS
 62
     1
 10
330.0
 20
673.5
 40
6.0
  0
LINE
  8
0
  6
CONTINUOUS
 62
     1
 10
391.0
 20
728.5
 11
400.0
 21
728.5
  0
LINE
  8
0
  6
CONTINUOUS
 62
     1
 10
391.0
 20
618.5
 11
391.0
 21
728.5
  0
LINE
  8
0
  6
CONTINUOUS
 62
     1
 10
391.0
 20
618.5
 11
400.0
 21
618.5
  0
LINE
  8
0
  6
CONTINUOUS
 62
     1
 10
391.0
 20
724.5
 11
400.0
 21
724.5
  0
LINE
  8
0
  6
CONTINUOUS
 62
     1
 10
391.0
 20
677.5
 11
400.0
 21
677.5
  0
LINE
  8
0
  6
CONTINUOUS
 62
     1
 10
391.0
 20
669.5
 11
400.0
 21
669.5
  0
LINE
  8
0
  6
CONTINUOUS
 62
     1
 10
391.0
 20
622.5
 11
400.0
 21
622.5
  0
LINE
  8
0
  6
CONTINUOUS
 62
     1
 10
353.665373034
 20
725.0
 11
391.0
 21
725.0
  0
ARC
  8
0
  6
CONTINUOUS
 62
     1
 10
353.665364504
 20
719.0
 40
6.0
 50
89.999918545
 51
152.72029569
  0
ARC
  8
0
  6
CONTINUOUS
 62
     1
 10
343.0
 20
724.5
 40
6.0
 50
270.0
 51
332.720478838
  0
LINE
  8
0
  6
CONTINUOUS
 62
     1
 10
352.0
 20
622.3
 11
352.0
 21
725.0
  0
LINE
  8
0
  6
CONTINUOUS
 62
     1
 10
343.0
 20
628.5
 11
343.0
 21
718.5
  0
LINE
  8
0
  6
CONTINUOUS
 62
     1
 10
300.0
 20
718.5
 11
343.0
 21
718.5
  0
LINE
  8
0
  6
CONTINUOUS
 62
     1
 10
300.0
 20
628.5
 11
343.0
 21
628.5
  0
ARC
  8
0
  6
CONTINUOUS
 62
     1
 10
343.0
 20
622.5
 40
6.0
 50
27.279521162
 51
90.0
  0
LINE
  8
0
  6
CONTINUOUS
 62
     1
 10
353.665364504
 20
622.0
 11
391.0
 21
622.0
  0
ARC
  8
0
  6
CONTINUOUS
 62
     1
 10
353.665364504
 20
628.0
 40
6.0
 50
207.27970431
 51
270.0
  0
CIRCLE
  8
0
  6
CONTINUOUS
 62
     1
 10
228.0
 20
992.5
 40
7.5
  0
CIRCLE
  8
0
  6
CONTINUOUS
 62
     1
 10
228.0
 20
992.5
 40
8.5
  0
CIRCLE
  8
0
  6
CONTINUOUS
 62
     1
 10
228.0
 20
992.5
 40
47.5
  0
CIRCLE
  8
0
  6
CONTINUOUS
 62
     1
 10
255.577164466
 20
1020.077164466
 40
5.0
  0
CIRCLE
  8
0
  6
CONTINUOUS
 62
     1
 10
228.0
 20
992.5
 40
25.0
  0
LINE
  8
0
  6
CONTINUOUS
 62
     1
 10
166.0
 20
958.5
 11
166.0
 21
952.735346
  0
LINE
  8
0
  6
CONTINUOUS
 62
     1
 10
166.0
 20
958.5
 11
166.0
 21
964.264654
  0
LINE
  8
0
  6
CONTINUOUS
 62
     1
 10
162.00039
 20
954.147098
 11
162.815465397
 21
952.735346
  0
LINE
  8
0
  6
CONTINUOUS
 62
     1
 10
162.00039
 20
958.5
 11
162.00039
 21
954.147098
  0
LINE
  8
0
  6
CONTINUOUS
 62
     1
 10
162.00039
 20
962.852902
 11
162.815465397
 21
964.264654
  0
LINE
  8
0
  6
CONTINUOUS
 62
     1
 10
162.00039
 20
958.5
 11
162.00039
 21
962.852902
  0
ARC
  8
0
  6
CONTINUOUS
 62
     1
 10
167.504271523
 20
958.5
 40
5.503881523
 50
148.419912243
 51
211.580087757
  0
ARC
  8
0
  6
CONTINUOUS
 62
     1
 10
163.681483007
 20
954.1765095
 40
1.681350271
 50
121.002313915
 51
182.989498403
  0
LINE
  8
0
  6
CONTINUOUS
 62
     1
 10
162.00039
 20
962.852902
 11
162.815465397
 21
964.264654
  0
ARC
  8
0
  6
CONTINUOUS
 62
     1
 10
163.681483007
 20
962.8234905
 40
1.681350271
 50
177.010501597
 51
238.997686085
  0
LINE
  8
0
  6
CONTINUOUS
 62
     1
 10
166.0
 20
955.617673
 11
162.815465397
 21
955.617673
  0
LINE
  8
0
  6
CONTINUOUS
 62
     1
 10
166.0
 20
952.735346
 11
162.815465397
 21
952.735346
  0
LINE
  8
0
  6
CONTINUOUS
 62
     1
 10
166.0
 20
961.382327
 11
162.815465397
 21
961.382327
  0
LINE
  8
0
  6
CONTINUOUS
 62
     1
 10
166.0
 20
964.264654
 11
162.815465397
 21
964.264654
  0
LINE
  8
0
  6
CONTINUOUS
 62
     1
 10
166.0
 20
1026.5
 11
166.0
 21
1032.264654
  0
LINE
  8
0
  6
CONTINUOUS
 62
     1
 10
166.0
 20
1026.5
 11
166.0
 21
1020.735346
  0
LINE
  8
0
  6
CONTINUOUS
 62
     1
 10
162.00039
 20
1030.852902
 11
162.815465397
 21
1032.264654
  0
LINE
  8
0
  6
CONTINUOUS
 62
     1
 10
162.00039
 20
1026.5
 11
162.00039
 21
1030.852902
  0
LINE
  8
0
  6
CONTINUOUS
 62
     1
 10
162.00039
 20
1022.147098
 11
162.815465397
 21
1020.735346
  0
LINE
  8
0
  6
CONTINUOUS
 62
     1
 10
162.00039
 20
1026.5
 11
162.00039
 21
1022.147098
  0
ARC
  8
0
  6
CONTINUOUS
 62
     1
 10
167.504271523
 20
1026.5
 40
5.503881523
 50
148.419912243
 51
211.580087757
  0
ARC
  8
0
  6
CONTINUOUS
 62
     1
 10
163.681483007
 20
1030.8234905
 40
1.681350271
 50
177.010501597
 51
238.997686085
  0
LINE
  8
0
  6
CONTINUOUS
 62
     1
 10
162.00039
 20
1022.147098
 11
162.815465397
 21
1020.735346
  0
ARC
  8
0
  6
CONTINUOUS
 62
     1
 10
163.681483007
 20
1022.1765095
 40
1.681350271
 50
121.002313915
 51
182.989498403
  0
LINE
  8
0
  6
CONTINUOUS
 62
     1
 10
166.0
 20
1029.382327
 11
162.815465397
 21
1029.382327
  0
LINE
  8
0
  6
CONTINUOUS
 62
     1
 10
166.0
 20
1032.264654
 11
162.815465397
 21
1032.264654
  0
LINE
  8
0
  6
CONTINUOUS
 62
     1
 10
166.0
 20
1023.617673
 11
162.815465397
 21
1023.617673
  0
LINE
  8
0
  6
CONTINUOUS
 62
     1
 10
166.0
 20
1020.735346
 11
162.815465397
 21
1020.735346
  0
LINE
  8
0
  6
CONTINUOUS
 62
     1
 10
172.0
 20
914.5
 11
172.0
 21
1070.5
  0
LINE
  8
0
  6
CONTINUOUS
 62
     1
 10
166.0
 20
914.5
 11
166.0
 21
1070.5
  0
LINE
  8
0
  6
LTYPE2
 62
     2
 10
140.0
 20
992.5
 11
465.0
 21
992.5
  0
LINE
  8
0
  6
LTYPE3
 62
     2
 10
159.9
 20
958.5
 11
187.257364708
 21
958.5
  0
LINE
  8
0
  6
LTYPE3
 62
     2
 10
159.9
 20
1026.5
 11
187.257364708
 21
1026.5
  0
LINE
  8
0
  6
CONTINUOUS
 62
     1
 10
166.0
 20
1070.5
 11
288.0
 21
1070.5
  0
LINE
  8
0
  6
CONTINUOUS
 62
     1
 10
288.0
 20
914.5
 11
288.0
 21
1070.5
  0
LINE
  8
0
  6
LTYPE2
 62
     2
 10
250.7
 20
1015.2
 11
260.0
 21
1024.5
  0
ARC
  8
0
  6
LTYPE2
 62
     2
 10
228.0
 20
992.5
 40
39.0
 50
31.394543749
 51
58.103662461
  0
LINE
  8
0
  6
CONTINUOUS
 62
     1
 10
400.0
 20
937.5
 11
400.0
 21
1047.5
  0
LINE
  8
0
  6
CONTINUOUS
 62
     1
 10
400.0
 20
1037.15
 11
465.0
 21
1037.15
  0
LINE
  8
0
  6
CONTINUOUS
 62
     1
 10
400.0
 20
947.85
 11
465.0
 21
947.85
  0
LINE
  8
0
  6
CONTINUOUS
 62
     1
 10
303.0
 20
1052.5
 11
303.0
 21
1063.44954
  0
LINE
  8
0
  6
CONTINUOUS
 62
     1
 10
303.0
 20
1052.5
 11
303.0
 21
1041.55046
  0
LINE
  8
0
  6
CONTINUOUS
 62
     1
 10
300.0
 20
1063.25
 11
303.0
 21
1063.25
  0
LINE
  8
0
  6
CONTINUOUS
 62
     1
 10
300.0
 20
1052.5
 11
303.000254073
 21
1055.500254073
  0
LINE
  8
0
  6
CONTINUOUS
 62
     1
 10
303.000254073
 20
1052.5
 11
300.0
 21
1049.499745927
  0
LINE
  8
0
  6
CONTINUOUS
 62
     1
 10
300.0
 20
1041.75
 11
303.0
 21
1041.75
  0
LINE
  8
0
  6
CONTINUOUS
 62
     1
 10
303.0
 20
1063.25
 11
314.3
 21
1063.25
  0
LINE
  8
0
  6
CONTINUOUS
 62
     1
 10
314.3
 20
1052.5
 11
314.3
 21
1063.25
  0
LINE
  8
0
  6
CONTINUOUS
 62
     1
 10
314.3
 20
1063.25
 11
315.0
 21
1062.037564435
  0
LINE
  8
0
  6
CONTINUOUS
 62
     1
 10
315.0
 20
1052.5
 11
315.0
 21
1062.037564435
  0
LINE
  8
0
  6
CONTINUOUS
 62
     1
 10
303.0
 20
1041.75
 11
314.3
 21
1041.75
  0
LINE
  8
0
  6
CONTINUOUS
 62
     1
 10
314.3
 20
1052.5
 11
314.3
 21
1041.75
  0
LINE
  8
0
  6
CONTINUOUS
 62
     1
 10
314.3
 20
1041.75
 11
315.0
 21
1042.962435565
  0
LINE
  8
0
  6
CONTINUOUS
 62
     1
 10
315.0
 20
1052.5
 11
315.0
 21
1042.962435565
  0
LINE
  8
0
  6
CONTINUOUS
 62
     1
 10
303.0
 20
932.5
 11
303.0
 21
943.44954
  0
LINE
  8
0
  6
CONTINUOUS
 62
     1
 10
303.0
 20
932.5
 11
303.0
 21
921.55046
  0
LINE
  8
0
  6
CONTINUOUS
 62
     1
 10
300.0
 20
943.25
 11
303.0
 21
943.25
  0
LINE
  8
0
  6
CONTINUOUS
 62
     1
 10
300.0
 20
932.5
 11
303.000254073
 21
935.500254073
  0
LINE
  8
0
  6
CONTINUOUS
 62
     1
 10
303.000254073
 20
932.5
 11
300.0
 21
929.499745927
  0
LINE
  8
0
  6
CONTINUOUS
 62
     1
 10
303.0
 20
943.25
 11
314.3
 21
943.25
  0
LINE
  8
0
  6
CONTINUOUS
 62
     1
 10
314.3
 20
932.5
 11
314.3
 21
943.25
  0
LINE
  8
0
  6
CONTINUOUS
 62
     1
 10
314.3
 20
943.25
 11
315.0
 21
942.037564435
  0
LINE
  8
0
  6
CONTINUOUS
 62
     1
 10
315.0
 20
932.5
 11
315.0
 21
942.037564435
  0
LINE
  8
0
  6
CONTINUOUS
 62
     1
 10
314.3
 20
932.5
 11
314.3
 21
921.75
  0
LINE
  8
0
  6
CONTINUOUS
 62
     1
 10
315.0
 20
932.5
 11
315.0
 21
922.962435565
  0
LINE
  8
0
  6
LTYPE3
 62
     2
 10
275.0
 20
932.5
 11
320.0
 21
932.5
  0
LINE
  8
0
  6
LTYPE3
 62
     2
 10
275.0
 20
1052.5
 11
320.0
 21
1052.5
  0
LINE
  8
0
  6
LTYPE2
 62
     2
 10
228.0
 20
911.3
 11
228.0
 21
1080.3
  0
LINE
  8
0
  6
CONTINUOUS
 62
     1
 10
263.0
 20
1070.5
 11
275.5
 21
1070.5
  0
LINE
  8
0
  6
CONTINUOUS
 62
     1
 10
263.0
 20
1070.5
 11
250.5
 21
1070.5
  0
LINE
  8
0
  6
CONTINUOUS
 62
     1
 10
288.0
 20
1070.5
 11
288.0
 21
914.5
  0
LINE
  8
0
  6
CONTINUOUS
 62
     1
 10
166.0
 20
914.5
 11
288.0
 21
914.5
  0
LINE
  8
0
  6
CONTINUOUS
 62
     1
 10
300.0
 20
921.75
 11
303.0
 21
921.75
  0
LINE
  8
0
  6
CONTINUOUS
 62
     1
 10
303.0
 20
921.75
 11
314.3
 21
921.75
  0
LINE
  8
0
  6
CONTINUOUS
 62
     1
 10
314.3
 20
921.75
 11
315.0
 21
922.962435565
  0
LINE
  8
0
  6
CONTINUOUS
 62
     1
 10
166.0
 20
914.5
 11
288.0
 21
914.5
  0
LINE
  8
0
  6
CONTINUOUS
 62
     1
 10
263.0
 20
914.5
 11
275.5
 21
914.5
  0
LINE
  8
0
  6
CONTINUOUS
 62
     1
 10
275.117095146
 20
911.362990511
 11
274.401455767
 21
905.5
  0
LINE
  8
0
  6
CONTINUOUS
 62
     1
 10
275.5
 20
914.5
 11
275.117095146
 21
911.362990511
  0
ARC
  8
0
  6
CONTINUOUS
 62
     1
 10
276.505622715
 20
911.18387434
 40
1.4
 50
172.42261005
 51
238.266531719
  0
LINE
  8
0
  6
CONTINUOUS
 62
     1
 10
263.0
 20
914.5
 11
250.5
 21
914.5
  0
LINE
  8
0
  6
CONTINUOUS
 62
     1
 10
250.882904854
 20
911.362990511
 11
251.598544233
 21
905.5
  0
LINE
  8
0
  6
CONTINUOUS
 62
     1
 10
250.5
 20
914.5
 11
250.882904854
 21
911.362990511
  0
ARC
  8
0
  6
CONTINUOUS
 62
     1
 10
249.494377285
 20
911.18387434
 40
1.4
 50
301.733468281
 51
7.57738995
  0
LINE
  8
0
  6
LTYPE3
 62
     2
 10
263.0
 20
922.2
 11
263.0
 21
859.8
  0
CIRCLE
  8
0
  6
CONTINUOUS
 62
     1
 10
263.0
 20
888.5
 40
15.0
  0
LINE
  8
0
  6
CONTINUOUS
 62
     1
 10
274.401268963
 20
905.498469582
 11
263.0
 21
903.5
  0
LINE
  8
0
  6
CONTINUOUS
 62
     1
 10
263.0
 20
905.5
 11
274.401455767
 21
905.5
  0
ARC
  8
0
  6
CONTINUOUS
 62
     1
 10
263.0
 20
888.5
 40
25.0
 50
0.0
 51
59.285116455
  0
LINE
  8
0
  6
CONTINUOUS
 62
     1
 10
251.598731037
 20
905.498469582
 11
263.0
 21
903.5
  0
LINE
  8
0
  6
CONTINUOUS
 62
     1
 10
263.0
 20
905.5
 11
251.598544233
 21
905.5
  0
ARC
  8
0
  6
CONTINUOUS
 62
     1
 10
263.0
 20
888.5
 40
25.0
 50
120.657238825
 51
0.0
  0
LINE
  8
0
  6
LTYPE3
 62
     2
 10
233.5
 20
888.5
 11
293.0
 21
888.5
  0
LINE
  8
0
  6
CONTINUOUS
 62
     1
 10
300.0
 20
918.5
 11
300.0
 21
1066.5
  0
LINE
  8
0
  6
CONTINUOUS
 62
     1
 10
288.0
 20
1066.5
 11
300.0
 21
1066.5
  0
LINE
  8
0
  6
CONTINUOUS
 62
     1
 10
288.0
 20
918.5
 11
300.0
 21
918.5
  0
LINE
  8
0
  6
LTYPE3
 62
     2
 10
330.0
 20
950.4
 11
330.0
 21
934.05
  0
LINE
  8
0
  6
CONTINUOUS
 62
     1
 10
327.5
 20
940.0
 11
327.5
 21
942.0
  0
LINE
  8
0
  6
CONTINUOUS
 62
     1
 10
330.0
 20
944.5
 11
325.0
 21
944.5
  0
LINE
  8
0
  6
CONTINUOUS
 62
     1
 10
326.0
 20
944.5
 11
326.0
 21
947.5
  0
LINE
  8
0
  6
CONTINUOUS
 62
     1
 10
327.5
 20
942.0
 11
324.0
 21
945.5
  0
LINE
  8
0
  6
CONTINUOUS
 62
     1
 10
324.0
 20
947.5
 11
324.0
 21
945.5
  0
LINE
  8
0
  6
CONTINUOUS
 62
     1
 10
328.5
 20
936.5
 11
327.0
 21
939.0
  0
LINE
  8
0
  6
CONTINUOUS
 62
     1
 10
327.0
 20
939.0
 11
327.5
 21
940.0
  0
LINE
  8
0
  6
CONTINUOUS
 62
     1
 10
330.0
 20
944.5
 11
335.0
 21
944.5
  0
LINE
  8
0
  6
CONTINUOUS
 62
     1
 10
331.5
 20
936.5
 11
333.0
 21
939.0
  0
LINE
  8
0
  6
CONTINUOUS
 62
     1
 10
328.5
 20
936.5
 11
331.5
 21
936.5
  0
LINE
  8
0
  6
CONTINUOUS
 62
     1
 10
334.0
 20
944.5
 11
334.0
 21
947.5
  0
LINE
  8
0
  6
CONTINUOUS
 62
     1
 10
332.5
 20
942.0
 11
336.0
 21
945.5
  0
LINE
  8
0
  6
CONTINUOUS
 62
     1
 10
336.0
 20
947.5
 11
336.0
 21
945.5
  0
LINE
  8
0
  6
CONTINUOUS
 62
     1
 10
333.0
 20
939.0
 11
332.5
 21
940.0
  0
LINE
  8
0
  6
CONTINUOUS
 62
     1
 10
332.5
 20
940.0
 11
332.5
 21
942.0
  0
LINE
  8
0
  6
CONTINUOUS
 62
     1
 10
353.665373034
 20
1044.0
 11
391.0
 21
1044.0
  0
ARC
  8
0
  6
CONTINUOUS
 62
     1
 10
353.665364504
 20
1038.0
 40
6.0
 50
89.999918545
 51
152.72029569
  0
ARC
  8
0
  6
CONTINUOUS
 62
     1
 10
343.0
 20
1043.5
 40
6.0
 50
270.0
 51
332.720478838
  0
LINE
  8
0
  6
CONTINUOUS
 62
     1
 10
352.0
 20
941.3
 11
352.0
 21
1044.0
  0
LINE
  8
0
  6
CONTINUOUS
 62
     1
 10
343.0
 20
947.5
 11
343.0
 21
1037.5
  0
LINE
  8
0
  6
CONTINUOUS
 62
     1
 10
300.0
 20
1037.5
 11
343.0
 21
1037.5
  0
LINE
  8
0
  6
CONTINUOUS
 62
     1
 10
300.0
 20
947.5
 11
343.0
 21
947.5
  0
ARC
  8
0
  6
CONTINUOUS
 62
     1
 10
343.0
 20
941.5
 40
6.0
 50
27.279521162
 51
90.0
  0
LINE
  8
0
  6
CONTINUOUS
 62
     1
 10
353.665364504
 20
941.0
 11
391.0
 21
941.0
  0
ARC
  8
0
  6
CONTINUOUS
 62
     1
 10
353.665364504
 20
947.0
 40
6.0
 50
207.27970431
 51
270.0
  0
LINE
  8
0
  6
CONTINUOUS
 62
     1
 10
391.0
 20
937.5
 11
391.0
 21
1047.5
  0
LINE
  8
0
  6
CONTINUOUS
 62
     1
 10
391.0
 20
1047.5
 11
400.0
 21
1047.5
  0
LINE
  8
0
  6
CONTINUOUS
 62
     1
 10
391.0
 20
1043.5
 11
400.0
 21
1043.5
  0
LINE
  8
0
  6
CONTINUOUS
 62
     1
 10
391.0
 20
996.5
 11
400.0
 21
996.5
  0
LINE
  8
0
  6
CONTINUOUS
 62
     1
 10
391.0
 20
988.5
 11
400.0
 21
988.5
  0
LINE
  8
0
  6
CONTINUOUS
 62
     1
 10
391.0
 20
941.5
 11
400.0
 21
941.5
  0
LINE
  8
0
  6
CONTINUOUS
 62
     1
 10
391.0
 20
937.5
 11
400.0
 21
937.5
  0
ENDSEC
  0
EOF
