  0
SECTION
  2
HEADER
  9
$EXTMIN
 10
0.0
 20
0.0
 30
0.0
  9
$EXTMAX
 10
3360.0
 20
2376.0
 30
0.0
  9
$LIMMIN
 10
0.0
 20
0.0
  9
$LIMMAX
 10
3360.0
 20
2376.0
  9
$LTSCALE
 40
1.0
  9
$PDMODE
 70
     0
  0
ENDSEC
  0
SECTION
  2
TABLES
  0
TABLE
  2
LTYPE
 70
     4
  0
LTYPE
  2
CONTINUOUS
 70
    64
  3
Solid line
 72
    65
 73
     0
 40
0.0
  0
LTYPE
  2
LTYPE1
 70
    64
  3
HIDDEN
 72
    65
 73
     2
 40
24.0
 49
14.4
 49
-9.6
  0
LTYPE
  2
LTYPE2
 70
    64
  3
CENTER
 72
    65
 73
     4
 40
120.0
 49
84.0
 49
-12.0
 49
12.0
 49
-12.0
  0
LTYPE
  2
LTYPE3
 70
    64
  3
CENTER
 72
    65
 73
     4
 40
64.0
 49
44.8
 49
-6.4
 49
6.4
 49
-6.4
  0
ENDTAB
  0
TABLE
  2
LAYER
 70
   128
  0
LAYER
  2
0
 70
     0
 62
     7
  6
CONTINUOUS
  0
LAYER
  2
2
 70
     0
 62
     7
  6
CONTINUOUS
  0
LAYER
  2
3
 70
     0
 62
     7
  6
CONTINUOUS
  0
LAYER
  2
4
 70
     0
 62
     7
  6
CONTINUOUS
  0
LAYER
  2
5
 70
     0
 62
     7
  6
CONTINUOUS
  0
LAYER
  2
6
 70
     0
 62
     7
  6
CONTINUOUS
  0
LAYER
  2
7
 70
     0
 62
     7
  6
CONTINUOUS
  0
LAYER
  2
8
 70
     0
 62
     7
  6
CONTINUOUS
  0
LAYER
  2
9
 70
     0
 62
     7
  6
CONTINUOUS
  0
LAYER
  2
10
 70
     0
 62
     7
  6
CONTINUOUS
  0
LAYER
  2
11
 70
     0
 62
     7
  6
CONTINUOUS
  0
LAYER
  2
12
 70
     0
 62
     7
  6
CONTINUOUS
  0
LAYER
  2
13
 70
     0
 62
     7
  6
CONTINUOUS
  0
LAYER
  2
14
 70
     0
 62
     7
  6
CONTINUOUS
  0
LAYER
  2
15
 70
     0
 62
     7
  6
CONTINUOUS
  0
LAYER
  2
16
 70
     0
 62
     7
  6
CONTINUOUS
  0
LAYER
  2
17
 70
     0
 62
     7
  6
CONTINUOUS
  0
LAYER
  2
18
 70
     0
 62
     7
  6
CONTINUOUS
  0
LAYER
  2
19
 70
     0
 62
     7
  6
CONTINUOUS
  0
LAYER
  2
20
 70
     0
 62
     7
  6
CONTINUOUS
  0
LAYER
  2
21
 70
     0
 62
     7
  6
CONTINUOUS
  0
LAYER
  2
22
 70
     0
 62
     7
  6
CONTINUOUS
  0
LAYER
  2
23
 70
     0
 62
     7
  6
CONTINUOUS
  0
LAYER
  2
24
 70
     0
 62
     7
  6
CONTINUOUS
  0
LAYER
  2
25
 70
     0
 62
     7
  6
CONTINUOUS
  0
LAYER
  2
26
 70
     0
 62
     7
  6
CONTINUOUS
  0
LAYER
  2
27
 70
     0
 62
     7
  6
CONTINUOUS
  0
LAYER
  2
28
 70
     0
 62
     7
  6
CONTINUOUS
  0
LAYER
  2
29
 70
     0
 62
     7
  6
CONTINUOUS
  0
LAYER
  2
30
 70
     0
 62
     7
  6
CONTINUOUS
  0
LAYER
  2
31
 70
     0
 62
     7
  6
CONTINUOUS
  0
LAYER
  2
32
 70
     0
 62
     7
  6
CONTINUOUS
  0
LAYER
  2
33
 70
     0
 62
     7
  6
CONTINUOUS
  0
LAYER
  2
34
 70
     0
 62
     7
  6
CONTINUOUS
  0
LAYER
  2
35
 70
     0
 62
     7
  6
CONTINUOUS
  0
LAYER
  2
36
 70
     0
 62
     7
  6
CONTINUOUS
  0
LAYER
  2
37
 70
     0
 62
     7
  6
CONTINUOUS
  0
LAYER
  2
38
 70
     0
 62
     7
  6
CONTINUOUS
  0
LAYER
  2
39
 70
     0
 62
     7
  6
CONTINUOUS
  0
LAYER
  2
40
 70
     0
 62
     7
  6
CONTINUOUS
  0
LAYER
  2
41
 70
     0
 62
     7
  6
CONTINUOUS
  0
LAYER
  2
42
 70
     0
 62
     7
  6
CONTINUOUS
  0
LAYER
  2
43
 70
     0
 62
     7
  6
CONTINUOUS
  0
LAYER
  2
44
 70
     0
 62
     7
  6
CONTINUOUS
  0
LAYER
  2
45
 70
     0
 62
     7
  6
CONTINUOUS
  0
LAYER
  2
46
 70
     0
 62
     7
  6
CONTINUOUS
  0
LAYER
  2
47
 70
     0
 62
     7
  6
CONTINUOUS
  0
LAYER
  2
48
 70
     0
 62
     7
  6
CONTINUOUS
  0
LAYER
  2
49
 70
     0
 62
     7
  6
CONTINUOUS
  0
LAYER
  2
50
 70
     0
 62
     7
  6
CONTINUOUS
  0
LAYER
  2
51
 70
     0
 62
     7
  6
CONTINUOUS
  0
LAYER
  2
52
 70
     0
 62
     7
  6
CONTINUOUS
  0
LAYER
  2
53
 70
     0
 62
     7
  6
CONTINUOUS
  0
LAYER
  2
54
 70
     0
 62
     7
  6
CONTINUOUS
  0
LAYER
  2
55
 70
     0
 62
     7
  6
CONTINUOUS
  0
LAYER
  2
56
 70
     0
 62
     7
  6
CONTINUOUS
  0
LAYER
  2
57
 70
     0
 62
     7
  6
CONTINUOUS
  0
LAYER
  2
58
 70
     0
 62
     7
  6
CONTINUOUS
  0
LAYER
  2
59
 70
     0
 62
     7
  6
CONTINUOUS
  0
LAYER
  2
60
 70
     0
 62
     7
  6
CONTINUOUS
  0
LAYER
  2
61
 70
     0
 62
     7
  6
CONTINUOUS
  0
LAYER
  2
62
 70
     0
 62
     7
  6
CONTINUOUS
  0
LAYER
  2
63
 70
     0
 62
     7
  6
CONTINUOUS
  0
LAYER
  2
64
 70
     0
 62
     7
  6
CONTINUOUS
  0
LAYER
  2
65
 70
     0
 62
     7
  6
CONTINUOUS
  0
LAYER
  2
66
 70
     0
 62
     7
  6
CONTINUOUS
  0
LAYER
  2
67
 70
     0
 62
     7
  6
CONTINUOUS
  0
LAYER
  2
68
 70
     0
 62
     7
  6
CONTINUOUS
  0
LAYER
  2
69
 70
     0
 62
     7
  6
CONTINUOUS
  0
LAYER
  2
70
 70
     0
 62
     7
  6
CONTINUOUS
  0
LAYER
  2
71
 70
     0
 62
     7
  6
CONTINUOUS
  0
LAYER
  2
72
 70
     0
 62
     7
  6
CONTINUOUS
  0
LAYER
  2
73
 70
     0
 62
     7
  6
CONTINUOUS
  0
LAYER
  2
74
 70
     0
 62
     7
  6
CONTINUOUS
  0
LAYER
  2
75
 70
     0
 62
     7
  6
CONTINUOUS
  0
LAYER
  2
76
 70
     0
 62
     7
  6
CONTINUOUS
  0
LAYER
  2
77
 70
     0
 62
     7
  6
CONTINUOUS
  0
LAYER
  2
78
 70
     0
 62
     7
  6
CONTINUOUS
  0
LAYER
  2
79
 70
     0
 62
     7
  6
CONTINUOUS
  0
LAYER
  2
80
 70
     0
 62
     7
  6
CONTINUOUS
  0
LAYER
  2
81
 70
     0
 62
     7
  6
CONTINUOUS
  0
LAYER
  2
82
 70
     0
 62
     7
  6
CONTINUOUS
  0
LAYER
  2
83
 70
     0
 62
     7
  6
CONTINUOUS
  0
LAYER
  2
84
 70
     0
 62
     7
  6
CONTINUOUS
  0
LAYER
  2
85
 70
     0
 62
     7
  6
CONTINUOUS
  0
LAYER
  2
86
 70
     0
 62
     7
  6
CONTINUOUS
  0
LAYER
  2
87
 70
     0
 62
     7
  6
CONTINUOUS
  0
LAYER
  2
88
 70
     0
 62
     7
  6
CONTINUOUS
  0
LAYER
  2
89
 70
     0
 62
     7
  6
CONTINUOUS
  0
LAYER
  2
90
 70
     0
 62
     7
  6
CONTINUOUS
  0
LAYER
  2
91
 70
     0
 62
     7
  6
CONTINUOUS
  0
LAYER
  2
92
 70
     0
 62
     7
  6
CONTINUOUS
  0
LAYER
  2
93
 70
     0
 62
     7
  6
CONTINUOUS
  0
LAYER
  2
94
 70
     0
 62
     7
  6
CONTINUOUS
  0
LAYER
  2
95
 70
     0
 62
     7
  6
CONTINUOUS
  0
LAYER
  2
96
 70
     0
 62
     7
  6
CONTINUOUS
  0
LAYER
  2
97
 70
     0
 62
     7
  6
CONTINUOUS
  0
LAYER
  2
98
 70
     0
 62
     7
  6
CONTINUOUS
  0
LAYER
  2
99
 70
     0
 62
     7
  6
CONTINUOUS
  0
LAYER
  2
100
 70
     0
 62
     7
  6
CONTINUOUS
  0
LAYER
  2
101
 70
     0
 62
     7
  6
CONTINUOUS
  0
LAYER
  2
102
 70
     0
 62
     7
  6
CONTINUOUS
  0
LAYER
  2
103
 70
     0
 62
     7
  6
CONTINUOUS
  0
LAYER
  2
104
 70
     0
 62
     7
  6
CONTINUOUS
  0
LAYER
  2
105
 70
     0
 62
     7
  6
CONTINUOUS
  0
LAYER
  2
106
 70
     0
 62
     7
  6
CONTINUOUS
  0
LAYER
  2
107
 70
     0
 62
     7
  6
CONTINUOUS
  0
LAYER
  2
108
 70
     0
 62
     7
  6
CONTINUOUS
  0
LAYER
  2
109
 70
     0
 62
     7
  6
CONTINUOUS
  0
LAYER
  2
110
 70
     0
 62
     7
  6
CONTINUOUS
  0
LAYER
  2
111
 70
     0
 62
     7
  6
CONTINUOUS
  0
LAYER
  2
112
 70
     0
 62
     7
  6
CONTINUOUS
  0
LAYER
  2
113
 70
     0
 62
     7
  6
CONTINUOUS
  0
LAYER
  2
114
 70
     0
 62
     7
  6
CONTINUOUS
  0
LAYER
  2
115
 70
     0
 62
     7
  6
CONTINUOUS
  0
LAYER
  2
116
 70
     0
 62
     7
  6
CONTINUOUS
  0
LAYER
  2
117
 70
     0
 62
     7
  6
CONTINUOUS
  0
LAYER
  2
118
 70
     0
 62
     7
  6
CONTINUOUS
  0
LAYER
  2
119
 70
     0
 62
     7
  6
CONTINUOUS
  0
LAYER
  2
120
 70
     0
 62
     7
  6
CONTINUOUS
  0
LAYER
  2
121
 70
     0
 62
     7
  6
CONTINUOUS
  0
LAYER
  2
122
 70
     0
 62
     7
  6
CONTINUOUS
  0
LAYER
  2
123
 70
     0
 62
     7
  6
CONTINUOUS
  0
LAYER
  2
124
 70
     0
 62
     7
  6
CONTINUOUS
  0
LAYER
  2
125
 70
     0
 62
     7
  6
CONTINUOUS
  0
LAYER
  2
126
 70
     0
 62
     7
  6
CONTINUOUS
  0
LAYER
  2
127
 70
     0
 62
     7
  6
CONTINUOUS
  0
LAYER
  2
128
 70
     0
 62
     7
  6
CONTINUOUS
  0
ENDTAB
  0
TABLE
  2
STYLE
 70
    55
  0
STYLE
  2
STANDARD
 70
     0
 40
0.0
 41
1.0
 50
0.0
 71
     0
 42
0.2
  3
txt
  4

  0
STYLE
  2
KANJI0
 70
     0
 40
15.999996636
 41
0.6
 50
0.0
 71
     0
 42
15.999996636
  3

  4
bigfont
  0
STYLE
  2
KANJI1
 70
     0
 40
19.199995963
 41
0.9
 50
0.0
 71
     0
 42
19.199995963
  3

  4
bigfont
  0
STYLE
  2
KANJI2
 70
     0
 40
13.8666656
 41
0.6
 50
0.0
 71
     0
 42
13.8666656
  3

  4
bigfont
  0
STYLE
  2
KANJI3
 70
     0
 40
16.63999872
 41
0.6
 50
0.0
 71
     0
 42
16.63999872
  3

  4
bigfont
  0
STYLE
  2
KANJI4
 70
     0
 40
13.8666656
 41
0.8
 50
0.0
 71
     0
 42
13.8666656
  3

  4
bigfont
  0
STYLE
  2
KANJI5
 70
     0
 40
16.63999872
 41
0.8
 50
0.0
 71
     0
 42
16.63999872
  3

  4
bigfont
  0
STYLE
  2
KANJI6
 70
     0
 40
69.333328
 41
0.9
 50
0.0
 71
     0
 42
69.333328
  3

  4
bigfont
  0
STYLE
  2
KANJI7
 70
     0
 40
23.999994954
 41
0.9
 50
0.0
 71
     0
 42
23.999994954
  3

  4
bigfont
  0
STYLE
  2
KANJI8
 70
     0
 40
24.2666648
 41
0.42031746
 50
0.0
 71
     0
 42
24.2666648
  3

  4
bigfont
  0
STYLE
  2
KANJI9
 70
     0
 40
41.5999968
 41
0.9
 50
0.0
 71
     0
 42
41.5999968
  3

  4
bigfont
  0
STYLE
  2
KANJI10
 70
     0
 40
40.0
 41
1.0
 50
0.0
 71
     0
 42
40.0
  3

  4
bigfont
  0
STYLE
  2
KANJI11
 70
     0
 40
40.0
 41
1.0
 50
0.0
 71
     0
 42
40.0
  3

  4
bigfont
  0
STYLE
  2
KANJI12
 70
     0
 40
28.0
 41
0.857142857
 50
0.0
 71
     0
 42
28.0
  3

  4
bigfont
  0
STYLE
  2
KANJI13
 70
     0
 40
20.7999984
 41
0.75
 50
0.0
 71
     0
 42
20.7999984
  3

  4
bigfont
  0
STYLE
  2
KANJI14
 70
     0
 40
36.0
 41
0.666666667
 50
0.0
 71
     0
 42
36.0
  3

  4
bigfont
  0
STYLE
  2
KANJI15
 70
     0
 40
36.0
 41
0.9
 50
0.0
 71
     0
 42
36.0
  3

  4
bigfont
  0
STYLE
  2
KANJI16
 70
     0
 40
30.4
 41
0.9
 50
0.0
 71
     0
 42
30.4
  3

  4
bigfont
  0
STYLE
  2
KANJI17
 70
     0
 40
30.4
 41
0.9
 50
0.0
 71
     0
 42
30.4
  3

  4
bigfont
  0
STYLE
  2
KANJI18
 70
     0
 40
22.4
 41
0.8
 50
0.0
 71
     0
 42
22.4
  3

  4
bigfont
  0
STYLE
  2
KANJI19
 70
     0
 40
30.4
 41
0.9
 50
0.0
 71
     0
 42
30.4
  3

  4
bigfont
  0
STYLE
  2
KANJI20
 70
     0
 40
30.4
 41
0.9
 50
0.0
 71
     0
 42
30.4
  3

  4
bigfont
  0
STYLE
  2
KANJI21
 70
     0
 40
30.4
 41
0.9
 50
0.0
 71
     0
 42
30.4
  3

  4
bigfont
  0
STYLE
  2
KANJI22
 70
     0
 40
30.4
 41
0.9
 50
0.0
 71
     0
 42
30.4
  3

  4
bigfont
  0
STYLE
  2
KANJI23
 70
     0
 40
30.4
 41
0.9
 50
0.0
 71
     0
 42
30.4
  3

  4
bigfont
  0
STYLE
  2
KANJI24
 70
     0
 40
30.4
 41
0.9
 50
0.0
 71
     0
 42
30.4
  3

  4
bigfont
  0
STYLE
  2
KANJI25
 70
     0
 40
24.0
 41
0.9
 50
0.0
 71
     0
 42
24.0
  3

  4
bigfont
  0
STYLE
  2
KANJI26
 70
     0
 40
24.0
 41
0.9
 50
0.0
 71
     0
 42
24.0
  3

  4
bigfont
  0
STYLE
  2
KANJI27
 70
     0
 40
32.0
 41
1.0
 50
0.0
 71
     0
 42
32.0
  3

  4
bigfont
  0
STYLE
  2
KANJI28
 70
     0
 40
24.0
 41
0.833333333
 50
0.0
 71
     0
 42
24.0
  3

  4
bigfont
  0
STYLE
  2
KANJI29
 70
     0
 40
24.0
 41
0.9
 50
0.0
 71
     0
 42
24.0
  3

  4
bigfont
  0
STYLE
  2
KANJI30
 70
     0
 40
28.0
 41
0.914285714
 50
0.0
 71
     0
 42
28.0
  3

  4
bigfont
  0
STYLE
  2
KANJI31
 70
     0
 40
24.0
 41
1.0
 50
0.0
 71
     0
 42
24.0
  3

  4
bigfont
  0
STYLE
  2
KANJI32
 70
     0
 40
24.0
 41
0.9
 50
0.0
 71
     0
 42
24.0
  3

  4
bigfont
  0
STYLE
  2
KANJI33
 70
     0
 40
19.2
 41
0.777777778
 50
0.0
 71
     0
 42
19.2
  3

  4
bigfont
  0
STYLE
  2
KANJI34
 70
     0
 40
25.6
 41
0.9
 50
0.0
 71
     0
 42
25.6
  3

  4
bigfont
  0
STYLE
  2
KANJI35
 70
     0
 40
28.0
 41
0.9
 50
0.0
 71
     0
 42
28.0
  3

  4
bigfont
  0
STYLE
  2
KANJI36
 70
     0
 40
24.0
 41
0.8
 50
0.0
 71
     0
 42
24.0
  3

  4
bigfont
  0
STYLE
  2
KANJI37
 70
     0
 40
22.4
 41
0.9
 50
0.0
 71
     0
 42
22.4
  3

  4
bigfont
  0
STYLE
  2
KANJI38
 70
     0
 40
22.4
 41
0.785714286
 50
0.0
 71
     0
 42
22.4
  3

  4
bigfont
  0
STYLE
  2
KANJI39
 70
     0
 40
24.0
 41
0.833333333
 50
0.0
 71
     0
 42
24.0
  3

  4
bigfont
  0
STYLE
  2
KANJI40
 70
     0
 40
28.0
 41
0.9
 50
0.0
 71
     0
 42
28.0
  3

  4
bigfont
  0
STYLE
  2
KANJI41
 70
     0
 40
28.0
 41
0.793650794
 50
0.0
 71
     0
 42
28.0
  3

  4
bigfont
  0
STYLE
  2
KANJI42
 70
     0
 40
40.0
 41
0.8
 50
0.0
 71
     0
 42
40.0
  3

  4
bigfont
  0
STYLE
  2
KANJI43
 70
     0
 40
24.0
 41
0.833333333
 50
0.0
 71
     0
 42
24.0
  3

  4
bigfont
  0
STYLE
  2
KANJI44
 70
     0
 40
28.8
 41
0.9
 50
0.0
 71
     0
 42
28.8
  3

  4
bigfont
  0
STYLE
  2
KANJI45
 70
     0
 40
36.0
 41
0.888888889
 50
0.0
 71
     0
 42
36.0
  3

  4
bigfont
  0
STYLE
  2
KANJI46
 70
     0
 40
14.4
 41
0.833333333
 50
0.0
 71
     0
 42
14.4
  3

  4
bigfont
  0
STYLE
  2
KANJI47
 70
     0
 40
28.0
 41
0.857142857
 50
0.0
 71
     0
 42
28.0
  3

  4
bigfont
  0
STYLE
  2
KANJI48
 70
     0
 40
21.6
 41
0.9
 50
0.0
 71
     0
 42
21.6
  3

  4
bigfont
  0
STYLE
  2
KANJI49
 70
     0
 40
21.6
 41
0.9
 50
0.0
 71
     0
 42
21.6
  3

  4
bigfont
  0
STYLE
  2
KANJI50
 70
     0
 40
30.4
 41
0.9
 50
0.0
 71
     0
 42
30.4
  3

  4
bigfont
  0
STYLE
  2
KANJI51
 70
     0
 40
32.0
 41
0.925
 50
0.0
 71
     0
 42
32.0
  3

  4
bigfont
  0
STYLE
  2
KANJI52
 70
     0
 40
32.0
 41
0.925
 50
0.0
 71
     0
 42
32.0
  3

  4
bigfont
  0
STYLE
  2
KANJI53
 70
     0
 40
28.0
 41
0.571428571
 50
0.0
 71
     0
 42
28.0
  3

  4
bigfont
  0
ENDTAB
  0
TABLE
  2
VIEW
 70
     0
  0
ENDTAB
  0
ENDSEC
  0
SECTION
  2
BLOCKS
  0
ENDSEC
  0
SECTION
  2
ENTITIES
  0
LINE
  8
0
  6
CONTINUOUS
 62
     4
 10
3201.985251001
 20
-54.52
 11
2409.985251001
 21
-54.52
  0
LINE
  8
0
  6
CONTINUOUS
 62
     4
 10
3201.985251001
 20
-134.52
 11
2409.985251001
 21
-134.52
  0
TEXT
  8
0
  6
CONTINUOUS
 62
     4
 10
129.985245955
 20
137.47999159
 30
1.599999664
 40
15.999996636
  1
ＰＡＲＴＳ　ＬＩＳＴ
 50
0.0
 41
0.6
 51
0.0
  7
KANJI0
  0
TEXT
  8
0
  6
CONTINUOUS
 62
     4
 10
489.985170263
 20
137.47999159
 30
1.599999664
 40
15.999996636
  1
Ｎ０．
 50
0.0
 41
0.6
 51
0.0
  7
KANJI0
  0
TEXT
  8
0
  6
CONTINUOUS
 62
     4
 10
129.985245955
 20
113.479996636
 30
1.919999596
 40
19.199995963
  1
部品表
 50
0.0
 41
0.9
 51
0.0
  7
KANJI1
  0
TEXT
  8
0
  6
CONTINUOUS
 62
     4
 10
489.985170263
 20
113.479996636
 30
1.919999596
 40
19.199995963
  1
項番
 50
0.0
 41
0.9
 51
0.0
  7
KANJI1
  0
TEXT
  8
0
  6
CONTINUOUS
 62
     4
 10
2141.185332601
 20
246.5466552
 30
1.38666656
 40
13.8666656
  1
ＤＲＡＷＮ
 50
0.0
 41
0.6
 51
0.0
  7
KANJI2
  0
TEXT
  8
0
  6
CONTINUOUS
 62
     4
 10
2141.185332601
 20
302.0133176
 30
1.38666656
 40
13.8666656
  1
ＤＥＳＩＧＮ
 50
0.0
 41
0.6
 51
0.0
  7
KANJI2
  0
TEXT
  8
0
  6
CONTINUOUS
 62
     4
 10
2141.185332601
 20
357.47998
 30
1.38666656
 40
13.8666656
  1
ＣＨＥＣＫ
 50
0.0
 41
0.6
 51
0.0
  7
KANJI2
  0
TEXT
  8
0
  6
CONTINUOUS
 62
     4
 10
2141.185332601
 20
412.9466424
 30
1.38666656
 40
13.8666656
  1
ＣＯＤＥ
 50
0.0
 41
0.6
 51
0.0
  7
KANJI2
  0
LINE
  8
0
  6
CONTINUOUS
 62
     4
 10
2127.318667001
 20
326.2799824
 11
2380.385314201
 21
326.2799824
  0
LINE
  8
0
  6
CONTINUOUS
 62
     4
 10
2127.318667001
 20
270.81332
 11
2380.385314201
 21
270.81332
  0
LINE
  8
0
  6
CONTINUOUS
 62
     4
 10
2127.318667001
 20
381.7466448
 11
2380.385314201
 21
381.7466448
  0
LINE
  8
0
  6
CONTINUOUS
 62
     4
 10
2127.318667001
 20
437.2133072
 11
3195.051918201
 21
437.2133072
  0
TEXT
  8
0
  6
CONTINUOUS
 62
     4
 10
2141.185332601
 20
281.2133192
 30
1.663999872
 40
16.63999872
  1
設計
 50
0.0
 41
0.6
 51
0.0
  7
KANJI3
  0
TEXT
  8
0
  6
CONTINUOUS
 62
     4
 10
2141.185332601
 20
336.6799816
 30
1.663999872
 40
16.63999872
  1
検図
 50
0.0
 41
0.6
 51
0.0
  7
KANJI3
  0
TEXT
  8
0
  6
CONTINUOUS
 62
     4
 10
2141.185332601
 20
392.146644
 30
1.663999872
 40
16.63999872
  1
分類
 50
0.0
 41
0.6
 51
0.0
  7
KANJI3
  0
LINE
  8
0
  6
CONTINUOUS
 62
     4
 10
2400.838645961
 20
381.7466448
 11
3195.051918201
 21
381.7466448
  0
LINE
  8
0
  6
CONTINUOUS
 62
     4
 10
2380.385314201
 20
270.81332
 11
3195.051918201
 21
270.81332
  0
TEXT
  8
0
  6
CONTINUOUS
 62
     4
 10
2394.251979801
 20
246.5466552
 30
1.38666656
 40
13.8666656
  1
ＤＲＡＷＩＮＧ　ＮＯ．
 50
0.0
 41
0.8
 51
0.0
  7
KANJI4
  0
TEXT
  8
0
  6
CONTINUOUS
 62
     4
 10
2394.251979801
 20
302.0133176
 30
1.38666656
 40
13.8666656
  1
ＭＦＧ　ＮＯ．
 50
0.0
 41
0.8
 51
0.0
  7
KANJI4
  0
TEXT
  8
0
  6
CONTINUOUS
 62
     4
 10
2394.251979801
 20
357.47998
 30
1.38666656
 40
13.8666656
  1
ＴＹＰＥ
 50
0.0
 41
0.8
 51
0.0
  7
KANJI4
  0
LINE
  8
0
  6
CONTINUOUS
 62
     4
 10
2401.185312601
 20
326.2799824
 11
2720.118621401
 21
326.2799824
  0
TEXT
  8
0
  6
CONTINUOUS
 62
     4
 10
2394.251979801
 20
222.2799904
 30
1.663999872
 40
16.63999872
  1
図　面　番　号
 50
0.0
 41
0.8
 51
0.0
  7
KANJI5
  0
TEXT
  8
0
  6
CONTINUOUS
 62
     4
 10
2394.251979801
 20
277.7466528
 30
1.663999872
 40
16.63999872
  1
製番
 50
0.0
 41
0.8
 51
0.0
  7
KANJI5
  0
TEXT
  8
0
  6
CONTINUOUS
 62
     4
 10
2394.251979801
 20
333.2133152
 30
1.663999872
 40
16.63999872
  1
機種
 50
0.0
 41
0.8
 51
0.0
  7
KANJI5
  0
LINE
  8
0
  6
CONTINUOUS
 62
     4
 10
2127.318667001
 20
159.8799952
 11
2380.385314201
 21
159.8799952
  0
LINE
  8
0
  6
CONTINUOUS
 62
     4
 10
2127.318667001
 20
215.3466576
 11
2380.385314201
 21
215.3466576
  0
TEXT
  8
0
  6
CONTINUOUS
 62
     4
 10
2141.185332601
 20
135.6133304
 30
1.38666656
 40
13.8666656
  1
ＳＣＡＬＥ
 50
0.0
 41
0.6
 51
0.0
  7
KANJI2
  0
TEXT
  8
0
  6
CONTINUOUS
 62
     4
 10
2141.185332601
 20
191.0799928
 30
1.38666656
 40
13.8666656
  1
ＤＡＴＥ
 50
0.0
 41
0.6
 51
0.0
  7
KANJI2
  0
TEXT
  8
0
  6
CONTINUOUS
 62
     4
 10
2141.185332601
 20
114.813332
 30
1.663999872
 40
16.63999872
  1
尺度
 50
0.0
 41
0.6
 51
0.0
  7
KANJI3
  0
TEXT
  8
0
  6
CONTINUOUS
 62
     4
 10
2141.185332601
 20
170.2799944
 30
1.663999872
 40
16.63999872
  1
日付
 50
0.0
 41
0.6
 51
0.0
  7
KANJI3
  0
TEXT
  8
0
  6
CONTINUOUS
 62
     4
 10
2141.185332601
 20
225.7466568
 30
1.663999872
 40
16.63999872
  1
作図
 50
0.0
 41
0.6
 51
0.0
  7
KANJI3
  0
LINE
  8
0
  6
CONTINUOUS
 62
     4
 10
1735.585363801
 20
104.4133328
 11
1735.585363801
 21
159.8799952
  0
LINE
  8
0
  6
CONTINUOUS
 62
     4
 10
1797.985359001
 20
104.4133328
 11
1797.985359001
 21
159.8799952
  0
TEXT
  8
0
  6
CONTINUOUS
 62
     4
 10
1756.385362201
 20
135.6133304
 30
1.38666656
 40
13.8666656
  1
ＢＹ
 50
0.0
 41
0.6
 51
0.0
  7
KANJI2
  0
TEXT
  8
0
  6
CONTINUOUS
 62
     4
 10
1908.918683801
 20
135.6133304
 30
1.38666656
 40
13.8666656
  1
ＤＥＳＣＲＩＰＴＩＯＮ
 50
0.0
 41
0.6
 51
0.0
  7
KANJI2
  0
TEXT
  8
0
  6
CONTINUOUS
 62
     4
 10
1756.385362201
 20
114.813332
 30
1.663999872
 40
16.63999872
  1
担当
 50
0.0
 41
0.6
 51
0.0
  7
KANJI3
  0
TEXT
  8
0
  6
CONTINUOUS
 62
     4
 10
1929.718682201
 20
114.813332
 30
1.663999872
 40
16.63999872
  1
記　　　　事
 50
0.0
 41
0.6
 51
0.0
  7
KANJI3
  0
LINE
  8
0
  6
CONTINUOUS
 62
     4
 10
1609.052040201
 20
149.479996
 11
1586.518708601
 21
114.813332
  0
TEXT
  8
0
  6
CONTINUOUS
 62
     4
 10
1666.252035801
 20
135.6133304
 30
1.38666656
 40
13.8666656
  1
ＤＡＴＥ
 50
0.0
 41
0.6
 51
0.0
  7
KANJI2
  0
TEXT
  8
0
  6
CONTINUOUS
 62
     4
 10
1676.652035001
 20
114.813332
 30
1.663999872
 40
16.63999872
  1
日付
 50
0.0
 41
0.6
 51
0.0
  7
KANJI3
  0
LINE
  8
0
  6
CONTINUOUS
 62
     4
 10
1586.518708601
 20
114.813332
 11
1631.585371801
 21
114.813332
  0
LINE
  8
0
  6
CONTINUOUS
 62
     4
 10
1638.518704601
 20
104.4133328
 11
1638.518704601
 21
159.8799952
  0
LINE
  8
0
  6
CONTINUOUS
 62
     4
 10
1609.052040201
 20
149.479996
 11
1631.585371801
 21
114.813332
  0
LINE
  8
0
  6
CONTINUOUS
 62
     4
 10
2380.385314201
 20
191.0799928
 11
3195.051918201
 21
191.0799928
  0
LINE
  8
0
  6
LTYPE1
 62
     4
 10
2962.785269401
 20
201.479992
 11
2962.785269401
 21
256.9466544
  0
LINE
  8
0
  6
LTYPE1
 62
     4
 10
2914.251939801
 20
201.479992
 11
2914.251939801
 21
256.9466544
  0
LINE
  8
0
  6
LTYPE1
 62
     4
 10
2865.718610201
 20
201.479992
 11
2865.718610201
 21
256.9466544
  0
LINE
  8
0
  6
LTYPE1
 62
     4
 10
2817.185280601
 20
201.479992
 11
2817.185280601
 21
256.9466544
  0
LINE
  8
0
  6
LTYPE1
 62
     4
 10
2768.651951001
 20
201.479992
 11
2768.651951001
 21
256.9466544
  0
LINE
  8
0
  6
LTYPE1
 62
     4
 10
2720.118621401
 20
201.479992
 11
2720.118621401
 21
256.9466544
  0
LINE
  8
0
  6
LTYPE1
 62
     4
 10
2671.585291801
 20
201.479992
 11
2671.585291801
 21
256.9466544
  0
LINE
  8
0
  6
LTYPE1
 62
     4
 10
2623.051962201
 20
201.479992
 11
2623.051962201
 21
256.9466544
  0
LINE
  8
0
  6
LTYPE1
 62
     4
 10
2623.051962201
 20
256.9466544
 11
2962.785269401
 21
256.9466544
  0
LINE
  8
0
  6
LTYPE1
 62
     4
 10
2623.051962201
 20
201.479992
 11
2962.785269401
 21
201.479992
  0
LINE
  8
0
  6
CONTINUOUS
 62
     4
 10
3077.185260601
 20
210.146658
 11
3028.651931001
 21
210.146658
  0
LINE
  8
0
  6
CONTINUOUS
 62
     4
 10
3028.651931001
 20
210.146658
 11
3052.918595801
 21
251.7466548
  0
LINE
  8
0
  6
CONTINUOUS
 62
     4
 10
3052.918595801
 20
251.7466548
 11
3077.185260601
 21
210.146658
  0
TEXT
  8
0
  6
CONTINUOUS
 62
     4
 10
3084.118593401
 20
28.146672
 30
6.9333328
 40
69.333328
  1
／
 50
0.0
 41
0.9
 51
0.0
  7
KANJI6
  0
TEXT
  8
0
  6
CONTINUOUS
 62
     4
 10
2740.918619801
 20
357.47998
 30
1.38666656
 40
13.8666656
  1
ＴＩＴＬＥ
 50
0.0
 41
0.8
 51
0.0
  7
KANJI4
  0
TEXT
  8
0
  6
CONTINUOUS
 62
     4
 10
2740.918619801
 20
333.2133152
 30
1.663999872
 40
16.63999872
  1
名称
 50
0.0
 41
0.8
 51
0.0
  7
KANJI5
  0
LINE
  8
0
  6
CONTINUOUS
 62
     6
 10
105.985251001
 20
97.48
 11
105.985251001
 21
2249.48
  0
LINE
  8
0
  6
CONTINUOUS
 62
     6
 10
105.985251001
 20
2249.48
 11
3201.985251001
 21
2249.48
  0
LINE
  8
0
  6
CONTINUOUS
 62
     6
 10
3201.985251001
 20
2249.48
 11
3201.985251001
 21
97.48
  0
LINE
  8
0
  6
CONTINUOUS
 62
     6
 10
3201.985251001
 20
97.48
 11
105.985251001
 21
97.48
  0
LINE
  8
0
  6
CONTINUOUS
 62
     6
 10
633.985139986
 20
105.479998318
 11
633.985139986
 21
217.479974769
  0
LINE
  8
0
  6
CONTINUOUS
 62
     6
 10
113.985249319
 20
217.479974769
 11
633.985139986
 21
217.479974769
  0
LINE
  8
0
  6
CONTINUOUS
 62
     6
 10
113.985249319
 20
105.479998318
 11
633.985139986
 21
105.479998318
  0
LINE
  8
0
  6
CONTINUOUS
 62
     6
 10
113.985249319
 20
105.479998318
 11
113.985249319
 21
217.479974769
  0
LINE
  8
0
  6
CONTINUOUS
 62
     6
 10
473.985173627
 20
105.479998318
 11
473.985173627
 21
217.479974769
  0
LINE
  8
0
  6
CONTINUOUS
 62
     6
 10
113.985249319
 20
161.479986544
 11
633.985139986
 21
161.479986544
  0
TEXT
  8
0
  6
CONTINUOUS
 62
     3
 10
129.985245955
 20
177.479983179
 30
2.399999495
 40
23.999994954
  1
ＰＬ
 50
0.0
 41
0.9
 51
0.0
  7
KANJI7
  0
LINE
  8
0
  6
CONTINUOUS
 62
     6
 10
1579.585375801
 20
104.4133328
 11
1579.585375801
 21
159.8799952
  0
LINE
  8
0
  6
CONTINUOUS
 62
     6
 10
1579.585375801
 20
159.8799952
 11
2127.318667001
 21
159.8799952
  0
LINE
  8
0
  6
CONTINUOUS
 62
     6
 10
1579.585375801
 20
104.4133328
 11
3195.051918201
 21
104.4133328
  0
TEXT
  8
0
  6
CONTINUOUS
 62
     6
 10
2387.318647001
 20
135.6133304
 30
0.0
 40
24.2666648
  1
ＵＮＩＴＥＣ　ＩＮＤＵＳＴＲＹ　ＣＯ．，ＬＴＤ．
 50
0.0
 41
0.42031746
 51
0.0
  7
KANJI8
  0
TEXT
  8
0
  6
CONTINUOUS
 62
     6
 10
2727.658620821
 20
126.59999776
 30
4.15999968
 40
41.5999968
  1
ユニテック工業株式会社
 50
0.0
 41
0.9
 51
0.0
  7
KANJI9
  0
LINE
  8
0
  6
CONTINUOUS
 62
     4
 10
2990.518600601
 20
230.9466564
 11
3004.385266201
 21
230.9466564
  0
TEXT
  8
0
  6
CONTINUOUS
 62
     2
 10
2865.985251001
 20
281.48
 30
20.0
 40
40.0
  1
外形寸法図
 50
0.0
 41
1.0
 51
0.0
  7
KANJI10
  0
TEXT
  8
0
  6
CONTINUOUS
 62
     2
 10
2817.985251001
 20
329.48
 30
5.714285714
 40
40.0
  1
マイティシリンダ
 50
0.0
 41
1.0
 51
0.0
  7
KANJI11
  0
TEXT
  8
0
  6
CONTINUOUS
 62
     3
 10
2216.651962201
 20
229.479992
 30
24.0
 40
28.0
  1
岡田
 50
0.0
 41
0.857142857
 51
0.0
  7
KANJI12
  0
LINE
  8
0
  6
CONTINUOUS
 62
     4
 10
14.918583801
 20
103.4133328
 11
98.118577401
 21
103.4133328
  0
LINE
  8
0
  6
CONTINUOUS
 62
     4
 10
14.918583801
 20
145.0133296
 11
98.118577401
 21
145.0133296
  0
LINE
  8
0
  6
CONTINUOUS
 62
     4
 10
14.918583801
 20
186.6133264
 11
98.118577401
 21
186.6133264
  0
LINE
  8
0
  6
CONTINUOUS
 62
     4
 10
14.918583801
 20
228.2133232
 11
98.118577401
 21
228.2133232
  0
LINE
  8
0
  6
CONTINUOUS
 62
     4
 10
14.918583801
 20
269.81332
 11
98.118577401
 21
269.81332
  0
LINE
  8
0
  6
CONTINUOUS
 62
     4
 10
14.918583801
 20
311.4133168
 11
98.118577401
 21
311.4133168
  0
LINE
  8
0
  6
CONTINUOUS
 62
     4
 10
14.918583801
 20
353.0133136
 11
98.118577401
 21
353.0133136
  0
LINE
  8
0
  6
CONTINUOUS
 62
     4
 10
14.918583801
 20
394.6133104
 11
98.118577401
 21
394.6133104
  0
LINE
  8
0
  6
CONTINUOUS
 62
     4
 10
14.918583801
 20
436.2133072
 11
98.118577401
 21
436.2133072
  0
LINE
  8
0
  6
CONTINUOUS
 62
     4
 10
14.918583801
 20
477.813304
 11
98.118577401
 21
477.813304
  0
LINE
  8
0
  6
CONTINUOUS
 62
     4
 10
98.118577401
 20
103.4133328
 11
98.118577401
 21
477.813304
  0
LINE
  8
0
  6
CONTINUOUS
 62
     4
 10
56.518580601
 20
103.4133328
 11
56.518580601
 21
436.2133072
  0
TEXT
  8
0
  6
CONTINUOUS
 62
     4
 10
29.131916041
 20
115.5466652
 30
2.07999984
 40
20.7999984
  1
計
 50
0.0
 41
0.75
 51
0.0
  7
KANJI13
  0
TEXT
  8
0
  6
CONTINUOUS
 62
     4
 10
29.131916041
 20
199.43999208
 30
2.07999984
 40
20.7999984
  1
設
 50
0.0
 41
0.75
 51
0.0
  7
KANJI13
  0
TEXT
  8
0
  6
CONTINUOUS
 62
     4
 10
29.131916041
 20
240.3466556
 30
2.07999984
 40
20.7999984
  1
管
 50
0.0
 41
0.75
 51
0.0
  7
KANJI13
  0
TEXT
  8
0
  6
CONTINUOUS
 62
     4
 10
29.131916041
 20
281.9466524
 30
2.07999984
 40
20.7999984
  1
製
 50
0.0
 41
0.75
 51
0.0
  7
KANJI13
  0
TEXT
  8
0
  6
CONTINUOUS
 62
     4
 10
29.131916041
 20
323.5466492
 30
2.07999984
 40
20.7999984
  1
資
 50
0.0
 41
0.75
 51
0.0
  7
KANJI13
  0
TEXT
  8
0
  6
CONTINUOUS
 62
     4
 10
29.131916041
 20
365.146646
 30
2.07999984
 40
20.7999984
  1
営
 50
0.0
 41
0.75
 51
0.0
  7
KANJI13
  0
TEXT
  8
0
  6
CONTINUOUS
 62
     4
 10
29.131916041
 20
406.7466428
 30
2.07999984
 40
20.7999984
  1
客
 50
0.0
 41
0.75
 51
0.0
  7
KANJI13
  0
TEXT
  8
0
  6
CONTINUOUS
 62
     4
 10
28.785249401
 20
450.0799728
 30
2.07999984
 40
20.7999984
  1
出　図
 50
0.0
 41
0.75
 51
0.0
  7
KANJI13
  0
LINE
  8
0
  6
CONTINUOUS
 62
     4
 10
14.918583801
 20
103.4133328
 11
14.918583801
 21
477.813304
  0
LINE
  8
0
  6
CONTINUOUS
 62
     6
 10
2128.318667001
 20
492.6799696
 11
3196.051918201
 21
492.6799696
  0
LINE
  8
0
  6
CONTINUOUS
 62
     6
 10
3195.051918201
 20
104.4133328
 11
3195.051918201
 21
548.146632
  0
LINE
  8
0
  6
CONTINUOUS
 62
     6
 10
2127.318667001
 20
548.146632
 11
3195.051918201
 21
548.146632
  0
LINE
  8
0
  6
CONTINUOUS
 62
     6
 10
2127.318667001
 20
104.4133328
 11
2127.318667001
 21
548.146632
  0
TEXT
  8
0
  6
CONTINUOUS
 62
     3
 10
2249.585251001
 20
113.48
 30
2.4
 40
36.0
  1
１／８
 50
0.0
 41
0.666666667
 51
0.0
  7
KANJI14
  0
LINE
  8
0
  6
CONTINUOUS
 62
     1
 10
2500.8
 20
2054.0
 11
2500.8
 21
1078.0
  0
TEXT
  8
0
  6
CONTINUOUS
 62
     2
 10
2600.8
 20
1995.6
 30
22.79952
 40
36.0
  1
マイティシリンダ仕様
 50
0.0
 41
0.9
 51
0.0
  7
KANJI15
  0
LINE
  8
0
  6
CONTINUOUS
 62
     2
 10
2500.8
 20
1190.0
 11
3200.8
 21
1190.0
  0
LINE
  8
0
  6
CONTINUOUS
 62
     2
 10
2500.8
 20
1638.0
 11
3200.8
 21
1638.0
  0
LINE
  8
0
  6
CONTINUOUS
 62
     2
 10
2500.8
 20
1582.0
 11
3200.8
 21
1582.0
  0
LINE
  8
0
  6
CONTINUOUS
 62
     2
 10
2500.8
 20
1526.0
 11
3200.8
 21
1526.0
  0
LINE
  8
0
  6
CONTINUOUS
 62
     2
 10
2500.8
 20
1918.0
 11
3200.8
 21
1918.0
  0
LINE
  8
0
  6
CONTINUOUS
 62
     2
 10
2500.8
 20
1862.0
 11
3200.8
 21
1862.0
  0
LINE
  8
0
  6
CONTINUOUS
 62
     2
 10
2500.8
 20
1806.0
 11
3200.8
 21
1806.0
  0
LINE
  8
0
  6
CONTINUOUS
 62
     2
 10
2500.8
 20
1750.0
 11
3200.8
 21
1750.0
  0
LINE
  8
0
  6
CONTINUOUS
 62
     2
 10
2500.8
 20
1694.0
 11
3200.8
 21
1694.0
  0
LINE
  8
0
  6
CONTINUOUS
 62
     2
 10
2500.8
 20
1974.0
 11
3200.8
 21
1974.0
  0
TEXT
  8
0
  6
CONTINUOUS
 62
     2
 10
2560.8
 20
1932.4
 30
240.594285714
 40
30.4
  1
形式
 50
0.0
 41
0.9
 51
0.0
  7
KANJI16
  0
TEXT
  8
0
  6
CONTINUOUS
 62
     2
 10
2560.8
 20
1876.4
 30
240.594285714
 40
30.4
  1
推力
 50
0.0
 41
0.9
 51
0.0
  7
KANJI16
  0
TEXT
  8
0
  6
CONTINUOUS
 62
     2
 10
2560.8
 20
1764.4
 30
61.957805714
 40
30.4
  1
公称速度
 50
0.0
 41
0.9
 51
0.0
  7
KANJI17
  0
TEXT
  8
0
  6
CONTINUOUS
 62
     2
 10
3151.6
 20
1823.6
 30
0.1792
 40
22.4
  1
ｍｍ
 50
0.0
 41
0.8
 51
0.0
  7
KANJI18
  0
TEXT
  8
0
  6
CONTINUOUS
 62
     2
 10
3091.6
 20
1770.0
 30
0.1792
 40
22.4
  1
ｍｍ／ｓｅｃ
 50
0.0
 41
0.8
 51
0.0
  7
KANJI18
  0
LINE
  8
0
  6
CONTINUOUS
 62
     2
 10
2500.8
 20
1470.0
 11
3200.8
 21
1470.0
  0
LINE
  8
0
  6
CONTINUOUS
 62
     2
 10
2500.8
 20
1414.0
 11
3200.8
 21
1414.0
  0
LINE
  8
0
  6
CONTINUOUS
 62
     2
 10
2500.8
 20
1358.0
 11
3200.8
 21
1358.0
  0
LINE
  8
0
  6
CONTINUOUS
 62
     2
 10
2500.8
 20
1302.0
 11
3200.8
 21
1302.0
  0
LINE
  8
0
  6
CONTINUOUS
 62
     2
 10
2500.8
 20
1246.0
 11
3200.8
 21
1246.0
  0
TEXT
  8
0
  6
CONTINUOUS
 62
     2
 10
2536.8
 20
1484.4
 30
2.605714286
 40
30.4
  1
ピストンロッド回転トルク
 50
0.0
 41
0.9
 51
0.0
  7
KANJI19
  0
TEXT
  8
0
  6
CONTINUOUS
 62
     2
 10
2560.8
 20
1428.4
 30
240.594285714
 40
30.4
  1
構造
 50
0.0
 41
0.9
 51
0.0
  7
KANJI16
  0
TEXT
  8
0
  6
CONTINUOUS
 62
     2
 10
2560.8
 20
1708.4
 30
106.617142857
 40
30.4
  1
減速比
 50
0.0
 41
0.9
 51
0.0
  7
KANJI20
  0
TEXT
  8
0
  6
CONTINUOUS
 62
     2
 10
2560.8
 20
1652.4
 30
6.8
 40
30.4
  1
進み量／入力１回転
 50
0.0
 41
0.9
 51
0.0
  7
KANJI21
  0
TEXT
  8
0
  6
CONTINUOUS
 62
     2
 10
2560.8
 20
1595.6
 30
240.594285714
 40
30.4
  1
効率
 50
0.0
 41
0.9
 51
0.0
  7
KANJI16
  0
TEXT
  8
0
  6
CONTINUOUS
 62
     2
 10
2560.8
 20
1541.2
 30
11.6
 40
30.4
  1
使用時入力トルク
 50
0.0
 41
0.9
 51
0.0
  7
KANJI22
  0
TEXT
  8
0
  6
CONTINUOUS
 62
     2
 10
2560.8
 20
1372.4
 30
61.96
 40
30.4
  1
ギヤ方式
 50
0.0
 41
0.9
 51
0.0
  7
KANJI23
  0
LINE
  8
0
  6
CONTINUOUS
 62
     2
 10
2500.8
 20
1134.0
 11
3200.8
 21
1134.0
  0
LINE
  8
0
  6
CONTINUOUS
 62
     2
 10
2900.8
 20
1974.0
 11
2900.8
 21
1078.0
  0
TEXT
  8
0
  6
CONTINUOUS
 62
     2
 10
2560.8
 20
1204.4
 30
106.617142857
 40
30.4
  1
塗装色
 50
0.0
 41
0.9
 51
0.0
  7
KANJI20
  0
TEXT
  8
0
  6
CONTINUOUS
 62
     2
 10
2560.8
 20
1148.4
 30
106.617142857
 40
30.4
  1
付属品
 50
0.0
 41
0.9
 51
0.0
  7
KANJI20
  0
TEXT
  8
0
  6
CONTINUOUS
 62
     2
 10
2560.8
 20
1092.4
 30
240.594285714
 40
30.4
  1
台数
 50
0.0
 41
0.9
 51
0.0
  7
KANJI16
  0
TEXT
  8
0
  6
CONTINUOUS
 62
     2
 10
2560.8
 20
1260.4
 30
240.594285714
 40
30.4
  1
潤滑
 50
0.0
 41
0.9
 51
0.0
  7
KANJI16
  0
TEXT
  8
0
  6
CONTINUOUS
 62
     2
 10
2560.8
 20
1316.4
 30
17.4136
 40
30.4
  1
スクリュー方式
 50
0.0
 41
0.9
 51
0.0
  7
KANJI24
  0
TEXT
  8
0
  6
CONTINUOUS
 62
     2
 10
3013.6
 20
1709.2
 30
2.4
 40
24.0
  1
２　：　１
 50
0.0
 41
0.9
 51
0.0
  7
KANJI25
  0
TEXT
  8
0
  6
CONTINUOUS
 62
     2
 10
3151.6
 20
1655.6
 30
0.1792
 40
22.4
  1
ｍｍ
 50
0.0
 41
0.8
 51
0.0
  7
KANJI18
  0
TEXT
  8
0
  6
CONTINUOUS
 62
     2
 10
2924.0
 20
1598.0
 30
16.0
 40
24.0
  1
約
 50
0.0
 41
0.9
 51
0.0
  7
KANJI26
  0
TEXT
  8
0
  6
CONTINUOUS
 62
     2
 10
2924.0
 20
1486.0
 30
16.0
 40
24.0
  1
約
 50
0.0
 41
0.9
 51
0.0
  7
KANJI26
  0
TEXT
  8
0
  6
CONTINUOUS
 62
     2
 10
3160.8
 20
1597.2
 30
16.0
 40
24.0
  1
％
 50
0.0
 41
0.9
 51
0.0
  7
KANJI26
  0
TEXT
  8
0
  6
CONTINUOUS
 62
     2
 10
2960.0
 20
1376.4
 30
16.0
 40
24.0
  1
ベベルギヤ
 50
0.0
 41
0.9
 51
0.0
  7
KANJI26
  0
TEXT
  8
0
  6
CONTINUOUS
 62
     2
 10
2960.0
 20
1318.8
 30
16.0
 40
24.0
  1
ボールネジ
 50
0.0
 41
0.9
 51
0.0
  7
KANJI26
  0
TEXT
  8
0
  6
CONTINUOUS
 62
     2
 10
2959.2
 20
1262.8
 30
16.0
 40
24.0
  1
グリース方式
 50
0.0
 41
0.9
 51
0.0
  7
KANJI26
  0
TEXT
  8
0
  6
CONTINUOUS
 62
     2
 10
3042.4
 20
1598.0
 30
16.0
 40
24.0
  1
８５
 50
0.0
 41
0.9
 51
0.0
  7
KANJI26
  0
TEXT
  8
0
  6
CONTINUOUS
 62
     2
 10
2928.6
 20
1764.2
 30
2.4
 40
24.0
  1
ｍａｘ．１５０
 50
0.0
 41
0.9
 51
0.0
  7
KANJI25
  0
LINE
  8
0
  6
CONTINUOUS
 62
     1
 10
2500.8
 20
2054.0
 11
3200.8
 21
2054.0
  0
LINE
  8
0
  6
CONTINUOUS
 62
     1
 10
3200.8
 20
2054.0
 11
3200.8
 21
1078.0
  0
LINE
  8
0
  6
CONTINUOUS
 62
     1
 10
2500.8
 20
1078.0
 11
3200.8
 21
1078.0
  0
TEXT
  8
0
  6
CONTINUOUS
 62
     2
 10
2910.154
 20
1876.4
 30
2.4
 40
24.0
  1
１９６ＫＮ（２０ｔｏｎ）
 50
0.0
 41
0.9
 51
0.0
  7
KANJI25
  0
TEXT
  8
0
  6
CONTINUOUS
 62
     2
 10
2994.093
 20
1151.63
 30
2.4
 40
24.0
  1
入力キー
 50
0.0
 41
0.9
 51
0.0
  7
KANJI25
  0
LINE
  8
0
  6
CONTINUOUS
 62
     4
 10
2380.385314201
 20
104.4133328
 11
2380.385314201
 21
548.146632
  0
TEXT
  8
0
  6
CONTINUOUS
 62
     4
 10
2151.985251001
 20
500.9466624
 30
8.0
 40
32.0
  1
ご用途
 50
0.0
 41
1.0
 51
0.0
  7
KANJI27
  0
TEXT
  8
0
  6
CONTINUOUS
 62
     4
 10
2151.985251001
 20
445.48
 30
8.0
 40
32.0
  1
ご注文主
 50
0.0
 41
1.0
 51
0.0
  7
KANJI27
  0
LINE
  8
0
  6
CONTINUOUS
 62
     6
 10
2672.553566737
 20
142.127997312
 11
2654.249568145
 21
142.127997312
  0
LINE
  8
0
  6
CONTINUOUS
 62
     6
 10
2672.553566737
 20
145.455997056
 11
2654.249568145
 21
145.455997056
  0
LINE
  8
0
  6
CONTINUOUS
 62
     6
 10
2672.553566737
 20
142.127997312
 11
2690.857565329
 21
142.127997312
  0
LINE
  8
0
  6
CONTINUOUS
 62
     6
 10
2672.553566737
 20
145.455997056
 11
2690.857565329
 21
145.455997056
  0
LINE
  8
0
  6
CONTINUOUS
 62
     6
 10
2690.857565329
 20
145.455997056
 11
2690.857565329
 21
142.127997312
  0
ARC
  8
0
  6
CONTINUOUS
 62
     6
 10
2695.017565009
 20
143.791997184
 40
16.63999872
 50
185.739170477
 51
90.0
  0
ARC
  8
0
  6
CONTINUOUS
 62
     6
 10
2695.017565009
 20
143.791997184
 40
19.967998464
 50
184.780191847
 51
90.0
  0
LINE
  8
0
  6
CONTINUOUS
 62
     6
 10
2654.249568145
 20
142.127997312
 11
2654.249568145
 21
145.455997056
  0
LINE
  8
0
  6
CONTINUOUS
 62
     6
 10
2670.057566929
 20
163.759995648
 11
2650.089568465
 21
163.759995648
  0
LINE
  8
0
  6
CONTINUOUS
 62
     6
 10
2675.049566545
 20
163.759995648
 11
2695.017565009
 21
163.759995648
  0
ARC
  8
0
  6
CONTINUOUS
 62
     6
 10
2650.089568465
 20
143.791997184
 40
16.63999872
 50
90.0
 51
354.260829523
  0
ARC
  8
0
  6
CONTINUOUS
 62
     6
 10
2650.089568465
 20
143.791997184
 40
19.967998464
 50
90.0
 51
355.219808153
  0
LINE
  8
0
  6
CONTINUOUS
 62
     6
 10
2670.057566929
 20
163.759995648
 11
2670.057566929
 21
160.431995904
  0
LINE
  8
0
  6
CONTINUOUS
 62
     6
 10
2650.089568465
 20
160.431995904
 11
2670.057566929
 21
160.431995904
  0
LINE
  8
0
  6
CONTINUOUS
 62
     6
 10
2675.049566545
 20
163.759995648
 11
2675.049566545
 21
160.431995904
  0
LINE
  8
0
  6
CONTINUOUS
 62
     6
 10
2695.017565009
 20
160.431995904
 11
2675.049566545
 21
160.431995904
  0
LINE
  8
0
  6
LTYPE2
 62
     2
 10
1815.2
 20
1413.9
 11
1815.2
 21
1249.8
  0
LINE
  8
0
  6
CONTINUOUS
 62
     1
 10
516.6
 20
1199.9
 11
516.6
 21
1499.9
  0
LINE
  8
0
  6
CONTINUOUS
 62
     1
 10
516.6
 20
1209.9
 11
541.6
 21
1209.9
  0
POINT
  8
0
  6
CONTINUOUS
 62
     1
 10
541.6
 20
1241.4
  0
POINT
  8
0
  6
CONTINUOUS
 62
     1
 10
541.6
 20
1213.4
  0
LINE
  8
0
  6
CONTINUOUS
 62
     1
 10
516.6
 20
1489.9
 11
541.6
 21
1489.9
  0
POINT
  8
0
  6
CONTINUOUS
 62
     1
 10
541.6
 20
1458.4
  0
POINT
  8
0
  6
CONTINUOUS
 62
     1
 10
541.6
 20
1486.4
  0
LINE
  8
0
  6
CONTINUOUS
 62
     1
 10
541.6
 20
1209.9
 11
541.6
 21
1489.9
  0
LINE
  8
0
  6
LTYPE2
 62
     2
 10
641.6
 20
1327.9
 11
641.6
 21
1374.9
  0
CIRCLE
  8
0
  6
LTYPE2
 62
     2
 10
641.6
 20
1349.9
 40
5.0
  0
CIRCLE
  8
0
  6
LTYPE2
 62
     2
 10
641.6
 20
1349.9
 40
10.0
  0
LINE
  8
0
  6
CONTINUOUS
 62
     1
 10
331.6
 20
1584.9
 11
441.6
 21
1584.9
  0
LINE
  8
0
  6
CONTINUOUS
 62
     1
 10
441.6
 20
1584.9
 11
441.6
 21
1532.9
  0
LINE
  8
0
  6
CONTINUOUS
 62
     1
 10
331.6
 20
1584.9
 11
331.6
 21
1532.9
  0
LINE
  8
0
  6
CONTINUOUS
 62
     1
 10
302.6
 20
1502.9
 11
302.6
 21
1532.9
  0
LINE
  8
0
  6
CONTINUOUS
 62
     1
 10
470.6
 20
1502.9
 11
470.6
 21
1532.9
  0
LINE
  8
0
  6
CONTINUOUS
 62
     1
 10
302.6
 20
1532.9
 11
470.6
 21
1532.9
  0
LINE
  8
0
  6
CONTINUOUS
 62
     1
 10
299.6
 20
1502.9
 11
473.6
 21
1502.9
  0
ARC
  8
0
  6
CONTINUOUS
 62
     1
 10
386.6
 20
1622.092471126
 40
150.0
 50
234.549457361
 51
305.450542639
  0
LINE
  8
0
  6
CONTINUOUS
 62
     1
 10
299.6
 20
1502.9
 11
299.6
 21
1499.9
  0
LINE
  8
0
  6
CONTINUOUS
 62
     1
 10
473.6
 20
1502.9
 11
473.6
 21
1499.9
  0
LINE
  8
0
  6
CONTINUOUS
 62
     1
 10
331.6
 20
1114.9
 11
441.6
 21
1114.9
  0
LINE
  8
0
  6
CONTINUOUS
 62
     1
 10
441.6
 20
1114.9
 11
441.6
 21
1166.9
  0
LINE
  8
0
  6
CONTINUOUS
 62
     1
 10
331.6
 20
1114.9
 11
331.6
 21
1166.9
  0
LINE
  8
0
  6
CONTINUOUS
 62
     1
 10
302.6
 20
1196.9
 11
302.6
 21
1166.9
  0
LINE
  8
0
  6
CONTINUOUS
 62
     1
 10
470.6
 20
1196.9
 11
470.6
 21
1166.9
  0
LINE
  8
0
  6
CONTINUOUS
 62
     1
 10
302.6
 20
1166.9
 11
470.6
 21
1166.9
  0
LINE
  8
0
  6
CONTINUOUS
 62
     1
 10
299.6
 20
1196.9
 11
473.6
 21
1196.9
  0
ARC
  8
0
  6
CONTINUOUS
 62
     1
 10
386.6
 20
1077.707528874
 40
150.0
 50
54.549457361
 51
125.450542639
  0
LINE
  8
0
  6
CONTINUOUS
 62
     1
 10
299.6
 20
1196.9
 11
299.6
 21
1199.9
  0
LINE
  8
0
  6
CONTINUOUS
 62
     1
 10
473.6
 20
1196.9
 11
473.6
 21
1199.9
  0
LINE
  8
7
  6
CONTINUOUS
 62
     2
 10
290.6
 20
1166.9
 11
193.1
 21
1166.9
  0
LINE
  8
7
  6
CONTINUOUS
 62
     2
 10
205.1
 20
1166.9
 11
210.276380902
 21
1186.218516526
  0
LINE
  8
7
  6
CONTINUOUS
 62
     2
 10
205.1
 20
1166.9
 11
199.923619098
 21
1186.218516526
  0
LINE
  8
7
  6
CONTINUOUS
 62
     2
 10
205.1
 20
1166.9
 11
205.1
 21
1532.9
  0
LINE
  8
7
  6
CONTINUOUS
 62
     2
 10
205.1
 20
1532.9
 11
199.923619098
 21
1513.581483474
  0
LINE
  8
7
  6
CONTINUOUS
 62
     2
 10
205.1
 20
1532.9
 11
210.276380902
 21
1513.581483474
  0
LINE
  8
7
  6
CONTINUOUS
 62
     2
 10
290.6
 20
1532.9
 11
193.1
 21
1532.9
  0
TEXT
  8
7
  6
CONTINUOUS
 62
     2
 10
197.1
 20
1319.1
 30
0.8
 40
24.0
  1
３６６
 50
90.0
 41
0.833333333
 51
0.0
  7
KANJI28
  0
LINE
  8
0
  6
CONTINUOUS
 62
     1
 10
473.6
 20
1499.9
 11
516.6
 21
1499.9
  0
LINE
  8
0
  6
CONTINUOUS
 62
     1
 10
473.6
 20
1199.9
 11
516.6
 21
1199.9
  0
ARC
  8
0
  6
CONTINUOUS
 62
     1
 10
490.35
 20
1349.9
 40
6.25
 50
270.0
 51
90.0
  0
ARC
  8
0
  6
CONTINUOUS
 62
     1
 10
442.85
 20
1349.9
 40
6.25
 50
90.0
 51
270.0
  0
LINE
  8
0
  6
CONTINUOUS
 62
     1
 10
442.85
 20
1356.15
 11
490.35
 21
1356.15
  0
LINE
  8
0
  6
CONTINUOUS
 62
     1
 10
442.85
 20
1343.65
 11
490.35
 21
1343.65
  0
LINE
  8
0
  6
LTYPE2
 62
     2
 10
466.6
 20
1330.5
 11
466.6
 21
1368.0
  0
ARC
  8
0
  6
CONTINUOUS
 62
     1
 10
466.6
 20
1349.9
 40
15.0
 50
204.624318352
 51
270.0
  0
ARC
  8
0
  6
CONTINUOUS
 62
     1
 10
466.6
 20
1349.9
 40
15.0
 50
90.0
 51
155.375681648
  0
ARC
  8
0
  6
CONTINUOUS
 62
     1
 10
466.6
 20
1349.9
 40
15.0
 50
270.0
 51
335.375681648
  0
ARC
  8
0
  6
CONTINUOUS
 62
     1
 10
466.6
 20
1349.9
 40
15.0
 50
24.624318352
 51
90.0
  0
LINE
  8
0
  6
LTYPE2
 62
     2
 10
406.1
 20
1431.4
 11
449.1
 21
1431.4
  0
LINE
  8
0
  6
LTYPE2
 62
     2
 10
426.6
 20
1417.4
 11
426.6
 21
1444.4
  0
LINE
  8
0
  6
LTYPE2
 62
     2
 10
443.6
 20
1411.4
 11
459.6
 21
1411.4
  0
LINE
  8
0
  6
LTYPE2
 62
     2
 10
443.6
 20
1451.4
 11
459.6
 21
1451.4
  0
LINE
  8
0
  6
LTYPE2
 62
     2
 10
451.6
 20
1455.4
 11
451.6
 21
1444.273724357
  0
LINE
  8
0
  6
LTYPE2
 62
     2
 10
451.6
 20
1403.026275643
 11
451.6
 21
1415.9
  0
LINE
  8
0
  6
LTYPE2
 62
     2
 10
409.6
 20
1411.4
 11
393.6
 21
1411.4
  0
LINE
  8
0
  6
LTYPE2
 62
     2
 10
409.6
 20
1451.4
 11
393.6
 21
1451.4
  0
LINE
  8
0
  6
LTYPE2
 62
     2
 10
401.6
 20
1455.4
 11
401.6
 21
1444.273724357
  0
LINE
  8
0
  6
LTYPE2
 62
     2
 10
401.6
 20
1403.026275643
 11
401.6
 21
1415.9
  0
POLYLINE
  8
0
  6
LTYPE1
 62
     2
 66
     1
 70
     1
  0
VERTEX
  8
0
  6
LTYPE1
 62
     2
 10
441.6
 20
1430.9
 42
0.032691223
  0
VERTEX
  8
0
  6
LTYPE1
 62
     2
 10
441.542920471
 20
1431.771557427
 42
0.032158761
  0
VERTEX
  8
0
  6
LTYPE1
 62
     2
 10
441.372116295
 20
1432.636481777
 42
0.031088809
  0
VERTEX
  8
0
  6
LTYPE1
 62
     2
 10
441.088887394
 20
1433.488190451
 42
0.029614446
  0
VERTEX
  8
0
  6
LTYPE1
 62
     2
 10
440.695389312
 20
1434.320201433
 42
0.027893043
  0
VERTEX
  8
0
  6
LTYPE1
 62
     2
 10
440.194616806
 20
1435.126182617
 42
0.026072638
  0
VERTEX
  8
0
  6
LTYPE1
 62
     2
 10
439.590381057
 20
1435.9
 42
0.024271431
  0
VERTEX
  8
0
  6
LTYPE1
 62
     2
 10
438.887280664
 20
1436.635764364
 42
0.022571479
  0
VERTEX
  8
0
  6
LTYPE1
 62
     2
 10
438.090666647
 20
1437.327876097
 42
0.021022052
  0
VERTEX
  8
0
  6
LTYPE1
 62
     2
 10
437.206601718
 20
1437.971067812
 42
0.019647265
  0
VERTEX
  8
0
  6
LTYPE1
 62
     2
 10
436.241814145
 20
1438.560444431
 42
0.018454172
  0
VERTEX
  8
0
  6
LTYPE1
 62
     2
 10
435.203646545
 20
1439.091520443
 42
0.017439538
  0
VERTEX
  8
0
  6
LTYPE1
 62
     2
 10
434.1
 20
1439.560254038
 42
0.016594779
  0
VERTEX
  8
0
  6
LTYPE1
 62
     2
 10
432.939273926
 20
1439.96307787
 42
0.015909269
  0
VERTEX
  8
0
  6
LTYPE1
 62
     2
 10
431.73030215
 20
1440.296926208
 42
0.015372402
  0
VERTEX
  8
0
  6
LTYPE1
 62
     2
 10
430.482285677
 20
1440.559258263
 42
0.014974806
  0
VERTEX
  8
0
  6
LTYPE1
 62
     2
 10
429.204722665
 20
1440.74807753
 42
0.014709015
  0
VERTEX
  8
0
  6
LTYPE1
 62
     2
 10
427.907336141
 20
1440.861946981
 42
0.014569816
  0
VERTEX
  8
0
  6
LTYPE1
 62
     2
 10
426.6
 20
1440.9
 42
0.014554414
  0
VERTEX
  8
0
  6
LTYPE1
 62
     2
 10
425.292663859
 20
1440.861946981
 42
0.014662498
  0
VERTEX
  8
0
  6
LTYPE1
 62
     2
 10
423.995277335
 20
1440.74807753
 42
0.014896245
  0
VERTEX
  8
0
  6
LTYPE1
 62
     2
 10
422.717714323
 20
1440.559258263
 42
0.015260274
  0
VERTEX
  8
0
  6
LTYPE1
 62
     2
 10
421.46969785
 20
1440.296926208
 42
0.015761511
  0
VERTEX
  8
0
  6
LTYPE1
 62
     2
 10
420.260726074
 20
1439.96307787
 42
0.016408899
  0
VERTEX
  8
0
  6
LTYPE1
 62
     2
 10
419.1
 20
1439.560254038
 42
0.017212822
  0
VERTEX
  8
0
  6
LTYPE1
 62
     2
 10
417.996353455
 20
1439.091520443
 42
0.018184057
  0
VERTEX
  8
0
  6
LTYPE1
 62
     2
 10
416.958185855
 20
1438.560444431
 42
0.019331952
  0
VERTEX
  8
0
  6
LTYPE1
 62
     2
 10
415.993398282
 20
1437.971067812
 42
0.020661474
  0
VERTEX
  8
0
  6
LTYPE1
 62
     2
 10
415.109333353
 20
1437.327876097
 42
0.022168703
  0
VERTEX
  8
0
  6
LTYPE1
 62
     2
 10
414.312719336
 20
1436.635764364
 42
0.023834517
  0
VERTEX
  8
0
  6
LTYPE1
 62
     2
 10
413.609618943
 20
1435.9
 42
0.025616715
  0
VERTEX
  8
0
  6
LTYPE1
 62
     2
 10
413.005383194
 20
1435.126182617
 42
0.027442002
  0
VERTEX
  8
0
  6
LTYPE1
 62
     2
 10
412.504610688
 20
1434.320201433
 42
0.029201101
  0
VERTEX
  8
0
  6
LTYPE1
 62
     2
 10
412.111112606
 20
1433.488190451
 42
0.030752107
  0
VERTEX
  8
0
  6
LTYPE1
 62
     2
 10
411.827883705
 20
1432.636481777
 42
0.031937242
  0
VERTEX
  8
0
  6
LTYPE1
 62
     2
 10
411.657079529
 20
1431.771557427
 42
0.032613786
  0
VERTEX
  8
0
  6
LTYPE1
 62
     2
 10
411.6
 20
1430.9
 42
0.032691223
  0
VERTEX
  8
0
  6
LTYPE1
 62
     2
 10
411.657079529
 20
1430.028442573
 42
0.032158761
  0
VERTEX
  8
0
  6
LTYPE1
 62
     2
 10
411.827883705
 20
1429.163518223
 42
0.031088809
  0
VERTEX
  8
0
  6
LTYPE1
 62
     2
 10
412.111112606
 20
1428.311809549
 42
0.029614446
  0
VERTEX
  8
0
  6
LTYPE1
 62
     2
 10
412.504610688
 20
1427.479798567
 42
0.027893043
  0
VERTEX
  8
0
  6
LTYPE1
 62
     2
 10
413.005383194
 20
1426.673817383
 42
0.026072638
  0
VERTEX
  8
0
  6
LTYPE1
 62
     2
 10
413.609618943
 20
1425.9
 42
0.024271431
  0
VERTEX
  8
0
  6
LTYPE1
 62
     2
 10
414.312719336
 20
1425.164235636
 42
0.022571479
  0
VERTEX
  8
0
  6
LTYPE1
 62
     2
 10
415.109333353
 20
1424.472123903
 42
0.021022052
  0
VERTEX
  8
0
  6
LTYPE1
 62
     2
 10
415.993398282
 20
1423.828932188
 42
0.019647265
  0
VERTEX
  8
0
  6
LTYPE1
 62
     2
 10
416.958185855
 20
1423.239555569
 42
0.018454172
  0
VERTEX
  8
0
  6
LTYPE1
 62
     2
 10
417.996353455
 20
1422.708479557
 42
0.017439538
  0
VERTEX
  8
0
  6
LTYPE1
 62
     2
 10
419.1
 20
1422.239745962
 42
0.016594779
  0
VERTEX
  8
0
  6
LTYPE1
 62
     2
 10
420.260726074
 20
1421.83692213
 42
0.015909269
  0
VERTEX
  8
0
  6
LTYPE1
 62
     2
 10
421.46969785
 20
1421.503073792
 42
0.015372402
  0
VERTEX
  8
0
  6
LTYPE1
 62
     2
 10
422.717714323
 20
1421.240741737
 42
0.014974806
  0
VERTEX
  8
0
  6
LTYPE1
 62
     2
 10
423.995277335
 20
1421.05192247
 42
0.014709015
  0
VERTEX
  8
0
  6
LTYPE1
 62
     2
 10
425.292663859
 20
1420.938053019
 42
0.014569816
  0
VERTEX
  8
0
  6
LTYPE1
 62
     2
 10
426.6
 20
1420.9
 42
0.014554414
  0
VERTEX
  8
0
  6
LTYPE1
 62
     2
 10
427.907336141
 20
1420.938053019
 42
0.014662498
  0
VERTEX
  8
0
  6
LTYPE1
 62
     2
 10
429.204722665
 20
1421.05192247
 42
0.014896245
  0
VERTEX
  8
0
  6
LTYPE1
 62
     2
 10
430.482285677
 20
1421.240741737
 42
0.015260274
  0
VERTEX
  8
0
  6
LTYPE1
 62
     2
 10
431.73030215
 20
1421.503073792
 42
0.015761511
  0
VERTEX
  8
0
  6
LTYPE1
 62
     2
 10
432.939273926
 20
1421.83692213
 42
0.016408899
  0
VERTEX
  8
0
  6
LTYPE1
 62
     2
 10
434.1
 20
1422.239745962
 42
0.017212822
  0
VERTEX
  8
0
  6
LTYPE1
 62
     2
 10
435.203646545
 20
1422.708479557
 42
0.018184057
  0
VERTEX
  8
0
  6
LTYPE1
 62
     2
 10
436.241814145
 20
1423.239555569
 42
0.019331952
  0
VERTEX
  8
0
  6
LTYPE1
 62
     2
 10
437.206601718
 20
1423.828932188
 42
0.020661474
  0
VERTEX
  8
0
  6
LTYPE1
 62
     2
 10
438.090666647
 20
1424.472123903
 42
0.022168703
  0
VERTEX
  8
0
  6
LTYPE1
 62
     2
 10
438.887280664
 20
1425.164235636
 42
0.023834517
  0
VERTEX
  8
0
  6
LTYPE1
 62
     2
 10
439.590381057
 20
1425.9
 42
0.025616715
  0
VERTEX
  8
0
  6
LTYPE1
 62
     2
 10
440.194616806
 20
1426.673817383
 42
0.027442002
  0
VERTEX
  8
0
  6
LTYPE1
 62
     2
 10
440.695389312
 20
1427.479798567
 42
0.029201101
  0
VERTEX
  8
0
  6
LTYPE1
 62
     2
 10
441.088887394
 20
1428.311809549
 42
0.030752107
  0
VERTEX
  8
0
  6
LTYPE1
 62
     2
 10
441.372116295
 20
1429.163518223
 42
0.031937242
  0
VERTEX
  8
0
  6
LTYPE1
 62
     2
 10
441.542920471
 20
1430.028442573
 42
0.032613786
  0
SEQEND
  8
0
  6
LTYPE1
 62
     2
  0
ARC
  8
0
  6
CONTINUOUS
 62
     1
 10
459.6
 20
1454.4
 40
2.0
 50
0.0
 51
90.0
  0
LINE
  8
0
  6
CONTINUOUS
 62
     1
 10
461.6
 20
1408.4
 11
461.6
 21
1454.4
  0
LINE
  8
0
  6
CONTINUOUS
 62
     1
 10
459.6
 20
1406.4
 11
461.6
 21
1408.4
  0
LINE
  8
0
  6
CONTINUOUS
 62
     1
 10
393.6
 20
1406.4
 11
459.6
 21
1406.4
  0
LINE
  8
0
  6
CONTINUOUS
 62
     1
 10
391.6
 20
1408.4
 11
393.6
 21
1406.4
  0
LINE
  8
0
  6
CONTINUOUS
 62
     1
 10
393.6
 20
1456.4
 11
459.6
 21
1456.4
  0
LINE
  8
0
  6
CONTINUOUS
 62
     1
 10
391.6
 20
1408.4
 11
391.6
 21
1454.4
  0
LINE
  8
0
  6
CONTINUOUS
 62
     1
 10
393.6
 20
1456.4
 11
391.6
 21
1454.4
  0
LINE
  8
0
  6
CONTINUOUS
 62
     1
 10
491.6
 20
1356.023724357
 11
491.6
 21
1499.9
  0
LINE
  8
0
  6
CONTINUOUS
 62
     1
 10
491.6
 20
1199.9
 11
491.6
 21
1343.776275643
  0
LINE
  8
0
  6
CONTINUOUS
 62
     1
 10
291.6
 20
1199.9
 11
291.6
 21
1499.9
  0
LINE
  8
0
  6
LTYPE2
 62
     2
 10
258.686875628
 20
1488.9
 11
299.6
 21
1488.9
  0
LINE
  8
0
  6
LTYPE2
 62
     2
 10
258.686875628
 20
1210.9
 11
299.6
 21
1210.9
  0
LINE
  8
0
  6
CONTINUOUS
 62
     1
 10
291.6
 20
1499.9
 11
299.6
 21
1499.9
  0
LINE
  8
0
  6
CONTINUOUS
 62
     1
 10
291.6
 20
1199.9
 11
299.6
 21
1199.9
  0
LINE
  8
0
  6
CONTINUOUS
 62
     1
 10
277.6
 20
1201.4
 11
277.6
 21
1498.4
  0
LINE
  8
0
  6
CONTINUOUS
 62
     1
 10
275.1
 20
1488.9
 11
275.1
 21
1479.1
  0
LINE
  8
0
  6
CONTINUOUS
 62
     1
 10
275.1
 20
1479.1
 11
269.485640646
 21
1479.1
  0
LINE
  8
0
  6
CONTINUOUS
 62
     1
 10
268.1
 20
1481.5
 11
269.485640646
 21
1479.1
  0
LINE
  8
0
  6
CONTINUOUS
 62
     1
 10
268.1
 20
1488.9
 11
268.1
 21
1481.5
  0
LINE
  8
0
  6
CONTINUOUS
 62
     1
 10
275.1
 20
1484.0
 11
269.485640646
 21
1484.0
  0
LINE
  8
0
  6
CONTINUOUS
 62
     1
 10
275.1
 20
1488.9
 11
275.1
 21
1498.7
  0
LINE
  8
0
  6
CONTINUOUS
 62
     1
 10
275.1
 20
1498.7
 11
269.485640646
 21
1498.7
  0
LINE
  8
0
  6
CONTINUOUS
 62
     1
 10
268.1
 20
1496.3
 11
269.485640646
 21
1498.7
  0
LINE
  8
0
  6
CONTINUOUS
 62
     1
 10
268.1
 20
1488.9
 11
268.1
 21
1496.3
  0
LINE
  8
0
  6
CONTINUOUS
 62
     1
 10
275.1
 20
1493.8
 11
269.485640646
 21
1493.8
  0
ARC
  8
0
  6
CONTINUOUS
 62
     1
 10
277.4566828
 20
1488.9
 40
9.3566828
 50
148.419912243
 51
211.580087757
  0
ARC
  8
0
  6
CONTINUOUS
 62
     1
 10
270.957883832
 20
1481.55
 40
2.858321186
 50
121.002313915
 51
182.989498403
  0
LINE
  8
0
  6
CONTINUOUS
 62
     1
 10
268.1
 20
1496.3
 11
269.485640646
 21
1498.7
  0
ARC
  8
0
  6
CONTINUOUS
 62
     1
 10
270.957883832
 20
1496.25
 40
2.858321186
 50
177.010501597
 51
238.997686085
  0
LINE
  8
0
  6
CONTINUOUS
 62
     1
 10
277.6
 20
1479.7
 11
275.1
 21
1479.7
  0
LINE
  8
0
  6
CONTINUOUS
 62
     1
 10
277.6
 20
1488.9
 11
275.100000004
 21
1486.400000004
  0
LINE
  8
0
  6
CONTINUOUS
 62
     1
 10
275.100000004
 20
1488.9
 11
277.6
 21
1491.399999996
  0
LINE
  8
0
  6
CONTINUOUS
 62
     1
 10
277.6
 20
1498.1
 11
275.1
 21
1498.1
  0
LINE
  8
0
  6
CONTINUOUS
 62
     1
 10
275.1
 20
1210.9
 11
275.1
 21
1220.7
  0
LINE
  8
0
  6
CONTINUOUS
 62
     1
 10
275.1
 20
1220.7
 11
269.485640646
 21
1220.7
  0
LINE
  8
0
  6
CONTINUOUS
 62
     1
 10
268.1
 20
1218.3
 11
269.485640646
 21
1220.7
  0
LINE
  8
0
  6
CONTINUOUS
 62
     1
 10
268.1
 20
1210.9
 11
268.1
 21
1218.3
  0
LINE
  8
0
  6
CONTINUOUS
 62
     1
 10
275.1
 20
1215.8
 11
269.485640646
 21
1215.8
  0
LINE
  8
0
  6
CONTINUOUS
 62
     1
 10
275.1
 20
1210.9
 11
275.1
 21
1201.1
  0
LINE
  8
0
  6
CONTINUOUS
 62
     1
 10
275.1
 20
1201.1
 11
269.485640646
 21
1201.1
  0
LINE
  8
0
  6
CONTINUOUS
 62
     1
 10
268.1
 20
1203.5
 11
269.485640646
 21
1201.1
  0
LINE
  8
0
  6
CONTINUOUS
 62
     1
 10
268.1
 20
1210.9
 11
268.1
 21
1203.5
  0
LINE
  8
0
  6
CONTINUOUS
 62
     1
 10
275.1
 20
1206.0
 11
269.485640646
 21
1206.0
  0
ARC
  8
0
  6
CONTINUOUS
 62
     1
 10
277.4566828
 20
1210.9
 40
9.3566828
 50
148.419912243
 51
211.580087757
  0
ARC
  8
0
  6
CONTINUOUS
 62
     1
 10
270.957883832
 20
1218.25
 40
2.858321186
 50
177.010501597
 51
238.997686085
  0
LINE
  8
0
  6
CONTINUOUS
 62
     1
 10
268.1
 20
1203.5
 11
269.485640646
 21
1201.1
  0
ARC
  8
0
  6
CONTINUOUS
 62
     1
 10
270.957883832
 20
1203.55
 40
2.858321186
 50
121.002313915
 51
182.989498403
  0
LINE
  8
0
  6
CONTINUOUS
 62
     1
 10
277.6
 20
1220.1
 11
275.1
 21
1220.1
  0
LINE
  8
0
  6
CONTINUOUS
 62
     1
 10
277.6
 20
1210.9
 11
275.100000004
 21
1213.399999996
  0
LINE
  8
0
  6
CONTINUOUS
 62
     1
 10
275.100000004
 20
1210.9
 11
277.6
 21
1208.400000004
  0
LINE
  8
0
  6
CONTINUOUS
 62
     1
 10
277.6
 20
1201.7
 11
275.1
 21
1201.7
  0
LINE
  8
0
  6
CONTINUOUS
 62
     1
 10
277.6
 20
1201.4
 11
291.6
 21
1201.4
  0
LINE
  8
0
  6
CONTINUOUS
 62
     1
 10
277.6
 20
1498.4
 11
291.6
 21
1498.4
  0
LINE
  8
7
  6
CONTINUOUS
 62
     2
 10
647.475
 20
1354.55
 11
658.574023362
 21
1371.187658501
  0
LINE
  8
7
  6
CONTINUOUS
 62
     2
 10
647.475
 20
1354.55
 11
648.768206938
 21
1374.508146603
  0
LINE
  8
7
  6
CONTINUOUS
 62
     2
 10
647.475
 20
1354.55
 11
711.475
 21
1543.55
  0
LINE
  8
7
  6
CONTINUOUS
 62
     2
 10
711.475
 20
1543.55
 11
901.075
 21
1543.55
  0
TEXT
  8
7
  6
CONTINUOUS
 62
     2
 10
711.475
 20
1551.55
 30
2.4
 40
24.0
  1
グリースニップル
 50
0.0
 41
0.9
 51
0.0
  7
KANJI25
  0
LINE
  8
7
  6
CONTINUOUS
 62
     2
 10
433.475
 20
1449.55
 11
449.730778176
 21
1461.201166289
  0
LINE
  8
7
  6
CONTINUOUS
 62
     2
 10
433.475
 20
1449.55
 11
441.727333714
 21
1467.768095078
  0
LINE
  8
7
  6
CONTINUOUS
 62
     2
 10
433.475
 20
1449.55
 11
561.475
 21
1605.55
  0
LINE
  8
7
  6
CONTINUOUS
 62
     2
 10
561.475
 20
1605.55
 11
727.075
 21
1605.55
  0
TEXT
  8
7
  6
CONTINUOUS
 62
     2
 10
561.475
 20
1613.55
 30
2.4
 40
24.0
  1
点検口、給脂口
 50
0.0
 41
0.9
 51
0.0
  7
KANJI25
  0
LINE
  8
0
  6
CONTINUOUS
 62
     1
 10
516.6
 20
1209.9
 11
541.6
 21
1209.9
  0
POINT
  8
0
  6
CONTINUOUS
 62
     1
 10
541.6
 20
1241.4
  0
POINT
  8
0
  6
CONTINUOUS
 62
     1
 10
541.6
 20
1213.4
  0
LINE
  8
0
  6
CONTINUOUS
 62
     1
 10
516.6
 20
1489.9
 11
541.6
 21
1489.9
  0
POINT
  8
0
  6
CONTINUOUS
 62
     1
 10
541.6
 20
1458.4
  0
POINT
  8
0
  6
CONTINUOUS
 62
     1
 10
541.6
 20
1486.4
  0
LINE
  8
0
  6
CONTINUOUS
 62
     1
 10
541.6
 20
1209.9
 11
541.6
 21
1489.9
  0
LINE
  8
0
  6
LTYPE2
 62
     2
 10
641.6
 20
1327.9
 11
641.6
 21
1374.9
  0
CIRCLE
  8
0
  6
LTYPE2
 62
     2
 10
641.6
 20
1349.9
 40
5.0
  0
CIRCLE
  8
0
  6
LTYPE2
 62
     2
 10
641.6
 20
1349.9
 40
10.0
  0
LINE
  8
0
  6
CONTINUOUS
 62
     1
 10
656.6
 20
1414.17600641
 11
556.6
 21
1435.389209845
  0
LINE
  8
0
  6
CONTINUOUS
 62
     1
 10
556.6
 20
1446.702918344
 11
656.6
 21
1425.489714909
  0
LINE
  8
0
  6
CONTINUOUS
 62
     1
 10
556.6
 20
1446.702918344
 11
541.6
 21
1446.702918344
  0
LINE
  8
0
  6
CONTINUOUS
 62
     1
 10
556.6
 20
1435.389209845
 11
541.6
 21
1435.389209845
  0
LINE
  8
0
  6
CONTINUOUS
 62
     1
 10
556.6
 20
1435.389209845
 11
556.6
 21
1446.702918344
  0
LINE
  8
0
  6
CONTINUOUS
 62
     1
 10
593.85471435
 20
1438.8
 11
703.6
 21
1438.8
  0
LINE
  8
0
  6
CONTINUOUS
 62
     1
 10
656.6
 20
1425.489714909
 11
656.6
 21
1406.849894588
  0
LINE
  8
0
  6
CONTINUOUS
 62
     1
 10
656.6
 20
1285.62399359
 11
556.6
 21
1264.410790155
  0
LINE
  8
0
  6
CONTINUOUS
 62
     1
 10
556.6
 20
1253.097081656
 11
656.6
 21
1274.310285091
  0
LINE
  8
0
  6
CONTINUOUS
 62
     1
 10
556.6
 20
1253.097081656
 11
541.6
 21
1253.097081656
  0
LINE
  8
0
  6
CONTINUOUS
 62
     1
 10
556.6
 20
1264.410790155
 11
541.6
 21
1264.410790155
  0
LINE
  8
0
  6
CONTINUOUS
 62
     1
 10
556.6
 20
1264.410790155
 11
556.6
 21
1253.097081656
  0
LINE
  8
0
  6
CONTINUOUS
 62
     1
 10
656.6
 20
1274.310285091
 11
656.6
 21
1292.950105412
  0
LINE
  8
0
  6
CONTINUOUS
 62
     1
 10
593.85471435
 20
1261.0
 11
703.6
 21
1261.0
  0
LINE
  8
0
  6
CONTINUOUS
 62
     1
 10
516.6
 20
1209.9
 11
516.6
 21
1489.9
  0
LINE
  8
0
  6
LTYPE2
 62
     2
 10
313.266666667
 20
1482.066666667
 11
313.266666667
 21
1542.066666667
  0
LINE
  8
0
  6
LTYPE2
 62
     2
 10
459.933333333
 20
1478.066666667
 11
459.933333333
 21
1542.066666667
  0
LINE
  8
0
  6
LTYPE2
 62
     2
 10
313.266666667
 20
1159.4
 11
313.266666667
 21
1219.4
  0
LINE
  8
0
  6
LTYPE2
 62
     2
 10
459.933333333
 20
1158.066666667
 11
459.933333333
 21
1219.4
  0
LINE
  8
0
  6
CONTINUOUS
 62
     2
 10
233.1
 20
1532.9
 11
197.1
 21
1532.9
  0
LINE
  8
0
  6
CONTINUOUS
 62
     2
 10
205.1
 20
1532.9
 11
210.276380902
 21
1552.218516526
  0
LINE
  8
0
  6
CONTINUOUS
 62
     2
 10
205.1
 20
1532.9
 11
199.923619098
 21
1552.218516526
  0
LINE
  8
0
  6
CONTINUOUS
 62
     2
 10
205.1
 20
1532.9
 11
205.1
 21
1584.9
  0
LINE
  8
0
  6
CONTINUOUS
 62
     2
 10
205.1
 20
1584.9
 11
199.923619098
 21
1565.581483474
  0
LINE
  8
0
  6
CONTINUOUS
 62
     2
 10
205.1
 20
1584.9
 11
210.276380902
 21
1565.581483474
  0
LINE
  8
0
  6
CONTINUOUS
 62
     2
 10
323.6
 20
1584.9
 11
197.1
 21
1584.9
  0
TEXT
  8
0
  6
CONTINUOUS
 62
     2
 10
199.5
 20
1537.3
 30
0.0
 40
24.0
  1
５２
 50
90.0
 41
0.9
 51
0.0
  7
KANJI29
  0
LINE
  8
0
  6
CONTINUOUS
 62
     1
 10
364.1
 20
1589.9
 11
364.1
 21
1584.9
  0
LINE
  8
0
  6
CONTINUOUS
 62
     1
 10
364.6
 20
1659.9
 11
364.6
 21
1589.9
  0
LINE
  8
0
  6
CONTINUOUS
 62
     1
 10
364.1
 20
1589.9
 11
409.1
 21
1589.9
  0
LINE
  8
0
  6
CONTINUOUS
 62
     1
 10
379.6
 20
1659.9
 11
379.6
 21
1604.9
  0
LINE
  8
0
  6
CONTINUOUS
 62
     1
 10
379.6
 20
1604.9
 11
393.6
 21
1604.9
  0
ARC
  8
0
  6
CONTINUOUS
 62
     1
 10
386.6
 20
1604.9
 40
7.0
 50
180.0
 51
0.0
  0
LINE
  8
0
  6
CONTINUOUS
 62
     1
 10
393.6
 20
1659.9
 11
393.6
 21
1604.9
  0
LINE
  8
0
  6
CONTINUOUS
 62
     1
 10
364.6
 20
1659.9
 11
408.6
 21
1659.9
  0
LINE
  8
0
  6
CONTINUOUS
 62
     1
 10
409.1
 20
1589.9
 11
409.1
 21
1584.9
  0
LINE
  8
0
  6
CONTINUOUS
 62
     1
 10
408.6
 20
1659.9
 11
408.6
 21
1589.9
  0
LINE
  8
7
  6
CONTINUOUS
 62
     2
 10
253.1
 20
1589.9
 11
258.276380902
 21
1609.218516526
  0
LINE
  8
7
  6
CONTINUOUS
 62
     2
 10
253.1
 20
1589.9
 11
247.923619098
 21
1609.218516526
  0
TEXT
  8
7
  6
CONTINUOUS
 62
     2
 10
245.1
 20
1619.9
 30
0.8
 40
24.0
  1
５
 50
90.0
 41
0.833333333
 51
0.0
  7
KANJI28
  0
LINE
  8
7
  6
CONTINUOUS
 62
     2
 10
253.1
 20
1584.9
 11
247.923619098
 21
1565.581483474
  0
LINE
  8
7
  6
CONTINUOUS
 62
     2
 10
253.1
 20
1584.9
 11
258.276380902
 21
1565.581483474
  0
LINE
  8
7
  6
CONTINUOUS
 62
     2
 10
352.1
 20
1589.9
 11
193.1
 21
1589.9
  0
LINE
  8
7
  6
CONTINUOUS
 62
     2
 10
205.1
 20
1659.9
 11
199.923619098
 21
1640.581483474
  0
LINE
  8
7
  6
CONTINUOUS
 62
     2
 10
205.1
 20
1659.9
 11
210.276380902
 21
1640.581483474
  0
LINE
  8
7
  6
CONTINUOUS
 62
     2
 10
205.1
 20
1659.9
 11
205.1
 21
1589.9
  0
LINE
  8
7
  6
CONTINUOUS
 62
     2
 10
205.1
 20
1589.9
 11
210.276380902
 21
1609.218516526
  0
LINE
  8
7
  6
CONTINUOUS
 62
     2
 10
205.1
 20
1589.9
 11
199.923619098
 21
1609.218516526
  0
TEXT
  8
7
  6
CONTINUOUS
 62
     2
 10
197.1
 20
1604.5
 30
0.8
 40
24.0
  1
７０
 50
90.0
 41
0.833333333
 51
0.0
  7
KANJI28
  0
LINE
  8
7
  6
CONTINUOUS
 62
     2
 10
358.6
 20
1659.9
 11
193.1
 21
1659.9
  0
LINE
  8
0
  6
LTYPE2
 62
     2
 10
386.6
 20
926.766666667
 11
386.6
 21
1668.5
  0
LINE
  8
7
  6
CONTINUOUS
 62
     2
 10
253.1
 20
1589.9
 11
253.1
 21
1639.9
  0
LINE
  8
7
  6
CONTINUOUS
 62
     2
 10
253.1
 20
1584.9
 11
253.1
 21
1589.9
  0
LINE
  8
7
  6
CONTINUOUS
 62
     2
 10
253.1
 20
1554.9
 11
253.1
 21
1584.9
  0
LINE
  8
0
  6
CONTINUOUS
 62
     2
 10
207.9
 20
1166.9
 11
213.1
 21
1166.9
  0
LINE
  8
0
  6
CONTINUOUS
 62
     2
 10
205.1
 20
1166.9
 11
199.923619098
 21
1147.581483474
  0
LINE
  8
0
  6
CONTINUOUS
 62
     2
 10
205.1
 20
1166.9
 11
210.276380902
 21
1147.581483474
  0
LINE
  8
0
  6
CONTINUOUS
 62
     2
 10
205.1
 20
1166.9
 11
205.1
 21
1114.9
  0
LINE
  8
0
  6
CONTINUOUS
 62
     2
 10
205.1
 20
1114.9
 11
210.276380902
 21
1134.218516526
  0
LINE
  8
0
  6
CONTINUOUS
 62
     2
 10
205.1
 20
1114.9
 11
199.923619098
 21
1134.218516526
  0
LINE
  8
0
  6
CONTINUOUS
 62
     2
 10
323.6
 20
1114.9
 11
197.1
 21
1114.9
  0
TEXT
  8
0
  6
CONTINUOUS
 62
     2
 10
199.5
 20
1119.3
 30
0.0
 40
24.0
  1
５２
 50
90.0
 41
0.9
 51
0.0
  7
KANJI29
  0
LINE
  8
0
  6
CONTINUOUS
 62
     1
 10
364.1
 20
1109.9
 11
364.1
 21
1114.9
  0
LINE
  8
0
  6
CONTINUOUS
 62
     1
 10
364.6
 20
1039.9
 11
364.6
 21
1109.9
  0
LINE
  8
0
  6
CONTINUOUS
 62
     1
 10
364.1
 20
1109.9
 11
409.1
 21
1109.9
  0
LINE
  8
0
  6
CONTINUOUS
 62
     1
 10
379.6
 20
1039.9
 11
379.6
 21
1094.9
  0
LINE
  8
0
  6
CONTINUOUS
 62
     1
 10
379.6
 20
1094.9
 11
393.6
 21
1094.9
  0
ARC
  8
0
  6
CONTINUOUS
 62
     1
 10
386.6
 20
1094.9
 40
7.0
 50
0.0
 51
180.0
  0
LINE
  8
0
  6
CONTINUOUS
 62
     1
 10
393.6
 20
1039.9
 11
393.6
 21
1094.9
  0
LINE
  8
0
  6
CONTINUOUS
 62
     1
 10
409.1
 20
1109.9
 11
409.1
 21
1114.9
  0
LINE
  8
0
  6
CONTINUOUS
 62
     1
 10
408.6
 20
1039.9
 11
408.6
 21
1109.9
  0
LINE
  8
0
  6
CONTINUOUS
 62
     1
 10
364.6
 20
1039.9
 11
408.6
 21
1039.9
  0
LINE
  8
0
  6
CONTINUOUS
 62
     2
 10
356.1
 20
1109.9
 11
197.1
 21
1109.9
  0
LINE
  8
0
  6
CONTINUOUS
 62
     2
 10
205.1
 20
1109.9
 11
199.923619098
 21
1090.581483474
  0
LINE
  8
0
  6
CONTINUOUS
 62
     2
 10
205.1
 20
1109.9
 11
210.276380902
 21
1090.581483474
  0
LINE
  8
0
  6
CONTINUOUS
 62
     2
 10
205.1
 20
1109.9
 11
205.1
 21
1039.9
  0
LINE
  8
0
  6
CONTINUOUS
 62
     2
 10
205.1
 20
1039.9
 11
210.276380902
 21
1059.218516526
  0
LINE
  8
0
  6
CONTINUOUS
 62
     2
 10
205.1
 20
1039.9
 11
199.923619098
 21
1059.218516526
  0
LINE
  8
0
  6
CONTINUOUS
 62
     2
 10
356.6
 20
1039.9
 11
197.1
 21
1039.9
  0
TEXT
  8
0
  6
CONTINUOUS
 62
     2
 10
199.5
 20
1053.3
 30
0.0
 40
24.0
  1
７０
 50
90.0
 41
0.9
 51
0.0
  7
KANJI29
  0
LINE
  8
0
  6
CONTINUOUS
 62
     2
 10
243.2
 20
1114.9
 11
261.1
 21
1114.9
  0
LINE
  8
0
  6
CONTINUOUS
 62
     2
 10
253.1
 20
1114.9
 11
258.276380902
 21
1134.218516526
  0
LINE
  8
0
  6
CONTINUOUS
 62
     2
 10
253.1
 20
1114.9
 11
247.923619098
 21
1134.218516526
  0
LINE
  8
0
  6
CONTINUOUS
 62
     2
 10
253.1
 20
1144.9
 11
253.1
 21
1114.9
  0
LINE
  8
0
  6
CONTINUOUS
 62
     2
 10
253.1
 20
1114.9
 11
253.1
 21
1109.9
  0
LINE
  8
0
  6
CONTINUOUS
 62
     2
 10
253.1
 20
1109.9
 11
253.1
 21
1058.3
  0
LINE
  8
0
  6
CONTINUOUS
 62
     2
 10
253.1
 20
1109.9
 11
247.923619098
 21
1090.581483474
  0
LINE
  8
0
  6
CONTINUOUS
 62
     2
 10
253.1
 20
1109.9
 11
258.276380902
 21
1090.581483474
  0
LINE
  8
0
  6
CONTINUOUS
 62
     2
 10
242.3
 20
1109.9
 11
261.1
 21
1109.9
  0
TEXT
  8
0
  6
CONTINUOUS
 62
     2
 10
247.5
 20
1058.3
 30
0.0
 40
24.0
  1
５
 50
90.0
 41
0.9
 51
0.0
  7
KANJI29
  0
LINE
  8
0
  6
CONTINUOUS
 62
     2
 10
226.8
 20
1659.9
 11
156.9
 21
1659.9
  0
LINE
  8
0
  6
CONTINUOUS
 62
     2
 10
164.9
 20
1659.9
 11
159.723619098
 21
1640.581483474
  0
LINE
  8
0
  6
CONTINUOUS
 62
     2
 10
164.9
 20
1659.9
 11
170.076380902
 21
1640.581483474
  0
LINE
  8
0
  6
CONTINUOUS
 62
     2
 10
164.9
 20
1659.9
 11
164.9
 21
1039.9
  0
LINE
  8
0
  6
CONTINUOUS
 62
     2
 10
164.9
 20
1039.9
 11
170.076380902
 21
1059.218516526
  0
LINE
  8
0
  6
CONTINUOUS
 62
     2
 10
164.9
 20
1039.9
 11
159.723619098
 21
1059.218516526
  0
LINE
  8
0
  6
CONTINUOUS
 62
     2
 10
222.3
 20
1039.9
 11
156.9
 21
1039.9
  0
TEXT
  8
0
  6
CONTINUOUS
 62
     2
 10
159.3
 20
1317.5
 30
0.0
 40
24.0
  1
６２０
 50
90.0
 41
0.9
 51
0.0
  7
KANJI29
  0
LINE
  8
0
  6
LTYPE2
 62
     2
 10
223.5
 20
1349.8
 11
1906.3
 21
1349.8
  0
LINE
  8
0
  6
CONTINUOUS
 62
     2
 10
364.6
 20
1667.9
 11
364.6
 21
1709.0
  0
LINE
  8
0
  6
CONTINUOUS
 62
     2
 10
364.6
 20
1701.0
 11
345.281483474
 21
1706.176380902
  0
LINE
  8
0
  6
CONTINUOUS
 62
     2
 10
364.6
 20
1701.0
 11
345.281483474
 21
1695.823619098
  0
LINE
  8
0
  6
CONTINUOUS
 62
     2
 10
334.6
 20
1701.0
 11
364.6
 21
1701.0
  0
LINE
  8
0
  6
CONTINUOUS
 62
     2
 10
364.6
 20
1701.0
 11
408.6
 21
1701.0
  0
LINE
  8
0
  6
CONTINUOUS
 62
     2
 10
408.6
 20
1701.0
 11
438.6
 21
1701.0
  0
LINE
  8
0
  6
CONTINUOUS
 62
     2
 10
408.6
 20
1701.0
 11
427.918516526
 21
1695.823619098
  0
LINE
  8
0
  6
CONTINUOUS
 62
     2
 10
408.6
 20
1701.0
 11
427.918516526
 21
1706.176380902
  0
LINE
  8
0
  6
CONTINUOUS
 62
     2
 10
408.6
 20
1667.9
 11
408.6
 21
1709.0
  0
TEXT
  8
0
  6
CONTINUOUS
 62
     2
 10
332.6
 20
1706.6
 30
0.0
 40
24.0
  1
φ４４ｈ７
 50
0.0
 41
0.9
 51
0.0
  7
KANJI29
  0
LINE
  8
0
  6
CONTINUOUS
 62
     2
 10
331.6
 20
1592.9
 11
331.6
 21
1777.9
  0
LINE
  8
0
  6
CONTINUOUS
 62
     2
 10
331.6
 20
1769.9
 11
350.918516526
 21
1764.723619098
  0
LINE
  8
0
  6
CONTINUOUS
 62
     2
 10
331.6
 20
1769.9
 11
350.918516526
 21
1775.076380902
  0
LINE
  8
0
  6
CONTINUOUS
 62
     2
 10
331.6
 20
1769.9
 11
441.6
 21
1769.9
  0
LINE
  8
0
  6
CONTINUOUS
 62
     2
 10
441.6
 20
1769.9
 11
422.281483474
 21
1775.076380902
  0
LINE
  8
0
  6
CONTINUOUS
 62
     2
 10
441.6
 20
1769.9
 11
422.281483474
 21
1764.723619098
  0
LINE
  8
0
  6
CONTINUOUS
 62
     2
 10
441.6
 20
1592.9
 11
441.6
 21
1777.9
  0
TEXT
  8
0
  6
CONTINUOUS
 62
     2
 10
327.718516526
 20
1779.323619098
 30
0.0
 40
24.0
  1
φ１１０ｄ９
 50
0.0
 41
0.9
 51
0.0
  7
KANJI29
  0
LINE
  8
0
  6
CONTINUOUS
 62
     2
 10
1685.2
 20
990.0
 11
1685.2
 21
952.0
  0
LINE
  8
0
  6
CONTINUOUS
 62
     2
 10
1685.2
 20
960.0
 11
1704.518516526
 21
954.823619098
  0
LINE
  8
0
  6
CONTINUOUS
 62
     2
 10
1685.2
 20
960.0
 11
1704.518516526
 21
965.176380902
  0
LINE
  8
0
  6
CONTINUOUS
 62
     2
 10
1685.2
 20
960.0
 11
1815.2
 21
960.0
  0
LINE
  8
0
  6
CONTINUOUS
 62
     2
 10
1815.2
 20
960.0
 11
1795.881483474
 21
965.176380902
  0
LINE
  8
0
  6
CONTINUOUS
 62
     2
 10
1815.2
 20
960.0
 11
1795.881483474
 21
954.823619098
  0
TEXT
  8
0
  6
CONTINUOUS
 62
     2
 10
1717.8
 20
965.6
 30
0.0
 40
24.0
  1
１３０
 50
0.0
 41
0.9
 51
0.0
  7
KANJI29
  0
LINE
  8
0
  6
CONTINUOUS
 62
     2
 10
1815.2
 20
993.0
 11
1815.2
 21
887.0
  0
LINE
  8
0
  6
CONTINUOUS
 62
     2
 10
1815.2
 20
895.0
 11
1795.881483474
 21
900.176380902
  0
LINE
  8
0
  6
CONTINUOUS
 62
     2
 10
1815.2
 20
895.0
 11
1795.881483474
 21
889.823619098
  0
LINE
  8
0
  6
CONTINUOUS
 62
     2
 10
1815.2
 20
831.1
 11
1795.881483474
 21
836.276380902
  0
LINE
  8
0
  6
CONTINUOUS
 62
     2
 10
1815.2
 20
831.1
 11
1795.881483474
 21
825.923619098
  0
LINE
  8
0
  6
CONTINUOUS
 62
     2
 10
1815.2
 20
919.1
 11
1815.2
 21
823.1
  0
LINE
  8
0
  6
CONTINUOUS
 62
     2
 10
1815.2
 20
895.0
 11
386.6
 21
895.0
  0
LINE
  8
0
  6
CONTINUOUS
 62
     2
 10
277.6
 20
831.1
 11
1815.2
 21
831.1
  0
LINE
  8
0
  6
CONTINUOUS
 62
     2
 10
1685.2
 20
971.0
 11
1685.2
 21
952.0
  0
LINE
  8
0
  6
CONTINUOUS
 62
     2
 10
1685.2
 20
960.0
 11
1665.881483474
 21
965.176380902
  0
LINE
  8
0
  6
CONTINUOUS
 62
     2
 10
1685.2
 20
960.0
 11
1665.881483474
 21
954.823619098
  0
LINE
  8
0
  6
CONTINUOUS
 62
     2
 10
1685.2
 20
960.0
 11
1547.2
 21
960.0
  0
LINE
  8
0
  6
CONTINUOUS
 62
     2
 10
1547.2
 20
960.0
 11
1566.518516526
 21
954.823619098
  0
LINE
  8
0
  6
CONTINUOUS
 62
     2
 10
1547.2
 20
960.0
 11
1566.518516526
 21
965.176380902
  0
TEXT
  8
0
  6
CONTINUOUS
 62
     2
 10
1562.2
 20
965.6
 30
0.0
 40
24.0
  1
ｍｉｎ．Ｐ
 50
0.0
 41
0.9
 51
0.0
  7
KANJI29
  0
LINE
  8
0
  6
CONTINUOUS
 62
     2
 10
1547.2
 20
960.0
 11
1527.881483474
 21
965.176380902
  0
LINE
  8
0
  6
CONTINUOUS
 62
     2
 10
1547.2
 20
960.0
 11
1527.881483474
 21
954.823619098
  0
LINE
  8
0
  6
CONTINUOUS
 62
     2
 10
1547.2
 20
960.0
 11
386.6
 21
960.0
  0
LINE
  8
2
  6
CONTINUOUS
 62
     2
 10
386.6
 20
1017.866666667
 11
386.6
 21
1009.866666667
  0
LINE
  8
0
  6
CONTINUOUS
 62
     2
 10
386.6
 20
1053.0
 11
386.6
 21
952.0
  0
LINE
  8
0
  6
CONTINUOUS
 62
     2
 10
386.6
 20
895.0
 11
405.918516526
 21
889.823619098
  0
LINE
  8
0
  6
CONTINUOUS
 62
     2
 10
386.6
 20
895.0
 11
405.918516526
 21
900.176380902
  0
LINE
  8
0
  6
CONTINUOUS
 62
     2
 10
386.6
 20
974.0
 11
386.6
 21
887.0
  0
LINE
  8
0
  6
CONTINUOUS
 62
     2
 10
386.6
 20
914.0
 11
386.6
 21
887.0
  0
LINE
  8
0
  6
CONTINUOUS
 62
     2
 10
386.6
 20
895.0
 11
367.281483474
 21
900.176380902
  0
LINE
  8
0
  6
CONTINUOUS
 62
     2
 10
386.6
 20
895.0
 11
367.281483474
 21
889.823619098
  0
LINE
  8
0
  6
CONTINUOUS
 62
     2
 10
386.6
 20
895.0
 11
277.6
 21
895.0
  0
LINE
  8
0
  6
CONTINUOUS
 62
     2
 10
277.6
 20
895.0
 11
296.918516526
 21
889.823619098
  0
LINE
  8
0
  6
CONTINUOUS
 62
     2
 10
277.6
 20
895.0
 11
296.918516526
 21
900.176380902
  0
TEXT
  8
0
  6
CONTINUOUS
 62
     2
 10
299.7
 20
900.6
 30
0.0
 40
24.0
  1
１０９
 50
0.0
 41
0.9
 51
0.0
  7
KANJI29
  0
LINE
  8
0
  6
CONTINUOUS
 62
     2
 10
277.6
 20
935.1
 11
277.6
 21
823.1
  0
LINE
  8
0
  6
CONTINUOUS
 62
     2
 10
277.6
 20
831.1
 11
296.918516526
 21
825.923619098
  0
LINE
  8
0
  6
CONTINUOUS
 62
     2
 10
277.6
 20
831.1
 11
296.918516526
 21
836.276380902
  0
LINE
  8
0
  6
CONTINUOUS
 62
     2
 10
386.6
 20
960.0
 11
405.918516526
 21
954.823619098
  0
LINE
  8
0
  6
CONTINUOUS
 62
     2
 10
386.6
 20
960.0
 11
405.918516526
 21
965.176380902
  0
LINE
  8
0
  6
CONTINUOUS
 62
     2
 10
386.6
 20
955.9
 11
386.6
 21
952.0
  0
TEXT
  8
0
  6
CONTINUOUS
 62
     2
 10
956.1
 20
965.6
 30
0.0
 40
24.0
  1
Ｃ
 50
0.0
 41
0.9
 51
0.0
  7
KANJI29
  0
LINE
  8
0
  6
CONTINUOUS
 62
     2
 10
277.6
 20
1201.4
 11
277.6
 21
887.0
  0
LINE
  8
0
  6
CONTINUOUS
 62
     2
 10
1685.2
 20
1284.8
 11
1685.2
 21
952.0
  0
LINE
  8
0
  6
CONTINUOUS
 62
     2
 10
1815.2
 20
1309.8
 11
1815.2
 21
952.0
  0
LINE
  8
0
  6
CONTINUOUS
 62
     2
 10
2042.0
 20
1109.9
 11
2042.0
 21
1589.9
  0
LINE
  8
0
  6
CONTINUOUS
 62
     2
 10
2042.0
 20
1589.9
 11
2036.823619098
 21
1570.581483474
  0
LINE
  8
0
  6
CONTINUOUS
 62
     2
 10
2042.0
 20
1589.9
 11
2047.176380902
 21
1570.581483474
  0
LINE
  8
0
  6
CONTINUOUS
 62
     2
 10
2059.1
 20
1589.9
 11
2034.0
 21
1589.9
  0
LINE
  8
0
  6
CONTINUOUS
 62
     2
 10
2042.0
 20
1589.9
 11
2047.176380902
 21
1609.218516526
  0
LINE
  8
0
  6
CONTINUOUS
 62
     2
 10
2042.0
 20
1589.9
 11
2036.823619098
 21
1609.218516526
  0
LINE
  8
0
  6
CONTINUOUS
 62
     2
 10
2042.0
 20
1589.9
 11
2042.0
 21
1659.9
  0
LINE
  8
0
  6
CONTINUOUS
 62
     2
 10
2042.0
 20
1659.9
 11
2036.823619098
 21
1640.581483474
  0
LINE
  8
0
  6
CONTINUOUS
 62
     2
 10
2042.0
 20
1659.9
 11
2047.176380902
 21
1640.581483474
  0
TEXT
  8
0
  6
CONTINUOUS
 62
     2
 10
2036.4
 20
1603.3
 30
0.0
 40
24.0
  1
７０
 50
90.0
 41
0.9
 51
0.0
  7
KANJI29
  0
LINE
  8
0
  6
CONTINUOUS
 62
     2
 10
2266.3
 20
1659.9
 11
2034.0
 21
1659.9
  0
LINE
  8
0
  6
CONTINUOUS
 62
     2
 10
2269.3
 20
1589.9
 11
2034.0
 21
1589.9
  0
LINE
  8
0
  6
CONTINUOUS
 62
     1
 10
2236.8
 20
1114.9
 11
2346.8
 21
1114.9
  0
LINE
  8
0
  6
CONTINUOUS
 62
     1
 10
2346.8
 20
1114.9
 11
2346.8
 21
1166.9
  0
LINE
  8
0
  6
CONTINUOUS
 62
     1
 10
2236.8
 20
1114.9
 11
2236.8
 21
1166.9
  0
LINE
  8
0
  6
CONTINUOUS
 62
     1
 10
2236.8
 20
1584.9
 11
2346.8
 21
1584.9
  0
LINE
  8
0
  6
CONTINUOUS
 62
     1
 10
2346.8
 20
1584.9
 11
2346.8
 21
1532.9
  0
LINE
  8
0
  6
CONTINUOUS
 62
     1
 10
2236.8
 20
1584.9
 11
2236.8
 21
1532.9
  0
LINE
  8
0
  6
CONTINUOUS
 62
     1
 10
2204.8
 20
1502.9
 11
2204.8
 21
1472.092471126
  0
LINE
  8
0
  6
CONTINUOUS
 62
     1
 10
2207.8
 20
1502.9
 11
2207.8
 21
1532.9
  0
LINE
  8
0
  6
CONTINUOUS
 62
     1
 10
2204.8
 20
1502.9
 11
2378.8
 21
1502.9
  0
LINE
  8
0
  6
CONTINUOUS
 62
     1
 10
2207.8
 20
1532.9
 11
2375.8
 21
1532.9
  0
LINE
  8
0
  6
CONTINUOUS
 62
     1
 10
2204.8
 20
1196.9
 11
2204.8
 21
1227.707528874
  0
LINE
  8
0
  6
CONTINUOUS
 62
     1
 10
2207.8
 20
1196.9
 11
2207.8
 21
1166.9
  0
LINE
  8
0
  6
CONTINUOUS
 62
     1
 10
2204.8
 20
1196.9
 11
2378.8
 21
1196.9
  0
LINE
  8
0
  6
CONTINUOUS
 62
     1
 10
2207.8
 20
1166.9
 11
2375.8
 21
1166.9
  0
LINE
  8
0
  6
LTYPE3
 62
     2
 10
2291.8
 20
1356.7
 11
2291.8
 21
1343.1
  0
LINE
  8
0
  6
CONTINUOUS
 62
     1
 10
2269.3
 20
1109.9
 11
2269.3
 21
1114.9
  0
LINE
  8
0
  6
CONTINUOUS
 62
     1
 10
2269.3
 20
1109.9
 11
2314.3
 21
1109.9
  0
LINE
  8
0
  6
CONTINUOUS
 62
     1
 10
2266.3
 20
1094.9
 11
2269.8
 21
1094.9
  0
LINE
  8
0
  6
CONTINUOUS
 62
     1
 10
2266.3
 20
1039.9
 11
2266.3
 21
1094.9
  0
LINE
  8
0
  6
CONTINUOUS
 62
     1
 10
2269.8
 20
1039.9
 11
2269.8
 21
1109.9
  0
LINE
  8
0
  6
CONTINUOUS
 62
     1
 10
2266.3
 20
1039.9
 11
2313.8
 21
1039.9
  0
LINE
  8
0
  6
CONTINUOUS
 62
     1
 10
2314.3
 20
1109.9
 11
2314.3
 21
1114.9
  0
LINE
  8
0
  6
CONTINUOUS
 62
     1
 10
2313.8
 20
1039.9
 11
2313.8
 21
1109.9
  0
LINE
  8
0
  6
CONTINUOUS
 62
     1
 10
2269.3
 20
1589.9
 11
2269.3
 21
1584.9
  0
LINE
  8
0
  6
CONTINUOUS
 62
     1
 10
2269.3
 20
1589.9
 11
2314.3
 21
1589.9
  0
LINE
  8
0
  6
CONTINUOUS
 62
     1
 10
2266.3
 20
1604.9
 11
2269.8
 21
1604.9
  0
LINE
  8
0
  6
CONTINUOUS
 62
     1
 10
2266.3
 20
1659.9
 11
2266.3
 21
1604.9
  0
LINE
  8
0
  6
CONTINUOUS
 62
     1
 10
2269.8
 20
1659.9
 11
2269.8
 21
1589.9
  0
LINE
  8
0
  6
CONTINUOUS
 62
     1
 10
2266.3
 20
1659.9
 11
2313.8
 21
1659.9
  0
LINE
  8
0
  6
CONTINUOUS
 62
     1
 10
2314.3
 20
1589.9
 11
2314.3
 21
1584.9
  0
LINE
  8
0
  6
CONTINUOUS
 62
     1
 10
2313.8
 20
1659.9
 11
2313.8
 21
1589.9
  0
LINE
  8
0
  6
LTYPE2
 62
     2
 10
2291.8
 20
1011.0
 11
2291.8
 21
1678.3
  0
LINE
  8
0
  6
CONTINUOUS
 62
     2
 10
2291.8
 20
1684.9
 11
2291.8
 21
1709.0
  0
LINE
  8
0
  6
CONTINUOUS
 62
     2
 10
2291.8
 20
1701.0
 11
2311.118516526
 21
1695.823619098
  0
LINE
  8
0
  6
CONTINUOUS
 62
     2
 10
2291.8
 20
1701.0
 11
2311.118516526
 21
1706.176380902
  0
LINE
  8
0
  6
CONTINUOUS
 62
     2
 10
2291.8
 20
1701.0
 11
2441.8
 21
1701.0
  0
TEXT
  8
0
  6
CONTINUOUS
 62
     2
 10
2334.4
 20
1706.6
 30
0.0
 40
24.0
  1
１５０
 50
0.0
 41
0.9
 51
0.0
  7
KANJI29
  0
CIRCLE
  8
0
  6
CONTINUOUS
 62
     1
 10
2291.8
 20
1349.9
 40
150.0
  0
LINE
  8
0
  6
CONTINUOUS
 62
     1
 10
2198.623661445
 20
1454.390047054
 11
2187.309952946
 21
1443.076338555
  0
LINE
  8
0
  6
CONTINUOUS
 62
     1
 10
2187.309952946
 20
1256.723661445
 11
2198.623661445
 21
1245.409952946
  0
LINE
  8
2
  6
CONTINUOUS
 62
     2
 10
2050.0
 20
1109.9
 11
2026.0
 21
1109.9
  0
LINE
  8
2
  6
CONTINUOUS
 62
     2
 10
2042.0
 20
1109.9
 11
2047.176380902
 21
1090.581483474
  0
LINE
  8
2
  6
CONTINUOUS
 62
     2
 10
2042.0
 20
1109.9
 11
2036.823619098
 21
1090.581483474
  0
LINE
  8
2
  6
CONTINUOUS
 62
     2
 10
2042.0
 20
1109.9
 11
2042.0
 21
1039.9
  0
LINE
  8
2
  6
CONTINUOUS
 62
     2
 10
2042.0
 20
1039.9
 11
2036.823619098
 21
1059.218516526
  0
LINE
  8
2
  6
CONTINUOUS
 62
     2
 10
2042.0
 20
1039.9
 11
2047.176380902
 21
1059.218516526
  0
TEXT
  8
2
  6
CONTINUOUS
 62
     3
 10
2034.0
 20
1048.1
 30
2.4
 40
28.0
  1
７０
 50
90.0
 41
0.914285714
 51
0.0
  7
KANJI30
  0
LINE
  8
0
  6
CONTINUOUS
 62
     2
 10
2059.1
 20
1109.9
 11
2034.0
 21
1109.9
  0
LINE
  8
0
  6
CONTINUOUS
 62
     2
 10
2042.0
 20
1109.9
 11
2047.176380902
 21
1129.218516526
  0
LINE
  8
0
  6
CONTINUOUS
 62
     2
 10
2042.0
 20
1109.9
 11
2036.823619098
 21
1129.218516526
  0
TEXT
  8
0
  6
CONTINUOUS
 62
     2
 10
2036.4
 20
1317.5
 30
0.0
 40
24.0
  1
４８０
 50
90.0
 41
0.9
 51
0.0
  7
KANJI29
  0
LINE
  8
0
  6
LTYPE3
 62
     2
 10
2059.6
 20
1349.9
 11
2449.6
 21
1349.9
  0
LINE
  8
0
  6
CONTINUOUS
 62
     1
 10
2124.8
 20
1334.8
 11
2124.8
 21
1341.9
  0
LINE
  8
0
  6
CONTINUOUS
 62
     1
 10
2124.8
 20
1365.0
 11
2120.0
 21
1360.2
  0
LINE
  8
0
  6
CONTINUOUS
 62
     1
 10
2124.8
 20
1334.8
 11
2120.0
 21
1339.6
  0
LINE
  8
0
  6
CONTINUOUS
 62
     1
 10
2120.0
 20
1339.6
 11
2120.0
 21
1341.9
  0
LINE
  8
0
  6
CONTINUOUS
 62
     1
 10
2134.7
 20
1357.9
 11
2074.8
 21
1357.9
  0
LINE
  8
0
  6
CONTINUOUS
 62
     1
 10
2134.7
 20
1341.9
 11
2074.8
 21
1341.9
  0
ARC
  8
0
  6
CONTINUOUS
 62
     1
 10
2074.8
 20
1349.9
 40
8.0
 50
90.0
 51
270.0
  0
ARC
  8
0
  6
CONTINUOUS
 62
     1
 10
2134.7
 20
1339.9
 40
2.0
 50
0.0
 51
90.0
  0
ARC
  8
0
  6
CONTINUOUS
 62
     1
 10
2134.7
 20
1359.9
 40
2.0
 50
270.0
 51
0.0
  0
LINE
  8
0
  6
CONTINUOUS
 62
     1
 10
2124.8
 20
1365.0
 11
2124.8
 21
1357.9
  0
LINE
  8
0
  6
CONTINUOUS
 62
     1
 10
2120.0
 20
1360.2
 11
2120.0
 21
1357.9
  0
LINE
  8
0
  6
CONTINUOUS
 62
     1
 10
2142.725427977
 20
1366.536465255
 11
2124.8
 21
1365.0
  0
LINE
  8
0
  6
CONTINUOUS
 62
     1
 10
2142.725427977
 20
1333.263534745
 11
2124.8
 21
1334.8
  0
LINE
  8
0
  6
CONTINUOUS
 62
     2
 10
2291.8
 20
1693.0
 11
2291.8
 21
1709.0
  0
LINE
  8
0
  6
CONTINUOUS
 62
     2
 10
2291.8
 20
1701.0
 11
2272.481483474
 21
1706.176380902
  0
LINE
  8
0
  6
CONTINUOUS
 62
     2
 10
2291.8
 20
1701.0
 11
2272.481483474
 21
1695.823619098
  0
LINE
  8
0
  6
CONTINUOUS
 62
     2
 10
2291.8
 20
1701.0
 11
2066.8
 21
1701.0
  0
LINE
  8
0
  6
CONTINUOUS
 62
     2
 10
2066.8
 20
1701.0
 11
2086.118516526
 21
1695.823619098
  0
LINE
  8
0
  6
CONTINUOUS
 62
     2
 10
2066.8
 20
1701.0
 11
2086.118516526
 21
1706.176380902
  0
LINE
  8
0
  6
CONTINUOUS
 62
     2
 10
2066.8
 20
1357.9
 11
2066.8
 21
1709.0
  0
TEXT
  8
0
  6
CONTINUOUS
 62
     2
 10
2146.9
 20
1706.6
 30
0.0
 40
24.0
  1
２２５
 50
0.0
 41
0.9
 51
0.0
  7
KANJI29
  0
LINE
  8
2
  6
CONTINUOUS
 62
     2
 10
2262.3
 20
1109.9
 11
2026.0
 21
1109.9
  0
LINE
  8
2
  6
CONTINUOUS
 62
     2
 10
2257.3
 20
1039.9
 11
2026.0
 21
1039.9
  0
LINE
  8
0
  6
CONTINUOUS
 62
     1
 10
2378.8
 20
1502.9
 11
2378.8
 21
1472.092471126
  0
LINE
  8
0
  6
CONTINUOUS
 62
     1
 10
2375.8
 20
1502.9
 11
2375.8
 21
1532.9
  0
LINE
  8
0
  6
CONTINUOUS
 62
     1
 10
2378.8
 20
1196.9
 11
2378.8
 21
1227.707528874
  0
LINE
  8
0
  6
CONTINUOUS
 62
     1
 10
2375.8
 20
1196.9
 11
2375.8
 21
1166.9
  0
LINE
  8
0
  6
CONTINUOUS
 62
     1
 10
2384.976338555
 20
1454.390047054
 11
2396.290047054
 21
1443.076338555
  0
LINE
  8
0
  6
CONTINUOUS
 62
     1
 10
2396.290047054
 20
1256.723661445
 11
2384.976338555
 21
1245.409952946
  0
LINE
  8
0
  6
CONTINUOUS
 62
     2
 10
2441.8
 20
1701.0
 11
2422.481483474
 21
1706.176380902
  0
LINE
  8
0
  6
CONTINUOUS
 62
     2
 10
2441.8
 20
1701.0
 11
2422.481483474
 21
1695.823619098
  0
LINE
  8
0
  6
CONTINUOUS
 62
     2
 10
2441.8
 20
1357.9
 11
2441.8
 21
1709.0
  0
TEXT
  8
0
  6
CONTINUOUS
 62
     2
 10
500.985251001
 20
58.146632
 30
2.4
 40
24.0
  1
ＦＤ　Ｎｏ．ＳＣ２１
 50
0.0
 41
1.0
 51
0.0
  7
KANJI31
  0
LINE
  8
0
  6
CONTINUOUS
 62
     1
 10
609.985251001
 20
757.48
 11
1849.985251001
 21
757.48
  0
LINE
  8
0
  6
CONTINUOUS
 62
     1
 10
609.985251001
 20
701.48
 11
1849.985251001
 21
701.48
  0
TEXT
  8
0
  6
CONTINUOUS
 62
     2
 10
910.785251001
 20
717.48
 30
2.4
 40
24.0
  1
ストローク
 50
0.0
 41
0.9
 51
0.0
  7
KANJI32
  0
TEXT
  8
0
  6
CONTINUOUS
 62
     2
 10
1064.385251001
 20
715.88
 30
0.0
 40
24.0
  1
ｍｉｎ　
 50
0.0
 41
0.9
 51
0.0
  7
KANJI29
  0
TEXT
  8
0
  6
CONTINUOUS
 62
     2
 10
1224.385251001
 20
715.88
 30
0.0
 40
24.0
  1
ｍｉｎ　
 50
0.0
 41
0.9
 51
0.0
  7
KANJI29
  0
TEXT
  8
0
  6
CONTINUOUS
 62
     2
 10
1544.385251001
 20
715.88
 30
0.0
 40
24.0
  1
ｍｉｎ　
 50
0.0
 41
0.9
 51
0.0
  7
KANJI29
  0
TEXT
  8
0
  6
CONTINUOUS
 62
     2
 10
1792.985251001
 20
719.28
 30
0.0
 40
19.2
  1
（ｋｇ）
 50
0.0
 41
0.777777778
 51
0.0
  7
KANJI33
  0
TEXT
  8
0
  6
CONTINUOUS
 62
     2
 10
1696.985251001
 20
716.48
 30
2.56
 40
25.6
  1
概算重量
 50
0.0
 41
0.9
 51
0.0
  7
KANJI34
  0
TEXT
  8
0
  6
CONTINUOUS
 62
     2
 10
665.985251001
 20
717.48
 30
2.56
 40
25.6
  1
形
 50
0.0
 41
0.9
 51
0.0
  7
KANJI34
  0
TEXT
  8
0
  6
CONTINUOUS
 62
     2
 10
821.985251001
 20
717.48
 30
2.56
 40
25.6
  1
式
 50
0.0
 41
0.9
 51
0.0
  7
KANJI34
  0
TEXT
  8
0
  6
CONTINUOUS
 62
     2
 10
1145.985251001
 20
717.48
 30
2.8
 40
28.0
  1
ＡＬ
 50
0.0
 41
0.9
 51
0.0
  7
KANJI35
  0
TEXT
  8
0
  6
CONTINUOUS
 62
     2
 10
1305.985251001
 20
717.48
 30
2.8
 40
28.0
  1
Ｌ
 50
0.0
 41
0.9
 51
0.0
  7
KANJI35
  0
TEXT
  8
0
  6
CONTINUOUS
 62
     2
 10
1441.985251001
 20
717.48
 30
2.8
 40
28.0
  1
Ｃ
 50
0.0
 41
0.9
 51
0.0
  7
KANJI35
  0
TEXT
  8
0
  6
CONTINUOUS
 62
     2
 10
1625.985251001
 20
717.48
 30
2.8
 40
28.0
  1
Ｐ
 50
0.0
 41
0.9
 51
0.0
  7
KANJI35
  0
TEXT
  8
0
  6
CONTINUOUS
 62
     2
 10
1609.785251001
 20
662.48
 30
2.4
 40
24.0
  1
５０
 50
0.0
 41
0.9
 51
0.0
  7
KANJI32
  0
LINE
  8
0
  6
CONTINUOUS
 62
     3
 10
609.985251001
 20
421.48
 11
1849.985251001
 21
421.48
  0
LINE
  8
0
  6
CONTINUOUS
 62
     3
 10
609.985251001
 20
645.48
 11
1849.985251001
 21
645.48
  0
LINE
  8
0
  6
CONTINUOUS
 62
     3
 10
609.985251001
 20
589.48
 11
1849.985251001
 21
589.48
  0
LINE
  8
0
  6
CONTINUOUS
 62
     3
 10
609.985251001
 20
533.48
 11
1849.985251001
 21
533.48
  0
LINE
  8
0
  6
CONTINUOUS
 62
     3
 10
609.985251001
 20
477.48
 11
1849.985251001
 21
477.48
  0
LINE
  8
0
  6
CONTINUOUS
 62
     3
 10
609.985251001
 20
365.48
 11
1849.985251001
 21
365.48
  0
LINE
  8
0
  6
CONTINUOUS
 62
     1
 10
609.985251001
 20
309.48
 11
1849.985251001
 21
309.48
  0
LINE
  8
0
  6
CONTINUOUS
 62
     1
 10
609.985251001
 20
757.48
 11
609.985251001
 21
309.48
  0
LINE
  8
0
  6
CONTINUOUS
 62
     1
 10
889.985251001
 20
757.48
 11
889.985251001
 21
309.48
  0
LINE
  8
0
  6
CONTINUOUS
 62
     3
 10
1049.985251001
 20
757.48
 11
1049.985251001
 21
309.48
  0
LINE
  8
0
  6
CONTINUOUS
 62
     3
 10
1209.985251001
 20
757.48
 11
1209.985251001
 21
309.48
  0
LINE
  8
0
  6
CONTINUOUS
 62
     3
 10
1369.985251001
 20
757.48
 11
1369.985251001
 21
309.48
  0
LINE
  8
0
  6
CONTINUOUS
 62
     3
 10
1529.985251001
 20
757.48
 11
1529.985251001
 21
309.48
  0
LINE
  8
0
  6
CONTINUOUS
 62
     3
 10
1689.985251001
 20
757.48
 11
1689.985251001
 21
309.48
  0
LINE
  8
0
  6
CONTINUOUS
 62
     1
 10
1849.985251001
 20
757.48
 11
1849.985251001
 21
309.48
  0
TEXT
  8
0
  6
CONTINUOUS
 62
     2
 10
957.985251001
 20
658.88
 30
2.4
 40
24.0
  1
３００
 50
0.0
 41
0.9
 51
0.0
  7
KANJI32
  0
TEXT
  8
0
  6
CONTINUOUS
 62
     2
 10
957.985251001
 20
602.88
 30
2.4
 40
24.0
  1
５００
 50
0.0
 41
0.9
 51
0.0
  7
KANJI32
  0
TEXT
  8
0
  6
CONTINUOUS
 62
     2
 10
957.985251001
 20
546.88
 30
2.4
 40
24.0
  1
７００
 50
0.0
 41
0.9
 51
0.0
  7
KANJI32
  0
TEXT
  8
0
  6
CONTINUOUS
 62
     2
 10
933.985251001
 20
490.88
 30
2.4
 40
24.0
  1
１０００
 50
0.0
 41
0.9
 51
0.0
  7
KANJI32
  0
TEXT
  8
0
  6
CONTINUOUS
 62
     2
 10
933.985251001
 20
434.88
 30
2.4
 40
24.0
  1
１５００
 50
0.0
 41
0.9
 51
0.0
  7
KANJI32
  0
TEXT
  8
0
  6
CONTINUOUS
 62
     2
 10
933.985251001
 20
378.88
 30
2.4
 40
24.0
  1
２０００
 50
0.0
 41
0.9
 51
0.0
  7
KANJI32
  0
TEXT
  8
0
  6
CONTINUOUS
 62
     2
 10
960.0
 20
900.6
 30
0.0
 40
24.0
  1
ｍｉｎ．Ｌ
 50
0.0
 41
0.9
 51
0.0
  7
KANJI29
  0
TEXT
  8
0
  6
CONTINUOUS
 62
     2
 10
905.5
 20
836.7
 30
0.0
 40
24.0
  1
ｍｉｎ．ＡＬ
 50
0.0
 41
0.9
 51
0.0
  7
KANJI29
  0
LINE
  8
0
  6
CONTINUOUS
 62
     1
 10
703.6
 20
1241.8
 11
703.6
 21
1457.8
  0
LINE
  8
0
  6
CONTINUOUS
 62
     1
 10
703.6
 20
1457.8
 11
713.6
 21
1457.8
  0
LINE
  8
0
  6
CONTINUOUS
 62
     1
 10
715.6
 20
1463.8
 11
730.6
 21
1463.8
  0
LINE
  8
0
  6
CONTINUOUS
 62
     1
 10
715.6
 20
1235.8
 11
715.6
 21
1463.8
  0
POLYLINE
  8
0
  6
CONTINUOUS
 62
     1
 66
     1
  0
VERTEX
  8
0
  6
CONTINUOUS
 62
     1
 10
715.6
 20
1235.8
  0
VERTEX
  8
0
  6
CONTINUOUS
 62
     1
 10
730.6
 20
1235.8
  0
VERTEX
  8
0
  6
CONTINUOUS
 62
     1
 10
730.6
 20
1463.8
  0
SEQEND
  0
LINE
  8
0
  6
CONTINUOUS
 62
     1
 10
713.6
 20
1241.8
 11
713.6
 21
1457.8
  0
LINE
  8
0
  6
CONTINUOUS
 62
     1
 10
703.6
 20
1241.8
 11
713.6
 21
1241.8
  0
LINE
  8
0
  6
CONTINUOUS
 62
     1
 10
715.6
 20
1355.9
 11
730.6
 21
1355.9
  0
LINE
  8
0
  6
CONTINUOUS
 62
     1
 10
703.6
 20
1355.9
 11
713.6
 21
1355.9
  0
LINE
  8
0
  6
CONTINUOUS
 62
     1
 10
715.6
 20
1343.9
 11
730.6
 21
1343.9
  0
LINE
  8
0
  6
CONTINUOUS
 62
     1
 10
703.6
 20
1343.9
 11
713.87
 21
1343.9
  0
LINE
  8
0
  6
CONTINUOUS
 62
     1
 10
703.6
 20
1452.8
 11
713.6
 21
1452.8
  0
LINE
  8
0
  6
CONTINUOUS
 62
     1
 10
703.6
 20
1246.8
 11
713.6
 21
1246.8
  0
LINE
  8
0
  6
CONTINUOUS
 62
     1
 10
713.6
 20
1256.8
 11
715.6
 21
1256.8
  0
LINE
  8
0
  6
CONTINUOUS
 62
     1
 10
713.6
 20
1442.8
 11
715.6
 21
1442.8
  0
CIRCLE
  8
0
  6
CONTINUOUS
 62
     1
 10
1815.2
 20
1349.8
 40
31.5
  0
LINE
  8
0
  6
CONTINUOUS
 62
     1
 10
1880.2
 20
1404.3
 11
1865.2
 21
1419.3
  0
LINE
  8
0
  6
CONTINUOUS
 62
     1
 10
1880.2
 20
1295.3
 11
1880.2
 21
1404.3
  0
LINE
  8
0
  6
CONTINUOUS
 62
     1
 10
1865.2
 20
1404.3
 11
1880.2
 21
1386.816888038
  0
LINE
  8
0
  6
CONTINUOUS
 62
     1
 10
1865.2
 20
1404.3
 11
1865.2
 21
1419.3
  0
LINE
  8
0
  6
CONTINUOUS
 62
     1
 10
1865.2
 20
1404.3
 11
1695.2
 21
1404.3
  0
LINE
  8
0
  6
CONTINUOUS
 62
     1
 10
1685.2
 20
1419.3
 11
1865.2
 21
1419.3
  0
LINE
  8
0
  6
CONTINUOUS
 62
     1
 10
1865.2
 20
1295.3
 11
1880.2
 21
1312.783111962
  0
LINE
  8
0
  6
CONTINUOUS
 62
     1
 10
1865.2
 20
1295.3
 11
1695.2
 21
1295.3
  0
LINE
  8
0
  6
CONTINUOUS
 62
     1
 10
1685.2
 20
1280.3
 11
1865.2
 21
1280.3
  0
LINE
  8
0
  6
CONTINUOUS
 62
     1
 10
1865.2
 20
1295.3
 11
1865.2
 21
1280.3
  0
LINE
  8
0
  6
CONTINUOUS
 62
     1
 10
1880.2
 20
1295.3
 11
1865.2
 21
1280.3
  0
LINE
  8
0
  6
CONTINUOUS
 62
     1
 10
1695.2
 20
1295.3
 11
1695.2
 21
1404.3
  0
LINE
  8
0
  6
CONTINUOUS
 62
     1
 10
1507.2
 20
1242.3
 11
1547.2
 21
1242.3
  0
LINE
  8
0
  6
CONTINUOUS
 62
     1
 10
1547.2
 20
1258.8
 11
1547.2
 21
1242.3
  0
LINE
  8
0
  6
CONTINUOUS
 62
     1
 10
730.6
 20
1241.8
 11
1507.2
 21
1241.8
  0
LINE
  8
0
  6
CONTINUOUS
 62
     1
 10
1547.2
 20
1279.8
 11
1685.2
 21
1279.8
  0
LINE
  8
0
  6
CONTINUOUS
 62
     2
 10
1547.2
 20
1242.3
 11
1547.2
 21
952.0
  0
LINE
  8
0
  6
CONTINUOUS
 62
     2
 10
1873.2
 20
1419.3
 11
1959.05
 21
1419.3
  0
LINE
  8
0
  6
CONTINUOUS
 62
     2
 10
1951.05
 20
1419.3
 11
1945.873619098
 21
1399.981483474
  0
LINE
  8
0
  6
CONTINUOUS
 62
     2
 10
1951.05
 20
1419.3
 11
1956.226380902
 21
1399.981483474
  0
LINE
  8
0
  6
CONTINUOUS
 62
     2
 10
1951.05
 20
1419.3
 11
1951.05
 21
1280.3
  0
LINE
  8
0
  6
CONTINUOUS
 62
     2
 10
1951.05
 20
1280.3
 11
1956.226380902
 21
1299.618516526
  0
LINE
  8
0
  6
CONTINUOUS
 62
     2
 10
1951.05
 20
1280.3
 11
1945.873619098
 21
1299.618516526
  0
LINE
  8
0
  6
CONTINUOUS
 62
     2
 10
1873.2
 20
1280.3
 11
1959.05
 21
1280.3
  0
TEXT
  8
0
  6
CONTINUOUS
 62
     2
 10
1945.45
 20
1306.6
 30
0.0
 40
24.0
  1
φ１３９
 50
90.0
 41
0.9
 51
0.0
  7
KANJI29
  0
CIRCLE
  8
0
  6
CONTINUOUS
 62
     1
 10
2291.8
 20
1349.9
 40
70.0
  0
LINE
  8
0
  6
CONTINUOUS
 62
     1
 10
2331.8
 20
1292.454373535
 11
2331.8
 21
1407.345626465
  0
ARC
  8
0
  6
CONTINUOUS
 62
     1
 10
2291.8
 20
1349.9
 40
55.0
 50
223.341758227
 51
316.658241773
  0
LINE
  8
0
  6
CONTINUOUS
 62
     1
 10
2251.8
 20
1292.454373535
 11
2251.8
 21
1406.895626465
  0
ARC
  8
0
  6
CONTINUOUS
 62
     1
 10
2291.8
 20
1349.9
 40
55.0
 50
43.341758227
 51
137.204550285
  0
TEXT
  8
0
  6
CONTINUOUS
 62
     2
 10
1411.585251001
 20
662.48
 30
2.4
 40
24.0
  1
１０７０
 50
0.0
 41
0.9
 51
0.0
  7
KANJI32
  0
TEXT
  8
0
  6
CONTINUOUS
 62
     2
 10
1411.585251001
 20
606.48
 30
2.4
 40
24.0
  1
１２７０
 50
0.0
 41
0.9
 51
0.0
  7
KANJI32
  0
TEXT
  8
0
  6
CONTINUOUS
 62
     2
 10
1411.585251001
 20
382.48
 30
2.4
 40
24.0
  1
２８６０
 50
0.0
 41
0.9
 51
0.0
  7
KANJI32
  0
TEXT
  8
0
  6
CONTINUOUS
 62
     2
 10
1411.585251001
 20
438.48
 30
2.4
 40
24.0
  1
２３３０
 50
0.0
 41
0.9
 51
0.0
  7
KANJI32
  0
TEXT
  8
0
  6
CONTINUOUS
 62
     2
 10
1411.585251001
 20
494.48
 30
2.4
 40
24.0
  1
１７９０
 50
0.0
 41
0.9
 51
0.0
  7
KANJI32
  0
TEXT
  8
0
  6
CONTINUOUS
 62
     2
 10
1411.585251001
 20
550.48
 30
2.4
 40
24.0
  1
１４９０
 50
0.0
 41
0.9
 51
0.0
  7
KANJI32
  0
TEXT
  8
0
  6
CONTINUOUS
 62
     2
 10
1253.585251001
 20
661.08
 30
2.4
 40
24.0
  1
１２５０
 50
0.0
 41
0.9
 51
0.0
  7
KANJI32
  0
TEXT
  8
0
  6
CONTINUOUS
 62
     2
 10
1092.785251001
 20
659.48
 30
2.4
 40
24.0
  1
１３５９
 50
0.0
 41
0.9
 51
0.0
  7
KANJI32
  0
TEXT
  8
0
  6
CONTINUOUS
 62
     2
 10
3049.6
 20
1654.0
 30
16.0
 40
24.0
  1
１０
 50
0.0
 41
0.9
 51
0.0
  7
KANJI26
  0
TEXT
  8
0
  6
CONTINUOUS
 62
     2
 10
2950.6
 20
1484.2
 30
0.0
 40
24.0
  1
６８６Ｎｍ（７０ｋｇｍ）
 50
0.0
 41
0.9
 51
0.0
  7
KANJI29
  0
TEXT
  8
0
  6
CONTINUOUS
 62
     2
 10
2911.45
 20
1542.0
 30
16.0
 40
24.0
  1
約
 50
0.0
 41
0.9
 51
0.0
  7
KANJI26
  0
TEXT
  8
0
  6
CONTINUOUS
 62
     2
 10
2938.583333333
 20
1542.666666667
 30
0.0
 40
24.0
  1
３５７Ｎｍ（３６．４ｋｇｍ）
 50
0.0
 41
0.8
 51
0.0
  7
KANJI36
  0
TEXT
  8
0
  6
CONTINUOUS
 62
     2
 10
2915.2
 20
1206.8
 30
0.8
 40
22.4
  1
マンセル
 50
0.0
 41
0.9
 51
0.0
  7
KANJI37
  0
TEXT
  8
0
  6
CONTINUOUS
 62
     2
 10
3008.8
 20
1208.4
 30
0.32
 40
22.4
  1
７．５ＧＹ５／４．５
 50
0.0
 41
0.785714286
 51
0.0
  7
KANJI38
  0
LINE
  8
0
  6
CONTINUOUS
 62
     1
 10
1507.2
 20
1241.8
 11
1507.2
 21
1457.8
  0
LINE
  8
0
  6
CONTINUOUS
 62
     1
 10
730.6
 20
1457.8
 11
1507.2
 21
1457.8
  0
LINE
  8
0
  6
CONTINUOUS
 62
     1
 10
1685.2
 20
1279.8
 11
1685.2
 21
1419.8
  0
LINE
  8
0
  6
CONTINUOUS
 62
     1
 10
1547.2
 20
1419.8
 11
1685.2
 21
1419.8
  0
LINE
  8
0
  6
CONTINUOUS
 62
     1
 10
1547.2
 20
1457.3
 11
1547.2
 21
1241.65
  0
LINE
  8
0
  6
CONTINUOUS
 62
     1
 10
1507.2
 20
1457.3
 11
1547.2
 21
1457.3
  0
CIRCLE
  8
0
  6
CONTINUOUS
 62
     1
 10
2291.8
 20
1349.9
 40
114.0
  0
LINE
  8
0
  6
CONTINUOUS
 62
     1
 10
2207.493486351
 20
1422.89280515
 11
2187.309952946
 21
1443.076338555
  0
LINE
  8
0
  6
CONTINUOUS
 62
     1
 10
2218.40719485
 20
1434.606513649
 11
2198.623661445
 21
1454.390047054
  0
LINE
  8
0
  6
CONTINUOUS
 62
     1
 10
2366.39280515
 20
1435.806513649
 11
2384.976338555
 21
1454.390047054
  0
LINE
  8
0
  6
CONTINUOUS
 62
     1
 10
2376.956513649
 20
1423.74280515
 11
2396.290047054
 21
1443.076338555
  0
LINE
  8
0
  6
CONTINUOUS
 62
     1
 10
2187.309952946
 20
1256.723661445
 11
2206.343486351
 21
1275.75719485
  0
LINE
  8
0
  6
CONTINUOUS
 62
     1
 10
2198.623661445
 20
1245.409952946
 11
2218.40719485
 21
1265.193486351
  0
LINE
  8
0
  6
CONTINUOUS
 62
     1
 10
2384.976338555
 20
1245.409952946
 11
2364.69280515
 21
1265.693486351
  0
LINE
  8
0
  6
CONTINUOUS
 62
     1
 10
2396.290047054
 20
1256.723661445
 11
2375.556513649
 21
1277.45719485
  0
CIRCLE
  8
0
  6
CONTINUOUS
 62
     1
 10
2291.8
 20
1349.9
 40
108.0
  0
TEXT
  8
0
  6
CONTINUOUS
 62
     2
 10
2935.466666667
 20
1931.2
 30
0.0
 40
24.0
  1
ＳＣＤ２０Ｂ－　　
 50
0.0
 41
0.833333333
 51
0.0
  7
KANJI39
  0
TEXT
  8
0
  6
CONTINUOUS
 62
     2
 10
2960.0
 20
1429.2
 30
20.5
 40
28.0
  1
全閉屋内形
 50
0.0
 41
0.9
 51
0.0
  7
KANJI40
  0
TEXT
  8
0
  6
CONTINUOUS
 62
     2
 10
2488.0
 20
328.0
 30
0.0
 40
28.0
  1
ＳＣＤ２０Ｂ－
 50
0.0
 41
0.793650794
 51
0.0
  7
KANJI41
  0
TEXT
  8
0
  6
CONTINUOUS
 62
     3
 10
2582.518632601
 20
209.479992
 30
17.333333333
 40
40.0
  1
Ａ３００２０３２
 50
0.0
 41
0.8
 51
0.0
  7
KANJI42
  0
TEXT
  8
0
  6
CONTINUOUS
 62
     2
 10
635.985251001
 20
658.28
 30
1.6
 40
24.0
  1
ＳＣＤ２０Ｂ－　３
 50
0.0
 41
0.833333333
 51
0.0
  7
KANJI43
  0
TEXT
  8
0
  6
CONTINUOUS
 62
     2
 10
635.985251001
 20
602.28
 30
1.6
 40
24.0
  1
ＳＣＤ２０Ｂ－　５
 50
0.0
 41
0.833333333
 51
0.0
  7
KANJI43
  0
TEXT
  8
0
  6
CONTINUOUS
 62
     2
 10
635.985251001
 20
546.28
 30
1.6
 40
24.0
  1
ＳＣＤ２０Ｂ－　７
 50
0.0
 41
0.833333333
 51
0.0
  7
KANJI43
  0
TEXT
  8
0
  6
CONTINUOUS
 62
     2
 10
635.985251001
 20
490.28
 30
1.6
 40
24.0
  1
ＳＣＤ２０Ｂ－１０
 50
0.0
 41
0.833333333
 51
0.0
  7
KANJI43
  0
TEXT
  8
0
  6
CONTINUOUS
 62
     2
 10
635.985251001
 20
434.28
 30
1.6
 40
24.0
  1
ＳＣＤ２０Ｂ－１５
 50
0.0
 41
0.833333333
 51
0.0
  7
KANJI43
  0
TEXT
  8
0
  6
CONTINUOUS
 62
     2
 10
635.985251001
 20
378.28
 30
1.6
 40
24.0
  1
ＳＣＤ２０Ｂ－２０
 50
0.0
 41
0.833333333
 51
0.0
  7
KANJI43
  0
TEXT
  8
0
  6
CONTINUOUS
 62
     2
 10
635.985251001
 20
322.28
 30
1.6
 40
24.0
  1
ＳＣＤ２０Ｂ－　　
 50
0.0
 41
0.833333333
 51
0.0
  7
KANJI43
  0
TEXT
  8
0
  6
CONTINUOUS
 62
     2
 10
1585.785251001
 20
606.48
 30
2.4
 40
24.0
  1
　５０
 50
0.0
 41
0.9
 51
0.0
  7
KANJI32
  0
TEXT
  8
0
  6
CONTINUOUS
 62
     2
 10
1585.785251001
 20
550.48
 30
2.4
 40
24.0
  1
　５０
 50
0.0
 41
0.9
 51
0.0
  7
KANJI32
  0
TEXT
  8
0
  6
CONTINUOUS
 62
     2
 10
1585.785251001
 20
494.48
 30
2.4
 40
24.0
  1
　５０
 50
0.0
 41
0.9
 51
0.0
  7
KANJI32
  0
TEXT
  8
0
  6
CONTINUOUS
 62
     2
 10
1585.785251001
 20
438.48
 30
2.4
 40
24.0
  1
　５０
 50
0.0
 41
0.9
 51
0.0
  7
KANJI32
  0
TEXT
  8
0
  6
CONTINUOUS
 62
     2
 10
1585.785251001
 20
382.48
 30
2.4
 40
24.0
  1
　５０
 50
0.0
 41
0.9
 51
0.0
  7
KANJI32
  0
TEXT
  8
0
  6
CONTINUOUS
 62
     2
 10
1253.585251001
 20
605.08
 30
2.4
 40
24.0
  1
１４５０
 50
0.0
 41
0.9
 51
0.0
  7
KANJI32
  0
TEXT
  8
0
  6
CONTINUOUS
 62
     2
 10
1253.585251001
 20
549.08
 30
2.4
 40
24.0
  1
１６７０
 50
0.0
 41
0.9
 51
0.0
  7
KANJI32
  0
TEXT
  8
0
  6
CONTINUOUS
 62
     2
 10
1251.985251001
 20
493.08
 30
2.4
 40
24.0
  1
１９７０
 50
0.0
 41
0.9
 51
0.0
  7
KANJI32
  0
TEXT
  8
0
  6
CONTINUOUS
 62
     2
 10
1251.985251001
 20
381.08
 30
2.4
 40
24.0
  1
３０４０
 50
0.0
 41
0.9
 51
0.0
  7
KANJI32
  0
TEXT
  8
0
  6
CONTINUOUS
 62
     2
 10
1092.785251001
 20
603.48
 30
2.4
 40
24.0
  1
１５５９
 50
0.0
 41
0.9
 51
0.0
  7
KANJI32
  0
TEXT
  8
0
  6
CONTINUOUS
 62
     2
 10
1091.785251001
 20
547.48
 30
2.4
 40
24.0
  1
１７７９
 50
0.0
 41
0.9
 51
0.0
  7
KANJI32
  0
TEXT
  8
0
  6
CONTINUOUS
 62
     2
 10
1091.185251001
 20
491.48
 30
2.4
 40
24.0
  1
２０７９
 50
0.0
 41
0.9
 51
0.0
  7
KANJI32
  0
TEXT
  8
0
  6
CONTINUOUS
 62
     2
 10
1091.185251001
 20
379.48
 30
2.4
 40
24.0
  1
３１４９
 50
0.0
 41
0.9
 51
0.0
  7
KANJI32
  0
LINE
  8
0
  6
CONTINUOUS
 62
     2
 10
1149.5
 20
1457.8
 11
1151.0
 21
1457.8
  0
LINE
  8
0
  6
CONTINUOUS
 62
     2
 10
1136.0
 20
1241.8
 11
1135.0
 21
1241.8
  0
LINE
  8
0
  6
CONTINUOUS
 62
     1
 10
2238.546977379
 20
1468.011665731
 11
2237.437855322
 21
1459.97550693
  0
LINE
  8
0
  6
CONTINUOUS
 62
     1
 10
2252.404703749
 20
1466.174978535
 11
2245.938013639
 21
1471.07313319
  0
LINE
  8
0
  6
CONTINUOUS
 62
     1
 10
2245.938013639
 20
1471.07313319
 11
2238.546977379
 21
1468.011665731
  0
LINE
  8
0
  6
LTYPE3
 62
     2
 10
2251.235556169
 20
1447.831230446
 11
2238.607002901
 21
1478.319255019
  0
ARC
  8
0
  6
LTYPE2
 62
     2
 10
2291.8
 20
1349.9
 40
122.5
 50
104.391630448
 51
119.228051943
  0
LINE
  8
0
  6
CONTINUOUS
 62
     1
 10
2251.295581692
 20
1458.138819735
 11
2252.404703749
 21
1466.174978535
  0
LINE
  8
0
  6
CONTINUOUS
 62
     1
 10
2237.437855322
 20
1459.97550693
 11
2243.904545432
 21
1455.077352276
  0
LINE
  8
0
  6
CONTINUOUS
 62
     1
 10
2243.904545432
 20
1455.077352276
 11
2251.295581692
 21
1458.138819735
  0
LINE
  8
0
  6
CONTINUOUS
 62
     1
 10
2346.162144678
 20
1459.97550693
 11
2345.053022621
 21
1468.011665731
  0
LINE
  8
0
  6
CONTINUOUS
 62
     1
 10
2345.053022621
 20
1468.011665731
 11
2337.661986361
 21
1471.07313319
  0
LINE
  8
0
  6
LTYPE3
 62
     2
 10
2332.364443831
 20
1447.831230446
 11
2344.992997099
 21
1478.319255019
  0
ARC
  8
0
  6
LTYPE2
 62
     2
 10
2291.8
 20
1349.9
 40
122.5
 50
59.391630448
 51
74.228051943
  0
LINE
  8
0
  6
CONTINUOUS
 62
     1
 10
2339.695454568
 20
1455.077352276
 11
2346.162144678
 21
1459.97550693
  0
LINE
  8
0
  6
CONTINUOUS
 62
     1
 10
2337.661986361
 20
1471.07313319
 11
2331.195296251
 21
1466.174978535
  0
LINE
  8
0
  6
CONTINUOUS
 62
     1
 10
2331.195296251
 20
1466.174978535
 11
2332.304418308
 21
1458.138819735
  0
LINE
  8
0
  6
CONTINUOUS
 62
     1
 10
2332.304418308
 20
1458.138819735
 11
2339.695454568
 21
1455.077352276
  0
LINE
  8
0
  6
CONTINUOUS
 62
     1
 10
2409.911665731
 20
1403.153022621
 11
2401.87550693
 21
1404.262144678
  0
LINE
  8
0
  6
CONTINUOUS
 62
     1
 10
2412.97313319
 20
1395.761986361
 11
2409.911665731
 21
1403.153022621
  0
LINE
  8
0
  6
LTYPE3
 62
     2
 10
2389.731230446
 20
1390.464443831
 11
2420.219255019
 21
1403.092997099
  0
ARC
  8
0
  6
LTYPE2
 62
     2
 10
2291.8
 20
1349.9
 40
122.5
 50
14.391630448
 51
29.228051943
  0
LINE
  8
0
  6
CONTINUOUS
 62
     1
 10
2401.87550693
 20
1404.262144678
 11
2396.977352276
 21
1397.795454568
  0
LINE
  8
0
  6
CONTINUOUS
 62
     1
 10
2408.074978535
 20
1389.295296251
 11
2412.97313319
 21
1395.761986361
  0
LINE
  8
0
  6
CONTINUOUS
 62
     1
 10
2400.038819735
 20
1390.404418308
 11
2408.074978535
 21
1389.295296251
  0
LINE
  8
0
  6
CONTINUOUS
 62
     1
 10
2396.977352276
 20
1397.795454568
 11
2400.038819735
 21
1390.404418308
  0
LINE
  8
0
  6
CONTINUOUS
 62
     1
 10
2412.97313319
 20
1304.038013639
 11
2408.074978535
 21
1310.504703749
  0
LINE
  8
0
  6
CONTINUOUS
 62
     1
 10
2401.87550693
 20
1295.537855322
 11
2409.911665731
 21
1296.646977379
  0
LINE
  8
0
  6
CONTINUOUS
 62
     1
 10
2409.911665731
 20
1296.646977379
 11
2412.97313319
 21
1304.038013639
  0
LINE
  8
0
  6
LTYPE3
 62
     2
 10
2389.731230446
 20
1309.335556169
 11
2420.219255019
 21
1296.707002901
  0
ARC
  8
0
  6
LTYPE2
 62
     2
 10
2291.8
 20
1349.9
 40
122.5
 50
329.391630448
 51
344.228051943
  0
LINE
  8
0
  6
CONTINUOUS
 62
     1
 10
2396.977352276
 20
1302.004545432
 11
2401.87550693
 21
1295.537855322
  0
LINE
  8
0
  6
CONTINUOUS
 62
     1
 10
2408.074978535
 20
1310.504703749
 11
2400.038819735
 21
1309.395581692
  0
LINE
  8
0
  6
CONTINUOUS
 62
     1
 10
2400.038819735
 20
1309.395581692
 11
2396.977352276
 21
1302.004545432
  0
LINE
  8
0
  6
CONTINUOUS
 62
     1
 10
2345.053022621
 20
1231.788334269
 11
2346.162144678
 21
1239.82449307
  0
LINE
  8
0
  6
CONTINUOUS
 62
     1
 10
2331.195296251
 20
1233.625021465
 11
2337.661986361
 21
1228.72686681
  0
LINE
  8
0
  6
CONTINUOUS
 62
     1
 10
2337.661986361
 20
1228.72686681
 11
2345.053022621
 21
1231.788334269
  0
LINE
  8
0
  6
LTYPE3
 62
     2
 10
2332.364443831
 20
1251.968769554
 11
2344.992997099
 21
1221.480744981
  0
ARC
  8
0
  6
LTYPE2
 62
     2
 10
2291.8
 20
1349.9
 40
122.5
 50
284.391630448
 51
299.228051943
  0
LINE
  8
0
  6
CONTINUOUS
 62
     1
 10
2332.304418308
 20
1241.661180265
 11
2331.195296251
 21
1233.625021465
  0
LINE
  8
0
  6
CONTINUOUS
 62
     1
 10
2346.162144678
 20
1239.82449307
 11
2339.695454568
 21
1244.722647724
  0
LINE
  8
0
  6
CONTINUOUS
 62
     1
 10
2339.695454568
 20
1244.722647724
 11
2332.304418308
 21
1241.661180265
  0
LINE
  8
0
  6
CONTINUOUS
 62
     1
 10
2245.938013639
 20
1228.72686681
 11
2252.404703749
 21
1233.625021465
  0
LINE
  8
0
  6
CONTINUOUS
 62
     1
 10
2237.437855322
 20
1239.82449307
 11
2238.546977379
 21
1231.788334269
  0
LINE
  8
0
  6
CONTINUOUS
 62
     1
 10
2238.546977379
 20
1231.788334269
 11
2245.938013639
 21
1228.72686681
  0
LINE
  8
0
  6
LTYPE3
 62
     2
 10
2251.235556169
 20
1251.968769554
 11
2238.607002901
 21
1221.480744981
  0
ARC
  8
0
  6
LTYPE2
 62
     2
 10
2291.8
 20
1349.9
 40
122.5
 50
239.391630448
 51
254.228051943
  0
LINE
  8
0
  6
CONTINUOUS
 62
     1
 10
2243.904545432
 20
1244.722647724
 11
2237.437855322
 21
1239.82449307
  0
LINE
  8
0
  6
CONTINUOUS
 62
     1
 10
2252.404703749
 20
1233.625021465
 11
2251.295581692
 21
1241.661180265
  0
LINE
  8
0
  6
CONTINUOUS
 62
     1
 10
2251.295581692
 20
1241.661180265
 11
2243.904545432
 21
1244.722647724
  0
LINE
  8
0
  6
CONTINUOUS
 62
     1
 10
2173.688334269
 20
1296.646977379
 11
2181.72449307
 21
1295.537855322
  0
LINE
  8
0
  6
CONTINUOUS
 62
     1
 10
2175.525021465
 20
1310.504703749
 11
2170.62686681
 21
1304.038013639
  0
LINE
  8
0
  6
CONTINUOUS
 62
     1
 10
2170.62686681
 20
1304.038013639
 11
2173.688334269
 21
1296.646977379
  0
LINE
  8
0
  6
LTYPE3
 62
     2
 10
2193.868769554
 20
1309.335556169
 11
2163.380744981
 21
1296.707002901
  0
ARC
  8
0
  6
LTYPE2
 62
     2
 10
2291.8
 20
1349.9
 40
122.5
 50
194.391630448
 51
209.228051943
  0
LINE
  8
0
  6
CONTINUOUS
 62
     1
 10
2183.561180265
 20
1309.395581692
 11
2175.525021465
 21
1310.504703749
  0
LINE
  8
0
  6
CONTINUOUS
 62
     1
 10
2181.72449307
 20
1295.537855322
 11
2186.622647724
 21
1302.004545432
  0
LINE
  8
0
  6
CONTINUOUS
 62
     1
 10
2186.622647724
 20
1302.004545432
 11
2183.561180265
 21
1309.395581692
  0
LINE
  8
0
  6
CONTINUOUS
 62
     1
 10
2170.62686681
 20
1395.761986361
 11
2175.525021465
 21
1389.295296251
  0
LINE
  8
0
  6
CONTINUOUS
 62
     1
 10
2181.72449307
 20
1404.262144678
 11
2173.688334269
 21
1403.153022621
  0
LINE
  8
0
  6
CONTINUOUS
 62
     1
 10
2173.688334269
 20
1403.153022621
 11
2170.62686681
 21
1395.761986361
  0
LINE
  8
0
  6
LTYPE3
 62
     2
 10
2193.868769554
 20
1390.464443831
 11
2163.380744981
 21
1403.092997099
  0
ARC
  8
0
  6
LTYPE2
 62
     2
 10
2291.8
 20
1349.9
 40
122.5
 50
149.391630448
 51
164.228051943
  0
LINE
  8
0
  6
CONTINUOUS
 62
     1
 10
2186.622647724
 20
1397.795454568
 11
2181.72449307
 21
1404.262144678
  0
LINE
  8
0
  6
CONTINUOUS
 62
     1
 10
2175.525021465
 20
1389.295296251
 11
2183.561180265
 21
1390.404418308
  0
LINE
  8
0
  6
CONTINUOUS
 62
     1
 10
2183.561180265
 20
1390.404418308
 11
2186.622647724
 21
1397.795454568
  0
ARC
  8
0
  6
CONTINUOUS
 62
     1
 10
2244.921279535
 20
1463.075242733
 40
10.3
 50
317.278490977
 51
264.504218195
  0
ARC
  8
0
  6
CONTINUOUS
 62
     1
 10
2244.921279535
 20
1463.075242733
 40
12.0
 50
332.083317917
 51
252.833434059
  0
ARC
  8
0
  6
CONTINUOUS
 62
     1
 10
2338.678720465
 20
1463.075242733
 40
10.3
 50
277.471202637
 51
220.573247726
  0
ARC
  8
0
  6
CONTINUOUS
 62
     1
 10
2338.678720465
 20
1463.075242733
 40
12.0
 50
290.471652114
 51
206.501442253
  0
ARC
  8
0
  6
CONTINUOUS
 62
     1
 10
2404.975242733
 20
1396.778720465
 40
10.3
 50
230.61676377
 51
170.209727647
  0
ARC
  8
0
  6
CONTINUOUS
 62
     1
 10
2404.975242733
 20
1396.778720465
 40
12.0
 50
239.829635984
 51
159.541892948
  0
ARC
  8
0
  6
CONTINUOUS
 62
     1
 10
2404.975242733
 20
1303.021279535
 40
12.0
 50
202.389338209
 51
118.557540964
  0
ARC
  8
0
  6
CONTINUOUS
 62
     1
 10
2404.975242733
 20
1303.021279535
 40
10.3
 50
189.12117318
 51
128.623662735
  0
ARC
  8
0
  6
CONTINUOUS
 62
     1
 10
2338.678720465
 20
1236.724757267
 40
10.3
 50
148.123345369
 51
81.437353063
  0
ARC
  8
0
  6
CONTINUOUS
 62
     1
 10
2338.678720465
 20
1236.724757267
 40
12.0
 50
155.90706328
 51
71.27802552
  0
ARC
  8
0
  6
CONTINUOUS
 62
     1
 10
2244.921279535
 20
1236.724757267
 40
10.3
 50
98.272598377
 51
39.20961919
  0
ARC
  8
0
  6
CONTINUOUS
 62
     1
 10
2244.921279535
 20
1236.724757267
 40
12.0
 50
111.411276987
 51
24.294453875
  0
ARC
  8
0
  6
CONTINUOUS
 62
     1
 10
2178.624757267
 20
1303.021279535
 40
10.3
 50
51.8470121
 51
350.783197975
  0
ARC
  8
0
  6
CONTINUOUS
 62
     1
 10
2178.624757267
 20
1303.021279535
 40
12.0
 50
62.843651902
 51
339.707391664
  0
ARC
  8
0
  6
CONTINUOUS
 62
     1
 10
2178.624757267
 20
1396.778720465
 40
10.3
 50
4.399355532
 51
309.337180037
  0
ARC
  8
0
  6
CONTINUOUS
 62
     1
 10
2178.624757267
 20
1396.778720465
 40
12.0
 50
15.811239709
 51
293.057526398
  0
POLYLINE
  8
0
  6
CONTINUOUS
 62
     2
 66
     1
  0
VERTEX
  8
0
  6
CONTINUOUS
 62
     2
 10
301.3
 20
1888.82
  0
VERTEX
  8
0
  6
CONTINUOUS
 62
     2
 10
454.9
 20
1888.82
  0
VERTEX
  8
0
  6
CONTINUOUS
 62
     2
 10
408.535560338
 20
1901.243314165
  0
SEQEND
  0
LINE
  8
0
  6
CONTINUOUS
 62
     2
 10
454.9
 20
1888.82
 11
408.535560338
 21
1876.396685835
  0
LINE
  8
0
  6
LTYPE1
 62
     2
 10
301.3
 20
1856.82
 11
454.9
 21
1856.82
  0
LINE
  8
0
  6
LTYPE1
 62
     2
 10
294.9
 20
1856.82
 11
341.264439662
 21
1844.396685835
  0
LINE
  8
0
  6
LTYPE1
 62
     2
 10
294.9
 20
1856.82
 11
341.264439662
 21
1869.243314165
  0
TEXT
  8
0
  6
CONTINUOUS
 62
     2
 10
470.9
 20
1880.82
 30
2.88
 40
28.8
  1
出
 50
0.0
 41
0.9
 51
0.0
  7
KANJI44
  0
TEXT
  8
0
  6
CONTINUOUS
 62
     2
 10
470.9
 20
1844.02
 30
2.88
 40
28.8
  1
入
 50
0.0
 41
0.9
 51
0.0
  7
KANJI44
  0
TEXT
  8
0
  6
CONTINUOUS
 62
     2
 10
302.9
 20
1922.42
 30
2.88
 40
28.8
  1
シャフト回転方向
 50
0.0
 41
0.9
 51
0.0
  7
KANJI44
  0
LINE
  8
0
  6
CONTINUOUS
 62
     1
 10
763.1
 20
2069.4
 11
763.1
 21
2105.4
  0
LINE
  8
0
  6
CONTINUOUS
 62
     1
 10
707.1
 20
2069.4
 11
707.1
 21
2105.4
  0
LINE
  8
0
  6
CONTINUOUS
 62
     1
 10
707.1
 20
2105.4
 11
763.1
 21
2105.4
  0
LINE
  8
0
  6
CONTINUOUS
 62
     1
 10
707.1
 20
2069.4
 11
763.1
 21
2069.4
  0
LINE
  8
0
  6
LTYPE2
 62
     2
 10
735.1
 20
1896.826614458
 11
735.1
 21
2114.4
  0
LINE
  8
7
  6
CONTINUOUS
 62
     2
 10
707.1
 20
2117.4
 11
707.1
 21
2155.826614458
  0
LINE
  8
7
  6
CONTINUOUS
 62
     2
 10
707.1
 20
2143.826614458
 11
726.418516526
 21
2138.650233556
  0
LINE
  8
7
  6
CONTINUOUS
 62
     2
 10
707.1
 20
2143.826614458
 11
726.418516526
 21
2149.002995361
  0
LINE
  8
7
  6
CONTINUOUS
 62
     2
 10
707.1
 20
2143.826614458
 11
763.1
 21
2143.826614458
  0
LINE
  8
7
  6
CONTINUOUS
 62
     2
 10
763.1
 20
2143.826614458
 11
743.781483474
 21
2149.002995361
  0
LINE
  8
7
  6
CONTINUOUS
 62
     2
 10
763.1
 20
2143.826614458
 11
743.781483474
 21
2138.650233556
  0
LINE
  8
7
  6
CONTINUOUS
 62
     2
 10
763.1
 20
2117.4
 11
763.1
 21
2155.826614458
  0
TEXT
  8
7
  6
CONTINUOUS
 62
     2
 10
714.7
 20
2151.826614458
 30
0.8
 40
24.0
  1
１４
 50
0.0
 41
0.833333333
 51
0.0
  7
KANJI28
  0
LINE
  8
7
  6
CONTINUOUS
 62
     2
 10
695.1
 20
2105.4
 11
631.1
 21
2105.4
  0
LINE
  8
7
  6
CONTINUOUS
 62
     2
 10
643.1
 20
2105.4
 11
648.276380902
 21
2124.718516526
  0
LINE
  8
7
  6
CONTINUOUS
 62
     2
 10
643.1
 20
2105.4
 11
637.923619098
 21
2124.718516526
  0
LINE
  8
7
  6
CONTINUOUS
 62
     2
 10
643.1
 20
2135.4
 11
643.1
 21
2039.4
  0
LINE
  8
7
  6
CONTINUOUS
 62
     2
 10
643.1
 20
2069.4
 11
637.923619098
 21
2050.081483474
  0
LINE
  8
7
  6
CONTINUOUS
 62
     2
 10
643.1
 20
2069.4
 11
648.276380902
 21
2050.081483474
  0
LINE
  8
7
  6
CONTINUOUS
 62
     2
 10
695.1
 20
2069.4
 11
631.1
 21
2069.4
  0
TEXT
  8
7
  6
CONTINUOUS
 62
     2
 10
635.1
 20
2077.4
 30
0.8
 40
24.0
  1
９
 50
90.0
 41
0.833333333
 51
0.0
  7
KANJI28
  0
LINE
  8
7
  6
CONTINUOUS
 62
     2
 10
687.513331964
 20
1929.376294167
 11
702.314226624
 21
1942.827447176
  0
LINE
  8
7
  6
CONTINUOUS
 62
     2
 10
687.513331964
 20
1929.376294167
 11
693.605706233
 21
1948.425781713
  0
LINE
  8
7
  6
CONTINUOUS
 62
     2
 10
687.513331964
 20
1929.376294167
 11
782.686668036
 21
2077.423705833
  0
LINE
  8
7
  6
CONTINUOUS
 62
     2
 10
782.686668036
 20
2077.423705833
 11
767.885773376
 21
2063.972552824
  0
LINE
  8
7
  6
CONTINUOUS
 62
     2
 10
782.686668036
 20
2077.423705833
 11
776.594293767
 21
2058.374218287
  0
TEXT
  8
7
  6
CONTINUOUS
 62
     2
 10
692.370572197
 20
1951.726060731
 30
0.8
 40
24.0
  1
φ４４
 50
57.264773728
 41
0.833333333
 51
0.0
  7
KANJI28
  0
LINE
  8
0
  6
LTYPE2
 62
     2
 10
633.1
 20
2003.4
 11
696.1
 21
2003.4
  0
LINE
  8
0
  6
LTYPE2
 62
     2
 10
725.6
 20
2003.4
 11
838.1
 21
2003.4
  0
TEXT
  8
0
  6
CONTINUOUS
 62
     2
 10
588.225
 20
1837.025
 30
0.0
 40
36.0
  1
入力シャフト（１／２）
 50
0.0
 41
0.888888889
 51
0.0
  7
KANJI45
  0
ARC
  8
0
  6
CONTINUOUS
 62
     1
 10
735.1
 20
2003.4
 40
88.0
 50
108.553004535
 51
71.446995465
  0
ARC
  8
0
  6
CONTINUOUS
 62
     2
 10
735.1
 20
2003.4
 40
88.0
 50
71.446995465
 51
90.0
  0
LINE
  8
7
  6
CONTINUOUS
 62
     2
 10
747.1
 20
2091.4
 11
876.1
 21
2091.4
  0
LINE
  8
7
  6
CONTINUOUS
 62
     2
 10
864.1
 20
2091.4
 11
869.276380902
 21
2110.718516526
  0
LINE
  8
7
  6
CONTINUOUS
 62
     2
 10
864.1
 20
2091.4
 11
858.923619098
 21
2110.718516526
  0
LINE
  8
7
  6
CONTINUOUS
 62
     2
 10
864.1
 20
2211.64
 11
864.1
 21
2039.4
  0
LINE
  8
7
  6
CONTINUOUS
 62
     2
 10
864.1
 20
2069.4
 11
858.923619098
 21
2050.081483474
  0
LINE
  8
7
  6
CONTINUOUS
 62
     2
 10
864.1
 20
2069.4
 11
869.276380902
 21
2050.081483474
  0
LINE
  8
7
  6
CONTINUOUS
 62
     2
 10
775.1
 20
2069.4
 11
876.1
 21
2069.4
  0
TEXT
  8
7
  6
CONTINUOUS
 62
     2
 10
856.1
 20
2167.2
 30
0.48
 40
14.4
  1
　０
 50
90.0
 41
0.833333333
 51
0.0
  7
KANJI46
  0
TEXT
  8
7
  6
CONTINUOUS
 62
     2
 10
841.7
 20
2167.2
 30
0.48
 40
14.4
  1
＋０．２
 50
90.0
 41
0.833333333
 51
0.0
  7
KANJI46
  0
TEXT
  8
7
  6
CONTINUOUS
 62
     2
 10
856.1
 20
2103.4
 30
0.8
 40
24.0
  1
５．５
 50
90.0
 41
0.833333333
 51
0.0
  7
KANJI28
  0
TEXT
  8
0
  6
CONTINUOUS
 62
     2
 10
655.35
 20
1793.15
 30
0.0
 40
28.0
  1
新ＪＩＳキー付
 50
0.0
 41
0.857142857
 51
0.0
  7
KANJI47
  0
LINE
  8
0
  6
CONTINUOUS
 62
     2
 10
576.1
 20
1825.4
 11
934.1
 21
1825.4
  0
LINE
  8
0
  6
CONTINUOUS
 62
     1
 10
1015.2
 20
1374.8
 11
1065.2
 21
1374.8
  0
CIRCLE
  8
0
  6
CONTINUOUS
 62
     2
 10
1040.2
 20
1349.8
 40
20.0
  0
CIRCLE
  8
0
  6
CONTINUOUS
 62
     1
 10
1040.2
 20
1349.8
 40
19.25
  0
LINE
  8
0
  6
CONTINUOUS
 62
     1
 10
1015.2
 20
1374.8
 11
1015.2
 21
1324.8
  0
LINE
  8
0
  6
CONTINUOUS
 62
     1
 10
1065.2
 20
1374.8
 11
1065.2
 21
1324.8
  0
LINE
  8
0
  6
LTYPE2
 62
     2
 10
1040.2
 20
1306.5
 11
1040.2
 21
1388.0
  0
LINE
  8
0
  6
LTYPE2
 62
     2
 10
1040.2
 20
1388.0
 11
1040.2
 21
1306.5
  0
LINE
  8
0
  6
CONTINUOUS
 62
     2
 10
1047.5
 20
1369.0
 11
1060.172832398
 21
1384.472534343
  0
LINE
  8
0
  6
CONTINUOUS
 62
     2
 10
1047.5
 20
1369.0
 11
1050.738727623
 21
1388.736024001
  0
LINE
  8
0
  6
CONTINUOUS
 62
     2
 10
1047.5
 20
1369.0
 11
1118.0
 21
1525.0
  0
LINE
  8
0
  6
CONTINUOUS
 62
     1
 10
1015.2
 20
1324.8
 11
1065.2
 21
1324.8
  0
TEXT
  8
2
  6
CONTINUOUS
 62
     3
 10
1124.439
 20
1531.9
 30
0.0
 40
24.0
  1
給脂口
 50
0.0
 41
0.9
 51
0.0
  7
KANJI29
  0
LINE
  8
2
  6
CONTINUOUS
 62
     2
 10
1118.816089934
 20
1523.9
 11
1206.816089934
 21
1523.9
  0
LINE
  8
0
  6
CONTINUOUS
 62
     2
 10
1198.8
 20
1670.32
 11
1352.4
 21
1670.32
  0
LINE
  8
0
  6
CONTINUOUS
 62
     2
 10
1352.4
 20
1670.32
 11
1306.035560338
 21
1682.743314165
  0
LINE
  8
0
  6
CONTINUOUS
 62
     2
 10
1352.4
 20
1670.32
 11
1306.035560338
 21
1657.896685835
  0
LINE
  8
0
  6
LTYPE1
 62
     2
 10
1198.8
 20
1638.32
 11
1352.4
 21
1638.32
  0
LINE
  8
0
  6
LTYPE1
 62
     2
 10
1192.4
 20
1638.32
 11
1238.764439662
 21
1625.896685835
  0
LINE
  8
0
  6
LTYPE1
 62
     2
 10
1192.4
 20
1638.32
 11
1238.764439662
 21
1650.743314165
  0
TEXT
  8
0
  6
CONTINUOUS
 62
     2
 10
1368.4
 20
1662.32
 30
2.88
 40
28.8
  1
出
 50
0.0
 41
0.9
 51
0.0
  7
KANJI44
  0
TEXT
  8
0
  6
CONTINUOUS
 62
     2
 10
1368.4
 20
1625.52
 30
2.88
 40
28.8
  1
入
 50
0.0
 41
0.9
 51
0.0
  7
KANJI44
  0
TEXT
  8
0
  6
CONTINUOUS
 62
     2
 10
1200.4
 20
1703.92
 30
2.88
 40
28.8
  1
ピストンロッド
 50
0.0
 41
0.9
 51
0.0
  7
KANJI44
  0
LINE
  8
0
  6
LTYPE2
 62
     2
 10
1899.2
 20
1686.0
 11
1621.3
 21
1686.0
  0
LINE
  8
2
  6
CONTINUOUS
 62
     2
 10
1815.2
 20
1605.1
 11
1815.2
 21
1593.0
  0
LINE
  8
0
  6
CONTINUOUS
 62
     1
 10
1695.2
 20
1726.0
 11
1880.2
 21
1726.0
  0
LINE
  8
0
  6
CONTINUOUS
 62
     1
 10
1685.2
 20
1616.0
 11
1685.2
 21
1756.0
  0
LINE
  8
0
  6
CONTINUOUS
 62
     1
 10
1695.2
 20
1726.0
 11
1695.2
 21
1755.5
  0
LINE
  8
0
  6
CONTINUOUS
 62
     1
 10
1685.2
 20
1755.5
 11
1695.2
 21
1755.5
  0
LINE
  8
0
  6
CONTINUOUS
 62
     1
 10
1695.2
 20
1646.0
 11
1880.2
 21
1646.0
  0
LINE
  8
0
  6
CONTINUOUS
 62
     1
 10
1695.2
 20
1616.5
 11
1695.2
 21
1646.0
  0
LINE
  8
0
  6
CONTINUOUS
 62
     1
 10
1685.2
 20
1616.5
 11
1695.2
 21
1616.5
  0
LINE
  8
0
  6
LTYPE1
 62
     2
 10
1783.7
 20
1646.0
 11
1783.7
 21
1726.0
  0
LINE
  8
0
  6
LTYPE1
 62
     2
 10
1846.7
 20
1646.0
 11
1846.7
 21
1726.0
  0
LINE
  8
0
  6
CONTINUOUS
 62
     1
 10
1880.2
 20
1646.0
 11
1880.2
 21
1726.0
  0
LINE
  8
0
  6
CONTINUOUS
 62
     1
 10
1865.2
 20
1646.0
 11
1865.2
 21
1726.0
  0
LINE
  8
0
  6
CONTINUOUS
 62
     2
 10
1695.2
 20
1608.5
 11
1695.2
 21
1528.05
  0
LINE
  8
0
  6
CONTINUOUS
 62
     2
 10
1695.2
 20
1536.05
 11
1714.518516526
 21
1530.873619098
  0
LINE
  8
0
  6
CONTINUOUS
 62
     2
 10
1695.2
 20
1536.05
 11
1714.518516526
 21
1541.226380902
  0
LINE
  8
0
  6
CONTINUOUS
 62
     2
 10
1695.2
 20
1536.05
 11
1815.2
 21
1536.05
  0
LINE
  8
0
  6
CONTINUOUS
 62
     2
 10
1815.2
 20
1536.05
 11
1795.881483474
 21
1541.226380902
  0
LINE
  8
0
  6
CONTINUOUS
 62
     2
 10
1815.2
 20
1536.05
 11
1795.881483474
 21
1530.873619098
  0
LINE
  8
0
  6
CONTINUOUS
 62
     2
 10
1815.2
 20
1590.8
 11
1815.2
 21
1528.05
  0
TEXT
  8
0
  6
CONTINUOUS
 62
     2
 10
1722.8
 20
1541.65
 30
0.0
 40
24.0
  1
１２０
 50
0.0
 41
0.9
 51
0.0
  7
KANJI29
  0
LINE
  8
0
  6
CONTINUOUS
 62
     2
 10
1815.2
 20
1548.95
 11
1815.2
 21
1528.05
  0
LINE
  8
0
  6
CONTINUOUS
 62
     2
 10
1815.2
 20
1536.05
 11
1834.518516526
 21
1530.873619098
  0
LINE
  8
0
  6
CONTINUOUS
 62
     2
 10
1815.2
 20
1536.05
 11
1834.518516526
 21
1541.226380902
  0
LINE
  8
0
  6
CONTINUOUS
 62
     2
 10
1815.2
 20
1536.05
 11
1880.2
 21
1536.05
  0
LINE
  8
0
  6
CONTINUOUS
 62
     2
 10
1880.2
 20
1536.05
 11
1860.881483474
 21
1541.226380902
  0
LINE
  8
0
  6
CONTINUOUS
 62
     2
 10
1880.2
 20
1536.05
 11
1860.881483474
 21
1530.873619098
  0
LINE
  8
0
  6
CONTINUOUS
 62
     2
 10
1880.2
 20
1638.0
 11
1880.2
 21
1528.05
  0
TEXT
  8
0
  6
CONTINUOUS
 62
     2
 10
1826.1
 20
1541.65
 30
0.0
 40
24.0
  1
６５
 50
0.0
 41
0.9
 51
0.0
  7
KANJI29
  0
LINE
  8
0
  6
CONTINUOUS
 62
     2
 10
1695.2
 20
1554.2
 11
1695.2
 21
1528.05
  0
LINE
  8
0
  6
CONTINUOUS
 62
     2
 10
1695.2
 20
1536.05
 11
1714.518516526
 21
1530.873619098
  0
LINE
  8
0
  6
CONTINUOUS
 62
     2
 10
1695.2
 20
1536.05
 11
1714.518516526
 21
1541.226380902
  0
LINE
  8
0
  6
CONTINUOUS
 62
     2
 10
1725.2
 20
1536.05
 11
1695.2
 21
1536.05
  0
LINE
  8
0
  6
CONTINUOUS
 62
     2
 10
1695.2
 20
1536.05
 11
1685.2
 21
1536.05
  0
LINE
  8
0
  6
CONTINUOUS
 62
     2
 10
1685.2
 20
1536.05
 11
1612.0
 21
1536.05
  0
LINE
  8
0
  6
CONTINUOUS
 62
     2
 10
1685.2
 20
1536.05
 11
1665.881483474
 21
1541.226380902
  0
LINE
  8
0
  6
CONTINUOUS
 62
     2
 10
1685.2
 20
1536.05
 11
1665.881483474
 21
1530.873619098
  0
LINE
  8
0
  6
CONTINUOUS
 62
     2
 10
1685.2
 20
1608.5
 11
1685.2
 21
1528.05
  0
TEXT
  8
0
  6
CONTINUOUS
 62
     2
 10
1612.0
 20
1541.65
 30
0.0
 40
24.0
  1
１０
 50
0.0
 41
0.9
 51
0.0
  7
KANJI29
  0
LINE
  8
0
  6
CONTINUOUS
 62
     2
 10
1888.2
 20
1726.0
 11
1951.65
 21
1726.0
  0
LINE
  8
0
  6
CONTINUOUS
 62
     2
 10
1943.65
 20
1726.0
 11
1938.473619098
 21
1706.681483474
  0
LINE
  8
0
  6
CONTINUOUS
 62
     2
 10
1943.65
 20
1726.0
 11
1948.826380902
 21
1706.681483474
  0
LINE
  8
0
  6
CONTINUOUS
 62
     2
 10
1943.65
 20
1726.0
 11
1943.65
 21
1646.0
  0
LINE
  8
0
  6
CONTINUOUS
 62
     2
 10
1943.65
 20
1646.0
 11
1948.826380902
 21
1665.318516526
  0
LINE
  8
0
  6
CONTINUOUS
 62
     2
 10
1943.65
 20
1646.0
 11
1938.473619098
 21
1665.318516526
  0
LINE
  8
0
  6
CONTINUOUS
 62
     2
 10
1888.2
 20
1646.0
 11
1951.65
 21
1646.0
  0
TEXT
  8
0
  6
CONTINUOUS
 62
     2
 10
1938.05
 20
1664.4
 30
0.0
 40
24.0
  1
８０
 50
90.0
 41
0.9
 51
0.0
  7
KANJI29
  0
LINE
  8
0
  6
LTYPE2
 62
     2
 10
1815.2
 20
1751.5
 11
1815.2
 21
1595.0
  0
LINE
  8
0
  6
CONTINUOUS
 62
     2
 10
1783.7
 20
1734.0
 11
1783.7
 21
1786.7
  0
LINE
  8
0
  6
CONTINUOUS
 62
     2
 10
1846.7
 20
1734.0
 11
1846.7
 21
1786.7
  0
LINE
  8
0
  6
CONTINUOUS
 62
     2
 10
1783.7
 20
1778.7
 11
1803.018516526
 21
1773.523619098
  0
LINE
  8
0
  6
CONTINUOUS
 62
     2
 10
1783.7
 20
1778.7
 11
1803.018516526
 21
1783.876380902
  0
LINE
  8
0
  6
CONTINUOUS
 62
     2
 10
1783.7
 20
1778.7
 11
1846.7
 21
1778.7
  0
TEXT
  8
0
  6
CONTINUOUS
 62
     2
 10
1750.4
 20
1784.3
 30
0.0
 40
24.0
  1
φ６３Ｈ１０
 50
0.0
 41
0.9
 51
0.0
  7
KANJI29
  0
LINE
  8
0
  6
CONTINUOUS
 62
     2
 10
1846.7
 20
1778.7
 11
1827.381483474
 21
1783.876380902
  0
LINE
  8
0
  6
CONTINUOUS
 62
     2
 10
1846.7
 20
1778.7
 11
1827.381483474
 21
1773.523619098
  0
LINE
  8
0
  6
CONTINUOUS
 62
     2
 10
2348.18
 20
2009.99
 11
2348.18
 21
1973.63
  0
LINE
  8
0
  6
CONTINUOUS
 62
     2
 10
2402.9
 20
2026.55
 11
2385.513335127
 21
2031.208742812
  0
LINE
  8
0
  6
CONTINUOUS
 62
     2
 10
2402.9
 20
2026.55
 11
2385.513335127
 21
2021.891257188
  0
LINE
  8
0
  6
CONTINUOUS
 62
     2
 10
2060.18
 20
1991.63
 11
2077.566664873
 21
1986.971257188
  0
LINE
  8
0
  6
CONTINUOUS
 62
     2
 10
2060.18
 20
1991.63
 11
2077.566664873
 21
1996.288742812
  0
LINE
  8
0
  6
CONTINUOUS
 62
     2
 10
2348.18
 20
1991.63
 11
2330.793335127
 21
1996.288742812
  0
LINE
  8
0
  6
CONTINUOUS
 62
     2
 10
2348.18
 20
1991.63
 11
2330.793335127
 21
1986.971257188
  0
LINE
  8
0
  6
CONTINUOUS
 62
     2
 10
2060.18
 20
1991.63
 11
2042.793335127
 21
1996.288742812
  0
LINE
  8
0
  6
CONTINUOUS
 62
     2
 10
2060.18
 20
1991.63
 11
2042.793335127
 21
1986.971257188
  0
LINE
  8
0
  6
CONTINUOUS
 62
     2
 10
2348.18
 20
1991.63
 11
2365.566664873
 21
1986.971257188
  0
LINE
  8
0
  6
CONTINUOUS
 62
     2
 10
2348.18
 20
1991.63
 11
2365.566664873
 21
1996.288742812
  0
LINE
  8
0
  6
CONTINUOUS
 62
     2
 10
2402.9
 20
1991.63
 11
2385.513335127
 21
1996.288742812
  0
LINE
  8
0
  6
CONTINUOUS
 62
     2
 10
2402.9
 20
1991.63
 11
2385.513335127
 21
1986.971257188
  0
LINE
  8
0
  6
CONTINUOUS
 62
     2
 10
2033.9
 20
1987.67
 11
2046.570828756
 21
1974.885239594
  0
LINE
  8
0
  6
CONTINUOUS
 62
     2
 10
2033.9
 20
1987.67
 11
2051.265639793
 21
1982.933487085
  0
LINE
  8
0
  6
CONTINUOUS
 62
     2
 10
2033.9
 20
1987.67
 11
2163.5
 21
1912.07
  0
LINE
  8
0
  6
CONTINUOUS
 62
     2
 10
2377.34
 20
1992.35
 11
2359.42520875
 21
1990.600641694
  0
LINE
  8
0
  6
CONTINUOUS
 62
     2
 10
2377.34
 20
1992.35
 11
2362.700014827
 21
1981.877615642
  0
LINE
  8
0
  6
CONTINUOUS
 62
     2
 10
2377.34
 20
1992.35
 11
2163.5
 21
1912.07
  0
TEXT
  8
0
  6
CONTINUOUS
 62
     2
 10
2254.22
 20
1919.27
 30
0.0
 40
21.6
  1
惰行距離＋ストローク余裕
 50
0.0
 41
0.9
 51
0.0
  7
KANJI48
  0
LINE
  8
0
  6
CONTINUOUS
 62
     2
 10
2000.06
 20
2048.15
 11
2000.06
 21
1970.75
  0
LINE
  8
0
  6
CONTINUOUS
 62
     2
 10
2000.06
 20
2026.55
 11
2017.446664873
 21
2021.891257188
  0
LINE
  8
0
  6
CONTINUOUS
 62
     2
 10
2000.06
 20
2026.55
 11
2017.446664873
 21
2031.208742812
  0
LINE
  8
0
  6
CONTINUOUS
 62
     2
 10
2000.06
 20
1991.63
 11
2017.446664873
 21
1986.971257188
  0
LINE
  8
0
  6
CONTINUOUS
 62
     2
 10
2000.06
 20
1991.63
 11
2017.446664873
 21
1996.288742812
  0
LINE
  8
0
  6
CONTINUOUS
 62
     2
 10
2000.06
 20
2026.55
 11
2402.9
 21
2026.55
  0
LINE
  8
0
  6
CONTINUOUS
 62
     2
 10
2000.06
 20
1991.63
 11
1982.673335127
 21
1986.971257188
  0
LINE
  8
0
  6
CONTINUOUS
 62
     2
 10
2000.06
 20
1991.63
 11
1982.673335127
 21
1996.288742812
  0
LINE
  8
0
  6
CONTINUOUS
 62
     2
 10
2060.18
 20
2010.71
 11
2060.18
 21
1931.42
  0
LINE
  8
0
  6
CONTINUOUS
 62
     2
 10
2060.18
 20
1939.34
 11
1830.14
 21
1939.34
  0
LINE
  8
0
  6
CONTINUOUS
 62
     2
 10
2060.18
 20
1939.34
 11
2042.793335127
 21
1934.681257188
  0
LINE
  8
0
  6
CONTINUOUS
 62
     2
 10
2060.18
 20
1939.34
 11
2042.793335127
 21
1943.998742812
  0
LINE
  8
0
  6
CONTINUOUS
 62
     2
 10
2402.9
 20
2075.06
 11
2402.9
 21
1977.95
  0
TEXT
  8
0
  6
CONTINUOUS
 62
     2
 10
1880.9
 20
1947.26
 30
2.16
 40
21.6
  1
取付ｍｉｎ．寸法
 50
0.0
 41
0.9
 51
0.0
  7
KANJI49
  0
LINE
  8
0
  6
CONTINUOUS
 62
     2
 10
1766.42
 20
1991.63
 11
2403.26
 21
1991.63
  0
LINE
  8
0
  6
CONTINUOUS
 62
     2
 10
2402.6075
 20
2063.99
 11
2385.220835127
 21
2068.648742812
  0
LINE
  8
0
  6
CONTINUOUS
 62
     2
 10
2402.6075
 20
2063.99
 11
2385.220835127
 21
2059.331257188
  0
LINE
  8
0
  6
CONTINUOUS
 62
     2
 10
2402.9
 20
2063.9
 11
1993.58
 21
2063.9
  0
TEXT
  8
0
  6
CONTINUOUS
 62
     2
 10
1883.42
 20
1904.42
 30
2.16
 40
21.6
  1
（　　　　　）
 50
0.0
 41
0.9
 51
0.0
  7
KANJI49
  0
TEXT
  8
0
  6
CONTINUOUS
 62
     2
 10
1773.26
 20
2000.9
 30
2.16
 40
21.6
  1
ｍｉｎ．Ｌ（　　　　）
 50
0.0
 41
0.9
 51
0.0
  7
KANJI49
  0
TEXT
  8
0
  6
CONTINUOUS
 62
     2
 10
2070.62
 20
2071.46
 30
2.16
 40
21.6
  1
ｍａｘ．Ｌ（　　　　）
 50
0.0
 41
0.9
 51
0.0
  7
KANJI49
  0
TEXT
  8
0
  6
CONTINUOUS
 62
     2
 10
2072.78
 20
2037.35
 30
2.16
 40
21.6
  1
機械的ストローク（　　　　）
 50
0.0
 41
0.9
 51
0.0
  7
KANJI49
  0
TEXT
  8
0
  6
CONTINUOUS
 62
     2
 10
2109.14
 20
1998.11
 30
2.16
 40
21.6
  1
使用ストローク（　　　　）
 50
0.0
 41
0.9
 51
0.0
  7
KANJI49
  0
LINE
  8
0
  6
CONTINUOUS
 62
     2
 10
2490.74
 20
1912.07
 11
2163.5
 21
1912.07
  0
TEXT
  8
0
  6
CONTINUOUS
 62
     2
 10
2560.8
 20
1820.4
 30
12.0
 40
30.4
  1
機械的ストローク
 50
0.0
 41
0.9
 51
0.0
  7
KANJI50
  0
TEXT
  8
0
  6
CONTINUOUS
 62
     2
 10
2366.916876985
 20
913.719993986
 30
2.4
 40
32.0
  1
特記事項
 50
0.0
 41
0.925
 51
0.0
  7
KANJI51
  0
TEXT
  8
0
  6
CONTINUOUS
 62
     2
 10
2282.916876985
 20
860.719993986
 30
2.4
 40
32.0
  1
１。運転時は必ずピストンロッドの回転防止を行って下さい。
 50
0.0
 41
0.925
 51
0.0
  7
KANJI51
  0
TEXT
  8
0
  6
CONTINUOUS
 62
     2
 10
2284.916876985
 20
808.919993986
 30
2.4
 40
32.0
  1
２。形式表示ストロークは機械的最大ストロークです。
 50
0.0
 41
0.925
 51
0.0
  7
KANJI51
  0
TEXT
  8
0
  6
CONTINUOUS
 62
     2
 10
2284.916876985
 20
756.879993986
 30
2.4
 40
32.0
  1
　　実際に使用する場合は惰行距離を含め、両端に十分余裕を
 50
0.0
 41
0.925
 51
0.0
  7
KANJI51
  0
TEXT
  8
0
  6
CONTINUOUS
 62
     2
 10
2282.916876985
 20
706.579993986
 30
2.4
 40
32.0
  1
　　みて下さい。
 50
0.0
 41
0.925
 51
0.0
  7
KANJI51
  0
TEXT
  8
0
  6
CONTINUOUS
 62
     2
 10
2563.0
 20
283.0
 30
0.0
 40
32.0
  1
Ｓ
 50
0.0
 41
0.925
 51
0.0
  7
KANJI52
  0
CIRCLE
  8
0
  6
CONTINUOUS
 62
     2
 10
2576.5
 20
297.5
 40
20.0
  0
LINE
  8
0
  6
CONTINUOUS
 62
     2
 10
1143.0
 20
1457.8
 11
1143.0
 21
1241.8
  0
LINE
  8
0
  6
CONTINUOUS
 62
     2
 10
1143.0
 20
1241.8
 11
1148.176380902
 21
1261.118516526
  0
LINE
  8
0
  6
CONTINUOUS
 62
     2
 10
1143.0
 20
1241.8
 11
1137.823619098
 21
1261.118516526
  0
TEXT
  8
0
  6
CONTINUOUS
 62
     3
 10
1135.0
 20
1306.6
 30
0.0
 40
24.0
  1
φ２１６
 50
90.0
 41
0.9
 51
0.0
  7
KANJI29
  0
LINE
  8
0
  6
CONTINUOUS
 62
     2
 10
1143.0
 20
1457.8
 11
1137.823619098
 21
1438.481483474
  0
LINE
  8
0
  6
CONTINUOUS
 62
     2
 10
1143.0
 20
1457.8
 11
1148.176380902
 21
1438.481483474
  0
LINE
  8
0
  6
CONTINUOUS
 62
     1
 10
545.6
 20
1463.075242733
 11
545.6
 21
1449.244254635
  0
LINE
  8
0
  6
CONTINUOUS
 62
     1
 10
545.6
 20
1463.075242733
 11
545.6
 21
1476.90623083
  0
LINE
  8
0
  6
CONTINUOUS
 62
     1
 10
541.6
 20
1463.075242733
 11
545.599996995
 21
1459.075245737
  0
LINE
  8
0
  6
CONTINUOUS
 62
     1
 10
545.599996995
 20
1463.075242733
 11
541.6
 21
1467.075239728
  0
LINE
  8
0
  6
CONTINUOUS
 62
     1
 10
541.6
 20
1477.075242733
 11
545.6
 21
1477.075242733
  0
LINE
  8
0
  6
CONTINUOUS
 62
     1
 10
560.6
 20
1463.075242956
 11
560.6
 21
1451.075242733
  0
LINE
  8
0
  6
CONTINUOUS
 62
     1
 10
561.6
 20
1463.075242971
 11
561.6
 21
1452.80729354
  0
LINE
  8
0
  6
CONTINUOUS
 62
     1
 10
560.6
 20
1463.075242509
 11
560.6
 21
1475.075242733
  0
LINE
  8
0
  6
CONTINUOUS
 62
     1
 10
545.6
 20
1475.075242733
 11
560.6
 21
1475.075242733
  0
LINE
  8
0
  6
CONTINUOUS
 62
     1
 10
560.6
 20
1475.075242733
 11
561.6
 21
1473.343191925
  0
LINE
  8
0
  6
CONTINUOUS
 62
     1
 10
561.6
 20
1463.075242494
 11
561.6
 21
1473.343191925
  0
LINE
  8
0
  6
LTYPE2
 62
     2
 10
509.6
 20
1463.075242733
 11
569.6
 21
1463.075242733
  0
LINE
  8
0
  6
CONTINUOUS
 62
     1
 10
545.6
 20
1463.075242733
 11
545.6
 21
1449.244254635
  0
LINE
  8
0
  6
CONTINUOUS
 62
     1
 10
545.6
 20
1463.075242733
 11
545.6
 21
1476.90623083
  0
LINE
  8
0
  6
CONTINUOUS
 62
     1
 10
541.6
 20
1463.075242733
 11
545.599996995
 21
1459.075245737
  0
LINE
  8
0
  6
CONTINUOUS
 62
     1
 10
545.599996995
 20
1463.075242733
 11
541.6
 21
1467.075239728
  0
LINE
  8
0
  6
CONTINUOUS
 62
     1
 10
541.6
 20
1477.075242733
 11
545.6
 21
1477.075242733
  0
LINE
  8
0
  6
CONTINUOUS
 62
     1
 10
560.6
 20
1463.075242956
 11
560.6
 21
1451.075242733
  0
LINE
  8
0
  6
CONTINUOUS
 62
     1
 10
561.6
 20
1463.075242971
 11
561.6
 21
1452.80729354
  0
LINE
  8
0
  6
CONTINUOUS
 62
     1
 10
560.6
 20
1463.075242509
 11
560.6
 21
1475.075242733
  0
LINE
  8
0
  6
CONTINUOUS
 62
     1
 10
545.6
 20
1475.075242733
 11
560.6
 21
1475.075242733
  0
LINE
  8
0
  6
CONTINUOUS
 62
     1
 10
560.6
 20
1475.075242733
 11
561.6
 21
1473.343191925
  0
LINE
  8
0
  6
CONTINUOUS
 62
     1
 10
561.6
 20
1463.075242494
 11
561.6
 21
1473.343191925
  0
LINE
  8
0
  6
LTYPE2
 62
     2
 10
509.6
 20
1463.075242733
 11
569.6
 21
1463.075242733
  0
LINE
  8
0
  6
CONTINUOUS
 62
     1
 10
541.6
 20
1449.075242733
 11
545.6
 21
1449.075242733
  0
LINE
  8
0
  6
CONTINUOUS
 62
     1
 10
545.6
 20
1451.075242733
 11
560.6
 21
1451.075242733
  0
LINE
  8
0
  6
CONTINUOUS
 62
     1
 10
560.6
 20
1451.075242733
 11
561.6
 21
1452.80729354
  0
LINE
  8
0
  6
CONTINUOUS
 62
     1
 10
541.6
 20
1449.075242733
 11
545.6
 21
1449.075242733
  0
LINE
  8
0
  6
CONTINUOUS
 62
     1
 10
545.6
 20
1451.075242733
 11
560.6
 21
1451.075242733
  0
LINE
  8
0
  6
CONTINUOUS
 62
     1
 10
560.6
 20
1451.075242733
 11
561.6
 21
1452.80729354
  0
LINE
  8
0
  6
CONTINUOUS
 62
     1
 10
545.6
 20
1396.778720465
 11
545.6
 21
1382.947732367
  0
LINE
  8
0
  6
CONTINUOUS
 62
     1
 10
545.6
 20
1396.778720465
 11
545.6
 21
1410.609708563
  0
LINE
  8
0
  6
CONTINUOUS
 62
     1
 10
541.6
 20
1396.778720465
 11
545.599996995
 21
1392.77872347
  0
LINE
  8
0
  6
CONTINUOUS
 62
     1
 10
545.599996995
 20
1396.778720465
 11
541.6
 21
1400.77871746
  0
LINE
  8
0
  6
LTYPE2
 62
     2
 10
509.6
 20
1396.778720465
 11
569.6
 21
1396.778720465
  0
LINE
  8
0
  6
CONTINUOUS
 62
     1
 10
545.6
 20
1396.778720465
 11
545.6
 21
1382.947732367
  0
LINE
  8
0
  6
CONTINUOUS
 62
     1
 10
545.6
 20
1396.778720465
 11
545.6
 21
1410.609708563
  0
LINE
  8
0
  6
CONTINUOUS
 62
     1
 10
541.6
 20
1396.778720465
 11
545.599996995
 21
1392.77872347
  0
LINE
  8
0
  6
CONTINUOUS
 62
     1
 10
545.599996995
 20
1396.778720465
 11
541.6
 21
1400.77871746
  0
LINE
  8
0
  6
LTYPE2
 62
     2
 10
509.6
 20
1396.778720465
 11
569.6
 21
1396.778720465
  0
LINE
  8
0
  6
CONTINUOUS
 62
     1
 10
541.6
 20
1382.778720465
 11
545.6
 21
1382.778720465
  0
LINE
  8
0
  6
CONTINUOUS
 62
     1
 10
545.6
 20
1384.778720465
 11
560.6
 21
1384.778720465
  0
LINE
  8
0
  6
CONTINUOUS
 62
     1
 10
541.6
 20
1382.778720465
 11
545.6
 21
1382.778720465
  0
LINE
  8
0
  6
CONTINUOUS
 62
     1
 10
545.6
 20
1384.778720465
 11
560.6
 21
1384.778720465
  0
LINE
  8
0
  6
CONTINUOUS
 62
     1
 10
560.6
 20
1396.778720241
 11
560.6
 21
1408.778720465
  0
LINE
  8
0
  6
CONTINUOUS
 62
     1
 10
560.6
 20
1396.778720241
 11
560.6
 21
1408.778720465
  0
LINE
  8
0
  6
CONTINUOUS
 62
     1
 10
560.6
 20
1396.778720688
 11
560.6
 21
1384.778720465
  0
LINE
  8
0
  6
CONTINUOUS
 62
     1
 10
561.6
 20
1396.778720703
 11
561.6
 21
1386.510771272
  0
LINE
  8
0
  6
CONTINUOUS
 62
     1
 10
561.6
 20
1396.778720226
 11
561.6
 21
1407.046669657
  0
LINE
  8
0
  6
CONTINUOUS
 62
     1
 10
560.6
 20
1396.778720688
 11
560.6
 21
1384.778720465
  0
LINE
  8
0
  6
CONTINUOUS
 62
     1
 10
561.6
 20
1396.778720703
 11
561.6
 21
1386.510771272
  0
LINE
  8
0
  6
CONTINUOUS
 62
     1
 10
561.6
 20
1396.778720226
 11
561.6
 21
1407.046669657
  0
LINE
  8
0
  6
CONTINUOUS
 62
     1
 10
560.6
 20
1384.778720465
 11
561.6
 21
1386.510771272
  0
LINE
  8
0
  6
CONTINUOUS
 62
     1
 10
560.6
 20
1384.778720465
 11
561.6
 21
1386.510771272
  0
LINE
  8
0
  6
CONTINUOUS
 62
     1
 10
541.6
 20
1410.778720465
 11
545.6
 21
1410.778720465
  0
LINE
  8
0
  6
CONTINUOUS
 62
     1
 10
541.6
 20
1410.778720465
 11
545.6
 21
1410.778720465
  0
LINE
  8
0
  6
CONTINUOUS
 62
     1
 10
545.6
 20
1408.778720465
 11
560.6
 21
1408.778720465
  0
LINE
  8
0
  6
CONTINUOUS
 62
     1
 10
545.6
 20
1408.778720465
 11
560.6
 21
1408.778720465
  0
LINE
  8
0
  6
CONTINUOUS
 62
     1
 10
560.6
 20
1408.778720465
 11
561.6
 21
1407.046669657
  0
LINE
  8
0
  6
CONTINUOUS
 62
     1
 10
560.6
 20
1408.778720465
 11
561.6
 21
1407.046669657
  0
LINE
  8
0
  6
CONTINUOUS
 62
     1
 10
545.6
 20
1303.021279535
 11
545.6
 21
1316.852267633
  0
LINE
  8
0
  6
CONTINUOUS
 62
     1
 10
541.6
 20
1317.021279535
 11
545.6
 21
1317.021279535
  0
LINE
  8
0
  6
CONTINUOUS
 62
     1
 10
560.6
 20
1303.021279312
 11
560.6
 21
1315.021279535
  0
LINE
  8
0
  6
CONTINUOUS
 62
     1
 10
545.6
 20
1315.021279535
 11
560.6
 21
1315.021279535
  0
LINE
  8
0
  6
CONTINUOUS
 62
     1
 10
560.6
 20
1315.021279535
 11
561.6
 21
1313.289228728
  0
LINE
  8
0
  6
CONTINUOUS
 62
     1
 10
545.6
 20
1303.021279535
 11
545.6
 21
1316.852267633
  0
LINE
  8
0
  6
CONTINUOUS
 62
     1
 10
541.6
 20
1317.021279535
 11
545.6
 21
1317.021279535
  0
LINE
  8
0
  6
CONTINUOUS
 62
     1
 10
560.6
 20
1303.021279312
 11
560.6
 21
1315.021279535
  0
LINE
  8
0
  6
CONTINUOUS
 62
     1
 10
545.6
 20
1315.021279535
 11
560.6
 21
1315.021279535
  0
LINE
  8
0
  6
CONTINUOUS
 62
     1
 10
560.6
 20
1315.021279535
 11
561.6
 21
1313.289228728
  0
LINE
  8
0
  6
CONTINUOUS
 62
     1
 10
545.6
 20
1303.021279535
 11
545.6
 21
1289.190291437
  0
LINE
  8
0
  6
CONTINUOUS
 62
     1
 10
541.6
 20
1303.021279535
 11
545.599996995
 21
1307.02127653
  0
LINE
  8
0
  6
CONTINUOUS
 62
     1
 10
545.599996995
 20
1303.021279535
 11
541.6
 21
1299.02128254
  0
LINE
  8
0
  6
CONTINUOUS
 62
     1
 10
561.6
 20
1303.021279297
 11
561.6
 21
1313.289228728
  0
LINE
  8
0
  6
CONTINUOUS
 62
     1
 10
560.6
 20
1303.021279759
 11
560.6
 21
1291.021279535
  0
LINE
  8
0
  6
CONTINUOUS
 62
     1
 10
561.6
 20
1303.021279774
 11
561.6
 21
1292.753330343
  0
LINE
  8
0
  6
LTYPE2
 62
     2
 10
509.6
 20
1303.021279535
 11
569.6
 21
1303.021279535
  0
LINE
  8
0
  6
CONTINUOUS
 62
     1
 10
545.6
 20
1303.021279535
 11
545.6
 21
1289.190291437
  0
LINE
  8
0
  6
CONTINUOUS
 62
     1
 10
541.6
 20
1303.021279535
 11
545.599996995
 21
1307.02127653
  0
LINE
  8
0
  6
CONTINUOUS
 62
     1
 10
545.599996995
 20
1303.021279535
 11
541.6
 21
1299.02128254
  0
LINE
  8
0
  6
CONTINUOUS
 62
     1
 10
561.6
 20
1303.021279297
 11
561.6
 21
1313.289228728
  0
LINE
  8
0
  6
CONTINUOUS
 62
     1
 10
560.6
 20
1303.021279759
 11
560.6
 21
1291.021279535
  0
LINE
  8
0
  6
CONTINUOUS
 62
     1
 10
561.6
 20
1303.021279774
 11
561.6
 21
1292.753330343
  0
LINE
  8
0
  6
LTYPE2
 62
     2
 10
509.6
 20
1303.021279535
 11
569.6
 21
1303.021279535
  0
LINE
  8
0
  6
CONTINUOUS
 62
     1
 10
541.6
 20
1289.021279535
 11
545.6
 21
1289.021279535
  0
LINE
  8
0
  6
CONTINUOUS
 62
     1
 10
545.6
 20
1291.021279535
 11
560.6
 21
1291.021279535
  0
LINE
  8
0
  6
CONTINUOUS
 62
     1
 10
541.6
 20
1289.021279535
 11
545.6
 21
1289.021279535
  0
LINE
  8
0
  6
CONTINUOUS
 62
     1
 10
545.6
 20
1291.021279535
 11
560.6
 21
1291.021279535
  0
LINE
  8
0
  6
CONTINUOUS
 62
     1
 10
560.6
 20
1291.021279535
 11
561.6
 21
1292.753330343
  0
LINE
  8
0
  6
CONTINUOUS
 62
     1
 10
560.6
 20
1291.021279535
 11
561.6
 21
1292.753330343
  0
LINE
  8
0
  6
CONTINUOUS
 62
     1
 10
545.6
 20
1236.724757267
 11
545.6
 21
1250.555745365
  0
LINE
  8
0
  6
CONTINUOUS
 62
     1
 10
541.6
 20
1250.724757267
 11
545.6
 21
1250.724757267
  0
LINE
  8
0
  6
CONTINUOUS
 62
     1
 10
560.6
 20
1236.724757044
 11
560.6
 21
1248.724757267
  0
LINE
  8
0
  6
CONTINUOUS
 62
     1
 10
545.6
 20
1248.724757267
 11
560.6
 21
1248.724757267
  0
LINE
  8
0
  6
CONTINUOUS
 62
     1
 10
560.6
 20
1248.724757267
 11
561.6
 21
1246.99270646
  0
LINE
  8
0
  6
CONTINUOUS
 62
     1
 10
545.6
 20
1236.724757267
 11
545.6
 21
1250.555745365
  0
LINE
  8
0
  6
CONTINUOUS
 62
     1
 10
541.6
 20
1250.724757267
 11
545.6
 21
1250.724757267
  0
LINE
  8
0
  6
CONTINUOUS
 62
     1
 10
560.6
 20
1236.724757044
 11
560.6
 21
1248.724757267
  0
LINE
  8
0
  6
CONTINUOUS
 62
     1
 10
545.6
 20
1248.724757267
 11
560.6
 21
1248.724757267
  0
LINE
  8
0
  6
CONTINUOUS
 62
     1
 10
560.6
 20
1248.724757267
 11
561.6
 21
1246.99270646
  0
LINE
  8
0
  6
CONTINUOUS
 62
     1
 10
545.6
 20
1236.724757267
 11
545.6
 21
1222.89376917
  0
LINE
  8
0
  6
CONTINUOUS
 62
     1
 10
541.6
 20
1236.724757267
 11
545.599996995
 21
1240.724754263
  0
LINE
  8
0
  6
CONTINUOUS
 62
     1
 10
545.599996995
 20
1236.724757267
 11
541.6
 21
1232.724760272
  0
LINE
  8
0
  6
CONTINUOUS
 62
     1
 10
561.6
 20
1236.724757029
 11
561.6
 21
1246.99270646
  0
LINE
  8
0
  6
CONTINUOUS
 62
     1
 10
560.6
 20
1236.724757491
 11
560.6
 21
1224.724757267
  0
LINE
  8
0
  6
CONTINUOUS
 62
     1
 10
545.6
 20
1224.724757267
 11
560.6
 21
1224.724757267
  0
LINE
  8
0
  6
CONTINUOUS
 62
     1
 10
560.6
 20
1224.724757267
 11
561.6
 21
1226.456808075
  0
LINE
  8
0
  6
CONTINUOUS
 62
     1
 10
561.6
 20
1236.724757506
 11
561.6
 21
1226.456808075
  0
LINE
  8
0
  6
LTYPE2
 62
     2
 10
509.6
 20
1236.724757267
 11
569.6
 21
1236.724757267
  0
LINE
  8
0
  6
CONTINUOUS
 62
     1
 10
545.6
 20
1236.724757267
 11
545.6
 21
1222.89376917
  0
LINE
  8
0
  6
CONTINUOUS
 62
     1
 10
541.6
 20
1236.724757267
 11
545.599996995
 21
1240.724754263
  0
LINE
  8
0
  6
CONTINUOUS
 62
     1
 10
545.599996995
 20
1236.724757267
 11
541.6
 21
1232.724760272
  0
LINE
  8
0
  6
CONTINUOUS
 62
     1
 10
561.6
 20
1236.724757029
 11
561.6
 21
1246.99270646
  0
LINE
  8
0
  6
CONTINUOUS
 62
     1
 10
560.6
 20
1236.724757491
 11
560.6
 21
1224.724757267
  0
LINE
  8
0
  6
CONTINUOUS
 62
     1
 10
545.6
 20
1224.724757267
 11
560.6
 21
1224.724757267
  0
LINE
  8
0
  6
CONTINUOUS
 62
     1
 10
560.6
 20
1224.724757267
 11
561.6
 21
1226.456808075
  0
LINE
  8
0
  6
CONTINUOUS
 62
     1
 10
561.6
 20
1236.724757506
 11
561.6
 21
1226.456808075
  0
LINE
  8
0
  6
LTYPE2
 62
     2
 10
509.6
 20
1236.724757267
 11
569.6
 21
1236.724757267
  0
LINE
  8
0
  6
CONTINUOUS
 62
     1
 10
541.6
 20
1222.724757267
 11
545.6
 21
1222.724757267
  0
LINE
  8
0
  6
CONTINUOUS
 62
     1
 10
541.6
 20
1222.724757267
 11
545.6
 21
1222.724757267
  0
LINE
  8
0
  6
CONTINUOUS
 62
     1
 10
656.6
 20
1406.849894588
 11
560.6
 21
1406.849894588
  0
LINE
  8
0
  6
CONTINUOUS
 62
     1
 10
656.6
 20
1292.950105412
 11
560.6
 21
1292.950105412
  0
TEXT
  8
0
  6
CONTINUOUS
 62
     2
 10
1251.985251001
 20
437.08
 30
2.4
 40
24.0
  1
２５１０
 50
0.0
 41
0.9
 51
0.0
  7
KANJI32
  0
TEXT
  8
0
  6
CONTINUOUS
 62
     2
 10
1091.185251001
 20
435.48
 30
2.4
 40
24.0
  1
２６１９
 50
0.0
 41
0.9
 51
0.0
  7
KANJI32
  0
TEXT
  8
0
  6
CONTINUOUS
 62
     2
 10
1746.385251001
 20
661.88
 30
2.4
 40
24.0
  1
３０７
 50
0.0
 41
0.9
 51
0.0
  7
KANJI32
  0
TEXT
  8
0
  6
CONTINUOUS
 62
     2
 10
1746.385251001
 20
605.88
 30
2.4
 40
24.0
  1
３４２
 50
0.0
 41
0.9
 51
0.0
  7
KANJI32
  0
TEXT
  8
0
  6
CONTINUOUS
 62
     2
 10
1746.385251001
 20
549.88
 30
2.4
 40
24.0
  1
３７７
 50
0.0
 41
0.9
 51
0.0
  7
KANJI32
  0
TEXT
  8
0
  6
CONTINUOUS
 62
     2
 10
1746.385251001
 20
493.88
 30
2.4
 40
24.0
  1
４３５
 50
0.0
 41
0.9
 51
0.0
  7
KANJI32
  0
TEXT
  8
0
  6
CONTINUOUS
 62
     2
 10
1746.385251001
 20
437.88
 30
2.4
 40
24.0
  1
５３０
 50
0.0
 41
0.9
 51
0.0
  7
KANJI32
  0
TEXT
  8
0
  6
CONTINUOUS
 62
     2
 10
1746.385251001
 20
381.88
 30
2.4
 40
24.0
  1
６２５
 50
0.0
 41
0.9
 51
0.0
  7
KANJI32
  0
TEXT
  8
0
  6
CONTINUOUS
 62
     3
 10
2193.451962201
 20
171.079992
 30
2.4
 40
28.0
  1
２００５．０５．２５
 50
0.0
 41
0.571428571
 51
0.0
  7
KANJI53
  0
ENDSEC
  0
EOF
