  0
SECTION
  2
HEADER
  9
$EXTMIN
 10
0.0
 20
0.0
 30
0.0
  9
$EXTMAX
 10
3360.0
 20
2376.0
 30
0.0
  9
$LIMMIN
 10
0.0
 20
0.0
  9
$LIMMAX
 10
3360.0
 20
2376.0
  9
$LTSCALE
 40
1.0
  9
$PDMODE
 70
     0
  0
ENDSEC
  0
SECTION
  2
TABLES
  0
TABLE
  2
LTYPE
 70
     5
  0
LTYPE
  2
CONTINUOUS
 70
    64
  3
Solid line
 72
    65
 73
     0
 40
0.0
  0
LTYPE
  2
LTYPE1
 70
    64
  3
HIDDEN
 72
    65
 73
     2
 40
24.0
 49
14.4
 49
-9.6
  0
LTYPE
  2
LTYPE2
 70
    64
  3
CENTER
 72
    65
 73
     4
 40
120.0
 49
84.0
 49
-12.0
 49
12.0
 49
-12.0
  0
LTYPE
  2
LTYPE3
 70
    64
  3
CENTER
 72
    65
 73
     4
 40
64.0
 49
44.8
 49
-6.4
 49
6.4
 49
-6.4
  0
LTYPE
  2
LTYPE4
 70
    64
  3
CENTER
 72
    65
 73
     4
 40
80.0
 49
56.0
 49
-8.0
 49
8.0
 49
-8.0
  0
ENDTAB
  0
TABLE
  2
LAYER
 70
   128
  0
LAYER
  2
0
 70
     0
 62
     7
  6
CONTINUOUS
  0
LAYER
  2
2
 70
     0
 62
     7
  6
CONTINUOUS
  0
LAYER
  2
3
 70
     0
 62
     7
  6
CONTINUOUS
  0
LAYER
  2
4
 70
     0
 62
     7
  6
CONTINUOUS
  0
LAYER
  2
5
 70
     0
 62
     7
  6
CONTINUOUS
  0
LAYER
  2
6
 70
     0
 62
     7
  6
CONTINUOUS
  0
LAYER
  2
7
 70
     0
 62
     7
  6
CONTINUOUS
  0
LAYER
  2
8
 70
     0
 62
     7
  6
CONTINUOUS
  0
LAYER
  2
9
 70
     0
 62
     7
  6
CONTINUOUS
  0
LAYER
  2
10
 70
     0
 62
     7
  6
CONTINUOUS
  0
LAYER
  2
11
 70
     0
 62
     7
  6
CONTINUOUS
  0
LAYER
  2
12
 70
     0
 62
     7
  6
CONTINUOUS
  0
LAYER
  2
13
 70
     0
 62
     7
  6
CONTINUOUS
  0
LAYER
  2
14
 70
     0
 62
     7
  6
CONTINUOUS
  0
LAYER
  2
15
 70
     0
 62
     7
  6
CONTINUOUS
  0
LAYER
  2
16
 70
     0
 62
     7
  6
CONTINUOUS
  0
LAYER
  2
17
 70
     0
 62
     7
  6
CONTINUOUS
  0
LAYER
  2
18
 70
     0
 62
     7
  6
CONTINUOUS
  0
LAYER
  2
19
 70
     0
 62
     7
  6
CONTINUOUS
  0
LAYER
  2
20
 70
     0
 62
     7
  6
CONTINUOUS
  0
LAYER
  2
21
 70
     0
 62
     7
  6
CONTINUOUS
  0
LAYER
  2
22
 70
     0
 62
     7
  6
CONTINUOUS
  0
LAYER
  2
23
 70
     0
 62
     7
  6
CONTINUOUS
  0
LAYER
  2
24
 70
     0
 62
     7
  6
CONTINUOUS
  0
LAYER
  2
25
 70
     0
 62
     7
  6
CONTINUOUS
  0
LAYER
  2
26
 70
     0
 62
     7
  6
CONTINUOUS
  0
LAYER
  2
27
 70
     0
 62
     7
  6
CONTINUOUS
  0
LAYER
  2
28
 70
     0
 62
     7
  6
CONTINUOUS
  0
LAYER
  2
29
 70
     0
 62
     7
  6
CONTINUOUS
  0
LAYER
  2
30
 70
     0
 62
     7
  6
CONTINUOUS
  0
LAYER
  2
31
 70
     0
 62
     7
  6
CONTINUOUS
  0
LAYER
  2
32
 70
     0
 62
     7
  6
CONTINUOUS
  0
LAYER
  2
33
 70
     0
 62
     7
  6
CONTINUOUS
  0
LAYER
  2
34
 70
     0
 62
     7
  6
CONTINUOUS
  0
LAYER
  2
35
 70
     0
 62
     7
  6
CONTINUOUS
  0
LAYER
  2
36
 70
     0
 62
     7
  6
CONTINUOUS
  0
LAYER
  2
37
 70
     0
 62
     7
  6
CONTINUOUS
  0
LAYER
  2
38
 70
     0
 62
     7
  6
CONTINUOUS
  0
LAYER
  2
39
 70
     0
 62
     7
  6
CONTINUOUS
  0
LAYER
  2
40
 70
     0
 62
     7
  6
CONTINUOUS
  0
LAYER
  2
41
 70
     0
 62
     7
  6
CONTINUOUS
  0
LAYER
  2
42
 70
     0
 62
     7
  6
CONTINUOUS
  0
LAYER
  2
43
 70
     0
 62
     7
  6
CONTINUOUS
  0
LAYER
  2
44
 70
     0
 62
     7
  6
CONTINUOUS
  0
LAYER
  2
45
 70
     0
 62
     7
  6
CONTINUOUS
  0
LAYER
  2
46
 70
     0
 62
     7
  6
CONTINUOUS
  0
LAYER
  2
47
 70
     0
 62
     7
  6
CONTINUOUS
  0
LAYER
  2
48
 70
     0
 62
     7
  6
CONTINUOUS
  0
LAYER
  2
49
 70
     0
 62
     7
  6
CONTINUOUS
  0
LAYER
  2
50
 70
     0
 62
     7
  6
CONTINUOUS
  0
LAYER
  2
51
 70
     0
 62
     7
  6
CONTINUOUS
  0
LAYER
  2
52
 70
     0
 62
     7
  6
CONTINUOUS
  0
LAYER
  2
53
 70
     0
 62
     7
  6
CONTINUOUS
  0
LAYER
  2
54
 70
     0
 62
     7
  6
CONTINUOUS
  0
LAYER
  2
55
 70
     0
 62
     7
  6
CONTINUOUS
  0
LAYER
  2
56
 70
     0
 62
     7
  6
CONTINUOUS
  0
LAYER
  2
57
 70
     0
 62
     7
  6
CONTINUOUS
  0
LAYER
  2
58
 70
     0
 62
     7
  6
CONTINUOUS
  0
LAYER
  2
59
 70
     0
 62
     7
  6
CONTINUOUS
  0
LAYER
  2
60
 70
     0
 62
     7
  6
CONTINUOUS
  0
LAYER
  2
61
 70
     0
 62
     7
  6
CONTINUOUS
  0
LAYER
  2
62
 70
     0
 62
     7
  6
CONTINUOUS
  0
LAYER
  2
63
 70
     0
 62
     7
  6
CONTINUOUS
  0
LAYER
  2
64
 70
     0
 62
     7
  6
CONTINUOUS
  0
LAYER
  2
65
 70
     0
 62
     7
  6
CONTINUOUS
  0
LAYER
  2
66
 70
     0
 62
     7
  6
CONTINUOUS
  0
LAYER
  2
67
 70
     0
 62
     7
  6
CONTINUOUS
  0
LAYER
  2
68
 70
     0
 62
     7
  6
CONTINUOUS
  0
LAYER
  2
69
 70
     0
 62
     7
  6
CONTINUOUS
  0
LAYER
  2
70
 70
     0
 62
     7
  6
CONTINUOUS
  0
LAYER
  2
71
 70
     0
 62
     7
  6
CONTINUOUS
  0
LAYER
  2
72
 70
     0
 62
     7
  6
CONTINUOUS
  0
LAYER
  2
73
 70
     0
 62
     7
  6
CONTINUOUS
  0
LAYER
  2
74
 70
     0
 62
     7
  6
CONTINUOUS
  0
LAYER
  2
75
 70
     0
 62
     7
  6
CONTINUOUS
  0
LAYER
  2
76
 70
     0
 62
     7
  6
CONTINUOUS
  0
LAYER
  2
77
 70
     0
 62
     7
  6
CONTINUOUS
  0
LAYER
  2
78
 70
     0
 62
     7
  6
CONTINUOUS
  0
LAYER
  2
79
 70
     0
 62
     7
  6
CONTINUOUS
  0
LAYER
  2
80
 70
     0
 62
     7
  6
CONTINUOUS
  0
LAYER
  2
81
 70
     0
 62
     7
  6
CONTINUOUS
  0
LAYER
  2
82
 70
     0
 62
     7
  6
CONTINUOUS
  0
LAYER
  2
83
 70
     0
 62
     7
  6
CONTINUOUS
  0
LAYER
  2
84
 70
     0
 62
     7
  6
CONTINUOUS
  0
LAYER
  2
85
 70
     0
 62
     7
  6
CONTINUOUS
  0
LAYER
  2
86
 70
     0
 62
     7
  6
CONTINUOUS
  0
LAYER
  2
87
 70
     0
 62
     7
  6
CONTINUOUS
  0
LAYER
  2
88
 70
     0
 62
     7
  6
CONTINUOUS
  0
LAYER
  2
89
 70
     0
 62
     7
  6
CONTINUOUS
  0
LAYER
  2
90
 70
     0
 62
     7
  6
CONTINUOUS
  0
LAYER
  2
91
 70
     0
 62
     7
  6
CONTINUOUS
  0
LAYER
  2
92
 70
     0
 62
     7
  6
CONTINUOUS
  0
LAYER
  2
93
 70
     0
 62
     7
  6
CONTINUOUS
  0
LAYER
  2
94
 70
     0
 62
     7
  6
CONTINUOUS
  0
LAYER
  2
95
 70
     0
 62
     7
  6
CONTINUOUS
  0
LAYER
  2
96
 70
     0
 62
     7
  6
CONTINUOUS
  0
LAYER
  2
97
 70
     0
 62
     7
  6
CONTINUOUS
  0
LAYER
  2
98
 70
     0
 62
     7
  6
CONTINUOUS
  0
LAYER
  2
99
 70
     0
 62
     7
  6
CONTINUOUS
  0
LAYER
  2
100
 70
     0
 62
     7
  6
CONTINUOUS
  0
LAYER
  2
101
 70
     0
 62
     7
  6
CONTINUOUS
  0
LAYER
  2
102
 70
     0
 62
     7
  6
CONTINUOUS
  0
LAYER
  2
103
 70
     0
 62
     7
  6
CONTINUOUS
  0
LAYER
  2
104
 70
     0
 62
     7
  6
CONTINUOUS
  0
LAYER
  2
105
 70
     0
 62
     7
  6
CONTINUOUS
  0
LAYER
  2
106
 70
     0
 62
     7
  6
CONTINUOUS
  0
LAYER
  2
107
 70
     0
 62
     7
  6
CONTINUOUS
  0
LAYER
  2
108
 70
     0
 62
     7
  6
CONTINUOUS
  0
LAYER
  2
109
 70
     0
 62
     7
  6
CONTINUOUS
  0
LAYER
  2
110
 70
     0
 62
     7
  6
CONTINUOUS
  0
LAYER
  2
111
 70
     0
 62
     7
  6
CONTINUOUS
  0
LAYER
  2
112
 70
     0
 62
     7
  6
CONTINUOUS
  0
LAYER
  2
113
 70
     0
 62
     7
  6
CONTINUOUS
  0
LAYER
  2
114
 70
     0
 62
     7
  6
CONTINUOUS
  0
LAYER
  2
115
 70
     0
 62
     7
  6
CONTINUOUS
  0
LAYER
  2
116
 70
     0
 62
     7
  6
CONTINUOUS
  0
LAYER
  2
117
 70
     0
 62
     7
  6
CONTINUOUS
  0
LAYER
  2
118
 70
     0
 62
     7
  6
CONTINUOUS
  0
LAYER
  2
119
 70
     0
 62
     7
  6
CONTINUOUS
  0
LAYER
  2
120
 70
     0
 62
     7
  6
CONTINUOUS
  0
LAYER
  2
121
 70
     0
 62
     7
  6
CONTINUOUS
  0
LAYER
  2
122
 70
     0
 62
     7
  6
CONTINUOUS
  0
LAYER
  2
123
 70
     0
 62
     7
  6
CONTINUOUS
  0
LAYER
  2
124
 70
     0
 62
     7
  6
CONTINUOUS
  0
LAYER
  2
125
 70
     0
 62
     7
  6
CONTINUOUS
  0
LAYER
  2
126
 70
     0
 62
     7
  6
CONTINUOUS
  0
LAYER
  2
127
 70
     0
 62
     7
  6
CONTINUOUS
  0
LAYER
  2
128
 70
     0
 62
     7
  6
CONTINUOUS
  0
ENDTAB
  0
TABLE
  2
STYLE
 70
    52
  0
STYLE
  2
STANDARD
 70
     0
 40
0.0
 41
1.0
 50
0.0
 71
     0
 42
0.2
  3
txt
  4

  0
STYLE
  2
KANJI0
 70
     0
 40
15.999996636
 41
0.6
 50
0.0
 71
     0
 42
15.999996636
  3

  4
bigfont
  0
STYLE
  2
KANJI1
 70
     0
 40
19.199995963
 41
0.9
 50
0.0
 71
     0
 42
19.199995963
  3

  4
bigfont
  0
STYLE
  2
KANJI2
 70
     0
 40
13.8666656
 41
0.6
 50
0.0
 71
     0
 42
13.8666656
  3

  4
bigfont
  0
STYLE
  2
KANJI3
 70
     0
 40
16.63999872
 41
0.6
 50
0.0
 71
     0
 42
16.63999872
  3

  4
bigfont
  0
STYLE
  2
KANJI4
 70
     0
 40
13.8666656
 41
0.8
 50
0.0
 71
     0
 42
13.8666656
  3

  4
bigfont
  0
STYLE
  2
KANJI5
 70
     0
 40
16.63999872
 41
0.8
 50
0.0
 71
     0
 42
16.63999872
  3

  4
bigfont
  0
STYLE
  2
KANJI6
 70
     0
 40
69.333328
 41
0.9
 50
0.0
 71
     0
 42
69.333328
  3

  4
bigfont
  0
STYLE
  2
KANJI7
 70
     0
 40
23.999994954
 41
0.9
 50
0.0
 71
     0
 42
23.999994954
  3

  4
bigfont
  0
STYLE
  2
KANJI8
 70
     0
 40
24.2666648
 41
0.42031746
 50
0.0
 71
     0
 42
24.2666648
  3

  4
bigfont
  0
STYLE
  2
KANJI9
 70
     0
 40
41.5999968
 41
0.9
 50
0.0
 71
     0
 42
41.5999968
  3

  4
bigfont
  0
STYLE
  2
KANJI10
 70
     0
 40
40.0
 41
1.0
 50
0.0
 71
     0
 42
40.0
  3

  4
bigfont
  0
STYLE
  2
KANJI11
 70
     0
 40
40.0
 41
1.0
 50
0.0
 71
     0
 42
40.0
  3

  4
bigfont
  0
STYLE
  2
KANJI12
 70
     0
 40
28.0
 41
0.857142857
 50
0.0
 71
     0
 42
28.0
  3

  4
bigfont
  0
STYLE
  2
KANJI13
 70
     0
 40
20.7999984
 41
0.75
 50
0.0
 71
     0
 42
20.7999984
  3

  4
bigfont
  0
STYLE
  2
KANJI14
 70
     0
 40
36.0
 41
0.666666667
 50
0.0
 71
     0
 42
36.0
  3

  4
bigfont
  0
STYLE
  2
KANJI15
 70
     0
 40
32.0
 41
0.75
 50
0.0
 71
     0
 42
32.0
  3

  4
bigfont
  0
STYLE
  2
KANJI16
 70
     0
 40
32.0
 41
0.75
 50
0.0
 71
     0
 42
32.0
  3

  4
bigfont
  0
STYLE
  2
KANJI17
 70
     0
 40
36.0
 41
0.9
 50
0.0
 71
     0
 42
36.0
  3

  4
bigfont
  0
STYLE
  2
KANJI18
 70
     0
 40
30.4
 41
0.9
 50
0.0
 71
     0
 42
30.4
  3

  4
bigfont
  0
STYLE
  2
KANJI19
 70
     0
 40
30.4
 41
0.9
 50
0.0
 71
     0
 42
30.4
  3

  4
bigfont
  0
STYLE
  2
KANJI20
 70
     0
 40
30.4
 41
0.9
 50
0.0
 71
     0
 42
30.4
  3

  4
bigfont
  0
STYLE
  2
KANJI21
 70
     0
 40
22.4
 41
0.8
 50
0.0
 71
     0
 42
22.4
  3

  4
bigfont
  0
STYLE
  2
KANJI22
 70
     0
 40
30.4
 41
0.9
 50
0.0
 71
     0
 42
30.4
  3

  4
bigfont
  0
STYLE
  2
KANJI23
 70
     0
 40
30.4
 41
0.9
 50
0.0
 71
     0
 42
30.4
  3

  4
bigfont
  0
STYLE
  2
KANJI24
 70
     0
 40
30.4
 41
0.9
 50
0.0
 71
     0
 42
30.4
  3

  4
bigfont
  0
STYLE
  2
KANJI25
 70
     0
 40
30.4
 41
0.9
 50
0.0
 71
     0
 42
30.4
  3

  4
bigfont
  0
STYLE
  2
KANJI26
 70
     0
 40
30.4
 41
0.9
 50
0.0
 71
     0
 42
30.4
  3

  4
bigfont
  0
STYLE
  2
KANJI27
 70
     0
 40
30.4
 41
0.9
 50
0.0
 71
     0
 42
30.4
  3

  4
bigfont
  0
STYLE
  2
KANJI28
 70
     0
 40
24.0
 41
0.9
 50
0.0
 71
     0
 42
24.0
  3

  4
bigfont
  0
STYLE
  2
KANJI29
 70
     0
 40
24.0
 41
0.9
 50
0.0
 71
     0
 42
24.0
  3

  4
bigfont
  0
STYLE
  2
KANJI30
 70
     0
 40
28.0
 41
0.9
 50
0.0
 71
     0
 42
28.0
  3

  4
bigfont
  0
STYLE
  2
KANJI31
 70
     0
 40
28.8
 41
0.9
 50
0.0
 71
     0
 42
28.8
  3

  4
bigfont
  0
STYLE
  2
KANJI32
 70
     0
 40
24.0
 41
0.833333333
 50
0.0
 71
     0
 42
24.0
  3

  4
bigfont
  0
STYLE
  2
KANJI33
 70
     0
 40
28.0
 41
0.857142857
 50
0.0
 71
     0
 42
28.0
  3

  4
bigfont
  0
STYLE
  2
KANJI34
 70
     0
 40
36.0
 41
0.888888889
 50
0.0
 71
     0
 42
36.0
  3

  4
bigfont
  0
STYLE
  2
KANJI35
 70
     0
 40
14.4
 41
0.833333333
 50
0.0
 71
     0
 42
14.4
  3

  4
bigfont
  0
STYLE
  2
KANJI36
 70
     0
 40
32.0
 41
1.0
 50
0.0
 71
     0
 42
32.0
  3

  4
bigfont
  0
STYLE
  2
KANJI37
 70
     0
 40
24.0
 41
0.9
 50
0.0
 71
     0
 42
24.0
  3

  4
bigfont
  0
STYLE
  2
KANJI38
 70
     0
 40
28.0
 41
0.914285714
 50
0.0
 71
     0
 42
28.0
  3

  4
bigfont
  0
STYLE
  2
KANJI39
 70
     0
 40
24.0
 41
0.9
 50
0.0
 71
     0
 42
24.0
  3

  4
bigfont
  0
STYLE
  2
KANJI40
 70
     0
 40
19.2
 41
0.777777778
 50
0.0
 71
     0
 42
19.2
  3

  4
bigfont
  0
STYLE
  2
KANJI41
 70
     0
 40
25.6
 41
0.9
 50
0.0
 71
     0
 42
25.6
  3

  4
bigfont
  0
STYLE
  2
KANJI42
 70
     0
 40
28.0
 41
0.9
 50
0.0
 71
     0
 42
28.0
  3

  4
bigfont
  0
STYLE
  2
KANJI43
 70
     0
 40
22.4
 41
0.9
 50
0.0
 71
     0
 42
22.4
  3

  4
bigfont
  0
STYLE
  2
KANJI44
 70
     0
 40
22.4
 41
0.785714286
 50
0.0
 71
     0
 42
22.4
  3

  4
bigfont
  0
STYLE
  2
KANJI45
 70
     0
 40
24.0
 41
0.833333333
 50
0.0
 71
     0
 42
24.0
  3

  4
bigfont
  0
STYLE
  2
KANJI46
 70
     0
 40
24.0
 41
0.833333333
 50
0.0
 71
     0
 42
24.0
  3

  4
bigfont
  0
STYLE
  2
KANJI47
 70
     0
 40
28.0
 41
0.793650794
 50
0.0
 71
     0
 42
28.0
  3

  4
bigfont
  0
STYLE
  2
KANJI48
 70
     0
 40
28.0
 41
0.571428571
 50
0.0
 71
     0
 42
28.0
  3

  4
bigfont
  0
STYLE
  2
KANJI49
 70
     0
 40
40.0
 41
0.8
 50
0.0
 71
     0
 42
40.0
  3

  4
bigfont
  0
STYLE
  2
KANJI50
 70
     0
 40
24.0
 41
1.0
 50
0.0
 71
     0
 42
24.0
  3

  4
bigfont
  0
ENDTAB
  0
TABLE
  2
VIEW
 70
     0
  0
ENDTAB
  0
ENDSEC
  0
SECTION
  2
BLOCKS
  0
ENDSEC
  0
SECTION
  2
ENTITIES
  0
LINE
  8
0
  6
CONTINUOUS
 62
     4
 10
3201.985251001
 20
-54.52
 11
2409.985251001
 21
-54.52
  0
LINE
  8
0
  6
CONTINUOUS
 62
     4
 10
3201.985251001
 20
-134.52
 11
2409.985251001
 21
-134.52
  0
TEXT
  8
0
  6
CONTINUOUS
 62
     4
 10
129.985245955
 20
137.47999159
 30
1.599999664
 40
15.999996636
  1
ＰＡＲＴＳ　ＬＩＳＴ
 50
0.0
 41
0.6
 51
0.0
  7
KANJI0
  0
TEXT
  8
0
  6
CONTINUOUS
 62
     4
 10
489.985170263
 20
137.47999159
 30
1.599999664
 40
15.999996636
  1
Ｎ０．
 50
0.0
 41
0.6
 51
0.0
  7
KANJI0
  0
TEXT
  8
0
  6
CONTINUOUS
 62
     4
 10
129.985245955
 20
113.479996636
 30
1.919999596
 40
19.199995963
  1
部品表
 50
0.0
 41
0.9
 51
0.0
  7
KANJI1
  0
TEXT
  8
0
  6
CONTINUOUS
 62
     4
 10
489.985170263
 20
113.479996636
 30
1.919999596
 40
19.199995963
  1
項番
 50
0.0
 41
0.9
 51
0.0
  7
KANJI1
  0
TEXT
  8
0
  6
CONTINUOUS
 62
     4
 10
2141.185332601
 20
246.5466552
 30
1.38666656
 40
13.8666656
  1
ＤＲＡＷＮ
 50
0.0
 41
0.6
 51
0.0
  7
KANJI2
  0
TEXT
  8
0
  6
CONTINUOUS
 62
     4
 10
2141.185332601
 20
302.0133176
 30
1.38666656
 40
13.8666656
  1
ＤＥＳＩＧＮ
 50
0.0
 41
0.6
 51
0.0
  7
KANJI2
  0
TEXT
  8
0
  6
CONTINUOUS
 62
     4
 10
2141.185332601
 20
357.47998
 30
1.38666656
 40
13.8666656
  1
ＣＨＥＣＫ
 50
0.0
 41
0.6
 51
0.0
  7
KANJI2
  0
TEXT
  8
0
  6
CONTINUOUS
 62
     4
 10
2141.185332601
 20
412.9466424
 30
1.38666656
 40
13.8666656
  1
ＣＯＤＥ
 50
0.0
 41
0.6
 51
0.0
  7
KANJI2
  0
LINE
  8
0
  6
CONTINUOUS
 62
     4
 10
2127.318667001
 20
326.2799824
 11
2380.385314201
 21
326.2799824
  0
LINE
  8
0
  6
CONTINUOUS
 62
     4
 10
2127.318667001
 20
270.81332
 11
2380.385314201
 21
270.81332
  0
LINE
  8
0
  6
CONTINUOUS
 62
     4
 10
2127.318667001
 20
381.7466448
 11
2380.385314201
 21
381.7466448
  0
LINE
  8
0
  6
CONTINUOUS
 62
     4
 10
2127.318667001
 20
437.2133072
 11
3195.051918201
 21
437.2133072
  0
TEXT
  8
0
  6
CONTINUOUS
 62
     4
 10
2141.185332601
 20
281.2133192
 30
1.663999872
 40
16.63999872
  1
設計
 50
0.0
 41
0.6
 51
0.0
  7
KANJI3
  0
TEXT
  8
0
  6
CONTINUOUS
 62
     4
 10
2141.185332601
 20
336.6799816
 30
1.663999872
 40
16.63999872
  1
検図
 50
0.0
 41
0.6
 51
0.0
  7
KANJI3
  0
TEXT
  8
0
  6
CONTINUOUS
 62
     4
 10
2141.185332601
 20
392.146644
 30
1.663999872
 40
16.63999872
  1
分類
 50
0.0
 41
0.6
 51
0.0
  7
KANJI3
  0
LINE
  8
0
  6
CONTINUOUS
 62
     4
 10
2400.838645961
 20
381.7466448
 11
3195.051918201
 21
381.7466448
  0
LINE
  8
0
  6
CONTINUOUS
 62
     4
 10
2380.385314201
 20
270.81332
 11
3195.051918201
 21
270.81332
  0
TEXT
  8
0
  6
CONTINUOUS
 62
     4
 10
2394.251979801
 20
246.5466552
 30
1.38666656
 40
13.8666656
  1
ＤＲＡＷＩＮＧ　ＮＯ．
 50
0.0
 41
0.8
 51
0.0
  7
KANJI4
  0
TEXT
  8
0
  6
CONTINUOUS
 62
     4
 10
2394.251979801
 20
302.0133176
 30
1.38666656
 40
13.8666656
  1
ＭＦＧ　ＮＯ．
 50
0.0
 41
0.8
 51
0.0
  7
KANJI4
  0
TEXT
  8
0
  6
CONTINUOUS
 62
     4
 10
2394.251979801
 20
357.47998
 30
1.38666656
 40
13.8666656
  1
ＴＹＰＥ
 50
0.0
 41
0.8
 51
0.0
  7
KANJI4
  0
LINE
  8
0
  6
CONTINUOUS
 62
     4
 10
2401.185312601
 20
326.2799824
 11
2720.118621401
 21
326.2799824
  0
TEXT
  8
0
  6
CONTINUOUS
 62
     4
 10
2394.251979801
 20
222.2799904
 30
1.663999872
 40
16.63999872
  1
図　面　番　号
 50
0.0
 41
0.8
 51
0.0
  7
KANJI5
  0
TEXT
  8
0
  6
CONTINUOUS
 62
     4
 10
2394.251979801
 20
277.7466528
 30
1.663999872
 40
16.63999872
  1
製番
 50
0.0
 41
0.8
 51
0.0
  7
KANJI5
  0
TEXT
  8
0
  6
CONTINUOUS
 62
     4
 10
2394.251979801
 20
333.2133152
 30
1.663999872
 40
16.63999872
  1
機種
 50
0.0
 41
0.8
 51
0.0
  7
KANJI5
  0
LINE
  8
0
  6
CONTINUOUS
 62
     4
 10
2127.318667001
 20
159.8799952
 11
2380.385314201
 21
159.8799952
  0
LINE
  8
0
  6
CONTINUOUS
 62
     4
 10
2127.318667001
 20
215.3466576
 11
2380.385314201
 21
215.3466576
  0
TEXT
  8
0
  6
CONTINUOUS
 62
     4
 10
2141.185332601
 20
135.6133304
 30
1.38666656
 40
13.8666656
  1
ＳＣＡＬＥ
 50
0.0
 41
0.6
 51
0.0
  7
KANJI2
  0
TEXT
  8
0
  6
CONTINUOUS
 62
     4
 10
2141.185332601
 20
191.0799928
 30
1.38666656
 40
13.8666656
  1
ＤＡＴＥ
 50
0.0
 41
0.6
 51
0.0
  7
KANJI2
  0
TEXT
  8
0
  6
CONTINUOUS
 62
     4
 10
2141.185332601
 20
114.813332
 30
1.663999872
 40
16.63999872
  1
尺度
 50
0.0
 41
0.6
 51
0.0
  7
KANJI3
  0
TEXT
  8
0
  6
CONTINUOUS
 62
     4
 10
2141.185332601
 20
170.2799944
 30
1.663999872
 40
16.63999872
  1
日付
 50
0.0
 41
0.6
 51
0.0
  7
KANJI3
  0
TEXT
  8
0
  6
CONTINUOUS
 62
     4
 10
2141.185332601
 20
225.7466568
 30
1.663999872
 40
16.63999872
  1
作図
 50
0.0
 41
0.6
 51
0.0
  7
KANJI3
  0
LINE
  8
0
  6
CONTINUOUS
 62
     4
 10
1735.585363801
 20
104.4133328
 11
1735.585363801
 21
159.8799952
  0
LINE
  8
0
  6
CONTINUOUS
 62
     4
 10
1797.985359001
 20
104.4133328
 11
1797.985359001
 21
159.8799952
  0
TEXT
  8
0
  6
CONTINUOUS
 62
     4
 10
1756.385362201
 20
135.6133304
 30
1.38666656
 40
13.8666656
  1
ＢＹ
 50
0.0
 41
0.6
 51
0.0
  7
KANJI2
  0
TEXT
  8
0
  6
CONTINUOUS
 62
     4
 10
1908.918683801
 20
135.6133304
 30
1.38666656
 40
13.8666656
  1
ＤＥＳＣＲＩＰＴＩＯＮ
 50
0.0
 41
0.6
 51
0.0
  7
KANJI2
  0
TEXT
  8
0
  6
CONTINUOUS
 62
     4
 10
1756.385362201
 20
114.813332
 30
1.663999872
 40
16.63999872
  1
担当
 50
0.0
 41
0.6
 51
0.0
  7
KANJI3
  0
TEXT
  8
0
  6
CONTINUOUS
 62
     4
 10
1929.718682201
 20
114.813332
 30
1.663999872
 40
16.63999872
  1
記　　　　事
 50
0.0
 41
0.6
 51
0.0
  7
KANJI3
  0
LINE
  8
0
  6
CONTINUOUS
 62
     4
 10
1609.052040201
 20
149.479996
 11
1586.518708601
 21
114.813332
  0
TEXT
  8
0
  6
CONTINUOUS
 62
     4
 10
1666.252035801
 20
135.6133304
 30
1.38666656
 40
13.8666656
  1
ＤＡＴＥ
 50
0.0
 41
0.6
 51
0.0
  7
KANJI2
  0
TEXT
  8
0
  6
CONTINUOUS
 62
     4
 10
1676.652035001
 20
114.813332
 30
1.663999872
 40
16.63999872
  1
日付
 50
0.0
 41
0.6
 51
0.0
  7
KANJI3
  0
LINE
  8
0
  6
CONTINUOUS
 62
     4
 10
1586.518708601
 20
114.813332
 11
1631.585371801
 21
114.813332
  0
LINE
  8
0
  6
CONTINUOUS
 62
     4
 10
1638.518704601
 20
104.4133328
 11
1638.518704601
 21
159.8799952
  0
LINE
  8
0
  6
CONTINUOUS
 62
     4
 10
1609.052040201
 20
149.479996
 11
1631.585371801
 21
114.813332
  0
LINE
  8
0
  6
CONTINUOUS
 62
     4
 10
2380.385314201
 20
191.0799928
 11
3195.051918201
 21
191.0799928
  0
LINE
  8
0
  6
LTYPE1
 62
     4
 10
2962.785269401
 20
201.479992
 11
2962.785269401
 21
256.9466544
  0
LINE
  8
0
  6
LTYPE1
 62
     4
 10
2914.251939801
 20
201.479992
 11
2914.251939801
 21
256.9466544
  0
LINE
  8
0
  6
LTYPE1
 62
     4
 10
2865.718610201
 20
201.479992
 11
2865.718610201
 21
256.9466544
  0
LINE
  8
0
  6
LTYPE1
 62
     4
 10
2817.185280601
 20
201.479992
 11
2817.185280601
 21
256.9466544
  0
LINE
  8
0
  6
LTYPE1
 62
     4
 10
2768.651951001
 20
201.479992
 11
2768.651951001
 21
256.9466544
  0
LINE
  8
0
  6
LTYPE1
 62
     4
 10
2720.118621401
 20
201.479992
 11
2720.118621401
 21
256.9466544
  0
LINE
  8
0
  6
LTYPE1
 62
     4
 10
2671.585291801
 20
201.479992
 11
2671.585291801
 21
256.9466544
  0
LINE
  8
0
  6
LTYPE1
 62
     4
 10
2623.051962201
 20
201.479992
 11
2623.051962201
 21
256.9466544
  0
LINE
  8
0
  6
LTYPE1
 62
     4
 10
2623.051962201
 20
256.9466544
 11
2962.785269401
 21
256.9466544
  0
LINE
  8
0
  6
LTYPE1
 62
     4
 10
2623.051962201
 20
201.479992
 11
2962.785269401
 21
201.479992
  0
LINE
  8
0
  6
CONTINUOUS
 62
     4
 10
3077.185260601
 20
210.146658
 11
3028.651931001
 21
210.146658
  0
LINE
  8
0
  6
CONTINUOUS
 62
     4
 10
3028.651931001
 20
210.146658
 11
3052.918595801
 21
251.7466548
  0
LINE
  8
0
  6
CONTINUOUS
 62
     4
 10
3052.918595801
 20
251.7466548
 11
3077.185260601
 21
210.146658
  0
TEXT
  8
0
  6
CONTINUOUS
 62
     4
 10
3084.118593401
 20
28.146672
 30
6.9333328
 40
69.333328
  1
／
 50
0.0
 41
0.9
 51
0.0
  7
KANJI6
  0
TEXT
  8
0
  6
CONTINUOUS
 62
     4
 10
2740.918619801
 20
357.47998
 30
1.38666656
 40
13.8666656
  1
ＴＩＴＬＥ
 50
0.0
 41
0.8
 51
0.0
  7
KANJI4
  0
TEXT
  8
0
  6
CONTINUOUS
 62
     4
 10
2740.918619801
 20
333.2133152
 30
1.663999872
 40
16.63999872
  1
名称
 50
0.0
 41
0.8
 51
0.0
  7
KANJI5
  0
LINE
  8
0
  6
CONTINUOUS
 62
     6
 10
105.985251001
 20
97.48
 11
105.985251001
 21
2249.48
  0
LINE
  8
0
  6
CONTINUOUS
 62
     6
 10
105.985251001
 20
2249.48
 11
3201.985251001
 21
2249.48
  0
LINE
  8
0
  6
CONTINUOUS
 62
     6
 10
3201.985251001
 20
2249.48
 11
3201.985251001
 21
97.48
  0
LINE
  8
0
  6
CONTINUOUS
 62
     6
 10
3201.985251001
 20
97.48
 11
105.985251001
 21
97.48
  0
LINE
  8
0
  6
CONTINUOUS
 62
     6
 10
633.985139986
 20
105.479998318
 11
633.985139986
 21
217.479974769
  0
LINE
  8
0
  6
CONTINUOUS
 62
     6
 10
113.985249319
 20
217.479974769
 11
633.985139986
 21
217.479974769
  0
LINE
  8
0
  6
CONTINUOUS
 62
     6
 10
113.985249319
 20
105.479998318
 11
633.985139986
 21
105.479998318
  0
LINE
  8
0
  6
CONTINUOUS
 62
     6
 10
113.985249319
 20
105.479998318
 11
113.985249319
 21
217.479974769
  0
LINE
  8
0
  6
CONTINUOUS
 62
     6
 10
473.985173627
 20
105.479998318
 11
473.985173627
 21
217.479974769
  0
LINE
  8
0
  6
CONTINUOUS
 62
     6
 10
113.985249319
 20
161.479986544
 11
633.985139986
 21
161.479986544
  0
TEXT
  8
0
  6
CONTINUOUS
 62
     3
 10
129.985245955
 20
177.479983179
 30
2.399999495
 40
23.999994954
  1
ＰＬ
 50
0.0
 41
0.9
 51
0.0
  7
KANJI7
  0
LINE
  8
0
  6
CONTINUOUS
 62
     6
 10
1579.585375801
 20
104.4133328
 11
1579.585375801
 21
159.8799952
  0
LINE
  8
0
  6
CONTINUOUS
 62
     6
 10
1579.585375801
 20
159.8799952
 11
2127.318667001
 21
159.8799952
  0
LINE
  8
0
  6
CONTINUOUS
 62
     6
 10
1579.585375801
 20
104.4133328
 11
3195.051918201
 21
104.4133328
  0
TEXT
  8
0
  6
CONTINUOUS
 62
     6
 10
2387.318647001
 20
135.6133304
 30
0.0
 40
24.2666648
  1
ＵＮＩＴＥＣ　ＩＮＤＵＳＴＲＹ　ＣＯ．，ＬＴＤ．
 50
0.0
 41
0.42031746
 51
0.0
  7
KANJI8
  0
TEXT
  8
0
  6
CONTINUOUS
 62
     6
 10
2727.658620821
 20
126.59999776
 30
4.15999968
 40
41.5999968
  1
ユニテック工業株式会社
 50
0.0
 41
0.9
 51
0.0
  7
KANJI9
  0
LINE
  8
0
  6
CONTINUOUS
 62
     4
 10
2990.518600601
 20
230.9466564
 11
3004.385266201
 21
230.9466564
  0
TEXT
  8
0
  6
CONTINUOUS
 62
     2
 10
2865.985251001
 20
281.48
 30
20.0
 40
40.0
  1
外形寸法図
 50
0.0
 41
1.0
 51
0.0
  7
KANJI10
  0
TEXT
  8
0
  6
CONTINUOUS
 62
     2
 10
2817.985251001
 20
329.48
 30
5.714285714
 40
40.0
  1
マイティシリンダ
 50
0.0
 41
1.0
 51
0.0
  7
KANJI11
  0
TEXT
  8
0
  6
CONTINUOUS
 62
     3
 10
2216.651962201
 20
229.479992
 30
24.0
 40
28.0
  1
岡田
 50
0.0
 41
0.857142857
 51
0.0
  7
KANJI12
  0
LINE
  8
0
  6
CONTINUOUS
 62
     4
 10
14.918583801
 20
103.4133328
 11
98.118577401
 21
103.4133328
  0
LINE
  8
0
  6
CONTINUOUS
 62
     4
 10
14.918583801
 20
145.0133296
 11
98.118577401
 21
145.0133296
  0
LINE
  8
0
  6
CONTINUOUS
 62
     4
 10
14.918583801
 20
186.6133264
 11
98.118577401
 21
186.6133264
  0
LINE
  8
0
  6
CONTINUOUS
 62
     4
 10
14.918583801
 20
228.2133232
 11
98.118577401
 21
228.2133232
  0
LINE
  8
0
  6
CONTINUOUS
 62
     4
 10
14.918583801
 20
269.81332
 11
98.118577401
 21
269.81332
  0
LINE
  8
0
  6
CONTINUOUS
 62
     4
 10
14.918583801
 20
311.4133168
 11
98.118577401
 21
311.4133168
  0
LINE
  8
0
  6
CONTINUOUS
 62
     4
 10
14.918583801
 20
353.0133136
 11
98.118577401
 21
353.0133136
  0
LINE
  8
0
  6
CONTINUOUS
 62
     4
 10
14.918583801
 20
394.6133104
 11
98.118577401
 21
394.6133104
  0
LINE
  8
0
  6
CONTINUOUS
 62
     4
 10
14.918583801
 20
436.2133072
 11
98.118577401
 21
436.2133072
  0
LINE
  8
0
  6
CONTINUOUS
 62
     4
 10
14.918583801
 20
477.813304
 11
98.118577401
 21
477.813304
  0
LINE
  8
0
  6
CONTINUOUS
 62
     4
 10
98.118577401
 20
103.4133328
 11
98.118577401
 21
477.813304
  0
LINE
  8
0
  6
CONTINUOUS
 62
     4
 10
56.518580601
 20
103.4133328
 11
56.518580601
 21
436.2133072
  0
TEXT
  8
0
  6
CONTINUOUS
 62
     4
 10
29.131916041
 20
115.5466652
 30
2.07999984
 40
20.7999984
  1
計
 50
0.0
 41
0.75
 51
0.0
  7
KANJI13
  0
TEXT
  8
0
  6
CONTINUOUS
 62
     4
 10
29.131916041
 20
199.43999208
 30
2.07999984
 40
20.7999984
  1
設
 50
0.0
 41
0.75
 51
0.0
  7
KANJI13
  0
TEXT
  8
0
  6
CONTINUOUS
 62
     4
 10
29.131916041
 20
240.3466556
 30
2.07999984
 40
20.7999984
  1
管
 50
0.0
 41
0.75
 51
0.0
  7
KANJI13
  0
TEXT
  8
0
  6
CONTINUOUS
 62
     4
 10
29.131916041
 20
281.9466524
 30
2.07999984
 40
20.7999984
  1
製
 50
0.0
 41
0.75
 51
0.0
  7
KANJI13
  0
TEXT
  8
0
  6
CONTINUOUS
 62
     4
 10
29.131916041
 20
323.5466492
 30
2.07999984
 40
20.7999984
  1
資
 50
0.0
 41
0.75
 51
0.0
  7
KANJI13
  0
TEXT
  8
0
  6
CONTINUOUS
 62
     4
 10
29.131916041
 20
365.146646
 30
2.07999984
 40
20.7999984
  1
営
 50
0.0
 41
0.75
 51
0.0
  7
KANJI13
  0
TEXT
  8
0
  6
CONTINUOUS
 62
     4
 10
29.131916041
 20
406.7466428
 30
2.07999984
 40
20.7999984
  1
客
 50
0.0
 41
0.75
 51
0.0
  7
KANJI13
  0
TEXT
  8
0
  6
CONTINUOUS
 62
     4
 10
28.785249401
 20
450.0799728
 30
2.07999984
 40
20.7999984
  1
出　図
 50
0.0
 41
0.75
 51
0.0
  7
KANJI13
  0
LINE
  8
0
  6
CONTINUOUS
 62
     4
 10
14.918583801
 20
103.4133328
 11
14.918583801
 21
477.813304
  0
LINE
  8
0
  6
CONTINUOUS
 62
     6
 10
2128.318667001
 20
492.6799696
 11
3196.051918201
 21
492.6799696
  0
LINE
  8
0
  6
CONTINUOUS
 62
     6
 10
3195.051918201
 20
104.4133328
 11
3195.051918201
 21
548.146632
  0
LINE
  8
0
  6
CONTINUOUS
 62
     6
 10
2127.318667001
 20
548.146632
 11
3195.051918201
 21
548.146632
  0
LINE
  8
0
  6
CONTINUOUS
 62
     6
 10
2127.318667001
 20
104.4133328
 11
2127.318667001
 21
548.146632
  0
TEXT
  8
0
  6
CONTINUOUS
 62
     3
 10
2249.585251001
 20
113.48
 30
2.4
 40
36.0
  1
１／８
 50
0.0
 41
0.666666667
 51
0.0
  7
KANJI14
  0
TEXT
  8
0
  6
CONTINUOUS
 62
     2
 10
2409.916876985
 20
856.219993986
 30
2.4
 40
32.0
  1
特記事項
 50
0.0
 41
0.75
 51
0.0
  7
KANJI15
  0
TEXT
  8
0
  6
CONTINUOUS
 62
     2
 10
2325.916876985
 20
813.219993986
 30
4.0
 40
32.0
  1
１。運転時は必ずピストンロッドの回転防止を行って下さい。
 50
0.0
 41
0.75
 51
0.0
  7
KANJI16
  0
TEXT
  8
0
  6
CONTINUOUS
 62
     2
 10
2327.916876985
 20
771.419993986
 30
4.0
 40
32.0
  1
２。形式表示ストロークは機械的最大ストロークです。
 50
0.0
 41
0.75
 51
0.0
  7
KANJI16
  0
TEXT
  8
0
  6
CONTINUOUS
 62
     2
 10
2327.916876985
 20
729.379993986
 30
4.0
 40
32.0
  1
　　実際に使用する場合は惰行距離を含め、両端に十分余裕を
 50
0.0
 41
0.75
 51
0.0
  7
KANJI16
  0
TEXT
  8
0
  6
CONTINUOUS
 62
     2
 10
2325.916876985
 20
689.079993986
 30
4.0
 40
32.0
  1
　　みて下さい。
 50
0.0
 41
0.75
 51
0.0
  7
KANJI16
  0
LINE
  8
0
  6
CONTINUOUS
 62
     1
 10
2500.8
 20
2054.0
 11
2500.8
 21
1078.0
  0
TEXT
  8
0
  6
CONTINUOUS
 62
     2
 10
2600.8
 20
1995.6
 30
22.79952
 40
36.0
  1
マイティシリンダ仕様
 50
0.0
 41
0.9
 51
0.0
  7
KANJI17
  0
LINE
  8
0
  6
CONTINUOUS
 62
     2
 10
2500.8
 20
1190.0
 11
3200.8
 21
1190.0
  0
LINE
  8
0
  6
CONTINUOUS
 62
     2
 10
2500.8
 20
1638.0
 11
3200.8
 21
1638.0
  0
LINE
  8
0
  6
CONTINUOUS
 62
     2
 10
2500.8
 20
1582.0
 11
3200.8
 21
1582.0
  0
LINE
  8
0
  6
CONTINUOUS
 62
     2
 10
2500.8
 20
1526.0
 11
3200.8
 21
1526.0
  0
LINE
  8
0
  6
CONTINUOUS
 62
     2
 10
2500.8
 20
1918.0
 11
3200.8
 21
1918.0
  0
LINE
  8
0
  6
CONTINUOUS
 62
     2
 10
2500.8
 20
1862.0
 11
3200.8
 21
1862.0
  0
LINE
  8
0
  6
CONTINUOUS
 62
     2
 10
2500.8
 20
1806.0
 11
3200.8
 21
1806.0
  0
LINE
  8
0
  6
CONTINUOUS
 62
     2
 10
2500.8
 20
1750.0
 11
3200.8
 21
1750.0
  0
LINE
  8
0
  6
CONTINUOUS
 62
     2
 10
2500.8
 20
1694.0
 11
3200.8
 21
1694.0
  0
LINE
  8
0
  6
CONTINUOUS
 62
     2
 10
2500.8
 20
1974.0
 11
3200.8
 21
1974.0
  0
TEXT
  8
0
  6
CONTINUOUS
 62
     2
 10
2560.8
 20
1932.4
 30
240.594285714
 40
30.4
  1
形式
 50
0.0
 41
0.9
 51
0.0
  7
KANJI18
  0
TEXT
  8
0
  6
CONTINUOUS
 62
     2
 10
2560.8
 20
1876.4
 30
240.594285714
 40
30.4
  1
推力
 50
0.0
 41
0.9
 51
0.0
  7
KANJI18
  0
TEXT
  8
0
  6
CONTINUOUS
 62
     2
 10
2560.8
 20
1820.4
 30
39.628571429
 40
30.4
  1
ストローク
 50
0.0
 41
0.9
 51
0.0
  7
KANJI19
  0
TEXT
  8
0
  6
CONTINUOUS
 62
     2
 10
2560.8
 20
1764.4
 30
61.957805714
 40
30.4
  1
公称速度
 50
0.0
 41
0.9
 51
0.0
  7
KANJI20
  0
TEXT
  8
0
  6
CONTINUOUS
 62
     2
 10
3151.6
 20
1823.6
 30
0.1792
 40
22.4
  1
ｍｍ
 50
0.0
 41
0.8
 51
0.0
  7
KANJI21
  0
TEXT
  8
0
  6
CONTINUOUS
 62
     2
 10
3091.6
 20
1770.0
 30
0.1792
 40
22.4
  1
ｍｍ／ｓｅｃ
 50
0.0
 41
0.8
 51
0.0
  7
KANJI21
  0
LINE
  8
0
  6
CONTINUOUS
 62
     2
 10
2500.8
 20
1470.0
 11
3200.8
 21
1470.0
  0
LINE
  8
0
  6
CONTINUOUS
 62
     2
 10
2500.8
 20
1414.0
 11
3200.8
 21
1414.0
  0
LINE
  8
0
  6
CONTINUOUS
 62
     2
 10
2500.8
 20
1358.0
 11
3200.8
 21
1358.0
  0
LINE
  8
0
  6
CONTINUOUS
 62
     2
 10
2500.8
 20
1302.0
 11
3200.8
 21
1302.0
  0
LINE
  8
0
  6
CONTINUOUS
 62
     2
 10
2500.8
 20
1246.0
 11
3200.8
 21
1246.0
  0
TEXT
  8
0
  6
CONTINUOUS
 62
     2
 10
2536.8
 20
1484.4
 30
2.605714286
 40
30.4
  1
ピストンロッド回転トルク
 50
0.0
 41
0.9
 51
0.0
  7
KANJI22
  0
TEXT
  8
0
  6
CONTINUOUS
 62
     2
 10
2560.8
 20
1428.4
 30
240.594285714
 40
30.4
  1
構造
 50
0.0
 41
0.9
 51
0.0
  7
KANJI18
  0
TEXT
  8
0
  6
CONTINUOUS
 62
     2
 10
2560.8
 20
1708.4
 30
106.617142857
 40
30.4
  1
減速比
 50
0.0
 41
0.9
 51
0.0
  7
KANJI23
  0
TEXT
  8
0
  6
CONTINUOUS
 62
     2
 10
2560.8
 20
1652.4
 30
6.8
 40
30.4
  1
進み量／入力１回転
 50
0.0
 41
0.9
 51
0.0
  7
KANJI24
  0
TEXT
  8
0
  6
CONTINUOUS
 62
     2
 10
2560.8
 20
1595.6
 30
240.594285714
 40
30.4
  1
効率
 50
0.0
 41
0.9
 51
0.0
  7
KANJI18
  0
TEXT
  8
0
  6
CONTINUOUS
 62
     2
 10
2560.8
 20
1541.2
 30
11.6
 40
30.4
  1
使用時入力トルク
 50
0.0
 41
0.9
 51
0.0
  7
KANJI25
  0
TEXT
  8
0
  6
CONTINUOUS
 62
     2
 10
2560.8
 20
1372.4
 30
61.96
 40
30.4
  1
ギヤ方式
 50
0.0
 41
0.9
 51
0.0
  7
KANJI26
  0
LINE
  8
0
  6
CONTINUOUS
 62
     2
 10
2500.8
 20
1134.0
 11
3200.8
 21
1134.0
  0
LINE
  8
0
  6
CONTINUOUS
 62
     2
 10
2900.8
 20
1974.0
 11
2900.8
 21
1078.0
  0
TEXT
  8
0
  6
CONTINUOUS
 62
     2
 10
2560.8
 20
1204.4
 30
106.617142857
 40
30.4
  1
塗装色
 50
0.0
 41
0.9
 51
0.0
  7
KANJI23
  0
TEXT
  8
0
  6
CONTINUOUS
 62
     2
 10
2560.8
 20
1148.4
 30
106.617142857
 40
30.4
  1
付属品
 50
0.0
 41
0.9
 51
0.0
  7
KANJI23
  0
TEXT
  8
0
  6
CONTINUOUS
 62
     2
 10
2560.8
 20
1092.4
 30
240.594285714
 40
30.4
  1
台数
 50
0.0
 41
0.9
 51
0.0
  7
KANJI18
  0
TEXT
  8
0
  6
CONTINUOUS
 62
     2
 10
2560.8
 20
1260.4
 30
240.594285714
 40
30.4
  1
潤滑
 50
0.0
 41
0.9
 51
0.0
  7
KANJI18
  0
TEXT
  8
0
  6
CONTINUOUS
 62
     2
 10
2560.8
 20
1316.4
 30
17.4136
 40
30.4
  1
スクリュー方式
 50
0.0
 41
0.9
 51
0.0
  7
KANJI27
  0
TEXT
  8
0
  6
CONTINUOUS
 62
     2
 10
3013.6
 20
1709.2
 30
2.4
 40
24.0
  1
２　：　１
 50
0.0
 41
0.9
 51
0.0
  7
KANJI28
  0
TEXT
  8
0
  6
CONTINUOUS
 62
     2
 10
3151.6
 20
1655.6
 30
0.1792
 40
22.4
  1
ｍｍ
 50
0.0
 41
0.8
 51
0.0
  7
KANJI21
  0
TEXT
  8
0
  6
CONTINUOUS
 62
     2
 10
2924.0
 20
1598.0
 30
16.0
 40
24.0
  1
約
 50
0.0
 41
0.9
 51
0.0
  7
KANJI29
  0
TEXT
  8
0
  6
CONTINUOUS
 62
     2
 10
2924.0
 20
1542.0
 30
16.0
 40
24.0
  1
約
 50
0.0
 41
0.9
 51
0.0
  7
KANJI29
  0
TEXT
  8
0
  6
CONTINUOUS
 62
     2
 10
2924.0
 20
1486.0
 30
16.0
 40
24.0
  1
約
 50
0.0
 41
0.9
 51
0.0
  7
KANJI29
  0
TEXT
  8
0
  6
CONTINUOUS
 62
     2
 10
3160.8
 20
1597.2
 30
16.0
 40
24.0
  1
％
 50
0.0
 41
0.9
 51
0.0
  7
KANJI29
  0
TEXT
  8
0
  6
CONTINUOUS
 62
     2
 10
2960.0
 20
1376.4
 30
16.0
 40
24.0
  1
ベベルギヤ
 50
0.0
 41
0.9
 51
0.0
  7
KANJI29
  0
TEXT
  8
0
  6
CONTINUOUS
 62
     2
 10
2960.0
 20
1318.8
 30
16.0
 40
24.0
  1
ボールネジ
 50
0.0
 41
0.9
 51
0.0
  7
KANJI29
  0
TEXT
  8
0
  6
CONTINUOUS
 62
     2
 10
2959.2
 20
1262.8
 30
16.0
 40
24.0
  1
グリース方式
 50
0.0
 41
0.9
 51
0.0
  7
KANJI29
  0
TEXT
  8
0
  6
CONTINUOUS
 62
     2
 10
3042.4
 20
1598.0
 30
16.0
 40
24.0
  1
８５
 50
0.0
 41
0.9
 51
0.0
  7
KANJI29
  0
TEXT
  8
0
  6
CONTINUOUS
 62
     2
 10
2928.6
 20
1764.2
 30
2.4
 40
24.0
  1
ｍａｘ．１５０
 50
0.0
 41
0.9
 51
0.0
  7
KANJI28
  0
TEXT
  8
0
  6
CONTINUOUS
 62
     2
 10
3049.6
 20
1654.0
 30
16.0
 40
24.0
  1
８　
 50
0.0
 41
0.9
 51
0.0
  7
KANJI29
  0
TEXT
  8
0
  6
CONTINUOUS
 62
     2
 10
2960.0
 20
1429.2
 30
20.5
 40
28.0
  1
全閉屋外形
 50
0.0
 41
0.9
 51
0.0
  7
KANJI30
  0
LINE
  8
0
  6
CONTINUOUS
 62
     1
 10
2500.8
 20
2054.0
 11
3200.8
 21
2054.0
  0
LINE
  8
0
  6
CONTINUOUS
 62
     1
 10
3200.8
 20
2054.0
 11
3200.8
 21
1078.0
  0
LINE
  8
0
  6
CONTINUOUS
 62
     1
 10
2500.8
 20
1078.0
 11
3200.8
 21
1078.0
  0
TEXT
  8
0
  6
CONTINUOUS
 62
     2
 10
2910.154
 20
1876.4
 30
2.4
 40
24.0
  1
１９６ＫＮ（２０ｔｏｎ）
 50
0.0
 41
0.9
 51
0.0
  7
KANJI28
  0
TEXT
  8
0
  6
CONTINUOUS
 62
     2
 10
2994.093
 20
1151.63
 30
2.4
 40
24.0
  1
入力キー
 50
0.0
 41
0.9
 51
0.0
  7
KANJI28
  0
POLYLINE
  8
0
  6
CONTINUOUS
 62
     2
 66
     1
  0
VERTEX
  8
0
  6
CONTINUOUS
 62
     2
 10
1226.8
 20
1824.32
  0
VERTEX
  8
0
  6
CONTINUOUS
 62
     2
 10
1380.4
 20
1824.32
  0
VERTEX
  8
0
  6
CONTINUOUS
 62
     2
 10
1334.035560338
 20
1836.743314165
  0
SEQEND
  0
LINE
  8
0
  6
CONTINUOUS
 62
     2
 10
1380.4
 20
1824.32
 11
1334.035560338
 21
1811.896685835
  0
LINE
  8
0
  6
LTYPE1
 62
     2
 10
1226.8
 20
1792.32
 11
1380.4
 21
1792.32
  0
LINE
  8
0
  6
LTYPE1
 62
     2
 10
1220.4
 20
1792.32
 11
1266.764439662
 21
1779.896685835
  0
LINE
  8
0
  6
LTYPE1
 62
     2
 10
1220.4
 20
1792.32
 11
1266.764439662
 21
1804.743314165
  0
TEXT
  8
0
  6
CONTINUOUS
 62
     2
 10
1396.4
 20
1816.32
 30
2.88
 40
28.8
  1
出
 50
0.0
 41
0.9
 51
0.0
  7
KANJI31
  0
TEXT
  8
0
  6
CONTINUOUS
 62
     2
 10
1396.4
 20
1779.52
 30
2.88
 40
28.8
  1
入
 50
0.0
 41
0.9
 51
0.0
  7
KANJI31
  0
TEXT
  8
0
  6
CONTINUOUS
 62
     2
 10
1228.4
 20
1857.92
 30
2.88
 40
28.8
  1
ピストンロッド
 50
0.0
 41
0.9
 51
0.0
  7
KANJI31
  0
LINE
  8
0
  6
CONTINUOUS
 62
     1
 10
670.1
 20
2065.4
 11
670.1
 21
2101.4
  0
LINE
  8
0
  6
CONTINUOUS
 62
     1
 10
614.1
 20
2065.4
 11
614.1
 21
2101.4
  0
LINE
  8
0
  6
CONTINUOUS
 62
     1
 10
614.1
 20
2101.4
 11
670.1
 21
2101.4
  0
LINE
  8
0
  6
CONTINUOUS
 62
     1
 10
614.1
 20
2065.4
 11
670.1
 21
2065.4
  0
LINE
  8
0
  6
LTYPE2
 62
     2
 10
642.1
 20
1892.826614458
 11
642.1
 21
2110.4
  0
LINE
  8
7
  6
CONTINUOUS
 62
     2
 10
614.1
 20
2113.4
 11
614.1
 21
2151.826614458
  0
LINE
  8
7
  6
CONTINUOUS
 62
     2
 10
614.1
 20
2139.826614458
 11
633.418516526
 21
2134.650233556
  0
LINE
  8
7
  6
CONTINUOUS
 62
     2
 10
614.1
 20
2139.826614458
 11
633.418516526
 21
2145.002995361
  0
LINE
  8
7
  6
CONTINUOUS
 62
     2
 10
614.1
 20
2139.826614458
 11
670.1
 21
2139.826614458
  0
LINE
  8
7
  6
CONTINUOUS
 62
     2
 10
670.1
 20
2139.826614458
 11
650.781483474
 21
2145.002995361
  0
LINE
  8
7
  6
CONTINUOUS
 62
     2
 10
670.1
 20
2139.826614458
 11
650.781483474
 21
2134.650233556
  0
LINE
  8
7
  6
CONTINUOUS
 62
     2
 10
670.1
 20
2113.4
 11
670.1
 21
2151.826614458
  0
TEXT
  8
7
  6
CONTINUOUS
 62
     2
 10
621.7
 20
2147.826614458
 30
0.8
 40
24.0
  1
１４
 50
0.0
 41
0.833333333
 51
0.0
  7
KANJI32
  0
LINE
  8
7
  6
CONTINUOUS
 62
     2
 10
602.1
 20
2101.4
 11
538.1
 21
2101.4
  0
LINE
  8
7
  6
CONTINUOUS
 62
     2
 10
550.1
 20
2101.4
 11
555.276380902
 21
2120.718516526
  0
LINE
  8
7
  6
CONTINUOUS
 62
     2
 10
550.1
 20
2101.4
 11
544.923619098
 21
2120.718516526
  0
LINE
  8
7
  6
CONTINUOUS
 62
     2
 10
550.1
 20
2131.4
 11
550.1
 21
2035.4
  0
LINE
  8
7
  6
CONTINUOUS
 62
     2
 10
550.1
 20
2065.4
 11
544.923619098
 21
2046.081483474
  0
LINE
  8
7
  6
CONTINUOUS
 62
     2
 10
550.1
 20
2065.4
 11
555.276380902
 21
2046.081483474
  0
LINE
  8
7
  6
CONTINUOUS
 62
     2
 10
602.1
 20
2065.4
 11
538.1
 21
2065.4
  0
TEXT
  8
7
  6
CONTINUOUS
 62
     2
 10
542.1
 20
2073.4
 30
0.8
 40
24.0
  1
９
 50
90.0
 41
0.833333333
 51
0.0
  7
KANJI32
  0
LINE
  8
7
  6
CONTINUOUS
 62
     2
 10
594.513331964
 20
1925.376294167
 11
609.314226624
 21
1938.827447176
  0
LINE
  8
7
  6
CONTINUOUS
 62
     2
 10
594.513331964
 20
1925.376294167
 11
600.605706233
 21
1944.425781713
  0
LINE
  8
7
  6
CONTINUOUS
 62
     2
 10
594.513331964
 20
1925.376294167
 11
689.686668036
 21
2073.423705833
  0
LINE
  8
7
  6
CONTINUOUS
 62
     2
 10
689.686668036
 20
2073.423705833
 11
674.885773376
 21
2059.972552824
  0
LINE
  8
7
  6
CONTINUOUS
 62
     2
 10
689.686668036
 20
2073.423705833
 11
683.594293767
 21
2054.374218287
  0
TEXT
  8
7
  6
CONTINUOUS
 62
     2
 10
599.370572197
 20
1947.726060731
 30
0.8
 40
24.0
  1
φ４４
 50
57.264773728
 41
0.833333333
 51
0.0
  7
KANJI32
  0
LINE
  8
0
  6
LTYPE2
 62
     2
 10
540.1
 20
1999.4
 11
603.1
 21
1999.4
  0
LINE
  8
0
  6
LTYPE2
 62
     2
 10
632.6
 20
1999.4
 11
745.1
 21
1999.4
  0
TEXT
  8
0
  6
CONTINUOUS
 62
     2
 10
562.35
 20
1789.15
 30
0.0
 40
28.0
  1
新ＪＩＳキー付
 50
0.0
 41
0.857142857
 51
0.0
  7
KANJI33
  0
TEXT
  8
0
  6
CONTINUOUS
 62
     2
 10
495.225
 20
1833.025
 30
0.0
 40
36.0
  1
入力シャフト（１／２）
 50
0.0
 41
0.888888889
 51
0.0
  7
KANJI34
  0
LINE
  8
0
  6
CONTINUOUS
 62
     2
 10
483.1
 20
1821.4
 11
841.1
 21
1821.4
  0
ARC
  8
0
  6
CONTINUOUS
 62
     1
 10
642.1
 20
1999.4
 40
88.0
 50
108.553004535
 51
71.446995465
  0
ARC
  8
0
  6
CONTINUOUS
 62
     2
 10
642.1
 20
1999.4
 40
88.0
 50
71.446995465
 51
90.0
  0
LINE
  8
7
  6
CONTINUOUS
 62
     2
 10
654.1
 20
2087.4
 11
783.1
 21
2087.4
  0
LINE
  8
7
  6
CONTINUOUS
 62
     2
 10
771.1
 20
2087.4
 11
776.276380902
 21
2106.718516526
  0
LINE
  8
7
  6
CONTINUOUS
 62
     2
 10
771.1
 20
2087.4
 11
765.923619098
 21
2106.718516526
  0
LINE
  8
7
  6
CONTINUOUS
 62
     2
 10
771.1
 20
2207.64
 11
771.1
 21
2035.4
  0
LINE
  8
7
  6
CONTINUOUS
 62
     2
 10
771.1
 20
2065.4
 11
765.923619098
 21
2046.081483474
  0
LINE
  8
7
  6
CONTINUOUS
 62
     2
 10
771.1
 20
2065.4
 11
776.276380902
 21
2046.081483474
  0
LINE
  8
7
  6
CONTINUOUS
 62
     2
 10
682.1
 20
2065.4
 11
783.1
 21
2065.4
  0
TEXT
  8
7
  6
CONTINUOUS
 62
     2
 10
763.1
 20
2163.2
 30
0.48
 40
14.4
  1
　０
 50
90.0
 41
0.833333333
 51
0.0
  7
KANJI35
  0
TEXT
  8
7
  6
CONTINUOUS
 62
     2
 10
748.7
 20
2163.2
 30
0.48
 40
14.4
  1
＋０．２
 50
90.0
 41
0.833333333
 51
0.0
  7
KANJI35
  0
TEXT
  8
7
  6
CONTINUOUS
 62
     2
 10
763.1
 20
2099.4
 30
0.8
 40
24.0
  1
５．５
 50
90.0
 41
0.833333333
 51
0.0
  7
KANJI32
  0
LINE
  8
0
  6
CONTINUOUS
 62
     4
 10
2380.385314201
 20
104.4133328
 11
2380.385314201
 21
548.146632
  0
TEXT
  8
0
  6
CONTINUOUS
 62
     4
 10
2151.985251001
 20
500.9466624
 30
8.0
 40
32.0
  1
ご用途
 50
0.0
 41
1.0
 51
0.0
  7
KANJI36
  0
TEXT
  8
0
  6
CONTINUOUS
 62
     4
 10
2151.985251001
 20
445.48
 30
8.0
 40
32.0
  1
ご注文主
 50
0.0
 41
1.0
 51
0.0
  7
KANJI36
  0
LINE
  8
0
  6
CONTINUOUS
 62
     6
 10
2672.553566737
 20
142.127997312
 11
2654.249568145
 21
142.127997312
  0
LINE
  8
0
  6
CONTINUOUS
 62
     6
 10
2672.553566737
 20
145.455997056
 11
2654.249568145
 21
145.455997056
  0
LINE
  8
0
  6
CONTINUOUS
 62
     6
 10
2672.553566737
 20
142.127997312
 11
2690.857565329
 21
142.127997312
  0
LINE
  8
0
  6
CONTINUOUS
 62
     6
 10
2672.553566737
 20
145.455997056
 11
2690.857565329
 21
145.455997056
  0
LINE
  8
0
  6
CONTINUOUS
 62
     6
 10
2690.857565329
 20
145.455997056
 11
2690.857565329
 21
142.127997312
  0
ARC
  8
0
  6
CONTINUOUS
 62
     6
 10
2695.017565009
 20
143.791997184
 40
16.63999872
 50
185.739170477
 51
90.0
  0
ARC
  8
0
  6
CONTINUOUS
 62
     6
 10
2695.017565009
 20
143.791997184
 40
19.967998464
 50
184.780191847
 51
90.0
  0
LINE
  8
0
  6
CONTINUOUS
 62
     6
 10
2654.249568145
 20
142.127997312
 11
2654.249568145
 21
145.455997056
  0
LINE
  8
0
  6
CONTINUOUS
 62
     6
 10
2670.057566929
 20
163.759995648
 11
2650.089568465
 21
163.759995648
  0
LINE
  8
0
  6
CONTINUOUS
 62
     6
 10
2675.049566545
 20
163.759995648
 11
2695.017565009
 21
163.759995648
  0
ARC
  8
0
  6
CONTINUOUS
 62
     6
 10
2650.089568465
 20
143.791997184
 40
16.63999872
 50
90.0
 51
354.260829523
  0
ARC
  8
0
  6
CONTINUOUS
 62
     6
 10
2650.089568465
 20
143.791997184
 40
19.967998464
 50
90.0
 51
355.219808153
  0
LINE
  8
0
  6
CONTINUOUS
 62
     6
 10
2670.057566929
 20
163.759995648
 11
2670.057566929
 21
160.431995904
  0
LINE
  8
0
  6
CONTINUOUS
 62
     6
 10
2650.089568465
 20
160.431995904
 11
2670.057566929
 21
160.431995904
  0
LINE
  8
0
  6
CONTINUOUS
 62
     6
 10
2675.049566545
 20
163.759995648
 11
2675.049566545
 21
160.431995904
  0
LINE
  8
0
  6
CONTINUOUS
 62
     6
 10
2695.017565009
 20
160.431995904
 11
2675.049566545
 21
160.431995904
  0
LINE
  8
7
  6
CONTINUOUS
 62
     2
 10
1602.2
 20
1234.8
 11
1607.376380902
 21
1254.118516526
  0
LINE
  8
7
  6
CONTINUOUS
 62
     2
 10
1602.2
 20
1234.8
 11
1597.023619098
 21
1254.118516526
  0
LINE
  8
7
  6
CONTINUOUS
 62
     2
 10
1602.2
 20
1234.8
 11
1602.2
 21
1464.8
  0
LINE
  8
7
  6
CONTINUOUS
 62
     2
 10
1602.2
 20
1464.8
 11
1597.023619098
 21
1445.481483474
  0
LINE
  8
7
  6
CONTINUOUS
 62
     2
 10
1602.2
 20
1464.8
 11
1607.376380902
 21
1445.481483474
  0
TEXT
  8
7
  6
CONTINUOUS
 62
     2
 10
1594.2
 20
1358.6
 30
0.8
 40
24.0
  1
φ２３０
 50
90.0
 41
0.833333333
 51
0.0
  7
KANJI32
  0
LINE
  8
0
  6
CONTINUOUS
 62
     1
 10
1547.2
 20
1284.8
 11
1685.2
 21
1284.8
  0
LINE
  8
0
  6
CONTINUOUS
 62
     1
 10
1660.6
 20
1417.2
 11
1647.84561844
 21
1464.8
  0
LINE
  8
0
  6
CONTINUOUS
 62
     1
 10
1647.84561844
 20
1464.8
 11
1643.384264386
 21
1448.15
  0
LINE
  8
0
  6
CONTINUOUS
 62
     1
 10
1660.6
 20
1282.4
 11
1647.84561844
 21
1234.8
  0
LINE
  8
0
  6
CONTINUOUS
 62
     1
 10
1647.84561844
 20
1234.8
 11
1643.384264386
 21
1251.45
  0
LINE
  8
0
  6
CONTINUOUS
 62
     1
 10
1684.6
 20
1282.4
 11
1660.6
 21
1282.4
  0
LINE
  8
0
  6
CONTINUOUS
 62
     1
 10
1685.2
 20
1284.8
 11
1685.2
 21
1417.2
  0
LINE
  8
0
  6
CONTINUOUS
 62
     1
 10
1685.2
 20
1417.2
 11
1660.6
 21
1417.2
  0
LINE
  8
0
  6
CONTINUOUS
 62
     1
 10
1536.706802321
 20
1464.8
 11
1536.706802321
 21
1357.8
  0
LINE
  8
0
  6
CONTINUOUS
 62
     1
 10
1532.5
 20
1449.1
 11
1536.706802321
 21
1464.8
  0
LINE
  8
0
  6
CONTINUOUS
 62
     1
 10
1536.706802321
 20
1464.8
 11
1541.168156375
 21
1448.15
  0
LINE
  8
0
  6
LTYPE2
 62
     2
 10
1541.168156375
 20
1448.15
 11
1639.1
 21
1448.15
  0
LINE
  8
0
  6
LTYPE2
 62
     2
 10
1536.706802321
 20
1464.8
 11
1646.1
 21
1464.8
  0
LINE
  8
0
  6
CONTINUOUS
 62
     1
 10
1532.5
 20
1250.5
 11
1536.706802321
 21
1234.8
  0
LINE
  8
0
  6
CONTINUOUS
 62
     1
 10
1536.706802321
 20
1234.8
 11
1541.168156375
 21
1251.45
  0
LINE
  8
0
  6
LTYPE2
 62
     2
 10
1541.168156375
 20
1251.45
 11
1643.384264386
 21
1251.45
  0
LINE
  8
0
  6
LTYPE2
 62
     2
 10
1536.706802321
 20
1234.8
 11
1647.84561844
 21
1234.8
  0
LINE
  8
0
  6
CONTINUOUS
 62
     1
 10
1517.7
 20
1449.1
 11
1532.7
 21
1449.1
  0
LINE
  8
0
  6
CONTINUOUS
 62
     1
 10
1517.7
 20
1250.5
 11
1532.7
 21
1250.5
  0
LINE
  8
0
  6
CONTINUOUS
 62
     1
 10
1015.2
 20
1374.8
 11
1015.2
 21
1412.06
  0
LINE
  8
0
  6
CONTINUOUS
 62
     1
 10
1065.2
 20
1412.06
 11
1065.2
 21
1374.8
  0
LINE
  8
0
  6
CONTINUOUS
 62
     1
 10
1015.2
 20
1374.8
 11
1065.2
 21
1374.8
  0
LINE
  8
2
  6
CONTINUOUS
 62
     2
 10
1049.735
 20
1411.67
 11
1063.11414507
 21
1426.536017529
  0
LINE
  8
2
  6
CONTINUOUS
 62
     2
 10
1049.735
 20
1411.67
 11
1053.888670747
 21
1431.233921369
  0
LINE
  8
2
  6
CONTINUOUS
 62
     2
 10
1049.735
 20
1411.67
 11
1116.816089934
 21
1543.4
  0
LINE
  8
0
  6
LTYPE2
 62
     2
 10
1012.154
 20
1393.43
 11
1071.487
 21
1393.43
  0
LINE
  8
0
  6
CONTINUOUS
 62
     1
 10
1015.2
 20
1372.8
 11
1065.2
 21
1372.8
  0
LINE
  8
0
  6
CONTINUOUS
 62
     1
 10
1015.2
 20
1374.8
 11
1015.2
 21
1372.618
  0
LINE
  8
0
  6
CONTINUOUS
 62
     1
 10
1065.2
 20
1374.8
 11
1065.2
 21
1372.8
  0
LINE
  8
0
  6
LTYPE2
 62
     2
 10
1040.2
 20
1364.897023967
 11
1040.2
 21
1416.820023967
  0
POLYLINE
  8
0
  6
CONTINUOUS
 62
     1
 66
     1
 70
     1
  0
VERTEX
  8
0
  6
CONTINUOUS
 62
     1
 10
1065.2
 20
1395.43
 42
0.029258535
  0
VERTEX
  8
0
  6
CONTINUOUS
 62
     1
 10
1065.104867452
 20
1397.053711487
 42
0.028951328
  0
VERTEX
  8
0
  6
CONTINUOUS
 62
     1
 10
1064.820193825
 20
1398.66506555
 42
0.028322949
  0
VERTEX
  8
0
  6
CONTINUOUS
 62
     1
 10
1064.348145657
 20
1400.25179881
 42
0.027432015
  0
VERTEX
  8
0
  6
CONTINUOUS
 62
     1
 10
1063.69231552
 20
1401.80183527
 42
0.026353247
  0
VERTEX
  8
0
  6
CONTINUOUS
 62
     1
 10
1062.857694676
 20
1403.303378216
 42
0.02516457
  0
VERTEX
  8
0
  6
CONTINUOUS
 62
     1
 10
1061.850635095
 20
1404.745
 42
0.023936868
  0
VERTEX
  8
0
  6
CONTINUOUS
 62
     1
 10
1060.678801107
 20
1406.115729009
 42
0.022728042
  0
VERTEX
  8
0
  6
CONTINUOUS
 62
     1
 10
1059.351111078
 20
1407.405133168
 42
0.021581143
  0
VERTEX
  8
0
  6
CONTINUOUS
 62
     1
 10
1057.87766953
 20
1408.603399334
 42
0.020525355
  0
VERTEX
  8
0
  6
CONTINUOUS
 62
     1
 10
1056.269690242
 20
1409.701407975
 42
0.019578464
  0
VERTEX
  8
0
  6
CONTINUOUS
 62
     1
 10
1054.539410909
 20
1410.690802585
 42
0.018749746
  0
VERTEX
  8
0
  6
CONTINUOUS
 62
     1
 10
1052.7
 20
1411.564053273
 42
0.018042655
  0
VERTEX
  8
0
  6
CONTINUOUS
 62
     1
 10
1050.765456544
 20
1412.314514072
 42
0.017457035
  0
VERTEX
  8
0
  6
CONTINUOUS
 62
     1
 10
1048.750503583
 20
1412.936473525
 42
0.016990792
  0
VERTEX
  8
0
  6
CONTINUOUS
 62
     1
 10
1046.670476128
 20
1413.425198144
 42
0.016641098
  0
VERTEX
  8
0
  6
CONTINUOUS
 62
     1
 10
1044.541204442
 20
1413.776968439
 42
0.016405207
  0
VERTEX
  8
0
  6
CONTINUOUS
 62
     1
 10
1042.378893569
 20
1413.989107225
 42
0.016280981
  0
VERTEX
  8
0
  6
CONTINUOUS
 62
     1
 10
1040.2
 20
1414.06
 42
0.016267207
  0
VERTEX
  8
0
  6
CONTINUOUS
 62
     1
 10
1038.021106431
 20
1413.989107225
 42
0.016363747
  0
VERTEX
  8
0
  6
CONTINUOUS
 62
     1
 10
1035.858795558
 20
1413.776968439
 42
0.016571553
  0
VERTEX
  8
0
  6
CONTINUOUS
 62
     1
 10
1033.729523872
 20
1413.425198144
 42
0.016892556
  0
VERTEX
  8
0
  6
CONTINUOUS
 62
     1
 10
1031.649496417
 20
1412.936473525
 42
0.017329388
  0
VERTEX
  8
0
  6
CONTINUOUS
 62
     1
 10
1029.634543456
 20
1412.314514072
 42
0.017884922
  0
VERTEX
  8
0
  6
CONTINUOUS
 62
     1
 10
1027.7
 20
1411.564053273
 42
0.01856153
  0
VERTEX
  8
0
  6
CONTINUOUS
 62
     1
 10
1025.860589091
 20
1410.690802585
 42
0.01935999
  0
VERTEX
  8
0
  6
CONTINUOUS
 62
     1
 10
1024.130309758
 20
1409.701407975
 42
0.020277937
  0
VERTEX
  8
0
  6
CONTINUOUS
 62
     1
 10
1022.52233047
 20
1408.603399334
 42
0.021307786
  0
VERTEX
  8
0
  6
CONTINUOUS
 62
     1
 10
1021.048888922
 20
1407.405133168
 42
0.02243415
  0
VERTEX
  8
0
  6
CONTINUOUS
 62
     1
 10
1019.721198893
 20
1406.115729009
 42
0.023630956
  0
VERTEX
  8
0
  6
CONTINUOUS
 62
     1
 10
1018.549364905
 20
1404.745
 42
0.024858792
  0
VERTEX
  8
0
  6
CONTINUOUS
 62
     1
 10
1017.542305324
 20
1403.303378216
 42
0.026063431
  0
VERTEX
  8
0
  6
CONTINUOUS
 62
     1
 10
1016.70768448
 20
1401.80183527
 42
0.02717685
  0
VERTEX
  8
0
  6
CONTINUOUS
 62
     1
 10
1016.051854343
 20
1400.25179881
 42
0.028122084
  0
VERTEX
  8
0
  6
CONTINUOUS
 62
     1
 10
1015.579806175
 20
1398.66506555
 42
0.028822453
  0
VERTEX
  8
0
  6
CONTINUOUS
 62
     1
 10
1015.295132548
 20
1397.053711487
 42
0.029214081
  0
VERTEX
  8
0
  6
CONTINUOUS
 62
     1
 10
1015.2
 20
1395.43
 42
0.029258535
  0
VERTEX
  8
0
  6
CONTINUOUS
 62
     1
 10
1015.295132548
 20
1393.806288513
 42
0.028951328
  0
VERTEX
  8
0
  6
CONTINUOUS
 62
     1
 10
1015.579806175
 20
1392.19493445
 42
0.028322949
  0
VERTEX
  8
0
  6
CONTINUOUS
 62
     1
 10
1016.051854343
 20
1390.60820119
 42
0.027432015
  0
VERTEX
  8
0
  6
CONTINUOUS
 62
     1
 10
1016.70768448
 20
1389.05816473
 42
0.026353247
  0
VERTEX
  8
0
  6
CONTINUOUS
 62
     1
 10
1017.542305324
 20
1387.556621784
 42
0.02516457
  0
VERTEX
  8
0
  6
CONTINUOUS
 62
     1
 10
1018.549364905
 20
1386.115
 42
0.023936868
  0
VERTEX
  8
0
  6
CONTINUOUS
 62
     1
 10
1019.721198893
 20
1384.744270991
 42
0.022728042
  0
VERTEX
  8
0
  6
CONTINUOUS
 62
     1
 10
1021.048888922
 20
1383.454866832
 42
0.021581143
  0
VERTEX
  8
0
  6
CONTINUOUS
 62
     1
 10
1022.52233047
 20
1382.256600666
 42
0.020525355
  0
VERTEX
  8
0
  6
CONTINUOUS
 62
     1
 10
1024.130309758
 20
1381.158592025
 42
0.019578464
  0
VERTEX
  8
0
  6
CONTINUOUS
 62
     1
 10
1025.860589091
 20
1380.169197415
 42
0.018749746
  0
VERTEX
  8
0
  6
CONTINUOUS
 62
     1
 10
1027.7
 20
1379.295946727
 42
0.018042655
  0
VERTEX
  8
0
  6
CONTINUOUS
 62
     1
 10
1029.634543456
 20
1378.545485928
 42
0.017457035
  0
VERTEX
  8
0
  6
CONTINUOUS
 62
     1
 10
1031.649496417
 20
1377.923526475
 42
0.016990792
  0
VERTEX
  8
0
  6
CONTINUOUS
 62
     1
 10
1033.729523872
 20
1377.434801856
 42
0.016641098
  0
VERTEX
  8
0
  6
CONTINUOUS
 62
     1
 10
1035.858795558
 20
1377.083031561
 42
0.016405207
  0
VERTEX
  8
0
  6
CONTINUOUS
 62
     1
 10
1038.021106431
 20
1376.870892775
 42
0.016280981
  0
VERTEX
  8
0
  6
CONTINUOUS
 62
     1
 10
1040.2
 20
1376.8
 42
0.016267207
  0
VERTEX
  8
0
  6
CONTINUOUS
 62
     1
 10
1042.378893569
 20
1376.870892775
 42
0.016363747
  0
VERTEX
  8
0
  6
CONTINUOUS
 62
     1
 10
1044.541204442
 20
1377.083031561
 42
0.016571553
  0
VERTEX
  8
0
  6
CONTINUOUS
 62
     1
 10
1046.670476128
 20
1377.434801856
 42
0.016892556
  0
VERTEX
  8
0
  6
CONTINUOUS
 62
     1
 10
1048.750503583
 20
1377.923526475
 42
0.017329388
  0
VERTEX
  8
0
  6
CONTINUOUS
 62
     1
 10
1050.765456544
 20
1378.545485928
 42
0.017884922
  0
VERTEX
  8
0
  6
CONTINUOUS
 62
     1
 10
1052.7
 20
1379.295946727
 42
0.01856153
  0
VERTEX
  8
0
  6
CONTINUOUS
 62
     1
 10
1054.539410909
 20
1380.169197415
 42
0.01935999
  0
VERTEX
  8
0
  6
CONTINUOUS
 62
     1
 10
1056.269690242
 20
1381.158592025
 42
0.020277937
  0
VERTEX
  8
0
  6
CONTINUOUS
 62
     1
 10
1057.87766953
 20
1382.256600666
 42
0.021307786
  0
VERTEX
  8
0
  6
CONTINUOUS
 62
     1
 10
1059.351111078
 20
1383.454866832
 42
0.02243415
  0
VERTEX
  8
0
  6
CONTINUOUS
 62
     1
 10
1060.678801107
 20
1384.744270991
 42
0.023630956
  0
VERTEX
  8
0
  6
CONTINUOUS
 62
     1
 10
1061.850635095
 20
1386.115
 42
0.024858792
  0
VERTEX
  8
0
  6
CONTINUOUS
 62
     1
 10
1062.857694676
 20
1387.556621784
 42
0.026063431
  0
VERTEX
  8
0
  6
CONTINUOUS
 62
     1
 10
1063.69231552
 20
1389.05816473
 42
0.02717685
  0
VERTEX
  8
0
  6
CONTINUOUS
 62
     1
 10
1064.348145657
 20
1390.60820119
 42
0.028122084
  0
VERTEX
  8
0
  6
CONTINUOUS
 62
     1
 10
1064.820193825
 20
1392.19493445
 42
0.028822453
  0
VERTEX
  8
0
  6
CONTINUOUS
 62
     1
 10
1065.104867452
 20
1393.806288513
 42
0.029214081
  0
SEQEND
  8
0
  6
CONTINUOUS
 62
     1
  0
POLYLINE
  8
0
  6
CONTINUOUS
 62
     1
 66
     1
  0
VERTEX
  8
0
  6
CONTINUOUS
 62
     1
 10
1015.2
 20
1393.430023967
 42
0.029535733
  0
VERTEX
  8
0
  6
CONTINUOUS
 62
     1
 10
1015.296941885
 20
1391.790950171
 42
0.029219806
  0
VERTEX
  8
0
  6
CONTINUOUS
 62
     1
 10
1015.587021359
 20
1390.164588153
 42
0.028574147
  0
VERTEX
  8
0
  6
CONTINUOUS
 62
     1
 10
1016.067988689
 20
1388.563551288
 42
0.027660012
  0
VERTEX
  8
0
  6
CONTINUOUS
 62
     1
 10
1016.736113695
 20
1387.000256542
 42
0.026555232
  0
VERTEX
  8
0
  6
CONTINUOUS
 62
     1
 10
1017.586214681
 20
1385.486828167
 42
0.025340598
  0
VERTEX
  8
0
  6
CONTINUOUS
 62
     1
 10
1018.611698625
 20
1384.035003675
 42
0.024089187
  0
VERTEX
  8
0
  6
CONTINUOUS
 62
     1
 10
1019.804612307
 20
1382.656042801
 42
0.022860283
  0
VERTEX
  8
0
  6
CONTINUOUS
 62
     1
 10
1021.155703991
 20
1381.360640184
 42
0.021697604
  0
VERTEX
  8
0
  6
CONTINUOUS
 62
     1
 10
1022.654495183
 20
1380.158842419
 42
0.020630479
  0
VERTEX
  8
0
  6
CONTINUOUS
 62
     1
 10
1024.289361892
 20
1379.05997014
 42
0.019676527
  0
VERTEX
  8
0
  6
CONTINUOUS
 62
     1
 10
1026.047624783
 20
1378.072545737
 42
0.01884471
  0
VERTEX
  8
0
  6
CONTINUOUS
 62
     1
 10
1027.915647511
 20
1377.204227256
 42
0.018138135
  0
VERTEX
  8
0
  6
CONTINUOUS
 62
     1
 10
1029.878942484
 20
1376.461749008
 42
0.017556341
  0
VERTEX
  8
0
  6
CONTINUOUS
 62
     1
 10
1031.922283215
 20
1375.850869339
 42
0.017097006
  0
VERTEX
  8
0
  6
CONTINUOUS
 62
     1
 10
1034.029822417
 20
1375.376325976
 42
0.016757164
  0
VERTEX
  8
0
  6
CONTINUOUS
 62
     1
 10
1036.185214907
 20
1375.041799274
 42
0.016534026
  0
VERTEX
  8
0
  6
CONTINUOUS
 62
     1
 10
1038.371744373
 20
1374.849883682
 42
0.016425501
  0
VERTEX
  8
0
  6
CONTINUOUS
 62
     1
 10
1040.572453017
 20
1374.802067616
 42
0.016430503
  0
VERTEX
  8
0
  6
CONTINUOUS
 62
     1
 10
1042.770273072
 20
1374.898721918
 42
0.016549082
  0
VERTEX
  8
0
  6
CONTINUOUS
 62
     1
 10
1044.948159176
 20
1375.139096976
 42
0.016782421
  0
VERTEX
  8
0
  6
CONTINUOUS
 62
     1
 10
1047.089220566
 20
1375.521328545
 42
0.017132689
  0
VERTEX
  8
0
  6
CONTINUOUS
 62
     1
 10
1049.176852074
 20
1376.042452197
 42
0.017602713
  0
VERTEX
  8
0
  6
CONTINUOUS
 62
     1
 10
1051.194862912
 20
1376.698426319
 42
0.018195442
  0
VERTEX
  8
0
  6
CONTINUOUS
 62
     1
 10
1053.127602243
 20
1377.484163451
 42
0.018913089
  0
VERTEX
  8
0
  6
CONTINUOUS
 62
     1
 10
1054.960080557
 20
1378.393569749
 42
0.019755877
  0
VERTEX
  8
0
  6
CONTINUOUS
 62
     1
 10
1056.678085927
 20
1379.419592242
 42
0.020720282
  0
VERTEX
  8
0
  6
CONTINUOUS
 62
     1
 10
1058.26829423
 20
1380.554273534
 42
0.021796696
  0
VERTEX
  8
0
  6
CONTINUOUS
 62
     1
 10
1059.718372482
 20
1381.788813516
 42
0.022966594
  0
VERTEX
  8
0
  6
CONTINUOUS
 62
     1
 10
1061.017074491
 20
1383.113637619
 42
0.024199468
  0
VERTEX
  8
0
  6
CONTINUOUS
 62
     1
 10
1062.154328071
 20
1384.518471066
 42
0.025450243
  0
VERTEX
  8
0
  6
CONTINUOUS
 62
     1
 10
1063.121313166
 20
1385.992418563
 42
0.026658291
  0
VERTEX
  8
0
  6
CONTINUOUS
 62
     1
 10
1063.910530248
 20
1387.524048798
 42
0.027749542
  0
VERTEX
  8
0
  6
CONTINUOUS
 62
     1
 10
1064.515858483
 20
1389.101483092
 42
-2.841178837
  0
VERTEX
  8
0
  6
CONTINUOUS
 62
     1
 10
1064.515858483
 20
1389.101483092
  0
SEQEND
  8
0
  6
CONTINUOUS
 62
     1
  0
LINE
  8
0
  6
CONTINUOUS
 62
     1
 10
1015.2
 20
1412.06
 11
1029.618
 21
1412.06
  0
LINE
  8
0
  6
CONTINUOUS
 62
     1
 10
1049.735
 20
1412.06
 11
1065.2
 21
1412.06
  0
TEXT
  8
2
  6
CONTINUOUS
 62
     3
 10
1122.439
 20
1551.4
 30
0.0
 40
24.0
  1
給脂口
 50
0.0
 41
0.9
 51
0.0
  7
KANJI37
  0
LINE
  8
2
  6
CONTINUOUS
 62
     2
 10
1116.816089934
 20
1543.4
 11
1204.816089934
 21
1543.4
  0
LINE
  8
0
  6
CONTINUOUS
 62
     1
 10
516.6
 20
1199.9
 11
516.6
 21
1499.9
  0
LINE
  8
0
  6
CONTINUOUS
 62
     1
 10
516.6
 20
1209.9
 11
541.6
 21
1209.9
  0
LINE
  8
0
  6
CONTINUOUS
 62
     1
 10
545.6
 20
1227.4
 11
545.6
 21
1241.230988098
  0
LINE
  8
0
  6
CONTINUOUS
 62
     1
 10
545.6
 20
1227.4
 11
545.6
 21
1213.569011902
  0
POINT
  8
0
  6
CONTINUOUS
 62
     1
 10
541.6
 20
1241.4
  0
LINE
  8
0
  6
CONTINUOUS
 62
     1
 10
541.6
 20
1241.4
 11
545.6
 21
1241.4
  0
LINE
  8
0
  6
CONTINUOUS
 62
     1
 10
541.6
 20
1227.4
 11
545.599996995
 21
1231.399996995
  0
LINE
  8
0
  6
CONTINUOUS
 62
     1
 10
545.599996995
 20
1227.4
 11
541.6
 21
1223.400003005
  0
POINT
  8
0
  6
CONTINUOUS
 62
     1
 10
541.6
 20
1213.4
  0
LINE
  8
0
  6
CONTINUOUS
 62
     1
 10
541.6
 20
1213.4
 11
545.6
 21
1213.4
  0
LINE
  8
0
  6
CONTINUOUS
 62
     1
 10
560.6
 20
1227.399999776
 11
560.6
 21
1239.4
  0
LINE
  8
0
  6
CONTINUOUS
 62
     1
 10
545.6
 20
1239.4
 11
560.6
 21
1239.4
  0
LINE
  8
0
  6
CONTINUOUS
 62
     1
 10
560.6
 20
1239.4
 11
561.6
 21
1237.667949192
  0
LINE
  8
0
  6
CONTINUOUS
 62
     1
 10
561.6
 20
1227.399999762
 11
561.6
 21
1237.667949192
  0
LINE
  8
0
  6
CONTINUOUS
 62
     1
 10
560.6
 20
1227.400000224
 11
560.6
 21
1215.4
  0
LINE
  8
0
  6
CONTINUOUS
 62
     1
 10
545.6
 20
1215.4
 11
560.6
 21
1215.4
  0
LINE
  8
0
  6
CONTINUOUS
 62
     1
 10
560.6
 20
1215.4
 11
561.6
 21
1217.132050808
  0
LINE
  8
0
  6
CONTINUOUS
 62
     1
 10
561.6
 20
1227.400000238
 11
561.6
 21
1217.132050808
  0
LINE
  8
0
  6
CONTINUOUS
 62
     1
 10
516.6
 20
1489.9
 11
541.6
 21
1489.9
  0
LINE
  8
0
  6
CONTINUOUS
 62
     1
 10
545.6
 20
1472.4
 11
545.6
 21
1458.569011902
  0
LINE
  8
0
  6
CONTINUOUS
 62
     1
 10
545.6
 20
1472.4
 11
545.6
 21
1486.230988098
  0
POINT
  8
0
  6
CONTINUOUS
 62
     1
 10
541.6
 20
1458.4
  0
LINE
  8
0
  6
CONTINUOUS
 62
     1
 10
541.6
 20
1458.4
 11
545.6
 21
1458.4
  0
LINE
  8
0
  6
CONTINUOUS
 62
     1
 10
541.6
 20
1472.4
 11
545.599996995
 21
1468.400003005
  0
LINE
  8
0
  6
CONTINUOUS
 62
     1
 10
545.599996995
 20
1472.4
 11
541.6
 21
1476.399996995
  0
POINT
  8
0
  6
CONTINUOUS
 62
     1
 10
541.6
 20
1486.4
  0
LINE
  8
0
  6
CONTINUOUS
 62
     1
 10
541.6
 20
1486.4
 11
545.6
 21
1486.4
  0
LINE
  8
0
  6
CONTINUOUS
 62
     1
 10
560.6
 20
1472.400000224
 11
560.6
 21
1460.4
  0
LINE
  8
0
  6
CONTINUOUS
 62
     1
 10
545.6
 20
1460.4
 11
560.6
 21
1460.4
  0
LINE
  8
0
  6
CONTINUOUS
 62
     1
 10
560.6
 20
1460.4
 11
561.6
 21
1462.132050808
  0
LINE
  8
0
  6
CONTINUOUS
 62
     1
 10
561.6
 20
1472.400000238
 11
561.6
 21
1462.132050808
  0
LINE
  8
0
  6
CONTINUOUS
 62
     1
 10
560.6
 20
1472.399999776
 11
560.6
 21
1484.4
  0
LINE
  8
0
  6
CONTINUOUS
 62
     1
 10
545.6
 20
1484.4
 11
560.6
 21
1484.4
  0
LINE
  8
0
  6
CONTINUOUS
 62
     1
 10
560.6
 20
1484.4
 11
561.6
 21
1482.667949192
  0
LINE
  8
0
  6
CONTINUOUS
 62
     1
 10
561.6
 20
1472.399999762
 11
561.6
 21
1482.667949192
  0
LINE
  8
0
  6
CONTINUOUS
 62
     1
 10
541.6
 20
1209.9
 11
541.6
 21
1489.9
  0
LINE
  8
0
  6
LTYPE2
 62
     2
 10
641.6
 20
1327.9
 11
641.6
 21
1374.9
  0
CIRCLE
  8
0
  6
LTYPE2
 62
     2
 10
641.6
 20
1349.9
 40
5.0
  0
CIRCLE
  8
0
  6
LTYPE2
 62
     2
 10
641.6
 20
1349.9
 40
10.0
  0
LINE
  8
0
  6
CONTINUOUS
 62
     1
 10
331.6
 20
1584.9
 11
441.6
 21
1584.9
  0
LINE
  8
0
  6
CONTINUOUS
 62
     1
 10
441.6
 20
1584.9
 11
441.6
 21
1532.9
  0
LINE
  8
0
  6
CONTINUOUS
 62
     1
 10
331.6
 20
1584.9
 11
331.6
 21
1532.9
  0
LINE
  8
0
  6
CONTINUOUS
 62
     1
 10
302.6
 20
1502.9
 11
302.6
 21
1532.9
  0
LINE
  8
0
  6
CONTINUOUS
 62
     1
 10
470.6
 20
1502.9
 11
470.6
 21
1532.9
  0
LINE
  8
0
  6
CONTINUOUS
 62
     1
 10
302.6
 20
1532.9
 11
470.6
 21
1532.9
  0
LINE
  8
0
  6
CONTINUOUS
 62
     1
 10
299.6
 20
1502.9
 11
473.6
 21
1502.9
  0
ARC
  8
0
  6
CONTINUOUS
 62
     1
 10
386.6
 20
1622.092471126
 40
150.0
 50
234.549457361
 51
305.450542639
  0
LINE
  8
0
  6
CONTINUOUS
 62
     1
 10
299.6
 20
1502.9
 11
299.6
 21
1499.9
  0
LINE
  8
0
  6
CONTINUOUS
 62
     1
 10
473.6
 20
1502.9
 11
473.6
 21
1499.9
  0
LINE
  8
0
  6
CONTINUOUS
 62
     1
 10
331.6
 20
1114.9
 11
441.6
 21
1114.9
  0
LINE
  8
0
  6
CONTINUOUS
 62
     1
 10
441.6
 20
1114.9
 11
441.6
 21
1166.9
  0
LINE
  8
0
  6
CONTINUOUS
 62
     1
 10
331.6
 20
1114.9
 11
331.6
 21
1166.9
  0
LINE
  8
0
  6
CONTINUOUS
 62
     1
 10
302.6
 20
1196.9
 11
302.6
 21
1166.9
  0
LINE
  8
0
  6
CONTINUOUS
 62
     1
 10
470.6
 20
1196.9
 11
470.6
 21
1166.9
  0
LINE
  8
0
  6
CONTINUOUS
 62
     1
 10
302.6
 20
1166.9
 11
470.6
 21
1166.9
  0
LINE
  8
0
  6
CONTINUOUS
 62
     1
 10
299.6
 20
1196.9
 11
473.6
 21
1196.9
  0
ARC
  8
0
  6
CONTINUOUS
 62
     1
 10
386.6
 20
1077.707528874
 40
150.0
 50
54.549457361
 51
125.450542639
  0
LINE
  8
0
  6
CONTINUOUS
 62
     1
 10
299.6
 20
1196.9
 11
299.6
 21
1199.9
  0
LINE
  8
0
  6
CONTINUOUS
 62
     1
 10
473.6
 20
1196.9
 11
473.6
 21
1199.9
  0
LINE
  8
7
  6
CONTINUOUS
 62
     2
 10
290.6
 20
1166.9
 11
193.1
 21
1166.9
  0
LINE
  8
7
  6
CONTINUOUS
 62
     2
 10
205.1
 20
1166.9
 11
210.276380902
 21
1186.218516526
  0
LINE
  8
7
  6
CONTINUOUS
 62
     2
 10
205.1
 20
1166.9
 11
199.923619098
 21
1186.218516526
  0
LINE
  8
7
  6
CONTINUOUS
 62
     2
 10
205.1
 20
1166.9
 11
205.1
 21
1532.9
  0
LINE
  8
7
  6
CONTINUOUS
 62
     2
 10
205.1
 20
1532.9
 11
199.923619098
 21
1513.581483474
  0
LINE
  8
7
  6
CONTINUOUS
 62
     2
 10
205.1
 20
1532.9
 11
210.276380902
 21
1513.581483474
  0
LINE
  8
7
  6
CONTINUOUS
 62
     2
 10
290.6
 20
1532.9
 11
193.1
 21
1532.9
  0
TEXT
  8
7
  6
CONTINUOUS
 62
     2
 10
197.1
 20
1319.1
 30
0.8
 40
24.0
  1
３６６
 50
90.0
 41
0.833333333
 51
0.0
  7
KANJI32
  0
LINE
  8
0
  6
CONTINUOUS
 62
     1
 10
473.6
 20
1499.9
 11
516.6
 21
1499.9
  0
LINE
  8
0
  6
CONTINUOUS
 62
     1
 10
473.6
 20
1199.9
 11
516.6
 21
1199.9
  0
LINE
  8
0
  6
LTYPE2
 62
     2
 10
509.6
 20
1472.4
 11
569.6
 21
1472.4
  0
LINE
  8
0
  6
LTYPE2
 62
     2
 10
509.6
 20
1227.4
 11
569.6
 21
1227.4
  0
ARC
  8
0
  6
CONTINUOUS
 62
     1
 10
490.35
 20
1349.9
 40
6.25
 50
270.0
 51
90.0
  0
ARC
  8
0
  6
CONTINUOUS
 62
     1
 10
442.85
 20
1349.9
 40
6.25
 50
90.0
 51
270.0
  0
LINE
  8
0
  6
CONTINUOUS
 62
     1
 10
442.85
 20
1356.15
 11
490.35
 21
1356.15
  0
LINE
  8
0
  6
CONTINUOUS
 62
     1
 10
442.85
 20
1343.65
 11
490.35
 21
1343.65
  0
LINE
  8
0
  6
LTYPE2
 62
     2
 10
466.6
 20
1330.5
 11
466.6
 21
1368.0
  0
ARC
  8
0
  6
CONTINUOUS
 62
     1
 10
466.6
 20
1349.9
 40
15.0
 50
204.624318352
 51
270.0
  0
ARC
  8
0
  6
CONTINUOUS
 62
     1
 10
466.6
 20
1349.9
 40
15.0
 50
90.0
 51
155.375681648
  0
ARC
  8
0
  6
CONTINUOUS
 62
     1
 10
466.6
 20
1349.9
 40
15.0
 50
270.0
 51
335.375681648
  0
ARC
  8
0
  6
CONTINUOUS
 62
     1
 10
466.6
 20
1349.9
 40
15.0
 50
24.624318352
 51
90.0
  0
LINE
  8
0
  6
LTYPE2
 62
     2
 10
406.1
 20
1431.4
 11
449.1
 21
1431.4
  0
LINE
  8
0
  6
LTYPE2
 62
     2
 10
426.6
 20
1417.4
 11
426.6
 21
1444.4
  0
LINE
  8
0
  6
LTYPE2
 62
     2
 10
443.6
 20
1411.4
 11
459.6
 21
1411.4
  0
LINE
  8
0
  6
LTYPE2
 62
     2
 10
443.6
 20
1451.4
 11
459.6
 21
1451.4
  0
LINE
  8
0
  6
LTYPE2
 62
     2
 10
451.6
 20
1455.4
 11
451.6
 21
1444.273724357
  0
LINE
  8
0
  6
LTYPE2
 62
     2
 10
451.6
 20
1403.026275643
 11
451.6
 21
1415.9
  0
LINE
  8
0
  6
LTYPE2
 62
     2
 10
409.6
 20
1411.4
 11
393.6
 21
1411.4
  0
LINE
  8
0
  6
LTYPE2
 62
     2
 10
409.6
 20
1451.4
 11
393.6
 21
1451.4
  0
LINE
  8
0
  6
LTYPE2
 62
     2
 10
401.6
 20
1455.4
 11
401.6
 21
1444.273724357
  0
LINE
  8
0
  6
LTYPE2
 62
     2
 10
401.6
 20
1403.026275643
 11
401.6
 21
1415.9
  0
POLYLINE
  8
0
  6
LTYPE1
 62
     2
 66
     1
 70
     1
  0
VERTEX
  8
0
  6
LTYPE1
 62
     2
 10
441.6
 20
1430.9
 42
0.032691223
  0
VERTEX
  8
0
  6
LTYPE1
 62
     2
 10
441.542920471
 20
1431.771557427
 42
0.032158761
  0
VERTEX
  8
0
  6
LTYPE1
 62
     2
 10
441.372116295
 20
1432.636481777
 42
0.031088809
  0
VERTEX
  8
0
  6
LTYPE1
 62
     2
 10
441.088887394
 20
1433.488190451
 42
0.029614446
  0
VERTEX
  8
0
  6
LTYPE1
 62
     2
 10
440.695389312
 20
1434.320201433
 42
0.027893043
  0
VERTEX
  8
0
  6
LTYPE1
 62
     2
 10
440.194616806
 20
1435.126182617
 42
0.026072638
  0
VERTEX
  8
0
  6
LTYPE1
 62
     2
 10
439.590381057
 20
1435.9
 42
0.024271431
  0
VERTEX
  8
0
  6
LTYPE1
 62
     2
 10
438.887280664
 20
1436.635764364
 42
0.022571479
  0
VERTEX
  8
0
  6
LTYPE1
 62
     2
 10
438.090666647
 20
1437.327876097
 42
0.021022052
  0
VERTEX
  8
0
  6
LTYPE1
 62
     2
 10
437.206601718
 20
1437.971067812
 42
0.019647265
  0
VERTEX
  8
0
  6
LTYPE1
 62
     2
 10
436.241814145
 20
1438.560444431
 42
0.018454172
  0
VERTEX
  8
0
  6
LTYPE1
 62
     2
 10
435.203646545
 20
1439.091520443
 42
0.017439538
  0
VERTEX
  8
0
  6
LTYPE1
 62
     2
 10
434.1
 20
1439.560254038
 42
0.016594779
  0
VERTEX
  8
0
  6
LTYPE1
 62
     2
 10
432.939273926
 20
1439.96307787
 42
0.015909269
  0
VERTEX
  8
0
  6
LTYPE1
 62
     2
 10
431.73030215
 20
1440.296926208
 42
0.015372402
  0
VERTEX
  8
0
  6
LTYPE1
 62
     2
 10
430.482285677
 20
1440.559258263
 42
0.014974806
  0
VERTEX
  8
0
  6
LTYPE1
 62
     2
 10
429.204722665
 20
1440.74807753
 42
0.014709015
  0
VERTEX
  8
0
  6
LTYPE1
 62
     2
 10
427.907336141
 20
1440.861946981
 42
0.014569816
  0
VERTEX
  8
0
  6
LTYPE1
 62
     2
 10
426.6
 20
1440.9
 42
0.014554414
  0
VERTEX
  8
0
  6
LTYPE1
 62
     2
 10
425.292663859
 20
1440.861946981
 42
0.014662498
  0
VERTEX
  8
0
  6
LTYPE1
 62
     2
 10
423.995277335
 20
1440.74807753
 42
0.014896245
  0
VERTEX
  8
0
  6
LTYPE1
 62
     2
 10
422.717714323
 20
1440.559258263
 42
0.015260274
  0
VERTEX
  8
0
  6
LTYPE1
 62
     2
 10
421.46969785
 20
1440.296926208
 42
0.015761511
  0
VERTEX
  8
0
  6
LTYPE1
 62
     2
 10
420.260726074
 20
1439.96307787
 42
0.016408899
  0
VERTEX
  8
0
  6
LTYPE1
 62
     2
 10
419.1
 20
1439.560254038
 42
0.017212822
  0
VERTEX
  8
0
  6
LTYPE1
 62
     2
 10
417.996353455
 20
1439.091520443
 42
0.018184057
  0
VERTEX
  8
0
  6
LTYPE1
 62
     2
 10
416.958185855
 20
1438.560444431
 42
0.019331952
  0
VERTEX
  8
0
  6
LTYPE1
 62
     2
 10
415.993398282
 20
1437.971067812
 42
0.020661474
  0
VERTEX
  8
0
  6
LTYPE1
 62
     2
 10
415.109333353
 20
1437.327876097
 42
0.022168703
  0
VERTEX
  8
0
  6
LTYPE1
 62
     2
 10
414.312719336
 20
1436.635764364
 42
0.023834517
  0
VERTEX
  8
0
  6
LTYPE1
 62
     2
 10
413.609618943
 20
1435.9
 42
0.025616715
  0
VERTEX
  8
0
  6
LTYPE1
 62
     2
 10
413.005383194
 20
1435.126182617
 42
0.027442002
  0
VERTEX
  8
0
  6
LTYPE1
 62
     2
 10
412.504610688
 20
1434.320201433
 42
0.029201101
  0
VERTEX
  8
0
  6
LTYPE1
 62
     2
 10
412.111112606
 20
1433.488190451
 42
0.030752107
  0
VERTEX
  8
0
  6
LTYPE1
 62
     2
 10
411.827883705
 20
1432.636481777
 42
0.031937242
  0
VERTEX
  8
0
  6
LTYPE1
 62
     2
 10
411.657079529
 20
1431.771557427
 42
0.032613786
  0
VERTEX
  8
0
  6
LTYPE1
 62
     2
 10
411.6
 20
1430.9
 42
0.032691223
  0
VERTEX
  8
0
  6
LTYPE1
 62
     2
 10
411.657079529
 20
1430.028442573
 42
0.032158761
  0
VERTEX
  8
0
  6
LTYPE1
 62
     2
 10
411.827883705
 20
1429.163518223
 42
0.031088809
  0
VERTEX
  8
0
  6
LTYPE1
 62
     2
 10
412.111112606
 20
1428.311809549
 42
0.029614446
  0
VERTEX
  8
0
  6
LTYPE1
 62
     2
 10
412.504610688
 20
1427.479798567
 42
0.027893043
  0
VERTEX
  8
0
  6
LTYPE1
 62
     2
 10
413.005383194
 20
1426.673817383
 42
0.026072638
  0
VERTEX
  8
0
  6
LTYPE1
 62
     2
 10
413.609618943
 20
1425.9
 42
0.024271431
  0
VERTEX
  8
0
  6
LTYPE1
 62
     2
 10
414.312719336
 20
1425.164235636
 42
0.022571479
  0
VERTEX
  8
0
  6
LTYPE1
 62
     2
 10
415.109333353
 20
1424.472123903
 42
0.021022052
  0
VERTEX
  8
0
  6
LTYPE1
 62
     2
 10
415.993398282
 20
1423.828932188
 42
0.019647265
  0
VERTEX
  8
0
  6
LTYPE1
 62
     2
 10
416.958185855
 20
1423.239555569
 42
0.018454172
  0
VERTEX
  8
0
  6
LTYPE1
 62
     2
 10
417.996353455
 20
1422.708479557
 42
0.017439538
  0
VERTEX
  8
0
  6
LTYPE1
 62
     2
 10
419.1
 20
1422.239745962
 42
0.016594779
  0
VERTEX
  8
0
  6
LTYPE1
 62
     2
 10
420.260726074
 20
1421.83692213
 42
0.015909269
  0
VERTEX
  8
0
  6
LTYPE1
 62
     2
 10
421.46969785
 20
1421.503073792
 42
0.015372402
  0
VERTEX
  8
0
  6
LTYPE1
 62
     2
 10
422.717714323
 20
1421.240741737
 42
0.014974806
  0
VERTEX
  8
0
  6
LTYPE1
 62
     2
 10
423.995277335
 20
1421.05192247
 42
0.014709015
  0
VERTEX
  8
0
  6
LTYPE1
 62
     2
 10
425.292663859
 20
1420.938053019
 42
0.014569816
  0
VERTEX
  8
0
  6
LTYPE1
 62
     2
 10
426.6
 20
1420.9
 42
0.014554414
  0
VERTEX
  8
0
  6
LTYPE1
 62
     2
 10
427.907336141
 20
1420.938053019
 42
0.014662498
  0
VERTEX
  8
0
  6
LTYPE1
 62
     2
 10
429.204722665
 20
1421.05192247
 42
0.014896245
  0
VERTEX
  8
0
  6
LTYPE1
 62
     2
 10
430.482285677
 20
1421.240741737
 42
0.015260274
  0
VERTEX
  8
0
  6
LTYPE1
 62
     2
 10
431.73030215
 20
1421.503073792
 42
0.015761511
  0
VERTEX
  8
0
  6
LTYPE1
 62
     2
 10
432.939273926
 20
1421.83692213
 42
0.016408899
  0
VERTEX
  8
0
  6
LTYPE1
 62
     2
 10
434.1
 20
1422.239745962
 42
0.017212822
  0
VERTEX
  8
0
  6
LTYPE1
 62
     2
 10
435.203646545
 20
1422.708479557
 42
0.018184057
  0
VERTEX
  8
0
  6
LTYPE1
 62
     2
 10
436.241814145
 20
1423.239555569
 42
0.019331952
  0
VERTEX
  8
0
  6
LTYPE1
 62
     2
 10
437.206601718
 20
1423.828932188
 42
0.020661474
  0
VERTEX
  8
0
  6
LTYPE1
 62
     2
 10
438.090666647
 20
1424.472123903
 42
0.022168703
  0
VERTEX
  8
0
  6
LTYPE1
 62
     2
 10
438.887280664
 20
1425.164235636
 42
0.023834517
  0
VERTEX
  8
0
  6
LTYPE1
 62
     2
 10
439.590381057
 20
1425.9
 42
0.025616715
  0
VERTEX
  8
0
  6
LTYPE1
 62
     2
 10
440.194616806
 20
1426.673817383
 42
0.027442002
  0
VERTEX
  8
0
  6
LTYPE1
 62
     2
 10
440.695389312
 20
1427.479798567
 42
0.029201101
  0
VERTEX
  8
0
  6
LTYPE1
 62
     2
 10
441.088887394
 20
1428.311809549
 42
0.030752107
  0
VERTEX
  8
0
  6
LTYPE1
 62
     2
 10
441.372116295
 20
1429.163518223
 42
0.031937242
  0
VERTEX
  8
0
  6
LTYPE1
 62
     2
 10
441.542920471
 20
1430.028442573
 42
0.032613786
  0
SEQEND
  8
0
  6
LTYPE1
 62
     2
  0
ARC
  8
0
  6
CONTINUOUS
 62
     1
 10
459.6
 20
1454.4
 40
2.0
 50
0.0
 51
90.0
  0
LINE
  8
0
  6
CONTINUOUS
 62
     1
 10
461.6
 20
1408.4
 11
461.6
 21
1454.4
  0
LINE
  8
0
  6
CONTINUOUS
 62
     1
 10
459.6
 20
1406.4
 11
461.6
 21
1408.4
  0
LINE
  8
0
  6
CONTINUOUS
 62
     1
 10
393.6
 20
1406.4
 11
459.6
 21
1406.4
  0
LINE
  8
0
  6
CONTINUOUS
 62
     1
 10
391.6
 20
1408.4
 11
393.6
 21
1406.4
  0
LINE
  8
0
  6
CONTINUOUS
 62
     1
 10
393.6
 20
1456.4
 11
459.6
 21
1456.4
  0
LINE
  8
0
  6
CONTINUOUS
 62
     1
 10
391.6
 20
1408.4
 11
391.6
 21
1454.4
  0
LINE
  8
0
  6
CONTINUOUS
 62
     1
 10
393.6
 20
1456.4
 11
391.6
 21
1454.4
  0
LINE
  8
0
  6
CONTINUOUS
 62
     1
 10
491.6
 20
1356.023724357
 11
491.6
 21
1499.9
  0
LINE
  8
0
  6
CONTINUOUS
 62
     1
 10
491.6
 20
1199.9
 11
491.6
 21
1343.776275643
  0
LINE
  8
0
  6
CONTINUOUS
 62
     1
 10
291.6
 20
1199.9
 11
291.6
 21
1499.9
  0
LINE
  8
0
  6
LTYPE2
 62
     2
 10
258.686875628
 20
1488.9
 11
299.6
 21
1488.9
  0
LINE
  8
0
  6
LTYPE2
 62
     2
 10
258.686875628
 20
1210.9
 11
299.6
 21
1210.9
  0
LINE
  8
0
  6
CONTINUOUS
 62
     1
 10
291.6
 20
1499.9
 11
299.6
 21
1499.9
  0
LINE
  8
0
  6
CONTINUOUS
 62
     1
 10
291.6
 20
1199.9
 11
299.6
 21
1199.9
  0
LINE
  8
0
  6
CONTINUOUS
 62
     1
 10
277.6
 20
1201.4
 11
277.6
 21
1498.4
  0
LINE
  8
0
  6
CONTINUOUS
 62
     1
 10
275.1
 20
1488.9
 11
275.1
 21
1479.1
  0
LINE
  8
0
  6
CONTINUOUS
 62
     1
 10
275.1
 20
1479.1
 11
269.485640646
 21
1479.1
  0
LINE
  8
0
  6
CONTINUOUS
 62
     1
 10
268.1
 20
1481.5
 11
269.485640646
 21
1479.1
  0
LINE
  8
0
  6
CONTINUOUS
 62
     1
 10
268.1
 20
1488.9
 11
268.1
 21
1481.5
  0
LINE
  8
0
  6
CONTINUOUS
 62
     1
 10
275.1
 20
1484.0
 11
269.485640646
 21
1484.0
  0
LINE
  8
0
  6
CONTINUOUS
 62
     1
 10
275.1
 20
1488.9
 11
275.1
 21
1498.7
  0
LINE
  8
0
  6
CONTINUOUS
 62
     1
 10
275.1
 20
1498.7
 11
269.485640646
 21
1498.7
  0
LINE
  8
0
  6
CONTINUOUS
 62
     1
 10
268.1
 20
1496.3
 11
269.485640646
 21
1498.7
  0
LINE
  8
0
  6
CONTINUOUS
 62
     1
 10
268.1
 20
1488.9
 11
268.1
 21
1496.3
  0
LINE
  8
0
  6
CONTINUOUS
 62
     1
 10
275.1
 20
1493.8
 11
269.485640646
 21
1493.8
  0
ARC
  8
0
  6
CONTINUOUS
 62
     1
 10
277.4566828
 20
1488.9
 40
9.3566828
 50
148.419912243
 51
211.580087757
  0
ARC
  8
0
  6
CONTINUOUS
 62
     1
 10
270.957883832
 20
1481.55
 40
2.858321186
 50
121.002313915
 51
182.989498403
  0
LINE
  8
0
  6
CONTINUOUS
 62
     1
 10
268.1
 20
1496.3
 11
269.485640646
 21
1498.7
  0
ARC
  8
0
  6
CONTINUOUS
 62
     1
 10
270.957883832
 20
1496.25
 40
2.858321186
 50
177.010501597
 51
238.997686085
  0
LINE
  8
0
  6
CONTINUOUS
 62
     1
 10
277.6
 20
1479.7
 11
275.1
 21
1479.7
  0
LINE
  8
0
  6
CONTINUOUS
 62
     1
 10
277.6
 20
1488.9
 11
275.100000004
 21
1486.400000004
  0
LINE
  8
0
  6
CONTINUOUS
 62
     1
 10
275.100000004
 20
1488.9
 11
277.6
 21
1491.399999996
  0
LINE
  8
0
  6
CONTINUOUS
 62
     1
 10
277.6
 20
1498.1
 11
275.1
 21
1498.1
  0
LINE
  8
0
  6
CONTINUOUS
 62
     1
 10
275.1
 20
1210.9
 11
275.1
 21
1220.7
  0
LINE
  8
0
  6
CONTINUOUS
 62
     1
 10
275.1
 20
1220.7
 11
269.485640646
 21
1220.7
  0
LINE
  8
0
  6
CONTINUOUS
 62
     1
 10
268.1
 20
1218.3
 11
269.485640646
 21
1220.7
  0
LINE
  8
0
  6
CONTINUOUS
 62
     1
 10
268.1
 20
1210.9
 11
268.1
 21
1218.3
  0
LINE
  8
0
  6
CONTINUOUS
 62
     1
 10
275.1
 20
1215.8
 11
269.485640646
 21
1215.8
  0
LINE
  8
0
  6
CONTINUOUS
 62
     1
 10
275.1
 20
1210.9
 11
275.1
 21
1201.1
  0
LINE
  8
0
  6
CONTINUOUS
 62
     1
 10
275.1
 20
1201.1
 11
269.485640646
 21
1201.1
  0
LINE
  8
0
  6
CONTINUOUS
 62
     1
 10
268.1
 20
1203.5
 11
269.485640646
 21
1201.1
  0
LINE
  8
0
  6
CONTINUOUS
 62
     1
 10
268.1
 20
1210.9
 11
268.1
 21
1203.5
  0
LINE
  8
0
  6
CONTINUOUS
 62
     1
 10
275.1
 20
1206.0
 11
269.485640646
 21
1206.0
  0
ARC
  8
0
  6
CONTINUOUS
 62
     1
 10
277.4566828
 20
1210.9
 40
9.3566828
 50
148.419912243
 51
211.580087757
  0
ARC
  8
0
  6
CONTINUOUS
 62
     1
 10
270.957883832
 20
1218.25
 40
2.858321186
 50
177.010501597
 51
238.997686085
  0
LINE
  8
0
  6
CONTINUOUS
 62
     1
 10
268.1
 20
1203.5
 11
269.485640646
 21
1201.1
  0
ARC
  8
0
  6
CONTINUOUS
 62
     1
 10
270.957883832
 20
1203.55
 40
2.858321186
 50
121.002313915
 51
182.989498403
  0
LINE
  8
0
  6
CONTINUOUS
 62
     1
 10
277.6
 20
1220.1
 11
275.1
 21
1220.1
  0
LINE
  8
0
  6
CONTINUOUS
 62
     1
 10
277.6
 20
1210.9
 11
275.100000004
 21
1213.399999996
  0
LINE
  8
0
  6
CONTINUOUS
 62
     1
 10
275.100000004
 20
1210.9
 11
277.6
 21
1208.400000004
  0
LINE
  8
0
  6
CONTINUOUS
 62
     1
 10
277.6
 20
1201.7
 11
275.1
 21
1201.7
  0
LINE
  8
0
  6
CONTINUOUS
 62
     1
 10
277.6
 20
1201.4
 11
291.6
 21
1201.4
  0
LINE
  8
0
  6
CONTINUOUS
 62
     1
 10
277.6
 20
1498.4
 11
291.6
 21
1498.4
  0
LINE
  8
7
  6
CONTINUOUS
 62
     2
 10
647.475
 20
1354.55
 11
658.574023362
 21
1371.187658501
  0
LINE
  8
7
  6
CONTINUOUS
 62
     2
 10
647.475
 20
1354.55
 11
648.768206938
 21
1374.508146603
  0
LINE
  8
7
  6
CONTINUOUS
 62
     2
 10
647.475
 20
1354.55
 11
711.475
 21
1543.55
  0
LINE
  8
7
  6
CONTINUOUS
 62
     2
 10
711.475
 20
1543.55
 11
901.075
 21
1543.55
  0
TEXT
  8
7
  6
CONTINUOUS
 62
     2
 10
711.475
 20
1551.55
 30
2.4
 40
24.0
  1
グリースニップル
 50
0.0
 41
0.9
 51
0.0
  7
KANJI28
  0
LINE
  8
7
  6
CONTINUOUS
 62
     2
 10
433.475
 20
1449.55
 11
449.730778176
 21
1461.201166289
  0
LINE
  8
7
  6
CONTINUOUS
 62
     2
 10
433.475
 20
1449.55
 11
441.727333714
 21
1467.768095078
  0
LINE
  8
7
  6
CONTINUOUS
 62
     2
 10
433.475
 20
1449.55
 11
561.475
 21
1605.55
  0
LINE
  8
7
  6
CONTINUOUS
 62
     2
 10
561.475
 20
1605.55
 11
727.075
 21
1605.55
  0
TEXT
  8
7
  6
CONTINUOUS
 62
     2
 10
561.475
 20
1613.55
 30
2.4
 40
24.0
  1
点検口、給脂口
 50
0.0
 41
0.9
 51
0.0
  7
KANJI28
  0
LINE
  8
0
  6
CONTINUOUS
 62
     1
 10
516.6
 20
1209.9
 11
541.6
 21
1209.9
  0
LINE
  8
0
  6
CONTINUOUS
 62
     1
 10
545.6
 20
1227.4
 11
545.6
 21
1241.230988098
  0
LINE
  8
0
  6
CONTINUOUS
 62
     1
 10
545.6
 20
1227.4
 11
545.6
 21
1213.569011902
  0
POINT
  8
0
  6
CONTINUOUS
 62
     1
 10
541.6
 20
1241.4
  0
LINE
  8
0
  6
CONTINUOUS
 62
     1
 10
541.6
 20
1241.4
 11
545.6
 21
1241.4
  0
LINE
  8
0
  6
CONTINUOUS
 62
     1
 10
541.6
 20
1227.4
 11
545.599996995
 21
1231.399996995
  0
LINE
  8
0
  6
CONTINUOUS
 62
     1
 10
545.599996995
 20
1227.4
 11
541.6
 21
1223.400003005
  0
POINT
  8
0
  6
CONTINUOUS
 62
     1
 10
541.6
 20
1213.4
  0
LINE
  8
0
  6
CONTINUOUS
 62
     1
 10
541.6
 20
1213.4
 11
545.6
 21
1213.4
  0
LINE
  8
0
  6
CONTINUOUS
 62
     1
 10
560.6
 20
1227.399999776
 11
560.6
 21
1239.4
  0
LINE
  8
0
  6
CONTINUOUS
 62
     1
 10
545.6
 20
1239.4
 11
560.6
 21
1239.4
  0
LINE
  8
0
  6
CONTINUOUS
 62
     1
 10
560.6
 20
1239.4
 11
561.6
 21
1237.667949192
  0
LINE
  8
0
  6
CONTINUOUS
 62
     1
 10
561.6
 20
1227.399999762
 11
561.6
 21
1237.667949192
  0
LINE
  8
0
  6
CONTINUOUS
 62
     1
 10
560.6
 20
1227.400000224
 11
560.6
 21
1215.4
  0
LINE
  8
0
  6
CONTINUOUS
 62
     1
 10
545.6
 20
1215.4
 11
560.6
 21
1215.4
  0
LINE
  8
0
  6
CONTINUOUS
 62
     1
 10
560.6
 20
1215.4
 11
561.6
 21
1217.132050808
  0
LINE
  8
0
  6
CONTINUOUS
 62
     1
 10
561.6
 20
1227.400000238
 11
561.6
 21
1217.132050808
  0
LINE
  8
0
  6
CONTINUOUS
 62
     1
 10
706.6
 20
1248.4
 11
726.6
 21
1248.4
  0
LINE
  8
0
  6
CONTINUOUS
 62
     1
 10
706.6
 20
1343.9
 11
726.6
 21
1343.9
  0
LINE
  8
0
  6
CONTINUOUS
 62
     1
 10
706.6
 20
1355.9
 11
726.6
 21
1355.9
  0
LINE
  8
0
  6
CONTINUOUS
 62
     1
 10
703.6
 20
1267.4
 11
706.6
 21
1267.4
  0
LINE
  8
0
  6
CONTINUOUS
 62
     1
 10
703.6
 20
1269.4
 11
706.6
 21
1269.4
  0
LINE
  8
0
  6
CONTINUOUS
 62
     1
 10
516.6
 20
1489.9
 11
541.6
 21
1489.9
  0
LINE
  8
0
  6
CONTINUOUS
 62
     1
 10
545.6
 20
1472.4
 11
545.6
 21
1458.569011902
  0
LINE
  8
0
  6
CONTINUOUS
 62
     1
 10
545.6
 20
1472.4
 11
545.6
 21
1486.230988098
  0
POINT
  8
0
  6
CONTINUOUS
 62
     1
 10
541.6
 20
1458.4
  0
LINE
  8
0
  6
CONTINUOUS
 62
     1
 10
541.6
 20
1458.4
 11
545.6
 21
1458.4
  0
LINE
  8
0
  6
CONTINUOUS
 62
     1
 10
541.6
 20
1472.4
 11
545.599996995
 21
1468.400003005
  0
LINE
  8
0
  6
CONTINUOUS
 62
     1
 10
545.599996995
 20
1472.4
 11
541.6
 21
1476.399996995
  0
POINT
  8
0
  6
CONTINUOUS
 62
     1
 10
541.6
 20
1486.4
  0
LINE
  8
0
  6
CONTINUOUS
 62
     1
 10
541.6
 20
1486.4
 11
545.6
 21
1486.4
  0
LINE
  8
0
  6
CONTINUOUS
 62
     1
 10
560.6
 20
1472.400000224
 11
560.6
 21
1460.4
  0
LINE
  8
0
  6
CONTINUOUS
 62
     1
 10
545.6
 20
1460.4
 11
560.6
 21
1460.4
  0
LINE
  8
0
  6
CONTINUOUS
 62
     1
 10
560.6
 20
1460.4
 11
561.6
 21
1462.132050808
  0
LINE
  8
0
  6
CONTINUOUS
 62
     1
 10
561.6
 20
1472.400000238
 11
561.6
 21
1462.132050808
  0
LINE
  8
0
  6
CONTINUOUS
 62
     1
 10
560.6
 20
1472.399999776
 11
560.6
 21
1484.4
  0
LINE
  8
0
  6
CONTINUOUS
 62
     1
 10
545.6
 20
1484.4
 11
560.6
 21
1484.4
  0
LINE
  8
0
  6
CONTINUOUS
 62
     1
 10
560.6
 20
1484.4
 11
561.6
 21
1482.667949192
  0
LINE
  8
0
  6
CONTINUOUS
 62
     1
 10
561.6
 20
1472.399999762
 11
561.6
 21
1482.667949192
  0
LINE
  8
0
  6
CONTINUOUS
 62
     1
 10
706.6
 20
1451.4
 11
726.6
 21
1451.4
  0
LINE
  8
0
  6
CONTINUOUS
 62
     1
 10
703.6
 20
1432.4
 11
706.6
 21
1432.4
  0
LINE
  8
0
  6
CONTINUOUS
 62
     1
 10
703.6
 20
1430.4
 11
706.6
 21
1430.4
  0
LINE
  8
0
  6
CONTINUOUS
 62
     1
 10
541.6
 20
1209.9
 11
541.6
 21
1489.9
  0
LINE
  8
0
  6
CONTINUOUS
 62
     1
 10
706.6
 20
1248.4
 11
706.6
 21
1451.4
  0
LINE
  8
0
  6
CONTINUOUS
 62
     1
 10
726.6
 20
1248.4
 11
726.6
 21
1451.4
  0
LINE
  8
0
  6
CONTINUOUS
 62
     1
 10
703.6
 20
1261.0
 11
703.6
 21
1438.8
  0
LINE
  8
0
  6
LTYPE2
 62
     2
 10
641.6
 20
1327.9
 11
641.6
 21
1374.9
  0
CIRCLE
  8
0
  6
LTYPE2
 62
     2
 10
641.6
 20
1349.9
 40
5.0
  0
CIRCLE
  8
0
  6
LTYPE2
 62
     2
 10
641.6
 20
1349.9
 40
10.0
  0
LINE
  8
0
  6
CONTINUOUS
 62
     1
 10
656.6
 20
1414.17600641
 11
556.6
 21
1435.389209845
  0
LINE
  8
0
  6
CONTINUOUS
 62
     1
 10
556.6
 20
1446.702918344
 11
656.6
 21
1425.489714909
  0
LINE
  8
0
  6
CONTINUOUS
 62
     1
 10
556.6
 20
1446.702918344
 11
541.6
 21
1446.702918344
  0
LINE
  8
0
  6
CONTINUOUS
 62
     1
 10
556.6
 20
1435.389209845
 11
541.6
 21
1435.389209845
  0
LINE
  8
0
  6
CONTINUOUS
 62
     1
 10
556.6
 20
1435.389209845
 11
556.6
 21
1446.702918344
  0
LINE
  8
0
  6
CONTINUOUS
 62
     1
 10
593.85471435
 20
1438.8
 11
703.6
 21
1438.8
  0
LINE
  8
0
  6
CONTINUOUS
 62
     1
 10
656.6
 20
1406.849894588
 11
541.6
 21
1406.849894588
  0
LINE
  8
0
  6
CONTINUOUS
 62
     1
 10
656.6
 20
1425.489714909
 11
656.6
 21
1406.849894588
  0
LINE
  8
0
  6
CONTINUOUS
 62
     1
 10
656.6
 20
1285.62399359
 11
556.6
 21
1264.410790155
  0
LINE
  8
0
  6
CONTINUOUS
 62
     1
 10
556.6
 20
1253.097081656
 11
656.6
 21
1274.310285091
  0
LINE
  8
0
  6
CONTINUOUS
 62
     1
 10
556.6
 20
1253.097081656
 11
541.6
 21
1253.097081656
  0
LINE
  8
0
  6
CONTINUOUS
 62
     1
 10
556.6
 20
1264.410790155
 11
541.6
 21
1264.410790155
  0
LINE
  8
0
  6
CONTINUOUS
 62
     1
 10
556.6
 20
1264.410790155
 11
556.6
 21
1253.097081656
  0
LINE
  8
0
  6
CONTINUOUS
 62
     1
 10
656.6
 20
1292.950105412
 11
541.6
 21
1292.950105412
  0
LINE
  8
0
  6
CONTINUOUS
 62
     1
 10
656.6
 20
1274.310285091
 11
656.6
 21
1292.950105412
  0
LINE
  8
0
  6
CONTINUOUS
 62
     1
 10
593.85471435
 20
1261.0
 11
703.6
 21
1261.0
  0
LINE
  8
0
  6
LTYPE2
 62
     2
 10
509.6
 20
1472.4
 11
569.6
 21
1472.4
  0
LINE
  8
0
  6
LTYPE2
 62
     2
 10
509.6
 20
1227.4
 11
569.6
 21
1227.4
  0
LINE
  8
0
  6
CONTINUOUS
 62
     1
 10
516.6
 20
1209.9
 11
516.6
 21
1489.9
  0
POINT
  8
0
  6
CONTINUOUS
 62
     1
 10
726.6
 20
1254.55
  0
LINE
  8
0
  6
LTYPE2
 62
     2
 10
313.266666667
 20
1482.066666667
 11
313.266666667
 21
1542.066666667
  0
LINE
  8
0
  6
LTYPE2
 62
     2
 10
459.933333333
 20
1478.066666667
 11
459.933333333
 21
1542.066666667
  0
LINE
  8
0
  6
LTYPE2
 62
     2
 10
313.266666667
 20
1159.4
 11
313.266666667
 21
1219.4
  0
LINE
  8
0
  6
LTYPE2
 62
     2
 10
459.933333333
 20
1158.066666667
 11
459.933333333
 21
1219.4
  0
LINE
  8
0
  6
CONTINUOUS
 62
     2
 10
233.1
 20
1532.9
 11
197.1
 21
1532.9
  0
LINE
  8
0
  6
CONTINUOUS
 62
     2
 10
205.1
 20
1532.9
 11
210.276380902
 21
1552.218516526
  0
LINE
  8
0
  6
CONTINUOUS
 62
     2
 10
205.1
 20
1532.9
 11
199.923619098
 21
1552.218516526
  0
LINE
  8
0
  6
CONTINUOUS
 62
     2
 10
205.1
 20
1532.9
 11
205.1
 21
1584.9
  0
LINE
  8
0
  6
CONTINUOUS
 62
     2
 10
205.1
 20
1584.9
 11
199.923619098
 21
1565.581483474
  0
LINE
  8
0
  6
CONTINUOUS
 62
     2
 10
205.1
 20
1584.9
 11
210.276380902
 21
1565.581483474
  0
LINE
  8
0
  6
CONTINUOUS
 62
     2
 10
323.6
 20
1584.9
 11
197.1
 21
1584.9
  0
TEXT
  8
0
  6
CONTINUOUS
 62
     2
 10
199.5
 20
1537.3
 30
0.0
 40
24.0
  1
５２
 50
90.0
 41
0.9
 51
0.0
  7
KANJI37
  0
LINE
  8
0
  6
CONTINUOUS
 62
     1
 10
364.1
 20
1589.9
 11
364.1
 21
1584.9
  0
LINE
  8
0
  6
CONTINUOUS
 62
     1
 10
364.6
 20
1659.9
 11
364.6
 21
1589.9
  0
LINE
  8
0
  6
CONTINUOUS
 62
     1
 10
364.1
 20
1589.9
 11
409.1
 21
1589.9
  0
LINE
  8
0
  6
CONTINUOUS
 62
     1
 10
379.6
 20
1659.9
 11
379.6
 21
1604.9
  0
LINE
  8
0
  6
CONTINUOUS
 62
     1
 10
379.6
 20
1604.9
 11
393.6
 21
1604.9
  0
ARC
  8
0
  6
CONTINUOUS
 62
     1
 10
386.6
 20
1604.9
 40
7.0
 50
180.0
 51
0.0
  0
LINE
  8
0
  6
CONTINUOUS
 62
     1
 10
393.6
 20
1659.9
 11
393.6
 21
1604.9
  0
LINE
  8
0
  6
CONTINUOUS
 62
     1
 10
364.6
 20
1659.9
 11
408.6
 21
1659.9
  0
LINE
  8
0
  6
CONTINUOUS
 62
     1
 10
409.1
 20
1589.9
 11
409.1
 21
1584.9
  0
LINE
  8
0
  6
CONTINUOUS
 62
     1
 10
408.6
 20
1659.9
 11
408.6
 21
1589.9
  0
LINE
  8
7
  6
CONTINUOUS
 62
     2
 10
253.1
 20
1589.9
 11
258.276380902
 21
1609.218516526
  0
LINE
  8
7
  6
CONTINUOUS
 62
     2
 10
253.1
 20
1589.9
 11
247.923619098
 21
1609.218516526
  0
TEXT
  8
7
  6
CONTINUOUS
 62
     2
 10
245.1
 20
1619.9
 30
0.8
 40
24.0
  1
５
 50
90.0
 41
0.833333333
 51
0.0
  7
KANJI32
  0
LINE
  8
7
  6
CONTINUOUS
 62
     2
 10
253.1
 20
1584.9
 11
247.923619098
 21
1565.581483474
  0
LINE
  8
7
  6
CONTINUOUS
 62
     2
 10
253.1
 20
1584.9
 11
258.276380902
 21
1565.581483474
  0
LINE
  8
7
  6
CONTINUOUS
 62
     2
 10
352.1
 20
1589.9
 11
193.1
 21
1589.9
  0
LINE
  8
7
  6
CONTINUOUS
 62
     2
 10
205.1
 20
1659.9
 11
199.923619098
 21
1640.581483474
  0
LINE
  8
7
  6
CONTINUOUS
 62
     2
 10
205.1
 20
1659.9
 11
210.276380902
 21
1640.581483474
  0
LINE
  8
7
  6
CONTINUOUS
 62
     2
 10
205.1
 20
1659.9
 11
205.1
 21
1589.9
  0
LINE
  8
7
  6
CONTINUOUS
 62
     2
 10
205.1
 20
1589.9
 11
210.276380902
 21
1609.218516526
  0
LINE
  8
7
  6
CONTINUOUS
 62
     2
 10
205.1
 20
1589.9
 11
199.923619098
 21
1609.218516526
  0
TEXT
  8
7
  6
CONTINUOUS
 62
     2
 10
197.1
 20
1604.5
 30
0.8
 40
24.0
  1
７０
 50
90.0
 41
0.833333333
 51
0.0
  7
KANJI32
  0
LINE
  8
7
  6
CONTINUOUS
 62
     2
 10
358.6
 20
1659.9
 11
193.1
 21
1659.9
  0
LINE
  8
0
  6
LTYPE2
 62
     2
 10
386.6
 20
926.766666667
 11
386.6
 21
1668.5
  0
LINE
  8
7
  6
CONTINUOUS
 62
     2
 10
253.1
 20
1589.9
 11
253.1
 21
1639.9
  0
LINE
  8
7
  6
CONTINUOUS
 62
     2
 10
253.1
 20
1584.9
 11
253.1
 21
1589.9
  0
LINE
  8
7
  6
CONTINUOUS
 62
     2
 10
253.1
 20
1554.9
 11
253.1
 21
1584.9
  0
LINE
  8
0
  6
CONTINUOUS
 62
     2
 10
207.9
 20
1166.9
 11
213.1
 21
1166.9
  0
LINE
  8
0
  6
CONTINUOUS
 62
     2
 10
205.1
 20
1166.9
 11
199.923619098
 21
1147.581483474
  0
LINE
  8
0
  6
CONTINUOUS
 62
     2
 10
205.1
 20
1166.9
 11
210.276380902
 21
1147.581483474
  0
LINE
  8
0
  6
CONTINUOUS
 62
     2
 10
205.1
 20
1166.9
 11
205.1
 21
1114.9
  0
LINE
  8
0
  6
CONTINUOUS
 62
     2
 10
205.1
 20
1114.9
 11
210.276380902
 21
1134.218516526
  0
LINE
  8
0
  6
CONTINUOUS
 62
     2
 10
205.1
 20
1114.9
 11
199.923619098
 21
1134.218516526
  0
LINE
  8
0
  6
CONTINUOUS
 62
     2
 10
323.6
 20
1114.9
 11
197.1
 21
1114.9
  0
TEXT
  8
0
  6
CONTINUOUS
 62
     2
 10
199.5
 20
1119.3
 30
0.0
 40
24.0
  1
５２
 50
90.0
 41
0.9
 51
0.0
  7
KANJI37
  0
LINE
  8
0
  6
CONTINUOUS
 62
     1
 10
364.1
 20
1109.9
 11
364.1
 21
1114.9
  0
LINE
  8
0
  6
CONTINUOUS
 62
     1
 10
364.6
 20
1039.9
 11
364.6
 21
1109.9
  0
LINE
  8
0
  6
CONTINUOUS
 62
     1
 10
364.1
 20
1109.9
 11
409.1
 21
1109.9
  0
LINE
  8
0
  6
CONTINUOUS
 62
     1
 10
379.6
 20
1039.9
 11
379.6
 21
1094.9
  0
LINE
  8
0
  6
CONTINUOUS
 62
     1
 10
379.6
 20
1094.9
 11
393.6
 21
1094.9
  0
ARC
  8
0
  6
CONTINUOUS
 62
     1
 10
386.6
 20
1094.9
 40
7.0
 50
0.0
 51
180.0
  0
LINE
  8
0
  6
CONTINUOUS
 62
     1
 10
393.6
 20
1039.9
 11
393.6
 21
1094.9
  0
LINE
  8
0
  6
CONTINUOUS
 62
     1
 10
409.1
 20
1109.9
 11
409.1
 21
1114.9
  0
LINE
  8
0
  6
CONTINUOUS
 62
     1
 10
408.6
 20
1039.9
 11
408.6
 21
1109.9
  0
LINE
  8
0
  6
CONTINUOUS
 62
     1
 10
364.6
 20
1039.9
 11
408.6
 21
1039.9
  0
LINE
  8
0
  6
CONTINUOUS
 62
     2
 10
356.1
 20
1109.9
 11
197.1
 21
1109.9
  0
LINE
  8
0
  6
CONTINUOUS
 62
     2
 10
205.1
 20
1109.9
 11
199.923619098
 21
1090.581483474
  0
LINE
  8
0
  6
CONTINUOUS
 62
     2
 10
205.1
 20
1109.9
 11
210.276380902
 21
1090.581483474
  0
LINE
  8
0
  6
CONTINUOUS
 62
     2
 10
205.1
 20
1109.9
 11
205.1
 21
1039.9
  0
LINE
  8
0
  6
CONTINUOUS
 62
     2
 10
205.1
 20
1039.9
 11
210.276380902
 21
1059.218516526
  0
LINE
  8
0
  6
CONTINUOUS
 62
     2
 10
205.1
 20
1039.9
 11
199.923619098
 21
1059.218516526
  0
LINE
  8
0
  6
CONTINUOUS
 62
     2
 10
356.6
 20
1039.9
 11
197.1
 21
1039.9
  0
TEXT
  8
0
  6
CONTINUOUS
 62
     2
 10
199.5
 20
1053.3
 30
0.0
 40
24.0
  1
７０
 50
90.0
 41
0.9
 51
0.0
  7
KANJI37
  0
LINE
  8
0
  6
CONTINUOUS
 62
     2
 10
243.2
 20
1114.9
 11
261.1
 21
1114.9
  0
LINE
  8
0
  6
CONTINUOUS
 62
     2
 10
253.1
 20
1114.9
 11
258.276380902
 21
1134.218516526
  0
LINE
  8
0
  6
CONTINUOUS
 62
     2
 10
253.1
 20
1114.9
 11
247.923619098
 21
1134.218516526
  0
LINE
  8
0
  6
CONTINUOUS
 62
     2
 10
253.1
 20
1144.9
 11
253.1
 21
1114.9
  0
LINE
  8
0
  6
CONTINUOUS
 62
     2
 10
253.1
 20
1114.9
 11
253.1
 21
1109.9
  0
LINE
  8
0
  6
CONTINUOUS
 62
     2
 10
253.1
 20
1109.9
 11
253.1
 21
1058.3
  0
LINE
  8
0
  6
CONTINUOUS
 62
     2
 10
253.1
 20
1109.9
 11
247.923619098
 21
1090.581483474
  0
LINE
  8
0
  6
CONTINUOUS
 62
     2
 10
253.1
 20
1109.9
 11
258.276380902
 21
1090.581483474
  0
LINE
  8
0
  6
CONTINUOUS
 62
     2
 10
242.3
 20
1109.9
 11
261.1
 21
1109.9
  0
TEXT
  8
0
  6
CONTINUOUS
 62
     2
 10
247.5
 20
1058.3
 30
0.0
 40
24.0
  1
５
 50
90.0
 41
0.9
 51
0.0
  7
KANJI37
  0
LINE
  8
0
  6
CONTINUOUS
 62
     2
 10
226.8
 20
1659.9
 11
156.9
 21
1659.9
  0
LINE
  8
0
  6
CONTINUOUS
 62
     2
 10
164.9
 20
1659.9
 11
159.723619098
 21
1640.581483474
  0
LINE
  8
0
  6
CONTINUOUS
 62
     2
 10
164.9
 20
1659.9
 11
170.076380902
 21
1640.581483474
  0
LINE
  8
0
  6
CONTINUOUS
 62
     2
 10
164.9
 20
1659.9
 11
164.9
 21
1039.9
  0
LINE
  8
0
  6
CONTINUOUS
 62
     2
 10
164.9
 20
1039.9
 11
170.076380902
 21
1059.218516526
  0
LINE
  8
0
  6
CONTINUOUS
 62
     2
 10
164.9
 20
1039.9
 11
159.723619098
 21
1059.218516526
  0
LINE
  8
0
  6
CONTINUOUS
 62
     2
 10
222.3
 20
1039.9
 11
156.9
 21
1039.9
  0
TEXT
  8
0
  6
CONTINUOUS
 62
     2
 10
159.3
 20
1317.5
 30
0.0
 40
24.0
  1
６２０
 50
90.0
 41
0.9
 51
0.0
  7
KANJI37
  0
LINE
  8
0
  6
LTYPE2
 62
     2
 10
223.5
 20
1349.8
 11
1906.3
 21
1349.8
  0
LINE
  8
0
  6
CONTINUOUS
 62
     2
 10
364.6
 20
1667.9
 11
364.6
 21
1709.0
  0
LINE
  8
0
  6
CONTINUOUS
 62
     2
 10
364.6
 20
1701.0
 11
345.281483474
 21
1706.176380902
  0
LINE
  8
0
  6
CONTINUOUS
 62
     2
 10
364.6
 20
1701.0
 11
345.281483474
 21
1695.823619098
  0
LINE
  8
0
  6
CONTINUOUS
 62
     2
 10
334.6
 20
1701.0
 11
364.6
 21
1701.0
  0
LINE
  8
0
  6
CONTINUOUS
 62
     2
 10
364.6
 20
1701.0
 11
408.6
 21
1701.0
  0
LINE
  8
0
  6
CONTINUOUS
 62
     2
 10
408.6
 20
1701.0
 11
438.6
 21
1701.0
  0
LINE
  8
0
  6
CONTINUOUS
 62
     2
 10
408.6
 20
1701.0
 11
427.918516526
 21
1695.823619098
  0
LINE
  8
0
  6
CONTINUOUS
 62
     2
 10
408.6
 20
1701.0
 11
427.918516526
 21
1706.176380902
  0
LINE
  8
0
  6
CONTINUOUS
 62
     2
 10
408.6
 20
1667.9
 11
408.6
 21
1709.0
  0
TEXT
  8
0
  6
CONTINUOUS
 62
     2
 10
332.6
 20
1706.6
 30
0.0
 40
24.0
  1
φ４４ｈ７
 50
0.0
 41
0.9
 51
0.0
  7
KANJI37
  0
LINE
  8
0
  6
CONTINUOUS
 62
     2
 10
331.6
 20
1592.9
 11
331.6
 21
1777.9
  0
LINE
  8
0
  6
CONTINUOUS
 62
     2
 10
331.6
 20
1769.9
 11
350.918516526
 21
1764.723619098
  0
LINE
  8
0
  6
CONTINUOUS
 62
     2
 10
331.6
 20
1769.9
 11
350.918516526
 21
1775.076380902
  0
LINE
  8
0
  6
CONTINUOUS
 62
     2
 10
331.6
 20
1769.9
 11
441.6
 21
1769.9
  0
LINE
  8
0
  6
CONTINUOUS
 62
     2
 10
441.6
 20
1769.9
 11
422.281483474
 21
1775.076380902
  0
LINE
  8
0
  6
CONTINUOUS
 62
     2
 10
441.6
 20
1769.9
 11
422.281483474
 21
1764.723619098
  0
LINE
  8
0
  6
CONTINUOUS
 62
     2
 10
441.6
 20
1592.9
 11
441.6
 21
1777.9
  0
TEXT
  8
0
  6
CONTINUOUS
 62
     2
 10
327.718516526
 20
1779.323619098
 30
0.0
 40
24.0
  1
φ１１０ｄ９
 50
0.0
 41
0.9
 51
0.0
  7
KANJI37
  0
LINE
  8
0
  6
CONTINUOUS
 62
     2
 10
1547.2
 20
960.0
 11
1566.518516526
 21
954.823619098
  0
LINE
  8
0
  6
CONTINUOUS
 62
     2
 10
1547.2
 20
960.0
 11
1566.518516526
 21
965.176380902
  0
TEXT
  8
0
  6
CONTINUOUS
 62
     2
 10
1562.2
 20
965.6
 30
0.0
 40
24.0
  1
ｍｉｎ．Ｐ
 50
0.0
 41
0.9
 51
0.0
  7
KANJI37
  0
LINE
  8
0
  6
CONTINUOUS
 62
     2
 10
1547.2
 20
1022.0
 11
1547.2
 21
952.0
  0
LINE
  8
0
  6
CONTINUOUS
 62
     2
 10
1547.2
 20
960.0
 11
1527.881483474
 21
965.176380902
  0
LINE
  8
0
  6
CONTINUOUS
 62
     2
 10
1547.2
 20
960.0
 11
1527.881483474
 21
954.823619098
  0
LINE
  8
0
  6
CONTINUOUS
 62
     2
 10
1547.2
 20
960.0
 11
386.6
 21
960.0
  0
LINE
  8
2
  6
CONTINUOUS
 62
     2
 10
386.6
 20
1017.866666667
 11
386.6
 21
1009.866666667
  0
LINE
  8
0
  6
CONTINUOUS
 62
     2
 10
386.6
 20
1053.0
 11
386.6
 21
952.0
  0
LINE
  8
0
  6
CONTINUOUS
 62
     2
 10
386.6
 20
895.0
 11
405.918516526
 21
889.823619098
  0
LINE
  8
0
  6
CONTINUOUS
 62
     2
 10
386.6
 20
895.0
 11
405.918516526
 21
900.176380902
  0
LINE
  8
0
  6
CONTINUOUS
 62
     2
 10
386.6
 20
974.0
 11
386.6
 21
887.0
  0
LINE
  8
0
  6
CONTINUOUS
 62
     2
 10
386.6
 20
914.0
 11
386.6
 21
887.0
  0
LINE
  8
0
  6
CONTINUOUS
 62
     2
 10
386.6
 20
895.0
 11
367.281483474
 21
900.176380902
  0
LINE
  8
0
  6
CONTINUOUS
 62
     2
 10
386.6
 20
895.0
 11
367.281483474
 21
889.823619098
  0
LINE
  8
0
  6
CONTINUOUS
 62
     2
 10
386.6
 20
895.0
 11
277.6
 21
895.0
  0
LINE
  8
0
  6
CONTINUOUS
 62
     2
 10
277.6
 20
895.0
 11
296.918516526
 21
889.823619098
  0
LINE
  8
0
  6
CONTINUOUS
 62
     2
 10
277.6
 20
895.0
 11
296.918516526
 21
900.176380902
  0
TEXT
  8
0
  6
CONTINUOUS
 62
     2
 10
299.7
 20
900.6
 30
0.0
 40
24.0
  1
１０９
 50
0.0
 41
0.9
 51
0.0
  7
KANJI37
  0
LINE
  8
0
  6
CONTINUOUS
 62
     2
 10
277.6
 20
935.1
 11
277.6
 21
823.1
  0
LINE
  8
0
  6
CONTINUOUS
 62
     2
 10
277.6
 20
831.1
 11
296.918516526
 21
825.923619098
  0
LINE
  8
0
  6
CONTINUOUS
 62
     2
 10
277.6
 20
831.1
 11
296.918516526
 21
836.276380902
  0
LINE
  8
0
  6
CONTINUOUS
 62
     2
 10
386.6
 20
960.0
 11
405.918516526
 21
954.823619098
  0
LINE
  8
0
  6
CONTINUOUS
 62
     2
 10
386.6
 20
960.0
 11
405.918516526
 21
965.176380902
  0
LINE
  8
0
  6
CONTINUOUS
 62
     2
 10
386.6
 20
955.9
 11
386.6
 21
952.0
  0
TEXT
  8
0
  6
CONTINUOUS
 62
     2
 10
956.1
 20
965.6
 30
0.0
 40
24.0
  1
Ｃ
 50
0.0
 41
0.9
 51
0.0
  7
KANJI37
  0
LINE
  8
0
  6
CONTINUOUS
 62
     2
 10
277.6
 20
1201.4
 11
277.6
 21
887.0
  0
LINE
  8
0
  6
CONTINUOUS
 62
     2
 10
1547.2
 20
1254.45
 11
1547.2
 21
952.0
  0
LINE
  8
0
  6
CONTINUOUS
 62
     2
 10
2042.0
 20
1109.9
 11
2042.0
 21
1589.9
  0
LINE
  8
0
  6
CONTINUOUS
 62
     2
 10
2042.0
 20
1589.9
 11
2036.823619098
 21
1570.581483474
  0
LINE
  8
0
  6
CONTINUOUS
 62
     2
 10
2042.0
 20
1589.9
 11
2047.176380902
 21
1570.581483474
  0
LINE
  8
0
  6
CONTINUOUS
 62
     2
 10
2059.1
 20
1589.9
 11
2034.0
 21
1589.9
  0
LINE
  8
0
  6
CONTINUOUS
 62
     2
 10
2042.0
 20
1589.9
 11
2047.176380902
 21
1609.218516526
  0
LINE
  8
0
  6
CONTINUOUS
 62
     2
 10
2042.0
 20
1589.9
 11
2036.823619098
 21
1609.218516526
  0
LINE
  8
0
  6
CONTINUOUS
 62
     2
 10
2042.0
 20
1589.9
 11
2042.0
 21
1659.9
  0
LINE
  8
0
  6
CONTINUOUS
 62
     2
 10
2042.0
 20
1659.9
 11
2036.823619098
 21
1640.581483474
  0
LINE
  8
0
  6
CONTINUOUS
 62
     2
 10
2042.0
 20
1659.9
 11
2047.176380902
 21
1640.581483474
  0
TEXT
  8
0
  6
CONTINUOUS
 62
     2
 10
2036.4
 20
1603.3
 30
0.0
 40
24.0
  1
７０
 50
90.0
 41
0.9
 51
0.0
  7
KANJI37
  0
LINE
  8
0
  6
CONTINUOUS
 62
     2
 10
2266.3
 20
1659.9
 11
2034.0
 21
1659.9
  0
LINE
  8
0
  6
CONTINUOUS
 62
     2
 10
2269.3
 20
1589.9
 11
2034.0
 21
1589.9
  0
LINE
  8
0
  6
CONTINUOUS
 62
     1
 10
2236.8
 20
1114.9
 11
2346.8
 21
1114.9
  0
LINE
  8
0
  6
CONTINUOUS
 62
     1
 10
2346.8
 20
1114.9
 11
2346.8
 21
1166.9
  0
LINE
  8
0
  6
CONTINUOUS
 62
     1
 10
2236.8
 20
1114.9
 11
2236.8
 21
1166.9
  0
LINE
  8
0
  6
CONTINUOUS
 62
     1
 10
2236.8
 20
1584.9
 11
2346.8
 21
1584.9
  0
LINE
  8
0
  6
CONTINUOUS
 62
     1
 10
2346.8
 20
1584.9
 11
2346.8
 21
1532.9
  0
LINE
  8
0
  6
CONTINUOUS
 62
     1
 10
2236.8
 20
1584.9
 11
2236.8
 21
1532.9
  0
LINE
  8
0
  6
CONTINUOUS
 62
     1
 10
2204.8
 20
1502.9
 11
2204.8
 21
1472.092471126
  0
LINE
  8
0
  6
CONTINUOUS
 62
     1
 10
2207.8
 20
1502.9
 11
2207.8
 21
1532.9
  0
LINE
  8
0
  6
CONTINUOUS
 62
     1
 10
2204.8
 20
1502.9
 11
2378.8
 21
1502.9
  0
LINE
  8
0
  6
CONTINUOUS
 62
     1
 10
2207.8
 20
1532.9
 11
2375.8
 21
1532.9
  0
LINE
  8
0
  6
CONTINUOUS
 62
     1
 10
2204.8
 20
1196.9
 11
2204.8
 21
1227.707528874
  0
LINE
  8
0
  6
CONTINUOUS
 62
     1
 10
2207.8
 20
1196.9
 11
2207.8
 21
1166.9
  0
LINE
  8
0
  6
CONTINUOUS
 62
     1
 10
2204.8
 20
1196.9
 11
2378.8
 21
1196.9
  0
LINE
  8
0
  6
CONTINUOUS
 62
     1
 10
2207.8
 20
1166.9
 11
2375.8
 21
1166.9
  0
CIRCLE
  8
0
  6
CONTINUOUS
 62
     1
 10
2291.8
 20
1349.9
 40
115.0
  0
CIRCLE
  8
0
  6
CONTINUOUS
 62
     1
 10
2291.8
 20
1349.9
 40
85.0
  0
CIRCLE
  8
0
  6
CONTINUOUS
 62
     1
 10
2291.8
 20
1349.9
 40
61.5
  0
LINE
  8
0
  6
LTYPE3
 62
     2
 10
2291.8
 20
1356.7
 11
2291.8
 21
1343.1
  0
LINE
  8
0
  6
CONTINUOUS
 62
     1
 10
2338.514558758
 20
1389.9
 11
2245.085441242
 21
1389.9
  0
LINE
  8
0
  6
LTYPE1
 62
     1
 10
2323.3
 20
1309.9
 11
2323.3
 21
1389.9
  0
ARC
  8
0
  6
CONTINUOUS
 62
     1
 10
2291.8
 20
1349.9
 40
46.5
 50
300.659262305
 51
59.340737695
  0
LINE
  8
0
  6
LTYPE1
 62
     1
 10
2260.3
 20
1309.9
 11
2260.3
 21
1389.9
  0
ARC
  8
0
  6
CONTINUOUS
 62
     1
 10
2291.8
 20
1349.9
 40
46.5
 50
120.659262305
 51
239.340737695
  0
LINE
  8
0
  6
CONTINUOUS
 62
     1
 10
2338.514558758
 20
1309.9
 11
2245.085441242
 21
1309.9
  0
LINE
  8
0
  6
CONTINUOUS
 62
     1
 10
2269.3
 20
1109.9
 11
2269.3
 21
1114.9
  0
LINE
  8
0
  6
CONTINUOUS
 62
     1
 10
2269.3
 20
1109.9
 11
2314.3
 21
1109.9
  0
LINE
  8
0
  6
CONTINUOUS
 62
     1
 10
2266.3
 20
1094.9
 11
2269.8
 21
1094.9
  0
LINE
  8
0
  6
CONTINUOUS
 62
     1
 10
2266.3
 20
1039.9
 11
2266.3
 21
1094.9
  0
LINE
  8
0
  6
CONTINUOUS
 62
     1
 10
2269.8
 20
1039.9
 11
2269.8
 21
1109.9
  0
LINE
  8
0
  6
CONTINUOUS
 62
     1
 10
2266.3
 20
1039.9
 11
2313.8
 21
1039.9
  0
LINE
  8
0
  6
CONTINUOUS
 62
     1
 10
2314.3
 20
1109.9
 11
2314.3
 21
1114.9
  0
LINE
  8
0
  6
CONTINUOUS
 62
     1
 10
2313.8
 20
1039.9
 11
2313.8
 21
1109.9
  0
LINE
  8
0
  6
CONTINUOUS
 62
     1
 10
2269.3
 20
1589.9
 11
2269.3
 21
1584.9
  0
LINE
  8
0
  6
CONTINUOUS
 62
     1
 10
2269.3
 20
1589.9
 11
2314.3
 21
1589.9
  0
LINE
  8
0
  6
CONTINUOUS
 62
     1
 10
2266.3
 20
1604.9
 11
2269.8
 21
1604.9
  0
LINE
  8
0
  6
CONTINUOUS
 62
     1
 10
2266.3
 20
1659.9
 11
2266.3
 21
1604.9
  0
LINE
  8
0
  6
CONTINUOUS
 62
     1
 10
2269.8
 20
1659.9
 11
2269.8
 21
1589.9
  0
LINE
  8
0
  6
CONTINUOUS
 62
     1
 10
2266.3
 20
1659.9
 11
2313.8
 21
1659.9
  0
LINE
  8
0
  6
CONTINUOUS
 62
     1
 10
2314.3
 20
1589.9
 11
2314.3
 21
1584.9
  0
LINE
  8
0
  6
CONTINUOUS
 62
     1
 10
2313.8
 20
1659.9
 11
2313.8
 21
1589.9
  0
LINE
  8
0
  6
LTYPE2
 62
     2
 10
2291.8
 20
1011.0
 11
2291.8
 21
1678.3
  0
LINE
  8
0
  6
CONTINUOUS
 62
     2
 10
2291.8
 20
1684.9
 11
2291.8
 21
1709.0
  0
LINE
  8
0
  6
CONTINUOUS
 62
     2
 10
2291.8
 20
1701.0
 11
2311.118516526
 21
1695.823619098
  0
LINE
  8
0
  6
CONTINUOUS
 62
     2
 10
2291.8
 20
1701.0
 11
2311.118516526
 21
1706.176380902
  0
LINE
  8
0
  6
CONTINUOUS
 62
     2
 10
2291.8
 20
1701.0
 11
2441.8
 21
1701.0
  0
TEXT
  8
0
  6
CONTINUOUS
 62
     2
 10
2334.4
 20
1706.6
 30
0.0
 40
24.0
  1
１５０
 50
0.0
 41
0.9
 51
0.0
  7
KANJI37
  0
LINE
  8
2
  6
CONTINUOUS
 62
     2
 10
2050.0
 20
1109.9
 11
2026.0
 21
1109.9
  0
LINE
  8
2
  6
CONTINUOUS
 62
     2
 10
2042.0
 20
1109.9
 11
2047.176380902
 21
1090.581483474
  0
LINE
  8
2
  6
CONTINUOUS
 62
     2
 10
2042.0
 20
1109.9
 11
2036.823619098
 21
1090.581483474
  0
LINE
  8
2
  6
CONTINUOUS
 62
     2
 10
2042.0
 20
1109.9
 11
2042.0
 21
1039.9
  0
LINE
  8
2
  6
CONTINUOUS
 62
     2
 10
2042.0
 20
1039.9
 11
2036.823619098
 21
1059.218516526
  0
LINE
  8
2
  6
CONTINUOUS
 62
     2
 10
2042.0
 20
1039.9
 11
2047.176380902
 21
1059.218516526
  0
TEXT
  8
2
  6
CONTINUOUS
 62
     3
 10
2034.0
 20
1048.1
 30
2.4
 40
28.0
  1
７０
 50
90.0
 41
0.914285714
 51
0.0
  7
KANJI38
  0
LINE
  8
0
  6
CONTINUOUS
 62
     2
 10
2059.1
 20
1109.9
 11
2034.0
 21
1109.9
  0
LINE
  8
0
  6
CONTINUOUS
 62
     2
 10
2042.0
 20
1109.9
 11
2047.176380902
 21
1129.218516526
  0
LINE
  8
0
  6
CONTINUOUS
 62
     2
 10
2042.0
 20
1109.9
 11
2036.823619098
 21
1129.218516526
  0
TEXT
  8
0
  6
CONTINUOUS
 62
     2
 10
2036.4
 20
1317.5
 30
0.0
 40
24.0
  1
４８０
 50
90.0
 41
0.9
 51
0.0
  7
KANJI37
  0
LINE
  8
0
  6
LTYPE3
 62
     2
 10
2059.6
 20
1349.9
 11
2449.6
 21
1349.9
  0
ARC
  8
0
  6
CONTINUOUS
 62
     1
 10
2074.8
 20
1349.9
 40
8.0
 50
90.0
 51
270.0
  0
LINE
  8
0
  6
CONTINUOUS
 62
     2
 10
2291.8
 20
1693.0
 11
2291.8
 21
1709.0
  0
LINE
  8
0
  6
CONTINUOUS
 62
     2
 10
2291.8
 20
1701.0
 11
2272.481483474
 21
1706.176380902
  0
LINE
  8
0
  6
CONTINUOUS
 62
     2
 10
2291.8
 20
1701.0
 11
2272.481483474
 21
1695.823619098
  0
LINE
  8
0
  6
CONTINUOUS
 62
     2
 10
2291.8
 20
1701.0
 11
2066.8
 21
1701.0
  0
LINE
  8
0
  6
CONTINUOUS
 62
     2
 10
2066.8
 20
1701.0
 11
2086.118516526
 21
1695.823619098
  0
LINE
  8
0
  6
CONTINUOUS
 62
     2
 10
2066.8
 20
1701.0
 11
2086.118516526
 21
1706.176380902
  0
LINE
  8
0
  6
CONTINUOUS
 62
     2
 10
2066.8
 20
1357.9
 11
2066.8
 21
1709.0
  0
TEXT
  8
0
  6
CONTINUOUS
 62
     2
 10
2146.9
 20
1706.6
 30
0.0
 40
24.0
  1
２２５
 50
0.0
 41
0.9
 51
0.0
  7
KANJI37
  0
LINE
  8
2
  6
CONTINUOUS
 62
     2
 10
2262.3
 20
1109.9
 11
2026.0
 21
1109.9
  0
LINE
  8
2
  6
CONTINUOUS
 62
     2
 10
2257.3
 20
1039.9
 11
2026.0
 21
1039.9
  0
LINE
  8
0
  6
CONTINUOUS
 62
     1
 10
2367.263426815
 20
1436.677135314
 11
2384.976338555
 21
1454.390047054
  0
LINE
  8
0
  6
CONTINUOUS
 62
     1
 10
2384.976338555
 20
1245.409952946
 11
2367.263426815
 21
1263.122864686
  0
LINE
  8
0
  6
CONTINUOUS
 62
     1
 10
2378.8
 20
1502.9
 11
2378.8
 21
1472.092471126
  0
LINE
  8
0
  6
CONTINUOUS
 62
     1
 10
2375.8
 20
1502.9
 11
2375.8
 21
1532.9
  0
LINE
  8
0
  6
CONTINUOUS
 62
     1
 10
2378.8
 20
1196.9
 11
2378.8
 21
1227.707528874
  0
LINE
  8
0
  6
CONTINUOUS
 62
     1
 10
2375.8
 20
1196.9
 11
2375.8
 21
1166.9
  0
LINE
  8
0
  6
CONTINUOUS
 62
     1
 10
2377.677135314
 20
1424.463426815
 11
2396.290047054
 21
1443.076338555
  0
LINE
  8
0
  6
CONTINUOUS
 62
     1
 10
2384.976338555
 20
1454.390047054
 11
2396.290047054
 21
1443.076338555
  0
LINE
  8
0
  6
CONTINUOUS
 62
     1
 10
2396.290047054
 20
1256.723661445
 11
2377.522843813
 21
1275.490864686
  0
LINE
  8
0
  6
CONTINUOUS
 62
     1
 10
2396.290047054
 20
1256.723661445
 11
2384.976338555
 21
1245.409952946
  0
LINE
  8
0
  6
CONTINUOUS
 62
     2
 10
2441.8
 20
1701.0
 11
2422.481483474
 21
1706.176380902
  0
LINE
  8
0
  6
CONTINUOUS
 62
     2
 10
2441.8
 20
1701.0
 11
2422.481483474
 21
1695.823619098
  0
LINE
  8
0
  6
CONTINUOUS
 62
     2
 10
2441.8
 20
1357.9
 11
2441.8
 21
1709.0
  0
TEXT
  8
0
  6
CONTINUOUS
 62
     2
 10
2951.133333333
 20
1542.666666667
 30
0.0
 40
24.0
  1
２８４Ｎｍ（２９ｋｇｍ）
 50
0.0
 41
0.9
 51
0.0
  7
KANJI37
  0
TEXT
  8
0
  6
CONTINUOUS
 62
     2
 10
2950.6
 20
1484.2
 30
0.0
 40
24.0
  1
５５０Ｎｍ（５６ｋｇｍ）
 50
0.0
 41
0.9
 51
0.0
  7
KANJI37
  0
LINE
  8
0
  6
CONTINUOUS
 62
     1
 10
609.985251001
 20
757.48
 11
1849.985251001
 21
757.48
  0
LINE
  8
0
  6
CONTINUOUS
 62
     1
 10
609.985251001
 20
701.48
 11
1849.985251001
 21
701.48
  0
TEXT
  8
0
  6
CONTINUOUS
 62
     2
 10
910.785251001
 20
717.48
 30
2.4
 40
24.0
  1
ストローク
 50
0.0
 41
0.9
 51
0.0
  7
KANJI39
  0
TEXT
  8
0
  6
CONTINUOUS
 62
     2
 10
1064.385251001
 20
715.88
 30
0.0
 40
24.0
  1
ｍｉｎ　
 50
0.0
 41
0.9
 51
0.0
  7
KANJI37
  0
TEXT
  8
0
  6
CONTINUOUS
 62
     2
 10
1224.385251001
 20
715.88
 30
0.0
 40
24.0
  1
ｍｉｎ　
 50
0.0
 41
0.9
 51
0.0
  7
KANJI37
  0
TEXT
  8
0
  6
CONTINUOUS
 62
     2
 10
1544.385251001
 20
715.88
 30
0.0
 40
24.0
  1
ｍｉｎ　
 50
0.0
 41
0.9
 51
0.0
  7
KANJI37
  0
TEXT
  8
0
  6
CONTINUOUS
 62
     2
 10
1792.985251001
 20
719.28
 30
0.0
 40
19.2
  1
（ｋｇ）
 50
0.0
 41
0.777777778
 51
0.0
  7
KANJI40
  0
TEXT
  8
0
  6
CONTINUOUS
 62
     2
 10
1696.985251001
 20
716.48
 30
2.56
 40
25.6
  1
概算重量
 50
0.0
 41
0.9
 51
0.0
  7
KANJI41
  0
TEXT
  8
0
  6
CONTINUOUS
 62
     2
 10
665.985251001
 20
717.48
 30
2.56
 40
25.6
  1
形
 50
0.0
 41
0.9
 51
0.0
  7
KANJI41
  0
TEXT
  8
0
  6
CONTINUOUS
 62
     2
 10
821.985251001
 20
717.48
 30
2.56
 40
25.6
  1
式
 50
0.0
 41
0.9
 51
0.0
  7
KANJI41
  0
TEXT
  8
0
  6
CONTINUOUS
 62
     2
 10
1145.985251001
 20
717.48
 30
2.8
 40
28.0
  1
ＡＬ
 50
0.0
 41
0.9
 51
0.0
  7
KANJI42
  0
TEXT
  8
0
  6
CONTINUOUS
 62
     2
 10
1305.985251001
 20
717.48
 30
2.8
 40
28.0
  1
Ｌ
 50
0.0
 41
0.9
 51
0.0
  7
KANJI42
  0
TEXT
  8
0
  6
CONTINUOUS
 62
     2
 10
1441.985251001
 20
717.48
 30
2.8
 40
28.0
  1
Ｃ
 50
0.0
 41
0.9
 51
0.0
  7
KANJI42
  0
TEXT
  8
0
  6
CONTINUOUS
 62
     2
 10
1625.985251001
 20
717.48
 30
2.8
 40
28.0
  1
Ｐ
 50
0.0
 41
0.9
 51
0.0
  7
KANJI42
  0
TEXT
  8
0
  6
CONTINUOUS
 62
     2
 10
1609.785251001
 20
662.48
 30
2.4
 40
24.0
  1
５０
 50
0.0
 41
0.9
 51
0.0
  7
KANJI39
  0
LINE
  8
0
  6
CONTINUOUS
 62
     3
 10
609.985251001
 20
421.48
 11
1849.985251001
 21
421.48
  0
LINE
  8
0
  6
CONTINUOUS
 62
     3
 10
609.985251001
 20
645.48
 11
1849.985251001
 21
645.48
  0
LINE
  8
0
  6
CONTINUOUS
 62
     3
 10
609.985251001
 20
589.48
 11
1849.985251001
 21
589.48
  0
LINE
  8
0
  6
CONTINUOUS
 62
     3
 10
609.985251001
 20
533.48
 11
1849.985251001
 21
533.48
  0
LINE
  8
0
  6
CONTINUOUS
 62
     3
 10
609.985251001
 20
477.48
 11
1849.985251001
 21
477.48
  0
LINE
  8
0
  6
CONTINUOUS
 62
     3
 10
609.985251001
 20
365.48
 11
1849.985251001
 21
365.48
  0
LINE
  8
0
  6
CONTINUOUS
 62
     1
 10
609.985251001
 20
309.48
 11
1849.985251001
 21
309.48
  0
LINE
  8
0
  6
CONTINUOUS
 62
     1
 10
609.985251001
 20
757.48
 11
609.985251001
 21
309.48
  0
LINE
  8
0
  6
CONTINUOUS
 62
     1
 10
889.985251001
 20
757.48
 11
889.985251001
 21
309.48
  0
LINE
  8
0
  6
CONTINUOUS
 62
     3
 10
1049.985251001
 20
757.48
 11
1049.985251001
 21
309.48
  0
LINE
  8
0
  6
CONTINUOUS
 62
     3
 10
1209.985251001
 20
757.48
 11
1209.985251001
 21
309.48
  0
LINE
  8
0
  6
CONTINUOUS
 62
     3
 10
1369.985251001
 20
757.48
 11
1369.985251001
 21
309.48
  0
LINE
  8
0
  6
CONTINUOUS
 62
     3
 10
1529.985251001
 20
757.48
 11
1529.985251001
 21
309.48
  0
LINE
  8
0
  6
CONTINUOUS
 62
     3
 10
1689.985251001
 20
757.48
 11
1689.985251001
 21
309.48
  0
LINE
  8
0
  6
CONTINUOUS
 62
     1
 10
1849.985251001
 20
757.48
 11
1849.985251001
 21
309.48
  0
TEXT
  8
0
  6
CONTINUOUS
 62
     2
 10
957.985251001
 20
658.88
 30
2.4
 40
24.0
  1
３００
 50
0.0
 41
0.9
 51
0.0
  7
KANJI39
  0
TEXT
  8
0
  6
CONTINUOUS
 62
     2
 10
957.985251001
 20
602.88
 30
2.4
 40
24.0
  1
５００
 50
0.0
 41
0.9
 51
0.0
  7
KANJI39
  0
TEXT
  8
0
  6
CONTINUOUS
 62
     2
 10
957.985251001
 20
546.88
 30
2.4
 40
24.0
  1
７００
 50
0.0
 41
0.9
 51
0.0
  7
KANJI39
  0
TEXT
  8
0
  6
CONTINUOUS
 62
     2
 10
933.985251001
 20
490.88
 30
2.4
 40
24.0
  1
１０００
 50
0.0
 41
0.9
 51
0.0
  7
KANJI39
  0
TEXT
  8
0
  6
CONTINUOUS
 62
     2
 10
933.985251001
 20
434.88
 30
2.4
 40
24.0
  1
１５００
 50
0.0
 41
0.9
 51
0.0
  7
KANJI39
  0
TEXT
  8
0
  6
CONTINUOUS
 62
     2
 10
933.985251001
 20
378.88
 30
2.4
 40
24.0
  1
２０００
 50
0.0
 41
0.9
 51
0.0
  7
KANJI39
  0
TEXT
  8
0
  6
CONTINUOUS
 62
     2
 10
1585.785251001
 20
606.48
 30
2.4
 40
24.0
  1
１１２
 50
0.0
 41
0.9
 51
0.0
  7
KANJI39
  0
TEXT
  8
0
  6
CONTINUOUS
 62
     2
 10
1585.785251001
 20
550.48
 30
2.4
 40
24.0
  1
１４８
 50
0.0
 41
0.9
 51
0.0
  7
KANJI39
  0
TEXT
  8
0
  6
CONTINUOUS
 62
     2
 10
1585.785251001
 20
494.48
 30
2.4
 40
24.0
  1
２３１
 50
0.0
 41
0.9
 51
0.0
  7
KANJI39
  0
TEXT
  8
0
  6
CONTINUOUS
 62
     2
 10
1585.785251001
 20
438.48
 30
2.4
 40
24.0
  1
３５０
 50
0.0
 41
0.9
 51
0.0
  7
KANJI39
  0
TEXT
  8
0
  6
CONTINUOUS
 62
     2
 10
1585.785251001
 20
382.48
 30
2.4
 40
24.0
  1
４５０
 50
0.0
 41
0.9
 51
0.0
  7
KANJI39
  0
TEXT
  8
0
  6
CONTINUOUS
 62
     2
 10
1411.585251001
 20
662.48
 30
2.4
 40
24.0
  1
１００５
 50
0.0
 41
0.9
 51
0.0
  7
KANJI39
  0
TEXT
  8
0
  6
CONTINUOUS
 62
     2
 10
1411.585251001
 20
606.48
 30
2.4
 40
24.0
  1
１２０５
 50
0.0
 41
0.9
 51
0.0
  7
KANJI39
  0
TEXT
  8
0
  6
CONTINUOUS
 62
     2
 10
1411.585251001
 20
550.48
 30
2.4
 40
24.0
  1
１４２５
 50
0.0
 41
0.9
 51
0.0
  7
KANJI39
  0
TEXT
  8
0
  6
CONTINUOUS
 62
     2
 10
1411.585251001
 20
494.48
 30
2.4
 40
24.0
  1
１７２５
 50
0.0
 41
0.9
 51
0.0
  7
KANJI39
  0
TEXT
  8
0
  6
CONTINUOUS
 62
     2
 10
1411.585251001
 20
438.48
 30
2.4
 40
24.0
  1
２２６５
 50
0.0
 41
0.9
 51
0.0
  7
KANJI39
  0
TEXT
  8
0
  6
CONTINUOUS
 62
     2
 10
1411.585251001
 20
382.48
 30
2.4
 40
24.0
  1
２７９５
 50
0.0
 41
0.9
 51
0.0
  7
KANJI39
  0
TEXT
  8
0
  6
CONTINUOUS
 62
     2
 10
1253.585251001
 20
661.08
 30
2.4
 40
24.0
  1
１１８５
 50
0.0
 41
0.9
 51
0.0
  7
KANJI39
  0
TEXT
  8
0
  6
CONTINUOUS
 62
     2
 10
1253.585251001
 20
605.08
 30
2.4
 40
24.0
  1
１４４７
 50
0.0
 41
0.9
 51
0.0
  7
KANJI39
  0
TEXT
  8
0
  6
CONTINUOUS
 62
     2
 10
1253.585251001
 20
549.08
 30
2.4
 40
24.0
  1
１７０３
 50
0.0
 41
0.9
 51
0.0
  7
KANJI39
  0
TEXT
  8
0
  6
CONTINUOUS
 62
     2
 10
1251.985251001
 20
493.08
 30
2.4
 40
24.0
  1
２０８６
 50
0.0
 41
0.9
 51
0.0
  7
KANJI39
  0
TEXT
  8
0
  6
CONTINUOUS
 62
     2
 10
1251.985251001
 20
437.08
 30
2.4
 40
24.0
  1
２７４５
 50
0.0
 41
0.9
 51
0.0
  7
KANJI39
  0
TEXT
  8
0
  6
CONTINUOUS
 62
     2
 10
1251.985251001
 20
381.08
 30
2.4
 40
24.0
  1
３３７５
 50
0.0
 41
0.9
 51
0.0
  7
KANJI39
  0
TEXT
  8
0
  6
CONTINUOUS
 62
     2
 10
1092.785251001
 20
659.48
 30
2.4
 40
24.0
  1
１２９４
 50
0.0
 41
0.9
 51
0.0
  7
KANJI39
  0
TEXT
  8
0
  6
CONTINUOUS
 62
     2
 10
1092.785251001
 20
603.48
 30
2.4
 40
24.0
  1
１５５６
 50
0.0
 41
0.9
 51
0.0
  7
KANJI39
  0
TEXT
  8
0
  6
CONTINUOUS
 62
     2
 10
1091.785251001
 20
547.48
 30
2.4
 40
24.0
  1
１８１２
 50
0.0
 41
0.9
 51
0.0
  7
KANJI39
  0
TEXT
  8
0
  6
CONTINUOUS
 62
     2
 10
1091.185251001
 20
491.48
 30
2.4
 40
24.0
  1
２１９５
 50
0.0
 41
0.9
 51
0.0
  7
KANJI39
  0
TEXT
  8
0
  6
CONTINUOUS
 62
     2
 10
1091.185251001
 20
435.48
 30
2.4
 40
24.0
  1
２８５４
 50
0.0
 41
0.9
 51
0.0
  7
KANJI39
  0
TEXT
  8
0
  6
CONTINUOUS
 62
     2
 10
1091.185251001
 20
379.48
 30
2.4
 40
24.0
  1
３４８４
 50
0.0
 41
0.9
 51
0.0
  7
KANJI39
  0
TEXT
  8
0
  6
CONTINUOUS
 62
     2
 10
960.0
 20
900.6
 30
0.0
 40
24.0
  1
ｍｉｎ．Ｌ
 50
0.0
 41
0.9
 51
0.0
  7
KANJI37
  0
TEXT
  8
0
  6
CONTINUOUS
 62
     2
 10
905.5
 20
836.7
 30
0.0
 40
24.0
  1
ｍｉｎ．ＡＬ
 50
0.0
 41
0.9
 51
0.0
  7
KANJI37
  0
TEXT
  8
0
  6
CONTINUOUS
 62
     2
 10
2915.2
 20
1206.8
 30
0.8
 40
22.4
  1
マンセル
 50
0.0
 41
0.9
 51
0.0
  7
KANJI43
  0
TEXT
  8
0
  6
CONTINUOUS
 62
     2
 10
3008.8
 20
1208.4
 30
0.32
 40
22.4
  1
７．５ＧＹ５／４．５
 50
0.0
 41
0.785714286
 51
0.0
  7
KANJI44
  0
LINE
  8
0
  6
CONTINUOUS
 62
     1
 10
776.2
 20
1461.8
 11
795.2
 21
1461.8
  0
CIRCLE
  8
0
  6
CONTINUOUS
 62
     1
 10
785.7
 20
1450.8
 40
8.5
  0
LINE
  8
0
  6
CONTINUOUS
 62
     1
 10
794.2
 20
1445.9
 11
794.2
 21
1455.7
  0
LINE
  8
0
  6
CONTINUOUS
 62
     1
 10
794.2
 20
1455.7
 11
785.7
 21
1460.6
  0
LINE
  8
0
  6
CONTINUOUS
 62
     1
 10
777.2
 20
1445.9
 11
777.2
 21
1455.7
  0
LINE
  8
0
  6
CONTINUOUS
 62
     1
 10
777.2
 20
1455.7
 11
785.7
 21
1460.6
  0
LINE
  8
0
  6
CONTINUOUS
 62
     1
 10
794.2
 20
1445.9
 11
785.7
 21
1441.0
  0
LINE
  8
0
  6
CONTINUOUS
 62
     1
 10
777.2
 20
1445.9
 11
785.7
 21
1441.0
  0
CIRCLE
  8
0
  6
CONTINUOUS
 62
     1
 10
785.7
 20
1450.8
 40
5.0
  0
LINE
  8
0
  6
CONTINUOUS
 62
     2
 10
785.7
 20
1437.8
 11
785.7
 21
1464.8
  0
LINE
  8
0
  6
CONTINUOUS
 62
     2
 10
773.2
 20
1450.8
 11
798.2
 21
1450.8
  0
LINE
  8
0
  6
CONTINUOUS
 62
     1
 10
795.2
 20
1461.8
 11
795.2
 21
1434.0
  0
LINE
  8
0
  6
CONTINUOUS
 62
     1
 10
776.2
 20
1461.8
 11
776.2
 21
1237.8
  0
LINE
  8
0
  6
LTYPE1
 62
     1
 10
795.2
 20
1434.0
 11
795.2
 21
1418.0
  0
LINE
  8
0
  6
CONTINUOUS
 62
     1
 10
795.2
 20
1434.8
 11
776.2
 21
1434.8
  0
LINE
  8
0
  6
CONTINUOUS
 62
     1
 10
795.2
 20
1434.8
 11
795.2
 21
1237.8
  0
LINE
  8
0
  6
CONTINUOUS
 62
     1
 10
795.2
 20
1364.8
 11
776.2
 21
1364.8
  0
LINE
  8
0
  6
CONTINUOUS
 62
     1
 10
795.2
 20
1316.8
 11
820.2
 21
1316.8
  0
LINE
  8
0
  6
CONTINUOUS
 62
     1
 10
795.2
 20
1332.8
 11
820.2
 21
1332.8
  0
LINE
  8
0
  6
CONTINUOUS
 62
     1
 10
795.2
 20
1304.8
 11
776.2
 21
1304.8
  0
LINE
  8
0
  6
CONTINUOUS
 62
     1
 10
773.2
 20
1324.8
 11
773.2
 21
1335.74954
  0
LINE
  8
0
  6
CONTINUOUS
 62
     1
 10
773.2
 20
1324.8
 11
773.2
 21
1313.85046
  0
LINE
  8
0
  6
CONTINUOUS
 62
     1
 10
765.1789
 20
1324.8
 11
765.1789
 21
1333.06802
  0
LINE
  8
0
  6
CONTINUOUS
 62
     1
 10
765.1789
 20
1316.53198
 11
766.727076294
 21
1313.85046
  0
LINE
  8
0
  6
CONTINUOUS
 62
     1
 10
765.1789
 20
1324.8
 11
765.1789
 21
1316.53198
  0
ARC
  8
0
  6
CONTINUOUS
 62
     1
 10
775.633121693
 20
1324.8
 40
10.454221693
 50
148.419912243
 51
211.580087757
  0
ARC
  8
0
  6
CONTINUOUS
 62
     1
 10
768.372013606
 20
1333.012155
 40
3.193602261
 50
177.010501597
 51
238.997686085
  0
LINE
  8
0
  6
CONTINUOUS
 62
     1
 10
765.1789
 20
1316.53198
 11
766.727076294
 21
1313.85046
  0
ARC
  8
0
  6
CONTINUOUS
 62
     1
 10
768.372013606
 20
1316.587845
 40
3.193602261
 50
121.002313915
 51
182.989498403
  0
LINE
  8
0
  6
CONTINUOUS
 62
     1
 10
773.2
 20
1330.27477
 11
766.727076294
 21
1330.27477
  0
LINE
  8
0
  6
CONTINUOUS
 62
     1
 10
773.2
 20
1319.32523
 11
766.727076294
 21
1319.32523
  0
LINE
  8
0
  6
CONTINUOUS
 62
     1
 10
773.2
 20
1313.85046
 11
766.727076294
 21
1313.85046
  0
LINE
  8
0
  6
CONTINUOUS
 62
     1
 10
776.2
 20
1324.8
 11
773.199745927
 21
1327.800254073
  0
LINE
  8
0
  6
CONTINUOUS
 62
     1
 10
773.199745927
 20
1324.8
 11
776.2
 21
1321.799745927
  0
LINE
  8
0
  6
CONTINUOUS
 62
     1
 10
776.2
 20
1314.05
 11
773.2
 21
1314.05
  0
LINE
  8
0
  6
CONTINUOUS
 62
     1
 10
765.1789
 20
1318.8
 11
755.2
 21
1318.8
  0
LINE
  8
0
  6
CONTINUOUS
 62
     1
 10
765.1789
 20
1330.8
 11
755.2
 21
1330.8
  0
LINE
  8
0
  6
CONTINUOUS
 62
     1
 10
755.2
 20
1330.8
 11
755.2
 21
1318.8
  0
LINE
  8
0
  6
CONTINUOUS
 62
     1
 10
765.1789
 20
1333.06802
 11
766.727076294
 21
1335.74954
  0
LINE
  8
0
  6
CONTINUOUS
 62
     1
 10
820.2
 20
1361.8
 11
820.2
 21
1314.8
  0
LINE
  8
0
  6
CONTINUOUS
 62
     1
 10
828.2
 20
1306.8
 11
820.2
 21
1314.8
  0
LINE
  8
0
  6
CONTINUOUS
 62
     1
 10
828.2
 20
1306.8
 11
862.2
 21
1306.8
  0
LINE
  8
0
  6
CONTINUOUS
 62
     1
 10
795.2
 20
1264.8
 11
776.2
 21
1264.8
  0
LINE
  8
0
  6
CONTINUOUS
 62
     1
 10
794.2
 20
1253.7
 11
785.7
 21
1258.6
  0
LINE
  8
0
  6
CONTINUOUS
 62
     1
 10
777.2
 20
1253.7
 11
785.7
 21
1258.6
  0
LINE
  8
0
  6
CONTINUOUS
 62
     2
 10
785.7
 20
1261.8
 11
785.7
 21
1234.8
  0
LINE
  8
0
  6
CONTINUOUS
 62
     1
 10
773.2
 20
1335.74954
 11
766.727076294
 21
1335.74954
  0
LINE
  8
0
  6
CONTINUOUS
 62
     1
 10
776.2
 20
1335.55
 11
773.2
 21
1335.55
  0
LINE
  8
0
  6
CONTINUOUS
 62
     1
 10
817.2
 20
1349.8
 11
817.2
 21
1338.85046
  0
LINE
  8
0
  6
CONTINUOUS
 62
     1
 10
809.1789
 20
1341.53198
 11
810.727076294
 21
1338.85046
  0
LINE
  8
0
  6
CONTINUOUS
 62
     1
 10
809.1789
 20
1341.53198
 11
810.727076294
 21
1338.85046
  0
LINE
  8
0
  6
CONTINUOUS
 62
     1
 10
817.2
 20
1338.85046
 11
810.727076294
 21
1338.85046
  0
LINE
  8
0
  6
CONTINUOUS
 62
     1
 10
773.2
 20
1274.8
 11
773.2
 21
1285.74954
  0
LINE
  8
0
  6
CONTINUOUS
 62
     1
 10
773.2
 20
1274.8
 11
773.2
 21
1263.85046
  0
LINE
  8
0
  6
CONTINUOUS
 62
     1
 10
765.1789
 20
1283.06802
 11
766.727076294
 21
1285.74954
  0
LINE
  8
0
  6
CONTINUOUS
 62
     1
 10
765.1789
 20
1274.8
 11
765.1789
 21
1283.06802
  0
LINE
  8
0
  6
CONTINUOUS
 62
     1
 10
765.1789
 20
1266.53198
 11
766.727076294
 21
1263.85046
  0
LINE
  8
0
  6
CONTINUOUS
 62
     1
 10
765.1789
 20
1274.8
 11
765.1789
 21
1266.53198
  0
ARC
  8
0
  6
CONTINUOUS
 62
     1
 10
775.633121693
 20
1274.8
 40
10.454221693
 50
148.419912243
 51
211.580087757
  0
ARC
  8
0
  6
CONTINUOUS
 62
     1
 10
768.372013606
 20
1283.012155
 40
3.193602261
 50
177.010501597
 51
238.997686085
  0
LINE
  8
0
  6
CONTINUOUS
 62
     1
 10
765.1789
 20
1266.53198
 11
766.727076294
 21
1263.85046
  0
ARC
  8
0
  6
CONTINUOUS
 62
     1
 10
768.372013606
 20
1266.587845
 40
3.193602261
 50
121.002313915
 51
182.989498403
  0
LINE
  8
0
  6
CONTINUOUS
 62
     1
 10
773.2
 20
1285.74954
 11
766.727076294
 21
1285.74954
  0
LINE
  8
0
  6
CONTINUOUS
 62
     1
 10
773.2
 20
1280.27477
 11
766.727076294
 21
1280.27477
  0
LINE
  8
0
  6
CONTINUOUS
 62
     1
 10
773.2
 20
1269.32523
 11
766.727076294
 21
1269.32523
  0
LINE
  8
0
  6
CONTINUOUS
 62
     1
 10
773.2
 20
1263.85046
 11
766.727076294
 21
1263.85046
  0
LINE
  8
0
  6
CONTINUOUS
 62
     1
 10
776.2
 20
1285.55
 11
773.2
 21
1285.55
  0
LINE
  8
0
  6
CONTINUOUS
 62
     1
 10
776.2
 20
1274.8
 11
773.199745927
 21
1277.800254073
  0
LINE
  8
0
  6
CONTINUOUS
 62
     1
 10
773.199745927
 20
1274.8
 11
776.2
 21
1271.799745927
  0
LINE
  8
0
  6
CONTINUOUS
 62
     1
 10
776.2
 20
1264.05
 11
773.2
 21
1264.05
  0
LINE
  8
0
  6
CONTINUOUS
 62
     1
 10
878.409558174
 20
1282.8
 11
795.2
 21
1282.8
  0
LINE
  8
0
  6
CONTINUOUS
 62
     1
 10
878.409558174
 20
1266.8
 11
795.2
 21
1266.8
  0
LINE
  8
0
  6
CONTINUOUS
 62
     1
 10
776.2
 20
1237.8
 11
795.2
 21
1237.8
  0
CIRCLE
  8
0
  6
CONTINUOUS
 62
     1
 10
785.7
 20
1248.8
 40
8.5
  0
LINE
  8
0
  6
CONTINUOUS
 62
     1
 10
794.2
 20
1243.9
 11
785.7
 21
1239.0
  0
LINE
  8
0
  6
CONTINUOUS
 62
     1
 10
777.2
 20
1243.9
 11
785.7
 21
1239.0
  0
CIRCLE
  8
0
  6
CONTINUOUS
 62
     1
 10
785.7
 20
1248.8
 40
5.0
  0
LINE
  8
0
  6
CONTINUOUS
 62
     2
 10
773.2
 20
1248.8
 11
798.2
 21
1248.8
  0
LINE
  8
0
  6
CONTINUOUS
 62
     1
 10
794.2
 20
1253.7
 11
794.2
 21
1243.9
  0
LINE
  8
0
  6
CONTINUOUS
 62
     1
 10
777.2
 20
1253.7
 11
777.2
 21
1243.9
  0
LINE
  8
0
  6
CONTINUOUS
 62
     1
 10
809.1789
 20
1349.8
 11
809.1789
 21
1341.53198
  0
ARC
  8
0
  6
CONTINUOUS
 62
     1
 10
812.372013606
 20
1341.587845
 40
3.193602261
 50
121.002313915
 51
182.989498403
  0
LINE
  8
0
  6
CONTINUOUS
 62
     1
 10
820.2
 20
1339.05
 11
817.2
 21
1339.05
  0
LINE
  8
0
  6
CONTINUOUS
 62
     1
 10
805.2
 20
1355.8
 11
805.2
 21
1343.8
  0
LINE
  8
0
  6
CONTINUOUS
 62
     1
 10
809.1789
 20
1343.8
 11
805.2
 21
1343.8
  0
ARC
  8
0
  6
CONTINUOUS
 62
     1
 10
819.633121693
 20
1349.8
 40
10.454221693
 50
148.419912243
 51
211.580087757
  0
LINE
  8
0
  6
CONTINUOUS
 62
     1
 10
817.2
 20
1344.32523
 11
810.727076294
 21
1344.32523
  0
LINE
  8
0
  6
CONTINUOUS
 62
     1
 10
817.199745927
 20
1349.8
 11
820.2
 21
1346.799745927
  0
LINE
  8
0
  6
CONTINUOUS
 62
     1
 10
870.2
 20
1361.8
 11
870.2
 21
1314.8
  0
LINE
  8
0
  6
CONTINUOUS
 62
     1
 10
817.2
 20
1349.8
 11
817.2
 21
1360.74954
  0
LINE
  8
0
  6
CONTINUOUS
 62
     1
 10
809.1789
 20
1349.8
 11
809.1789
 21
1358.06802
  0
ARC
  8
0
  6
CONTINUOUS
 62
     1
 10
812.372013606
 20
1358.012155
 40
3.193602261
 50
177.010501597
 51
238.997686085
  0
LINE
  8
0
  6
CONTINUOUS
 62
     1
 10
817.2
 20
1355.27477
 11
810.727076294
 21
1355.27477
  0
LINE
  8
0
  6
CONTINUOUS
 62
     1
 10
820.2
 20
1349.8
 11
817.199745927
 21
1352.800254073
  0
LINE
  8
0
  6
CONTINUOUS
 62
     1
 10
809.1789
 20
1355.8
 11
805.2
 21
1355.8
  0
LINE
  8
0
  6
CONTINUOUS
 62
     1
 10
820.2
 20
1361.8
 11
870.2
 21
1361.8
  0
LINE
  8
0
  6
CONTINUOUS
 62
     1
 10
809.1789
 20
1358.06802
 11
810.727076294
 21
1360.74954
  0
LINE
  8
0
  6
CONTINUOUS
 62
     1
 10
817.2
 20
1360.74954
 11
810.727076294
 21
1360.74954
  0
LINE
  8
0
  6
CONTINUOUS
 62
     1
 10
820.2
 20
1360.55
 11
817.2
 21
1360.55
  0
LINE
  8
0
  6
CONTINUOUS
 62
     1
 10
870.2
 20
1314.8
 11
862.2
 21
1306.8
  0
LINE
  8
0
  6
CONTINUOUS
 62
     1
 10
907.359558174
 20
1249.3
 11
907.359558174
 21
1289.3
  0
LINE
  8
0
  6
CONTINUOUS
 62
     1
 10
884.859558174
 20
1262.5
 11
884.859558174
 21
1269.5
  0
LINE
  8
0
  6
CONTINUOUS
 62
     1
 10
896.859558174
 20
1262.5
 11
896.859558174
 21
1269.5
  0
LINE
  8
0
  6
CONTINUOUS
 62
     1
 10
878.409558174
 20
1249.3
 11
878.409558174
 21
1289.3
  0
LINE
  8
0
  6
CONTINUOUS
 62
     1
 10
881.959558174
 20
1256.6
 11
881.959558174
 21
1282.1
  0
LINE
  8
0
  6
LTYPE2
 62
     2
 10
890.859558174
 20
1309.8
 11
890.859558174
 21
1251.8
  0
LINE
  8
0
  6
LTYPE4
 62
     2
 10
901.859558174
 20
1307.3
 11
878.859558174
 21
1307.3
  0
ARC
  8
0
  6
CONTINUOUS
 62
     1
 10
890.859558174
 20
1307.3
 40
5.75
 50
1.974934011
 51
180.0
  0
ARC
  8
0
  6
CONTINUOUS
 62
     1
 10
890.859558174
 20
1307.3
 40
8.75
 50
310.881810296
 51
227.815556684
  0
LINE
  8
0
  6
CONTINUOUS
 62
     1
 10
884.859558174
 20
1269.5
 11
885.164169233
 21
1307.3
  0
LINE
  8
0
  6
CONTINUOUS
 62
     1
 10
896.859558174
 20
1269.5
 11
896.554947115
 21
1307.3
  0
LINE
  8
0
  6
CONTINUOUS
 62
     1
 10
904.059558174
 20
1300.3
 11
976.059558174
 21
1300.3
  0
LINE
  8
0
  6
CONTINUOUS
 62
     1
 10
904.059558174
 20
1300.3
 11
904.059558174
 21
1289.3
  0
LINE
  8
0
  6
LTYPE2
 62
     2
 10
886.159558174
 20
1269.3
 11
903.559558174
 21
1269.3
  0
LINE
  8
0
  6
CONTINUOUS
 62
     1
 10
896.7
 20
1289.3
 11
976.059558174
 21
1289.3
  0
LINE
  8
0
  6
CONTINUOUS
 62
     1
 10
878.409558174
 20
1289.3
 11
885.019116348
 21
1289.3
  0
LINE
  8
0
  6
CONTINUOUS
 62
     1
 10
896.758827003
 20
1282.0
 11
907.359558174
 21
1282.0
  0
LINE
  8
0
  6
CONTINUOUS
 62
     1
 10
881.959558174
 20
1282.0
 11
884.960289344
 21
1282.0
  0
LINE
  8
0
  6
CONTINUOUS
 62
     1
 10
881.959558174
 20
1256.6
 11
907.359558174
 21
1256.6
  0
LINE
  8
0
  6
CONTINUOUS
 62
     1
 10
878.409558174
 20
1249.3
 11
976.059558174
 21
1249.3
  0
ARC
  8
0
  6
CONTINUOUS
 62
     1
 10
890.859558174
 20
1262.5
 40
6.0
 50
180.0
 51
0.0
  0
LINE
  8
0
  6
CONTINUOUS
 62
     1
 10
976.059558174
 20
1300.3
 11
976.059558174
 21
1250.3
  0
LINE
  8
7
  6
CONTINUOUS
 62
     2
 10
931.275
 20
1249.3
 11
941.275
 21
1231.979491924
  0
LINE
  8
7
  6
CONTINUOUS
 62
     2
 10
931.275
 20
1249.3
 11
948.595508076
 21
1239.3
  0
LINE
  8
7
  6
CONTINUOUS
 62
     2
 10
931.275
 20
1249.3
 11
1046.275
 21
1134.3
  0
LINE
  8
0
  6
CONTINUOUS
 62
     1
 10
976.059558174
 20
1249.3
 11
976.059558174
 21
1289.3
  0
LINE
  8
0
  6
CONTINUOUS
 62
     1
 10
1488.7
 20
1461.8
 11
1507.7
 21
1461.8
  0
CIRCLE
  8
0
  6
CONTINUOUS
 62
     1
 10
1498.2
 20
1450.8
 40
8.5
  0
LINE
  8
0
  6
CONTINUOUS
 62
     1
 10
1506.7
 20
1445.9
 11
1506.7
 21
1455.7
  0
LINE
  8
0
  6
CONTINUOUS
 62
     1
 10
1506.7
 20
1455.7
 11
1498.2
 21
1460.6
  0
LINE
  8
0
  6
CONTINUOUS
 62
     1
 10
1489.7
 20
1455.7
 11
1498.2
 21
1460.6
  0
CIRCLE
  8
0
  6
CONTINUOUS
 62
     1
 10
1498.2
 20
1450.8
 40
5.0
  0
LINE
  8
0
  6
CONTINUOUS
 62
     2
 10
1498.2
 20
1437.8
 11
1498.2
 21
1464.8
  0
LINE
  8
0
  6
CONTINUOUS
 62
     2
 10
1485.7
 20
1450.8
 11
1510.7
 21
1450.8
  0
LINE
  8
0
  6
CONTINUOUS
 62
     1
 10
1488.7
 20
1461.8
 11
1488.7
 21
1434.0
  0
LINE
  8
0
  6
CONTINUOUS
 62
     1
 10
1506.7
 20
1445.9
 11
1498.2
 21
1441.0
  0
LINE
  8
0
  6
CONTINUOUS
 62
     1
 10
1489.7
 20
1445.9
 11
1498.2
 21
1441.0
  0
LINE
  8
0
  6
CONTINUOUS
 62
     1
 10
1507.7
 20
1434.8
 11
1488.7
 21
1434.8
  0
LINE
  8
0
  6
CONTINUOUS
 62
     1
 10
1507.7
 20
1364.8
 11
1488.7
 21
1364.8
  0
LINE
  8
0
  6
CONTINUOUS
 62
     1
 10
1438.159558174
 20
1249.3
 11
1438.159558174
 21
1289.3
  0
LINE
  8
0
  6
CONTINUOUS
 62
     1
 10
1369.459558174
 20
1249.3
 11
1369.459558174
 21
1289.3
  0
LINE
  8
0
  6
CONTINUOUS
 62
     1
 10
1463.559558174
 20
1256.6
 11
1463.559558174
 21
1282.1
  0
LINE
  8
0
  6
LTYPE2
 62
     2
 10
1454.659558174
 20
1309.8
 11
1454.659558174
 21
1251.8
  0
LINE
  8
0
  6
LTYPE4
 62
     2
 10
1443.659558174
 20
1307.3
 11
1466.659558174
 21
1307.3
  0
ARC
  8
0
  6
CONTINUOUS
 62
     1
 10
1454.659558174
 20
1307.3
 40
5.75
 50
360.0
 51
178.025065989
  0
ARC
  8
0
  6
CONTINUOUS
 62
     1
 10
1454.659558174
 20
1307.3
 40
8.75
 50
312.184443316
 51
229.118189704
  0
LINE
  8
0
  6
CONTINUOUS
 62
     1
 10
1460.659558174
 20
1269.5
 11
1460.354947115
 21
1307.3
  0
LINE
  8
0
  6
CONTINUOUS
 62
     1
 10
1448.659558174
 20
1269.5
 11
1448.964169233
 21
1307.3
  0
LINE
  8
0
  6
CONTINUOUS
 62
     1
 10
1369.459558174
 20
1300.3
 11
1369.459558174
 21
1250.3
  0
LINE
  8
0
  6
CONTINUOUS
 62
     1
 10
1441.459558174
 20
1300.3
 11
1369.459558174
 21
1300.3
  0
LINE
  8
0
  6
CONTINUOUS
 62
     1
 10
1441.459558174
 20
1300.3
 11
1441.459558174
 21
1289.3
  0
LINE
  8
0
  6
CONTINUOUS
 62
     1
 10
1448.819116348
 20
1289.3
 11
1369.459558174
 21
1289.3
  0
LINE
  8
0
  6
CONTINUOUS
 62
     1
 10
1467.109558174
 20
1289.3
 11
1460.5
 21
1289.3
  0
LINE
  8
0
  6
CONTINUOUS
 62
     1
 10
1448.760289344
 20
1282.0
 11
1438.159558174
 21
1282.0
  0
LINE
  8
0
  6
CONTINUOUS
 62
     1
 10
1463.559558174
 20
1282.0
 11
1460.558827003
 21
1282.0
  0
LINE
  8
0
  6
CONTINUOUS
 62
     1
 10
1467.109558174
 20
1249.3
 11
1467.109558174
 21
1289.3
  0
ARC
  8
0
  6
CONTINUOUS
 62
     1
 10
1454.659558174
 20
1262.5
 40
6.0
 50
180.0
 51
0.0
  0
LINE
  8
0
  6
CONTINUOUS
 62
     1
 10
1460.659558174
 20
1262.5
 11
1460.659558174
 21
1269.5
  0
LINE
  8
0
  6
CONTINUOUS
 62
     1
 10
1448.659558174
 20
1262.5
 11
1448.659558174
 21
1269.5
  0
LINE
  8
0
  6
LTYPE2
 62
     2
 10
1467.109558174
 20
1269.3
 11
1443.959558174
 21
1269.3
  0
LINE
  8
0
  6
CONTINUOUS
 62
     1
 10
1510.7
 20
1274.8
 11
1510.7
 21
1285.74954
  0
LINE
  8
0
  6
CONTINUOUS
 62
     1
 10
1518.7211
 20
1283.06802
 11
1517.172923706
 21
1285.74954
  0
LINE
  8
0
  6
CONTINUOUS
 62
     1
 10
1518.7211
 20
1274.8
 11
1518.7211
 21
1283.06802
  0
ARC
  8
0
  6
CONTINUOUS
 62
     1
 10
1508.266878307
 20
1274.8
 40
10.454221693
 50
328.419912243
 51
31.580087757
  0
ARC
  8
0
  6
CONTINUOUS
 62
     1
 10
1515.527986394
 20
1283.012155
 40
3.193602261
 50
301.002313915
 51
2.989498403
  0
LINE
  8
0
  6
CONTINUOUS
 62
     1
 10
1510.7
 20
1285.74954
 11
1517.172923706
 21
1285.74954
  0
LINE
  8
0
  6
CONTINUOUS
 62
     1
 10
1510.7
 20
1280.27477
 11
1517.172923706
 21
1280.27477
  0
LINE
  8
0
  6
CONTINUOUS
 62
     1
 10
1507.7
 20
1285.55
 11
1510.7
 21
1285.55
  0
LINE
  8
0
  6
CONTINUOUS
 62
     1
 10
1507.7
 20
1264.8
 11
1488.7
 21
1264.8
  0
LINE
  8
0
  6
CONTINUOUS
 62
     2
 10
1498.2
 20
1261.8
 11
1498.2
 21
1234.8
  0
LINE
  8
0
  6
CONTINUOUS
 62
     1
 10
1510.7
 20
1274.8
 11
1510.7
 21
1263.85046
  0
LINE
  8
0
  6
CONTINUOUS
 62
     1
 10
1518.7211
 20
1266.53198
 11
1517.172923706
 21
1263.85046
  0
LINE
  8
0
  6
CONTINUOUS
 62
     1
 10
1518.7211
 20
1274.8
 11
1518.7211
 21
1266.53198
  0
LINE
  8
0
  6
CONTINUOUS
 62
     1
 10
1518.7211
 20
1266.53198
 11
1517.172923706
 21
1263.85046
  0
ARC
  8
0
  6
CONTINUOUS
 62
     1
 10
1515.527986394
 20
1266.587845
 40
3.193602261
 50
357.010501597
 51
58.997686085
  0
LINE
  8
0
  6
CONTINUOUS
 62
     1
 10
1510.7
 20
1269.32523
 11
1517.172923706
 21
1269.32523
  0
LINE
  8
0
  6
CONTINUOUS
 62
     1
 10
1510.7
 20
1263.85046
 11
1517.172923706
 21
1263.85046
  0
LINE
  8
0
  6
CONTINUOUS
 62
     1
 10
1507.7
 20
1274.8
 11
1510.700254073
 21
1277.800254073
  0
LINE
  8
0
  6
CONTINUOUS
 62
     1
 10
1510.700254073
 20
1274.8
 11
1507.7
 21
1271.799745927
  0
LINE
  8
0
  6
CONTINUOUS
 62
     1
 10
1507.7
 20
1264.05
 11
1510.7
 21
1264.05
  0
LINE
  8
0
  6
CONTINUOUS
 62
     1
 10
1488.7
 20
1282.8
 11
1467.109558174
 21
1282.8
  0
LINE
  8
0
  6
CONTINUOUS
 62
     1
 10
1467.109558174
 20
1282.8
 11
1488.7
 21
1282.8
  0
LINE
  8
0
  6
CONTINUOUS
 62
     1
 10
1467.109558174
 20
1266.8
 11
1488.7
 21
1266.8
  0
LINE
  8
0
  6
CONTINUOUS
 62
     1
 10
1488.7
 20
1266.8
 11
1467.109558174
 21
1266.8
  0
LINE
  8
0
  6
CONTINUOUS
 62
     1
 10
1507.7
 20
1304.8
 11
1488.7
 21
1304.8
  0
LINE
  8
0
  6
CONTINUOUS
 62
     1
 10
1510.7
 20
1324.8
 11
1510.7
 21
1335.74954
  0
LINE
  8
0
  6
CONTINUOUS
 62
     1
 10
1510.7
 20
1324.8
 11
1510.7
 21
1313.85046
  0
LINE
  8
0
  6
CONTINUOUS
 62
     1
 10
1518.7211
 20
1333.06802
 11
1517.172923706
 21
1335.74954
  0
LINE
  8
0
  6
CONTINUOUS
 62
     1
 10
1518.7211
 20
1324.8
 11
1518.7211
 21
1333.06802
  0
LINE
  8
0
  6
CONTINUOUS
 62
     1
 10
1518.7211
 20
1316.53198
 11
1517.172923706
 21
1313.85046
  0
LINE
  8
0
  6
CONTINUOUS
 62
     1
 10
1518.7211
 20
1324.8
 11
1518.7211
 21
1316.53198
  0
ARC
  8
0
  6
CONTINUOUS
 62
     1
 10
1508.266878307
 20
1324.8
 40
10.454221693
 50
328.419912243
 51
31.580087757
  0
ARC
  8
0
  6
CONTINUOUS
 62
     1
 10
1515.527986394
 20
1333.012155
 40
3.193602261
 50
301.002313915
 51
2.989498403
  0
LINE
  8
0
  6
CONTINUOUS
 62
     1
 10
1518.7211
 20
1316.53198
 11
1517.172923706
 21
1313.85046
  0
ARC
  8
0
  6
CONTINUOUS
 62
     1
 10
1515.527986394
 20
1316.587845
 40
3.193602261
 50
357.010501597
 51
58.997686085
  0
LINE
  8
0
  6
CONTINUOUS
 62
     1
 10
1510.7
 20
1335.74954
 11
1517.172923706
 21
1335.74954
  0
LINE
  8
0
  6
CONTINUOUS
 62
     1
 10
1510.7
 20
1330.27477
 11
1517.172923706
 21
1330.27477
  0
LINE
  8
0
  6
CONTINUOUS
 62
     1
 10
1510.7
 20
1319.32523
 11
1517.172923706
 21
1319.32523
  0
LINE
  8
0
  6
CONTINUOUS
 62
     1
 10
1510.7
 20
1313.85046
 11
1517.172923706
 21
1313.85046
  0
LINE
  8
0
  6
CONTINUOUS
 62
     1
 10
1507.7
 20
1335.55
 11
1510.7
 21
1335.55
  0
LINE
  8
0
  6
CONTINUOUS
 62
     1
 10
1507.7
 20
1324.8
 11
1510.700254073
 21
1327.800254073
  0
LINE
  8
0
  6
CONTINUOUS
 62
     1
 10
1510.700254073
 20
1324.8
 11
1507.7
 21
1321.799745927
  0
LINE
  8
0
  6
CONTINUOUS
 62
     1
 10
1507.7
 20
1314.05
 11
1510.7
 21
1314.05
  0
LINE
  8
0
  6
CONTINUOUS
 62
     1
 10
1518.7211
 20
1318.8
 11
1528.7
 21
1318.8
  0
LINE
  8
0
  6
CONTINUOUS
 62
     1
 10
1518.7211
 20
1330.8
 11
1528.7
 21
1330.8
  0
LINE
  8
0
  6
CONTINUOUS
 62
     1
 10
1528.7
 20
1330.8
 11
1528.7
 21
1318.8
  0
LINE
  8
0
  6
CONTINUOUS
 62
     1
 10
1467.109558174
 20
1249.3
 11
1369.459558174
 21
1249.3
  0
LINE
  8
0
  6
CONTINUOUS
 62
     1
 10
1488.7
 20
1237.8
 11
1507.7
 21
1237.8
  0
CIRCLE
  8
0
  6
CONTINUOUS
 62
     1
 10
1498.2
 20
1248.8
 40
8.5
  0
LINE
  8
0
  6
CONTINUOUS
 62
     1
 10
1506.7
 20
1243.9
 11
1498.2
 21
1239.0
  0
LINE
  8
0
  6
CONTINUOUS
 62
     1
 10
1489.7
 20
1243.9
 11
1498.2
 21
1239.0
  0
CIRCLE
  8
0
  6
CONTINUOUS
 62
     1
 10
1498.2
 20
1248.8
 40
5.0
  0
LINE
  8
0
  6
CONTINUOUS
 62
     2
 10
1485.7
 20
1248.8
 11
1510.7
 21
1248.8
  0
LINE
  8
0
  6
CONTINUOUS
 62
     1
 10
1506.7
 20
1253.7
 11
1506.7
 21
1243.9
  0
LINE
  8
0
  6
CONTINUOUS
 62
     1
 10
1489.7
 20
1253.7
 11
1489.7
 21
1243.9
  0
LINE
  8
0
  6
CONTINUOUS
 62
     1
 10
1463.559558174
 20
1256.6
 11
1438.159558174
 21
1256.6
  0
LINE
  8
0
  6
CONTINUOUS
 62
     1
 10
1506.7
 20
1253.7
 11
1498.2
 21
1258.6
  0
LINE
  8
0
  6
CONTINUOUS
 62
     1
 10
1489.7
 20
1253.7
 11
1498.2
 21
1258.6
  0
LINE
  8
0
  6
CONTINUOUS
 62
     1
 10
1369.459558174
 20
1282.8
 11
976.059558174
 21
1282.8
  0
LINE
  8
0
  6
CONTINUOUS
 62
     1
 10
1369.459558174
 20
1266.8
 11
976.059558174
 21
1266.8
  0
LINE
  8
0
  6
CONTINUOUS
 62
     1
 10
870.2
 20
1316.8
 11
1488.7
 21
1316.8
  0
LINE
  8
0
  6
CONTINUOUS
 62
     1
 10
870.2
 20
1332.8
 11
1488.7
 21
1332.8
  0
LINE
  8
0
  6
CONTINUOUS
 62
     1
 10
1507.7
 20
1445.15
 11
1517.7
 21
1445.15
  0
LINE
  8
0
  6
CONTINUOUS
 62
     1
 10
1506.7
 20
1254.45
 11
1547.2
 21
1254.45
  0
LINE
  8
0
  6
CONTINUOUS
 62
     1
 10
1467.109558174
 20
1254.45
 11
1489.7
 21
1254.45
  0
LINE
  8
0
  6
CONTINUOUS
 62
     1
 10
976.059558174
 20
1254.45
 11
1369.459558174
 21
1254.45
  0
LINE
  8
0
  6
CONTINUOUS
 62
     1
 10
795.2
 20
1254.45
 11
878.409558174
 21
1254.45
  0
LINE
  8
0
  6
CONTINUOUS
 62
     1
 10
726.6
 20
1254.45
 11
777.2
 21
1254.45
  0
LINE
  8
0
  6
CONTINUOUS
 62
     1
 10
794.2
 20
1445.15
 11
1489.7
 21
1445.15
  0
LINE
  8
0
  6
CONTINUOUS
 62
     1
 10
726.6
 20
1445.15
 11
776.2
 21
1445.15
  0
LINE
  8
0
  6
LTYPE2
 62
     2
 10
747.1
 20
1324.8
 11
1531.5
 21
1324.8
  0
LINE
  8
0
  6
LTYPE2
 62
     2
 10
1527.5
 20
1274.8
 11
759.95
 21
1274.8
  0
LINE
  8
0
  6
CONTINUOUS
 62
     1
 10
1685.2
 20
1434.8
 11
1704.2
 21
1434.8
  0
LINE
  8
0
  6
CONTINUOUS
 62
     1
 10
1685.2
 20
1434.8
 11
1685.2
 21
1264.8
  0
LINE
  8
0
  6
CONTINUOUS
 62
     1
 10
1704.2
 20
1434.8
 11
1704.2
 21
1264.8
  0
LINE
  8
0
  6
CONTINUOUS
 62
     1
 10
1707.2
 20
1349.8
 11
1707.2
 21
1360.74954
  0
LINE
  8
0
  6
CONTINUOUS
 62
     1
 10
1715.2211
 20
1358.06802
 11
1713.672923706
 21
1360.74954
  0
LINE
  8
0
  6
CONTINUOUS
 62
     1
 10
1715.2211
 20
1349.8
 11
1715.2211
 21
1358.06802
  0
ARC
  8
0
  6
CONTINUOUS
 62
     1
 10
1704.766878307
 20
1349.8
 40
10.454221693
 50
328.419912243
 51
31.580087757
  0
ARC
  8
0
  6
CONTINUOUS
 62
     1
 10
1712.027986394
 20
1358.012155
 40
3.193602261
 50
301.002313915
 51
2.989498403
  0
LINE
  8
0
  6
CONTINUOUS
 62
     1
 10
1707.2
 20
1360.74954
 11
1713.672923706
 21
1360.74954
  0
LINE
  8
0
  6
CONTINUOUS
 62
     1
 10
1707.2
 20
1355.27477
 11
1713.672923706
 21
1355.27477
  0
LINE
  8
0
  6
CONTINUOUS
 62
     1
 10
1704.2
 20
1360.55
 11
1707.2
 21
1360.55
  0
LINE
  8
0
  6
CONTINUOUS
 62
     1
 10
1715.2211
 20
1355.8
 11
1725.2
 21
1355.8
  0
LINE
  8
0
  6
CONTINUOUS
 62
     1
 10
1725.2
 20
1355.8
 11
1725.2
 21
1343.8
  0
LINE
  8
0
  6
CONTINUOUS
 62
     1
 10
1685.2
 20
1359.8
 11
1704.2
 21
1359.8
  0
LINE
  8
0
  6
CONTINUOUS
 62
     1
 10
1707.2
 20
1349.8
 11
1707.2
 21
1338.85046
  0
LINE
  8
0
  6
CONTINUOUS
 62
     1
 10
1715.2211
 20
1341.53198
 11
1713.672923706
 21
1338.85046
  0
LINE
  8
0
  6
CONTINUOUS
 62
     1
 10
1715.2211
 20
1349.8
 11
1715.2211
 21
1341.53198
  0
LINE
  8
0
  6
CONTINUOUS
 62
     1
 10
1715.2211
 20
1341.53198
 11
1713.672923706
 21
1338.85046
  0
ARC
  8
0
  6
CONTINUOUS
 62
     1
 10
1712.027986394
 20
1341.587845
 40
3.193602261
 50
357.010501597
 51
58.997686085
  0
LINE
  8
0
  6
CONTINUOUS
 62
     1
 10
1707.2
 20
1344.32523
 11
1713.672923706
 21
1344.32523
  0
LINE
  8
0
  6
CONTINUOUS
 62
     1
 10
1707.2
 20
1338.85046
 11
1713.672923706
 21
1338.85046
  0
LINE
  8
0
  6
CONTINUOUS
 62
     1
 10
1707.200254073
 20
1349.8
 11
1704.2
 21
1346.799745927
  0
LINE
  8
0
  6
CONTINUOUS
 62
     1
 10
1704.2
 20
1339.05
 11
1707.2
 21
1339.05
  0
LINE
  8
0
  6
CONTINUOUS
 62
     1
 10
1715.2211
 20
1343.8
 11
1725.2
 21
1343.8
  0
LINE
  8
0
  6
CONTINUOUS
 62
     1
 10
1685.2
 20
1339.8
 11
1704.2
 21
1339.8
  0
LINE
  8
0
  6
CONTINUOUS
 62
     1
 10
1704.2
 20
1349.8
 11
1707.200254073
 21
1352.800254073
  0
LINE
  8
0
  6
CONTINUOUS
 62
     1
 10
1685.2
 20
1264.8
 11
1704.2
 21
1264.8
  0
LINE
  8
0
  6
CONTINUOUS
 62
     1
 10
1714.2
 20
1389.8
 11
1899.2
 21
1389.8
  0
LINE
  8
0
  6
CONTINUOUS
 62
     1
 10
1714.2
 20
1389.8
 11
1714.2
 21
1413.8
  0
LINE
  8
0
  6
CONTINUOUS
 62
     1
 10
1704.2
 20
1413.8
 11
1714.2
 21
1413.8
  0
LINE
  8
0
  6
LTYPE2
 62
     2
 10
1834.2
 20
1413.9
 11
1834.2
 21
1249.8
  0
LINE
  8
0
  6
LTYPE1
 62
     2
 10
1802.7
 20
1309.8
 11
1802.7
 21
1389.8
  0
LINE
  8
0
  6
LTYPE1
 62
     2
 10
1865.7
 20
1309.8
 11
1865.7
 21
1389.8
  0
LINE
  8
0
  6
CONTINUOUS
 62
     1
 10
1899.2
 20
1309.8
 11
1899.2
 21
1389.8
  0
LINE
  8
0
  6
CONTINUOUS
 62
     1
 10
1884.2
 20
1309.8
 11
1884.2
 21
1389.8
  0
LINE
  8
0
  6
CONTINUOUS
 62
     2
 10
1907.2
 20
1389.8
 11
1962.5
 21
1389.8
  0
LINE
  8
0
  6
CONTINUOUS
 62
     2
 10
1954.5
 20
1389.8
 11
1949.323619098
 21
1370.481483474
  0
LINE
  8
0
  6
CONTINUOUS
 62
     2
 10
1954.5
 20
1389.8
 11
1959.676380902
 21
1370.481483474
  0
LINE
  8
0
  6
CONTINUOUS
 62
     2
 10
1954.5
 20
1389.8
 11
1954.5
 21
1309.8
  0
LINE
  8
0
  6
CONTINUOUS
 62
     2
 10
1954.5
 20
1309.8
 11
1959.676380902
 21
1329.118516526
  0
LINE
  8
0
  6
CONTINUOUS
 62
     2
 10
1954.5
 20
1309.8
 11
1949.323619098
 21
1329.118516526
  0
LINE
  8
0
  6
CONTINUOUS
 62
     2
 10
1907.2
 20
1309.8
 11
1962.5
 21
1309.8
  0
TEXT
  8
0
  6
CONTINUOUS
 62
     3
 10
1946.5
 20
1328.2
 30
0.0
 40
24.0
  1
８０
 50
90.0
 41
0.9
 51
0.0
  7
KANJI37
  0
LINE
  8
0
  6
CONTINUOUS
 62
     1
 10
1714.2
 20
1309.8
 11
1899.2
 21
1309.8
  0
LINE
  8
0
  6
CONTINUOUS
 62
     1
 10
1714.2
 20
1285.8
 11
1714.2
 21
1309.8
  0
LINE
  8
0
  6
CONTINUOUS
 62
     1
 10
1704.2
 20
1285.8
 11
1714.2
 21
1285.8
  0
LINE
  8
0
  6
CONTINUOUS
 62
     2
 10
1834.2
 20
1309.8
 11
1834.2
 21
952.0
  0
LINE
  8
0
  6
CONTINUOUS
 62
     2
 10
1704.2
 20
990.0
 11
1704.2
 21
952.0
  0
LINE
  8
0
  6
CONTINUOUS
 62
     2
 10
1704.2
 20
960.0
 11
1723.518516526
 21
954.823619098
  0
LINE
  8
0
  6
CONTINUOUS
 62
     2
 10
1704.2
 20
960.0
 11
1723.518516526
 21
965.176380902
  0
LINE
  8
0
  6
CONTINUOUS
 62
     2
 10
1704.2
 20
960.0
 11
1834.2
 21
960.0
  0
LINE
  8
0
  6
CONTINUOUS
 62
     2
 10
1834.2
 20
960.0
 11
1814.881483474
 21
965.176380902
  0
LINE
  8
0
  6
CONTINUOUS
 62
     2
 10
1834.2
 20
960.0
 11
1814.881483474
 21
954.823619098
  0
TEXT
  8
0
  6
CONTINUOUS
 62
     2
 10
1736.8
 20
965.6
 30
0.0
 40
24.0
  1
１３０
 50
0.0
 41
0.9
 51
0.0
  7
KANJI37
  0
LINE
  8
0
  6
CONTINUOUS
 62
     2
 10
1834.2
 20
993.0
 11
1834.2
 21
887.0
  0
LINE
  8
0
  6
CONTINUOUS
 62
     2
 10
1704.2
 20
971.0
 11
1704.2
 21
952.0
  0
LINE
  8
0
  6
CONTINUOUS
 62
     2
 10
1704.2
 20
960.0
 11
1684.881483474
 21
965.176380902
  0
LINE
  8
0
  6
CONTINUOUS
 62
     2
 10
1704.2
 20
960.0
 11
1684.881483474
 21
954.823619098
  0
LINE
  8
0
  6
CONTINUOUS
 62
     2
 10
1704.2
 20
1284.8
 11
1704.2
 21
952.0
  0
LINE
  8
0
  6
CONTINUOUS
 62
     2
 10
1834.2
 20
919.1
 11
1834.2
 21
823.1
  0
LINE
  8
0
  6
CONTINUOUS
 62
     2
 10
1834.2
 20
895.0
 11
1814.881483474
 21
889.823619098
  0
LINE
  8
0
  6
CONTINUOUS
 62
     2
 10
1834.2
 20
831.1
 11
1814.881483474
 21
836.276380902
  0
LINE
  8
0
  6
CONTINUOUS
 62
     2
 10
1834.2
 20
895.0
 11
1814.881483474
 21
900.176380902
  0
LINE
  8
0
  6
CONTINUOUS
 62
     2
 10
1834.2
 20
831.1
 11
1814.881483474
 21
825.923619098
  0
LINE
  8
0
  6
CONTINUOUS
 62
     1
 10
1704.2
 20
1866.0
 11
1704.2
 21
1736.0
  0
CIRCLE
  8
0
  6
CONTINUOUS
 62
     1
 10
1834.2
 20
1801.0
 40
31.5
  0
LINE
  8
0
  6
CONTINUOUS
 62
     1
 10
1884.2
 20
1736.0
 11
1704.2
 21
1736.0
  0
LINE
  8
0
  6
CONTINUOUS
 62
     1
 10
1884.2
 20
1851.0
 11
1714.2
 21
1851.0
  0
LINE
  8
0
  6
CONTINUOUS
 62
     1
 10
1714.2
 20
1851.0
 11
1714.2
 21
1751.0
  0
LINE
  8
0
  6
CONTINUOUS
 62
     1
 10
1884.2
 20
1751.0
 11
1714.2
 21
1751.0
  0
LINE
  8
0
  6
LTYPE2
 62
     2
 10
1918.2
 20
1801.0
 11
1640.3
 21
1801.0
  0
LINE
  8
0
  6
LTYPE2
 62
     2
 10
1834.2
 20
1886.8
 11
1834.2
 21
1710.0
  0
LINE
  8
2
  6
CONTINUOUS
 62
     2
 10
1834.2
 20
1720.1
 11
1834.2
 21
1708.0
  0
LINE
  8
2
  6
CONTINUOUS
 62
     2
 10
1714.2
 20
1743.0
 11
1714.2
 21
1668.6
  0
TEXT
  8
2
  6
CONTINUOUS
 62
     3
 10
1733.4
 20
1692.6
 30
2.4
 40
24.0
  1
１２０
 50
0.0
 41
0.9
 51
0.0
  7
KANJI28
  0
TEXT
  8
2
  6
CONTINUOUS
 62
     3
 10
1839.9
 20
1692.6
 30
2.4
 40
24.0
  1
６５
 50
0.0
 41
0.9
 51
0.0
  7
KANJI28
  0
LINE
  8
0
  6
CONTINUOUS
 62
     1
 10
1884.2
 20
1866.0
 11
1899.2
 21
1851.0
  0
LINE
  8
0
  6
CONTINUOUS
 62
     1
 10
1899.2
 20
1851.0
 11
1899.2
 21
1751.0
  0
LINE
  8
0
  6
CONTINUOUS
 62
     1
 10
1884.2
 20
1736.0
 11
1899.2
 21
1751.0
  0
LINE
  8
0
  6
CONTINUOUS
 62
     1
 10
1884.2
 20
1866.0
 11
1884.2
 21
1851.0
  0
LINE
  8
0
  6
CONTINUOUS
 62
     1
 10
1884.2
 20
1751.0
 11
1884.2
 21
1736.1
  0
LINE
  8
0
  6
CONTINUOUS
 62
     1
 10
1884.2
 20
1851.0
 11
1899.2
 21
1824.711811403
  0
LINE
  8
0
  6
CONTINUOUS
 62
     1
 10
1899.2
 20
1777.288188597
 11
1884.2
 21
1751.0
  0
LINE
  8
2
  6
CONTINUOUS
 62
     2
 10
1899.2
 20
1743.0
 11
1899.2
 21
1668.6
  0
LINE
  8
2
  6
CONTINUOUS
 62
     2
 10
1892.2
 20
1736.0
 11
2004.053
 21
1736.0
  0
LINE
  8
2
  6
CONTINUOUS
 62
     2
 10
1714.2
 20
1684.6
 11
1733.518516526
 21
1679.423619098
  0
LINE
  8
2
  6
CONTINUOUS
 62
     2
 10
1714.2
 20
1684.6
 11
1733.518516526
 21
1689.776380902
  0
LINE
  8
2
  6
CONTINUOUS
 62
     2
 10
1714.2
 20
1684.6
 11
1834.2
 21
1684.6
  0
LINE
  8
2
  6
CONTINUOUS
 62
     2
 10
1834.2
 20
1684.6
 11
1814.881483474
 21
1689.776380902
  0
LINE
  8
2
  6
CONTINUOUS
 62
     2
 10
1834.2
 20
1684.6
 11
1814.881483474
 21
1679.423619098
  0
LINE
  8
2
  6
CONTINUOUS
 62
     2
 10
1834.2
 20
1707.3
 11
1834.2
 21
1668.6
  0
LINE
  8
2
  6
CONTINUOUS
 62
     2
 10
1834.2
 20
1694.9
 11
1834.2
 21
1668.6
  0
LINE
  8
2
  6
CONTINUOUS
 62
     2
 10
1834.2
 20
1684.6
 11
1853.518516526
 21
1679.423619098
  0
LINE
  8
2
  6
CONTINUOUS
 62
     2
 10
1834.2
 20
1684.6
 11
1853.518516526
 21
1689.776380902
  0
LINE
  8
2
  6
CONTINUOUS
 62
     2
 10
1834.2
 20
1684.6
 11
1899.2
 21
1684.6
  0
LINE
  8
2
  6
CONTINUOUS
 62
     2
 10
1899.2
 20
1684.6
 11
1879.881483474
 21
1689.776380902
  0
LINE
  8
2
  6
CONTINUOUS
 62
     2
 10
1899.2
 20
1684.6
 11
1879.881483474
 21
1679.423619098
  0
LINE
  8
0
  6
CONTINUOUS
 62
     1
 10
1884.2
 20
1866.0
 11
1704.2
 21
1866.0
  0
LINE
  8
2
  6
CONTINUOUS
 62
     2
 10
1892.2
 20
1866.0
 11
2004.053
 21
1866.0
  0
LINE
  8
2
  6
CONTINUOUS
 62
     2
 10
1988.053
 20
1866.0
 11
1982.876619098
 21
1846.681483474
  0
LINE
  8
2
  6
CONTINUOUS
 62
     2
 10
1988.053
 20
1866.0
 11
1993.229380902
 21
1846.681483474
  0
LINE
  8
2
  6
CONTINUOUS
 62
     2
 10
1988.053
 20
1866.0
 11
1988.053
 21
1736.0
  0
LINE
  8
2
  6
CONTINUOUS
 62
     2
 10
1988.053
 20
1736.0
 11
1993.229380902
 21
1755.318516526
  0
LINE
  8
2
  6
CONTINUOUS
 62
     2
 10
1988.053
 20
1736.0
 11
1982.876619098
 21
1755.318516526
  0
TEXT
  8
2
  6
CONTINUOUS
 62
     3
 10
1980.053
 20
1746.2
 30
2.4
 40
24.0
  1
φ１３０
 50
90.0
 41
0.9
 51
0.0
  7
KANJI28
  0
LINE
  8
0
  6
CONTINUOUS
 62
     1
 10
1660.6
 20
1417.2
 11
1660.6
 21
1357.8
  0
LINE
  8
0
  6
CONTINUOUS
 62
     1
 10
1647.84561844
 20
1464.8
 11
1647.84561844
 21
1357.8
  0
LINE
  8
0
  6
CONTINUOUS
 62
     1
 10
1643.384264386
 20
1448.15
 11
1643.384264386
 21
1357.8
  0
LINE
  8
0
  6
CONTINUOUS
 62
     1
 10
1541.168156375
 20
1448.15
 11
1541.168156375
 21
1357.8
  0
LINE
  8
0
  6
CONTINUOUS
 62
     1
 10
1532.7
 20
1357.8
 11
1532.7
 21
1449.1
  0
LINE
  8
0
  6
CONTINUOUS
 62
     1
 10
1517.7
 20
1357.8
 11
1517.7
 21
1449.1
  0
LINE
  8
0
  6
CONTINUOUS
 62
     1
 10
870.2
 20
1357.8
 11
1685.2
 21
1357.8
  0
LINE
  8
0
  6
CONTINUOUS
 62
     1
 10
870.2
 20
1341.8
 11
1685.2
 21
1341.8
  0
LINE
  8
0
  6
CONTINUOUS
 62
     1
 10
1547.2
 20
1341.8
 11
1547.2
 21
1254.45
  0
LINE
  8
0
  6
CONTINUOUS
 62
     1
 10
1507.7
 20
1341.45
 11
1507.7
 21
1237.8
  0
LINE
  8
0
  6
CONTINUOUS
 62
     1
 10
1507.7
 20
1461.8
 11
1507.7
 21
1357.8
  0
LINE
  8
0
  6
CONTINUOUS
 62
     1
 10
1488.7
 20
1341.75
 11
1488.7
 21
1237.8
  0
LINE
  8
0
  6
CONTINUOUS
 62
     1
 10
1488.7
 20
1434.8
 11
1488.7
 21
1357.8
  0
LINE
  8
0
  6
CONTINUOUS
 62
     2
 10
1704.2
 20
960.0
 11
1547.2
 21
960.0
  0
LINE
  8
0
  6
CONTINUOUS
 62
     2
 10
1834.2
 20
895.0
 11
386.6
 21
895.0
  0
LINE
  8
0
  6
CONTINUOUS
 62
     2
 10
277.6
 20
831.1
 11
1834.2
 21
831.1
  0
CIRCLE
  8
0
  6
CONTINUOUS
 62
     1
 10
2128.8
 20
1349.9
 40
8.0
  0
LINE
  8
0
  6
LTYPE2
 62
     2
 10
2128.8
 20
1308.9
 11
2128.8
 21
1364.9
  0
LINE
  8
0
  6
CONTINUOUS
 62
     1
 10
2113.8
 20
1304.9
 11
2113.8
 21
1364.9
  0
LINE
  8
0
  6
LTYPE1
 62
     2
 10
2139.8
 20
1306.9
 11
2139.8
 21
1361.9
  0
LINE
  8
0
  6
LTYPE1
 62
     2
 10
2117.8
 20
1306.9
 11
2117.8
 21
1361.9
  0
LINE
  8
0
  6
LTYPE2
 62
     2
 10
2128.8
 20
1308.9
 11
2128.8
 21
1364.9
  0
LINE
  8
0
  6
CONTINUOUS
 62
     1
 10
2113.8
 20
1304.9
 11
2113.8
 21
1364.9
  0
LINE
  8
0
  6
CONTINUOUS
 62
     1
 10
2115.8
 20
1339.9
 11
2115.8
 21
1359.9
  0
CIRCLE
  8
0
  6
CONTINUOUS
 62
     1
 10
2128.8
 20
1349.9
 40
9.5
  0
LINE
  8
0
  6
CONTINUOUS
 62
     1
 10
2123.325
 20
1359.4
 11
2134.275
 21
1359.4
  0
LINE
  8
0
  6
CONTINUOUS
 62
     1
 10
2123.325
 20
1359.4
 11
2117.85
 21
1349.9
  0
LINE
  8
0
  6
CONTINUOUS
 62
     1
 10
2134.275
 20
1359.4
 11
2139.75
 21
1349.9
  0
LINE
  8
0
  6
CONTINUOUS
 62
     1
 10
2188.204025966
 20
1399.82869079
 11
2115.8
 21
1359.9
  0
LINE
  8
0
  6
LTYPE1
 62
     2
 10
2117.8
 20
1361.9
 11
2139.8
 21
1361.9
  0
CIRCLE
  8
0
  6
CONTINUOUS
 62
     1
 10
2128.8
 20
1349.9
 40
6.0
  0
CIRCLE
  8
0
  6
CONTINUOUS
 62
     1
 10
2128.8
 20
1324.9
 40
8.0
  0
LINE
  8
0
  6
LTYPE2
 62
     2
 10
2113.8
 20
1324.9
 11
2143.8
 21
1324.9
  0
LINE
  8
0
  6
LTYPE1
 62
     2
 10
2117.8
 20
1306.9
 11
2139.8
 21
1306.9
  0
LINE
  8
0
  6
LTYPE1
 62
     2
 10
2116.0
 20
1303.88
 11
2116.0
 21
1311.4
  0
LINE
  8
0
  6
LTYPE1
 62
     2
 10
2123.1
 20
1297.4
 11
2123.1
 21
1311.4
  0
LINE
  8
0
  6
LTYPE1
 62
     2
 10
2124.1
 20
1298.65
 11
2124.1
 21
1316.15
  0
LINE
  8
0
  6
LTYPE1
 62
     2
 10
2123.1
 20
1311.4
 11
2116.0
 21
1311.4
  0
LINE
  8
0
  6
LTYPE1
 62
     2
 10
2131.1
 20
1316.15
 11
2124.1
 21
1316.15
  0
LINE
  8
0
  6
LTYPE1
 62
     2
 10
2131.1
 20
1298.65
 11
2131.1
 21
1316.15
  0
LINE
  8
0
  6
LTYPE2
 62
     2
 10
2135.6
 20
1307.4
 11
2121.6
 21
1307.4
  0
LINE
  8
0
  6
CONTINUOUS
 62
     1
 10
2123.325
 20
1340.4
 11
2134.275
 21
1340.4
  0
LINE
  8
0
  6
CONTINUOUS
 62
     1
 10
2123.325
 20
1340.4
 11
2117.85
 21
1349.9
  0
LINE
  8
0
  6
CONTINUOUS
 62
     1
 10
2134.275
 20
1340.4
 11
2139.75
 21
1349.9
  0
CIRCLE
  8
0
  6
CONTINUOUS
 62
     1
 10
2128.8
 20
1324.9
 40
6.0
  0
LINE
  8
0
  6
CONTINUOUS
 62
     1
 10
2119.3
 20
1330.375
 11
2119.3
 21
1319.425
  0
LINE
  8
0
  6
CONTINUOUS
 62
     1
 10
2138.3
 20
1319.425
 11
2128.8
 21
1313.95
  0
LINE
  8
0
  6
CONTINUOUS
 62
     1
 10
2119.3
 20
1319.425
 11
2128.8
 21
1313.95
  0
LINE
  8
0
  6
CONTINUOUS
 62
     1
 10
2138.3
 20
1327.491911765
 11
2138.3
 21
1319.425
  0
LINE
  8
0
  6
CONTINUOUS
 62
     1
 10
2119.3
 20
1330.375
 11
2126.034301009
 21
1334.256084002
  0
ARC
  8
0
  6
CONTINUOUS
 62
     1
 10
2128.8
 20
1324.9
 40
9.5
 50
104.919685922
 51
17.329427284
  0
LINE
  8
0
  6
LTYPE2
 62
     2
 10
2116.35408431
 20
1324.9
 11
2140.10408431
 21
1324.9
  0
LINE
  8
0
  6
CONTINUOUS
 62
     1
 10
2188.204025966
 20
1299.97130921
 11
2115.8
 21
1339.9
  0
LINE
  8
0
  6
CONTINUOUS
 62
     1
 10
2163.8
 20
1264.9
 11
2113.8
 21
1304.9
  0
LINE
  8
0
  6
LTYPE2
 62
     2
 10
2111.3
 20
1274.9
 11
2198.925
 21
1274.9
  0
LINE
  8
0
  6
LTYPE1
 62
     2
 10
2125.2
 20
1295.78
 11
2125.2
 21
1296.695454545
  0
LINE
  8
0
  6
CONTINUOUS
 62
     1
 10
2140.8
 20
1256.3
 11
2140.8
 21
1277.8
  0
LINE
  8
0
  6
CONTINUOUS
 62
     1
 10
2126.2
 20
1260.9
 11
2140.8
 21
1260.9
  0
LINE
  8
0
  6
CONTINUOUS
 62
     1
 10
2116.0
 20
1263.4
 11
2125.2
 21
1263.4
  0
LINE
  8
0
  6
CONTINUOUS
 62
     1
 10
2126.2
 20
1277.9
 11
2140.8
 21
1277.9
  0
LINE
  8
0
  6
CONTINUOUS
 62
     1
 10
2126.2
 20
1261.6
 11
2126.2
 21
1277.2
  0
LINE
  8
0
  6
CONTINUOUS
 62
     1
 10
2126.2
 20
1249.5
 11
2126.2
 21
1289.3
  0
LINE
  8
0
  6
CONTINUOUS
 62
     1
 10
2126.2
 20
1256.3
 11
2126.2
 21
1282.5
  0
LINE
  8
0
  6
CONTINUOUS
 62
     1
 10
2140.8
 20
1278.3
 11
2140.8
 21
1283.0
  0
LINE
  8
0
  6
CONTINUOUS
 62
     1
 10
2116.0
 20
1297.64
 11
2116.0
 21
1303.88
  0
LINE
  8
0
  6
CONTINUOUS
 62
     1
 10
2116.0
 20
1263.4
 11
2116.0
 21
1297.64
  0
LINE
  8
0
  6
CONTINUOUS
 62
     1
 10
2126.2
 20
1249.5
 11
2167.8
 21
1249.5
  0
LINE
  8
0
  6
CONTINUOUS
 62
     1
 10
2140.8
 20
1256.3
 11
2167.8
 21
1256.3
  0
LINE
  8
0
  6
CONTINUOUS
 62
     1
 10
2126.2
 20
1289.3
 11
2133.3
 21
1289.3
  0
LINE
  8
0
  6
LTYPE1
 62
     2
 10
2131.1
 20
1298.65
 11
2124.1
 21
1298.65
  0
LINE
  8
0
  6
LTYPE1
 62
     2
 10
2140.8
 20
1282.5
 11
2167.8
 21
1282.5
  0
LINE
  8
0
  6
LTYPE1
 62
     2
 10
2133.3
 20
1289.3
 11
2167.8
 21
1289.3
  0
LINE
  8
0
  6
CONTINUOUS
 62
     1
 10
2123.1
 20
1297.4
 11
2125.2
 21
1291.195454545
  0
LINE
  8
0
  6
CONTINUOUS
 62
     1
 10
2125.2
 20
1263.4
 11
2125.2
 21
1291.195454545
  0
LINE
  8
0
  6
CONTINUOUS
 62
     1
 10
2163.8
 20
1264.9
 11
2113.8
 21
1304.9
  0
LINE
  8
0
  6
CONTINUOUS
 62
     1
 10
2123.1
 20
1297.4
 11
2125.2
 21
1291.195454545
  0
LINE
  8
0
  6
CONTINUOUS
 62
     1
 10
2116.0
 20
1263.4
 11
2116.0
 21
1297.64
  0
LINE
  8
0
  6
CONTINUOUS
 62
     1
 10
2126.2
 20
1277.9
 11
2140.8
 21
1277.9
  0
LINE
  8
0
  6
CONTINUOUS
 62
     1
 10
2126.2
 20
1249.5
 11
2126.2
 21
1289.3
  0
LINE
  8
0
  6
CONTINUOUS
 62
     1
 10
2126.2
 20
1256.3
 11
2126.2
 21
1282.5
  0
LINE
  8
0
  6
CONTINUOUS
 62
     1
 10
2126.2
 20
1261.6
 11
2126.2
 21
1277.2
  0
LINE
  8
0
  6
CONTINUOUS
 62
     1
 10
2116.0
 20
1263.4
 11
2125.2
 21
1263.4
  0
LINE
  8
0
  6
CONTINUOUS
 62
     1
 10
2125.2
 20
1263.4
 11
2125.2
 21
1290.28
  0
LINE
  8
0
  6
CONTINUOUS
 62
     1
 10
2140.8
 20
1256.3
 11
2140.8
 21
1277.8
  0
LINE
  8
0
  6
CONTINUOUS
 62
     1
 10
2126.2
 20
1260.9
 11
2140.8
 21
1260.9
  0
LINE
  8
0
  6
CONTINUOUS
 62
     1
 10
2140.8
 20
1278.3
 11
2140.8
 21
1283.0
  0
LINE
  8
0
  6
CONTINUOUS
 62
     1
 10
2126.2
 20
1249.5
 11
2167.8
 21
1249.5
  0
LINE
  8
0
  6
CONTINUOUS
 62
     1
 10
2140.8
 20
1256.3
 11
2167.8
 21
1256.3
  0
LINE
  8
0
  6
CONTINUOUS
 62
     1
 10
2116.0
 20
1297.64
 11
2116.0
 21
1303.14
  0
LINE
  8
0
  6
CONTINUOUS
 62
     1
 10
2126.2
 20
1289.3
 11
2133.3
 21
1289.3
  0
LINE
  8
0
  6
CONTINUOUS
 62
     1
 10
2140.8
 20
1282.5
 11
2141.8
 21
1282.5
  0
LINE
  8
0
  6
CONTINUOUS
 62
     1
 10
2163.8
 20
1264.9
 11
2211.8
 21
1264.9
  0
LINE
  8
0
  6
LTYPE2
 62
     2
 10
2181.8
 20
1262.7
 11
2181.8
 21
1293.025
  0
LINE
  8
0
  6
LTYPE2
 62
     2
 10
2165.8
 20
1274.9
 11
2198.925
 21
1274.9
  0
LINE
  8
0
  6
LTYPE2
 62
     2
 10
2161.8
 20
1274.9
 11
2197.8
 21
1274.9
  0
LINE
  8
0
  6
LTYPE2
 62
     2
 10
2181.8
 20
1251.4
 11
2181.8
 21
1298.4
  0
LINE
  8
0
  6
LTYPE2
 62
     2
 10
2181.8
 20
1262.7
 11
2181.8
 21
1293.025
  0
LINE
  8
0
  6
LTYPE1
 62
     2
 10
2173.8
 20
1282.9
 11
2189.8
 21
1282.9
  0
LINE
  8
0
  6
LTYPE1
 62
     2
 10
2173.8
 20
1264.9
 11
2173.8
 21
1282.9
  0
LINE
  8
0
  6
LTYPE1
 62
     2
 10
2173.8
 20
1282.9
 11
2189.8
 21
1282.9
  0
LINE
  8
0
  6
LTYPE1
 62
     2
 10
2173.8
 20
1266.9
 11
2189.8
 21
1266.9
  0
LINE
  8
0
  6
LTYPE1
 62
     2
 10
2173.8
 20
1266.9
 11
2189.8
 21
1266.9
  0
LINE
  8
0
  6
LTYPE1
 62
     2
 10
2167.8
 20
1264.9
 11
2167.8
 21
1290.9
  0
LINE
  8
0
  6
LTYPE1
 62
     2
 10
2173.8
 20
1290.9
 11
2195.8
 21
1290.9
  0
LINE
  8
0
  6
LTYPE1
 62
     2
 10
2173.8
 20
1264.9
 11
2173.8
 21
1300.4
  0
LINE
  8
0
  6
LTYPE1
 62
     2
 10
2167.8
 20
1264.9
 11
2167.8
 21
1300.4
  0
LINE
  8
0
  6
CONTINUOUS
 62
     1
 10
2173.8
 20
1250.4
 11
2173.8
 21
1264.9
  0
LINE
  8
0
  6
CONTINUOUS
 62
     1
 10
2167.8
 20
1250.4
 11
2167.8
 21
1264.9
  0
CIRCLE
  8
0
  6
CONTINUOUS
 62
     1
 10
2181.8
 20
1274.9
 40
9.5
  0
LINE
  8
0
  6
CONTINUOUS
 62
     1
 10
2172.3
 20
1280.375
 11
2172.3
 21
1269.425
  0
LINE
  8
0
  6
CONTINUOUS
 62
     1
 10
2172.3
 20
1280.375
 11
2181.8
 21
1285.85
  0
LINE
  8
0
  6
CONTINUOUS
 62
     1
 10
2191.3
 20
1269.425
 11
2181.8
 21
1263.95
  0
LINE
  8
0
  6
CONTINUOUS
 62
     1
 10
2172.3
 20
1269.425
 11
2181.8
 21
1263.95
  0
LINE
  8
0
  6
LTYPE2
 62
     2
 10
2181.8
 20
1261.8
 11
2181.8
 21
1288.8
  0
LINE
  8
0
  6
CONTINUOUS
 62
     1
 10
2191.3
 20
1280.375
 11
2181.8
 21
1285.85
  0
LINE
  8
0
  6
CONTINUOUS
 62
     1
 10
2163.8
 20
1264.9
 11
2180.151598174
 21
1264.9
  0
LINE
  8
0
  6
CONTINUOUS
 62
     1
 10
2173.8
 20
1250.4
 11
2173.8
 21
1264.9
  0
LINE
  8
0
  6
CONTINUOUS
 62
     1
 10
2167.8
 20
1250.4
 11
2167.8
 21
1264.9
  0
LINE
  8
0
  6
LTYPE2
 62
     2
 10
2168.4
 20
1274.9
 11
2194.4
 21
1274.9
  0
LINE
  8
0
  6
CONTINUOUS
 62
     1
 10
2167.8
 20
1250.4
 11
2173.8
 21
1250.4
  0
LINE
  8
0
  6
CONTINUOUS
 62
     1
 10
2167.8
 20
1249.5
 11
2167.8
 21
1259.4
  0
LINE
  8
0
  6
CONTINUOUS
 62
     1
 10
2167.8
 20
1250.4
 11
2173.8
 21
1250.4
  0
LINE
  8
0
  6
CONTINUOUS
 62
     1
 10
2167.8
 20
1249.5
 11
2167.8
 21
1259.4
  0
ARC
  8
0
  6
CONTINUOUS
 62
     1
 10
2291.8
 20
1349.9
 40
150.0
 50
218.124911622
 51
165.084066672
  0
LINE
  8
0
  6
CONTINUOUS
 62
     1
 10
2211.8
 20
1237.9
 11
2236.8
 21
1237.9
  0
LINE
  8
0
  6
CONTINUOUS
 62
     1
 10
2209.3
 20
1248.9
 11
2209.3
 21
1239.1
  0
LINE
  8
0
  6
CONTINUOUS
 62
     1
 10
2209.3
 20
1239.1
 11
2203.685640646
 21
1239.1
  0
LINE
  8
0
  6
CONTINUOUS
 62
     1
 10
2202.3
 20
1241.5
 11
2203.685640646
 21
1239.1
  0
LINE
  8
0
  6
CONTINUOUS
 62
     1
 10
2202.3
 20
1248.9
 11
2202.3
 21
1241.5
  0
LINE
  8
0
  6
CONTINUOUS
 62
     1
 10
2209.3
 20
1244.0
 11
2203.685640646
 21
1244.0
  0
ARC
  8
0
  6
CONTINUOUS
 62
     1
 10
2211.6566828
 20
1248.9
 40
9.3566828
 50
148.419912243
 51
211.580087757
  0
ARC
  8
0
  6
CONTINUOUS
 62
     1
 10
2205.157883832
 20
1241.55
 40
2.858321186
 50
121.002313915
 51
182.989498403
  0
LINE
  8
0
  6
CONTINUOUS
 62
     1
 10
2211.8
 20
1239.7
 11
2209.3
 21
1239.7
  0
LINE
  8
0
  6
CONTINUOUS
 62
     1
 10
2211.8
 20
1237.9
 11
2211.8
 21
1264.9
  0
LINE
  8
0
  6
CONTINUOUS
 62
     1
 10
2193.8
 20
1243.9
 11
2193.8
 21
1253.9
  0
LINE
  8
0
  6
CONTINUOUS
 62
     1
 10
2193.8
 20
1243.9
 11
2202.3
 21
1243.9
  0
LINE
  8
0
  6
CONTINUOUS
 62
     1
 10
2211.8
 20
1237.9
 11
2236.8
 21
1237.9
  0
LINE
  8
0
  6
CONTINUOUS
 62
     1
 10
2209.3
 20
1248.9
 11
2209.3
 21
1239.1
  0
LINE
  8
0
  6
CONTINUOUS
 62
     1
 10
2209.3
 20
1239.1
 11
2203.685640646
 21
1239.1
  0
LINE
  8
0
  6
CONTINUOUS
 62
     1
 10
2202.3
 20
1241.5
 11
2203.685640646
 21
1239.1
  0
LINE
  8
0
  6
CONTINUOUS
 62
     1
 10
2202.3
 20
1248.9
 11
2202.3
 21
1241.5
  0
LINE
  8
0
  6
CONTINUOUS
 62
     1
 10
2209.3
 20
1244.0
 11
2203.685640646
 21
1244.0
  0
ARC
  8
0
  6
CONTINUOUS
 62
     1
 10
2211.6566828
 20
1248.9
 40
9.3566828
 50
148.419912243
 51
211.580087757
  0
ARC
  8
0
  6
CONTINUOUS
 62
     1
 10
2205.157883832
 20
1241.55
 40
2.858321186
 50
121.002313915
 51
182.989498403
  0
LINE
  8
0
  6
CONTINUOUS
 62
     1
 10
2211.8
 20
1239.7
 11
2209.3
 21
1239.7
  0
LINE
  8
0
  6
CONTINUOUS
 62
     1
 10
2211.8
 20
1237.9
 11
2211.8
 21
1264.9
  0
LINE
  8
0
  6
CONTINUOUS
 62
     1
 10
2193.8
 20
1243.9
 11
2193.8
 21
1253.9
  0
LINE
  8
0
  6
CONTINUOUS
 62
     1
 10
2193.8
 20
1243.9
 11
2202.3
 21
1243.9
  0
LINE
  8
0
  6
CONTINUOUS
 62
     1
 10
2236.8
 20
1237.9
 11
2236.8
 21
1248.9
  0
LINE
  8
0
  6
CONTINUOUS
 62
     1
 10
2236.8
 20
1237.9
 11
2236.8
 21
1248.9
  0
LINE
  8
0
  6
CONTINUOUS
 62
     1
 10
2209.3
 20
1248.9
 11
2209.3
 21
1258.7
  0
LINE
  8
0
  6
CONTINUOUS
 62
     1
 10
2202.3
 20
1248.9
 11
2202.3
 21
1256.3
  0
LINE
  8
0
  6
CONTINUOUS
 62
     1
 10
2211.8
 20
1248.9
 11
2209.300000004
 21
1246.400000004
  0
LINE
  8
0
  6
CONTINUOUS
 62
     1
 10
2209.300000004
 20
1248.9
 11
2211.8
 21
1251.399999996
  0
LINE
  8
0
  6
CONTINUOUS
 62
     1
 10
2190.152902
 20
1247.90039
 11
2191.564654
 21
1248.715465397
  0
LINE
  8
0
  6
CONTINUOUS
 62
     1
 10
2185.8
 20
1247.90039
 11
2190.152902
 21
1247.90039
  0
LINE
  8
0
  6
CONTINUOUS
 62
     1
 10
2181.447098
 20
1247.90039
 11
2180.035346
 21
1248.715465397
  0
LINE
  8
0
  6
CONTINUOUS
 62
     1
 10
2185.8
 20
1247.90039
 11
2181.447098
 21
1247.90039
  0
ARC
  8
0
  6
CONTINUOUS
 62
     1
 10
2185.8
 20
1253.404271523
 40
5.503881523
 50
238.419912243
 51
301.580087757
  0
ARC
  8
0
  6
CONTINUOUS
 62
     1
 10
2190.1234905
 20
1249.581483007
 40
1.681350271
 50
211.002313915
 51
272.989498403
  0
LINE
  8
0
  6
CONTINUOUS
 62
     1
 10
2181.447098
 20
1247.90039
 11
2180.035346
 21
1248.715465397
  0
ARC
  8
0
  6
CONTINUOUS
 62
     1
 10
2181.4765095
 20
1249.581483007
 40
1.681350271
 50
267.010501597
 51
328.997686085
  0
LINE
  8
0
  6
CONTINUOUS
 62
     1
 10
2188.682327
 20
1251.9
 11
2188.682327
 21
1248.715465397
  0
LINE
  8
0
  6
CONTINUOUS
 62
     1
 10
2191.564654
 20
1251.9
 11
2191.564654
 21
1248.715465397
  0
LINE
  8
0
  6
CONTINUOUS
 62
     1
 10
2182.917673
 20
1251.9
 11
2182.917673
 21
1248.715465397
  0
LINE
  8
0
  6
CONTINUOUS
 62
     1
 10
2180.035346
 20
1251.9
 11
2180.035346
 21
1248.715465397
  0
LINE
  8
0
  6
LTYPE2
 62
     2
 10
2185.8
 20
1245.9
 11
2185.8
 21
1266.9
  0
LINE
  8
0
  6
LTYPE2
 62
     2
 10
2192.3
 20
1248.9
 11
2291.8
 21
1248.9
  0
LINE
  8
0
  6
CONTINUOUS
 62
     1
 10
2209.3
 20
1248.9
 11
2209.3
 21
1258.7
  0
LINE
  8
0
  6
CONTINUOUS
 62
     1
 10
2202.3
 20
1248.9
 11
2202.3
 21
1256.3
  0
LINE
  8
0
  6
CONTINUOUS
 62
     1
 10
2211.8
 20
1248.9
 11
2209.300000004
 21
1246.400000004
  0
LINE
  8
0
  6
CONTINUOUS
 62
     1
 10
2209.300000004
 20
1248.9
 11
2211.8
 21
1251.399999996
  0
LINE
  8
0
  6
CONTINUOUS
 62
     1
 10
2190.152902
 20
1247.90039
 11
2191.564654
 21
1248.715465397
  0
LINE
  8
0
  6
CONTINUOUS
 62
     1
 10
2185.8
 20
1247.90039
 11
2190.152902
 21
1247.90039
  0
LINE
  8
0
  6
CONTINUOUS
 62
     1
 10
2181.447098
 20
1247.90039
 11
2180.035346
 21
1248.715465397
  0
LINE
  8
0
  6
CONTINUOUS
 62
     1
 10
2185.8
 20
1247.90039
 11
2181.447098
 21
1247.90039
  0
ARC
  8
0
  6
CONTINUOUS
 62
     1
 10
2185.8
 20
1253.404271523
 40
5.503881523
 50
238.419912243
 51
301.580087757
  0
ARC
  8
0
  6
CONTINUOUS
 62
     1
 10
2190.1234905
 20
1249.581483007
 40
1.681350271
 50
211.002313915
 51
272.989498403
  0
LINE
  8
0
  6
CONTINUOUS
 62
     1
 10
2181.447098
 20
1247.90039
 11
2180.035346
 21
1248.715465397
  0
ARC
  8
0
  6
CONTINUOUS
 62
     1
 10
2181.4765095
 20
1249.581483007
 40
1.681350271
 50
267.010501597
 51
328.997686085
  0
LINE
  8
0
  6
CONTINUOUS
 62
     1
 10
2188.682327
 20
1251.9
 11
2188.682327
 21
1248.715465397
  0
LINE
  8
0
  6
CONTINUOUS
 62
     1
 10
2191.564654
 20
1251.9
 11
2191.564654
 21
1248.715465397
  0
LINE
  8
0
  6
CONTINUOUS
 62
     1
 10
2182.917673
 20
1251.9
 11
2182.917673
 21
1248.715465397
  0
LINE
  8
0
  6
CONTINUOUS
 62
     1
 10
2180.035346
 20
1251.9
 11
2180.035346
 21
1248.715465397
  0
LINE
  8
0
  6
LTYPE2
 62
     2
 10
2185.8
 20
1245.9
 11
2185.8
 21
1266.9
  0
LINE
  8
0
  6
LTYPE2
 62
     2
 10
2193.05
 20
1248.9
 11
2291.8
 21
1248.9
  0
ARC
  8
0
  6
CONTINUOUS
 62
     1
 10
2291.8
 20
1349.9
 40
140.0
 50
233.134093774
 51
126.3844404
  0
LINE
  8
0
  6
CONTINUOUS
 62
     1
 10
2202.3
 20
1256.3
 11
2203.685640646
 21
1258.7
  0
LINE
  8
0
  6
CONTINUOUS
 62
     1
 10
2209.3
 20
1253.8
 11
2203.685640646
 21
1253.8
  0
LINE
  8
0
  6
CONTINUOUS
 62
     1
 10
2202.3
 20
1256.3
 11
2203.685640646
 21
1258.7
  0
ARC
  8
0
  6
CONTINUOUS
 62
     1
 10
2205.157883832
 20
1256.25
 40
2.858321186
 50
177.010501597
 51
238.997686085
  0
LINE
  8
0
  6
CONTINUOUS
 62
     1
 10
2190.152902
 20
1254.90039
 11
2191.564654
 21
1255.715465397
  0
LINE
  8
0
  6
CONTINUOUS
 62
     1
 10
2185.8
 20
1254.90039
 11
2190.152902
 21
1254.90039
  0
LINE
  8
0
  6
CONTINUOUS
 62
     1
 10
2181.447098
 20
1254.90039
 11
2180.035346
 21
1255.715465397
  0
LINE
  8
0
  6
CONTINUOUS
 62
     1
 10
2185.8
 20
1254.90039
 11
2181.447098
 21
1254.90039
  0
ARC
  8
0
  6
CONTINUOUS
 62
     1
 10
2185.8
 20
1260.404271523
 40
5.503881523
 50
238.419912243
 51
301.580087757
  0
ARC
  8
0
  6
CONTINUOUS
 62
     1
 10
2190.1234905
 20
1256.581483007
 40
1.681350271
 50
211.002313915
 51
272.989498403
  0
LINE
  8
0
  6
CONTINUOUS
 62
     1
 10
2181.447098
 20
1254.90039
 11
2180.035346
 21
1255.715465397
  0
ARC
  8
0
  6
CONTINUOUS
 62
     1
 10
2181.4765095
 20
1256.581483007
 40
1.681350271
 50
267.010501597
 51
328.997686085
  0
LINE
  8
0
  6
CONTINUOUS
 62
     1
 10
2188.682327
 20
1258.9
 11
2188.682327
 21
1255.715465397
  0
LINE
  8
0
  6
CONTINUOUS
 62
     1
 10
2191.564654
 20
1258.9
 11
2191.564654
 21
1255.715465397
  0
LINE
  8
0
  6
CONTINUOUS
 62
     1
 10
2182.917673
 20
1258.9
 11
2182.917673
 21
1255.715465397
  0
LINE
  8
0
  6
CONTINUOUS
 62
     1
 10
2180.035346
 20
1258.9
 11
2180.035346
 21
1255.715465397
  0
LINE
  8
0
  6
CONTINUOUS
 62
     1
 10
2185.8
 20
1251.9
 11
2191.564654
 21
1251.9
  0
LINE
  8
0
  6
CONTINUOUS
 62
     1
 10
2185.8
 20
1251.9
 11
2180.035346
 21
1251.9
  0
LINE
  8
0
  6
CONTINUOUS
 62
     2
 10
2188.8
 20
1251.9
 11
2188.8
 21
1254.90039
  0
LINE
  8
0
  6
CONTINUOUS
 62
     2
 10
2182.8
 20
1251.9
 11
2182.8
 21
1254.90039
  0
LINE
  8
0
  6
CONTINUOUS
 62
     2
 10
2188.3
 20
1251.9
 11
2188.3
 21
1254.90039
  0
LINE
  8
0
  6
CONTINUOUS
 62
     2
 10
2183.3
 20
1251.9
 11
2183.3
 21
1254.90039
  0
LINE
  8
0
  6
CONTINUOUS
 62
     1
 10
2193.8
 20
1253.9
 11
2202.3
 21
1253.9
  0
LINE
  8
0
  6
CONTINUOUS
 62
     1
 10
2202.3
 20
1256.3
 11
2203.685640646
 21
1258.7
  0
LINE
  8
0
  6
CONTINUOUS
 62
     1
 10
2209.3
 20
1253.8
 11
2203.685640646
 21
1253.8
  0
LINE
  8
0
  6
CONTINUOUS
 62
     1
 10
2202.3
 20
1256.3
 11
2203.685640646
 21
1258.7
  0
ARC
  8
0
  6
CONTINUOUS
 62
     1
 10
2205.157883832
 20
1256.25
 40
2.858321186
 50
177.010501597
 51
238.997686085
  0
LINE
  8
0
  6
CONTINUOUS
 62
     1
 10
2190.152902
 20
1254.90039
 11
2191.564654
 21
1255.715465397
  0
LINE
  8
0
  6
CONTINUOUS
 62
     1
 10
2185.8
 20
1254.90039
 11
2190.152902
 21
1254.90039
  0
LINE
  8
0
  6
CONTINUOUS
 62
     1
 10
2181.447098
 20
1254.90039
 11
2180.035346
 21
1255.715465397
  0
LINE
  8
0
  6
CONTINUOUS
 62
     1
 10
2185.8
 20
1254.90039
 11
2181.447098
 21
1254.90039
  0
ARC
  8
0
  6
CONTINUOUS
 62
     1
 10
2185.8
 20
1260.404271523
 40
5.503881523
 50
238.419912243
 51
301.580087757
  0
ARC
  8
0
  6
CONTINUOUS
 62
     1
 10
2190.1234905
 20
1256.581483007
 40
1.681350271
 50
211.002313915
 51
272.989498403
  0
LINE
  8
0
  6
CONTINUOUS
 62
     1
 10
2181.447098
 20
1254.90039
 11
2180.035346
 21
1255.715465397
  0
ARC
  8
0
  6
CONTINUOUS
 62
     1
 10
2181.4765095
 20
1256.581483007
 40
1.681350271
 50
267.010501597
 51
328.997686085
  0
LINE
  8
0
  6
CONTINUOUS
 62
     1
 10
2188.682327
 20
1258.9
 11
2188.682327
 21
1255.715465397
  0
LINE
  8
0
  6
CONTINUOUS
 62
     1
 10
2191.564654
 20
1258.9
 11
2191.564654
 21
1255.715465397
  0
LINE
  8
0
  6
CONTINUOUS
 62
     1
 10
2182.917673
 20
1258.9
 11
2182.917673
 21
1255.715465397
  0
LINE
  8
0
  6
CONTINUOUS
 62
     1
 10
2180.035346
 20
1258.9
 11
2180.035346
 21
1255.715465397
  0
LINE
  8
0
  6
CONTINUOUS
 62
     1
 10
2185.8
 20
1251.9
 11
2191.564654
 21
1251.9
  0
LINE
  8
0
  6
CONTINUOUS
 62
     1
 10
2185.8
 20
1251.9
 11
2180.035346
 21
1251.9
  0
LINE
  8
0
  6
CONTINUOUS
 62
     2
 10
2188.8
 20
1251.9
 11
2188.8
 21
1254.90039
  0
LINE
  8
0
  6
CONTINUOUS
 62
     2
 10
2182.8
 20
1251.9
 11
2182.8
 21
1254.90039
  0
LINE
  8
0
  6
CONTINUOUS
 62
     2
 10
2188.3
 20
1251.9
 11
2188.3
 21
1254.90039
  0
LINE
  8
0
  6
CONTINUOUS
 62
     2
 10
2183.3
 20
1251.9
 11
2183.3
 21
1254.90039
  0
LINE
  8
0
  6
CONTINUOUS
 62
     1
 10
2193.8
 20
1253.9
 11
2202.3
 21
1253.9
  0
LINE
  8
0
  6
CONTINUOUS
 62
     1
 10
2173.8
 20
1258.9
 11
2195.8
 21
1258.9
  0
LINE
  8
0
  6
CONTINUOUS
 62
     1
 10
2195.8
 20
1258.9
 11
2195.8
 21
1264.9
  0
LINE
  8
0
  6
CONTINUOUS
 62
     1
 10
2173.8
 20
1258.9
 11
2195.8
 21
1258.9
  0
LINE
  8
0
  6
CONTINUOUS
 62
     1
 10
2173.8
 20
1258.9
 11
2195.8
 21
1258.9
  0
LINE
  8
0
  6
CONTINUOUS
 62
     1
 10
2195.8
 20
1258.9
 11
2195.8
 21
1264.9
  0
LINE
  8
0
  6
CONTINUOUS
 62
     1
 10
2173.8
 20
1258.9
 11
2195.8
 21
1258.9
  0
LINE
  8
0
  6
CONTINUOUS
 62
     1
 10
2173.8
 20
1258.9
 11
2195.8
 21
1258.9
  0
LINE
  8
0
  6
CONTINUOUS
 62
     1
 10
2195.8
 20
1258.9
 11
2195.8
 21
1264.9
  0
LINE
  8
0
  6
CONTINUOUS
 62
     1
 10
2173.8
 20
1258.9
 11
2195.8
 21
1258.9
  0
LINE
  8
0
  6
CONTINUOUS
 62
     1
 10
2195.8
 20
1258.9
 11
2195.8
 21
1264.9
  0
LINE
  8
0
  6
CONTINUOUS
 62
     1
 10
2173.8
 20
1258.9
 11
2195.8
 21
1258.9
  0
LINE
  8
0
  6
CONTINUOUS
 62
     1
 10
2173.8
 20
1258.9
 11
2195.8
 21
1258.9
  0
LINE
  8
0
  6
CONTINUOUS
 62
     1
 10
2195.8
 20
1258.9
 11
2195.8
 21
1264.9
  0
LINE
  8
0
  6
CONTINUOUS
 62
     1
 10
2173.8
 20
1258.9
 11
2195.8
 21
1258.9
  0
LINE
  8
0
  6
CONTINUOUS
 62
     1
 10
2173.8
 20
1258.9
 11
2195.8
 21
1258.9
  0
LINE
  8
0
  6
CONTINUOUS
 62
     1
 10
2195.8
 20
1258.9
 11
2195.8
 21
1264.9
  0
LINE
  8
0
  6
CONTINUOUS
 62
     1
 10
2173.8
 20
1258.9
 11
2195.8
 21
1258.9
  0
LINE
  8
0
  6
CONTINUOUS
 62
     1
 10
2173.8
 20
1258.9
 11
2195.8
 21
1258.9
  0
LINE
  8
0
  6
CONTINUOUS
 62
     1
 10
2195.8
 20
1258.9
 11
2195.8
 21
1264.9
  0
LINE
  8
0
  6
CONTINUOUS
 62
     1
 10
2173.8
 20
1258.9
 11
2195.8
 21
1258.9
  0
LINE
  8
0
  6
CONTINUOUS
 62
     1
 10
2209.3
 20
1258.7
 11
2203.685640646
 21
1258.7
  0
LINE
  8
0
  6
CONTINUOUS
 62
     1
 10
2211.8
 20
1258.1
 11
2209.3
 21
1258.1
  0
LINE
  8
0
  6
CONTINUOUS
 62
     1
 10
2209.3
 20
1258.7
 11
2203.685640646
 21
1258.7
  0
LINE
  8
0
  6
CONTINUOUS
 62
     1
 10
2211.8
 20
1258.1
 11
2209.3
 21
1258.1
  0
LINE
  8
0
  6
LTYPE1
 62
     2
 10
2189.8
 20
1266.9
 11
2189.8
 21
1282.9
  0
LINE
  8
0
  6
LTYPE1
 62
     2
 10
2189.8
 20
1266.9
 11
2189.8
 21
1282.9
  0
LINE
  8
0
  6
LTYPE1
 62
     2
 10
2195.8
 20
1264.9
 11
2195.8
 21
1290.9
  0
LINE
  8
0
  6
LTYPE1
 62
     2
 10
2195.8
 20
1264.9
 11
2195.8
 21
1290.9
  0
LINE
  8
0
  6
CONTINUOUS
 62
     1
 10
2191.3
 20
1280.375
 11
2191.3
 21
1269.425
  0
LINE
  8
0
  6
CONTINUOUS
 62
     1
 10
2183.448401826
 20
1264.9
 11
2211.8
 21
1264.9
  0
LINE
  8
0
  6
LTYPE1
 62
     2
 10
2167.8
 20
1300.4
 11
2173.8
 21
1300.4
  0
LINE
  8
0
  6
CONTINUOUS
 62
     1
 10
2211.8
 20
1461.9
 11
2236.8
 21
1461.9
  0
LINE
  8
0
  6
CONTINUOUS
 62
     1
 10
2209.3
 20
1450.9
 11
2209.3
 21
1460.7
  0
LINE
  8
0
  6
CONTINUOUS
 62
     1
 10
2209.3
 20
1460.7
 11
2203.685640646
 21
1460.7
  0
LINE
  8
0
  6
CONTINUOUS
 62
     1
 10
2202.3
 20
1458.3
 11
2203.685640646
 21
1460.7
  0
LINE
  8
0
  6
CONTINUOUS
 62
     1
 10
2202.3
 20
1450.9
 11
2202.3
 21
1458.3
  0
ARC
  8
0
  6
CONTINUOUS
 62
     1
 10
2205.157883832
 20
1458.25
 40
2.858321186
 50
177.010501597
 51
238.997686085
  0
LINE
  8
0
  6
CONTINUOUS
 62
     1
 10
2211.8
 20
1460.1
 11
2209.3
 21
1460.1
  0
LINE
  8
0
  6
CONTINUOUS
 62
     1
 10
2211.8
 20
1461.9
 11
2211.8
 21
1434.9
  0
LINE
  8
0
  6
CONTINUOUS
 62
     1
 10
2193.8
 20
1455.9
 11
2193.8
 21
1445.9
  0
LINE
  8
0
  6
CONTINUOUS
 62
     1
 10
2193.8
 20
1455.9
 11
2202.3
 21
1455.9
  0
LINE
  8
0
  6
CONTINUOUS
 62
     1
 10
2236.8
 20
1461.9
 11
2236.8
 21
1450.9
  0
LINE
  8
0
  6
CONTINUOUS
 62
     1
 10
2209.3
 20
1455.8
 11
2203.685640646
 21
1455.8
  0
LINE
  8
0
  6
CONTINUOUS
 62
     1
 10
2209.3
 20
1450.9
 11
2209.3
 21
1441.1
  0
LINE
  8
0
  6
CONTINUOUS
 62
     1
 10
2209.3
 20
1441.1
 11
2203.685640646
 21
1441.1
  0
LINE
  8
0
  6
CONTINUOUS
 62
     1
 10
2202.3
 20
1443.5
 11
2203.685640646
 21
1441.1
  0
LINE
  8
0
  6
CONTINUOUS
 62
     1
 10
2202.3
 20
1450.9
 11
2202.3
 21
1443.5
  0
LINE
  8
0
  6
CONTINUOUS
 62
     1
 10
2209.3
 20
1446.0
 11
2203.685640646
 21
1446.0
  0
ARC
  8
0
  6
CONTINUOUS
 62
     1
 10
2211.6566828
 20
1450.9
 40
9.3566828
 50
148.419912243
 51
211.580087757
  0
LINE
  8
0
  6
CONTINUOUS
 62
     1
 10
2202.3
 20
1443.5
 11
2203.685640646
 21
1441.1
  0
ARC
  8
0
  6
CONTINUOUS
 62
     1
 10
2205.157883832
 20
1443.55
 40
2.858321186
 50
121.002313915
 51
182.989498403
  0
LINE
  8
0
  6
CONTINUOUS
 62
     1
 10
2211.8
 20
1450.9
 11
2209.300000004
 21
1453.399999996
  0
LINE
  8
0
  6
CONTINUOUS
 62
     1
 10
2209.300000004
 20
1450.9
 11
2211.8
 21
1448.400000004
  0
LINE
  8
0
  6
CONTINUOUS
 62
     1
 10
2211.8
 20
1441.7
 11
2209.3
 21
1441.7
  0
LINE
  8
0
  6
CONTINUOUS
 62
     1
 10
2193.8
 20
1445.9
 11
2202.3
 21
1445.9
  0
LINE
  8
0
  6
LTYPE2
 62
     2
 10
2190.8
 20
1450.9
 11
2291.8
 21
1450.9
  0
LINE
  8
0
  6
CONTINUOUS
 62
     1
 10
2202.283670042
 20
1428.102621459
 11
2187.309952946
 21
1443.076338555
  0
LINE
  8
0
  6
CONTINUOUS
 62
     1
 10
2187.309952946
 20
1443.076338555
 11
2193.8
 21
1449.461092792
  0
ARC
  8
0
  6
CONTINUOUS
 62
     1
 10
2291.8
 20
1349.9
 40
140.0
 50
134.136309955
 51
159.733824791
  0
LINE
  8
0
  6
CONTINUOUS
 62
     1
 10
2113.8
 20
1364.9
 11
2211.8
 21
1434.9
  0
LINE
  8
0
  6
CONTINUOUS
 62
     1
 10
2113.8
 20
1364.9
 11
2211.8
 21
1434.9
  0
LINE
  8
0
  6
CONTINUOUS
 62
     1
 10
2113.8
 20
1357.9
 11
2074.8
 21
1357.9
  0
LINE
  8
0
  6
CONTINUOUS
 62
     1
 10
2113.8
 20
1341.9
 11
2074.8
 21
1341.9
  0
LINE
  8
0
  6
CONTINUOUS
 62
     2
 10
2291.8
 20
1011.6
 11
2291.8
 21
952.0
  0
LINE
  8
0
  6
CONTINUOUS
 62
     2
 10
2291.8
 20
960.0
 11
2272.481483474
 21
965.176380902
  0
LINE
  8
0
  6
CONTINUOUS
 62
     2
 10
2291.8
 20
960.0
 11
2272.481483474
 21
954.823619098
  0
LINE
  8
0
  6
CONTINUOUS
 62
     2
 10
2291.8
 20
960.0
 11
2113.8
 21
960.0
  0
LINE
  8
0
  6
CONTINUOUS
 62
     2
 10
2113.8
 20
960.0
 11
2133.118516526
 21
954.823619098
  0
LINE
  8
0
  6
CONTINUOUS
 62
     2
 10
2113.8
 20
960.0
 11
2133.118516526
 21
965.176380902
  0
LINE
  8
0
  6
CONTINUOUS
 62
     2
 10
2113.8
 20
1296.9
 11
2113.8
 21
952.0
  0
TEXT
  8
0
  6
CONTINUOUS
 62
     3
 10
2170.4
 20
968.0
 30
0.0
 40
24.0
  1
１７８
 50
0.0
 41
0.9
 51
0.0
  7
KANJI37
  0
TEXT
  8
7
  6
CONTINUOUS
 62
     2
 10
1042.775
 20
1172.3
 30
0.8
 40
24.0
  1
リミットスイッチ
 50
0.0
 41
0.833333333
 51
0.0
  7
KANJI32
  0
TEXT
  8
7
  6
CONTINUOUS
 62
     2
 10
1042.775
 20
1142.3
 30
0.8
 40
24.0
  1
１ＬＳ１－Ｊ　（山武）
 50
0.0
 41
0.833333333
 51
0.0
  7
KANJI32
  0
LINE
  8
7
  6
CONTINUOUS
 62
     2
 10
1046.275
 20
1134.3
 11
1266.775
 21
1134.3
  0
TEXT
  8
0
  6
CONTINUOUS
 62
     2
 10
635.985251001
 20
658.28
 30
1.6
 40
24.0
  1
ＳＣＤ２０Ａ－　３ＪＬ
 50
0.0
 41
0.833333333
 51
0.0
  7
KANJI45
  0
TEXT
  8
0
  6
CONTINUOUS
 62
     2
 10
635.985251001
 20
602.28
 30
1.6
 40
24.0
  1
ＳＣＤ２０Ａ－　５ＪＬ
 50
0.0
 41
0.833333333
 51
0.0
  7
KANJI45
  0
TEXT
  8
0
  6
CONTINUOUS
 62
     2
 10
635.985251001
 20
546.28
 30
1.6
 40
24.0
  1
ＳＣＤ２０Ａ－　７ＪＬ
 50
0.0
 41
0.833333333
 51
0.0
  7
KANJI45
  0
TEXT
  8
0
  6
CONTINUOUS
 62
     2
 10
635.985251001
 20
490.28
 30
1.6
 40
24.0
  1
ＳＣＤ２０Ａ－１０ＪＬ
 50
0.0
 41
0.833333333
 51
0.0
  7
KANJI45
  0
TEXT
  8
0
  6
CONTINUOUS
 62
     2
 10
635.985251001
 20
434.28
 30
1.6
 40
24.0
  1
ＳＣＤ２０Ａ－１５ＪＬ
 50
0.0
 41
0.833333333
 51
0.0
  7
KANJI45
  0
TEXT
  8
0
  6
CONTINUOUS
 62
     2
 10
635.985251001
 20
378.28
 30
1.6
 40
24.0
  1
ＳＣＤ２０Ａ－２０ＪＬ
 50
0.0
 41
0.833333333
 51
0.0
  7
KANJI45
  0
TEXT
  8
0
  6
CONTINUOUS
 62
     2
 10
635.985251001
 20
322.28
 30
1.6
 40
24.0
  1
ＳＣＤ２０Ａ－　　ＪＬ
 50
0.0
 41
0.833333333
 51
0.0
  7
KANJI45
  0
TEXT
  8
0
  6
CONTINUOUS
 62
     2
 10
2935.466666667
 20
1931.2
 30
0.0
 40
24.0
  1
ＳＣＤ２０Ａ－　　ＪＬ
 50
0.0
 41
0.833333333
 51
0.0
  7
KANJI46
  0
TEXT
  8
0
  6
CONTINUOUS
 62
     2
 10
2488.0
 20
328.0
 30
0.0
 40
28.0
  1
ＳＣＤ２０Ａ－ＪＬ
 50
0.0
 41
0.793650794
 51
0.0
  7
KANJI47
  0
TEXT
  8
0
  6
CONTINUOUS
 62
     3
 10
2193.451962201
 20
171.079992
 30
2.4
 40
28.0
  1
２００５．０１．２０
 50
0.0
 41
0.571428571
 51
0.0
  7
KANJI48
  0
TEXT
  8
0
  6
CONTINUOUS
 62
     3
 10
2582.518632601
 20
209.479992
 30
17.333333333
 40
40.0
  1
Ａ３００２０８２
 50
0.0
 41
0.8
 51
0.0
  7
KANJI49
  0
TEXT
  8
0
  6
CONTINUOUS
 62
     2
 10
2325.916876985
 20
647.379993986
 30
4.0
 40
32.0
  1
３。ＬＳユニット
 50
0.0
 41
0.75
 51
0.0
  7
KANJI16
  0
TEXT
  8
0
  6
CONTINUOUS
 62
     2
 10
2325.916876985
 20
605.679993986
 30
4.0
 40
32.0
  1
　リミットＳＷ：１ＬＳ１－Ｊ　×　２ヶ（山武）
 50
0.0
 41
0.75
 51
0.0
  7
KANJI16
  0
TEXT
  8
0
  6
CONTINUOUS
 62
     2
 10
500.985251001
 20
58.146632
 30
2.4
 40
24.0
  1
ＦＤ　Ｎｏ．ＳＣ２７
 50
0.0
 41
1.0
 51
0.0
  7
KANJI50
  0
TEXT
  8
0
  6
CONTINUOUS
 62
     2
 10
1746.385251001
 20
661.88
 30
2.4
 40
24.0
  1
５５３
 50
0.0
 41
0.9
 51
0.0
  7
KANJI39
  0
TEXT
  8
0
  6
CONTINUOUS
 62
     2
 10
1746.385251001
 20
605.88
 30
2.4
 40
24.0
  1
６０３
 50
0.0
 41
0.9
 51
0.0
  7
KANJI39
  0
TEXT
  8
0
  6
CONTINUOUS
 62
     2
 10
1746.385251001
 20
549.88
 30
2.4
 40
24.0
  1
６６３
 50
0.0
 41
0.9
 51
0.0
  7
KANJI39
  0
TEXT
  8
0
  6
CONTINUOUS
 62
     2
 10
1746.385251001
 20
493.88
 30
2.4
 40
24.0
  1
７３３
 50
0.0
 41
0.9
 51
0.0
  7
KANJI39
  0
TEXT
  8
0
  6
CONTINUOUS
 62
     2
 10
1746.385251001
 20
437.88
 30
2.4
 40
24.0
  1
８２３
 50
0.0
 41
0.9
 51
0.0
  7
KANJI39
  0
TEXT
  8
0
  6
CONTINUOUS
 62
     2
 10
1746.385251001
 20
381.88
 30
2.4
 40
24.0
  1
９５３
 50
0.0
 41
0.9
 51
0.0
  7
KANJI39
  0
ENDSEC
  0
EOF
