  0
SECTION
  2
HEADER
  9
$EXTMIN
 10
0.0
 20
0.0
 30
0.0
  9
$EXTMAX
 10
3360.0
 20
2376.0
 30
0.0
  9
$LIMMIN
 10
0.0
 20
0.0
  9
$LIMMAX
 10
3360.0
 20
2376.0
  9
$LTSCALE
 40
1.0
  9
$PDMODE
 70
     0
  0
ENDSEC
  0
SECTION
  2
TABLES
  0
TABLE
  2
LTYPE
 70
     4
  0
LTYPE
  2
CONTINUOUS
 70
    64
  3
Solid line
 72
    65
 73
     0
 40
0.0
  0
LTYPE
  2
LTYPE1
 70
    64
  3
HIDDEN
 72
    65
 73
     2
 40
24.0
 49
14.4
 49
-9.6
  0
LTYPE
  2
LTYPE2
 70
    64
  3
CENTER
 72
    65
 73
     4
 40
120.0
 49
84.0
 49
-12.0
 49
12.0
 49
-12.0
  0
LTYPE
  2
LTYPE3
 70
    64
  3
CENTER
 72
    65
 73
     4
 40
64.0
 49
44.8
 49
-6.4
 49
6.4
 49
-6.4
  0
ENDTAB
  0
TABLE
  2
LAYER
 70
   128
  0
LAYER
  2
0
 70
     0
 62
     7
  6
CONTINUOUS
  0
LAYER
  2
2
 70
     0
 62
     7
  6
CONTINUOUS
  0
LAYER
  2
3
 70
     0
 62
     7
  6
CONTINUOUS
  0
LAYER
  2
4
 70
     0
 62
     7
  6
CONTINUOUS
  0
LAYER
  2
5
 70
     0
 62
     7
  6
CONTINUOUS
  0
LAYER
  2
6
 70
     0
 62
     7
  6
CONTINUOUS
  0
LAYER
  2
7
 70
     0
 62
     7
  6
CONTINUOUS
  0
LAYER
  2
8
 70
     0
 62
     7
  6
CONTINUOUS
  0
LAYER
  2
9
 70
     0
 62
     7
  6
CONTINUOUS
  0
LAYER
  2
10
 70
     0
 62
     7
  6
CONTINUOUS
  0
LAYER
  2
11
 70
     0
 62
     7
  6
CONTINUOUS
  0
LAYER
  2
12
 70
     0
 62
     7
  6
CONTINUOUS
  0
LAYER
  2
13
 70
     0
 62
     7
  6
CONTINUOUS
  0
LAYER
  2
14
 70
     0
 62
     7
  6
CONTINUOUS
  0
LAYER
  2
15
 70
     0
 62
     7
  6
CONTINUOUS
  0
LAYER
  2
16
 70
     0
 62
     7
  6
CONTINUOUS
  0
LAYER
  2
17
 70
     0
 62
     7
  6
CONTINUOUS
  0
LAYER
  2
18
 70
     0
 62
     7
  6
CONTINUOUS
  0
LAYER
  2
19
 70
     0
 62
     7
  6
CONTINUOUS
  0
LAYER
  2
20
 70
     0
 62
     7
  6
CONTINUOUS
  0
LAYER
  2
21
 70
     0
 62
     7
  6
CONTINUOUS
  0
LAYER
  2
22
 70
     0
 62
     7
  6
CONTINUOUS
  0
LAYER
  2
23
 70
     0
 62
     7
  6
CONTINUOUS
  0
LAYER
  2
24
 70
     0
 62
     7
  6
CONTINUOUS
  0
LAYER
  2
25
 70
     0
 62
     7
  6
CONTINUOUS
  0
LAYER
  2
26
 70
     0
 62
     7
  6
CONTINUOUS
  0
LAYER
  2
27
 70
     0
 62
     7
  6
CONTINUOUS
  0
LAYER
  2
28
 70
     0
 62
     7
  6
CONTINUOUS
  0
LAYER
  2
29
 70
     0
 62
     7
  6
CONTINUOUS
  0
LAYER
  2
30
 70
     0
 62
     7
  6
CONTINUOUS
  0
LAYER
  2
31
 70
     0
 62
     7
  6
CONTINUOUS
  0
LAYER
  2
32
 70
     0
 62
     7
  6
CONTINUOUS
  0
LAYER
  2
33
 70
     0
 62
     7
  6
CONTINUOUS
  0
LAYER
  2
34
 70
     0
 62
     7
  6
CONTINUOUS
  0
LAYER
  2
35
 70
     0
 62
     7
  6
CONTINUOUS
  0
LAYER
  2
36
 70
     0
 62
     7
  6
CONTINUOUS
  0
LAYER
  2
37
 70
     0
 62
     7
  6
CONTINUOUS
  0
LAYER
  2
38
 70
     0
 62
     7
  6
CONTINUOUS
  0
LAYER
  2
39
 70
     0
 62
     7
  6
CONTINUOUS
  0
LAYER
  2
40
 70
     0
 62
     7
  6
CONTINUOUS
  0
LAYER
  2
41
 70
     0
 62
     7
  6
CONTINUOUS
  0
LAYER
  2
42
 70
     0
 62
     7
  6
CONTINUOUS
  0
LAYER
  2
43
 70
     0
 62
     7
  6
CONTINUOUS
  0
LAYER
  2
44
 70
     0
 62
     7
  6
CONTINUOUS
  0
LAYER
  2
45
 70
     0
 62
     7
  6
CONTINUOUS
  0
LAYER
  2
46
 70
     0
 62
     7
  6
CONTINUOUS
  0
LAYER
  2
47
 70
     0
 62
     7
  6
CONTINUOUS
  0
LAYER
  2
48
 70
     0
 62
     7
  6
CONTINUOUS
  0
LAYER
  2
49
 70
     0
 62
     7
  6
CONTINUOUS
  0
LAYER
  2
50
 70
     0
 62
     7
  6
CONTINUOUS
  0
LAYER
  2
51
 70
     0
 62
     7
  6
CONTINUOUS
  0
LAYER
  2
52
 70
     0
 62
     7
  6
CONTINUOUS
  0
LAYER
  2
53
 70
     0
 62
     7
  6
CONTINUOUS
  0
LAYER
  2
54
 70
     0
 62
     7
  6
CONTINUOUS
  0
LAYER
  2
55
 70
     0
 62
     7
  6
CONTINUOUS
  0
LAYER
  2
56
 70
     0
 62
     7
  6
CONTINUOUS
  0
LAYER
  2
57
 70
     0
 62
     7
  6
CONTINUOUS
  0
LAYER
  2
58
 70
     0
 62
     7
  6
CONTINUOUS
  0
LAYER
  2
59
 70
     0
 62
     7
  6
CONTINUOUS
  0
LAYER
  2
60
 70
     0
 62
     7
  6
CONTINUOUS
  0
LAYER
  2
61
 70
     0
 62
     7
  6
CONTINUOUS
  0
LAYER
  2
62
 70
     0
 62
     7
  6
CONTINUOUS
  0
LAYER
  2
63
 70
     0
 62
     7
  6
CONTINUOUS
  0
LAYER
  2
64
 70
     0
 62
     7
  6
CONTINUOUS
  0
LAYER
  2
65
 70
     0
 62
     7
  6
CONTINUOUS
  0
LAYER
  2
66
 70
     0
 62
     7
  6
CONTINUOUS
  0
LAYER
  2
67
 70
     0
 62
     7
  6
CONTINUOUS
  0
LAYER
  2
68
 70
     0
 62
     7
  6
CONTINUOUS
  0
LAYER
  2
69
 70
     0
 62
     7
  6
CONTINUOUS
  0
LAYER
  2
70
 70
     0
 62
     7
  6
CONTINUOUS
  0
LAYER
  2
71
 70
     0
 62
     7
  6
CONTINUOUS
  0
LAYER
  2
72
 70
     0
 62
     7
  6
CONTINUOUS
  0
LAYER
  2
73
 70
     0
 62
     7
  6
CONTINUOUS
  0
LAYER
  2
74
 70
     0
 62
     7
  6
CONTINUOUS
  0
LAYER
  2
75
 70
     0
 62
     7
  6
CONTINUOUS
  0
LAYER
  2
76
 70
     0
 62
     7
  6
CONTINUOUS
  0
LAYER
  2
77
 70
     0
 62
     7
  6
CONTINUOUS
  0
LAYER
  2
78
 70
     0
 62
     7
  6
CONTINUOUS
  0
LAYER
  2
79
 70
     0
 62
     7
  6
CONTINUOUS
  0
LAYER
  2
80
 70
     0
 62
     7
  6
CONTINUOUS
  0
LAYER
  2
81
 70
     0
 62
     7
  6
CONTINUOUS
  0
LAYER
  2
82
 70
     0
 62
     7
  6
CONTINUOUS
  0
LAYER
  2
83
 70
     0
 62
     7
  6
CONTINUOUS
  0
LAYER
  2
84
 70
     0
 62
     7
  6
CONTINUOUS
  0
LAYER
  2
85
 70
     0
 62
     7
  6
CONTINUOUS
  0
LAYER
  2
86
 70
     0
 62
     7
  6
CONTINUOUS
  0
LAYER
  2
87
 70
     0
 62
     7
  6
CONTINUOUS
  0
LAYER
  2
88
 70
     0
 62
     7
  6
CONTINUOUS
  0
LAYER
  2
89
 70
     0
 62
     7
  6
CONTINUOUS
  0
LAYER
  2
90
 70
     0
 62
     7
  6
CONTINUOUS
  0
LAYER
  2
91
 70
     0
 62
     7
  6
CONTINUOUS
  0
LAYER
  2
92
 70
     0
 62
     7
  6
CONTINUOUS
  0
LAYER
  2
93
 70
     0
 62
     7
  6
CONTINUOUS
  0
LAYER
  2
94
 70
     0
 62
     7
  6
CONTINUOUS
  0
LAYER
  2
95
 70
     0
 62
     7
  6
CONTINUOUS
  0
LAYER
  2
96
 70
     0
 62
     7
  6
CONTINUOUS
  0
LAYER
  2
97
 70
     0
 62
     7
  6
CONTINUOUS
  0
LAYER
  2
98
 70
     0
 62
     7
  6
CONTINUOUS
  0
LAYER
  2
99
 70
     0
 62
     7
  6
CONTINUOUS
  0
LAYER
  2
100
 70
     0
 62
     7
  6
CONTINUOUS
  0
LAYER
  2
101
 70
     0
 62
     7
  6
CONTINUOUS
  0
LAYER
  2
102
 70
     0
 62
     7
  6
CONTINUOUS
  0
LAYER
  2
103
 70
     0
 62
     7
  6
CONTINUOUS
  0
LAYER
  2
104
 70
     0
 62
     7
  6
CONTINUOUS
  0
LAYER
  2
105
 70
     0
 62
     7
  6
CONTINUOUS
  0
LAYER
  2
106
 70
     0
 62
     7
  6
CONTINUOUS
  0
LAYER
  2
107
 70
     0
 62
     7
  6
CONTINUOUS
  0
LAYER
  2
108
 70
     0
 62
     7
  6
CONTINUOUS
  0
LAYER
  2
109
 70
     0
 62
     7
  6
CONTINUOUS
  0
LAYER
  2
110
 70
     0
 62
     7
  6
CONTINUOUS
  0
LAYER
  2
111
 70
     0
 62
     7
  6
CONTINUOUS
  0
LAYER
  2
112
 70
     0
 62
     7
  6
CONTINUOUS
  0
LAYER
  2
113
 70
     0
 62
     7
  6
CONTINUOUS
  0
LAYER
  2
114
 70
     0
 62
     7
  6
CONTINUOUS
  0
LAYER
  2
115
 70
     0
 62
     7
  6
CONTINUOUS
  0
LAYER
  2
116
 70
     0
 62
     7
  6
CONTINUOUS
  0
LAYER
  2
117
 70
     0
 62
     7
  6
CONTINUOUS
  0
LAYER
  2
118
 70
     0
 62
     7
  6
CONTINUOUS
  0
LAYER
  2
119
 70
     0
 62
     7
  6
CONTINUOUS
  0
LAYER
  2
120
 70
     0
 62
     7
  6
CONTINUOUS
  0
LAYER
  2
121
 70
     0
 62
     7
  6
CONTINUOUS
  0
LAYER
  2
122
 70
     0
 62
     7
  6
CONTINUOUS
  0
LAYER
  2
123
 70
     0
 62
     7
  6
CONTINUOUS
  0
LAYER
  2
124
 70
     0
 62
     7
  6
CONTINUOUS
  0
LAYER
  2
125
 70
     0
 62
     7
  6
CONTINUOUS
  0
LAYER
  2
126
 70
     0
 62
     7
  6
CONTINUOUS
  0
LAYER
  2
127
 70
     0
 62
     7
  6
CONTINUOUS
  0
LAYER
  2
128
 70
     0
 62
     7
  6
CONTINUOUS
  0
ENDTAB
  0
TABLE
  2
STYLE
 70
    54
  0
STYLE
  2
STANDARD
 70
     0
 40
0.0
 41
1.0
 50
0.0
 71
     0
 42
0.2
  3
txt
  4

  0
STYLE
  2
KANJI0
 70
     0
 40
15.999996636
 41
0.6
 50
0.0
 71
     0
 42
15.999996636
  3

  4
bigfont
  0
STYLE
  2
KANJI1
 70
     0
 40
19.199995963
 41
0.9
 50
0.0
 71
     0
 42
19.199995963
  3

  4
bigfont
  0
STYLE
  2
KANJI2
 70
     0
 40
13.8666656
 41
0.6
 50
0.0
 71
     0
 42
13.8666656
  3

  4
bigfont
  0
STYLE
  2
KANJI3
 70
     0
 40
16.63999872
 41
0.6
 50
0.0
 71
     0
 42
16.63999872
  3

  4
bigfont
  0
STYLE
  2
KANJI4
 70
     0
 40
13.8666656
 41
0.8
 50
0.0
 71
     0
 42
13.8666656
  3

  4
bigfont
  0
STYLE
  2
KANJI5
 70
     0
 40
16.63999872
 41
0.8
 50
0.0
 71
     0
 42
16.63999872
  3

  4
bigfont
  0
STYLE
  2
KANJI6
 70
     0
 40
69.333328
 41
0.9
 50
0.0
 71
     0
 42
69.333328
  3

  4
bigfont
  0
STYLE
  2
KANJI7
 70
     0
 40
23.999994954
 41
0.9
 50
0.0
 71
     0
 42
23.999994954
  3

  4
bigfont
  0
STYLE
  2
KANJI8
 70
     0
 40
24.2666648
 41
0.42031746
 50
0.0
 71
     0
 42
24.2666648
  3

  4
bigfont
  0
STYLE
  2
KANJI9
 70
     0
 40
41.5999968
 41
0.9
 50
0.0
 71
     0
 42
41.5999968
  3

  4
bigfont
  0
STYLE
  2
KANJI10
 70
     0
 40
40.0
 41
1.0
 50
0.0
 71
     0
 42
40.0
  3

  4
bigfont
  0
STYLE
  2
KANJI11
 70
     0
 40
40.0
 41
1.0
 50
0.0
 71
     0
 42
40.0
  3

  4
bigfont
  0
STYLE
  2
KANJI12
 70
     0
 40
28.0
 41
0.857142857
 50
0.0
 71
     0
 42
28.0
  3

  4
bigfont
  0
STYLE
  2
KANJI13
 70
     0
 40
20.7999984
 41
0.75
 50
0.0
 71
     0
 42
20.7999984
  3

  4
bigfont
  0
STYLE
  2
KANJI14
 70
     0
 40
36.0
 41
0.666666667
 50
0.0
 71
     0
 42
36.0
  3

  4
bigfont
  0
STYLE
  2
KANJI15
 70
     0
 40
36.0
 41
0.9
 50
0.0
 71
     0
 42
36.0
  3

  4
bigfont
  0
STYLE
  2
KANJI16
 70
     0
 40
30.4
 41
0.9
 50
0.0
 71
     0
 42
30.4
  3

  4
bigfont
  0
STYLE
  2
KANJI17
 70
     0
 40
30.4
 41
0.9
 50
0.0
 71
     0
 42
30.4
  3

  4
bigfont
  0
STYLE
  2
KANJI18
 70
     0
 40
22.4
 41
0.8
 50
0.0
 71
     0
 42
22.4
  3

  4
bigfont
  0
STYLE
  2
KANJI19
 70
     0
 40
30.4
 41
0.9
 50
0.0
 71
     0
 42
30.4
  3

  4
bigfont
  0
STYLE
  2
KANJI20
 70
     0
 40
30.4
 41
0.9
 50
0.0
 71
     0
 42
30.4
  3

  4
bigfont
  0
STYLE
  2
KANJI21
 70
     0
 40
30.4
 41
0.9
 50
0.0
 71
     0
 42
30.4
  3

  4
bigfont
  0
STYLE
  2
KANJI22
 70
     0
 40
30.4
 41
0.9
 50
0.0
 71
     0
 42
30.4
  3

  4
bigfont
  0
STYLE
  2
KANJI23
 70
     0
 40
30.4
 41
0.9
 50
0.0
 71
     0
 42
30.4
  3

  4
bigfont
  0
STYLE
  2
KANJI24
 70
     0
 40
30.4
 41
0.9
 50
0.0
 71
     0
 42
30.4
  3

  4
bigfont
  0
STYLE
  2
KANJI25
 70
     0
 40
24.0
 41
0.9
 50
0.0
 71
     0
 42
24.0
  3

  4
bigfont
  0
STYLE
  2
KANJI26
 70
     0
 40
24.0
 41
0.9
 50
0.0
 71
     0
 42
24.0
  3

  4
bigfont
  0
STYLE
  2
KANJI27
 70
     0
 40
28.0
 41
0.9
 50
0.0
 71
     0
 42
28.0
  3

  4
bigfont
  0
STYLE
  2
KANJI28
 70
     0
 40
32.0
 41
1.0
 50
0.0
 71
     0
 42
32.0
  3

  4
bigfont
  0
STYLE
  2
KANJI29
 70
     0
 40
24.0
 41
0.833333333
 50
0.0
 71
     0
 42
24.0
  3

  4
bigfont
  0
STYLE
  2
KANJI30
 70
     0
 40
24.0
 41
0.9
 50
0.0
 71
     0
 42
24.0
  3

  4
bigfont
  0
STYLE
  2
KANJI31
 70
     0
 40
28.0
 41
0.914285714
 50
0.0
 71
     0
 42
28.0
  3

  4
bigfont
  0
STYLE
  2
KANJI32
 70
     0
 40
24.0
 41
0.833333333
 50
0.0
 71
     0
 42
24.0
  3

  4
bigfont
  0
STYLE
  2
KANJI33
 70
     0
 40
28.0
 41
0.793650794
 50
0.0
 71
     0
 42
28.0
  3

  4
bigfont
  0
STYLE
  2
KANJI34
 70
     0
 40
24.0
 41
1.0
 50
0.0
 71
     0
 42
24.0
  3

  4
bigfont
  0
STYLE
  2
KANJI35
 70
     0
 40
40.0
 41
0.8
 50
0.0
 71
     0
 42
40.0
  3

  4
bigfont
  0
STYLE
  2
KANJI36
 70
     0
 40
24.0
 41
0.9
 50
0.0
 71
     0
 42
24.0
  3

  4
bigfont
  0
STYLE
  2
KANJI37
 70
     0
 40
19.2
 41
0.777777778
 50
0.0
 71
     0
 42
19.2
  3

  4
bigfont
  0
STYLE
  2
KANJI38
 70
     0
 40
25.6
 41
0.9
 50
0.0
 71
     0
 42
25.6
  3

  4
bigfont
  0
STYLE
  2
KANJI39
 70
     0
 40
28.0
 41
0.9
 50
0.0
 71
     0
 42
28.0
  3

  4
bigfont
  0
STYLE
  2
KANJI40
 70
     0
 40
24.0
 41
0.833333333
 50
0.0
 71
     0
 42
24.0
  3

  4
bigfont
  0
STYLE
  2
KANJI41
 70
     0
 40
22.4
 41
0.9
 50
0.0
 71
     0
 42
22.4
  3

  4
bigfont
  0
STYLE
  2
KANJI42
 70
     0
 40
22.4
 41
0.785714286
 50
0.0
 71
     0
 42
22.4
  3

  4
bigfont
  0
STYLE
  2
KANJI43
 70
     0
 40
28.8
 41
0.9
 50
0.0
 71
     0
 42
28.8
  3

  4
bigfont
  0
STYLE
  2
KANJI44
 70
     0
 40
28.0
 41
0.857142857
 50
0.0
 71
     0
 42
28.0
  3

  4
bigfont
  0
STYLE
  2
KANJI45
 70
     0
 40
36.0
 41
0.888888889
 50
0.0
 71
     0
 42
36.0
  3

  4
bigfont
  0
STYLE
  2
KANJI46
 70
     0
 40
14.4
 41
0.833333333
 50
0.0
 71
     0
 42
14.4
  3

  4
bigfont
  0
STYLE
  2
KANJI47
 70
     0
 40
30.4
 41
0.9
 50
0.0
 71
     0
 42
30.4
  3

  4
bigfont
  0
STYLE
  2
KANJI48
 70
     0
 40
32.0
 41
0.925
 50
0.0
 71
     0
 42
32.0
  3

  4
bigfont
  0
STYLE
  2
KANJI49
 70
     0
 40
32.0
 41
0.925
 50
0.0
 71
     0
 42
32.0
  3

  4
bigfont
  0
STYLE
  2
KANJI50
 70
     0
 40
21.6
 41
0.9
 50
0.0
 71
     0
 42
21.6
  3

  4
bigfont
  0
STYLE
  2
KANJI51
 70
     0
 40
21.6
 41
0.9
 50
0.0
 71
     0
 42
21.6
  3

  4
bigfont
  0
STYLE
  2
KANJI52
 70
     0
 40
28.0
 41
0.571428571
 50
0.0
 71
     0
 42
28.0
  3

  4
bigfont
  0
ENDTAB
  0
TABLE
  2
VIEW
 70
     0
  0
ENDTAB
  0
ENDSEC
  0
SECTION
  2
BLOCKS
  0
ENDSEC
  0
SECTION
  2
ENTITIES
  0
LINE
  8
0
  6
CONTINUOUS
 62
     4
 10
3205.985251001
 20
-74.52
 11
2413.985251001
 21
-74.52
  0
LINE
  8
0
  6
CONTINUOUS
 62
     4
 10
3205.985251001
 20
-154.52
 11
2413.985251001
 21
-154.52
  0
TEXT
  8
0
  6
CONTINUOUS
 62
     4
 10
133.985245955
 20
117.47999159
 30
1.599999664
 40
15.999996636
  1
ＰＡＲＴＳ　ＬＩＳＴ
 50
0.0
 41
0.6
 51
0.0
  7
KANJI0
  0
TEXT
  8
0
  6
CONTINUOUS
 62
     4
 10
493.985170263
 20
117.47999159
 30
1.599999664
 40
15.999996636
  1
Ｎ０．
 50
0.0
 41
0.6
 51
0.0
  7
KANJI0
  0
TEXT
  8
0
  6
CONTINUOUS
 62
     4
 10
133.985245955
 20
93.479996636
 30
1.919999596
 40
19.199995963
  1
部品表
 50
0.0
 41
0.9
 51
0.0
  7
KANJI1
  0
TEXT
  8
0
  6
CONTINUOUS
 62
     4
 10
493.985170263
 20
93.479996636
 30
1.919999596
 40
19.199995963
  1
項番
 50
0.0
 41
0.9
 51
0.0
  7
KANJI1
  0
TEXT
  8
0
  6
CONTINUOUS
 62
     4
 10
2145.185332601
 20
226.5466552
 30
1.38666656
 40
13.8666656
  1
ＤＲＡＷＮ
 50
0.0
 41
0.6
 51
0.0
  7
KANJI2
  0
TEXT
  8
0
  6
CONTINUOUS
 62
     4
 10
2145.185332601
 20
282.0133176
 30
1.38666656
 40
13.8666656
  1
ＤＥＳＩＧＮ
 50
0.0
 41
0.6
 51
0.0
  7
KANJI2
  0
TEXT
  8
0
  6
CONTINUOUS
 62
     4
 10
2145.185332601
 20
337.47998
 30
1.38666656
 40
13.8666656
  1
ＣＨＥＣＫ
 50
0.0
 41
0.6
 51
0.0
  7
KANJI2
  0
TEXT
  8
0
  6
CONTINUOUS
 62
     4
 10
2145.185332601
 20
392.9466424
 30
1.38666656
 40
13.8666656
  1
ＣＯＤＥ
 50
0.0
 41
0.6
 51
0.0
  7
KANJI2
  0
LINE
  8
0
  6
CONTINUOUS
 62
     4
 10
2131.318667001
 20
306.2799824
 11
2384.385314201
 21
306.2799824
  0
LINE
  8
0
  6
CONTINUOUS
 62
     4
 10
2131.318667001
 20
250.81332
 11
2384.385314201
 21
250.81332
  0
LINE
  8
0
  6
CONTINUOUS
 62
     4
 10
2131.318667001
 20
361.7466448
 11
2384.385314201
 21
361.7466448
  0
LINE
  8
0
  6
CONTINUOUS
 62
     4
 10
2131.318667001
 20
417.2133072
 11
3199.051918201
 21
417.2133072
  0
TEXT
  8
0
  6
CONTINUOUS
 62
     4
 10
2145.185332601
 20
261.2133192
 30
1.663999872
 40
16.63999872
  1
設計
 50
0.0
 41
0.6
 51
0.0
  7
KANJI3
  0
TEXT
  8
0
  6
CONTINUOUS
 62
     4
 10
2145.185332601
 20
316.6799816
 30
1.663999872
 40
16.63999872
  1
検図
 50
0.0
 41
0.6
 51
0.0
  7
KANJI3
  0
TEXT
  8
0
  6
CONTINUOUS
 62
     4
 10
2145.185332601
 20
372.146644
 30
1.663999872
 40
16.63999872
  1
分類
 50
0.0
 41
0.6
 51
0.0
  7
KANJI3
  0
LINE
  8
0
  6
CONTINUOUS
 62
     4
 10
2404.838645961
 20
361.7466448
 11
3199.051918201
 21
361.7466448
  0
LINE
  8
0
  6
CONTINUOUS
 62
     4
 10
2384.385314201
 20
250.81332
 11
3199.051918201
 21
250.81332
  0
TEXT
  8
0
  6
CONTINUOUS
 62
     4
 10
2398.251979801
 20
226.5466552
 30
1.38666656
 40
13.8666656
  1
ＤＲＡＷＩＮＧ　ＮＯ．
 50
0.0
 41
0.8
 51
0.0
  7
KANJI4
  0
TEXT
  8
0
  6
CONTINUOUS
 62
     4
 10
2398.251979801
 20
282.0133176
 30
1.38666656
 40
13.8666656
  1
ＭＦＧ　ＮＯ．
 50
0.0
 41
0.8
 51
0.0
  7
KANJI4
  0
TEXT
  8
0
  6
CONTINUOUS
 62
     4
 10
2398.251979801
 20
337.47998
 30
1.38666656
 40
13.8666656
  1
ＴＹＰＥ
 50
0.0
 41
0.8
 51
0.0
  7
KANJI4
  0
LINE
  8
0
  6
CONTINUOUS
 62
     4
 10
2405.185312601
 20
306.2799824
 11
2724.118621401
 21
306.2799824
  0
TEXT
  8
0
  6
CONTINUOUS
 62
     4
 10
2398.251979801
 20
202.2799904
 30
1.663999872
 40
16.63999872
  1
図　面　番　号
 50
0.0
 41
0.8
 51
0.0
  7
KANJI5
  0
TEXT
  8
0
  6
CONTINUOUS
 62
     4
 10
2398.251979801
 20
257.7466528
 30
1.663999872
 40
16.63999872
  1
製番
 50
0.0
 41
0.8
 51
0.0
  7
KANJI5
  0
TEXT
  8
0
  6
CONTINUOUS
 62
     4
 10
2398.251979801
 20
313.2133152
 30
1.663999872
 40
16.63999872
  1
機種
 50
0.0
 41
0.8
 51
0.0
  7
KANJI5
  0
LINE
  8
0
  6
CONTINUOUS
 62
     4
 10
2131.318667001
 20
139.8799952
 11
2384.385314201
 21
139.8799952
  0
LINE
  8
0
  6
CONTINUOUS
 62
     4
 10
2131.318667001
 20
195.3466576
 11
2384.385314201
 21
195.3466576
  0
TEXT
  8
0
  6
CONTINUOUS
 62
     4
 10
2145.185332601
 20
115.6133304
 30
1.38666656
 40
13.8666656
  1
ＳＣＡＬＥ
 50
0.0
 41
0.6
 51
0.0
  7
KANJI2
  0
TEXT
  8
0
  6
CONTINUOUS
 62
     4
 10
2145.185332601
 20
171.0799928
 30
1.38666656
 40
13.8666656
  1
ＤＡＴＥ
 50
0.0
 41
0.6
 51
0.0
  7
KANJI2
  0
TEXT
  8
0
  6
CONTINUOUS
 62
     4
 10
2145.185332601
 20
94.813332
 30
1.663999872
 40
16.63999872
  1
尺度
 50
0.0
 41
0.6
 51
0.0
  7
KANJI3
  0
TEXT
  8
0
  6
CONTINUOUS
 62
     4
 10
2145.185332601
 20
150.2799944
 30
1.663999872
 40
16.63999872
  1
日付
 50
0.0
 41
0.6
 51
0.0
  7
KANJI3
  0
TEXT
  8
0
  6
CONTINUOUS
 62
     4
 10
2145.185332601
 20
205.7466568
 30
1.663999872
 40
16.63999872
  1
作図
 50
0.0
 41
0.6
 51
0.0
  7
KANJI3
  0
LINE
  8
0
  6
CONTINUOUS
 62
     4
 10
1739.585363801
 20
84.4133328
 11
1739.585363801
 21
139.8799952
  0
LINE
  8
0
  6
CONTINUOUS
 62
     4
 10
1801.985359001
 20
84.4133328
 11
1801.985359001
 21
139.8799952
  0
TEXT
  8
0
  6
CONTINUOUS
 62
     4
 10
1760.385362201
 20
115.6133304
 30
1.38666656
 40
13.8666656
  1
ＢＹ
 50
0.0
 41
0.6
 51
0.0
  7
KANJI2
  0
TEXT
  8
0
  6
CONTINUOUS
 62
     4
 10
1912.918683801
 20
115.6133304
 30
1.38666656
 40
13.8666656
  1
ＤＥＳＣＲＩＰＴＩＯＮ
 50
0.0
 41
0.6
 51
0.0
  7
KANJI2
  0
TEXT
  8
0
  6
CONTINUOUS
 62
     4
 10
1760.385362201
 20
94.813332
 30
1.663999872
 40
16.63999872
  1
担当
 50
0.0
 41
0.6
 51
0.0
  7
KANJI3
  0
TEXT
  8
0
  6
CONTINUOUS
 62
     4
 10
1933.718682201
 20
94.813332
 30
1.663999872
 40
16.63999872
  1
記　　　　事
 50
0.0
 41
0.6
 51
0.0
  7
KANJI3
  0
LINE
  8
0
  6
CONTINUOUS
 62
     4
 10
1613.052040201
 20
129.479996
 11
1590.518708601
 21
94.813332
  0
TEXT
  8
0
  6
CONTINUOUS
 62
     4
 10
1670.252035801
 20
115.6133304
 30
1.38666656
 40
13.8666656
  1
ＤＡＴＥ
 50
0.0
 41
0.6
 51
0.0
  7
KANJI2
  0
TEXT
  8
0
  6
CONTINUOUS
 62
     4
 10
1680.652035001
 20
94.813332
 30
1.663999872
 40
16.63999872
  1
日付
 50
0.0
 41
0.6
 51
0.0
  7
KANJI3
  0
LINE
  8
0
  6
CONTINUOUS
 62
     4
 10
1590.518708601
 20
94.813332
 11
1635.585371801
 21
94.813332
  0
LINE
  8
0
  6
CONTINUOUS
 62
     4
 10
1642.518704601
 20
84.4133328
 11
1642.518704601
 21
139.8799952
  0
LINE
  8
0
  6
CONTINUOUS
 62
     4
 10
1613.052040201
 20
129.479996
 11
1635.585371801
 21
94.813332
  0
LINE
  8
0
  6
CONTINUOUS
 62
     4
 10
2384.385314201
 20
171.0799928
 11
3199.051918201
 21
171.0799928
  0
LINE
  8
0
  6
LTYPE1
 62
     4
 10
2966.785269401
 20
181.479992
 11
2966.785269401
 21
236.9466544
  0
LINE
  8
0
  6
LTYPE1
 62
     4
 10
2918.251939801
 20
181.479992
 11
2918.251939801
 21
236.9466544
  0
LINE
  8
0
  6
LTYPE1
 62
     4
 10
2869.718610201
 20
181.479992
 11
2869.718610201
 21
236.9466544
  0
LINE
  8
0
  6
LTYPE1
 62
     4
 10
2821.185280601
 20
181.479992
 11
2821.185280601
 21
236.9466544
  0
LINE
  8
0
  6
LTYPE1
 62
     4
 10
2772.651951001
 20
181.479992
 11
2772.651951001
 21
236.9466544
  0
LINE
  8
0
  6
LTYPE1
 62
     4
 10
2724.118621401
 20
181.479992
 11
2724.118621401
 21
236.9466544
  0
LINE
  8
0
  6
LTYPE1
 62
     4
 10
2675.585291801
 20
181.479992
 11
2675.585291801
 21
236.9466544
  0
LINE
  8
0
  6
LTYPE1
 62
     4
 10
2627.051962201
 20
181.479992
 11
2627.051962201
 21
236.9466544
  0
LINE
  8
0
  6
LTYPE1
 62
     4
 10
2627.051962201
 20
236.9466544
 11
2966.785269401
 21
236.9466544
  0
LINE
  8
0
  6
LTYPE1
 62
     4
 10
2627.051962201
 20
181.479992
 11
2966.785269401
 21
181.479992
  0
LINE
  8
0
  6
CONTINUOUS
 62
     4
 10
3081.185260601
 20
190.146658
 11
3032.651931001
 21
190.146658
  0
LINE
  8
0
  6
CONTINUOUS
 62
     4
 10
3032.651931001
 20
190.146658
 11
3056.918595801
 21
231.7466548
  0
LINE
  8
0
  6
CONTINUOUS
 62
     4
 10
3056.918595801
 20
231.7466548
 11
3081.185260601
 21
190.146658
  0
TEXT
  8
0
  6
CONTINUOUS
 62
     4
 10
3088.118593401
 20
8.146672
 30
6.9333328
 40
69.333328
  1
／
 50
0.0
 41
0.9
 51
0.0
  7
KANJI6
  0
TEXT
  8
0
  6
CONTINUOUS
 62
     4
 10
2744.918619801
 20
337.47998
 30
1.38666656
 40
13.8666656
  1
ＴＩＴＬＥ
 50
0.0
 41
0.8
 51
0.0
  7
KANJI4
  0
TEXT
  8
0
  6
CONTINUOUS
 62
     4
 10
2744.918619801
 20
313.2133152
 30
1.663999872
 40
16.63999872
  1
名称
 50
0.0
 41
0.8
 51
0.0
  7
KANJI5
  0
LINE
  8
0
  6
CONTINUOUS
 62
     6
 10
109.985251001
 20
77.48
 11
109.985251001
 21
2229.48
  0
LINE
  8
0
  6
CONTINUOUS
 62
     6
 10
109.985251001
 20
2229.48
 11
3205.985251001
 21
2229.48
  0
LINE
  8
0
  6
CONTINUOUS
 62
     6
 10
3205.985251001
 20
2229.48
 11
3205.985251001
 21
77.48
  0
LINE
  8
0
  6
CONTINUOUS
 62
     6
 10
3205.985251001
 20
77.48
 11
109.985251001
 21
77.48
  0
LINE
  8
0
  6
CONTINUOUS
 62
     6
 10
637.985139986
 20
85.479998318
 11
637.985139986
 21
197.479974769
  0
LINE
  8
0
  6
CONTINUOUS
 62
     6
 10
117.985249319
 20
197.479974769
 11
637.985139986
 21
197.479974769
  0
LINE
  8
0
  6
CONTINUOUS
 62
     6
 10
117.985249319
 20
85.479998318
 11
637.985139986
 21
85.479998318
  0
LINE
  8
0
  6
CONTINUOUS
 62
     6
 10
117.985249319
 20
85.479998318
 11
117.985249319
 21
197.479974769
  0
LINE
  8
0
  6
CONTINUOUS
 62
     6
 10
477.985173627
 20
85.479998318
 11
477.985173627
 21
197.479974769
  0
LINE
  8
0
  6
CONTINUOUS
 62
     6
 10
117.985249319
 20
141.479986544
 11
637.985139986
 21
141.479986544
  0
TEXT
  8
0
  6
CONTINUOUS
 62
     3
 10
133.985245955
 20
157.479983179
 30
2.399999495
 40
23.999994954
  1
ＰＬ
 50
0.0
 41
0.9
 51
0.0
  7
KANJI7
  0
LINE
  8
0
  6
CONTINUOUS
 62
     6
 10
1583.585375801
 20
84.4133328
 11
1583.585375801
 21
139.8799952
  0
LINE
  8
0
  6
CONTINUOUS
 62
     6
 10
1583.585375801
 20
139.8799952
 11
2131.318667001
 21
139.8799952
  0
LINE
  8
0
  6
CONTINUOUS
 62
     6
 10
1583.585375801
 20
84.4133328
 11
3199.051918201
 21
84.4133328
  0
TEXT
  8
0
  6
CONTINUOUS
 62
     6
 10
2391.318647001
 20
115.6133304
 30
0.0
 40
24.2666648
  1
ＵＮＩＴＥＣ　ＩＮＤＵＳＴＲＹ　ＣＯ．，ＬＴＤ．
 50
0.0
 41
0.42031746
 51
0.0
  7
KANJI8
  0
TEXT
  8
0
  6
CONTINUOUS
 62
     6
 10
2731.658620821
 20
106.59999776
 30
4.15999968
 40
41.5999968
  1
ユニテック工業株式会社
 50
0.0
 41
0.9
 51
0.0
  7
KANJI9
  0
LINE
  8
0
  6
CONTINUOUS
 62
     4
 10
2994.518600601
 20
210.9466564
 11
3008.385266201
 21
210.9466564
  0
TEXT
  8
0
  6
CONTINUOUS
 62
     2
 10
2869.985251001
 20
261.48
 30
20.0
 40
40.0
  1
外形寸法図
 50
0.0
 41
1.0
 51
0.0
  7
KANJI10
  0
TEXT
  8
0
  6
CONTINUOUS
 62
     2
 10
2821.985251001
 20
309.48
 30
5.714285714
 40
40.0
  1
マイティシリンダ
 50
0.0
 41
1.0
 51
0.0
  7
KANJI11
  0
TEXT
  8
0
  6
CONTINUOUS
 62
     3
 10
2220.651962201
 20
209.479992
 30
24.0
 40
28.0
  1
岡田
 50
0.0
 41
0.857142857
 51
0.0
  7
KANJI12
  0
LINE
  8
0
  6
CONTINUOUS
 62
     4
 10
18.918583801
 20
83.4133328
 11
102.118577401
 21
83.4133328
  0
LINE
  8
0
  6
CONTINUOUS
 62
     4
 10
18.918583801
 20
125.0133296
 11
102.118577401
 21
125.0133296
  0
LINE
  8
0
  6
CONTINUOUS
 62
     4
 10
18.918583801
 20
166.6133264
 11
102.118577401
 21
166.6133264
  0
LINE
  8
0
  6
CONTINUOUS
 62
     4
 10
18.918583801
 20
208.2133232
 11
102.118577401
 21
208.2133232
  0
LINE
  8
0
  6
CONTINUOUS
 62
     4
 10
18.918583801
 20
249.81332
 11
102.118577401
 21
249.81332
  0
LINE
  8
0
  6
CONTINUOUS
 62
     4
 10
18.918583801
 20
291.4133168
 11
102.118577401
 21
291.4133168
  0
LINE
  8
0
  6
CONTINUOUS
 62
     4
 10
18.918583801
 20
333.0133136
 11
102.118577401
 21
333.0133136
  0
LINE
  8
0
  6
CONTINUOUS
 62
     4
 10
18.918583801
 20
374.6133104
 11
102.118577401
 21
374.6133104
  0
LINE
  8
0
  6
CONTINUOUS
 62
     4
 10
18.918583801
 20
416.2133072
 11
102.118577401
 21
416.2133072
  0
LINE
  8
0
  6
CONTINUOUS
 62
     4
 10
18.918583801
 20
457.813304
 11
102.118577401
 21
457.813304
  0
LINE
  8
0
  6
CONTINUOUS
 62
     4
 10
102.118577401
 20
83.4133328
 11
102.118577401
 21
457.813304
  0
LINE
  8
0
  6
CONTINUOUS
 62
     4
 10
60.518580601
 20
83.4133328
 11
60.518580601
 21
416.2133072
  0
TEXT
  8
0
  6
CONTINUOUS
 62
     4
 10
33.131916041
 20
95.5466652
 30
2.07999984
 40
20.7999984
  1
計
 50
0.0
 41
0.75
 51
0.0
  7
KANJI13
  0
TEXT
  8
0
  6
CONTINUOUS
 62
     4
 10
33.131916041
 20
179.43999208
 30
2.07999984
 40
20.7999984
  1
設
 50
0.0
 41
0.75
 51
0.0
  7
KANJI13
  0
TEXT
  8
0
  6
CONTINUOUS
 62
     4
 10
33.131916041
 20
220.3466556
 30
2.07999984
 40
20.7999984
  1
管
 50
0.0
 41
0.75
 51
0.0
  7
KANJI13
  0
TEXT
  8
0
  6
CONTINUOUS
 62
     4
 10
33.131916041
 20
261.9466524
 30
2.07999984
 40
20.7999984
  1
製
 50
0.0
 41
0.75
 51
0.0
  7
KANJI13
  0
TEXT
  8
0
  6
CONTINUOUS
 62
     4
 10
33.131916041
 20
303.5466492
 30
2.07999984
 40
20.7999984
  1
資
 50
0.0
 41
0.75
 51
0.0
  7
KANJI13
  0
TEXT
  8
0
  6
CONTINUOUS
 62
     4
 10
33.131916041
 20
345.146646
 30
2.07999984
 40
20.7999984
  1
営
 50
0.0
 41
0.75
 51
0.0
  7
KANJI13
  0
TEXT
  8
0
  6
CONTINUOUS
 62
     4
 10
33.131916041
 20
386.7466428
 30
2.07999984
 40
20.7999984
  1
客
 50
0.0
 41
0.75
 51
0.0
  7
KANJI13
  0
TEXT
  8
0
  6
CONTINUOUS
 62
     4
 10
32.785249401
 20
430.0799728
 30
2.07999984
 40
20.7999984
  1
出　図
 50
0.0
 41
0.75
 51
0.0
  7
KANJI13
  0
LINE
  8
0
  6
CONTINUOUS
 62
     4
 10
18.918583801
 20
83.4133328
 11
18.918583801
 21
457.813304
  0
LINE
  8
0
  6
CONTINUOUS
 62
     6
 10
2132.318667001
 20
472.6799696
 11
3200.051918201
 21
472.6799696
  0
LINE
  8
0
  6
CONTINUOUS
 62
     6
 10
3199.051918201
 20
84.4133328
 11
3199.051918201
 21
528.146632
  0
LINE
  8
0
  6
CONTINUOUS
 62
     6
 10
2131.318667001
 20
528.146632
 11
3199.051918201
 21
528.146632
  0
LINE
  8
0
  6
CONTINUOUS
 62
     6
 10
2131.318667001
 20
84.4133328
 11
2131.318667001
 21
528.146632
  0
TEXT
  8
0
  6
CONTINUOUS
 62
     3
 10
2253.585251001
 20
93.48
 30
2.4
 40
36.0
  1
１／８
 50
0.0
 41
0.666666667
 51
0.0
  7
KANJI14
  0
LINE
  8
0
  6
CONTINUOUS
 62
     1
 10
2504.8
 20
2034.0
 11
2504.8
 21
1058.0
  0
TEXT
  8
0
  6
CONTINUOUS
 62
     2
 10
2604.8
 20
1975.6
 30
22.79952
 40
36.0
  1
マイティシリンダ仕様
 50
0.0
 41
0.9
 51
0.0
  7
KANJI15
  0
LINE
  8
0
  6
CONTINUOUS
 62
     2
 10
2504.8
 20
1170.0
 11
3204.8
 21
1170.0
  0
LINE
  8
0
  6
CONTINUOUS
 62
     2
 10
2504.8
 20
1618.0
 11
3204.8
 21
1618.0
  0
LINE
  8
0
  6
CONTINUOUS
 62
     2
 10
2504.8
 20
1562.0
 11
3204.8
 21
1562.0
  0
LINE
  8
0
  6
CONTINUOUS
 62
     2
 10
2504.8
 20
1506.0
 11
3204.8
 21
1506.0
  0
LINE
  8
0
  6
CONTINUOUS
 62
     2
 10
2504.8
 20
1898.0
 11
3204.8
 21
1898.0
  0
LINE
  8
0
  6
CONTINUOUS
 62
     2
 10
2504.8
 20
1842.0
 11
3204.8
 21
1842.0
  0
LINE
  8
0
  6
CONTINUOUS
 62
     2
 10
2504.8
 20
1786.0
 11
3204.8
 21
1786.0
  0
LINE
  8
0
  6
CONTINUOUS
 62
     2
 10
2504.8
 20
1730.0
 11
3204.8
 21
1730.0
  0
LINE
  8
0
  6
CONTINUOUS
 62
     2
 10
2504.8
 20
1674.0
 11
3204.8
 21
1674.0
  0
LINE
  8
0
  6
CONTINUOUS
 62
     2
 10
2504.8
 20
1954.0
 11
3204.8
 21
1954.0
  0
TEXT
  8
0
  6
CONTINUOUS
 62
     2
 10
2564.8
 20
1912.4
 30
240.594285714
 40
30.4
  1
形式
 50
0.0
 41
0.9
 51
0.0
  7
KANJI16
  0
TEXT
  8
0
  6
CONTINUOUS
 62
     2
 10
2564.8
 20
1856.4
 30
240.594285714
 40
30.4
  1
推力
 50
0.0
 41
0.9
 51
0.0
  7
KANJI16
  0
TEXT
  8
0
  6
CONTINUOUS
 62
     2
 10
2564.8
 20
1744.4
 30
61.957805714
 40
30.4
  1
公称速度
 50
0.0
 41
0.9
 51
0.0
  7
KANJI17
  0
TEXT
  8
0
  6
CONTINUOUS
 62
     2
 10
3155.6
 20
1803.6
 30
0.1792
 40
22.4
  1
ｍｍ
 50
0.0
 41
0.8
 51
0.0
  7
KANJI18
  0
TEXT
  8
0
  6
CONTINUOUS
 62
     2
 10
3095.6
 20
1750.0
 30
0.1792
 40
22.4
  1
ｍｍ／ｓｅｃ
 50
0.0
 41
0.8
 51
0.0
  7
KANJI18
  0
LINE
  8
0
  6
CONTINUOUS
 62
     2
 10
2504.8
 20
1450.0
 11
3204.8
 21
1450.0
  0
LINE
  8
0
  6
CONTINUOUS
 62
     2
 10
2504.8
 20
1394.0
 11
3204.8
 21
1394.0
  0
LINE
  8
0
  6
CONTINUOUS
 62
     2
 10
2504.8
 20
1338.0
 11
3204.8
 21
1338.0
  0
LINE
  8
0
  6
CONTINUOUS
 62
     2
 10
2504.8
 20
1282.0
 11
3204.8
 21
1282.0
  0
LINE
  8
0
  6
CONTINUOUS
 62
     2
 10
2504.8
 20
1226.0
 11
3204.8
 21
1226.0
  0
TEXT
  8
0
  6
CONTINUOUS
 62
     2
 10
2540.8
 20
1464.4
 30
2.605714286
 40
30.4
  1
ピストンロッド回転トルク
 50
0.0
 41
0.9
 51
0.0
  7
KANJI19
  0
TEXT
  8
0
  6
CONTINUOUS
 62
     2
 10
2564.8
 20
1408.4
 30
240.594285714
 40
30.4
  1
構造
 50
0.0
 41
0.9
 51
0.0
  7
KANJI16
  0
TEXT
  8
0
  6
CONTINUOUS
 62
     2
 10
2564.8
 20
1688.4
 30
106.617142857
 40
30.4
  1
減速比
 50
0.0
 41
0.9
 51
0.0
  7
KANJI20
  0
TEXT
  8
0
  6
CONTINUOUS
 62
     2
 10
2564.8
 20
1632.4
 30
6.8
 40
30.4
  1
進み量／入力１回転
 50
0.0
 41
0.9
 51
0.0
  7
KANJI21
  0
TEXT
  8
0
  6
CONTINUOUS
 62
     2
 10
2564.8
 20
1575.6
 30
240.594285714
 40
30.4
  1
効率
 50
0.0
 41
0.9
 51
0.0
  7
KANJI16
  0
TEXT
  8
0
  6
CONTINUOUS
 62
     2
 10
2564.8
 20
1521.2
 30
11.6
 40
30.4
  1
使用時入力トルク
 50
0.0
 41
0.9
 51
0.0
  7
KANJI22
  0
TEXT
  8
0
  6
CONTINUOUS
 62
     2
 10
2564.8
 20
1352.4
 30
61.96
 40
30.4
  1
ギヤ方式
 50
0.0
 41
0.9
 51
0.0
  7
KANJI23
  0
LINE
  8
0
  6
CONTINUOUS
 62
     2
 10
2504.8
 20
1114.0
 11
3204.8
 21
1114.0
  0
LINE
  8
0
  6
CONTINUOUS
 62
     2
 10
2904.8
 20
1954.0
 11
2904.8
 21
1058.0
  0
TEXT
  8
0
  6
CONTINUOUS
 62
     2
 10
2564.8
 20
1184.4
 30
106.617142857
 40
30.4
  1
塗装色
 50
0.0
 41
0.9
 51
0.0
  7
KANJI20
  0
TEXT
  8
0
  6
CONTINUOUS
 62
     2
 10
2564.8
 20
1128.4
 30
106.617142857
 40
30.4
  1
付属品
 50
0.0
 41
0.9
 51
0.0
  7
KANJI20
  0
TEXT
  8
0
  6
CONTINUOUS
 62
     2
 10
2564.8
 20
1072.4
 30
240.594285714
 40
30.4
  1
台数
 50
0.0
 41
0.9
 51
0.0
  7
KANJI16
  0
TEXT
  8
0
  6
CONTINUOUS
 62
     2
 10
2564.8
 20
1240.4
 30
240.594285714
 40
30.4
  1
潤滑
 50
0.0
 41
0.9
 51
0.0
  7
KANJI16
  0
TEXT
  8
0
  6
CONTINUOUS
 62
     2
 10
2564.8
 20
1296.4
 30
17.4136
 40
30.4
  1
スクリュー方式
 50
0.0
 41
0.9
 51
0.0
  7
KANJI24
  0
TEXT
  8
0
  6
CONTINUOUS
 62
     2
 10
3017.6
 20
1689.2
 30
2.4
 40
24.0
  1
２　：　１
 50
0.0
 41
0.9
 51
0.0
  7
KANJI25
  0
TEXT
  8
0
  6
CONTINUOUS
 62
     2
 10
3155.6
 20
1635.6
 30
0.1792
 40
22.4
  1
ｍｍ
 50
0.0
 41
0.8
 51
0.0
  7
KANJI18
  0
TEXT
  8
0
  6
CONTINUOUS
 62
     2
 10
2928.0
 20
1578.0
 30
16.0
 40
24.0
  1
約
 50
0.0
 41
0.9
 51
0.0
  7
KANJI26
  0
TEXT
  8
0
  6
CONTINUOUS
 62
     2
 10
2928.0
 20
1522.0
 30
16.0
 40
24.0
  1
約
 50
0.0
 41
0.9
 51
0.0
  7
KANJI26
  0
TEXT
  8
0
  6
CONTINUOUS
 62
     2
 10
2928.0
 20
1466.0
 30
16.0
 40
24.0
  1
約
 50
0.0
 41
0.9
 51
0.0
  7
KANJI26
  0
TEXT
  8
0
  6
CONTINUOUS
 62
     2
 10
3164.8
 20
1577.2
 30
16.0
 40
24.0
  1
％
 50
0.0
 41
0.9
 51
0.0
  7
KANJI26
  0
TEXT
  8
0
  6
CONTINUOUS
 62
     2
 10
2964.0
 20
1356.4
 30
16.0
 40
24.0
  1
ベベルギヤ
 50
0.0
 41
0.9
 51
0.0
  7
KANJI26
  0
TEXT
  8
0
  6
CONTINUOUS
 62
     2
 10
2964.0
 20
1298.8
 30
16.0
 40
24.0
  1
ボールネジ
 50
0.0
 41
0.9
 51
0.0
  7
KANJI26
  0
TEXT
  8
0
  6
CONTINUOUS
 62
     2
 10
2963.2
 20
1242.8
 30
16.0
 40
24.0
  1
グリース方式
 50
0.0
 41
0.9
 51
0.0
  7
KANJI26
  0
TEXT
  8
0
  6
CONTINUOUS
 62
     2
 10
3046.4
 20
1578.0
 30
16.0
 40
24.0
  1
８５
 50
0.0
 41
0.9
 51
0.0
  7
KANJI26
  0
TEXT
  8
0
  6
CONTINUOUS
 62
     2
 10
2932.6
 20
1744.2
 30
2.4
 40
24.0
  1
ｍａｘ．１５０
 50
0.0
 41
0.9
 51
0.0
  7
KANJI25
  0
TEXT
  8
0
  6
CONTINUOUS
 62
     2
 10
3053.6
 20
1634.0
 30
16.0
 40
24.0
  1
８　
 50
0.0
 41
0.9
 51
0.0
  7
KANJI26
  0
TEXT
  8
0
  6
CONTINUOUS
 62
     2
 10
2964.0
 20
1409.2
 30
20.5
 40
28.0
  1
全閉屋外形
 50
0.0
 41
0.9
 51
0.0
  7
KANJI27
  0
LINE
  8
0
  6
CONTINUOUS
 62
     1
 10
2504.8
 20
2034.0
 11
3204.8
 21
2034.0
  0
LINE
  8
0
  6
CONTINUOUS
 62
     1
 10
3204.8
 20
2034.0
 11
3204.8
 21
1058.0
  0
LINE
  8
0
  6
CONTINUOUS
 62
     1
 10
2504.8
 20
1058.0
 11
3204.8
 21
1058.0
  0
TEXT
  8
0
  6
CONTINUOUS
 62
     2
 10
2914.154
 20
1856.4
 30
2.4
 40
24.0
  1
１９６ＫＮ（２０ｔｏｎ）
 50
0.0
 41
0.9
 51
0.0
  7
KANJI25
  0
TEXT
  8
0
  6
CONTINUOUS
 62
     2
 10
2998.093
 20
1131.63
 30
2.4
 40
24.0
  1
入力キー
 50
0.0
 41
0.9
 51
0.0
  7
KANJI25
  0
LINE
  8
0
  6
CONTINUOUS
 62
     4
 10
2384.385314201
 20
84.4133328
 11
2384.385314201
 21
528.146632
  0
TEXT
  8
0
  6
CONTINUOUS
 62
     4
 10
2155.985251001
 20
480.9466624
 30
8.0
 40
32.0
  1
ご用途
 50
0.0
 41
1.0
 51
0.0
  7
KANJI28
  0
TEXT
  8
0
  6
CONTINUOUS
 62
     4
 10
2155.985251001
 20
425.48
 30
8.0
 40
32.0
  1
ご注文主
 50
0.0
 41
1.0
 51
0.0
  7
KANJI28
  0
LINE
  8
0
  6
CONTINUOUS
 62
     6
 10
2676.553566737
 20
122.127997312
 11
2658.249568145
 21
122.127997312
  0
LINE
  8
0
  6
CONTINUOUS
 62
     6
 10
2676.553566737
 20
125.455997056
 11
2658.249568145
 21
125.455997056
  0
LINE
  8
0
  6
CONTINUOUS
 62
     6
 10
2676.553566737
 20
122.127997312
 11
2694.857565329
 21
122.127997312
  0
LINE
  8
0
  6
CONTINUOUS
 62
     6
 10
2676.553566737
 20
125.455997056
 11
2694.857565329
 21
125.455997056
  0
LINE
  8
0
  6
CONTINUOUS
 62
     6
 10
2694.857565329
 20
125.455997056
 11
2694.857565329
 21
122.127997312
  0
ARC
  8
0
  6
CONTINUOUS
 62
     6
 10
2699.017565009
 20
123.791997184
 40
16.63999872
 50
185.739170477
 51
90.0
  0
ARC
  8
0
  6
CONTINUOUS
 62
     6
 10
2699.017565009
 20
123.791997184
 40
19.967998464
 50
184.780191847
 51
90.0
  0
LINE
  8
0
  6
CONTINUOUS
 62
     6
 10
2658.249568145
 20
122.127997312
 11
2658.249568145
 21
125.455997056
  0
LINE
  8
0
  6
CONTINUOUS
 62
     6
 10
2674.057566929
 20
143.759995648
 11
2654.089568465
 21
143.759995648
  0
LINE
  8
0
  6
CONTINUOUS
 62
     6
 10
2679.049566545
 20
143.759995648
 11
2699.017565009
 21
143.759995648
  0
ARC
  8
0
  6
CONTINUOUS
 62
     6
 10
2654.089568465
 20
123.791997184
 40
16.63999872
 50
90.0
 51
354.260829523
  0
ARC
  8
0
  6
CONTINUOUS
 62
     6
 10
2654.089568465
 20
123.791997184
 40
19.967998464
 50
90.0
 51
355.219808153
  0
LINE
  8
0
  6
CONTINUOUS
 62
     6
 10
2674.057566929
 20
143.759995648
 11
2674.057566929
 21
140.431995904
  0
LINE
  8
0
  6
CONTINUOUS
 62
     6
 10
2654.089568465
 20
140.431995904
 11
2674.057566929
 21
140.431995904
  0
LINE
  8
0
  6
CONTINUOUS
 62
     6
 10
2679.049566545
 20
143.759995648
 11
2679.049566545
 21
140.431995904
  0
LINE
  8
0
  6
CONTINUOUS
 62
     6
 10
2699.017565009
 20
140.431995904
 11
2679.049566545
 21
140.431995904
  0
LINE
  8
7
  6
CONTINUOUS
 62
     2
 10
1606.2
 20
1214.8
 11
1611.376380902
 21
1234.118516526
  0
LINE
  8
7
  6
CONTINUOUS
 62
     2
 10
1606.2
 20
1214.8
 11
1601.023619098
 21
1234.118516526
  0
LINE
  8
7
  6
CONTINUOUS
 62
     2
 10
1606.2
 20
1214.8
 11
1606.2
 21
1444.8
  0
LINE
  8
7
  6
CONTINUOUS
 62
     2
 10
1606.2
 20
1444.8
 11
1601.023619098
 21
1425.481483474
  0
LINE
  8
7
  6
CONTINUOUS
 62
     2
 10
1606.2
 20
1444.8
 11
1611.376380902
 21
1425.481483474
  0
TEXT
  8
7
  6
CONTINUOUS
 62
     2
 10
1598.2
 20
1338.6
 30
0.8
 40
24.0
  1
φ２３０
 50
90.0
 41
0.833333333
 51
0.0
  7
KANJI29
  0
LINE
  8
0
  6
LTYPE2
 62
     2
 10
1819.2
 20
1393.9
 11
1819.2
 21
1229.8
  0
LINE
  8
0
  6
CONTINUOUS
 62
     1
 10
1551.2
 20
1329.8
 11
1551.2
 21
1234.45
  0
LINE
  8
0
  6
CONTINUOUS
 62
     1
 10
1511.2
 20
1329.8
 11
1511.2
 21
1234.45
  0
LINE
  8
0
  6
CONTINUOUS
 62
     1
 10
1551.2
 20
1264.8
 11
1689.2
 21
1264.8
  0
LINE
  8
0
  6
CONTINUOUS
 62
     1
 10
1664.6
 20
1397.2
 11
1651.84561844
 21
1444.8
  0
LINE
  8
0
  6
CONTINUOUS
 62
     1
 10
1651.84561844
 20
1444.8
 11
1647.384264386
 21
1428.15
  0
LINE
  8
0
  6
CONTINUOUS
 62
     1
 10
1664.6
 20
1262.4
 11
1651.84561844
 21
1214.8
  0
LINE
  8
0
  6
CONTINUOUS
 62
     1
 10
1651.84561844
 20
1214.8
 11
1647.384264386
 21
1231.45
  0
LINE
  8
0
  6
CONTINUOUS
 62
     1
 10
1688.6
 20
1262.4
 11
1664.6
 21
1262.4
  0
LINE
  8
0
  6
CONTINUOUS
 62
     1
 10
1689.2
 20
1264.8
 11
1689.2
 21
1397.2
  0
LINE
  8
0
  6
CONTINUOUS
 62
     1
 10
1689.2
 20
1397.2
 11
1664.6
 21
1397.2
  0
LINE
  8
0
  6
CONTINUOUS
 62
     1
 10
1540.706802321
 20
1444.8
 11
1540.706802321
 21
1337.8
  0
LINE
  8
0
  6
CONTINUOUS
 62
     1
 10
1536.5
 20
1429.1
 11
1540.706802321
 21
1444.8
  0
LINE
  8
0
  6
CONTINUOUS
 62
     1
 10
1540.706802321
 20
1444.8
 11
1545.168156375
 21
1428.15
  0
LINE
  8
0
  6
LTYPE2
 62
     2
 10
1545.168156375
 20
1428.15
 11
1643.1
 21
1428.15
  0
LINE
  8
0
  6
LTYPE2
 62
     2
 10
1540.706802321
 20
1444.8
 11
1650.1
 21
1444.8
  0
LINE
  8
0
  6
CONTINUOUS
 62
     1
 10
1536.5
 20
1230.5
 11
1540.706802321
 21
1214.8
  0
LINE
  8
0
  6
CONTINUOUS
 62
     1
 10
1540.706802321
 20
1214.8
 11
1545.168156375
 21
1231.45
  0
LINE
  8
0
  6
LTYPE2
 62
     2
 10
1545.168156375
 20
1231.45
 11
1647.384264386
 21
1231.45
  0
LINE
  8
0
  6
LTYPE2
 62
     2
 10
1540.706802321
 20
1214.8
 11
1651.84561844
 21
1214.8
  0
LINE
  8
0
  6
CONTINUOUS
 62
     1
 10
1521.7
 20
1429.1
 11
1536.7
 21
1429.1
  0
LINE
  8
0
  6
CONTINUOUS
 62
     1
 10
1521.7
 20
1230.5
 11
1536.7
 21
1230.5
  0
LINE
  8
0
  6
CONTINUOUS
 62
     1
 10
1521.7
 20
1329.8
 11
1521.7
 21
1429.1
  0
LINE
  8
0
  6
CONTINUOUS
 62
     1
 10
1536.7
 20
1329.8
 11
1536.7
 21
1429.1
  0
LINE
  8
0
  6
CONTINUOUS
 62
     1
 10
1540.706802321
 20
1329.8
 11
1540.706802321
 21
1428.15
  0
LINE
  8
0
  6
CONTINUOUS
 62
     1
 10
1545.168156375
 20
1428.15
 11
1545.168156375
 21
1329.8
  0
LINE
  8
0
  6
CONTINUOUS
 62
     1
 10
1651.84561844
 20
1444.8
 11
1651.84561844
 21
1329.8
  0
LINE
  8
0
  6
CONTINUOUS
 62
     1
 10
1647.384264386
 20
1428.15
 11
1647.384264386
 21
1329.8
  0
LINE
  8
0
  6
CONTINUOUS
 62
     1
 10
1664.6
 20
1397.2
 11
1664.6
 21
1329.8
  0
LINE
  8
0
  6
CONTINUOUS
 62
     1
 10
1699.2
 20
1369.8
 11
1884.2
 21
1369.8
  0
LINE
  8
0
  6
CONTINUOUS
 62
     1
 10
1699.2
 20
1369.8
 11
1699.2
 21
1393.8
  0
LINE
  8
0
  6
CONTINUOUS
 62
     1
 10
1689.2
 20
1393.8
 11
1699.2
 21
1393.8
  0
LINE
  8
0
  6
CONTINUOUS
 62
     1
 10
1699.2
 20
1289.8
 11
1884.2
 21
1289.8
  0
LINE
  8
0
  6
CONTINUOUS
 62
     1
 10
1699.2
 20
1265.8
 11
1699.2
 21
1289.8
  0
LINE
  8
0
  6
CONTINUOUS
 62
     1
 10
1689.2
 20
1265.8
 11
1699.2
 21
1265.8
  0
LINE
  8
0
  6
LTYPE1
 62
     2
 10
1787.7
 20
1289.8
 11
1787.7
 21
1369.8
  0
LINE
  8
0
  6
LTYPE1
 62
     2
 10
1850.7
 20
1289.8
 11
1850.7
 21
1369.8
  0
LINE
  8
0
  6
CONTINUOUS
 62
     1
 10
1884.2
 20
1289.8
 11
1884.2
 21
1369.8
  0
LINE
  8
0
  6
CONTINUOUS
 62
     1
 10
1869.2
 20
1289.8
 11
1869.2
 21
1369.8
  0
LINE
  8
0
  6
CONTINUOUS
 62
     1
 10
730.6
 20
1425.15
 11
1521.7
 21
1425.15
  0
LINE
  8
0
  6
CONTINUOUS
 62
     1
 10
730.6
 20
1234.45
 11
1551.2
 21
1234.45
  0
LINE
  8
0
  6
CONTINUOUS
 62
     1
 10
520.6
 20
1179.9
 11
520.6
 21
1479.9
  0
LINE
  8
0
  6
CONTINUOUS
 62
     1
 10
520.6
 20
1189.9
 11
545.6
 21
1189.9
  0
POINT
  8
0
  6
CONTINUOUS
 62
     1
 10
545.6
 20
1221.4
  0
POINT
  8
0
  6
CONTINUOUS
 62
     1
 10
545.6
 20
1193.4
  0
LINE
  8
0
  6
CONTINUOUS
 62
     1
 10
520.6
 20
1469.9
 11
545.6
 21
1469.9
  0
POINT
  8
0
  6
CONTINUOUS
 62
     1
 10
545.6
 20
1438.4
  0
POINT
  8
0
  6
CONTINUOUS
 62
     1
 10
545.6
 20
1466.4
  0
LINE
  8
0
  6
CONTINUOUS
 62
     1
 10
545.6
 20
1189.9
 11
545.6
 21
1469.9
  0
LINE
  8
0
  6
LTYPE2
 62
     2
 10
645.6
 20
1307.9
 11
645.6
 21
1354.9
  0
CIRCLE
  8
0
  6
LTYPE2
 62
     2
 10
645.6
 20
1329.9
 40
5.0
  0
CIRCLE
  8
0
  6
LTYPE2
 62
     2
 10
645.6
 20
1329.9
 40
10.0
  0
LINE
  8
0
  6
CONTINUOUS
 62
     1
 10
335.6
 20
1564.9
 11
445.6
 21
1564.9
  0
LINE
  8
0
  6
CONTINUOUS
 62
     1
 10
445.6
 20
1564.9
 11
445.6
 21
1512.9
  0
LINE
  8
0
  6
CONTINUOUS
 62
     1
 10
335.6
 20
1564.9
 11
335.6
 21
1512.9
  0
LINE
  8
0
  6
CONTINUOUS
 62
     1
 10
306.6
 20
1482.9
 11
306.6
 21
1512.9
  0
LINE
  8
0
  6
CONTINUOUS
 62
     1
 10
474.6
 20
1482.9
 11
474.6
 21
1512.9
  0
LINE
  8
0
  6
CONTINUOUS
 62
     1
 10
306.6
 20
1512.9
 11
474.6
 21
1512.9
  0
LINE
  8
0
  6
CONTINUOUS
 62
     1
 10
303.6
 20
1482.9
 11
477.6
 21
1482.9
  0
ARC
  8
0
  6
CONTINUOUS
 62
     1
 10
390.6
 20
1602.092471126
 40
150.0
 50
234.549457361
 51
305.450542639
  0
LINE
  8
0
  6
CONTINUOUS
 62
     1
 10
303.6
 20
1482.9
 11
303.6
 21
1479.9
  0
LINE
  8
0
  6
CONTINUOUS
 62
     1
 10
477.6
 20
1482.9
 11
477.6
 21
1479.9
  0
LINE
  8
0
  6
CONTINUOUS
 62
     1
 10
335.6
 20
1094.9
 11
445.6
 21
1094.9
  0
LINE
  8
0
  6
CONTINUOUS
 62
     1
 10
445.6
 20
1094.9
 11
445.6
 21
1146.9
  0
LINE
  8
0
  6
CONTINUOUS
 62
     1
 10
335.6
 20
1094.9
 11
335.6
 21
1146.9
  0
LINE
  8
0
  6
CONTINUOUS
 62
     1
 10
306.6
 20
1176.9
 11
306.6
 21
1146.9
  0
LINE
  8
0
  6
CONTINUOUS
 62
     1
 10
474.6
 20
1176.9
 11
474.6
 21
1146.9
  0
LINE
  8
0
  6
CONTINUOUS
 62
     1
 10
306.6
 20
1146.9
 11
474.6
 21
1146.9
  0
LINE
  8
0
  6
CONTINUOUS
 62
     1
 10
303.6
 20
1176.9
 11
477.6
 21
1176.9
  0
ARC
  8
0
  6
CONTINUOUS
 62
     1
 10
390.6
 20
1057.707528874
 40
150.0
 50
54.549457361
 51
125.450542639
  0
LINE
  8
0
  6
CONTINUOUS
 62
     1
 10
303.6
 20
1176.9
 11
303.6
 21
1179.9
  0
LINE
  8
0
  6
CONTINUOUS
 62
     1
 10
477.6
 20
1176.9
 11
477.6
 21
1179.9
  0
LINE
  8
7
  6
CONTINUOUS
 62
     2
 10
294.6
 20
1146.9
 11
197.1
 21
1146.9
  0
LINE
  8
7
  6
CONTINUOUS
 62
     2
 10
209.1
 20
1146.9
 11
214.276380902
 21
1166.218516526
  0
LINE
  8
7
  6
CONTINUOUS
 62
     2
 10
209.1
 20
1146.9
 11
203.923619098
 21
1166.218516526
  0
LINE
  8
7
  6
CONTINUOUS
 62
     2
 10
209.1
 20
1146.9
 11
209.1
 21
1512.9
  0
LINE
  8
7
  6
CONTINUOUS
 62
     2
 10
209.1
 20
1512.9
 11
203.923619098
 21
1493.581483474
  0
LINE
  8
7
  6
CONTINUOUS
 62
     2
 10
209.1
 20
1512.9
 11
214.276380902
 21
1493.581483474
  0
LINE
  8
7
  6
CONTINUOUS
 62
     2
 10
294.6
 20
1512.9
 11
197.1
 21
1512.9
  0
TEXT
  8
7
  6
CONTINUOUS
 62
     2
 10
201.1
 20
1299.1
 30
0.8
 40
24.0
  1
３６６
 50
90.0
 41
0.833333333
 51
0.0
  7
KANJI29
  0
LINE
  8
0
  6
CONTINUOUS
 62
     1
 10
477.6
 20
1479.9
 11
520.6
 21
1479.9
  0
LINE
  8
0
  6
CONTINUOUS
 62
     1
 10
477.6
 20
1179.9
 11
520.6
 21
1179.9
  0
ARC
  8
0
  6
CONTINUOUS
 62
     1
 10
494.35
 20
1329.9
 40
6.25
 50
270.0
 51
90.0
  0
ARC
  8
0
  6
CONTINUOUS
 62
     1
 10
446.85
 20
1329.9
 40
6.25
 50
90.0
 51
270.0
  0
LINE
  8
0
  6
CONTINUOUS
 62
     1
 10
446.85
 20
1336.15
 11
494.35
 21
1336.15
  0
LINE
  8
0
  6
CONTINUOUS
 62
     1
 10
446.85
 20
1323.65
 11
494.35
 21
1323.65
  0
LINE
  8
0
  6
LTYPE2
 62
     2
 10
470.6
 20
1310.5
 11
470.6
 21
1348.0
  0
ARC
  8
0
  6
CONTINUOUS
 62
     1
 10
470.6
 20
1329.9
 40
15.0
 50
204.624318352
 51
270.0
  0
ARC
  8
0
  6
CONTINUOUS
 62
     1
 10
470.6
 20
1329.9
 40
15.0
 50
90.0
 51
155.375681648
  0
ARC
  8
0
  6
CONTINUOUS
 62
     1
 10
470.6
 20
1329.9
 40
15.0
 50
270.0
 51
335.375681648
  0
ARC
  8
0
  6
CONTINUOUS
 62
     1
 10
470.6
 20
1329.9
 40
15.0
 50
24.624318352
 51
90.0
  0
LINE
  8
0
  6
LTYPE2
 62
     2
 10
410.1
 20
1411.4
 11
453.1
 21
1411.4
  0
LINE
  8
0
  6
LTYPE2
 62
     2
 10
430.6
 20
1397.4
 11
430.6
 21
1424.4
  0
LINE
  8
0
  6
LTYPE2
 62
     2
 10
447.6
 20
1391.4
 11
463.6
 21
1391.4
  0
LINE
  8
0
  6
LTYPE2
 62
     2
 10
447.6
 20
1431.4
 11
463.6
 21
1431.4
  0
LINE
  8
0
  6
LTYPE2
 62
     2
 10
455.6
 20
1435.4
 11
455.6
 21
1424.273724357
  0
LINE
  8
0
  6
LTYPE2
 62
     2
 10
455.6
 20
1383.026275643
 11
455.6
 21
1395.9
  0
LINE
  8
0
  6
LTYPE2
 62
     2
 10
413.6
 20
1391.4
 11
397.6
 21
1391.4
  0
LINE
  8
0
  6
LTYPE2
 62
     2
 10
413.6
 20
1431.4
 11
397.6
 21
1431.4
  0
LINE
  8
0
  6
LTYPE2
 62
     2
 10
405.6
 20
1435.4
 11
405.6
 21
1424.273724357
  0
LINE
  8
0
  6
LTYPE2
 62
     2
 10
405.6
 20
1383.026275643
 11
405.6
 21
1395.9
  0
POLYLINE
  8
0
  6
LTYPE1
 62
     2
 66
     1
 70
     1
  0
VERTEX
  8
0
  6
LTYPE1
 62
     2
 10
445.6
 20
1410.9
 42
0.032691223
  0
VERTEX
  8
0
  6
LTYPE1
 62
     2
 10
445.542920471
 20
1411.771557427
 42
0.032158761
  0
VERTEX
  8
0
  6
LTYPE1
 62
     2
 10
445.372116295
 20
1412.636481777
 42
0.031088809
  0
VERTEX
  8
0
  6
LTYPE1
 62
     2
 10
445.088887394
 20
1413.488190451
 42
0.029614446
  0
VERTEX
  8
0
  6
LTYPE1
 62
     2
 10
444.695389312
 20
1414.320201433
 42
0.027893043
  0
VERTEX
  8
0
  6
LTYPE1
 62
     2
 10
444.194616806
 20
1415.126182617
 42
0.026072638
  0
VERTEX
  8
0
  6
LTYPE1
 62
     2
 10
443.590381057
 20
1415.9
 42
0.024271431
  0
VERTEX
  8
0
  6
LTYPE1
 62
     2
 10
442.887280664
 20
1416.635764364
 42
0.022571479
  0
VERTEX
  8
0
  6
LTYPE1
 62
     2
 10
442.090666647
 20
1417.327876097
 42
0.021022052
  0
VERTEX
  8
0
  6
LTYPE1
 62
     2
 10
441.206601718
 20
1417.971067812
 42
0.019647265
  0
VERTEX
  8
0
  6
LTYPE1
 62
     2
 10
440.241814145
 20
1418.560444431
 42
0.018454172
  0
VERTEX
  8
0
  6
LTYPE1
 62
     2
 10
439.203646545
 20
1419.091520443
 42
0.017439538
  0
VERTEX
  8
0
  6
LTYPE1
 62
     2
 10
438.1
 20
1419.560254038
 42
0.016594779
  0
VERTEX
  8
0
  6
LTYPE1
 62
     2
 10
436.939273926
 20
1419.96307787
 42
0.015909269
  0
VERTEX
  8
0
  6
LTYPE1
 62
     2
 10
435.73030215
 20
1420.296926208
 42
0.015372402
  0
VERTEX
  8
0
  6
LTYPE1
 62
     2
 10
434.482285677
 20
1420.559258263
 42
0.014974806
  0
VERTEX
  8
0
  6
LTYPE1
 62
     2
 10
433.204722665
 20
1420.74807753
 42
0.014709015
  0
VERTEX
  8
0
  6
LTYPE1
 62
     2
 10
431.907336141
 20
1420.861946981
 42
0.014569816
  0
VERTEX
  8
0
  6
LTYPE1
 62
     2
 10
430.6
 20
1420.9
 42
0.014554414
  0
VERTEX
  8
0
  6
LTYPE1
 62
     2
 10
429.292663859
 20
1420.861946981
 42
0.014662498
  0
VERTEX
  8
0
  6
LTYPE1
 62
     2
 10
427.995277335
 20
1420.74807753
 42
0.014896245
  0
VERTEX
  8
0
  6
LTYPE1
 62
     2
 10
426.717714323
 20
1420.559258263
 42
0.015260274
  0
VERTEX
  8
0
  6
LTYPE1
 62
     2
 10
425.46969785
 20
1420.296926208
 42
0.015761511
  0
VERTEX
  8
0
  6
LTYPE1
 62
     2
 10
424.260726074
 20
1419.96307787
 42
0.016408899
  0
VERTEX
  8
0
  6
LTYPE1
 62
     2
 10
423.1
 20
1419.560254038
 42
0.017212822
  0
VERTEX
  8
0
  6
LTYPE1
 62
     2
 10
421.996353455
 20
1419.091520443
 42
0.018184057
  0
VERTEX
  8
0
  6
LTYPE1
 62
     2
 10
420.958185855
 20
1418.560444431
 42
0.019331952
  0
VERTEX
  8
0
  6
LTYPE1
 62
     2
 10
419.993398282
 20
1417.971067812
 42
0.020661474
  0
VERTEX
  8
0
  6
LTYPE1
 62
     2
 10
419.109333353
 20
1417.327876097
 42
0.022168703
  0
VERTEX
  8
0
  6
LTYPE1
 62
     2
 10
418.312719336
 20
1416.635764364
 42
0.023834517
  0
VERTEX
  8
0
  6
LTYPE1
 62
     2
 10
417.609618943
 20
1415.9
 42
0.025616715
  0
VERTEX
  8
0
  6
LTYPE1
 62
     2
 10
417.005383194
 20
1415.126182617
 42
0.027442002
  0
VERTEX
  8
0
  6
LTYPE1
 62
     2
 10
416.504610688
 20
1414.320201433
 42
0.029201101
  0
VERTEX
  8
0
  6
LTYPE1
 62
     2
 10
416.111112606
 20
1413.488190451
 42
0.030752107
  0
VERTEX
  8
0
  6
LTYPE1
 62
     2
 10
415.827883705
 20
1412.636481777
 42
0.031937242
  0
VERTEX
  8
0
  6
LTYPE1
 62
     2
 10
415.657079529
 20
1411.771557427
 42
0.032613786
  0
VERTEX
  8
0
  6
LTYPE1
 62
     2
 10
415.6
 20
1410.9
 42
0.032691223
  0
VERTEX
  8
0
  6
LTYPE1
 62
     2
 10
415.657079529
 20
1410.028442573
 42
0.032158761
  0
VERTEX
  8
0
  6
LTYPE1
 62
     2
 10
415.827883705
 20
1409.163518223
 42
0.031088809
  0
VERTEX
  8
0
  6
LTYPE1
 62
     2
 10
416.111112606
 20
1408.311809549
 42
0.029614446
  0
VERTEX
  8
0
  6
LTYPE1
 62
     2
 10
416.504610688
 20
1407.479798567
 42
0.027893043
  0
VERTEX
  8
0
  6
LTYPE1
 62
     2
 10
417.005383194
 20
1406.673817383
 42
0.026072638
  0
VERTEX
  8
0
  6
LTYPE1
 62
     2
 10
417.609618943
 20
1405.9
 42
0.024271431
  0
VERTEX
  8
0
  6
LTYPE1
 62
     2
 10
418.312719336
 20
1405.164235636
 42
0.022571479
  0
VERTEX
  8
0
  6
LTYPE1
 62
     2
 10
419.109333353
 20
1404.472123903
 42
0.021022052
  0
VERTEX
  8
0
  6
LTYPE1
 62
     2
 10
419.993398282
 20
1403.828932188
 42
0.019647265
  0
VERTEX
  8
0
  6
LTYPE1
 62
     2
 10
420.958185855
 20
1403.239555569
 42
0.018454172
  0
VERTEX
  8
0
  6
LTYPE1
 62
     2
 10
421.996353455
 20
1402.708479557
 42
0.017439538
  0
VERTEX
  8
0
  6
LTYPE1
 62
     2
 10
423.1
 20
1402.239745962
 42
0.016594779
  0
VERTEX
  8
0
  6
LTYPE1
 62
     2
 10
424.260726074
 20
1401.83692213
 42
0.015909269
  0
VERTEX
  8
0
  6
LTYPE1
 62
     2
 10
425.46969785
 20
1401.503073792
 42
0.015372402
  0
VERTEX
  8
0
  6
LTYPE1
 62
     2
 10
426.717714323
 20
1401.240741737
 42
0.014974806
  0
VERTEX
  8
0
  6
LTYPE1
 62
     2
 10
427.995277335
 20
1401.05192247
 42
0.014709015
  0
VERTEX
  8
0
  6
LTYPE1
 62
     2
 10
429.292663859
 20
1400.938053019
 42
0.014569816
  0
VERTEX
  8
0
  6
LTYPE1
 62
     2
 10
430.6
 20
1400.9
 42
0.014554414
  0
VERTEX
  8
0
  6
LTYPE1
 62
     2
 10
431.907336141
 20
1400.938053019
 42
0.014662498
  0
VERTEX
  8
0
  6
LTYPE1
 62
     2
 10
433.204722665
 20
1401.05192247
 42
0.014896245
  0
VERTEX
  8
0
  6
LTYPE1
 62
     2
 10
434.482285677
 20
1401.240741737
 42
0.015260274
  0
VERTEX
  8
0
  6
LTYPE1
 62
     2
 10
435.73030215
 20
1401.503073792
 42
0.015761511
  0
VERTEX
  8
0
  6
LTYPE1
 62
     2
 10
436.939273926
 20
1401.83692213
 42
0.016408899
  0
VERTEX
  8
0
  6
LTYPE1
 62
     2
 10
438.1
 20
1402.239745962
 42
0.017212822
  0
VERTEX
  8
0
  6
LTYPE1
 62
     2
 10
439.203646545
 20
1402.708479557
 42
0.018184057
  0
VERTEX
  8
0
  6
LTYPE1
 62
     2
 10
440.241814145
 20
1403.239555569
 42
0.019331952
  0
VERTEX
  8
0
  6
LTYPE1
 62
     2
 10
441.206601718
 20
1403.828932188
 42
0.020661474
  0
VERTEX
  8
0
  6
LTYPE1
 62
     2
 10
442.090666647
 20
1404.472123903
 42
0.022168703
  0
VERTEX
  8
0
  6
LTYPE1
 62
     2
 10
442.887280664
 20
1405.164235636
 42
0.023834517
  0
VERTEX
  8
0
  6
LTYPE1
 62
     2
 10
443.590381057
 20
1405.9
 42
0.025616715
  0
VERTEX
  8
0
  6
LTYPE1
 62
     2
 10
444.194616806
 20
1406.673817383
 42
0.027442002
  0
VERTEX
  8
0
  6
LTYPE1
 62
     2
 10
444.695389312
 20
1407.479798567
 42
0.029201101
  0
VERTEX
  8
0
  6
LTYPE1
 62
     2
 10
445.088887394
 20
1408.311809549
 42
0.030752107
  0
VERTEX
  8
0
  6
LTYPE1
 62
     2
 10
445.372116295
 20
1409.163518223
 42
0.031937242
  0
VERTEX
  8
0
  6
LTYPE1
 62
     2
 10
445.542920471
 20
1410.028442573
 42
0.032613786
  0
SEQEND
  8
0
  6
LTYPE1
 62
     2
  0
ARC
  8
0
  6
CONTINUOUS
 62
     1
 10
463.6
 20
1434.4
 40
2.0
 50
0.0
 51
90.0
  0
LINE
  8
0
  6
CONTINUOUS
 62
     1
 10
465.6
 20
1388.4
 11
465.6
 21
1434.4
  0
LINE
  8
0
  6
CONTINUOUS
 62
     1
 10
463.6
 20
1386.4
 11
465.6
 21
1388.4
  0
LINE
  8
0
  6
CONTINUOUS
 62
     1
 10
397.6
 20
1386.4
 11
463.6
 21
1386.4
  0
LINE
  8
0
  6
CONTINUOUS
 62
     1
 10
395.6
 20
1388.4
 11
397.6
 21
1386.4
  0
LINE
  8
0
  6
CONTINUOUS
 62
     1
 10
397.6
 20
1436.4
 11
463.6
 21
1436.4
  0
LINE
  8
0
  6
CONTINUOUS
 62
     1
 10
395.6
 20
1388.4
 11
395.6
 21
1434.4
  0
LINE
  8
0
  6
CONTINUOUS
 62
     1
 10
397.6
 20
1436.4
 11
395.6
 21
1434.4
  0
LINE
  8
0
  6
CONTINUOUS
 62
     1
 10
495.6
 20
1336.023724357
 11
495.6
 21
1479.9
  0
LINE
  8
0
  6
CONTINUOUS
 62
     1
 10
495.6
 20
1179.9
 11
495.6
 21
1323.776275643
  0
LINE
  8
0
  6
CONTINUOUS
 62
     1
 10
295.6
 20
1179.9
 11
295.6
 21
1479.9
  0
LINE
  8
0
  6
LTYPE2
 62
     2
 10
262.686875628
 20
1468.9
 11
303.6
 21
1468.9
  0
LINE
  8
0
  6
LTYPE2
 62
     2
 10
262.686875628
 20
1190.9
 11
303.6
 21
1190.9
  0
LINE
  8
0
  6
CONTINUOUS
 62
     1
 10
295.6
 20
1479.9
 11
303.6
 21
1479.9
  0
LINE
  8
0
  6
CONTINUOUS
 62
     1
 10
295.6
 20
1179.9
 11
303.6
 21
1179.9
  0
LINE
  8
0
  6
CONTINUOUS
 62
     1
 10
281.6
 20
1181.4
 11
281.6
 21
1478.4
  0
LINE
  8
0
  6
CONTINUOUS
 62
     1
 10
279.1
 20
1468.9
 11
279.1
 21
1459.1
  0
LINE
  8
0
  6
CONTINUOUS
 62
     1
 10
279.1
 20
1459.1
 11
273.485640646
 21
1459.1
  0
LINE
  8
0
  6
CONTINUOUS
 62
     1
 10
272.1
 20
1461.5
 11
273.485640646
 21
1459.1
  0
LINE
  8
0
  6
CONTINUOUS
 62
     1
 10
272.1
 20
1468.9
 11
272.1
 21
1461.5
  0
LINE
  8
0
  6
CONTINUOUS
 62
     1
 10
279.1
 20
1464.0
 11
273.485640646
 21
1464.0
  0
LINE
  8
0
  6
CONTINUOUS
 62
     1
 10
279.1
 20
1468.9
 11
279.1
 21
1478.7
  0
LINE
  8
0
  6
CONTINUOUS
 62
     1
 10
279.1
 20
1478.7
 11
273.485640646
 21
1478.7
  0
LINE
  8
0
  6
CONTINUOUS
 62
     1
 10
272.1
 20
1476.3
 11
273.485640646
 21
1478.7
  0
LINE
  8
0
  6
CONTINUOUS
 62
     1
 10
272.1
 20
1468.9
 11
272.1
 21
1476.3
  0
LINE
  8
0
  6
CONTINUOUS
 62
     1
 10
279.1
 20
1473.8
 11
273.485640646
 21
1473.8
  0
ARC
  8
0
  6
CONTINUOUS
 62
     1
 10
281.4566828
 20
1468.9
 40
9.3566828
 50
148.419912243
 51
211.580087757
  0
ARC
  8
0
  6
CONTINUOUS
 62
     1
 10
274.957883832
 20
1461.55
 40
2.858321186
 50
121.002313915
 51
182.989498403
  0
LINE
  8
0
  6
CONTINUOUS
 62
     1
 10
272.1
 20
1476.3
 11
273.485640646
 21
1478.7
  0
ARC
  8
0
  6
CONTINUOUS
 62
     1
 10
274.957883832
 20
1476.25
 40
2.858321186
 50
177.010501597
 51
238.997686085
  0
LINE
  8
0
  6
CONTINUOUS
 62
     1
 10
281.6
 20
1459.7
 11
279.1
 21
1459.7
  0
LINE
  8
0
  6
CONTINUOUS
 62
     1
 10
281.6
 20
1468.9
 11
279.100000004
 21
1466.400000004
  0
LINE
  8
0
  6
CONTINUOUS
 62
     1
 10
279.100000004
 20
1468.9
 11
281.6
 21
1471.399999996
  0
LINE
  8
0
  6
CONTINUOUS
 62
     1
 10
281.6
 20
1478.1
 11
279.1
 21
1478.1
  0
LINE
  8
0
  6
CONTINUOUS
 62
     1
 10
279.1
 20
1190.9
 11
279.1
 21
1200.7
  0
LINE
  8
0
  6
CONTINUOUS
 62
     1
 10
279.1
 20
1200.7
 11
273.485640646
 21
1200.7
  0
LINE
  8
0
  6
CONTINUOUS
 62
     1
 10
272.1
 20
1198.3
 11
273.485640646
 21
1200.7
  0
LINE
  8
0
  6
CONTINUOUS
 62
     1
 10
272.1
 20
1190.9
 11
272.1
 21
1198.3
  0
LINE
  8
0
  6
CONTINUOUS
 62
     1
 10
279.1
 20
1195.8
 11
273.485640646
 21
1195.8
  0
LINE
  8
0
  6
CONTINUOUS
 62
     1
 10
279.1
 20
1190.9
 11
279.1
 21
1181.1
  0
LINE
  8
0
  6
CONTINUOUS
 62
     1
 10
279.1
 20
1181.1
 11
273.485640646
 21
1181.1
  0
LINE
  8
0
  6
CONTINUOUS
 62
     1
 10
272.1
 20
1183.5
 11
273.485640646
 21
1181.1
  0
LINE
  8
0
  6
CONTINUOUS
 62
     1
 10
272.1
 20
1190.9
 11
272.1
 21
1183.5
  0
LINE
  8
0
  6
CONTINUOUS
 62
     1
 10
279.1
 20
1186.0
 11
273.485640646
 21
1186.0
  0
ARC
  8
0
  6
CONTINUOUS
 62
     1
 10
281.4566828
 20
1190.9
 40
9.3566828
 50
148.419912243
 51
211.580087757
  0
ARC
  8
0
  6
CONTINUOUS
 62
     1
 10
274.957883832
 20
1198.25
 40
2.858321186
 50
177.010501597
 51
238.997686085
  0
LINE
  8
0
  6
CONTINUOUS
 62
     1
 10
272.1
 20
1183.5
 11
273.485640646
 21
1181.1
  0
ARC
  8
0
  6
CONTINUOUS
 62
     1
 10
274.957883832
 20
1183.55
 40
2.858321186
 50
121.002313915
 51
182.989498403
  0
LINE
  8
0
  6
CONTINUOUS
 62
     1
 10
281.6
 20
1200.1
 11
279.1
 21
1200.1
  0
LINE
  8
0
  6
CONTINUOUS
 62
     1
 10
281.6
 20
1190.9
 11
279.100000004
 21
1193.399999996
  0
LINE
  8
0
  6
CONTINUOUS
 62
     1
 10
279.100000004
 20
1190.9
 11
281.6
 21
1188.400000004
  0
LINE
  8
0
  6
CONTINUOUS
 62
     1
 10
281.6
 20
1181.7
 11
279.1
 21
1181.7
  0
LINE
  8
0
  6
CONTINUOUS
 62
     1
 10
281.6
 20
1181.4
 11
295.6
 21
1181.4
  0
LINE
  8
0
  6
CONTINUOUS
 62
     1
 10
281.6
 20
1478.4
 11
295.6
 21
1478.4
  0
LINE
  8
7
  6
CONTINUOUS
 62
     2
 10
651.475
 20
1334.55
 11
662.574023362
 21
1351.187658501
  0
LINE
  8
7
  6
CONTINUOUS
 62
     2
 10
651.475
 20
1334.55
 11
652.768206938
 21
1354.508146603
  0
LINE
  8
7
  6
CONTINUOUS
 62
     2
 10
651.475
 20
1334.55
 11
715.475
 21
1523.55
  0
LINE
  8
7
  6
CONTINUOUS
 62
     2
 10
715.475
 20
1523.55
 11
905.075
 21
1523.55
  0
TEXT
  8
7
  6
CONTINUOUS
 62
     2
 10
715.475
 20
1531.55
 30
2.4
 40
24.0
  1
グリースニップル
 50
0.0
 41
0.9
 51
0.0
  7
KANJI25
  0
LINE
  8
7
  6
CONTINUOUS
 62
     2
 10
437.475
 20
1429.55
 11
453.730778176
 21
1441.201166289
  0
LINE
  8
7
  6
CONTINUOUS
 62
     2
 10
437.475
 20
1429.55
 11
445.727333714
 21
1447.768095078
  0
LINE
  8
7
  6
CONTINUOUS
 62
     2
 10
437.475
 20
1429.55
 11
565.475
 21
1585.55
  0
LINE
  8
7
  6
CONTINUOUS
 62
     2
 10
565.475
 20
1585.55
 11
731.075
 21
1585.55
  0
TEXT
  8
7
  6
CONTINUOUS
 62
     2
 10
565.475
 20
1593.55
 30
2.4
 40
24.0
  1
点検口、給脂口
 50
0.0
 41
0.9
 51
0.0
  7
KANJI25
  0
LINE
  8
0
  6
CONTINUOUS
 62
     1
 10
520.6
 20
1189.9
 11
545.6
 21
1189.9
  0
POINT
  8
0
  6
CONTINUOUS
 62
     1
 10
545.6
 20
1221.4
  0
POINT
  8
0
  6
CONTINUOUS
 62
     1
 10
545.6
 20
1193.4
  0
LINE
  8
0
  6
CONTINUOUS
 62
     1
 10
710.6
 20
1228.4
 11
730.6
 21
1228.4
  0
LINE
  8
0
  6
CONTINUOUS
 62
     1
 10
710.6
 20
1323.9
 11
730.6
 21
1323.9
  0
LINE
  8
0
  6
CONTINUOUS
 62
     1
 10
710.6
 20
1335.9
 11
730.6
 21
1335.9
  0
LINE
  8
0
  6
CONTINUOUS
 62
     1
 10
707.6
 20
1247.4
 11
710.6
 21
1247.4
  0
LINE
  8
0
  6
CONTINUOUS
 62
     1
 10
707.6
 20
1249.4
 11
710.6
 21
1249.4
  0
LINE
  8
0
  6
CONTINUOUS
 62
     1
 10
520.6
 20
1469.9
 11
545.6
 21
1469.9
  0
POINT
  8
0
  6
CONTINUOUS
 62
     1
 10
545.6
 20
1438.4
  0
POINT
  8
0
  6
CONTINUOUS
 62
     1
 10
545.6
 20
1466.4
  0
LINE
  8
0
  6
CONTINUOUS
 62
     1
 10
710.6
 20
1431.4
 11
730.6
 21
1431.4
  0
LINE
  8
0
  6
CONTINUOUS
 62
     1
 10
707.6
 20
1412.4
 11
710.6
 21
1412.4
  0
LINE
  8
0
  6
CONTINUOUS
 62
     1
 10
707.6
 20
1410.4
 11
710.6
 21
1410.4
  0
LINE
  8
0
  6
CONTINUOUS
 62
     1
 10
545.6
 20
1189.9
 11
545.6
 21
1469.9
  0
LINE
  8
0
  6
CONTINUOUS
 62
     1
 10
710.6
 20
1228.4
 11
710.6
 21
1431.4
  0
LINE
  8
0
  6
CONTINUOUS
 62
     1
 10
730.6
 20
1228.4
 11
730.6
 21
1431.4
  0
LINE
  8
0
  6
CONTINUOUS
 62
     1
 10
707.6
 20
1241.0
 11
707.6
 21
1418.8
  0
LINE
  8
0
  6
LTYPE2
 62
     2
 10
645.6
 20
1307.9
 11
645.6
 21
1354.9
  0
CIRCLE
  8
0
  6
LTYPE2
 62
     2
 10
645.6
 20
1329.9
 40
5.0
  0
CIRCLE
  8
0
  6
LTYPE2
 62
     2
 10
645.6
 20
1329.9
 40
10.0
  0
LINE
  8
0
  6
CONTINUOUS
 62
     1
 10
660.6
 20
1394.17600641
 11
560.6
 21
1415.389209845
  0
LINE
  8
0
  6
CONTINUOUS
 62
     1
 10
560.6
 20
1426.702918344
 11
660.6
 21
1405.489714909
  0
LINE
  8
0
  6
CONTINUOUS
 62
     1
 10
560.6
 20
1426.702918344
 11
545.6
 21
1426.702918344
  0
LINE
  8
0
  6
CONTINUOUS
 62
     1
 10
560.6
 20
1415.389209845
 11
545.6
 21
1415.389209845
  0
LINE
  8
0
  6
CONTINUOUS
 62
     1
 10
560.6
 20
1415.389209845
 11
560.6
 21
1426.702918344
  0
LINE
  8
0
  6
CONTINUOUS
 62
     1
 10
597.85471435
 20
1418.8
 11
707.6
 21
1418.8
  0
LINE
  8
0
  6
CONTINUOUS
 62
     1
 10
660.6
 20
1405.489714909
 11
660.6
 21
1386.849894588
  0
LINE
  8
0
  6
CONTINUOUS
 62
     1
 10
660.6
 20
1265.62399359
 11
560.6
 21
1244.410790155
  0
LINE
  8
0
  6
CONTINUOUS
 62
     1
 10
560.6
 20
1233.097081656
 11
660.6
 21
1254.310285091
  0
LINE
  8
0
  6
CONTINUOUS
 62
     1
 10
560.6
 20
1233.097081656
 11
545.6
 21
1233.097081656
  0
LINE
  8
0
  6
CONTINUOUS
 62
     1
 10
560.6
 20
1244.410790155
 11
545.6
 21
1244.410790155
  0
LINE
  8
0
  6
CONTINUOUS
 62
     1
 10
560.6
 20
1244.410790155
 11
560.6
 21
1233.097081656
  0
LINE
  8
0
  6
CONTINUOUS
 62
     1
 10
660.6
 20
1254.310285091
 11
660.6
 21
1272.950105412
  0
LINE
  8
0
  6
CONTINUOUS
 62
     1
 10
597.85471435
 20
1241.0
 11
707.6
 21
1241.0
  0
LINE
  8
0
  6
CONTINUOUS
 62
     1
 10
520.6
 20
1189.9
 11
520.6
 21
1469.9
  0
POINT
  8
0
  6
CONTINUOUS
 62
     1
 10
730.6
 20
1234.55
  0
LINE
  8
0
  6
LTYPE2
 62
     2
 10
317.266666667
 20
1462.066666667
 11
317.266666667
 21
1522.066666667
  0
LINE
  8
0
  6
LTYPE2
 62
     2
 10
463.933333333
 20
1458.066666667
 11
463.933333333
 21
1522.066666667
  0
LINE
  8
0
  6
LTYPE2
 62
     2
 10
317.266666667
 20
1139.4
 11
317.266666667
 21
1199.4
  0
LINE
  8
0
  6
LTYPE2
 62
     2
 10
463.933333333
 20
1138.066666667
 11
463.933333333
 21
1199.4
  0
LINE
  8
0
  6
CONTINUOUS
 62
     2
 10
237.1
 20
1512.9
 11
201.1
 21
1512.9
  0
LINE
  8
0
  6
CONTINUOUS
 62
     2
 10
209.1
 20
1512.9
 11
214.276380902
 21
1532.218516526
  0
LINE
  8
0
  6
CONTINUOUS
 62
     2
 10
209.1
 20
1512.9
 11
203.923619098
 21
1532.218516526
  0
LINE
  8
0
  6
CONTINUOUS
 62
     2
 10
209.1
 20
1512.9
 11
209.1
 21
1564.9
  0
LINE
  8
0
  6
CONTINUOUS
 62
     2
 10
209.1
 20
1564.9
 11
203.923619098
 21
1545.581483474
  0
LINE
  8
0
  6
CONTINUOUS
 62
     2
 10
209.1
 20
1564.9
 11
214.276380902
 21
1545.581483474
  0
LINE
  8
0
  6
CONTINUOUS
 62
     2
 10
327.6
 20
1564.9
 11
201.1
 21
1564.9
  0
TEXT
  8
0
  6
CONTINUOUS
 62
     2
 10
203.5
 20
1517.3
 30
0.0
 40
24.0
  1
５２
 50
90.0
 41
0.9
 51
0.0
  7
KANJI30
  0
LINE
  8
0
  6
CONTINUOUS
 62
     1
 10
368.1
 20
1569.9
 11
368.1
 21
1564.9
  0
LINE
  8
0
  6
CONTINUOUS
 62
     1
 10
368.6
 20
1639.9
 11
368.6
 21
1569.9
  0
LINE
  8
0
  6
CONTINUOUS
 62
     1
 10
368.1
 20
1569.9
 11
413.1
 21
1569.9
  0
LINE
  8
0
  6
CONTINUOUS
 62
     1
 10
383.6
 20
1639.9
 11
383.6
 21
1584.9
  0
LINE
  8
0
  6
CONTINUOUS
 62
     1
 10
383.6
 20
1584.9
 11
397.6
 21
1584.9
  0
ARC
  8
0
  6
CONTINUOUS
 62
     1
 10
390.6
 20
1584.9
 40
7.0
 50
180.0
 51
0.0
  0
LINE
  8
0
  6
CONTINUOUS
 62
     1
 10
397.6
 20
1639.9
 11
397.6
 21
1584.9
  0
LINE
  8
0
  6
CONTINUOUS
 62
     1
 10
368.6
 20
1639.9
 11
412.6
 21
1639.9
  0
LINE
  8
0
  6
CONTINUOUS
 62
     1
 10
413.1
 20
1569.9
 11
413.1
 21
1564.9
  0
LINE
  8
0
  6
CONTINUOUS
 62
     1
 10
412.6
 20
1639.9
 11
412.6
 21
1569.9
  0
LINE
  8
7
  6
CONTINUOUS
 62
     2
 10
257.1
 20
1569.9
 11
262.276380902
 21
1589.218516526
  0
LINE
  8
7
  6
CONTINUOUS
 62
     2
 10
257.1
 20
1569.9
 11
251.923619098
 21
1589.218516526
  0
TEXT
  8
7
  6
CONTINUOUS
 62
     2
 10
249.1
 20
1599.9
 30
0.8
 40
24.0
  1
５
 50
90.0
 41
0.833333333
 51
0.0
  7
KANJI29
  0
LINE
  8
7
  6
CONTINUOUS
 62
     2
 10
257.1
 20
1564.9
 11
251.923619098
 21
1545.581483474
  0
LINE
  8
7
  6
CONTINUOUS
 62
     2
 10
257.1
 20
1564.9
 11
262.276380902
 21
1545.581483474
  0
LINE
  8
7
  6
CONTINUOUS
 62
     2
 10
356.1
 20
1569.9
 11
197.1
 21
1569.9
  0
LINE
  8
7
  6
CONTINUOUS
 62
     2
 10
209.1
 20
1639.9
 11
203.923619098
 21
1620.581483474
  0
LINE
  8
7
  6
CONTINUOUS
 62
     2
 10
209.1
 20
1639.9
 11
214.276380902
 21
1620.581483474
  0
LINE
  8
7
  6
CONTINUOUS
 62
     2
 10
209.1
 20
1639.9
 11
209.1
 21
1569.9
  0
LINE
  8
7
  6
CONTINUOUS
 62
     2
 10
209.1
 20
1569.9
 11
214.276380902
 21
1589.218516526
  0
LINE
  8
7
  6
CONTINUOUS
 62
     2
 10
209.1
 20
1569.9
 11
203.923619098
 21
1589.218516526
  0
TEXT
  8
7
  6
CONTINUOUS
 62
     2
 10
201.1
 20
1584.5
 30
0.8
 40
24.0
  1
７０
 50
90.0
 41
0.833333333
 51
0.0
  7
KANJI29
  0
LINE
  8
7
  6
CONTINUOUS
 62
     2
 10
362.6
 20
1639.9
 11
197.1
 21
1639.9
  0
LINE
  8
0
  6
LTYPE2
 62
     2
 10
390.6
 20
906.766666667
 11
390.6
 21
1648.5
  0
LINE
  8
7
  6
CONTINUOUS
 62
     2
 10
257.1
 20
1569.9
 11
257.1
 21
1619.9
  0
LINE
  8
7
  6
CONTINUOUS
 62
     2
 10
257.1
 20
1564.9
 11
257.1
 21
1569.9
  0
LINE
  8
7
  6
CONTINUOUS
 62
     2
 10
257.1
 20
1534.9
 11
257.1
 21
1564.9
  0
LINE
  8
0
  6
CONTINUOUS
 62
     2
 10
211.9
 20
1146.9
 11
217.1
 21
1146.9
  0
LINE
  8
0
  6
CONTINUOUS
 62
     2
 10
209.1
 20
1146.9
 11
203.923619098
 21
1127.581483474
  0
LINE
  8
0
  6
CONTINUOUS
 62
     2
 10
209.1
 20
1146.9
 11
214.276380902
 21
1127.581483474
  0
LINE
  8
0
  6
CONTINUOUS
 62
     2
 10
209.1
 20
1146.9
 11
209.1
 21
1094.9
  0
LINE
  8
0
  6
CONTINUOUS
 62
     2
 10
209.1
 20
1094.9
 11
214.276380902
 21
1114.218516526
  0
LINE
  8
0
  6
CONTINUOUS
 62
     2
 10
209.1
 20
1094.9
 11
203.923619098
 21
1114.218516526
  0
LINE
  8
0
  6
CONTINUOUS
 62
     2
 10
327.6
 20
1094.9
 11
201.1
 21
1094.9
  0
TEXT
  8
0
  6
CONTINUOUS
 62
     2
 10
203.5
 20
1099.3
 30
0.0
 40
24.0
  1
５２
 50
90.0
 41
0.9
 51
0.0
  7
KANJI30
  0
LINE
  8
0
  6
CONTINUOUS
 62
     1
 10
368.1
 20
1089.9
 11
368.1
 21
1094.9
  0
LINE
  8
0
  6
CONTINUOUS
 62
     1
 10
368.6
 20
1019.9
 11
368.6
 21
1089.9
  0
LINE
  8
0
  6
CONTINUOUS
 62
     1
 10
368.1
 20
1089.9
 11
413.1
 21
1089.9
  0
LINE
  8
0
  6
CONTINUOUS
 62
     1
 10
383.6
 20
1019.9
 11
383.6
 21
1074.9
  0
LINE
  8
0
  6
CONTINUOUS
 62
     1
 10
383.6
 20
1074.9
 11
397.6
 21
1074.9
  0
ARC
  8
0
  6
CONTINUOUS
 62
     1
 10
390.6
 20
1074.9
 40
7.0
 50
0.0
 51
180.0
  0
LINE
  8
0
  6
CONTINUOUS
 62
     1
 10
397.6
 20
1019.9
 11
397.6
 21
1074.9
  0
LINE
  8
0
  6
CONTINUOUS
 62
     1
 10
413.1
 20
1089.9
 11
413.1
 21
1094.9
  0
LINE
  8
0
  6
CONTINUOUS
 62
     1
 10
412.6
 20
1019.9
 11
412.6
 21
1089.9
  0
LINE
  8
0
  6
CONTINUOUS
 62
     1
 10
368.6
 20
1019.9
 11
412.6
 21
1019.9
  0
LINE
  8
0
  6
CONTINUOUS
 62
     2
 10
360.1
 20
1089.9
 11
201.1
 21
1089.9
  0
LINE
  8
0
  6
CONTINUOUS
 62
     2
 10
209.1
 20
1089.9
 11
203.923619098
 21
1070.581483474
  0
LINE
  8
0
  6
CONTINUOUS
 62
     2
 10
209.1
 20
1089.9
 11
214.276380902
 21
1070.581483474
  0
LINE
  8
0
  6
CONTINUOUS
 62
     2
 10
209.1
 20
1089.9
 11
209.1
 21
1019.9
  0
LINE
  8
0
  6
CONTINUOUS
 62
     2
 10
209.1
 20
1019.9
 11
214.276380902
 21
1039.218516526
  0
LINE
  8
0
  6
CONTINUOUS
 62
     2
 10
209.1
 20
1019.9
 11
203.923619098
 21
1039.218516526
  0
LINE
  8
0
  6
CONTINUOUS
 62
     2
 10
360.6
 20
1019.9
 11
201.1
 21
1019.9
  0
TEXT
  8
0
  6
CONTINUOUS
 62
     2
 10
203.5
 20
1033.3
 30
0.0
 40
24.0
  1
７０
 50
90.0
 41
0.9
 51
0.0
  7
KANJI30
  0
LINE
  8
0
  6
CONTINUOUS
 62
     2
 10
247.2
 20
1094.9
 11
265.1
 21
1094.9
  0
LINE
  8
0
  6
CONTINUOUS
 62
     2
 10
257.1
 20
1094.9
 11
262.276380902
 21
1114.218516526
  0
LINE
  8
0
  6
CONTINUOUS
 62
     2
 10
257.1
 20
1094.9
 11
251.923619098
 21
1114.218516526
  0
LINE
  8
0
  6
CONTINUOUS
 62
     2
 10
257.1
 20
1124.9
 11
257.1
 21
1094.9
  0
LINE
  8
0
  6
CONTINUOUS
 62
     2
 10
257.1
 20
1094.9
 11
257.1
 21
1089.9
  0
LINE
  8
0
  6
CONTINUOUS
 62
     2
 10
257.1
 20
1089.9
 11
257.1
 21
1038.3
  0
LINE
  8
0
  6
CONTINUOUS
 62
     2
 10
257.1
 20
1089.9
 11
251.923619098
 21
1070.581483474
  0
LINE
  8
0
  6
CONTINUOUS
 62
     2
 10
257.1
 20
1089.9
 11
262.276380902
 21
1070.581483474
  0
LINE
  8
0
  6
CONTINUOUS
 62
     2
 10
246.3
 20
1089.9
 11
265.1
 21
1089.9
  0
TEXT
  8
0
  6
CONTINUOUS
 62
     2
 10
251.5
 20
1038.3
 30
0.0
 40
24.0
  1
５
 50
90.0
 41
0.9
 51
0.0
  7
KANJI30
  0
LINE
  8
0
  6
CONTINUOUS
 62
     2
 10
230.8
 20
1639.9
 11
160.9
 21
1639.9
  0
LINE
  8
0
  6
CONTINUOUS
 62
     2
 10
168.9
 20
1639.9
 11
163.723619098
 21
1620.581483474
  0
LINE
  8
0
  6
CONTINUOUS
 62
     2
 10
168.9
 20
1639.9
 11
174.076380902
 21
1620.581483474
  0
LINE
  8
0
  6
CONTINUOUS
 62
     2
 10
168.9
 20
1639.9
 11
168.9
 21
1019.9
  0
LINE
  8
0
  6
CONTINUOUS
 62
     2
 10
168.9
 20
1019.9
 11
174.076380902
 21
1039.218516526
  0
LINE
  8
0
  6
CONTINUOUS
 62
     2
 10
168.9
 20
1019.9
 11
163.723619098
 21
1039.218516526
  0
LINE
  8
0
  6
CONTINUOUS
 62
     2
 10
226.3
 20
1019.9
 11
160.9
 21
1019.9
  0
TEXT
  8
0
  6
CONTINUOUS
 62
     2
 10
163.3
 20
1297.5
 30
0.0
 40
24.0
  1
６２０
 50
90.0
 41
0.9
 51
0.0
  7
KANJI30
  0
LINE
  8
0
  6
LTYPE2
 62
     2
 10
227.5
 20
1329.8
 11
1910.3
 21
1329.8
  0
LINE
  8
0
  6
CONTINUOUS
 62
     2
 10
368.6
 20
1647.9
 11
368.6
 21
1689.0
  0
LINE
  8
0
  6
CONTINUOUS
 62
     2
 10
368.6
 20
1681.0
 11
349.281483474
 21
1686.176380902
  0
LINE
  8
0
  6
CONTINUOUS
 62
     2
 10
368.6
 20
1681.0
 11
349.281483474
 21
1675.823619098
  0
LINE
  8
0
  6
CONTINUOUS
 62
     2
 10
338.6
 20
1681.0
 11
368.6
 21
1681.0
  0
LINE
  8
0
  6
CONTINUOUS
 62
     2
 10
368.6
 20
1681.0
 11
412.6
 21
1681.0
  0
LINE
  8
0
  6
CONTINUOUS
 62
     2
 10
412.6
 20
1681.0
 11
442.6
 21
1681.0
  0
LINE
  8
0
  6
CONTINUOUS
 62
     2
 10
412.6
 20
1681.0
 11
431.918516526
 21
1675.823619098
  0
LINE
  8
0
  6
CONTINUOUS
 62
     2
 10
412.6
 20
1681.0
 11
431.918516526
 21
1686.176380902
  0
LINE
  8
0
  6
CONTINUOUS
 62
     2
 10
412.6
 20
1647.9
 11
412.6
 21
1689.0
  0
TEXT
  8
0
  6
CONTINUOUS
 62
     2
 10
336.6
 20
1686.6
 30
0.0
 40
24.0
  1
φ４４ｈ７
 50
0.0
 41
0.9
 51
0.0
  7
KANJI30
  0
LINE
  8
0
  6
CONTINUOUS
 62
     2
 10
335.6
 20
1572.9
 11
335.6
 21
1757.9
  0
LINE
  8
0
  6
CONTINUOUS
 62
     2
 10
335.6
 20
1749.9
 11
354.918516526
 21
1744.723619098
  0
LINE
  8
0
  6
CONTINUOUS
 62
     2
 10
335.6
 20
1749.9
 11
354.918516526
 21
1755.076380902
  0
LINE
  8
0
  6
CONTINUOUS
 62
     2
 10
335.6
 20
1749.9
 11
445.6
 21
1749.9
  0
LINE
  8
0
  6
CONTINUOUS
 62
     2
 10
445.6
 20
1749.9
 11
426.281483474
 21
1755.076380902
  0
LINE
  8
0
  6
CONTINUOUS
 62
     2
 10
445.6
 20
1749.9
 11
426.281483474
 21
1744.723619098
  0
LINE
  8
0
  6
CONTINUOUS
 62
     2
 10
445.6
 20
1572.9
 11
445.6
 21
1757.9
  0
TEXT
  8
0
  6
CONTINUOUS
 62
     2
 10
331.718516526
 20
1759.323619098
 30
0.0
 40
24.0
  1
φ１１０ｄ９
 50
0.0
 41
0.9
 51
0.0
  7
KANJI30
  0
LINE
  8
0
  6
CONTINUOUS
 62
     2
 10
1689.2
 20
970.0
 11
1689.2
 21
932.0
  0
LINE
  8
0
  6
CONTINUOUS
 62
     2
 10
1689.2
 20
940.0
 11
1708.518516526
 21
934.823619098
  0
LINE
  8
0
  6
CONTINUOUS
 62
     2
 10
1689.2
 20
940.0
 11
1708.518516526
 21
945.176380902
  0
LINE
  8
0
  6
CONTINUOUS
 62
     2
 10
1689.2
 20
940.0
 11
1819.2
 21
940.0
  0
LINE
  8
0
  6
CONTINUOUS
 62
     2
 10
1819.2
 20
940.0
 11
1799.881483474
 21
945.176380902
  0
LINE
  8
0
  6
CONTINUOUS
 62
     2
 10
1819.2
 20
940.0
 11
1799.881483474
 21
934.823619098
  0
TEXT
  8
0
  6
CONTINUOUS
 62
     2
 10
1721.8
 20
945.6
 30
0.0
 40
24.0
  1
１３０
 50
0.0
 41
0.9
 51
0.0
  7
KANJI30
  0
LINE
  8
0
  6
CONTINUOUS
 62
     2
 10
1819.2
 20
973.0
 11
1819.2
 21
867.0
  0
LINE
  8
0
  6
CONTINUOUS
 62
     2
 10
1819.2
 20
875.0
 11
1799.881483474
 21
880.176380902
  0
LINE
  8
0
  6
CONTINUOUS
 62
     2
 10
1819.2
 20
875.0
 11
1799.881483474
 21
869.823619098
  0
LINE
  8
0
  6
CONTINUOUS
 62
     2
 10
1819.2
 20
811.1
 11
1799.881483474
 21
816.276380902
  0
LINE
  8
0
  6
CONTINUOUS
 62
     2
 10
1819.2
 20
811.1
 11
1799.881483474
 21
805.923619098
  0
LINE
  8
0
  6
CONTINUOUS
 62
     2
 10
1819.2
 20
899.1
 11
1819.2
 21
803.1
  0
LINE
  8
0
  6
CONTINUOUS
 62
     2
 10
1819.2
 20
875.0
 11
390.6
 21
875.0
  0
LINE
  8
0
  6
CONTINUOUS
 62
     2
 10
281.6
 20
811.1
 11
1819.2
 21
811.1
  0
LINE
  8
0
  6
CONTINUOUS
 62
     2
 10
1689.2
 20
951.0
 11
1689.2
 21
932.0
  0
LINE
  8
0
  6
CONTINUOUS
 62
     2
 10
1689.2
 20
940.0
 11
1669.881483474
 21
945.176380902
  0
LINE
  8
0
  6
CONTINUOUS
 62
     2
 10
1689.2
 20
940.0
 11
1669.881483474
 21
934.823619098
  0
LINE
  8
0
  6
CONTINUOUS
 62
     2
 10
1689.2
 20
940.0
 11
1551.2
 21
940.0
  0
LINE
  8
0
  6
CONTINUOUS
 62
     2
 10
1551.2
 20
940.0
 11
1570.518516526
 21
934.823619098
  0
LINE
  8
0
  6
CONTINUOUS
 62
     2
 10
1551.2
 20
940.0
 11
1570.518516526
 21
945.176380902
  0
TEXT
  8
0
  6
CONTINUOUS
 62
     2
 10
1566.2
 20
945.6
 30
0.0
 40
24.0
  1
ｍｉｎ．Ｐ
 50
0.0
 41
0.9
 51
0.0
  7
KANJI30
  0
LINE
  8
0
  6
CONTINUOUS
 62
     2
 10
1551.2
 20
1002.0
 11
1551.2
 21
932.0
  0
LINE
  8
0
  6
CONTINUOUS
 62
     2
 10
1551.2
 20
940.0
 11
1531.881483474
 21
945.176380902
  0
LINE
  8
0
  6
CONTINUOUS
 62
     2
 10
1551.2
 20
940.0
 11
1531.881483474
 21
934.823619098
  0
LINE
  8
0
  6
CONTINUOUS
 62
     2
 10
1551.2
 20
940.0
 11
390.6
 21
940.0
  0
LINE
  8
2
  6
CONTINUOUS
 62
     2
 10
390.6
 20
997.866666667
 11
390.6
 21
989.866666667
  0
LINE
  8
0
  6
CONTINUOUS
 62
     2
 10
390.6
 20
1033.0
 11
390.6
 21
932.0
  0
LINE
  8
0
  6
CONTINUOUS
 62
     2
 10
390.6
 20
875.0
 11
409.918516526
 21
869.823619098
  0
LINE
  8
0
  6
CONTINUOUS
 62
     2
 10
390.6
 20
875.0
 11
409.918516526
 21
880.176380902
  0
LINE
  8
0
  6
CONTINUOUS
 62
     2
 10
390.6
 20
954.0
 11
390.6
 21
867.0
  0
LINE
  8
0
  6
CONTINUOUS
 62
     2
 10
390.6
 20
894.0
 11
390.6
 21
867.0
  0
LINE
  8
0
  6
CONTINUOUS
 62
     2
 10
390.6
 20
875.0
 11
371.281483474
 21
880.176380902
  0
LINE
  8
0
  6
CONTINUOUS
 62
     2
 10
390.6
 20
875.0
 11
371.281483474
 21
869.823619098
  0
LINE
  8
0
  6
CONTINUOUS
 62
     2
 10
390.6
 20
875.0
 11
281.6
 21
875.0
  0
LINE
  8
0
  6
CONTINUOUS
 62
     2
 10
281.6
 20
875.0
 11
300.918516526
 21
869.823619098
  0
LINE
  8
0
  6
CONTINUOUS
 62
     2
 10
281.6
 20
875.0
 11
300.918516526
 21
880.176380902
  0
TEXT
  8
0
  6
CONTINUOUS
 62
     2
 10
303.7
 20
880.6
 30
0.0
 40
24.0
  1
１０９
 50
0.0
 41
0.9
 51
0.0
  7
KANJI30
  0
LINE
  8
0
  6
CONTINUOUS
 62
     2
 10
281.6
 20
915.1
 11
281.6
 21
803.1
  0
LINE
  8
0
  6
CONTINUOUS
 62
     2
 10
281.6
 20
811.1
 11
300.918516526
 21
805.923619098
  0
LINE
  8
0
  6
CONTINUOUS
 62
     2
 10
281.6
 20
811.1
 11
300.918516526
 21
816.276380902
  0
LINE
  8
0
  6
CONTINUOUS
 62
     2
 10
390.6
 20
940.0
 11
409.918516526
 21
934.823619098
  0
LINE
  8
0
  6
CONTINUOUS
 62
     2
 10
390.6
 20
940.0
 11
409.918516526
 21
945.176380902
  0
LINE
  8
0
  6
CONTINUOUS
 62
     2
 10
390.6
 20
935.9
 11
390.6
 21
932.0
  0
TEXT
  8
0
  6
CONTINUOUS
 62
     2
 10
960.1
 20
945.6
 30
0.0
 40
24.0
  1
Ｃ
 50
0.0
 41
0.9
 51
0.0
  7
KANJI30
  0
LINE
  8
0
  6
CONTINUOUS
 62
     2
 10
281.6
 20
1181.4
 11
281.6
 21
867.0
  0
LINE
  8
0
  6
CONTINUOUS
 62
     2
 10
1551.2
 20
1234.45
 11
1551.2
 21
932.0
  0
LINE
  8
0
  6
CONTINUOUS
 62
     2
 10
1689.2
 20
1264.8
 11
1689.2
 21
932.0
  0
LINE
  8
0
  6
CONTINUOUS
 62
     2
 10
1819.2
 20
1289.8
 11
1819.2
 21
932.0
  0
LINE
  8
0
  6
CONTINUOUS
 62
     2
 10
2046.0
 20
1089.9
 11
2046.0
 21
1569.9
  0
LINE
  8
0
  6
CONTINUOUS
 62
     2
 10
2046.0
 20
1569.9
 11
2040.823619098
 21
1550.581483474
  0
LINE
  8
0
  6
CONTINUOUS
 62
     2
 10
2046.0
 20
1569.9
 11
2051.176380902
 21
1550.581483474
  0
LINE
  8
0
  6
CONTINUOUS
 62
     2
 10
2063.1
 20
1569.9
 11
2038.0
 21
1569.9
  0
LINE
  8
0
  6
CONTINUOUS
 62
     2
 10
2046.0
 20
1569.9
 11
2051.176380902
 21
1589.218516526
  0
LINE
  8
0
  6
CONTINUOUS
 62
     2
 10
2046.0
 20
1569.9
 11
2040.823619098
 21
1589.218516526
  0
LINE
  8
0
  6
CONTINUOUS
 62
     2
 10
2046.0
 20
1569.9
 11
2046.0
 21
1639.9
  0
LINE
  8
0
  6
CONTINUOUS
 62
     2
 10
2046.0
 20
1639.9
 11
2040.823619098
 21
1620.581483474
  0
LINE
  8
0
  6
CONTINUOUS
 62
     2
 10
2046.0
 20
1639.9
 11
2051.176380902
 21
1620.581483474
  0
TEXT
  8
0
  6
CONTINUOUS
 62
     2
 10
2040.4
 20
1583.3
 30
0.0
 40
24.0
  1
７０
 50
90.0
 41
0.9
 51
0.0
  7
KANJI30
  0
LINE
  8
0
  6
CONTINUOUS
 62
     2
 10
2270.3
 20
1639.9
 11
2038.0
 21
1639.9
  0
LINE
  8
0
  6
CONTINUOUS
 62
     2
 10
2273.3
 20
1569.9
 11
2038.0
 21
1569.9
  0
LINE
  8
0
  6
CONTINUOUS
 62
     1
 10
2240.8
 20
1094.9
 11
2350.8
 21
1094.9
  0
LINE
  8
0
  6
CONTINUOUS
 62
     1
 10
2350.8
 20
1094.9
 11
2350.8
 21
1146.9
  0
LINE
  8
0
  6
CONTINUOUS
 62
     1
 10
2240.8
 20
1094.9
 11
2240.8
 21
1146.9
  0
LINE
  8
0
  6
CONTINUOUS
 62
     1
 10
2240.8
 20
1564.9
 11
2350.8
 21
1564.9
  0
LINE
  8
0
  6
CONTINUOUS
 62
     1
 10
2350.8
 20
1564.9
 11
2350.8
 21
1512.9
  0
LINE
  8
0
  6
CONTINUOUS
 62
     1
 10
2240.8
 20
1564.9
 11
2240.8
 21
1512.9
  0
LINE
  8
0
  6
CONTINUOUS
 62
     1
 10
2208.8
 20
1482.9
 11
2208.8
 21
1452.092471126
  0
LINE
  8
0
  6
CONTINUOUS
 62
     1
 10
2211.8
 20
1482.9
 11
2211.8
 21
1512.9
  0
LINE
  8
0
  6
CONTINUOUS
 62
     1
 10
2208.8
 20
1482.9
 11
2382.8
 21
1482.9
  0
LINE
  8
0
  6
CONTINUOUS
 62
     1
 10
2211.8
 20
1512.9
 11
2379.8
 21
1512.9
  0
LINE
  8
0
  6
CONTINUOUS
 62
     1
 10
2208.8
 20
1176.9
 11
2208.8
 21
1207.707528874
  0
LINE
  8
0
  6
CONTINUOUS
 62
     1
 10
2211.8
 20
1176.9
 11
2211.8
 21
1146.9
  0
LINE
  8
0
  6
CONTINUOUS
 62
     1
 10
2208.8
 20
1176.9
 11
2382.8
 21
1176.9
  0
LINE
  8
0
  6
CONTINUOUS
 62
     1
 10
2211.8
 20
1146.9
 11
2379.8
 21
1146.9
  0
CIRCLE
  8
0
  6
CONTINUOUS
 62
     1
 10
2295.8
 20
1329.9
 40
115.0
  0
CIRCLE
  8
0
  6
CONTINUOUS
 62
     1
 10
2295.8
 20
1329.9
 40
85.0
  0
CIRCLE
  8
0
  6
CONTINUOUS
 62
     1
 10
2295.8
 20
1329.9
 40
61.5
  0
LINE
  8
0
  6
LTYPE3
 62
     2
 10
2295.8
 20
1336.7
 11
2295.8
 21
1323.1
  0
LINE
  8
0
  6
CONTINUOUS
 62
     1
 10
2342.514558758
 20
1369.9
 11
2249.085441242
 21
1369.9
  0
LINE
  8
0
  6
LTYPE1
 62
     1
 10
2327.3
 20
1289.9
 11
2327.3
 21
1369.9
  0
ARC
  8
0
  6
CONTINUOUS
 62
     1
 10
2295.8
 20
1329.9
 40
46.5
 50
300.659262305
 51
59.340737695
  0
LINE
  8
0
  6
LTYPE1
 62
     1
 10
2264.3
 20
1289.9
 11
2264.3
 21
1369.9
  0
ARC
  8
0
  6
CONTINUOUS
 62
     1
 10
2295.8
 20
1329.9
 40
46.5
 50
120.659262305
 51
239.340737695
  0
LINE
  8
0
  6
CONTINUOUS
 62
     1
 10
2342.514558758
 20
1289.9
 11
2249.085441242
 21
1289.9
  0
LINE
  8
0
  6
CONTINUOUS
 62
     1
 10
2273.3
 20
1089.9
 11
2273.3
 21
1094.9
  0
LINE
  8
0
  6
CONTINUOUS
 62
     1
 10
2273.3
 20
1089.9
 11
2318.3
 21
1089.9
  0
LINE
  8
0
  6
CONTINUOUS
 62
     1
 10
2270.3
 20
1074.9
 11
2273.8
 21
1074.9
  0
LINE
  8
0
  6
CONTINUOUS
 62
     1
 10
2270.3
 20
1019.9
 11
2270.3
 21
1074.9
  0
LINE
  8
0
  6
CONTINUOUS
 62
     1
 10
2273.8
 20
1019.9
 11
2273.8
 21
1089.9
  0
LINE
  8
0
  6
CONTINUOUS
 62
     1
 10
2270.3
 20
1019.9
 11
2317.8
 21
1019.9
  0
LINE
  8
0
  6
CONTINUOUS
 62
     1
 10
2318.3
 20
1089.9
 11
2318.3
 21
1094.9
  0
LINE
  8
0
  6
CONTINUOUS
 62
     1
 10
2317.8
 20
1019.9
 11
2317.8
 21
1089.9
  0
LINE
  8
0
  6
CONTINUOUS
 62
     1
 10
2273.3
 20
1569.9
 11
2273.3
 21
1564.9
  0
LINE
  8
0
  6
CONTINUOUS
 62
     1
 10
2273.3
 20
1569.9
 11
2318.3
 21
1569.9
  0
LINE
  8
0
  6
CONTINUOUS
 62
     1
 10
2270.3
 20
1584.9
 11
2273.8
 21
1584.9
  0
LINE
  8
0
  6
CONTINUOUS
 62
     1
 10
2270.3
 20
1639.9
 11
2270.3
 21
1584.9
  0
LINE
  8
0
  6
CONTINUOUS
 62
     1
 10
2273.8
 20
1639.9
 11
2273.8
 21
1569.9
  0
LINE
  8
0
  6
CONTINUOUS
 62
     1
 10
2270.3
 20
1639.9
 11
2317.8
 21
1639.9
  0
LINE
  8
0
  6
CONTINUOUS
 62
     1
 10
2318.3
 20
1569.9
 11
2318.3
 21
1564.9
  0
LINE
  8
0
  6
CONTINUOUS
 62
     1
 10
2317.8
 20
1639.9
 11
2317.8
 21
1569.9
  0
LINE
  8
0
  6
LTYPE2
 62
     2
 10
2295.8
 20
991.0
 11
2295.8
 21
1658.3
  0
LINE
  8
0
  6
CONTINUOUS
 62
     2
 10
2295.8
 20
1664.9
 11
2295.8
 21
1689.0
  0
LINE
  8
0
  6
CONTINUOUS
 62
     2
 10
2295.8
 20
1681.0
 11
2315.118516526
 21
1675.823619098
  0
LINE
  8
0
  6
CONTINUOUS
 62
     2
 10
2295.8
 20
1681.0
 11
2315.118516526
 21
1686.176380902
  0
LINE
  8
0
  6
CONTINUOUS
 62
     2
 10
2295.8
 20
1681.0
 11
2445.8
 21
1681.0
  0
TEXT
  8
0
  6
CONTINUOUS
 62
     2
 10
2338.4
 20
1686.6
 30
0.0
 40
24.0
  1
１５０
 50
0.0
 41
0.9
 51
0.0
  7
KANJI30
  0
CIRCLE
  8
0
  6
CONTINUOUS
 62
     1
 10
2295.8
 20
1329.9
 40
150.0
  0
LINE
  8
0
  6
CONTINUOUS
 62
     1
 10
2220.336573185
 20
1416.677135314
 11
2202.623661445
 21
1434.390047054
  0
LINE
  8
0
  6
CONTINUOUS
 62
     1
 10
2209.922864686
 20
1404.463426815
 11
2191.309952946
 21
1423.076338555
  0
LINE
  8
0
  6
CONTINUOUS
 62
     1
 10
2202.623661445
 20
1434.390047054
 11
2191.309952946
 21
1423.076338555
  0
LINE
  8
0
  6
CONTINUOUS
 62
     1
 10
2202.623661445
 20
1225.409952946
 11
2220.336573185
 21
1243.122864686
  0
LINE
  8
0
  6
CONTINUOUS
 62
     1
 10
2191.309952946
 20
1236.723661445
 11
2210.077156187
 21
1255.490864686
  0
LINE
  8
0
  6
CONTINUOUS
 62
     1
 10
2191.309952946
 20
1236.723661445
 11
2202.623661445
 21
1225.409952946
  0
LINE
  8
2
  6
CONTINUOUS
 62
     2
 10
2054.0
 20
1089.9
 11
2030.0
 21
1089.9
  0
LINE
  8
2
  6
CONTINUOUS
 62
     2
 10
2046.0
 20
1089.9
 11
2051.176380902
 21
1070.581483474
  0
LINE
  8
2
  6
CONTINUOUS
 62
     2
 10
2046.0
 20
1089.9
 11
2040.823619098
 21
1070.581483474
  0
LINE
  8
2
  6
CONTINUOUS
 62
     2
 10
2046.0
 20
1089.9
 11
2046.0
 21
1019.9
  0
LINE
  8
2
  6
CONTINUOUS
 62
     2
 10
2046.0
 20
1019.9
 11
2040.823619098
 21
1039.218516526
  0
LINE
  8
2
  6
CONTINUOUS
 62
     2
 10
2046.0
 20
1019.9
 11
2051.176380902
 21
1039.218516526
  0
TEXT
  8
2
  6
CONTINUOUS
 62
     3
 10
2038.0
 20
1028.1
 30
2.4
 40
28.0
  1
７０
 50
90.0
 41
0.914285714
 51
0.0
  7
KANJI31
  0
LINE
  8
0
  6
CONTINUOUS
 62
     2
 10
2063.1
 20
1089.9
 11
2038.0
 21
1089.9
  0
LINE
  8
0
  6
CONTINUOUS
 62
     2
 10
2046.0
 20
1089.9
 11
2051.176380902
 21
1109.218516526
  0
LINE
  8
0
  6
CONTINUOUS
 62
     2
 10
2046.0
 20
1089.9
 11
2040.823619098
 21
1109.218516526
  0
TEXT
  8
0
  6
CONTINUOUS
 62
     2
 10
2040.4
 20
1297.5
 30
0.0
 40
24.0
  1
４８０
 50
90.0
 41
0.9
 51
0.0
  7
KANJI30
  0
LINE
  8
0
  6
LTYPE3
 62
     2
 10
2063.6
 20
1329.9
 11
2453.6
 21
1329.9
  0
LINE
  8
0
  6
CONTINUOUS
 62
     1
 10
2128.8
 20
1314.8
 11
2128.8
 21
1321.9
  0
LINE
  8
0
  6
CONTINUOUS
 62
     1
 10
2128.8
 20
1345.0
 11
2124.0
 21
1340.2
  0
LINE
  8
0
  6
CONTINUOUS
 62
     1
 10
2128.8
 20
1314.8
 11
2124.0
 21
1319.6
  0
LINE
  8
0
  6
CONTINUOUS
 62
     1
 10
2124.0
 20
1319.6
 11
2124.0
 21
1321.9
  0
LINE
  8
0
  6
CONTINUOUS
 62
     1
 10
2138.7
 20
1337.9
 11
2078.8
 21
1337.9
  0
LINE
  8
0
  6
CONTINUOUS
 62
     1
 10
2138.7
 20
1321.9
 11
2078.8
 21
1321.9
  0
ARC
  8
0
  6
CONTINUOUS
 62
     1
 10
2078.8
 20
1329.9
 40
8.0
 50
90.0
 51
270.0
  0
ARC
  8
0
  6
CONTINUOUS
 62
     1
 10
2138.7
 20
1319.9
 40
2.0
 50
0.0
 51
90.0
  0
ARC
  8
0
  6
CONTINUOUS
 62
     1
 10
2138.7
 20
1339.9
 40
2.0
 50
270.0
 51
0.0
  0
LINE
  8
0
  6
CONTINUOUS
 62
     1
 10
2128.8
 20
1345.0
 11
2128.8
 21
1337.9
  0
LINE
  8
0
  6
CONTINUOUS
 62
     1
 10
2124.0
 20
1340.2
 11
2124.0
 21
1337.9
  0
LINE
  8
0
  6
CONTINUOUS
 62
     1
 10
2146.725427977
 20
1346.536465255
 11
2128.8
 21
1345.0
  0
LINE
  8
0
  6
CONTINUOUS
 62
     1
 10
2146.725427977
 20
1313.263534745
 11
2128.8
 21
1314.8
  0
LINE
  8
0
  6
CONTINUOUS
 62
     2
 10
2295.8
 20
1673.0
 11
2295.8
 21
1689.0
  0
LINE
  8
0
  6
CONTINUOUS
 62
     2
 10
2295.8
 20
1681.0
 11
2276.481483474
 21
1686.176380902
  0
LINE
  8
0
  6
CONTINUOUS
 62
     2
 10
2295.8
 20
1681.0
 11
2276.481483474
 21
1675.823619098
  0
LINE
  8
0
  6
CONTINUOUS
 62
     2
 10
2295.8
 20
1681.0
 11
2070.8
 21
1681.0
  0
LINE
  8
0
  6
CONTINUOUS
 62
     2
 10
2070.8
 20
1681.0
 11
2090.118516526
 21
1675.823619098
  0
LINE
  8
0
  6
CONTINUOUS
 62
     2
 10
2070.8
 20
1681.0
 11
2090.118516526
 21
1686.176380902
  0
LINE
  8
0
  6
CONTINUOUS
 62
     2
 10
2070.8
 20
1337.9
 11
2070.8
 21
1689.0
  0
TEXT
  8
0
  6
CONTINUOUS
 62
     2
 10
2150.9
 20
1686.6
 30
0.0
 40
24.0
  1
２２５
 50
0.0
 41
0.9
 51
0.0
  7
KANJI30
  0
LINE
  8
2
  6
CONTINUOUS
 62
     2
 10
2266.3
 20
1089.9
 11
2030.0
 21
1089.9
  0
LINE
  8
2
  6
CONTINUOUS
 62
     2
 10
2261.3
 20
1019.9
 11
2030.0
 21
1019.9
  0
LINE
  8
0
  6
CONTINUOUS
 62
     1
 10
2371.263426815
 20
1416.677135314
 11
2388.976338555
 21
1434.390047054
  0
LINE
  8
0
  6
CONTINUOUS
 62
     1
 10
2388.976338555
 20
1225.409952946
 11
2371.263426815
 21
1243.122864686
  0
LINE
  8
0
  6
CONTINUOUS
 62
     1
 10
2382.8
 20
1482.9
 11
2382.8
 21
1452.092471126
  0
LINE
  8
0
  6
CONTINUOUS
 62
     1
 10
2379.8
 20
1482.9
 11
2379.8
 21
1512.9
  0
LINE
  8
0
  6
CONTINUOUS
 62
     1
 10
2382.8
 20
1176.9
 11
2382.8
 21
1207.707528874
  0
LINE
  8
0
  6
CONTINUOUS
 62
     1
 10
2379.8
 20
1176.9
 11
2379.8
 21
1146.9
  0
LINE
  8
0
  6
CONTINUOUS
 62
     1
 10
2381.677135314
 20
1404.463426815
 11
2400.290047054
 21
1423.076338555
  0
LINE
  8
0
  6
CONTINUOUS
 62
     1
 10
2388.976338555
 20
1434.390047054
 11
2400.290047054
 21
1423.076338555
  0
LINE
  8
0
  6
CONTINUOUS
 62
     1
 10
2400.290047054
 20
1236.723661445
 11
2381.522843813
 21
1255.490864686
  0
LINE
  8
0
  6
CONTINUOUS
 62
     1
 10
2400.290047054
 20
1236.723661445
 11
2388.976338555
 21
1225.409952946
  0
LINE
  8
0
  6
CONTINUOUS
 62
     2
 10
2445.8
 20
1681.0
 11
2426.481483474
 21
1686.176380902
  0
LINE
  8
0
  6
CONTINUOUS
 62
     2
 10
2445.8
 20
1681.0
 11
2426.481483474
 21
1675.823619098
  0
LINE
  8
0
  6
CONTINUOUS
 62
     2
 10
2445.8
 20
1337.9
 11
2445.8
 21
1689.0
  0
TEXT
  8
0
  6
CONTINUOUS
 62
     2
 10
2939.466666667
 20
1911.2
 30
0.0
 40
24.0
  1
ＳＣＤ２０Ａ－　　Ｊ
 50
0.0
 41
0.833333333
 51
0.0
  7
KANJI32
  0
TEXT
  8
0
  6
CONTINUOUS
 62
     2
 10
2955.133333333
 20
1522.666666667
 30
0.0
 40
24.0
  1
２８４Ｎｍ（２９ｋｇｍ）
 50
0.0
 41
0.9
 51
0.0
  7
KANJI30
  0
TEXT
  8
0
  6
CONTINUOUS
 62
     2
 10
2954.6
 20
1464.2
 30
0.0
 40
24.0
  1
５５０Ｎｍ（５６ｋｇｍ）
 50
0.0
 41
0.9
 51
0.0
  7
KANJI30
  0
TEXT
  8
0
  6
CONTINUOUS
 62
     2
 10
2492.0
 20
308.0
 30
0.0
 40
28.0
  1
ＳＣＤ２０Ａ－Ｊ
 50
0.0
 41
0.793650794
 51
0.0
  7
KANJI33
  0
TEXT
  8
0
  6
CONTINUOUS
 62
     2
 10
504.985251001
 20
38.146632
 30
2.4
 40
24.0
  1
ＦＤ　Ｎｏ．ＳＣ２１
 50
0.0
 41
1.0
 51
0.0
  7
KANJI34
  0
TEXT
  8
0
  6
CONTINUOUS
 62
     3
 10
2586.518632601
 20
189.479992
 30
17.333333333
 40
40.0
  1
Ａ３００２０３５
 50
0.0
 41
0.8
 51
0.0
  7
KANJI35
  0
LINE
  8
0
  6
CONTINUOUS
 62
     1
 10
613.985251001
 20
737.48
 11
1853.985251001
 21
737.48
  0
LINE
  8
0
  6
CONTINUOUS
 62
     1
 10
613.985251001
 20
681.48
 11
1853.985251001
 21
681.48
  0
TEXT
  8
0
  6
CONTINUOUS
 62
     2
 10
914.785251001
 20
697.48
 30
2.4
 40
24.0
  1
ストローク
 50
0.0
 41
0.9
 51
0.0
  7
KANJI36
  0
TEXT
  8
0
  6
CONTINUOUS
 62
     2
 10
1068.385251001
 20
695.88
 30
0.0
 40
24.0
  1
ｍｉｎ　
 50
0.0
 41
0.9
 51
0.0
  7
KANJI30
  0
TEXT
  8
0
  6
CONTINUOUS
 62
     2
 10
1228.385251001
 20
695.88
 30
0.0
 40
24.0
  1
ｍｉｎ　
 50
0.0
 41
0.9
 51
0.0
  7
KANJI30
  0
TEXT
  8
0
  6
CONTINUOUS
 62
     2
 10
1548.385251001
 20
695.88
 30
0.0
 40
24.0
  1
ｍｉｎ　
 50
0.0
 41
0.9
 51
0.0
  7
KANJI30
  0
TEXT
  8
0
  6
CONTINUOUS
 62
     2
 10
1796.985251001
 20
699.28
 30
0.0
 40
19.2
  1
（ｋｇ）
 50
0.0
 41
0.777777778
 51
0.0
  7
KANJI37
  0
TEXT
  8
0
  6
CONTINUOUS
 62
     2
 10
1700.985251001
 20
696.48
 30
2.56
 40
25.6
  1
概算重量
 50
0.0
 41
0.9
 51
0.0
  7
KANJI38
  0
TEXT
  8
0
  6
CONTINUOUS
 62
     2
 10
669.985251001
 20
697.48
 30
2.56
 40
25.6
  1
形
 50
0.0
 41
0.9
 51
0.0
  7
KANJI38
  0
TEXT
  8
0
  6
CONTINUOUS
 62
     2
 10
825.985251001
 20
697.48
 30
2.56
 40
25.6
  1
式
 50
0.0
 41
0.9
 51
0.0
  7
KANJI38
  0
TEXT
  8
0
  6
CONTINUOUS
 62
     2
 10
1149.985251001
 20
697.48
 30
2.8
 40
28.0
  1
ＡＬ
 50
0.0
 41
0.9
 51
0.0
  7
KANJI39
  0
TEXT
  8
0
  6
CONTINUOUS
 62
     2
 10
1309.985251001
 20
697.48
 30
2.8
 40
28.0
  1
Ｌ
 50
0.0
 41
0.9
 51
0.0
  7
KANJI39
  0
TEXT
  8
0
  6
CONTINUOUS
 62
     2
 10
1445.985251001
 20
697.48
 30
2.8
 40
28.0
  1
Ｃ
 50
0.0
 41
0.9
 51
0.0
  7
KANJI39
  0
TEXT
  8
0
  6
CONTINUOUS
 62
     2
 10
1629.985251001
 20
697.48
 30
2.8
 40
28.0
  1
Ｐ
 50
0.0
 41
0.9
 51
0.0
  7
KANJI39
  0
TEXT
  8
0
  6
CONTINUOUS
 62
     2
 10
1613.785251001
 20
642.48
 30
2.4
 40
24.0
  1
５０
 50
0.0
 41
0.9
 51
0.0
  7
KANJI36
  0
LINE
  8
0
  6
CONTINUOUS
 62
     3
 10
613.985251001
 20
401.48
 11
1853.985251001
 21
401.48
  0
LINE
  8
0
  6
CONTINUOUS
 62
     3
 10
613.985251001
 20
625.48
 11
1853.985251001
 21
625.48
  0
LINE
  8
0
  6
CONTINUOUS
 62
     3
 10
613.985251001
 20
569.48
 11
1853.985251001
 21
569.48
  0
LINE
  8
0
  6
CONTINUOUS
 62
     3
 10
613.985251001
 20
513.48
 11
1853.985251001
 21
513.48
  0
LINE
  8
0
  6
CONTINUOUS
 62
     3
 10
613.985251001
 20
457.48
 11
1853.985251001
 21
457.48
  0
LINE
  8
0
  6
CONTINUOUS
 62
     3
 10
613.985251001
 20
345.48
 11
1853.985251001
 21
345.48
  0
LINE
  8
0
  6
CONTINUOUS
 62
     1
 10
613.985251001
 20
289.48
 11
1853.985251001
 21
289.48
  0
LINE
  8
0
  6
CONTINUOUS
 62
     1
 10
613.985251001
 20
737.48
 11
613.985251001
 21
289.48
  0
LINE
  8
0
  6
CONTINUOUS
 62
     1
 10
893.985251001
 20
737.48
 11
893.985251001
 21
289.48
  0
LINE
  8
0
  6
CONTINUOUS
 62
     3
 10
1053.985251001
 20
737.48
 11
1053.985251001
 21
289.48
  0
LINE
  8
0
  6
CONTINUOUS
 62
     3
 10
1213.985251001
 20
737.48
 11
1213.985251001
 21
289.48
  0
LINE
  8
0
  6
CONTINUOUS
 62
     3
 10
1373.985251001
 20
737.48
 11
1373.985251001
 21
289.48
  0
LINE
  8
0
  6
CONTINUOUS
 62
     3
 10
1533.985251001
 20
737.48
 11
1533.985251001
 21
289.48
  0
LINE
  8
0
  6
CONTINUOUS
 62
     3
 10
1693.985251001
 20
737.48
 11
1693.985251001
 21
289.48
  0
LINE
  8
0
  6
CONTINUOUS
 62
     1
 10
1853.985251001
 20
737.48
 11
1853.985251001
 21
289.48
  0
TEXT
  8
0
  6
CONTINUOUS
 62
     2
 10
961.985251001
 20
638.88
 30
2.4
 40
24.0
  1
３００
 50
0.0
 41
0.9
 51
0.0
  7
KANJI36
  0
TEXT
  8
0
  6
CONTINUOUS
 62
     2
 10
961.985251001
 20
582.88
 30
2.4
 40
24.0
  1
５００
 50
0.0
 41
0.9
 51
0.0
  7
KANJI36
  0
TEXT
  8
0
  6
CONTINUOUS
 62
     2
 10
961.985251001
 20
526.88
 30
2.4
 40
24.0
  1
７００
 50
0.0
 41
0.9
 51
0.0
  7
KANJI36
  0
TEXT
  8
0
  6
CONTINUOUS
 62
     2
 10
937.985251001
 20
470.88
 30
2.4
 40
24.0
  1
１０００
 50
0.0
 41
0.9
 51
0.0
  7
KANJI36
  0
TEXT
  8
0
  6
CONTINUOUS
 62
     2
 10
937.985251001
 20
414.88
 30
2.4
 40
24.0
  1
１５００
 50
0.0
 41
0.9
 51
0.0
  7
KANJI36
  0
TEXT
  8
0
  6
CONTINUOUS
 62
     2
 10
937.985251001
 20
358.88
 30
2.4
 40
24.0
  1
２０００
 50
0.0
 41
0.9
 51
0.0
  7
KANJI36
  0
TEXT
  8
0
  6
CONTINUOUS
 62
     2
 10
1589.785251001
 20
586.48
 30
2.4
 40
24.0
  1
１１２
 50
0.0
 41
0.9
 51
0.0
  7
KANJI36
  0
TEXT
  8
0
  6
CONTINUOUS
 62
     2
 10
1589.785251001
 20
530.48
 30
2.4
 40
24.0
  1
１４８
 50
0.0
 41
0.9
 51
0.0
  7
KANJI36
  0
TEXT
  8
0
  6
CONTINUOUS
 62
     2
 10
1589.785251001
 20
474.48
 30
2.4
 40
24.0
  1
２３１
 50
0.0
 41
0.9
 51
0.0
  7
KANJI36
  0
TEXT
  8
0
  6
CONTINUOUS
 62
     2
 10
1589.785251001
 20
418.48
 30
2.4
 40
24.0
  1
３５０
 50
0.0
 41
0.9
 51
0.0
  7
KANJI36
  0
TEXT
  8
0
  6
CONTINUOUS
 62
     2
 10
1589.785251001
 20
362.48
 30
2.4
 40
24.0
  1
４５０
 50
0.0
 41
0.9
 51
0.0
  7
KANJI36
  0
TEXT
  8
0
  6
CONTINUOUS
 62
     2
 10
639.985251001
 20
638.28
 30
1.6
 40
24.0
  1
ＳＣＤ２０Ａ－　３Ｊ
 50
0.0
 41
0.833333333
 51
0.0
  7
KANJI40
  0
TEXT
  8
0
  6
CONTINUOUS
 62
     2
 10
639.985251001
 20
582.28
 30
1.6
 40
24.0
  1
ＳＣＤ２０Ａ－　５Ｊ
 50
0.0
 41
0.833333333
 51
0.0
  7
KANJI40
  0
TEXT
  8
0
  6
CONTINUOUS
 62
     2
 10
639.985251001
 20
526.28
 30
1.6
 40
24.0
  1
ＳＣＤ２０Ａ－　７Ｊ
 50
0.0
 41
0.833333333
 51
0.0
  7
KANJI40
  0
TEXT
  8
0
  6
CONTINUOUS
 62
     2
 10
639.985251001
 20
470.28
 30
1.6
 40
24.0
  1
ＳＣＤ２０Ａ－１０Ｊ
 50
0.0
 41
0.833333333
 51
0.0
  7
KANJI40
  0
TEXT
  8
0
  6
CONTINUOUS
 62
     2
 10
639.985251001
 20
414.28
 30
1.6
 40
24.0
  1
ＳＣＤ２０Ａ－１５Ｊ
 50
0.0
 41
0.833333333
 51
0.0
  7
KANJI40
  0
TEXT
  8
0
  6
CONTINUOUS
 62
     2
 10
639.985251001
 20
358.28
 30
1.6
 40
24.0
  1
ＳＣＤ２０Ａ－２０Ｊ
 50
0.0
 41
0.833333333
 51
0.0
  7
KANJI40
  0
TEXT
  8
0
  6
CONTINUOUS
 62
     2
 10
639.985251001
 20
302.28
 30
1.6
 40
24.0
  1
ＳＣＤ２０Ａ－　　Ｊ
 50
0.0
 41
0.833333333
 51
0.0
  7
KANJI40
  0
TEXT
  8
0
  6
CONTINUOUS
 62
     2
 10
1415.585251001
 20
642.48
 30
2.4
 40
24.0
  1
１００５
 50
0.0
 41
0.9
 51
0.0
  7
KANJI36
  0
TEXT
  8
0
  6
CONTINUOUS
 62
     2
 10
1415.585251001
 20
586.48
 30
2.4
 40
24.0
  1
１２０５
 50
0.0
 41
0.9
 51
0.0
  7
KANJI36
  0
TEXT
  8
0
  6
CONTINUOUS
 62
     2
 10
1415.585251001
 20
530.48
 30
2.4
 40
24.0
  1
１４２５
 50
0.0
 41
0.9
 51
0.0
  7
KANJI36
  0
TEXT
  8
0
  6
CONTINUOUS
 62
     2
 10
1415.585251001
 20
474.48
 30
2.4
 40
24.0
  1
１７２５
 50
0.0
 41
0.9
 51
0.0
  7
KANJI36
  0
TEXT
  8
0
  6
CONTINUOUS
 62
     2
 10
1415.585251001
 20
418.48
 30
2.4
 40
24.0
  1
２２６５
 50
0.0
 41
0.9
 51
0.0
  7
KANJI36
  0
TEXT
  8
0
  6
CONTINUOUS
 62
     2
 10
1415.585251001
 20
362.48
 30
2.4
 40
24.0
  1
２７９５
 50
0.0
 41
0.9
 51
0.0
  7
KANJI36
  0
TEXT
  8
0
  6
CONTINUOUS
 62
     2
 10
1257.585251001
 20
641.08
 30
2.4
 40
24.0
  1
１１８５
 50
0.0
 41
0.9
 51
0.0
  7
KANJI36
  0
TEXT
  8
0
  6
CONTINUOUS
 62
     2
 10
1257.585251001
 20
585.08
 30
2.4
 40
24.0
  1
１４４７
 50
0.0
 41
0.9
 51
0.0
  7
KANJI36
  0
TEXT
  8
0
  6
CONTINUOUS
 62
     2
 10
1257.585251001
 20
529.08
 30
2.4
 40
24.0
  1
１７０３
 50
0.0
 41
0.9
 51
0.0
  7
KANJI36
  0
TEXT
  8
0
  6
CONTINUOUS
 62
     2
 10
1255.985251001
 20
473.08
 30
2.4
 40
24.0
  1
２０８６
 50
0.0
 41
0.9
 51
0.0
  7
KANJI36
  0
TEXT
  8
0
  6
CONTINUOUS
 62
     2
 10
1255.985251001
 20
417.08
 30
2.4
 40
24.0
  1
２７４５
 50
0.0
 41
0.9
 51
0.0
  7
KANJI36
  0
TEXT
  8
0
  6
CONTINUOUS
 62
     2
 10
1255.985251001
 20
361.08
 30
2.4
 40
24.0
  1
３３７５
 50
0.0
 41
0.9
 51
0.0
  7
KANJI36
  0
TEXT
  8
0
  6
CONTINUOUS
 62
     2
 10
1096.785251001
 20
639.48
 30
2.4
 40
24.0
  1
１２９４
 50
0.0
 41
0.9
 51
0.0
  7
KANJI36
  0
TEXT
  8
0
  6
CONTINUOUS
 62
     2
 10
1096.785251001
 20
583.48
 30
2.4
 40
24.0
  1
１５５６
 50
0.0
 41
0.9
 51
0.0
  7
KANJI36
  0
TEXT
  8
0
  6
CONTINUOUS
 62
     2
 10
1095.785251001
 20
527.48
 30
2.4
 40
24.0
  1
１８１２
 50
0.0
 41
0.9
 51
0.0
  7
KANJI36
  0
TEXT
  8
0
  6
CONTINUOUS
 62
     2
 10
1095.185251001
 20
471.48
 30
2.4
 40
24.0
  1
２１９５
 50
0.0
 41
0.9
 51
0.0
  7
KANJI36
  0
TEXT
  8
0
  6
CONTINUOUS
 62
     2
 10
1095.185251001
 20
415.48
 30
2.4
 40
24.0
  1
２８５４
 50
0.0
 41
0.9
 51
0.0
  7
KANJI36
  0
TEXT
  8
0
  6
CONTINUOUS
 62
     2
 10
1095.185251001
 20
359.48
 30
2.4
 40
24.0
  1
３４８４
 50
0.0
 41
0.9
 51
0.0
  7
KANJI36
  0
TEXT
  8
0
  6
CONTINUOUS
 62
     2
 10
964.0
 20
880.6
 30
0.0
 40
24.0
  1
ｍｉｎ．Ｌ
 50
0.0
 41
0.9
 51
0.0
  7
KANJI30
  0
TEXT
  8
0
  6
CONTINUOUS
 62
     2
 10
909.5
 20
816.7
 30
0.0
 40
24.0
  1
ｍｉｎ．ＡＬ
 50
0.0
 41
0.9
 51
0.0
  7
KANJI30
  0
TEXT
  8
0
  6
CONTINUOUS
 62
     2
 10
2919.2
 20
1186.8
 30
0.8
 40
22.4
  1
マンセル
 50
0.0
 41
0.9
 51
0.0
  7
KANJI41
  0
TEXT
  8
0
  6
CONTINUOUS
 62
     2
 10
3012.8
 20
1188.4
 30
0.32
 40
22.4
  1
７．５ＧＹ５／４．５
 50
0.0
 41
0.785714286
 51
0.0
  7
KANJI42
  0
LINE
  8
0
  6
CONTINUOUS
 62
     2
 10
1892.2
 20
1369.8
 11
1956.0
 21
1369.8
  0
LINE
  8
0
  6
CONTINUOUS
 62
     2
 10
1948.0
 20
1369.8
 11
1942.823619098
 21
1350.481483474
  0
LINE
  8
0
  6
CONTINUOUS
 62
     2
 10
1948.0
 20
1369.8
 11
1953.176380902
 21
1350.481483474
  0
LINE
  8
0
  6
CONTINUOUS
 62
     2
 10
1948.0
 20
1369.8
 11
1948.0
 21
1289.8
  0
LINE
  8
0
  6
CONTINUOUS
 62
     2
 10
1948.0
 20
1289.8
 11
1953.176380902
 21
1309.118516526
  0
LINE
  8
0
  6
CONTINUOUS
 62
     2
 10
1948.0
 20
1289.8
 11
1942.823619098
 21
1309.118516526
  0
LINE
  8
0
  6
CONTINUOUS
 62
     2
 10
1892.2
 20
1289.8
 11
1956.0
 21
1289.8
  0
TEXT
  8
0
  6
CONTINUOUS
 62
     3
 10
1940.0
 20
1308.2
 30
0.0
 40
24.0
  1
８０
 50
90.0
 41
0.9
 51
0.0
  7
KANJI30
  0
LINE
  8
0
  6
CONTINUOUS
 62
     2
 10
1183.2
 20
1234.45
 11
1190.2
 21
1234.45
  0
LINE
  8
0
  6
CONTINUOUS
 62
     2
 10
1182.2
 20
1234.45
 11
1187.376380902
 21
1253.768516526
  0
LINE
  8
0
  6
CONTINUOUS
 62
     2
 10
1182.2
 20
1234.45
 11
1177.023619098
 21
1253.768516526
  0
LINE
  8
0
  6
CONTINUOUS
 62
     2
 10
1182.2
 20
1234.45
 11
1182.2
 21
1425.15
  0
LINE
  8
0
  6
CONTINUOUS
 62
     2
 10
1182.2
 20
1425.15
 11
1177.023619098
 21
1405.831483474
  0
LINE
  8
0
  6
CONTINUOUS
 62
     2
 10
1182.2
 20
1425.15
 11
1187.376380902
 21
1405.831483474
  0
LINE
  8
0
  6
CONTINUOUS
 62
     2
 10
1180.2
 20
1425.15
 11
1190.2
 21
1425.15
  0
TEXT
  8
0
  6
CONTINUOUS
 62
     3
 10
1174.2
 20
1286.6
 30
0.0
 40
24.0
  1
φ１９０
 50
90.0
 41
0.9
 51
0.0
  7
KANJI30
  0
LINE
  8
0
  6
LTYPE2
 62
     2
 10
1044.2
 20
1300.897023967
 11
1044.2
 21
1352.820023967
  0
LINE
  8
0
  6
CONTINUOUS
 62
     1
 10
1019.2
 20
1304.8
 11
1019.2
 21
1354.8
  0
LINE
  8
0
  6
CONTINUOUS
 62
     1
 10
1019.2
 20
1354.8
 11
1069.2
 21
1354.8
  0
LINE
  8
0
  6
CONTINUOUS
 62
     1
 10
1069.2
 20
1304.8
 11
1069.2
 21
1354.8
  0
LINE
  8
0
  6
CONTINUOUS
 62
     1
 10
1019.2
 20
1304.8
 11
1069.2
 21
1304.8
  0
CIRCLE
  8
0
  6
CONTINUOUS
 62
     1
 10
1044.2
 20
1329.8
 40
19.188
  0
CIRCLE
  8
0
  6
CONTINUOUS
 62
     2
 10
1044.2
 20
1329.8
 40
20.0
  0
LINE
  8
0
  6
CONTINUOUS
 62
     1
 10
2413.911665731
 20
1383.153022621
 11
2405.87550693
 21
1384.262144678
  0
LINE
  8
0
  6
CONTINUOUS
 62
     1
 10
2412.074978535
 20
1369.295296251
 11
2416.97313319
 21
1375.761986361
  0
LINE
  8
0
  6
CONTINUOUS
 62
     1
 10
2416.97313319
 20
1375.761986361
 11
2413.911665731
 21
1383.153022621
  0
LINE
  8
0
  6
LTYPE3
 62
     2
 10
2393.731230446
 20
1370.464443831
 11
2424.219255019
 21
1383.092997099
  0
ARC
  8
0
  6
LTYPE2
 62
     2
 10
2295.8
 20
1329.9
 40
122.5
 50
14.391630448
 51
29.228051943
  0
ARC
  8
0
  6
CONTINUOUS
 62
     1
 10
2408.975242733
 20
1376.778720465
 40
10.3
 50
245.408744049
 51
162.103308429
  0
ARC
  8
0
  6
CONTINUOUS
 62
     1
 10
2408.975242733
 20
1376.778720465
 40
12.0
 50
251.350790619
 51
152.46743884
  0
LINE
  8
0
  6
CONTINUOUS
 62
     1
 10
2405.87550693
 20
1384.262144678
 11
2400.977352276
 21
1377.795454568
  0
LINE
  8
0
  6
CONTINUOUS
 62
     1
 10
2400.977352276
 20
1377.795454568
 11
2404.038819735
 21
1370.404418308
  0
LINE
  8
0
  6
CONTINUOUS
 62
     1
 10
2404.038819735
 20
1370.404418308
 11
2412.074978535
 21
1369.295296251
  0
LINE
  8
0
  6
CONTINUOUS
 62
     1
 10
2341.661986361
 20
1451.07313319
 11
2335.195296251
 21
1446.174978535
  0
LINE
  8
0
  6
CONTINUOUS
 62
     1
 10
2350.162144678
 20
1439.97550693
 11
2349.053022621
 21
1448.011665731
  0
LINE
  8
0
  6
CONTINUOUS
 62
     1
 10
2349.053022621
 20
1448.011665731
 11
2341.661986361
 21
1451.07313319
  0
LINE
  8
0
  6
LTYPE3
 62
     2
 10
2336.364443831
 20
1427.831230446
 11
2348.992997099
 21
1458.319255019
  0
ARC
  8
0
  6
LTYPE2
 62
     2
 10
2295.8
 20
1329.9
 40
122.5
 50
59.391630448
 51
74.228051943
  0
ARC
  8
0
  6
CONTINUOUS
 62
     1
 10
2342.678720465
 20
1443.075242733
 40
10.3
 50
290.408744049
 51
207.103308429
  0
ARC
  8
0
  6
CONTINUOUS
 62
     1
 10
2342.678720465
 20
1443.075242733
 40
12.0
 50
296.350790619
 51
197.46743884
  0
LINE
  8
0
  6
CONTINUOUS
 62
     1
 10
2335.195296251
 20
1446.174978535
 11
2336.304418308
 21
1438.138819735
  0
LINE
  8
0
  6
CONTINUOUS
 62
     1
 10
2336.304418308
 20
1438.138819735
 11
2343.695454568
 21
1435.077352276
  0
LINE
  8
0
  6
CONTINUOUS
 62
     1
 10
2343.695454568
 20
1435.077352276
 11
2350.162144678
 21
1439.97550693
  0
LINE
  8
0
  6
CONTINUOUS
 62
     1
 10
2242.546977379
 20
1448.011665731
 11
2241.437855322
 21
1439.97550693
  0
LINE
  8
0
  6
CONTINUOUS
 62
     1
 10
2256.404703749
 20
1446.174978535
 11
2249.938013639
 21
1451.07313319
  0
LINE
  8
0
  6
CONTINUOUS
 62
     1
 10
2249.938013639
 20
1451.07313319
 11
2242.546977379
 21
1448.011665731
  0
LINE
  8
0
  6
LTYPE3
 62
     2
 10
2255.235556169
 20
1427.831230446
 11
2242.607002901
 21
1458.319255019
  0
ARC
  8
0
  6
LTYPE2
 62
     2
 10
2295.8
 20
1329.9
 40
122.5
 50
104.391630448
 51
119.228051943
  0
ARC
  8
0
  6
CONTINUOUS
 62
     1
 10
2248.921279535
 20
1443.075242733
 40
10.3
 50
335.408744049
 51
252.103308429
  0
ARC
  8
0
  6
CONTINUOUS
 62
     1
 10
2248.921279535
 20
1443.075242733
 40
12.0
 50
341.350790619
 51
242.46743884
  0
LINE
  8
0
  6
CONTINUOUS
 62
     1
 10
2241.437855322
 20
1439.97550693
 11
2247.904545432
 21
1435.077352276
  0
LINE
  8
0
  6
CONTINUOUS
 62
     1
 10
2247.904545432
 20
1435.077352276
 11
2255.295581692
 21
1438.138819735
  0
LINE
  8
0
  6
CONTINUOUS
 62
     1
 10
2255.295581692
 20
1438.138819735
 11
2256.404703749
 21
1446.174978535
  0
LINE
  8
0
  6
CONTINUOUS
 62
     1
 10
2174.62686681
 20
1375.761986361
 11
2179.525021465
 21
1369.295296251
  0
LINE
  8
0
  6
CONTINUOUS
 62
     1
 10
2185.72449307
 20
1384.262144678
 11
2177.688334269
 21
1383.153022621
  0
LINE
  8
0
  6
CONTINUOUS
 62
     1
 10
2177.688334269
 20
1383.153022621
 11
2174.62686681
 21
1375.761986361
  0
LINE
  8
0
  6
LTYPE3
 62
     2
 10
2197.868769554
 20
1370.464443831
 11
2167.380744981
 21
1383.092997099
  0
ARC
  8
0
  6
LTYPE2
 62
     2
 10
2295.8
 20
1329.9
 40
122.5
 50
149.391630448
 51
164.228051943
  0
ARC
  8
0
  6
CONTINUOUS
 62
     1
 10
2182.624757267
 20
1376.778720465
 40
10.3
 50
20.408744049
 51
297.103308429
  0
ARC
  8
0
  6
CONTINUOUS
 62
     1
 10
2182.624757267
 20
1376.778720465
 40
12.0
 50
26.350790619
 51
287.46743884
  0
LINE
  8
0
  6
CONTINUOUS
 62
     1
 10
2179.525021465
 20
1369.295296251
 11
2187.561180265
 21
1370.404418308
  0
LINE
  8
0
  6
CONTINUOUS
 62
     1
 10
2187.561180265
 20
1370.404418308
 11
2190.622647724
 21
1377.795454568
  0
LINE
  8
0
  6
CONTINUOUS
 62
     1
 10
2190.622647724
 20
1377.795454568
 11
2185.72449307
 21
1384.262144678
  0
LINE
  8
0
  6
CONTINUOUS
 62
     1
 10
2177.688334269
 20
1276.646977379
 11
2185.72449307
 21
1275.537855322
  0
LINE
  8
0
  6
CONTINUOUS
 62
     1
 10
2179.525021465
 20
1290.504703749
 11
2174.62686681
 21
1284.038013639
  0
LINE
  8
0
  6
CONTINUOUS
 62
     1
 10
2174.62686681
 20
1284.038013639
 11
2177.688334269
 21
1276.646977379
  0
LINE
  8
0
  6
LTYPE3
 62
     2
 10
2197.868769554
 20
1289.335556169
 11
2167.380744981
 21
1276.707002901
  0
ARC
  8
0
  6
LTYPE2
 62
     2
 10
2295.8
 20
1329.9
 40
122.5
 50
194.391630448
 51
209.228051943
  0
ARC
  8
0
  6
CONTINUOUS
 62
     1
 10
2182.624757267
 20
1283.021279535
 40
10.3
 50
65.408744049
 51
342.103308429
  0
ARC
  8
0
  6
CONTINUOUS
 62
     1
 10
2182.624757267
 20
1283.021279535
 40
12.0
 50
71.350790619
 51
332.46743884
  0
LINE
  8
0
  6
CONTINUOUS
 62
     1
 10
2185.72449307
 20
1275.537855322
 11
2190.622647724
 21
1282.004545432
  0
LINE
  8
0
  6
CONTINUOUS
 62
     1
 10
2190.622647724
 20
1282.004545432
 11
2187.561180265
 21
1289.395581692
  0
LINE
  8
0
  6
CONTINUOUS
 62
     1
 10
2187.561180265
 20
1289.395581692
 11
2179.525021465
 21
1290.504703749
  0
LINE
  8
0
  6
CONTINUOUS
 62
     1
 10
2249.938013639
 20
1208.72686681
 11
2256.404703749
 21
1213.625021465
  0
LINE
  8
0
  6
CONTINUOUS
 62
     1
 10
2241.437855322
 20
1219.82449307
 11
2242.546977379
 21
1211.788334269
  0
LINE
  8
0
  6
CONTINUOUS
 62
     1
 10
2242.546977379
 20
1211.788334269
 11
2249.938013639
 21
1208.72686681
  0
LINE
  8
0
  6
LTYPE3
 62
     2
 10
2255.235556169
 20
1231.968769554
 11
2242.607002901
 21
1201.480744981
  0
ARC
  8
0
  6
LTYPE2
 62
     2
 10
2295.8
 20
1329.9
 40
122.5
 50
239.391630448
 51
254.228051943
  0
ARC
  8
0
  6
CONTINUOUS
 62
     1
 10
2248.921279535
 20
1216.724757267
 40
10.3
 50
110.408744049
 51
27.103308429
  0
ARC
  8
0
  6
CONTINUOUS
 62
     1
 10
2248.921279535
 20
1216.724757267
 40
12.0
 50
116.350790619
 51
17.46743884
  0
LINE
  8
0
  6
CONTINUOUS
 62
     1
 10
2256.404703749
 20
1213.625021465
 11
2255.295581692
 21
1221.661180265
  0
LINE
  8
0
  6
CONTINUOUS
 62
     1
 10
2255.295581692
 20
1221.661180265
 11
2247.904545432
 21
1224.722647724
  0
LINE
  8
0
  6
CONTINUOUS
 62
     1
 10
2247.904545432
 20
1224.722647724
 11
2241.437855322
 21
1219.82449307
  0
LINE
  8
0
  6
CONTINUOUS
 62
     1
 10
2349.053022621
 20
1211.788334269
 11
2350.162144678
 21
1219.82449307
  0
LINE
  8
0
  6
CONTINUOUS
 62
     1
 10
2335.195296251
 20
1213.625021465
 11
2341.661986361
 21
1208.72686681
  0
LINE
  8
0
  6
CONTINUOUS
 62
     1
 10
2341.661986361
 20
1208.72686681
 11
2349.053022621
 21
1211.788334269
  0
LINE
  8
0
  6
LTYPE3
 62
     2
 10
2336.364443831
 20
1231.968769554
 11
2348.992997099
 21
1201.480744981
  0
ARC
  8
0
  6
LTYPE2
 62
     2
 10
2295.8
 20
1329.9
 40
122.5
 50
284.391630448
 51
299.228051943
  0
ARC
  8
0
  6
CONTINUOUS
 62
     1
 10
2342.678720465
 20
1216.724757267
 40
10.3
 50
155.408744049
 51
72.103308429
  0
ARC
  8
0
  6
CONTINUOUS
 62
     1
 10
2342.678720465
 20
1216.724757267
 40
12.0
 50
161.350790619
 51
62.46743884
  0
LINE
  8
0
  6
CONTINUOUS
 62
     1
 10
2350.162144678
 20
1219.82449307
 11
2343.695454568
 21
1224.722647724
  0
LINE
  8
0
  6
CONTINUOUS
 62
     1
 10
2343.695454568
 20
1224.722647724
 11
2336.304418308
 21
1221.661180265
  0
LINE
  8
0
  6
CONTINUOUS
 62
     1
 10
2336.304418308
 20
1221.661180265
 11
2335.195296251
 21
1213.625021465
  0
LINE
  8
0
  6
CONTINUOUS
 62
     1
 10
2416.97313319
 20
1284.038013639
 11
2412.074978535
 21
1290.504703749
  0
LINE
  8
0
  6
CONTINUOUS
 62
     1
 10
2405.87550693
 20
1275.537855322
 11
2413.911665731
 21
1276.646977379
  0
LINE
  8
0
  6
CONTINUOUS
 62
     1
 10
2413.911665731
 20
1276.646977379
 11
2416.97313319
 21
1284.038013639
  0
LINE
  8
0
  6
LTYPE3
 62
     2
 10
2393.731230446
 20
1289.335556169
 11
2424.219255019
 21
1276.707002901
  0
ARC
  8
0
  6
LTYPE2
 62
     2
 10
2295.8
 20
1329.9
 40
122.5
 50
329.391630448
 51
344.228051943
  0
ARC
  8
0
  6
CONTINUOUS
 62
     1
 10
2408.975242733
 20
1283.021279535
 40
10.3
 50
200.408744049
 51
117.103308429
  0
ARC
  8
0
  6
CONTINUOUS
 62
     1
 10
2408.975242733
 20
1283.021279535
 40
12.0
 50
206.350790619
 51
107.46743884
  0
LINE
  8
0
  6
CONTINUOUS
 62
     1
 10
2412.074978535
 20
1290.504703749
 11
2404.038819735
 21
1289.395581692
  0
LINE
  8
0
  6
CONTINUOUS
 62
     1
 10
2404.038819735
 20
1289.395581692
 11
2400.977352276
 21
1282.004545432
  0
LINE
  8
0
  6
CONTINUOUS
 62
     1
 10
2400.977352276
 20
1282.004545432
 11
2405.87550693
 21
1275.537855322
  0
LINE
  8
0
  6
CONTINUOUS
 62
     1
 10
549.6
 20
1216.724757267
 11
549.6
 21
1230.555745365
  0
LINE
  8
0
  6
CONTINUOUS
 62
     1
 10
545.6
 20
1230.724757267
 11
549.6
 21
1230.724757267
  0
LINE
  8
0
  6
CONTINUOUS
 62
     1
 10
564.6
 20
1216.724757044
 11
564.6
 21
1228.724757267
  0
LINE
  8
0
  6
CONTINUOUS
 62
     1
 10
549.6
 20
1228.724757267
 11
564.6
 21
1228.724757267
  0
LINE
  8
0
  6
CONTINUOUS
 62
     1
 10
564.6
 20
1228.724757267
 11
565.6
 21
1226.99270646
  0
LINE
  8
0
  6
CONTINUOUS
 62
     1
 10
549.6
 20
1216.724757267
 11
549.6
 21
1230.555745365
  0
LINE
  8
0
  6
CONTINUOUS
 62
     1
 10
545.6
 20
1230.724757267
 11
549.6
 21
1230.724757267
  0
LINE
  8
0
  6
CONTINUOUS
 62
     1
 10
564.6
 20
1216.724757044
 11
564.6
 21
1228.724757267
  0
LINE
  8
0
  6
CONTINUOUS
 62
     1
 10
549.6
 20
1228.724757267
 11
564.6
 21
1228.724757267
  0
LINE
  8
0
  6
CONTINUOUS
 62
     1
 10
564.6
 20
1228.724757267
 11
565.6
 21
1226.99270646
  0
LINE
  8
0
  6
CONTINUOUS
 62
     1
 10
549.6
 20
1216.724757267
 11
549.6
 21
1202.89376917
  0
LINE
  8
0
  6
CONTINUOUS
 62
     1
 10
545.6
 20
1216.724757267
 11
549.599996995
 21
1220.724754263
  0
LINE
  8
0
  6
CONTINUOUS
 62
     1
 10
549.599996995
 20
1216.724757267
 11
545.6
 21
1212.724760272
  0
LINE
  8
0
  6
CONTINUOUS
 62
     1
 10
545.6
 20
1202.724757267
 11
549.6
 21
1202.724757267
  0
LINE
  8
0
  6
CONTINUOUS
 62
     1
 10
565.6
 20
1216.724757029
 11
565.6
 21
1226.99270646
  0
LINE
  8
0
  6
CONTINUOUS
 62
     1
 10
564.6
 20
1216.724757491
 11
564.6
 21
1204.724757267
  0
LINE
  8
0
  6
CONTINUOUS
 62
     1
 10
549.6
 20
1204.724757267
 11
564.6
 21
1204.724757267
  0
LINE
  8
0
  6
CONTINUOUS
 62
     1
 10
564.6
 20
1204.724757267
 11
565.6
 21
1206.456808075
  0
LINE
  8
0
  6
CONTINUOUS
 62
     1
 10
565.6
 20
1216.724757506
 11
565.6
 21
1206.456808075
  0
LINE
  8
0
  6
LTYPE2
 62
     2
 10
513.6
 20
1216.724757267
 11
573.6
 21
1216.724757267
  0
LINE
  8
0
  6
CONTINUOUS
 62
     1
 10
549.6
 20
1216.724757267
 11
549.6
 21
1202.89376917
  0
LINE
  8
0
  6
CONTINUOUS
 62
     1
 10
545.6
 20
1216.724757267
 11
549.599996995
 21
1220.724754263
  0
LINE
  8
0
  6
CONTINUOUS
 62
     1
 10
549.599996995
 20
1216.724757267
 11
545.6
 21
1212.724760272
  0
LINE
  8
0
  6
CONTINUOUS
 62
     1
 10
545.6
 20
1202.724757267
 11
549.6
 21
1202.724757267
  0
LINE
  8
0
  6
CONTINUOUS
 62
     1
 10
565.6
 20
1216.724757029
 11
565.6
 21
1226.99270646
  0
LINE
  8
0
  6
CONTINUOUS
 62
     1
 10
564.6
 20
1216.724757491
 11
564.6
 21
1204.724757267
  0
LINE
  8
0
  6
CONTINUOUS
 62
     1
 10
549.6
 20
1204.724757267
 11
564.6
 21
1204.724757267
  0
LINE
  8
0
  6
CONTINUOUS
 62
     1
 10
564.6
 20
1204.724757267
 11
565.6
 21
1206.456808075
  0
LINE
  8
0
  6
CONTINUOUS
 62
     1
 10
565.6
 20
1216.724757506
 11
565.6
 21
1206.456808075
  0
LINE
  8
0
  6
LTYPE2
 62
     2
 10
513.6
 20
1216.724757267
 11
573.6
 21
1216.724757267
  0
LINE
  8
0
  6
CONTINUOUS
 62
     1
 10
549.6
 20
1443.075242733
 11
549.6
 21
1429.244254635
  0
LINE
  8
0
  6
CONTINUOUS
 62
     1
 10
549.6
 20
1443.075242733
 11
549.6
 21
1456.90623083
  0
LINE
  8
0
  6
CONTINUOUS
 62
     1
 10
545.6
 20
1443.075242733
 11
549.599996995
 21
1439.075245737
  0
LINE
  8
0
  6
CONTINUOUS
 62
     1
 10
549.599996995
 20
1443.075242733
 11
545.6
 21
1447.075239728
  0
LINE
  8
0
  6
CONTINUOUS
 62
     1
 10
545.6
 20
1457.075242733
 11
549.6
 21
1457.075242733
  0
LINE
  8
0
  6
CONTINUOUS
 62
     1
 10
564.6
 20
1443.075242956
 11
564.6
 21
1431.075242733
  0
LINE
  8
0
  6
CONTINUOUS
 62
     1
 10
565.6
 20
1443.075242971
 11
565.6
 21
1432.80729354
  0
LINE
  8
0
  6
CONTINUOUS
 62
     1
 10
564.6
 20
1443.075242509
 11
564.6
 21
1455.075242733
  0
LINE
  8
0
  6
CONTINUOUS
 62
     1
 10
549.6
 20
1455.075242733
 11
564.6
 21
1455.075242733
  0
LINE
  8
0
  6
CONTINUOUS
 62
     1
 10
564.6
 20
1455.075242733
 11
565.6
 21
1453.343191925
  0
LINE
  8
0
  6
CONTINUOUS
 62
     1
 10
565.6
 20
1443.075242494
 11
565.6
 21
1453.343191925
  0
LINE
  8
0
  6
LTYPE2
 62
     2
 10
513.6
 20
1443.075242733
 11
573.6
 21
1443.075242733
  0
LINE
  8
0
  6
CONTINUOUS
 62
     1
 10
549.6
 20
1443.075242733
 11
549.6
 21
1429.244254635
  0
LINE
  8
0
  6
CONTINUOUS
 62
     1
 10
549.6
 20
1443.075242733
 11
549.6
 21
1456.90623083
  0
LINE
  8
0
  6
CONTINUOUS
 62
     1
 10
545.6
 20
1443.075242733
 11
549.599996995
 21
1439.075245737
  0
LINE
  8
0
  6
CONTINUOUS
 62
     1
 10
549.599996995
 20
1443.075242733
 11
545.6
 21
1447.075239728
  0
LINE
  8
0
  6
CONTINUOUS
 62
     1
 10
545.6
 20
1457.075242733
 11
549.6
 21
1457.075242733
  0
LINE
  8
0
  6
CONTINUOUS
 62
     1
 10
564.6
 20
1443.075242956
 11
564.6
 21
1431.075242733
  0
LINE
  8
0
  6
CONTINUOUS
 62
     1
 10
565.6
 20
1443.075242971
 11
565.6
 21
1432.80729354
  0
LINE
  8
0
  6
CONTINUOUS
 62
     1
 10
564.6
 20
1443.075242509
 11
564.6
 21
1455.075242733
  0
LINE
  8
0
  6
CONTINUOUS
 62
     1
 10
549.6
 20
1455.075242733
 11
564.6
 21
1455.075242733
  0
LINE
  8
0
  6
CONTINUOUS
 62
     1
 10
564.6
 20
1455.075242733
 11
565.6
 21
1453.343191925
  0
LINE
  8
0
  6
CONTINUOUS
 62
     1
 10
565.6
 20
1443.075242494
 11
565.6
 21
1453.343191925
  0
LINE
  8
0
  6
LTYPE2
 62
     2
 10
513.6
 20
1443.075242733
 11
573.6
 21
1443.075242733
  0
LINE
  8
0
  6
CONTINUOUS
 62
     1
 10
545.6
 20
1429.075242733
 11
549.6
 21
1429.075242733
  0
LINE
  8
0
  6
CONTINUOUS
 62
     1
 10
549.6
 20
1431.075242733
 11
564.6
 21
1431.075242733
  0
LINE
  8
0
  6
CONTINUOUS
 62
     1
 10
564.6
 20
1431.075242733
 11
565.6
 21
1432.80729354
  0
LINE
  8
0
  6
CONTINUOUS
 62
     1
 10
545.6
 20
1429.075242733
 11
549.6
 21
1429.075242733
  0
LINE
  8
0
  6
CONTINUOUS
 62
     1
 10
549.6
 20
1431.075242733
 11
564.6
 21
1431.075242733
  0
LINE
  8
0
  6
CONTINUOUS
 62
     1
 10
564.6
 20
1431.075242733
 11
565.6
 21
1432.80729354
  0
LINE
  8
0
  6
CONTINUOUS
 62
     1
 10
549.6
 20
1376.778720465
 11
549.6
 21
1362.947732367
  0
LINE
  8
0
  6
CONTINUOUS
 62
     1
 10
549.6
 20
1376.778720465
 11
549.6
 21
1390.609708563
  0
LINE
  8
0
  6
CONTINUOUS
 62
     1
 10
545.6
 20
1376.778720465
 11
549.599996995
 21
1372.77872347
  0
LINE
  8
0
  6
CONTINUOUS
 62
     1
 10
549.599996995
 20
1376.778720465
 11
545.6
 21
1380.77871746
  0
LINE
  8
0
  6
CONTINUOUS
 62
     1
 10
545.6
 20
1390.778720465
 11
549.6
 21
1390.778720465
  0
LINE
  8
0
  6
CONTINUOUS
 62
     1
 10
564.6
 20
1376.778720688
 11
564.6
 21
1364.778720465
  0
LINE
  8
0
  6
CONTINUOUS
 62
     1
 10
565.6
 20
1376.778720703
 11
565.6
 21
1366.510771272
  0
LINE
  8
0
  6
CONTINUOUS
 62
     1
 10
564.6
 20
1376.778720241
 11
564.6
 21
1388.778720465
  0
LINE
  8
0
  6
CONTINUOUS
 62
     1
 10
549.6
 20
1388.778720465
 11
564.6
 21
1388.778720465
  0
LINE
  8
0
  6
CONTINUOUS
 62
     1
 10
564.6
 20
1388.778720465
 11
565.6
 21
1387.046669657
  0
LINE
  8
0
  6
CONTINUOUS
 62
     1
 10
565.6
 20
1376.778720226
 11
565.6
 21
1387.046669657
  0
LINE
  8
0
  6
LTYPE2
 62
     2
 10
513.6
 20
1376.778720465
 11
573.6
 21
1376.778720465
  0
LINE
  8
0
  6
CONTINUOUS
 62
     1
 10
549.6
 20
1376.778720465
 11
549.6
 21
1362.947732367
  0
LINE
  8
0
  6
CONTINUOUS
 62
     1
 10
549.6
 20
1376.778720465
 11
549.6
 21
1390.609708563
  0
LINE
  8
0
  6
CONTINUOUS
 62
     1
 10
545.6
 20
1376.778720465
 11
549.599996995
 21
1372.77872347
  0
LINE
  8
0
  6
CONTINUOUS
 62
     1
 10
549.599996995
 20
1376.778720465
 11
545.6
 21
1380.77871746
  0
LINE
  8
0
  6
CONTINUOUS
 62
     1
 10
545.6
 20
1390.778720465
 11
549.6
 21
1390.778720465
  0
LINE
  8
0
  6
CONTINUOUS
 62
     1
 10
564.6
 20
1376.778720688
 11
564.6
 21
1364.778720465
  0
LINE
  8
0
  6
CONTINUOUS
 62
     1
 10
565.6
 20
1376.778720703
 11
565.6
 21
1366.510771272
  0
LINE
  8
0
  6
CONTINUOUS
 62
     1
 10
564.6
 20
1376.778720241
 11
564.6
 21
1388.778720465
  0
LINE
  8
0
  6
CONTINUOUS
 62
     1
 10
549.6
 20
1388.778720465
 11
564.6
 21
1388.778720465
  0
LINE
  8
0
  6
CONTINUOUS
 62
     1
 10
564.6
 20
1388.778720465
 11
565.6
 21
1387.046669657
  0
LINE
  8
0
  6
CONTINUOUS
 62
     1
 10
565.6
 20
1376.778720226
 11
565.6
 21
1387.046669657
  0
LINE
  8
0
  6
LTYPE2
 62
     2
 10
513.6
 20
1376.778720465
 11
573.6
 21
1376.778720465
  0
LINE
  8
0
  6
CONTINUOUS
 62
     1
 10
545.6
 20
1362.778720465
 11
549.6
 21
1362.778720465
  0
LINE
  8
0
  6
CONTINUOUS
 62
     1
 10
549.6
 20
1364.778720465
 11
564.6
 21
1364.778720465
  0
LINE
  8
0
  6
CONTINUOUS
 62
     1
 10
564.6
 20
1364.778720465
 11
565.6
 21
1366.510771272
  0
LINE
  8
0
  6
CONTINUOUS
 62
     1
 10
545.6
 20
1362.778720465
 11
549.6
 21
1362.778720465
  0
LINE
  8
0
  6
CONTINUOUS
 62
     1
 10
549.6
 20
1364.778720465
 11
564.6
 21
1364.778720465
  0
LINE
  8
0
  6
CONTINUOUS
 62
     1
 10
564.6
 20
1364.778720465
 11
565.6
 21
1366.510771272
  0
LINE
  8
0
  6
CONTINUOUS
 62
     1
 10
549.6
 20
1283.021279535
 11
549.6
 21
1296.852267633
  0
LINE
  8
0
  6
CONTINUOUS
 62
     1
 10
545.6
 20
1297.021279535
 11
549.6
 21
1297.021279535
  0
LINE
  8
0
  6
CONTINUOUS
 62
     1
 10
564.6
 20
1283.021279312
 11
564.6
 21
1295.021279535
  0
LINE
  8
0
  6
CONTINUOUS
 62
     1
 10
549.6
 20
1295.021279535
 11
564.6
 21
1295.021279535
  0
LINE
  8
0
  6
CONTINUOUS
 62
     1
 10
564.6
 20
1295.021279535
 11
565.6
 21
1293.289228728
  0
LINE
  8
0
  6
CONTINUOUS
 62
     1
 10
549.6
 20
1283.021279535
 11
549.6
 21
1296.852267633
  0
LINE
  8
0
  6
CONTINUOUS
 62
     1
 10
545.6
 20
1297.021279535
 11
549.6
 21
1297.021279535
  0
LINE
  8
0
  6
CONTINUOUS
 62
     1
 10
564.6
 20
1283.021279312
 11
564.6
 21
1295.021279535
  0
LINE
  8
0
  6
CONTINUOUS
 62
     1
 10
549.6
 20
1295.021279535
 11
564.6
 21
1295.021279535
  0
LINE
  8
0
  6
CONTINUOUS
 62
     1
 10
564.6
 20
1295.021279535
 11
565.6
 21
1293.289228728
  0
LINE
  8
0
  6
CONTINUOUS
 62
     1
 10
549.6
 20
1283.021279535
 11
549.6
 21
1269.190291437
  0
LINE
  8
0
  6
CONTINUOUS
 62
     1
 10
545.6
 20
1283.021279535
 11
549.599996995
 21
1287.02127653
  0
LINE
  8
0
  6
CONTINUOUS
 62
     1
 10
549.599996995
 20
1283.021279535
 11
545.6
 21
1279.02128254
  0
LINE
  8
0
  6
CONTINUOUS
 62
     1
 10
545.6
 20
1269.021279535
 11
549.6
 21
1269.021279535
  0
LINE
  8
0
  6
CONTINUOUS
 62
     1
 10
565.6
 20
1283.021279297
 11
565.6
 21
1293.289228728
  0
LINE
  8
0
  6
CONTINUOUS
 62
     1
 10
564.6
 20
1283.021279759
 11
564.6
 21
1271.021279535
  0
LINE
  8
0
  6
CONTINUOUS
 62
     1
 10
549.6
 20
1271.021279535
 11
564.6
 21
1271.021279535
  0
LINE
  8
0
  6
CONTINUOUS
 62
     1
 10
564.6
 20
1271.021279535
 11
565.6
 21
1272.753330343
  0
LINE
  8
0
  6
CONTINUOUS
 62
     1
 10
565.6
 20
1283.021279774
 11
565.6
 21
1272.753330343
  0
LINE
  8
0
  6
LTYPE2
 62
     2
 10
513.6
 20
1283.021279535
 11
573.6
 21
1283.021279535
  0
LINE
  8
0
  6
CONTINUOUS
 62
     1
 10
549.6
 20
1283.021279535
 11
549.6
 21
1269.190291437
  0
LINE
  8
0
  6
CONTINUOUS
 62
     1
 10
545.6
 20
1283.021279535
 11
549.599996995
 21
1287.02127653
  0
LINE
  8
0
  6
CONTINUOUS
 62
     1
 10
549.599996995
 20
1283.021279535
 11
545.6
 21
1279.02128254
  0
LINE
  8
0
  6
CONTINUOUS
 62
     1
 10
545.6
 20
1269.021279535
 11
549.6
 21
1269.021279535
  0
LINE
  8
0
  6
CONTINUOUS
 62
     1
 10
565.6
 20
1283.021279297
 11
565.6
 21
1293.289228728
  0
LINE
  8
0
  6
CONTINUOUS
 62
     1
 10
564.6
 20
1283.021279759
 11
564.6
 21
1271.021279535
  0
LINE
  8
0
  6
CONTINUOUS
 62
     1
 10
549.6
 20
1271.021279535
 11
564.6
 21
1271.021279535
  0
LINE
  8
0
  6
CONTINUOUS
 62
     1
 10
564.6
 20
1271.021279535
 11
565.6
 21
1272.753330343
  0
LINE
  8
0
  6
CONTINUOUS
 62
     1
 10
565.6
 20
1283.021279774
 11
565.6
 21
1272.753330343
  0
LINE
  8
0
  6
LTYPE2
 62
     2
 10
513.6
 20
1283.021279535
 11
573.6
 21
1283.021279535
  0
LINE
  8
0
  6
CONTINUOUS
 62
     1
 10
660.6
 20
1386.849894588
 11
564.6
 21
1386.849894588
  0
LINE
  8
0
  6
CONTINUOUS
 62
     1
 10
660.6
 20
1272.950105412
 11
564.6
 21
1272.950105412
  0
LINE
  8
2
  6
CONTINUOUS
 62
     2
 10
1056.235
 20
1345.8
 11
1069.61414507
 21
1360.666017529
  0
LINE
  8
2
  6
CONTINUOUS
 62
     2
 10
1056.235
 20
1345.8
 11
1060.388670747
 21
1365.363921369
  0
LINE
  8
2
  6
CONTINUOUS
 62
     2
 10
1056.235
 20
1345.8
 11
1123.316089934
 21
1477.53
  0
TEXT
  8
2
  6
CONTINUOUS
 62
     3
 10
1128.939
 20
1485.53
 30
0.0
 40
24.0
  1
給脂口
 50
0.0
 41
0.9
 51
0.0
  7
KANJI30
  0
LINE
  8
2
  6
CONTINUOUS
 62
     2
 10
1123.316089934
 20
1477.53
 11
1211.316089934
 21
1477.53
  0
POLYLINE
  8
0
  6
CONTINUOUS
 62
     2
 66
     1
  0
VERTEX
  8
0
  6
CONTINUOUS
 62
     2
 10
1202.8
 20
1650.32
  0
VERTEX
  8
0
  6
CONTINUOUS
 62
     2
 10
1356.4
 20
1650.32
  0
VERTEX
  8
0
  6
CONTINUOUS
 62
     2
 10
1310.035560338
 20
1662.743314165
  0
SEQEND
  0
LINE
  8
0
  6
CONTINUOUS
 62
     2
 10
1356.4
 20
1650.32
 11
1310.035560338
 21
1637.896685835
  0
LINE
  8
0
  6
LTYPE1
 62
     2
 10
1202.8
 20
1618.32
 11
1356.4
 21
1618.32
  0
LINE
  8
0
  6
LTYPE1
 62
     2
 10
1196.4
 20
1618.32
 11
1242.764439662
 21
1605.896685835
  0
LINE
  8
0
  6
LTYPE1
 62
     2
 10
1196.4
 20
1618.32
 11
1242.764439662
 21
1630.743314165
  0
TEXT
  8
0
  6
CONTINUOUS
 62
     2
 10
1372.4
 20
1642.32
 30
2.88
 40
28.8
  1
出
 50
0.0
 41
0.9
 51
0.0
  7
KANJI43
  0
TEXT
  8
0
  6
CONTINUOUS
 62
     2
 10
1372.4
 20
1605.52
 30
2.88
 40
28.8
  1
入
 50
0.0
 41
0.9
 51
0.0
  7
KANJI43
  0
TEXT
  8
0
  6
CONTINUOUS
 62
     2
 10
1204.4
 20
1683.92
 30
2.88
 40
28.8
  1
ピストンロッド
 50
0.0
 41
0.9
 51
0.0
  7
KANJI43
  0
POLYLINE
  8
0
  6
CONTINUOUS
 62
     2
 66
     1
  0
VERTEX
  8
0
  6
CONTINUOUS
 62
     2
 10
305.3
 20
1868.82
  0
VERTEX
  8
0
  6
CONTINUOUS
 62
     2
 10
458.9
 20
1868.82
  0
VERTEX
  8
0
  6
CONTINUOUS
 62
     2
 10
412.535560338
 20
1881.243314165
  0
SEQEND
  0
LINE
  8
0
  6
CONTINUOUS
 62
     2
 10
458.9
 20
1868.82
 11
412.535560338
 21
1856.396685835
  0
LINE
  8
0
  6
LTYPE1
 62
     2
 10
305.3
 20
1836.82
 11
458.9
 21
1836.82
  0
LINE
  8
0
  6
LTYPE1
 62
     2
 10
298.9
 20
1836.82
 11
345.264439662
 21
1824.396685835
  0
LINE
  8
0
  6
LTYPE1
 62
     2
 10
298.9
 20
1836.82
 11
345.264439662
 21
1849.243314165
  0
TEXT
  8
0
  6
CONTINUOUS
 62
     2
 10
474.9
 20
1860.82
 30
2.88
 40
28.8
  1
出
 50
0.0
 41
0.9
 51
0.0
  7
KANJI43
  0
TEXT
  8
0
  6
CONTINUOUS
 62
     2
 10
474.9
 20
1824.02
 30
2.88
 40
28.8
  1
入
 50
0.0
 41
0.9
 51
0.0
  7
KANJI43
  0
LINE
  8
0
  6
CONTINUOUS
 62
     1
 10
767.1
 20
2049.4
 11
767.1
 21
2085.4
  0
LINE
  8
0
  6
CONTINUOUS
 62
     1
 10
711.1
 20
2049.4
 11
711.1
 21
2085.4
  0
LINE
  8
0
  6
CONTINUOUS
 62
     1
 10
711.1
 20
2085.4
 11
767.1
 21
2085.4
  0
LINE
  8
0
  6
CONTINUOUS
 62
     1
 10
711.1
 20
2049.4
 11
767.1
 21
2049.4
  0
LINE
  8
0
  6
LTYPE2
 62
     2
 10
739.1
 20
1876.826614458
 11
739.1
 21
2094.4
  0
LINE
  8
7
  6
CONTINUOUS
 62
     2
 10
711.1
 20
2097.4
 11
711.1
 21
2135.826614458
  0
LINE
  8
7
  6
CONTINUOUS
 62
     2
 10
711.1
 20
2123.826614458
 11
730.418516526
 21
2118.650233556
  0
LINE
  8
7
  6
CONTINUOUS
 62
     2
 10
711.1
 20
2123.826614458
 11
730.418516526
 21
2129.002995361
  0
LINE
  8
7
  6
CONTINUOUS
 62
     2
 10
711.1
 20
2123.826614458
 11
767.1
 21
2123.826614458
  0
LINE
  8
7
  6
CONTINUOUS
 62
     2
 10
767.1
 20
2123.826614458
 11
747.781483474
 21
2129.002995361
  0
LINE
  8
7
  6
CONTINUOUS
 62
     2
 10
767.1
 20
2123.826614458
 11
747.781483474
 21
2118.650233556
  0
LINE
  8
7
  6
CONTINUOUS
 62
     2
 10
767.1
 20
2097.4
 11
767.1
 21
2135.826614458
  0
TEXT
  8
7
  6
CONTINUOUS
 62
     2
 10
718.7
 20
2131.826614458
 30
0.8
 40
24.0
  1
１４
 50
0.0
 41
0.833333333
 51
0.0
  7
KANJI29
  0
LINE
  8
7
  6
CONTINUOUS
 62
     2
 10
699.1
 20
2085.4
 11
635.1
 21
2085.4
  0
LINE
  8
7
  6
CONTINUOUS
 62
     2
 10
647.1
 20
2085.4
 11
652.276380902
 21
2104.718516526
  0
LINE
  8
7
  6
CONTINUOUS
 62
     2
 10
647.1
 20
2085.4
 11
641.923619098
 21
2104.718516526
  0
LINE
  8
7
  6
CONTINUOUS
 62
     2
 10
647.1
 20
2115.4
 11
647.1
 21
2019.4
  0
LINE
  8
7
  6
CONTINUOUS
 62
     2
 10
647.1
 20
2049.4
 11
641.923619098
 21
2030.081483474
  0
LINE
  8
7
  6
CONTINUOUS
 62
     2
 10
647.1
 20
2049.4
 11
652.276380902
 21
2030.081483474
  0
LINE
  8
7
  6
CONTINUOUS
 62
     2
 10
699.1
 20
2049.4
 11
635.1
 21
2049.4
  0
TEXT
  8
7
  6
CONTINUOUS
 62
     2
 10
639.1
 20
2057.4
 30
0.8
 40
24.0
  1
９
 50
90.0
 41
0.833333333
 51
0.0
  7
KANJI29
  0
LINE
  8
7
  6
CONTINUOUS
 62
     2
 10
691.513331964
 20
1909.376294167
 11
706.314226624
 21
1922.827447176
  0
LINE
  8
7
  6
CONTINUOUS
 62
     2
 10
691.513331964
 20
1909.376294167
 11
697.605706233
 21
1928.425781713
  0
LINE
  8
7
  6
CONTINUOUS
 62
     2
 10
691.513331964
 20
1909.376294167
 11
786.686668036
 21
2057.423705833
  0
LINE
  8
7
  6
CONTINUOUS
 62
     2
 10
786.686668036
 20
2057.423705833
 11
771.885773376
 21
2043.972552824
  0
LINE
  8
7
  6
CONTINUOUS
 62
     2
 10
786.686668036
 20
2057.423705833
 11
780.594293767
 21
2038.374218287
  0
TEXT
  8
7
  6
CONTINUOUS
 62
     2
 10
696.370572197
 20
1931.726060731
 30
0.8
 40
24.0
  1
φ４４
 50
57.264773728
 41
0.833333333
 51
0.0
  7
KANJI29
  0
LINE
  8
0
  6
LTYPE2
 62
     2
 10
637.1
 20
1983.4
 11
700.1
 21
1983.4
  0
LINE
  8
0
  6
LTYPE2
 62
     2
 10
729.6
 20
1983.4
 11
842.1
 21
1983.4
  0
TEXT
  8
0
  6
CONTINUOUS
 62
     2
 10
659.35
 20
1773.15
 30
0.0
 40
28.0
  1
新ＪＩＳキー付
 50
0.0
 41
0.857142857
 51
0.0
  7
KANJI44
  0
TEXT
  8
0
  6
CONTINUOUS
 62
     2
 10
592.225
 20
1817.025
 30
0.0
 40
36.0
  1
入力シャフト（１／２）
 50
0.0
 41
0.888888889
 51
0.0
  7
KANJI45
  0
LINE
  8
0
  6
CONTINUOUS
 62
     2
 10
580.1
 20
1805.4
 11
938.1
 21
1805.4
  0
ARC
  8
0
  6
CONTINUOUS
 62
     1
 10
739.1
 20
1983.4
 40
88.0
 50
108.553004535
 51
71.446995465
  0
ARC
  8
0
  6
CONTINUOUS
 62
     2
 10
739.1
 20
1983.4
 40
88.0
 50
71.446995465
 51
90.0
  0
LINE
  8
7
  6
CONTINUOUS
 62
     2
 10
751.1
 20
2071.4
 11
880.1
 21
2071.4
  0
LINE
  8
7
  6
CONTINUOUS
 62
     2
 10
868.1
 20
2071.4
 11
873.276380902
 21
2090.718516526
  0
LINE
  8
7
  6
CONTINUOUS
 62
     2
 10
868.1
 20
2071.4
 11
862.923619098
 21
2090.718516526
  0
LINE
  8
7
  6
CONTINUOUS
 62
     2
 10
868.1
 20
2191.64
 11
868.1
 21
2019.4
  0
LINE
  8
7
  6
CONTINUOUS
 62
     2
 10
868.1
 20
2049.4
 11
862.923619098
 21
2030.081483474
  0
LINE
  8
7
  6
CONTINUOUS
 62
     2
 10
868.1
 20
2049.4
 11
873.276380902
 21
2030.081483474
  0
LINE
  8
7
  6
CONTINUOUS
 62
     2
 10
779.1
 20
2049.4
 11
880.1
 21
2049.4
  0
TEXT
  8
7
  6
CONTINUOUS
 62
     2
 10
860.1
 20
2147.2
 30
0.48
 40
14.4
  1
　０
 50
90.0
 41
0.833333333
 51
0.0
  7
KANJI46
  0
TEXT
  8
7
  6
CONTINUOUS
 62
     2
 10
845.7
 20
2147.2
 30
0.48
 40
14.4
  1
＋０．２
 50
90.0
 41
0.833333333
 51
0.0
  7
KANJI46
  0
TEXT
  8
7
  6
CONTINUOUS
 62
     2
 10
860.1
 20
2083.4
 30
0.8
 40
24.0
  1
５．５
 50
90.0
 41
0.833333333
 51
0.0
  7
KANJI29
  0
TEXT
  8
0
  6
CONTINUOUS
 62
     2
 10
306.9
 20
1902.42
 30
2.88
 40
28.8
  1
シャフト回転方向
 50
0.0
 41
0.9
 51
0.0
  7
KANJI43
  0
LINE
  8
0
  6
CONTINUOUS
 62
     1
 10
1689.2
 20
1781.0
 11
1689.2
 21
1651.0
  0
CIRCLE
  8
0
  6
CONTINUOUS
 62
     1
 10
1819.2
 20
1716.0
 40
31.5
  0
LINE
  8
0
  6
CONTINUOUS
 62
     1
 10
1869.2
 20
1651.0
 11
1689.2
 21
1651.0
  0
LINE
  8
0
  6
CONTINUOUS
 62
     1
 10
1869.2
 20
1766.0
 11
1699.2
 21
1766.0
  0
LINE
  8
0
  6
CONTINUOUS
 62
     1
 10
1699.2
 20
1766.0
 11
1699.2
 21
1666.0
  0
LINE
  8
0
  6
CONTINUOUS
 62
     1
 10
1869.2
 20
1666.0
 11
1699.2
 21
1666.0
  0
LINE
  8
0
  6
LTYPE2
 62
     2
 10
1903.2
 20
1716.0
 11
1625.3
 21
1716.0
  0
LINE
  8
0
  6
LTYPE2
 62
     2
 10
1819.2
 20
1801.8
 11
1819.2
 21
1625.0
  0
LINE
  8
2
  6
CONTINUOUS
 62
     2
 10
1819.2
 20
1635.1
 11
1819.2
 21
1623.0
  0
LINE
  8
2
  6
CONTINUOUS
 62
     2
 10
1699.2
 20
1658.0
 11
1699.2
 21
1583.6
  0
TEXT
  8
2
  6
CONTINUOUS
 62
     3
 10
1718.4
 20
1607.6
 30
2.4
 40
24.0
  1
１２０
 50
0.0
 41
0.9
 51
0.0
  7
KANJI25
  0
TEXT
  8
2
  6
CONTINUOUS
 62
     3
 10
1824.9
 20
1607.6
 30
2.4
 40
24.0
  1
６５
 50
0.0
 41
0.9
 51
0.0
  7
KANJI25
  0
LINE
  8
0
  6
CONTINUOUS
 62
     1
 10
1869.2
 20
1781.0
 11
1884.2
 21
1766.0
  0
LINE
  8
0
  6
CONTINUOUS
 62
     1
 10
1884.2
 20
1766.0
 11
1884.2
 21
1666.0
  0
LINE
  8
0
  6
CONTINUOUS
 62
     1
 10
1869.2
 20
1651.0
 11
1884.2
 21
1666.0
  0
LINE
  8
0
  6
CONTINUOUS
 62
     1
 10
1869.2
 20
1781.0
 11
1869.2
 21
1766.0
  0
LINE
  8
0
  6
CONTINUOUS
 62
     1
 10
1869.2
 20
1666.0
 11
1869.2
 21
1651.1
  0
LINE
  8
0
  6
CONTINUOUS
 62
     1
 10
1869.2
 20
1766.0
 11
1884.2
 21
1739.711811403
  0
LINE
  8
0
  6
CONTINUOUS
 62
     1
 10
1884.2
 20
1692.288188597
 11
1869.2
 21
1666.0
  0
LINE
  8
2
  6
CONTINUOUS
 62
     2
 10
1884.2
 20
1658.0
 11
1884.2
 21
1583.6
  0
LINE
  8
2
  6
CONTINUOUS
 62
     2
 10
1877.2
 20
1651.0
 11
1989.053
 21
1651.0
  0
LINE
  8
2
  6
CONTINUOUS
 62
     2
 10
1699.2
 20
1599.6
 11
1718.518516526
 21
1594.423619098
  0
LINE
  8
2
  6
CONTINUOUS
 62
     2
 10
1699.2
 20
1599.6
 11
1718.518516526
 21
1604.776380902
  0
LINE
  8
2
  6
CONTINUOUS
 62
     2
 10
1699.2
 20
1599.6
 11
1819.2
 21
1599.6
  0
LINE
  8
2
  6
CONTINUOUS
 62
     2
 10
1819.2
 20
1599.6
 11
1799.881483474
 21
1604.776380902
  0
LINE
  8
2
  6
CONTINUOUS
 62
     2
 10
1819.2
 20
1599.6
 11
1799.881483474
 21
1594.423619098
  0
LINE
  8
2
  6
CONTINUOUS
 62
     2
 10
1819.2
 20
1622.3
 11
1819.2
 21
1583.6
  0
LINE
  8
2
  6
CONTINUOUS
 62
     2
 10
1819.2
 20
1609.9
 11
1819.2
 21
1583.6
  0
LINE
  8
2
  6
CONTINUOUS
 62
     2
 10
1819.2
 20
1599.6
 11
1838.518516526
 21
1594.423619098
  0
LINE
  8
2
  6
CONTINUOUS
 62
     2
 10
1819.2
 20
1599.6
 11
1838.518516526
 21
1604.776380902
  0
LINE
  8
2
  6
CONTINUOUS
 62
     2
 10
1819.2
 20
1599.6
 11
1884.2
 21
1599.6
  0
LINE
  8
2
  6
CONTINUOUS
 62
     2
 10
1884.2
 20
1599.6
 11
1864.881483474
 21
1604.776380902
  0
LINE
  8
2
  6
CONTINUOUS
 62
     2
 10
1884.2
 20
1599.6
 11
1864.881483474
 21
1594.423619098
  0
LINE
  8
0
  6
CONTINUOUS
 62
     1
 10
1869.2
 20
1781.0
 11
1689.2
 21
1781.0
  0
LINE
  8
2
  6
CONTINUOUS
 62
     2
 10
1877.2
 20
1781.0
 11
1989.053
 21
1781.0
  0
LINE
  8
2
  6
CONTINUOUS
 62
     2
 10
1973.053
 20
1781.0
 11
1967.876619098
 21
1761.681483474
  0
LINE
  8
2
  6
CONTINUOUS
 62
     2
 10
1973.053
 20
1781.0
 11
1978.229380902
 21
1761.681483474
  0
LINE
  8
2
  6
CONTINUOUS
 62
     2
 10
1973.053
 20
1781.0
 11
1973.053
 21
1651.0
  0
LINE
  8
2
  6
CONTINUOUS
 62
     2
 10
1973.053
 20
1651.0
 11
1978.229380902
 21
1670.318516526
  0
LINE
  8
2
  6
CONTINUOUS
 62
     2
 10
1973.053
 20
1651.0
 11
1967.876619098
 21
1670.318516526
  0
TEXT
  8
2
  6
CONTINUOUS
 62
     3
 10
1965.053
 20
1661.2
 30
2.4
 40
24.0
  1
φ１３０
 50
90.0
 41
0.9
 51
0.0
  7
KANJI25
  0
TEXT
  8
0
  6
CONTINUOUS
 62
     2
 10
2564.8
 20
1800.4
 30
12.0
 40
30.4
  1
機械的ストローク
 50
0.0
 41
0.9
 51
0.0
  7
KANJI47
  0
TEXT
  8
0
  6
CONTINUOUS
 62
     2
 10
2370.916876985
 20
893.719993986
 30
2.4
 40
32.0
  1
特記事項
 50
0.0
 41
0.925
 51
0.0
  7
KANJI48
  0
TEXT
  8
0
  6
CONTINUOUS
 62
     2
 10
2286.916876985
 20
840.719993986
 30
2.4
 40
32.0
  1
１。運転時は必ずピストンロッドの回転防止を行って下さい。
 50
0.0
 41
0.925
 51
0.0
  7
KANJI48
  0
TEXT
  8
0
  6
CONTINUOUS
 62
     2
 10
2288.916876985
 20
788.919993986
 30
2.4
 40
32.0
  1
２。形式表示ストロークは機械的最大ストロークです。
 50
0.0
 41
0.925
 51
0.0
  7
KANJI48
  0
TEXT
  8
0
  6
CONTINUOUS
 62
     2
 10
2288.916876985
 20
736.879993986
 30
2.4
 40
32.0
  1
　　実際に使用する場合は惰行距離を含め、両端に十分余裕を
 50
0.0
 41
0.925
 51
0.0
  7
KANJI48
  0
TEXT
  8
0
  6
CONTINUOUS
 62
     2
 10
2286.916876985
 20
686.579993986
 30
2.4
 40
32.0
  1
　　みて下さい。
 50
0.0
 41
0.925
 51
0.0
  7
KANJI48
  0
TEXT
  8
0
  6
CONTINUOUS
 62
     2
 10
2567.0
 20
263.0
 30
0.0
 40
32.0
  1
Ｓ
 50
0.0
 41
0.925
 51
0.0
  7
KANJI49
  0
CIRCLE
  8
0
  6
CONTINUOUS
 62
     2
 10
2580.5
 20
277.5
 40
20.0
  0
LINE
  8
0
  6
CONTINUOUS
 62
     2
 10
2352.18
 20
1989.99
 11
2352.18
 21
1953.63
  0
LINE
  8
0
  6
CONTINUOUS
 62
     2
 10
2406.9
 20
2006.55
 11
2389.513335127
 21
2011.208742812
  0
LINE
  8
0
  6
CONTINUOUS
 62
     2
 10
2406.9
 20
2006.55
 11
2389.513335127
 21
2001.891257188
  0
LINE
  8
0
  6
CONTINUOUS
 62
     2
 10
2064.18
 20
1971.63
 11
2081.566664873
 21
1966.971257188
  0
LINE
  8
0
  6
CONTINUOUS
 62
     2
 10
2064.18
 20
1971.63
 11
2081.566664873
 21
1976.288742812
  0
LINE
  8
0
  6
CONTINUOUS
 62
     2
 10
2352.18
 20
1971.63
 11
2334.793335127
 21
1976.288742812
  0
LINE
  8
0
  6
CONTINUOUS
 62
     2
 10
2352.18
 20
1971.63
 11
2334.793335127
 21
1966.971257188
  0
LINE
  8
0
  6
CONTINUOUS
 62
     2
 10
2064.18
 20
1971.63
 11
2046.793335127
 21
1976.288742812
  0
LINE
  8
0
  6
CONTINUOUS
 62
     2
 10
2064.18
 20
1971.63
 11
2046.793335127
 21
1966.971257188
  0
LINE
  8
0
  6
CONTINUOUS
 62
     2
 10
2352.18
 20
1971.63
 11
2369.566664873
 21
1966.971257188
  0
LINE
  8
0
  6
CONTINUOUS
 62
     2
 10
2352.18
 20
1971.63
 11
2369.566664873
 21
1976.288742812
  0
LINE
  8
0
  6
CONTINUOUS
 62
     2
 10
2406.9
 20
1971.63
 11
2389.513335127
 21
1976.288742812
  0
LINE
  8
0
  6
CONTINUOUS
 62
     2
 10
2406.9
 20
1971.63
 11
2389.513335127
 21
1966.971257188
  0
LINE
  8
0
  6
CONTINUOUS
 62
     2
 10
2037.9
 20
1967.67
 11
2050.570828756
 21
1954.885239594
  0
LINE
  8
0
  6
CONTINUOUS
 62
     2
 10
2037.9
 20
1967.67
 11
2055.265639793
 21
1962.933487085
  0
LINE
  8
0
  6
CONTINUOUS
 62
     2
 10
2037.9
 20
1967.67
 11
2167.5
 21
1892.07
  0
LINE
  8
0
  6
CONTINUOUS
 62
     2
 10
2381.34
 20
1972.35
 11
2363.42520875
 21
1970.600641694
  0
LINE
  8
0
  6
CONTINUOUS
 62
     2
 10
2381.34
 20
1972.35
 11
2366.700014827
 21
1961.877615642
  0
LINE
  8
0
  6
CONTINUOUS
 62
     2
 10
2381.34
 20
1972.35
 11
2167.5
 21
1892.07
  0
TEXT
  8
0
  6
CONTINUOUS
 62
     2
 10
2258.22
 20
1899.27
 30
0.0
 40
21.6
  1
惰行距離＋ストローク余裕
 50
0.0
 41
0.9
 51
0.0
  7
KANJI50
  0
LINE
  8
0
  6
CONTINUOUS
 62
     2
 10
2004.06
 20
2028.15
 11
2004.06
 21
1950.75
  0
LINE
  8
0
  6
CONTINUOUS
 62
     2
 10
2004.06
 20
2006.55
 11
2021.446664873
 21
2001.891257188
  0
LINE
  8
0
  6
CONTINUOUS
 62
     2
 10
2004.06
 20
2006.55
 11
2021.446664873
 21
2011.208742812
  0
LINE
  8
0
  6
CONTINUOUS
 62
     2
 10
2004.06
 20
1971.63
 11
2021.446664873
 21
1966.971257188
  0
LINE
  8
0
  6
CONTINUOUS
 62
     2
 10
2004.06
 20
1971.63
 11
2021.446664873
 21
1976.288742812
  0
LINE
  8
0
  6
CONTINUOUS
 62
     2
 10
2004.06
 20
2006.55
 11
2406.9
 21
2006.55
  0
LINE
  8
0
  6
CONTINUOUS
 62
     2
 10
2004.06
 20
1971.63
 11
1986.673335127
 21
1966.971257188
  0
LINE
  8
0
  6
CONTINUOUS
 62
     2
 10
2004.06
 20
1971.63
 11
1986.673335127
 21
1976.288742812
  0
LINE
  8
0
  6
CONTINUOUS
 62
     2
 10
2064.18
 20
1990.71
 11
2064.18
 21
1911.42
  0
LINE
  8
0
  6
CONTINUOUS
 62
     2
 10
2064.18
 20
1919.34
 11
1834.14
 21
1919.34
  0
LINE
  8
0
  6
CONTINUOUS
 62
     2
 10
2064.18
 20
1919.34
 11
2046.793335127
 21
1914.681257188
  0
LINE
  8
0
  6
CONTINUOUS
 62
     2
 10
2064.18
 20
1919.34
 11
2046.793335127
 21
1923.998742812
  0
LINE
  8
0
  6
CONTINUOUS
 62
     2
 10
2406.9
 20
2055.06
 11
2406.9
 21
1957.95
  0
TEXT
  8
0
  6
CONTINUOUS
 62
     2
 10
1884.9
 20
1927.26
 30
2.16
 40
21.6
  1
取付ｍｉｎ．寸法
 50
0.0
 41
0.9
 51
0.0
  7
KANJI51
  0
LINE
  8
0
  6
CONTINUOUS
 62
     2
 10
1770.42
 20
1971.63
 11
2407.26
 21
1971.63
  0
LINE
  8
0
  6
CONTINUOUS
 62
     2
 10
2406.6075
 20
2043.99
 11
2389.220835127
 21
2048.648742812
  0
LINE
  8
0
  6
CONTINUOUS
 62
     2
 10
2406.6075
 20
2043.99
 11
2389.220835127
 21
2039.331257188
  0
LINE
  8
0
  6
CONTINUOUS
 62
     2
 10
2406.9
 20
2043.9
 11
1997.58
 21
2043.9
  0
TEXT
  8
0
  6
CONTINUOUS
 62
     2
 10
1887.42
 20
1884.42
 30
2.16
 40
21.6
  1
（　　　　　）
 50
0.0
 41
0.9
 51
0.0
  7
KANJI51
  0
TEXT
  8
0
  6
CONTINUOUS
 62
     2
 10
1777.26
 20
1980.9
 30
2.16
 40
21.6
  1
ｍｉｎ．Ｌ（　　　　）
 50
0.0
 41
0.9
 51
0.0
  7
KANJI51
  0
TEXT
  8
0
  6
CONTINUOUS
 62
     2
 10
2074.62
 20
2051.46
 30
2.16
 40
21.6
  1
ｍａｘ．Ｌ（　　　　）
 50
0.0
 41
0.9
 51
0.0
  7
KANJI51
  0
TEXT
  8
0
  6
CONTINUOUS
 62
     2
 10
2076.78
 20
2017.35
 30
2.16
 40
21.6
  1
機械的ストローク（　　　　）
 50
0.0
 41
0.9
 51
0.0
  7
KANJI51
  0
TEXT
  8
0
  6
CONTINUOUS
 62
     2
 10
2113.14
 20
1978.11
 30
2.16
 40
21.6
  1
使用ストローク（　　　　）
 50
0.0
 41
0.9
 51
0.0
  7
KANJI51
  0
LINE
  8
0
  6
CONTINUOUS
 62
     2
 10
2494.74
 20
1892.07
 11
2167.5
 21
1892.07
  0
LINE
  8
0
  6
CONTINUOUS
 62
     2
 10
1800.0
 20
1742.0
 11
1795.952935452
 21
1761.586252029
  0
LINE
  8
0
  6
CONTINUOUS
 62
     2
 10
1800.0
 20
1742.0
 11
1786.702013277
 21
1756.938659548
  0
LINE
  8
0
  6
CONTINUOUS
 62
     2
 10
1800.0
 20
1742.0
 11
1747.5
 21
1846.5
  0
LINE
  8
0
  6
CONTINUOUS
 62
     2
 10
1747.5
 20
1846.5
 11
1617.9
 21
1846.5
  0
TEXT
  8
0
  6
CONTINUOUS
 62
     3
 10
1617.9
 20
1854.5
 30
0.0
 40
24.0
  1
φ６３Ｈ１０
 50
0.0
 41
0.9
 51
0.0
  7
KANJI30
  0
TEXT
  8
0
  6
CONTINUOUS
 62
     2
 10
1750.385251001
 20
641.88
 30
2.4
 40
24.0
  1
３００
 50
0.0
 41
0.9
 51
0.0
  7
KANJI36
  0
TEXT
  8
0
  6
CONTINUOUS
 62
     2
 10
1750.385251001
 20
585.88
 30
2.4
 40
24.0
  1
３３０
 50
0.0
 41
0.9
 51
0.0
  7
KANJI36
  0
TEXT
  8
0
  6
CONTINUOUS
 62
     2
 10
1750.385251001
 20
529.88
 30
2.4
 40
24.0
  1
３６０
 50
0.0
 41
0.9
 51
0.0
  7
KANJI36
  0
TEXT
  8
0
  6
CONTINUOUS
 62
     2
 10
1750.385251001
 20
473.88
 30
2.4
 40
24.0
  1
４１０
 50
0.0
 41
0.9
 51
0.0
  7
KANJI36
  0
TEXT
  8
0
  6
CONTINUOUS
 62
     2
 10
1750.385251001
 20
417.88
 30
2.4
 40
24.0
  1
４９５
 50
0.0
 41
0.9
 51
0.0
  7
KANJI36
  0
TEXT
  8
0
  6
CONTINUOUS
 62
     2
 10
1750.385251001
 20
361.88
 30
2.4
 40
24.0
  1
５７５
 50
0.0
 41
0.9
 51
0.0
  7
KANJI36
  0
TEXT
  8
0
  6
CONTINUOUS
 62
     3
 10
2197.451962201
 20
151.079992
 30
2.4
 40
28.0
  1
２００５．０５．２５
 50
0.0
 41
0.571428571
 51
0.0
  7
KANJI52
  0
ENDSEC
  0
EOF
