  0
SECTION
  2
HEADER
  9
$EXTMIN
 10
0.0
 20
0.0
 30
0.0
  9
$EXTMAX
 10
1680.0
 20
1188.0
 30
0.0
  9
$LIMMIN
 10
0.0
 20
0.0
  9
$LIMMAX
 10
1680.0
 20
1188.0
  9
$LTSCALE
 40
1.0
  9
$PDMODE
 70
     0
  0
ENDSEC
  0
SECTION
  2
TABLES
  0
TABLE
  2
LTYPE
 70
     6
  0
LTYPE
  2
CONTINUOUS
 70
    64
  3
Solid line
 72
    65
 73
     0
 40
0.0
  0
LTYPE
  2
LTYPE1
 70
    64
  3
HIDDEN
 72
    65
 73
     2
 40
12.0
 49
7.2
 49
-4.8
  0
LTYPE
  2
LTYPE2
 70
    64
  3
CENTER
 72
    65
 73
     4
 40
80.0
 49
56.0
 49
-8.0
 49
8.0
 49
-8.0
  0
LTYPE
  2
LTYPE3
 70
    64
  3
CENTER
 72
    65
 73
     4
 40
40.0
 49
28.0
 49
-4.0
 49
4.0
 49
-4.0
  0
LTYPE
  2
LTYPE4
 70
    64
  3
CENTER
 72
    65
 73
     4
 40
60.0
 49
42.0
 49
-6.0
 49
6.0
 49
-6.0
  0
LTYPE
  2
LTYPE5
 70
    64
  3
CENTER
 72
    65
 73
     4
 40
32.0
 49
22.4
 49
-3.2
 49
3.2
 49
-3.2
  0
ENDTAB
  0
TABLE
  2
LAYER
 70
   128
  0
LAYER
  2
0
 70
     0
 62
     7
  6
CONTINUOUS
  0
LAYER
  2
2
 70
     0
 62
     7
  6
CONTINUOUS
  0
LAYER
  2
3
 70
     0
 62
     7
  6
CONTINUOUS
  0
LAYER
  2
4
 70
     0
 62
     7
  6
CONTINUOUS
  0
LAYER
  2
5
 70
     0
 62
     7
  6
CONTINUOUS
  0
LAYER
  2
6
 70
     0
 62
     7
  6
CONTINUOUS
  0
LAYER
  2
7
 70
     0
 62
     7
  6
CONTINUOUS
  0
LAYER
  2
8
 70
     0
 62
     7
  6
CONTINUOUS
  0
LAYER
  2
9
 70
     0
 62
     7
  6
CONTINUOUS
  0
LAYER
  2
10
 70
     0
 62
     7
  6
CONTINUOUS
  0
LAYER
  2
11
 70
     0
 62
     7
  6
CONTINUOUS
  0
LAYER
  2
12
 70
     0
 62
     7
  6
CONTINUOUS
  0
LAYER
  2
13
 70
     0
 62
     7
  6
CONTINUOUS
  0
LAYER
  2
14
 70
     0
 62
     7
  6
CONTINUOUS
  0
LAYER
  2
15
 70
     0
 62
     7
  6
CONTINUOUS
  0
LAYER
  2
16
 70
     0
 62
     7
  6
CONTINUOUS
  0
LAYER
  2
17
 70
     0
 62
     7
  6
CONTINUOUS
  0
LAYER
  2
18
 70
     0
 62
     7
  6
CONTINUOUS
  0
LAYER
  2
19
 70
     0
 62
     7
  6
CONTINUOUS
  0
LAYER
  2
20
 70
     0
 62
     7
  6
CONTINUOUS
  0
LAYER
  2
21
 70
     0
 62
     7
  6
CONTINUOUS
  0
LAYER
  2
22
 70
     0
 62
     7
  6
CONTINUOUS
  0
LAYER
  2
23
 70
     0
 62
     7
  6
CONTINUOUS
  0
LAYER
  2
24
 70
     0
 62
     7
  6
CONTINUOUS
  0
LAYER
  2
25
 70
     0
 62
     7
  6
CONTINUOUS
  0
LAYER
  2
26
 70
     0
 62
     7
  6
CONTINUOUS
  0
LAYER
  2
27
 70
     0
 62
     7
  6
CONTINUOUS
  0
LAYER
  2
28
 70
     0
 62
     7
  6
CONTINUOUS
  0
LAYER
  2
29
 70
     0
 62
     7
  6
CONTINUOUS
  0
LAYER
  2
30
 70
     0
 62
     7
  6
CONTINUOUS
  0
LAYER
  2
31
 70
     0
 62
     7
  6
CONTINUOUS
  0
LAYER
  2
32
 70
     0
 62
     7
  6
CONTINUOUS
  0
LAYER
  2
33
 70
     0
 62
     7
  6
CONTINUOUS
  0
LAYER
  2
34
 70
     0
 62
     7
  6
CONTINUOUS
  0
LAYER
  2
35
 70
     0
 62
     7
  6
CONTINUOUS
  0
LAYER
  2
36
 70
     0
 62
     7
  6
CONTINUOUS
  0
LAYER
  2
37
 70
     0
 62
     7
  6
CONTINUOUS
  0
LAYER
  2
38
 70
     0
 62
     7
  6
CONTINUOUS
  0
LAYER
  2
39
 70
     0
 62
     7
  6
CONTINUOUS
  0
LAYER
  2
40
 70
     0
 62
     7
  6
CONTINUOUS
  0
LAYER
  2
41
 70
     0
 62
     7
  6
CONTINUOUS
  0
LAYER
  2
42
 70
     0
 62
     7
  6
CONTINUOUS
  0
LAYER
  2
43
 70
     0
 62
     7
  6
CONTINUOUS
  0
LAYER
  2
44
 70
     0
 62
     7
  6
CONTINUOUS
  0
LAYER
  2
45
 70
     0
 62
     7
  6
CONTINUOUS
  0
LAYER
  2
46
 70
     0
 62
     7
  6
CONTINUOUS
  0
LAYER
  2
47
 70
     0
 62
     7
  6
CONTINUOUS
  0
LAYER
  2
48
 70
     0
 62
     7
  6
CONTINUOUS
  0
LAYER
  2
49
 70
     0
 62
     7
  6
CONTINUOUS
  0
LAYER
  2
50
 70
     0
 62
     7
  6
CONTINUOUS
  0
LAYER
  2
51
 70
     0
 62
     7
  6
CONTINUOUS
  0
LAYER
  2
52
 70
     0
 62
     7
  6
CONTINUOUS
  0
LAYER
  2
53
 70
     0
 62
     7
  6
CONTINUOUS
  0
LAYER
  2
54
 70
     0
 62
     7
  6
CONTINUOUS
  0
LAYER
  2
55
 70
     0
 62
     7
  6
CONTINUOUS
  0
LAYER
  2
56
 70
     0
 62
     7
  6
CONTINUOUS
  0
LAYER
  2
57
 70
     0
 62
     7
  6
CONTINUOUS
  0
LAYER
  2
58
 70
     0
 62
     7
  6
CONTINUOUS
  0
LAYER
  2
59
 70
     0
 62
     7
  6
CONTINUOUS
  0
LAYER
  2
60
 70
     0
 62
     7
  6
CONTINUOUS
  0
LAYER
  2
61
 70
     0
 62
     7
  6
CONTINUOUS
  0
LAYER
  2
62
 70
     0
 62
     7
  6
CONTINUOUS
  0
LAYER
  2
63
 70
     0
 62
     7
  6
CONTINUOUS
  0
LAYER
  2
64
 70
     0
 62
     7
  6
CONTINUOUS
  0
LAYER
  2
65
 70
     0
 62
     7
  6
CONTINUOUS
  0
LAYER
  2
66
 70
     0
 62
     7
  6
CONTINUOUS
  0
LAYER
  2
67
 70
     0
 62
     7
  6
CONTINUOUS
  0
LAYER
  2
68
 70
     0
 62
     7
  6
CONTINUOUS
  0
LAYER
  2
69
 70
     0
 62
     7
  6
CONTINUOUS
  0
LAYER
  2
70
 70
     0
 62
     7
  6
CONTINUOUS
  0
LAYER
  2
71
 70
     0
 62
     7
  6
CONTINUOUS
  0
LAYER
  2
72
 70
     0
 62
     7
  6
CONTINUOUS
  0
LAYER
  2
73
 70
     0
 62
     7
  6
CONTINUOUS
  0
LAYER
  2
74
 70
     0
 62
     7
  6
CONTINUOUS
  0
LAYER
  2
75
 70
     0
 62
     7
  6
CONTINUOUS
  0
LAYER
  2
76
 70
     0
 62
     7
  6
CONTINUOUS
  0
LAYER
  2
77
 70
     0
 62
     7
  6
CONTINUOUS
  0
LAYER
  2
78
 70
     0
 62
     7
  6
CONTINUOUS
  0
LAYER
  2
79
 70
     0
 62
     7
  6
CONTINUOUS
  0
LAYER
  2
80
 70
     0
 62
     7
  6
CONTINUOUS
  0
LAYER
  2
81
 70
     0
 62
     7
  6
CONTINUOUS
  0
LAYER
  2
82
 70
     0
 62
     7
  6
CONTINUOUS
  0
LAYER
  2
83
 70
     0
 62
     7
  6
CONTINUOUS
  0
LAYER
  2
84
 70
     0
 62
     7
  6
CONTINUOUS
  0
LAYER
  2
85
 70
     0
 62
     7
  6
CONTINUOUS
  0
LAYER
  2
86
 70
     0
 62
     7
  6
CONTINUOUS
  0
LAYER
  2
87
 70
     0
 62
     7
  6
CONTINUOUS
  0
LAYER
  2
88
 70
     0
 62
     7
  6
CONTINUOUS
  0
LAYER
  2
89
 70
     0
 62
     7
  6
CONTINUOUS
  0
LAYER
  2
90
 70
     0
 62
     7
  6
CONTINUOUS
  0
LAYER
  2
91
 70
     0
 62
     7
  6
CONTINUOUS
  0
LAYER
  2
92
 70
     0
 62
     7
  6
CONTINUOUS
  0
LAYER
  2
93
 70
     0
 62
     7
  6
CONTINUOUS
  0
LAYER
  2
94
 70
     0
 62
     7
  6
CONTINUOUS
  0
LAYER
  2
95
 70
     0
 62
     7
  6
CONTINUOUS
  0
LAYER
  2
96
 70
     0
 62
     7
  6
CONTINUOUS
  0
LAYER
  2
97
 70
     0
 62
     7
  6
CONTINUOUS
  0
LAYER
  2
98
 70
     0
 62
     7
  6
CONTINUOUS
  0
LAYER
  2
99
 70
     0
 62
     7
  6
CONTINUOUS
  0
LAYER
  2
100
 70
     0
 62
     7
  6
CONTINUOUS
  0
LAYER
  2
101
 70
     0
 62
     7
  6
CONTINUOUS
  0
LAYER
  2
102
 70
     0
 62
     7
  6
CONTINUOUS
  0
LAYER
  2
103
 70
     0
 62
     7
  6
CONTINUOUS
  0
LAYER
  2
104
 70
     0
 62
     7
  6
CONTINUOUS
  0
LAYER
  2
105
 70
     0
 62
     7
  6
CONTINUOUS
  0
LAYER
  2
106
 70
     0
 62
     7
  6
CONTINUOUS
  0
LAYER
  2
107
 70
     0
 62
     7
  6
CONTINUOUS
  0
LAYER
  2
108
 70
     0
 62
     7
  6
CONTINUOUS
  0
LAYER
  2
109
 70
     0
 62
     7
  6
CONTINUOUS
  0
LAYER
  2
110
 70
     0
 62
     7
  6
CONTINUOUS
  0
LAYER
  2
111
 70
     0
 62
     7
  6
CONTINUOUS
  0
LAYER
  2
112
 70
     0
 62
     7
  6
CONTINUOUS
  0
LAYER
  2
113
 70
     0
 62
     7
  6
CONTINUOUS
  0
LAYER
  2
114
 70
     0
 62
     7
  6
CONTINUOUS
  0
LAYER
  2
115
 70
     0
 62
     7
  6
CONTINUOUS
  0
LAYER
  2
116
 70
     0
 62
     7
  6
CONTINUOUS
  0
LAYER
  2
117
 70
     0
 62
     7
  6
CONTINUOUS
  0
LAYER
  2
118
 70
     0
 62
     7
  6
CONTINUOUS
  0
LAYER
  2
119
 70
     0
 62
     7
  6
CONTINUOUS
  0
LAYER
  2
120
 70
     0
 62
     7
  6
CONTINUOUS
  0
LAYER
  2
121
 70
     0
 62
     7
  6
CONTINUOUS
  0
LAYER
  2
122
 70
     0
 62
     7
  6
CONTINUOUS
  0
LAYER
  2
123
 70
     0
 62
     7
  6
CONTINUOUS
  0
LAYER
  2
124
 70
     0
 62
     7
  6
CONTINUOUS
  0
LAYER
  2
125
 70
     0
 62
     7
  6
CONTINUOUS
  0
LAYER
  2
126
 70
     0
 62
     7
  6
CONTINUOUS
  0
LAYER
  2
127
 70
     0
 62
     7
  6
CONTINUOUS
  0
LAYER
  2
128
 70
     0
 62
     7
  6
CONTINUOUS
  0
ENDTAB
  0
TABLE
  2
STYLE
 70
    57
  0
STYLE
  2
STANDARD
 70
     0
 40
0.0
 41
1.0
 50
0.0
 71
     0
 42
0.2
  3
txt
  4

  0
STYLE
  2
KANJI0
 70
     0
 40
12.0
 41
0.9
 50
0.0
 71
     0
 42
12.0
  3

  4
bigfont
  0
STYLE
  2
KANJI1
 70
     0
 40
12.0
 41
0.9
 50
0.0
 71
     0
 42
12.0
  3

  4
bigfont
  0
STYLE
  2
KANJI2
 70
     0
 40
9.6
 41
0.777777778
 50
0.0
 71
     0
 42
9.6
  3

  4
bigfont
  0
STYLE
  2
KANJI3
 70
     0
 40
12.8
 41
0.9
 50
0.0
 71
     0
 42
12.8
  3

  4
bigfont
  0
STYLE
  2
KANJI4
 70
     0
 40
14.0
 41
0.9
 50
0.0
 71
     0
 42
14.0
  3

  4
bigfont
  0
STYLE
  2
KANJI5
 70
     0
 40
80.0
 41
0.9
 50
0.0
 71
     0
 42
80.0
  3

  4
bigfont
  0
STYLE
  2
KANJI6
 70
     0
 40
72.0
 41
0.857142857
 50
0.0
 71
     0
 42
72.0
  3

  4
bigfont
  0
STYLE
  2
KANJI7
 70
     0
 40
72.0
 41
0.857222222
 50
0.0
 71
     0
 42
72.0
  3

  4
bigfont
  0
STYLE
  2
KANJI8
 70
     0
 40
110.0
 41
0.9
 50
0.0
 71
     0
 42
110.0
  3

  4
bigfont
  0
STYLE
  2
KANJI9
 70
     0
 40
100.0
 41
0.9
 50
0.0
 71
     0
 42
100.0
  3

  4
bigfont
  0
STYLE
  2
KANJI10
 70
     0
 40
64.0
 41
0.9
 50
0.0
 71
     0
 42
64.0
  3

  4
bigfont
  0
STYLE
  2
KANJI11
 70
     0
 40
16.0
 41
0.9
 50
0.0
 71
     0
 42
16.0
  3

  4
bigfont
  0
STYLE
  2
KANJI12
 70
     0
 40
14.4
 41
0.857142857
 50
0.0
 71
     0
 42
14.4
  3

  4
bigfont
  0
STYLE
  2
KANJI13
 70
     0
 40
14.4
 41
0.857222222
 50
0.0
 71
     0
 42
14.4
  3

  4
bigfont
  0
STYLE
  2
KANJI14
 70
     0
 40
12.0
 41
0.833333333
 50
0.0
 71
     0
 42
12.0
  3

  4
bigfont
  0
STYLE
  2
KANJI15
 70
     0
 40
7.999998318
 41
0.6
 50
0.0
 71
     0
 42
7.999998318
  3

  4
bigfont
  0
STYLE
  2
KANJI16
 70
     0
 40
9.599997982
 41
0.9
 50
0.0
 71
     0
 42
9.599997982
  3

  4
bigfont
  0
STYLE
  2
KANJI17
 70
     0
 40
11.999997477
 41
0.9
 50
0.0
 71
     0
 42
11.999997477
  3

  4
bigfont
  0
STYLE
  2
KANJI18
 70
     0
 40
10.3999992
 41
0.75
 50
0.0
 71
     0
 42
10.3999992
  3

  4
bigfont
  0
STYLE
  2
KANJI19
 70
     0
 40
6.9333328
 41
0.6
 50
0.0
 71
     0
 42
6.9333328
  3

  4
bigfont
  0
STYLE
  2
KANJI20
 70
     0
 40
8.31999936
 41
0.6
 50
0.0
 71
     0
 42
8.31999936
  3

  4
bigfont
  0
STYLE
  2
KANJI21
 70
     0
 40
6.9333328
 41
0.8
 50
0.0
 71
     0
 42
6.9333328
  3

  4
bigfont
  0
STYLE
  2
KANJI22
 70
     0
 40
8.31999936
 41
0.8
 50
0.0
 71
     0
 42
8.31999936
  3

  4
bigfont
  0
STYLE
  2
KANJI23
 70
     0
 40
34.666664
 41
0.9
 50
0.0
 71
     0
 42
34.666664
  3

  4
bigfont
  0
STYLE
  2
KANJI24
 70
     0
 40
12.1333324
 41
0.42031746
 50
0.0
 71
     0
 42
12.1333324
  3

  4
bigfont
  0
STYLE
  2
KANJI25
 70
     0
 40
20.7999984
 41
0.9
 50
0.0
 71
     0
 42
20.7999984
  3

  4
bigfont
  0
STYLE
  2
KANJI26
 70
     0
 40
20.0
 41
1.0
 50
0.0
 71
     0
 42
20.0
  3

  4
bigfont
  0
STYLE
  2
KANJI27
 70
     0
 40
20.0
 41
1.0
 50
0.0
 71
     0
 42
20.0
  3

  4
bigfont
  0
STYLE
  2
KANJI28
 70
     0
 40
14.4
 41
0.833333333
 50
0.0
 71
     0
 42
14.4
  3

  4
bigfont
  0
STYLE
  2
KANJI29
 70
     0
 40
18.0
 41
0.9
 50
0.0
 71
     0
 42
18.0
  3

  4
bigfont
  0
STYLE
  2
KANJI30
 70
     0
 40
15.2
 41
0.9
 50
0.0
 71
     0
 42
15.2
  3

  4
bigfont
  0
STYLE
  2
KANJI31
 70
     0
 40
15.2
 41
0.9
 50
0.0
 71
     0
 42
15.2
  3

  4
bigfont
  0
STYLE
  2
KANJI32
 70
     0
 40
15.2
 41
0.9
 50
0.0
 71
     0
 42
15.2
  3

  4
bigfont
  0
STYLE
  2
KANJI33
 70
     0
 40
11.2
 41
0.8
 50
0.0
 71
     0
 42
11.2
  3

  4
bigfont
  0
STYLE
  2
KANJI34
 70
     0
 40
15.2
 41
0.9
 50
0.0
 71
     0
 42
15.2
  3

  4
bigfont
  0
STYLE
  2
KANJI35
 70
     0
 40
15.2
 41
0.9
 50
0.0
 71
     0
 42
15.2
  3

  4
bigfont
  0
STYLE
  2
KANJI36
 70
     0
 40
15.2
 41
0.9
 50
0.0
 71
     0
 42
15.2
  3

  4
bigfont
  0
STYLE
  2
KANJI37
 70
     0
 40
15.2
 41
0.9
 50
0.0
 71
     0
 42
15.2
  3

  4
bigfont
  0
STYLE
  2
KANJI38
 70
     0
 40
15.2
 41
0.9
 50
0.0
 71
     0
 42
15.2
  3

  4
bigfont
  0
STYLE
  2
KANJI39
 70
     0
 40
11.2
 41
0.9
 50
0.0
 71
     0
 42
11.2
  3

  4
bigfont
  0
STYLE
  2
KANJI40
 70
     0
 40
11.2
 41
0.785714286
 50
0.0
 71
     0
 42
11.2
  3

  4
bigfont
  0
STYLE
  2
KANJI41
 70
     0
 40
15.2
 41
0.9
 50
0.0
 71
     0
 42
15.2
  3

  4
bigfont
  0
STYLE
  2
KANJI42
 70
     0
 40
12.0
 41
0.9
 50
0.0
 71
     0
 42
12.0
  3

  4
bigfont
  0
STYLE
  2
KANJI43
 70
     0
 40
14.0
 41
0.9
 50
0.0
 71
     0
 42
14.0
  3

  4
bigfont
  0
STYLE
  2
KANJI44
 70
     0
 40
12.8
 41
0.9
 50
0.0
 71
     0
 42
12.8
  3

  4
bigfont
  0
STYLE
  2
KANJI45
 70
     0
 40
15.0
 41
0.9
 50
0.0
 71
     0
 42
15.0
  3

  4
bigfont
  0
STYLE
  2
KANJI46
 70
     0
 40
9.0
 41
0.9
 50
0.0
 71
     0
 42
9.0
  3

  4
bigfont
  0
STYLE
  2
KANJI47
 70
     0
 40
20.0
 41
0.9
 50
0.0
 71
     0
 42
20.0
  3

  4
bigfont
  0
STYLE
  2
KANJI48
 70
     0
 40
12.0
 41
0.9
 50
0.0
 71
     0
 42
12.0
  3

  4
bigfont
  0
STYLE
  2
KANJI49
 70
     0
 40
12.0
 41
0.9
 50
0.0
 71
     0
 42
12.0
  3

  4
bigfont
  0
STYLE
  2
KANJI50
 70
     0
 40
12.0
 41
0.9
 50
0.0
 71
     0
 42
12.0
  3

  4
bigfont
  0
STYLE
  2
KANJI51
 70
     0
 40
16.0
 41
1.0
 50
0.0
 71
     0
 42
16.0
  3

  4
bigfont
  0
STYLE
  2
KANJI52
 70
     0
 40
12.0
 41
0.9
 50
0.0
 71
     0
 42
12.0
  3

  4
bigfont
  0
STYLE
  2
KANJI53
 70
     0
 40
12.0
 41
0.666666667
 50
0.0
 71
     0
 42
12.0
  3

  4
bigfont
  0
STYLE
  2
KANJI54
 70
     0
 40
5.656854249
 41
1.0
 50
0.0
 71
     0
 42
5.656854249
  3

  4
bigfont
  0
STYLE
  2
KANJI55
 70
     0
 40
8.0
 41
0.85
 50
0.0
 71
     0
 42
8.0
  3

  4
bigfont
  0
ENDTAB
  0
TABLE
  2
VIEW
 70
     0
  0
ENDTAB
  0
ENDSEC
  0
SECTION
  2
BLOCKS
  0
ENDSEC
  0
SECTION
  2
ENTITIES
  0
LINE
  8
0
  6
CONTINUOUS
 62
     1
 10
304.066665723
 20
363.766668082
 11
924.066665723
 21
363.766668082
  0
LINE
  8
0
  6
CONTINUOUS
 62
     1
 10
304.066665723
 20
335.766668082
 11
924.066665723
 21
335.766668082
  0
LINE
  8
0
  6
CONTINUOUS
 62
     1
 10
924.066665723
 20
363.766668082
 11
924.066665723
 21
167.766668082
  0
LINE
  8
0
  6
CONTINUOUS
 62
     1
 10
304.066665723
 20
167.766668082
 11
924.066665723
 21
167.766668082
  0
LINE
  8
0
  6
CONTINUOUS
 62
     1
 10
304.066665723
 20
363.766668082
 11
304.066665723
 21
167.766668082
  0
LINE
  8
0
  6
CONTINUOUS
 62
     1
 10
444.066665723
 20
363.766668082
 11
444.066665723
 21
167.766668082
  0
TEXT
  8
0
  6
CONTINUOUS
 62
     2
 10
468.066665723
 20
314.466668082
 30
1.2
 40
12.0
  1
２００
 50
0.0
 41
0.9
 51
0.0
  7
KANJI0
  0
TEXT
  8
0
  6
CONTINUOUS
 62
     2
 10
468.066665723
 20
286.466668082
 30
1.2
 40
12.0
  1
３００
 50
0.0
 41
0.9
 51
0.0
  7
KANJI0
  0
LINE
  8
0
  6
CONTINUOUS
 62
     2
 10
524.066665723
 20
363.766668082
 11
524.066665723
 21
167.766668082
  0
LINE
  8
0
  6
CONTINUOUS
 62
     2
 10
604.066665723
 20
363.766668082
 11
604.066665723
 21
167.766668082
  0
LINE
  8
0
  6
CONTINUOUS
 62
     2
 10
684.066665723
 20
363.766668082
 11
684.066665723
 21
167.766668082
  0
LINE
  8
0
  6
CONTINUOUS
 62
     2
 10
764.066665723
 20
363.766668082
 11
764.066665723
 21
167.766668082
  0
LINE
  8
0
  6
CONTINUOUS
 62
     2
 10
844.066665723
 20
363.766668082
 11
844.066665723
 21
167.766668082
  0
LINE
  8
0
  6
CONTINUOUS
 62
     2
 10
304.066665723
 20
195.766668082
 11
924.066665723
 21
195.766668082
  0
LINE
  8
0
  6
CONTINUOUS
 62
     2
 10
304.066665723
 20
307.766668082
 11
924.066665723
 21
307.766668082
  0
LINE
  8
0
  6
CONTINUOUS
 62
     2
 10
304.066665723
 20
279.766668082
 11
924.066665723
 21
279.766668082
  0
LINE
  8
0
  6
CONTINUOUS
 62
     2
 10
304.066665723
 20
251.766668082
 11
924.066665723
 21
251.766668082
  0
LINE
  8
0
  6
CONTINUOUS
 62
     2
 10
304.066665723
 20
223.766668082
 11
924.066665723
 21
223.766668082
  0
TEXT
  8
0
  6
CONTINUOUS
 62
     2
 10
454.466665723
 20
343.766668082
 30
1.2
 40
12.0
  1
ストローク
 50
0.0
 41
0.9
 51
0.0
  7
KANJI0
  0
TEXT
  8
0
  6
CONTINUOUS
 62
     2
 10
531.266665723
 20
342.966668082
 30
0.0
 40
12.0
  1
ｍｉｎ　
 50
0.0
 41
0.9
 51
0.0
  7
KANJI1
  0
TEXT
  8
0
  6
CONTINUOUS
 62
     2
 10
611.266665723
 20
342.966668082
 30
0.0
 40
12.0
  1
ｍｉｎ　
 50
0.0
 41
0.9
 51
0.0
  7
KANJI1
  0
TEXT
  8
0
  6
CONTINUOUS
 62
     2
 10
771.266665723
 20
342.966668082
 30
0.0
 40
12.0
  1
ｍｉｎ　
 50
0.0
 41
0.9
 51
0.0
  7
KANJI1
  0
TEXT
  8
0
  6
CONTINUOUS
 62
     2
 10
895.566665723
 20
344.666668082
 30
0.0
 40
9.6
  1
（ｋｇ）
 50
0.0
 41
0.777777778
 51
0.0
  7
KANJI2
  0
TEXT
  8
0
  6
CONTINUOUS
 62
     2
 10
847.566665723
 20
343.266668082
 30
1.28
 40
12.8
  1
概算重量
 50
0.0
 41
0.9
 51
0.0
  7
KANJI3
  0
TEXT
  8
0
  6
CONTINUOUS
 62
     2
 10
332.066665723
 20
343.766668082
 30
1.28
 40
12.8
  1
形
 50
0.0
 41
0.9
 51
0.0
  7
KANJI3
  0
TEXT
  8
0
  6
CONTINUOUS
 62
     2
 10
410.066665723
 20
343.766668082
 30
1.28
 40
12.8
  1
式
 50
0.0
 41
0.9
 51
0.0
  7
KANJI3
  0
TEXT
  8
0
  6
CONTINUOUS
 62
     2
 10
572.066665723
 20
343.766668082
 30
1.4
 40
14.0
  1
ＡＬ
 50
0.0
 41
0.9
 51
0.0
  7
KANJI4
  0
TEXT
  8
0
  6
CONTINUOUS
 62
     2
 10
652.066665723
 20
343.766668082
 30
1.4
 40
14.0
  1
Ｌ
 50
0.0
 41
0.9
 51
0.0
  7
KANJI4
  0
TEXT
  8
0
  6
CONTINUOUS
 62
     2
 10
720.066665723
 20
343.766668082
 30
1.4
 40
14.0
  1
Ｃ
 50
0.0
 41
0.9
 51
0.0
  7
KANJI4
  0
TEXT
  8
0
  6
CONTINUOUS
 62
     2
 10
812.066665723
 20
343.766668082
 30
1.4
 40
14.0
  1
Ｐ
 50
0.0
 41
0.9
 51
0.0
  7
KANJI4
  0
TEXT
  8
0
  6
CONTINUOUS
 62
     2
 10
706.866665723
 20
316.266668082
 30
1.2
 40
12.0
  1
４７０
 50
0.0
 41
0.9
 51
0.0
  7
KANJI0
  0
TEXT
  8
0
  6
CONTINUOUS
 62
     2
 10
706.866665723
 20
288.266668082
 30
1.2
 40
12.0
  1
５７０
 50
0.0
 41
0.9
 51
0.0
  7
KANJI0
  0
TEXT
  8
0
  6
CONTINUOUS
 62
     2
 10
706.866665723
 20
260.266668082
 30
1.2
 40
12.0
  1
６７０
 50
0.0
 41
0.9
 51
0.0
  7
KANJI0
  0
TEXT
  8
0
  6
CONTINUOUS
 62
     2
 10
706.866665723
 20
232.266668082
 30
1.2
 40
12.0
  1
７７０
 50
0.0
 41
0.9
 51
0.0
  7
KANJI0
  0
TEXT
  8
0
  6
CONTINUOUS
 62
     2
 10
468.066665723
 20
258.466668082
 30
1.2
 40
12.0
  1
４００
 50
0.0
 41
0.9
 51
0.0
  7
KANJI0
  0
TEXT
  8
0
  6
CONTINUOUS
 62
     2
 10
468.066665723
 20
230.466668082
 30
1.2
 40
12.0
  1
５００
 50
0.0
 41
0.9
 51
0.0
  7
KANJI0
  0
TEXT
  8
0
  6
CONTINUOUS
 62
     2
 10
468.066665723
 20
202.466668082
 30
1.2
 40
12.0
  1
７００
 50
0.0
 41
0.9
 51
0.0
  7
KANJI0
  0
TEXT
  8
0
  6
CONTINUOUS
 62
     2
 10
6064.066665723
 20
2497.766668082
 30
40.0
 40
80.0
  1
特記事項
 50
0.0
 41
0.9
 51
0.0
  7
KANJI5
  0
TEXT
  8
0
  6
CONTINUOUS
 62
     2
 10
5784.066665723
 20
2337.766668082
 30
20.571428571
 40
72.0
  1
１。運転時は必ずピストンロッドの回転防止を行って下さい。
 50
0.0
 41
0.857142857
 51
0.0
  7
KANJI6
  0
TEXT
  8
0
  6
CONTINUOUS
 62
     2
 10
5784.066665723
 20
2181.766668082
 30
20.52
 40
72.0
  1
２。形式表示ストロークは機械的最大ストロークです。
 50
0.0
 41
0.857222222
 51
0.0
  7
KANJI7
  0
TEXT
  8
0
  6
CONTINUOUS
 62
     2
 10
5784.066665723
 20
2024.966668082
 30
20.52
 40
72.0
  1
　　実際に使用する場合は惰行距離を含め、両端に十分余裕を
 50
0.0
 41
0.857222222
 51
0.0
  7
KANJI7
  0
TEXT
  8
0
  6
CONTINUOUS
 62
     2
 10
5784.066665723
 20
1868.966668082
 30
20.52
 40
72.0
  1
　　みて下さい。
 50
0.0
 41
0.857222222
 51
0.0
  7
KANJI7
  0
TEXT
  8
0
  6
CONTINUOUS
 62
     2
 10
5784.066665723
 20
1714.966668082
 30
20.52
 40
72.0
  1
３．外部ＬＳユニット：信号確認用
 50
0.0
 41
0.857222222
 51
0.0
  7
KANJI7
  0
TEXT
  8
0
  6
CONTINUOUS
 62
     2
 10
5784.066665723
 20
1556.966668082
 30
20.52
 40
72.0
  1
　　リミットＳＷ　形式：ＷＬＣＡ２　Ｘ　２　（ＯＭＲＯＮ）
 50
0.0
 41
0.857222222
 51
0.0
  7
KANJI7
  0
TEXT
  8
0
  6
CONTINUOUS
 62
     2
 10
7276.066665723
 20
739.766668082
 30
55.0
 40
110.0
  1
外寸図
 50
0.0
 41
0.9
 51
0.0
  7
KANJI8
  0
TEXT
  8
0
  6
CONTINUOUS
 62
     2
 10
7122.066665723
 20
853.766668082
 30
10.0
 40
100.0
  1
マイティシリンダ
 50
0.0
 41
0.9
 51
0.0
  7
KANJI9
  0
TEXT
  8
0
  6
CONTINUOUS
 62
     2
 10
6304.066665723
 20
831.766668082
 30
6.4
 40
64.0
  1
ＳＣＤ５Ｂ－ＪＬＳ
 50
0.0
 41
0.9
 51
0.0
  7
KANJI10
  0
TEXT
  8
0
  6
CONTINUOUS
 62
     2
 10
1200.066665723
 20
502.566668082
 30
8.0
 40
16.0
  1
特記事項
 50
0.0
 41
0.9
 51
0.0
  7
KANJI11
  0
TEXT
  8
0
  6
CONTINUOUS
 62
     2
 10
1144.066665723
 20
470.566668082
 30
4.114285714
 40
14.4
  1
１。運転時は必ずピストンロッドの回転防止を行って下さい。
 50
0.0
 41
0.857142857
 51
0.0
  7
KANJI12
  0
TEXT
  8
0
  6
CONTINUOUS
 62
     2
 10
1144.066665723
 20
439.366668082
 30
4.104
 40
14.4
  1
２。形式表示ストロークは機械的最大ストロークです。
 50
0.0
 41
0.857222222
 51
0.0
  7
KANJI13
  0
TEXT
  8
0
  6
CONTINUOUS
 62
     2
 10
1144.066665723
 20
408.006668082
 30
4.104
 40
14.4
  1
　　実際に使用する場合は惰行距離を含め、両端に十分余裕を
 50
0.0
 41
0.857222222
 51
0.0
  7
KANJI13
  0
TEXT
  8
0
  6
CONTINUOUS
 62
     2
 10
1144.066665723
 20
376.806668082
 30
4.104
 40
14.4
  1
　　みて下さい。
 50
0.0
 41
0.857222222
 51
0.0
  7
KANJI13
  0
TEXT
  8
0
  6
CONTINUOUS
 62
     2
 10
317.066665723
 20
314.166668082
 30
0.8
 40
12.0
  1
ＳＣＤ１－　２
 50
0.0
 41
0.833333333
 51
0.0
  7
KANJI14
  0
TEXT
  8
0
  6
CONTINUOUS
 62
     2
 10
317.066665723
 20
286.166668082
 30
0.8
 40
12.0
  1
ＳＣＤ１－　３
 50
0.0
 41
0.833333333
 51
0.0
  7
KANJI14
  0
TEXT
  8
0
  6
CONTINUOUS
 62
     2
 10
317.066665723
 20
258.166668082
 30
0.8
 40
12.0
  1
ＳＣＤ１－　４
 50
0.0
 41
0.833333333
 51
0.0
  7
KANJI14
  0
TEXT
  8
0
  6
CONTINUOUS
 62
     2
 10
317.066665723
 20
230.166668082
 30
0.8
 40
12.0
  1
ＳＣＤ１－　５
 50
0.0
 41
0.833333333
 51
0.0
  7
KANJI14
  0
TEXT
  8
0
  6
CONTINUOUS
 62
     2
 10
317.066665723
 20
202.166668082
 30
0.8
 40
12.0
  1
ＳＣＤ１－　７
 50
0.0
 41
0.833333333
 51
0.0
  7
KANJI14
  0
TEXT
  8
0
  6
CONTINUOUS
 62
     2
 10
317.066665723
 20
174.166668082
 30
0.8
 40
12.0
  1
ＳＣＤ１－１０
 50
0.0
 41
0.833333333
 51
0.0
  7
KANJI14
  0
TEXT
  8
0
  6
CONTINUOUS
 62
     2
 10
455.966665723
 20
174.466668082
 30
1.2
 40
12.0
  1
１０００
 50
0.0
 41
0.9
 51
0.0
  7
KANJI0
  0
TEXT
  8
0
  6
CONTINUOUS
 62
     4
 10
74.933334646
 20
57.933333641
 30
0.799999832
 40
7.999998318
  1
ＰＡＲＴＳ　ＬＩＳＴ
 50
0.0
 41
0.6
 51
0.0
  7
KANJI15
  0
TEXT
  8
0
  6
CONTINUOUS
 62
     4
 10
254.9332968
 20
57.933333641
 30
0.799999832
 40
7.999998318
  1
Ｎ０．
 50
0.0
 41
0.6
 51
0.0
  7
KANJI15
  0
TEXT
  8
0
  6
CONTINUOUS
 62
     4
 10
74.933334646
 20
45.933336164
 30
0.959999798
 40
9.599997982
  1
部品表
 50
0.0
 41
0.9
 51
0.0
  7
KANJI16
  0
TEXT
  8
0
  6
CONTINUOUS
 62
     4
 10
254.9332968
 20
45.933336164
 30
0.959999798
 40
9.599997982
  1
項番
 50
0.0
 41
0.9
 51
0.0
  7
KANJI16
  0
LINE
  8
0
  6
CONTINUOUS
 62
     6
 10
62.933337169
 20
37.933337846
 11
62.933337169
 21
1113.933337846
  0
LINE
  8
0
  6
CONTINUOUS
 62
     6
 10
62.933337169
 20
1113.933337846
 11
1610.933337169
 21
1113.933337846
  0
LINE
  8
0
  6
CONTINUOUS
 62
     6
 10
1610.933337169
 20
37.933337846
 11
62.933337169
 21
37.933337846
  0
LINE
  8
0
  6
CONTINUOUS
 62
     6
 10
326.933281662
 20
41.933337005
 11
326.933281662
 21
97.933325231
  0
LINE
  8
0
  6
CONTINUOUS
 62
     6
 10
66.933336328
 20
97.933325231
 11
326.933281662
 21
97.933325231
  0
LINE
  8
0
  6
CONTINUOUS
 62
     6
 10
66.933336328
 20
41.933337005
 11
326.933281662
 21
41.933337005
  0
LINE
  8
0
  6
CONTINUOUS
 62
     6
 10
66.933336328
 20
41.933337005
 11
66.933336328
 21
97.933325231
  0
LINE
  8
0
  6
CONTINUOUS
 62
     6
 10
246.933298482
 20
41.933337005
 11
246.933298482
 21
97.933325231
  0
LINE
  8
0
  6
CONTINUOUS
 62
     6
 10
66.933336328
 20
69.933331118
 11
326.933281662
 21
69.933331118
  0
TEXT
  8
0
  6
CONTINUOUS
 62
     3
 10
74.933334646
 20
77.933329436
 30
1.199999748
 40
11.999997477
  1
ＰＬ
 50
0.0
 41
0.9
 51
0.0
  7
KANJI17
  0
LINE
  8
0
  6
CONTINUOUS
 62
     4
 10
17.400003569
 20
40.900004246
 11
59.000000369
 21
40.900004246
  0
LINE
  8
0
  6
CONTINUOUS
 62
     4
 10
17.400003569
 20
61.700002646
 11
59.000000369
 21
61.700002646
  0
LINE
  8
0
  6
CONTINUOUS
 62
     4
 10
17.400003569
 20
82.500001046
 11
59.000000369
 21
82.500001046
  0
LINE
  8
0
  6
CONTINUOUS
 62
     4
 10
17.400003569
 20
103.299999446
 11
59.000000369
 21
103.299999446
  0
LINE
  8
0
  6
CONTINUOUS
 62
     4
 10
17.400003569
 20
124.099997846
 11
59.000000369
 21
124.099997846
  0
LINE
  8
0
  6
CONTINUOUS
 62
     4
 10
17.400003569
 20
144.899996246
 11
59.000000369
 21
144.899996246
  0
LINE
  8
0
  6
CONTINUOUS
 62
     4
 10
17.400003569
 20
165.699994646
 11
59.000000369
 21
165.699994646
  0
LINE
  8
0
  6
CONTINUOUS
 62
     4
 10
17.400003569
 20
186.499993046
 11
59.000000369
 21
186.499993046
  0
LINE
  8
0
  6
CONTINUOUS
 62
     4
 10
17.400003569
 20
207.299991446
 11
59.000000369
 21
207.299991446
  0
LINE
  8
0
  6
CONTINUOUS
 62
     4
 10
17.400003569
 20
228.099989846
 11
59.000000369
 21
228.099989846
  0
LINE
  8
0
  6
CONTINUOUS
 62
     4
 10
59.000000369
 20
40.900004246
 11
59.000000369
 21
228.099989846
  0
LINE
  8
0
  6
CONTINUOUS
 62
     4
 10
38.200001969
 20
40.900004246
 11
38.200001969
 21
207.299991446
  0
TEXT
  8
0
  6
CONTINUOUS
 62
     4
 10
24.506669689
 20
46.966670446
 30
1.03999992
 40
10.3999992
  1
計
 50
0.0
 41
0.75
 51
0.0
  7
KANJI18
  0
TEXT
  8
0
  6
CONTINUOUS
 62
     4
 10
24.506669689
 20
88.913333886
 30
1.03999992
 40
10.3999992
  1
設
 50
0.0
 41
0.75
 51
0.0
  7
KANJI18
  0
TEXT
  8
0
  6
CONTINUOUS
 62
     4
 10
24.506669689
 20
109.366665646
 30
1.03999992
 40
10.3999992
  1
管
 50
0.0
 41
0.75
 51
0.0
  7
KANJI18
  0
TEXT
  8
0
  6
CONTINUOUS
 62
     4
 10
24.506669689
 20
130.166664046
 30
1.03999992
 40
10.3999992
  1
製
 50
0.0
 41
0.75
 51
0.0
  7
KANJI18
  0
TEXT
  8
0
  6
CONTINUOUS
 62
     4
 10
24.506669689
 20
150.966662446
 30
1.03999992
 40
10.3999992
  1
資
 50
0.0
 41
0.75
 51
0.0
  7
KANJI18
  0
TEXT
  8
0
  6
CONTINUOUS
 62
     4
 10
24.506669689
 20
171.766660846
 30
1.03999992
 40
10.3999992
  1
営
 50
0.0
 41
0.75
 51
0.0
  7
KANJI18
  0
TEXT
  8
0
  6
CONTINUOUS
 62
     4
 10
24.506669689
 20
192.566659246
 30
1.03999992
 40
10.3999992
  1
客
 50
0.0
 41
0.75
 51
0.0
  7
KANJI18
  0
TEXT
  8
0
  6
CONTINUOUS
 62
     4
 10
24.333336369
 20
214.233324246
 30
1.03999992
 40
10.3999992
  1
出　図
 50
0.0
 41
0.75
 51
0.0
  7
KANJI18
  0
LINE
  8
0
  6
CONTINUOUS
 62
     4
 10
17.400003569
 20
40.900004246
 11
17.400003569
 21
228.099989846
  0
TEXT
  8
0
  6
CONTINUOUS
 62
     4
 10
1080.533377969
 20
112.466665446
 30
0.69333328
 40
6.9333328
  1
ＤＲＡＷＮ
 50
0.0
 41
0.6
 51
0.0
  7
KANJI19
  0
TEXT
  8
0
  6
CONTINUOUS
 62
     4
 10
1080.533377969
 20
140.199996646
 30
0.69333328
 40
6.9333328
  1
ＤＥＳＩＧＮ
 50
0.0
 41
0.6
 51
0.0
  7
KANJI19
  0
TEXT
  8
0
  6
CONTINUOUS
 62
     4
 10
1080.533377969
 20
167.933327846
 30
0.69333328
 40
6.9333328
  1
ＣＨＥＣＫ
 50
0.0
 41
0.6
 51
0.0
  7
KANJI19
  0
TEXT
  8
0
  6
CONTINUOUS
 62
     4
 10
1080.533377969
 20
195.666659046
 30
0.69333328
 40
6.9333328
  1
ＣＯＤＥ
 50
0.0
 41
0.6
 51
0.0
  7
KANJI19
  0
LINE
  8
0
  6
CONTINUOUS
 62
     4
 10
1073.600045169
 20
152.333329046
 11
1200.133368769
 21
152.333329046
  0
LINE
  8
0
  6
CONTINUOUS
 62
     4
 10
1073.600045169
 20
124.599997846
 11
1200.133368769
 21
124.599997846
  0
LINE
  8
0
  6
CONTINUOUS
 62
     4
 10
1073.600045169
 20
180.066660246
 11
1200.133368769
 21
180.066660246
  0
LINE
  8
0
  6
CONTINUOUS
 62
     4
 10
1073.600045169
 20
207.799991446
 11
1607.466670769
 21
207.799991446
  0
TEXT
  8
0
  6
CONTINUOUS
 62
     4
 10
1080.533377969
 20
129.799997446
 30
0.831999936
 40
8.31999936
  1
設計
 50
0.0
 41
0.6
 51
0.0
  7
KANJI20
  0
TEXT
  8
0
  6
CONTINUOUS
 62
     4
 10
1080.533377969
 20
157.533328646
 30
0.831999936
 40
8.31999936
  1
検図
 50
0.0
 41
0.6
 51
0.0
  7
KANJI20
  0
TEXT
  8
0
  6
CONTINUOUS
 62
     4
 10
1080.533377969
 20
185.266659846
 30
0.831999936
 40
8.31999936
  1
分類
 50
0.0
 41
0.6
 51
0.0
  7
KANJI20
  0
LINE
  8
0
  6
CONTINUOUS
 62
     4
 10
1210.360034649
 20
180.066660246
 11
1607.466670769
 21
180.066660246
  0
LINE
  8
0
  6
CONTINUOUS
 62
     4
 10
1200.133368769
 20
124.599997846
 11
1607.466670769
 21
124.599997846
  0
TEXT
  8
0
  6
CONTINUOUS
 62
     4
 10
1207.066701569
 20
112.466665446
 30
0.69333328
 40
6.9333328
  1
ＤＲＡＷＩＮＧ　ＮＯ．
 50
0.0
 41
0.8
 51
0.0
  7
KANJI21
  0
TEXT
  8
0
  6
CONTINUOUS
 62
     4
 10
1207.066701569
 20
140.199996646
 30
0.69333328
 40
6.9333328
  1
ＭＦＧ　ＮＯ．
 50
0.0
 41
0.8
 51
0.0
  7
KANJI21
  0
TEXT
  8
0
  6
CONTINUOUS
 62
     4
 10
1207.066701569
 20
167.933327846
 30
0.69333328
 40
6.9333328
  1
ＴＹＰＥ
 50
0.0
 41
0.8
 51
0.0
  7
KANJI21
  0
LINE
  8
0
  6
CONTINUOUS
 62
     4
 10
1210.533367969
 20
152.333329046
 11
1370.000022369
 21
152.333329046
  0
TEXT
  8
0
  6
CONTINUOUS
 62
     4
 10
1207.066701569
 20
100.333333046
 30
0.831999936
 40
8.31999936
  1
図　面　番　号
 50
0.0
 41
0.8
 51
0.0
  7
KANJI22
  0
TEXT
  8
0
  6
CONTINUOUS
 62
     4
 10
1207.066701569
 20
128.066664246
 30
0.831999936
 40
8.31999936
  1
製番
 50
0.0
 41
0.8
 51
0.0
  7
KANJI22
  0
TEXT
  8
0
  6
CONTINUOUS
 62
     4
 10
1207.066701569
 20
155.799995446
 30
0.831999936
 40
8.31999936
  1
機種
 50
0.0
 41
0.8
 51
0.0
  7
KANJI22
  0
LINE
  8
0
  6
CONTINUOUS
 62
     4
 10
1073.600045169
 20
69.133335446
 11
1200.133368769
 21
69.133335446
  0
LINE
  8
0
  6
CONTINUOUS
 62
     4
 10
1073.600045169
 20
96.866666646
 11
1200.133368769
 21
96.866666646
  0
TEXT
  8
0
  6
CONTINUOUS
 62
     4
 10
1080.533377969
 20
57.000003046
 30
0.69333328
 40
6.9333328
  1
ＳＣＡＬＥ
 50
0.0
 41
0.6
 51
0.0
  7
KANJI19
  0
TEXT
  8
0
  6
CONTINUOUS
 62
     4
 10
1080.533377969
 20
84.733334246
 30
0.69333328
 40
6.9333328
  1
ＤＡＴＥ
 50
0.0
 41
0.6
 51
0.0
  7
KANJI19
  0
TEXT
  8
0
  6
CONTINUOUS
 62
     4
 10
1080.533377969
 20
46.600003846
 30
0.831999936
 40
8.31999936
  1
尺度
 50
0.0
 41
0.6
 51
0.0
  7
KANJI20
  0
TEXT
  8
0
  6
CONTINUOUS
 62
     4
 10
1080.533377969
 20
74.333335046
 30
0.831999936
 40
8.31999936
  1
日付
 50
0.0
 41
0.6
 51
0.0
  7
KANJI20
  0
TEXT
  8
0
  6
CONTINUOUS
 62
     4
 10
1080.533377969
 20
102.066666246
 30
0.831999936
 40
8.31999936
  1
作図
 50
0.0
 41
0.6
 51
0.0
  7
KANJI20
  0
LINE
  8
0
  6
CONTINUOUS
 62
     4
 10
877.733393569
 20
41.400004246
 11
877.733393569
 21
69.133335446
  0
LINE
  8
0
  6
CONTINUOUS
 62
     4
 10
908.933391169
 20
41.400004246
 11
908.933391169
 21
69.133335446
  0
TEXT
  8
0
  6
CONTINUOUS
 62
     4
 10
888.133392769
 20
57.000003046
 30
0.69333328
 40
6.9333328
  1
ＢＹ
 50
0.0
 41
0.6
 51
0.0
  7
KANJI19
  0
TEXT
  8
0
  6
CONTINUOUS
 62
     4
 10
964.400053569
 20
57.000003046
 30
0.69333328
 40
6.9333328
  1
ＤＥＳＣＲＩＰＴＩＯＮ
 50
0.0
 41
0.6
 51
0.0
  7
KANJI19
  0
TEXT
  8
0
  6
CONTINUOUS
 62
     4
 10
888.133392769
 20
46.600003846
 30
0.831999936
 40
8.31999936
  1
担当
 50
0.0
 41
0.6
 51
0.0
  7
KANJI20
  0
TEXT
  8
0
  6
CONTINUOUS
 62
     4
 10
974.800052769
 20
46.600003846
 30
0.831999936
 40
8.31999936
  1
記　　　　事
 50
0.0
 41
0.6
 51
0.0
  7
KANJI20
  0
LINE
  8
0
  6
CONTINUOUS
 62
     4
 10
814.466731769
 20
63.933335846
 11
803.200065969
 21
46.600003846
  0
TEXT
  8
0
  6
CONTINUOUS
 62
     4
 10
843.066729569
 20
57.000003046
 30
0.69333328
 40
6.9333328
  1
ＤＡＴＥ
 50
0.0
 41
0.6
 51
0.0
  7
KANJI19
  0
TEXT
  8
0
  6
CONTINUOUS
 62
     4
 10
848.266729169
 20
46.600003846
 30
0.831999936
 40
8.31999936
  1
日付
 50
0.0
 41
0.6
 51
0.0
  7
KANJI20
  0
LINE
  8
0
  6
CONTINUOUS
 62
     4
 10
803.200065969
 20
46.600003846
 11
825.733397569
 21
46.600003846
  0
LINE
  8
0
  6
CONTINUOUS
 62
     4
 10
829.200063969
 20
41.400004246
 11
829.200063969
 21
69.133335446
  0
LINE
  8
0
  6
CONTINUOUS
 62
     4
 10
814.466731769
 20
63.933335846
 11
825.733397569
 21
46.600003846
  0
LINE
  8
0
  6
CONTINUOUS
 62
     4
 10
1200.133368769
 20
84.733334246
 11
1607.466670769
 21
84.733334246
  0
LINE
  8
0
  6
CONTINUOUS
 62
     4
 10
1200.133368769
 20
41.400004246
 11
1200.133368769
 21
207.799991446
  0
LINE
  8
0
  6
LTYPE1
 62
     4
 10
1491.333346369
 20
89.933333846
 11
1491.333346369
 21
117.666665046
  0
LINE
  8
0
  6
LTYPE1
 62
     4
 10
1467.066681569
 20
89.933333846
 11
1467.066681569
 21
117.666665046
  0
LINE
  8
0
  6
LTYPE1
 62
     4
 10
1442.800016769
 20
89.933333846
 11
1442.800016769
 21
117.666665046
  0
LINE
  8
0
  6
LTYPE1
 62
     4
 10
1418.533351969
 20
89.933333846
 11
1418.533351969
 21
117.666665046
  0
LINE
  8
0
  6
LTYPE1
 62
     4
 10
1394.266687169
 20
89.933333846
 11
1394.266687169
 21
117.666665046
  0
LINE
  8
0
  6
LTYPE1
 62
     4
 10
1370.000022369
 20
89.933333846
 11
1370.000022369
 21
117.666665046
  0
LINE
  8
0
  6
LTYPE1
 62
     4
 10
1345.733357569
 20
89.933333846
 11
1345.733357569
 21
117.666665046
  0
LINE
  8
0
  6
LTYPE1
 62
     4
 10
1321.466692769
 20
89.933333846
 11
1321.466692769
 21
117.666665046
  0
LINE
  8
0
  6
LTYPE1
 62
     4
 10
1321.466692769
 20
117.666665046
 11
1491.333346369
 21
117.666665046
  0
LINE
  8
0
  6
LTYPE1
 62
     4
 10
1321.466692769
 20
89.933333846
 11
1491.333346369
 21
89.933333846
  0
LINE
  8
0
  6
CONTINUOUS
 62
     4
 10
1548.533341969
 20
94.266666846
 11
1524.266677169
 21
94.266666846
  0
LINE
  8
0
  6
CONTINUOUS
 62
     4
 10
1524.266677169
 20
94.266666846
 11
1536.400009569
 21
115.066665246
  0
LINE
  8
0
  6
CONTINUOUS
 62
     4
 10
1536.400009569
 20
115.066665246
 11
1548.533341969
 21
94.266666846
  0
TEXT
  8
0
  6
CONTINUOUS
 62
     4
 10
1552.000008369
 20
3.266673846
 30
3.4666664
 40
34.666664
  1
／
 50
0.0
 41
0.9
 51
0.0
  7
KANJI23
  0
TEXT
  8
0
  6
CONTINUOUS
 62
     4
 10
1380.400021569
 20
167.933327846
 30
0.69333328
 40
6.9333328
  1
ＴＩＴＬＥ
 50
0.0
 41
0.8
 51
0.0
  7
KANJI21
  0
TEXT
  8
0
  6
CONTINUOUS
 62
     4
 10
1380.400021569
 20
155.799995446
 30
0.831999936
 40
8.31999936
  1
名称
 50
0.0
 41
0.8
 51
0.0
  7
KANJI22
  0
LINE
  8
0
  6
CONTINUOUS
 62
     6
 10
1610.933337169
 20
1113.933337846
 11
1610.933337169
 21
37.933337846
  0
LINE
  8
0
  6
CONTINUOUS
 62
     6
 10
799.733399569
 20
41.400004246
 11
799.733399569
 21
69.133335446
  0
LINE
  8
0
  6
CONTINUOUS
 62
     6
 10
799.733399569
 20
69.133335446
 11
1073.600045169
 21
69.133335446
  0
LINE
  8
0
  6
CONTINUOUS
 62
     6
 10
799.733399569
 20
41.400004246
 11
1607.466670769
 21
41.400004246
  0
TEXT
  8
0
  6
CONTINUOUS
 62
     6
 10
1203.600035169
 20
57.000003046
 30
0.0
 40
12.1333324
  1
ＵＮＩＴＥＣ　ＩＮＤＵＳＴＲＹ　ＣＯ．，ＬＴＤ．
 50
0.0
 41
0.42031746
 51
0.0
  7
KANJI24
  0
TEXT
  8
0
  6
CONTINUOUS
 62
     6
 10
1373.770022079
 20
52.493336726
 30
2.07999984
 40
20.7999984
  1
ユニテック工業株式会社
 50
0.0
 41
0.9
 51
0.0
  7
KANJI25
  0
LINE
  8
0
  6
CONTINUOUS
 62
     4
 10
1505.200011969
 20
104.666666046
 11
1512.133344769
 21
104.666666046
  0
TEXT
  8
0
  6
CONTINUOUS
 62
     2
 10
1442.933337169
 20
129.933337846
 30
10.0
 40
20.0
  1
外形寸法図
 50
0.0
 41
1.0
 51
0.0
  7
KANJI26
  0
TEXT
  8
0
  6
CONTINUOUS
 62
     2
 10
1418.933337169
 20
153.933337846
 30
2.857142857
 40
20.0
  1
マイティシリンダ
 50
0.0
 41
1.0
 51
0.0
  7
KANJI27
  0
LINE
  8
0
  6
CONTINUOUS
 62
     6
 10
1074.100045169
 20
235.533322646
 11
1607.966670769
 21
235.533322646
  0
LINE
  8
0
  6
CONTINUOUS
 62
     6
 10
1607.466670769
 20
41.400004246
 11
1607.466670769
 21
263.266653846
  0
LINE
  8
0
  6
CONTINUOUS
 62
     6
 10
1073.600045169
 20
263.266653846
 11
1607.466670769
 21
263.266653846
  0
LINE
  8
0
  6
CONTINUOUS
 62
     6
 10
1073.600045169
 20
41.400004246
 11
1073.600045169
 21
263.266653846
  0
LINE
  8
0
  6
CONTINUOUS
 62
     6
 10
1200.133368769
 20
207.799991446
 11
1200.133368769
 21
263.266653846
  0
TEXT
  8
0
  6
CONTINUOUS
 62
     6
 10
1101.933337169
 20
239.666669046
 30
4.0
 40
14.4
  1
ご用途
 50
0.0
 41
0.833333333
 51
0.0
  7
KANJI28
  0
TEXT
  8
0
  6
CONTINUOUS
 62
     6
 10
1101.933337169
 20
211.933337846
 30
4.0
 40
14.4
  1
ご注文主
 50
0.0
 41
0.833333333
 51
0.0
  7
KANJI28
  0
LINE
  8
0
  6
CONTINUOUS
 62
     1
 10
1259.986665723
 20
1061.686668082
 11
1609.986665723
 21
1061.686668082
  0
LINE
  8
0
  6
CONTINUOUS
 62
     1
 10
1259.986665723
 20
573.686668082
 11
1609.986665723
 21
573.686668082
  0
LINE
  8
0
  6
CONTINUOUS
 62
     1
 10
1259.986665723
 20
1061.686668082
 11
1259.986665723
 21
573.686668082
  0
TEXT
  8
0
  6
CONTINUOUS
 62
     2
 10
1309.986665723
 20
1032.486668082
 30
11.39976
 40
18.0
  1
マイティシリンダ仕様
 50
0.0
 41
0.9
 51
0.0
  7
KANJI29
  0
LINE
  8
0
  6
CONTINUOUS
 62
     2
 10
1259.986665723
 20
629.686668082
 11
1609.986665723
 21
629.686668082
  0
LINE
  8
0
  6
CONTINUOUS
 62
     2
 10
1259.986665723
 20
853.686668082
 11
1609.986665723
 21
853.686668082
  0
LINE
  8
0
  6
CONTINUOUS
 62
     2
 10
1259.986665723
 20
825.686668082
 11
1609.986665723
 21
825.686668082
  0
LINE
  8
0
  6
CONTINUOUS
 62
     2
 10
1259.986665723
 20
797.686668082
 11
1609.986665723
 21
797.686668082
  0
LINE
  8
0
  6
CONTINUOUS
 62
     2
 10
1259.986665723
 20
993.686668082
 11
1609.986665723
 21
993.686668082
  0
LINE
  8
0
  6
CONTINUOUS
 62
     2
 10
1259.986665723
 20
965.686668082
 11
1609.986665723
 21
965.686668082
  0
LINE
  8
0
  6
CONTINUOUS
 62
     2
 10
1259.986665723
 20
937.686668082
 11
1609.986665723
 21
937.686668082
  0
LINE
  8
0
  6
CONTINUOUS
 62
     2
 10
1259.986665723
 20
909.686668082
 11
1609.986665723
 21
909.686668082
  0
LINE
  8
0
  6
CONTINUOUS
 62
     2
 10
1259.986665723
 20
881.686668082
 11
1609.986665723
 21
881.686668082
  0
LINE
  8
0
  6
CONTINUOUS
 62
     2
 10
1259.986665723
 20
1021.686668082
 11
1609.986665723
 21
1021.686668082
  0
TEXT
  8
0
  6
CONTINUOUS
 62
     2
 10
1289.986665723
 20
1000.886668082
 30
120.297142857
 40
15.2
  1
形式
 50
0.0
 41
0.9
 51
0.0
  7
KANJI30
  0
TEXT
  8
0
  6
CONTINUOUS
 62
     2
 10
1289.986665723
 20
972.886668082
 30
120.297142857
 40
15.2
  1
推力
 50
0.0
 41
0.9
 51
0.0
  7
KANJI30
  0
TEXT
  8
0
  6
CONTINUOUS
 62
     2
 10
1289.986665723
 20
944.886668082
 30
19.814285714
 40
15.2
  1
ストローク
 50
0.0
 41
0.9
 51
0.0
  7
KANJI31
  0
TEXT
  8
0
  6
CONTINUOUS
 62
     2
 10
1289.986665723
 20
916.886668082
 30
30.978902857
 40
15.2
  1
公称速度
 50
0.0
 41
0.9
 51
0.0
  7
KANJI32
  0
TEXT
  8
0
  6
CONTINUOUS
 62
     2
 10
1585.386665723
 20
946.486668082
 30
0.0896
 40
11.2
  1
ｍｍ
 50
0.0
 41
0.8
 51
0.0
  7
KANJI33
  0
TEXT
  8
0
  6
CONTINUOUS
 62
     2
 10
1555.386665723
 20
919.686668082
 30
0.0896
 40
11.2
  1
ｍｍ／ｓｅｃ
 50
0.0
 41
0.8
 51
0.0
  7
KANJI33
  0
LINE
  8
0
  6
CONTINUOUS
 62
     2
 10
1259.986665723
 20
769.686668082
 11
1609.986665723
 21
769.686668082
  0
LINE
  8
0
  6
CONTINUOUS
 62
     2
 10
1259.986665723
 20
741.686668082
 11
1609.986665723
 21
741.686668082
  0
LINE
  8
0
  6
CONTINUOUS
 62
     2
 10
1259.986665723
 20
713.686668082
 11
1609.986665723
 21
713.686668082
  0
LINE
  8
0
  6
CONTINUOUS
 62
     2
 10
1259.986665723
 20
685.686668082
 11
1609.986665723
 21
685.686668082
  0
LINE
  8
0
  6
CONTINUOUS
 62
     2
 10
1259.986665723
 20
657.686668082
 11
1609.986665723
 21
657.686668082
  0
TEXT
  8
0
  6
CONTINUOUS
 62
     2
 10
1277.986665723
 20
776.886668082
 30
1.302857143
 40
15.2
  1
ピストンロッド回転トルク
 50
0.0
 41
0.9
 51
0.0
  7
KANJI34
  0
TEXT
  8
0
  6
CONTINUOUS
 62
     2
 10
1289.986665723
 20
748.886668082
 30
120.297142857
 40
15.2
  1
構造
 50
0.0
 41
0.9
 51
0.0
  7
KANJI30
  0
TEXT
  8
0
  6
CONTINUOUS
 62
     2
 10
1578.986665723
 20
778.886668082
 30
0.0896
 40
11.2
  1
ｋｇｍ
 50
0.0
 41
0.8
 51
0.0
  7
KANJI33
  0
TEXT
  8
0
  6
CONTINUOUS
 62
     2
 10
1289.986665723
 20
888.886668082
 30
53.308571429
 40
15.2
  1
減速比
 50
0.0
 41
0.9
 51
0.0
  7
KANJI35
  0
TEXT
  8
0
  6
CONTINUOUS
 62
     2
 10
1289.986665723
 20
860.886668082
 30
3.4
 40
15.2
  1
進み量／入力１回転
 50
0.0
 41
0.9
 51
0.0
  7
KANJI36
  0
TEXT
  8
0
  6
CONTINUOUS
 62
     2
 10
1289.986665723
 20
832.486668082
 30
120.297142857
 40
15.2
  1
効率
 50
0.0
 41
0.9
 51
0.0
  7
KANJI30
  0
TEXT
  8
0
  6
CONTINUOUS
 62
     2
 10
1289.986665723
 20
805.286668082
 30
5.8
 40
15.2
  1
使用時入力トルク
 50
0.0
 41
0.9
 51
0.0
  7
KANJI37
  0
TEXT
  8
0
  6
CONTINUOUS
 62
     2
 10
1289.986665723
 20
720.886668082
 30
30.98
 40
15.2
  1
ギヤ方式
 50
0.0
 41
0.9
 51
0.0
  7
KANJI38
  0
LINE
  8
0
  6
CONTINUOUS
 62
     2
 10
1259.986665723
 20
601.686668082
 11
1609.986665723
 21
601.686668082
  0
LINE
  8
0
  6
CONTINUOUS
 62
     2
 10
1459.986665723
 20
1021.686668082
 11
1459.986665723
 21
573.686668082
  0
TEXT
  8
0
  6
CONTINUOUS
 62
     2
 10
1467.186665723
 20
638.086668082
 30
0.4
 40
11.2
  1
マンセル
 50
0.0
 41
0.9
 51
0.0
  7
KANJI39
  0
TEXT
  8
0
  6
CONTINUOUS
 62
     2
 10
1289.986665723
 20
636.886668082
 30
53.308571429
 40
15.2
  1
塗装色
 50
0.0
 41
0.9
 51
0.0
  7
KANJI35
  0
TEXT
  8
0
  6
CONTINUOUS
 62
     2
 10
1289.986665723
 20
608.886668082
 30
53.308571429
 40
15.2
  1
付属品
 50
0.0
 41
0.9
 51
0.0
  7
KANJI35
  0
TEXT
  8
0
  6
CONTINUOUS
 62
     2
 10
1289.986665723
 20
580.886668082
 30
120.297142857
 40
15.2
  1
台数
 50
0.0
 41
0.9
 51
0.0
  7
KANJI30
  0
TEXT
  8
0
  6
CONTINUOUS
 62
     2
 10
1289.986665723
 20
664.886668082
 30
120.297142857
 40
15.2
  1
潤滑
 50
0.0
 41
0.9
 51
0.0
  7
KANJI30
  0
TEXT
  8
0
  6
CONTINUOUS
 62
     2
 10
1513.986665723
 20
638.886668082
 30
0.16
 40
11.2
  1
７．５ＧＹ５／４．５
 50
0.0
 41
0.785714286
 51
0.0
  7
KANJI40
  0
TEXT
  8
0
  6
CONTINUOUS
 62
     2
 10
1289.986665723
 20
692.886668082
 30
8.7068
 40
15.2
  1
スクリュー方式
 50
0.0
 41
0.9
 51
0.0
  7
KANJI41
  0
TEXT
  8
0
  6
CONTINUOUS
 62
     2
 10
1530.786665723
 20
833.686668082
 30
8.0
 40
12.0
  1
８５
 50
0.0
 41
0.9
 51
0.0
  7
KANJI42
  0
TEXT
  8
0
  6
CONTINUOUS
 62
     2
 10
1585.386665723
 20
862.486668082
 30
0.0896
 40
11.2
  1
ｍｍ
 50
0.0
 41
0.8
 51
0.0
  7
KANJI33
  0
TEXT
  8
0
  6
CONTINUOUS
 62
     2
 10
1578.986665723
 20
806.886668082
 30
0.0896
 40
11.2
  1
ｋｇｍ
 50
0.0
 41
0.8
 51
0.0
  7
KANJI33
  0
TEXT
  8
0
  6
CONTINUOUS
 62
     2
 10
1471.586665723
 20
833.686668082
 30
8.0
 40
12.0
  1
約
 50
0.0
 41
0.9
 51
0.0
  7
KANJI42
  0
TEXT
  8
0
  6
CONTINUOUS
 62
     2
 10
1471.586665723
 20
805.686668082
 30
8.0
 40
12.0
  1
約
 50
0.0
 41
0.9
 51
0.0
  7
KANJI42
  0
TEXT
  8
0
  6
CONTINUOUS
 62
     2
 10
1471.586665723
 20
777.686668082
 30
8.0
 40
12.0
  1
約
 50
0.0
 41
0.9
 51
0.0
  7
KANJI42
  0
TEXT
  8
0
  6
CONTINUOUS
 62
     2
 10
1589.986665723
 20
833.286668082
 30
8.0
 40
12.0
  1
％
 50
0.0
 41
0.9
 51
0.0
  7
KANJI42
  0
TEXT
  8
0
  6
CONTINUOUS
 62
     2
 10
1489.586665723
 20
722.886668082
 30
8.0
 40
12.0
  1
ベベルギヤ
 50
0.0
 41
0.9
 51
0.0
  7
KANJI42
  0
TEXT
  8
0
  6
CONTINUOUS
 62
     2
 10
1489.586665723
 20
694.086668082
 30
8.0
 40
12.0
  1
ボールネジ
 50
0.0
 41
0.9
 51
0.0
  7
KANJI42
  0
TEXT
  8
0
  6
CONTINUOUS
 62
     2
 10
1489.186665723
 20
666.086668082
 30
8.0
 40
12.0
  1
グリース方式
 50
0.0
 41
0.9
 51
0.0
  7
KANJI42
  0
TEXT
  8
0
  6
CONTINUOUS
 62
     2
 10
1489.186665723
 20
610.086668082
 30
1.2
 40
12.0
  1
入力キー
 50
0.0
 41
0.9
 51
0.0
  7
KANJI0
  0
TEXT
  8
0
  6
CONTINUOUS
 62
     2
 10
1537.986665723
 20
608.886668082
 30
1.2
 40
12.0
  1
、コラム
 50
0.0
 41
0.9
 51
0.0
  7
KANJI0
  0
TEXT
  8
0
  6
CONTINUOUS
 62
     2
 10
1516.386665723
 20
889.286668082
 30
1.2
 40
12.0
  1
１　：　１
 50
0.0
 41
0.9
 51
0.0
  7
KANJI0
  0
TEXT
  8
0
  6
CONTINUOUS
 62
     2
 10
1534.386665723
 20
861.686668082
 30
8.0
 40
12.0
  1
５
 50
0.0
 41
0.9
 51
0.0
  7
KANJI42
  0
TEXT
  8
0
  6
CONTINUOUS
 62
     2
 10
1520.886665723
 20
776.786668082
 30
1.2
 40
12.0
  1
０．９５
 50
0.0
 41
0.9
 51
0.0
  7
KANJI0
  0
TEXT
  8
0
  6
CONTINUOUS
 62
     2
 10
1469.386665723
 20
916.786668082
 30
1.2
 40
12.0
  1
ＭＡＸ．１００
 50
0.0
 41
0.9
 51
0.0
  7
KANJI0
  0
TEXT
  8
0
  6
CONTINUOUS
 62
     2
 10
1520.386665723
 20
803.436668082
 30
1.2
 40
12.0
  1
１
 50
0.0
 41
0.9
 51
0.0
  7
KANJI0
  0
TEXT
  8
0
  6
CONTINUOUS
 62
     2
 10
1478.986665723
 20
1000.286668082
 30
0.8
 40
12.0
  1
ＳＣＤ１－
 50
0.0
 41
0.833333333
 51
0.0
  7
KANJI14
  0
TEXT
  8
0
  6
CONTINUOUS
 62
     2
 10
1521.986665723
 20
944.986668082
 30
1.2
 40
12.0
  1
　００
 50
0.0
 41
0.9
 51
0.0
  7
KANJI0
  0
TEXT
  8
0
  6
CONTINUOUS
 62
     2
 10
1489.586665723
 20
749.286668082
 30
10.25
 40
14.0
  1
全閉屋内形
 50
0.0
 41
0.9
 51
0.0
  7
KANJI43
  0
LINE
  8
0
  6
CONTINUOUS
 62
     1
 10
1609.986665723
 20
1061.686668082
 11
1609.986665723
 21
573.686668082
  0
TEXT
  8
0
  6
CONTINUOUS
 62
     2
 10
1249.266665723
 20
158.366668082
 30
1.28
 40
12.8
  1
ＳＣＤ１－
 50
0.0
 41
0.9
 51
0.0
  7
KANJI44
  0
TEXT
  8
0
  6
CONTINUOUS
 62
     3
 10
1125.76
 20
45.88
 30
0.0
 40
12.0
  1
１／４
 50
0.0
 41
0.9
 51
0.0
  7
KANJI1
  0
TEXT
  8
0
  6
CONTINUOUS
 62
     2
 10
1465.706665723
 20
972.886668082
 30
1.2
 40
12.0
  1
９．８ＫＮ（１ｔｏｎ）
 50
0.0
 41
0.9
 51
0.0
  7
KANJI0
  0
LINE
  8
0
  6
CONTINUOUS
 62
     1
 10
737.486665723
 20
1009.686668082
 11
762.486665723
 21
1009.686668082
  0
ARC
  8
0
  6
CONTINUOUS
 62
     1
 10
749.986665723
 20
986.186668082
 40
38.5
 50
108.945905799
 51
0.0
  0
ARC
  8
0
  6
CONTINUOUS
 62
     1
 10
749.986665723
 20
986.186668082
 40
38.5
 50
0.0
 51
71.054094201
  0
LINE
  8
0
  6
CONTINUOUS
 62
     1
 10
737.486665723
 20
1009.686668082
 11
737.486665723
 21
1034.686668082
  0
LINE
  8
0
  6
CONTINUOUS
 62
     1
 10
737.486665723
 20
1034.686668082
 11
762.486665723
 21
1034.686668082
  0
LINE
  8
0
  6
CONTINUOUS
 62
     1
 10
762.486665723
 20
1009.686668082
 11
762.486665723
 21
1034.686668082
  0
LINE
  8
0
  6
LTYPE2
 62
     2
 10
699.986665723
 20
986.186668082
 11
803.486665723
 21
986.186668082
  0
LINE
  8
0
  6
LTYPE2
 62
     2
 10
749.986665723
 20
933.936668082
 11
749.986665723
 21
1038.436668082
  0
ARC
  8
0
  6
CONTINUOUS
 62
     2
 10
749.986665723
 20
986.186668082
 40
38.5
 50
71.054094201
 51
108.945905799
  0
LINE
  8
0
  6
CONTINUOUS
 62
     2
 10
737.486665723
 20
1034.686668082
 11
737.486665723
 21
1077.686668082
  0
LINE
  8
0
  6
CONTINUOUS
 62
     2
 10
737.486665723
 20
1070.186668082
 11
725.412592894
 21
1073.421906146
  0
LINE
  8
0
  6
CONTINUOUS
 62
     2
 10
737.486665723
 20
1070.186668082
 11
725.412592894
 21
1066.951430018
  0
LINE
  8
0
  6
CONTINUOUS
 62
     2
 10
712.486665723
 20
1070.186668082
 11
787.486665723
 21
1070.186668082
  0
LINE
  8
0
  6
CONTINUOUS
 62
     2
 10
762.486665723
 20
1070.186668082
 11
774.560738552
 21
1066.951430018
  0
LINE
  8
0
  6
CONTINUOUS
 62
     2
 10
762.486665723
 20
1070.186668082
 11
774.560738552
 21
1073.421906146
  0
LINE
  8
0
  6
CONTINUOUS
 62
     2
 10
762.486665723
 20
1034.686668082
 11
762.486665723
 21
1077.686668082
  0
TEXT
  8
0
  6
CONTINUOUS
 62
     2
 10
743.236665723
 20
1075.186668082
 30
0.5
 40
15.0
  1
５
 50
0.0
 41
0.9
 51
0.0
  7
KANJI45
  0
LINE
  8
0
  6
CONTINUOUS
 62
     2
 10
737.486665723
 20
1034.686668082
 11
682.986665723
 21
1034.686668082
  0
LINE
  8
0
  6
CONTINUOUS
 62
     2
 10
690.486665723
 20
1034.686668082
 11
693.721903787
 21
1046.760740911
  0
LINE
  8
0
  6
CONTINUOUS
 62
     2
 10
690.486665723
 20
1034.686668082
 11
687.251427659
 21
1046.760740911
  0
LINE
  8
0
  6
CONTINUOUS
 62
     2
 10
690.486665723
 20
1059.686668082
 11
690.486665723
 21
984.686668082
  0
LINE
  8
0
  6
CONTINUOUS
 62
     2
 10
690.486665723
 20
1009.686668082
 11
687.251427659
 21
997.612595253
  0
LINE
  8
0
  6
CONTINUOUS
 62
     2
 10
690.486665723
 20
1009.686668082
 11
693.721903787
 21
997.612595253
  0
LINE
  8
0
  6
CONTINUOUS
 62
     2
 10
737.486665723
 20
1009.686668082
 11
682.986665723
 21
1009.686668082
  0
TEXT
  8
0
  6
CONTINUOUS
 62
     2
 10
685.486665723
 20
1017.436668082
 30
0.5
 40
15.0
  1
５
 50
90.0
 41
0.9
 51
0.0
  7
KANJI45
  0
LINE
  8
0
  6
CONTINUOUS
 62
     2
 10
749.986665723
 20
1024.686668082
 11
835.986665723
 21
1024.686668082
  0
LINE
  8
0
  6
CONTINUOUS
 62
     2
 10
828.486665723
 20
1024.686668082
 11
831.721903787
 21
1036.760740911
  0
LINE
  8
0
  6
CONTINUOUS
 62
     2
 10
828.486665723
 20
1024.686668082
 11
825.251427659
 21
1036.760740911
  0
LINE
  8
0
  6
CONTINUOUS
 62
     2
 10
828.486665723
 20
1009.686668082
 11
825.251427659
 21
997.612595253
  0
LINE
  8
0
  6
CONTINUOUS
 62
     2
 10
828.486665723
 20
1009.686668082
 11
831.721903787
 21
997.612595253
  0
LINE
  8
0
  6
CONTINUOUS
 62
     2
 10
762.486665723
 20
1009.686668082
 11
835.986665723
 21
1009.686668082
  0
TEXT
  8
0
  6
CONTINUOUS
 62
     2
 10
823.486665723
 20
1049.686668082
 30
0.5
 40
15.0
  1
３　　
 50
90.0
 41
0.9
 51
0.0
  7
KANJI45
  0
TEXT
  8
0
  6
CONTINUOUS
 62
     2
 10
822.486665723
 20
1063.186668082
 30
0.3
 40
9.0
  1
－０
 50
90.0
 41
0.9
 51
0.0
  7
KANJI46
  0
TEXT
  8
0
  6
CONTINUOUS
 62
     2
 10
813.486665723
 20
1063.186668082
 30
0.3
 40
9.0
  1
＋０．１
 50
90.0
 41
0.9
 51
0.0
  7
KANJI46
  0
LINE
  8
0
  6
CONTINUOUS
 62
     2
 10
828.486665723
 20
1095.686668082
 11
828.486665723
 21
984.686668082
  0
TEXT
  8
0
  6
CONTINUOUS
 62
     2
 10
695.486665723
 20
909.486668082
 30
2.0
 40
20.0
  1
入力シャフト
 50
0.0
 41
0.9
 51
0.0
  7
KANJI47
  0
LINE
  8
0
  6
CONTINUOUS
 62
     2
 10
690.286665723
 20
903.386668082
 11
811.286665723
 21
903.386668082
  0
CIRCLE
  8
0
  6
CONTINUOUS
 62
     1
 10
217.986665723
 20
956.186668082
 40
7.5
  0
CIRCLE
  8
0
  6
CONTINUOUS
 62
     1
 10
217.986665723
 20
956.186668082
 40
8.5
  0
CIRCLE
  8
0
  6
CONTINUOUS
 62
     1
 10
217.986665723
 20
956.186668082
 40
47.5
  0
LINE
  8
0
  6
CONTINUOUS
 62
     1
 10
162.986665723
 20
903.186668082
 11
291.986665723
 21
903.186668082
  0
LINE
  8
0
  6
CONTINUOUS
 62
     1
 10
162.986665723
 20
903.186668082
 11
162.986665723
 21
1009.186668082
  0
LINE
  8
0
  6
CONTINUOUS
 62
     1
 10
279.986665723
 20
903.186668082
 11
279.986665723
 21
1009.186668082
  0
LINE
  8
0
  6
CONTINUOUS
 62
     1
 10
162.986665723
 20
1009.186668082
 11
291.986665723
 21
1009.186668082
  0
LINE
  8
0
  6
CONTINUOUS
 62
     1
 10
291.986665723
 20
903.186668082
 11
291.986665723
 21
1009.186668082
  0
LINE
  8
0
  6
CONTINUOUS
 62
     1
 10
168.986665723
 20
903.186668082
 11
168.986665723
 21
1009.186668082
  0
LINE
  8
0
  6
CONTINUOUS
 62
     1
 10
279.986665723
 20
903.186668082
 11
291.986665723
 21
903.186668082
  0
LINE
  8
0
  6
CONTINUOUS
 62
     1
 10
279.986665723
 20
901.186668082
 11
279.986665723
 21
922.186668082
  0
LINE
  8
0
  6
CONTINUOUS
 62
     1
 10
291.986665723
 20
903.186668082
 11
291.986665723
 21
919.186668082
  0
ARC
  8
0
  6
CONTINUOUS
 62
     1
 10
294.986665723
 20
919.186668082
 40
3.0
 50
90.0
 51
180.0
  0
LINE
  8
0
  6
CONTINUOUS
 62
     1
 10
291.986665723
 20
911.186668082
 11
293.986665635
 21
913.186667994
  0
LINE
  8
0
  6
CONTINUOUS
 62
     1
 10
293.986665723
 20
911.186668082
 11
291.986665811
 21
909.18666817
  0
LINE
  8
0
  6
CONTINUOUS
 62
     1
 10
291.986665723
 20
918.886668082
 11
293.986665723
 21
918.886668082
  0
LINE
  8
0
  6
CONTINUOUS
 62
     1
 10
293.986665723
 20
911.186668082
 11
293.986665723
 21
918.886668082
  0
LINE
  8
0
  6
CONTINUOUS
 62
     1
 10
293.986665723
 20
911.186668082
 11
293.986665723
 21
903.486668082
  0
LINE
  8
0
  6
CONTINUOUS
 62
     1
 10
291.986665723
 20
903.486668082
 11
293.986665723
 21
903.486668082
  0
LINE
  8
0
  6
CONTINUOUS
 62
     1
 10
293.986665723
 20
917.686668082
 11
301.486665723
 21
917.686668082
  0
LINE
  8
0
  6
CONTINUOUS
 62
     1
 10
301.486665723
 20
917.686668082
 11
301.486665723
 21
911.186668082
  0
LINE
  8
0
  6
CONTINUOUS
 62
     1
 10
301.486665723
 20
917.686668082
 11
301.986665723
 21
916.820642678
  0
LINE
  8
0
  6
CONTINUOUS
 62
     1
 10
301.986665723
 20
916.820642678
 11
301.986665723
 21
911.186668082
  0
LINE
  8
0
  6
CONTINUOUS
 62
     1
 10
293.986665723
 20
904.686668082
 11
301.486665723
 21
904.686668082
  0
LINE
  8
0
  6
CONTINUOUS
 62
     1
 10
301.486665723
 20
904.686668082
 11
301.486665723
 21
911.186668082
  0
LINE
  8
0
  6
CONTINUOUS
 62
     1
 10
301.486665723
 20
904.686668082
 11
301.986665723
 21
905.552693486
  0
LINE
  8
0
  6
CONTINUOUS
 62
     1
 10
301.986665723
 20
905.552693486
 11
301.986665723
 21
911.186668082
  0
ARC
  8
0
  6
CONTINUOUS
 62
     1
 10
340.471947097
 20
921.186668082
 40
6.0
 50
225.0
 51
270.0
  0
LINE
  8
0
  6
CONTINUOUS
 62
     1
 10
332.744025036
 20
920.429308769
 11
336.22930641
 21
916.944027395
  0
ARC
  8
0
  6
CONTINUOUS
 62
     1
 10
328.501384349
 20
916.186668082
 40
6.0
 50
45.0
 51
90.0
  0
LINE
  8
0
  6
CONTINUOUS
 62
     1
 10
294.986665723
 20
922.186668082
 11
328.501384349
 21
922.186668082
  0
LINE
  8
0
  6
CONTINUOUS
 62
     1
 10
340.471947097
 20
915.186668082
 11
368.986665723
 21
915.186668082
  0
LINE
  8
0
  6
CONTINUOUS
 62
     1
 10
279.986665723
 20
1009.186668082
 11
291.986665723
 21
1009.186668082
  0
LINE
  8
0
  6
CONTINUOUS
 62
     1
 10
291.986665723
 20
1009.186668082
 11
291.986665723
 21
993.186668082
  0
ARC
  8
0
  6
CONTINUOUS
 62
     1
 10
294.986665723
 20
993.186668082
 40
3.0
 50
180.0
 51
270.0
  0
LINE
  8
0
  6
CONTINUOUS
 62
     1
 10
291.986665723
 20
1001.186668082
 11
293.986665635
 21
999.18666817
  0
LINE
  8
0
  6
CONTINUOUS
 62
     1
 10
293.986665723
 20
1001.186668082
 11
291.986665811
 21
1003.186667994
  0
LINE
  8
0
  6
CONTINUOUS
 62
     1
 10
291.986665723
 20
993.486668082
 11
293.986665723
 21
993.486668082
  0
LINE
  8
0
  6
CONTINUOUS
 62
     1
 10
293.986665723
 20
1001.186668082
 11
293.986665723
 21
993.486668082
  0
LINE
  8
0
  6
CONTINUOUS
 62
     1
 10
293.986665723
 20
1001.186668082
 11
293.986665723
 21
1008.886668082
  0
LINE
  8
0
  6
CONTINUOUS
 62
     1
 10
291.986665723
 20
1008.886668082
 11
293.986665723
 21
1008.886668082
  0
LINE
  8
0
  6
CONTINUOUS
 62
     1
 10
293.986665723
 20
994.686668082
 11
301.486665723
 21
994.686668082
  0
LINE
  8
0
  6
CONTINUOUS
 62
     1
 10
301.486665723
 20
994.686668082
 11
301.486665723
 21
1001.186668082
  0
LINE
  8
0
  6
CONTINUOUS
 62
     1
 10
301.486665723
 20
994.686668082
 11
301.986665723
 21
995.552693486
  0
LINE
  8
0
  6
CONTINUOUS
 62
     1
 10
301.986665723
 20
995.552693486
 11
301.986665723
 21
1001.186668082
  0
LINE
  8
0
  6
CONTINUOUS
 62
     1
 10
293.986665723
 20
1007.686668082
 11
301.486665723
 21
1007.686668082
  0
LINE
  8
0
  6
CONTINUOUS
 62
     1
 10
301.486665723
 20
1007.686668082
 11
301.486665723
 21
1001.186668082
  0
LINE
  8
0
  6
CONTINUOUS
 62
     1
 10
301.486665723
 20
1007.686668082
 11
301.986665723
 21
1006.820642678
  0
LINE
  8
0
  6
CONTINUOUS
 62
     1
 10
301.986665723
 20
1006.820642678
 11
301.986665723
 21
1001.186668082
  0
ARC
  8
0
  6
CONTINUOUS
 62
     1
 10
340.471947097
 20
991.186668082
 40
6.0
 50
90.0
 51
135.0
  0
LINE
  8
0
  6
CONTINUOUS
 62
     1
 10
332.744025036
 20
991.944027395
 11
336.22930641
 21
995.429308769
  0
ARC
  8
0
  6
CONTINUOUS
 62
     1
 10
328.501384349
 20
996.186668082
 40
6.0
 50
270.0
 51
315.0
  0
LINE
  8
0
  6
CONTINUOUS
 62
     1
 10
294.986665723
 20
990.186668082
 11
328.501384349
 21
990.186668082
  0
LINE
  8
0
  6
CONTINUOUS
 62
     1
 10
340.471947097
 20
997.186668082
 11
368.986665723
 21
997.186668082
  0
LINE
  8
0
  6
CONTINUOUS
 62
     1
 10
279.986665723
 20
1011.186668082
 11
279.986665723
 21
990.186668082
  0
LINE
  8
0
  6
CONTINUOUS
 62
     1
 10
368.986665723
 20
915.186668082
 11
368.986665723
 21
956.186668082
  0
LINE
  8
0
  6
CONTINUOUS
 62
     1
 10
338.72930641
 20
915.444027395
 11
338.72930641
 21
996.444027395
  0
LINE
  8
0
  6
CONTINUOUS
 62
     1
 10
330.72930641
 20
990.944027395
 11
330.72930641
 21
921.444027395
  0
LINE
  8
0
  6
CONTINUOUS
 62
     1
 10
368.986665723
 20
997.186668082
 11
368.986665723
 21
956.186668082
  0
LINE
  8
0
  6
CONTINUOUS
 62
     1
 10
259.72930641
 20
1009.186668082
 11
267.72930641
 21
1009.186668082
  0
LINE
  8
0
  6
CONTINUOUS
 62
     1
 10
259.72930641
 20
1009.186668082
 11
251.72930641
 21
1009.186668082
  0
CIRCLE
  8
0
  6
CONTINUOUS
 62
     1
 10
245.563830189
 20
983.763832548
 40
5.0
  0
CIRCLE
  8
0
  6
CONTINUOUS
 62
     1
 10
217.986665723
 20
956.186668082
 40
25.0
  0
LINE
  8
0
  6
LTYPE2
 62
     2
 10
129.986665723
 20
956.186668082
 11
454.986665723
 21
956.186668082
  0
LINE
  8
0
  6
LTYPE2
 62
     2
 10
217.986665723
 20
888.186668082
 11
217.986665723
 21
1022.686668082
  0
CIRCLE
  8
0
  6
LTYPE2
 62
     2
 10
217.986665723
 20
956.186668082
 40
39.0
  0
LINE
  8
0
  6
LTYPE2
 62
     2
 10
237.986665723
 20
976.186668082
 11
249.986665723
 21
988.186668082
  0
LINE
  8
0
  6
CONTINUOUS
 62
     1
 10
210.486665723
 20
568.186668082
 11
225.486665723
 21
568.186668082
  0
LINE
  8
0
  6
CONTINUOUS
 62
     1
 10
192.986665723
 20
596.186668082
 11
192.986665723
 21
612.186668082
  0
LINE
  8
0
  6
CONTINUOUS
 62
     1
 10
210.486665723
 20
568.186668082
 11
210.486665723
 21
593.186668082
  0
LINE
  8
0
  6
CONTINUOUS
 62
     1
 10
225.486665723
 20
568.186668082
 11
225.486665723
 21
593.186668082
  0
LINE
  8
0
  6
CONTINUOUS
 62
     1
 10
912.986665723
 20
649.686668082
 11
912.986665723
 21
664.686668082
  0
LINE
  8
0
  6
CONTINUOUS
 62
     1
 10
852.986665723
 20
664.686668082
 11
912.986665723
 21
664.686668082
  0
LINE
  8
0
  6
CONTINUOUS
 62
     1
 10
837.986665723
 20
649.686668082
 11
912.986665723
 21
649.686668082
  0
LINE
  8
0
  6
CONTINUOUS
 62
     1
 10
226.486665723
 20
593.186668082
 11
226.486665723
 21
596.186668082
  0
LINE
  8
0
  6
CONTINUOUS
 62
     1
 10
209.486665723
 20
593.186668082
 11
209.486665723
 21
596.186668082
  0
LINE
  8
0
  6
CONTINUOUS
 62
     1
 10
209.486665723
 20
593.186668082
 11
226.486665723
 21
593.186668082
  0
LINE
  8
0
  6
CONTINUOUS
 62
     1
 10
852.986665723
 20
664.686668082
 11
852.986665723
 21
677.186668082
  0
LINE
  8
0
  6
CONTINUOUS
 62
     1
 10
162.986665723
 20
624.186668082
 11
162.986665723
 21
730.186668082
  0
LINE
  8
0
  6
CONTINUOUS
 62
     1
 10
912.986665723
 20
704.686668082
 11
912.986665723
 21
689.686668082
  0
LINE
  8
0
  6
CONTINUOUS
 62
     1
 10
852.986665723
 20
689.686668082
 11
912.986665723
 21
689.686668082
  0
LINE
  8
0
  6
CONTINUOUS
 62
     1
 10
837.986665723
 20
704.686668082
 11
912.986665723
 21
704.686668082
  0
LINE
  8
0
  6
CONTINUOUS
 62
     1
 10
852.986665723
 20
689.686668082
 11
852.986665723
 21
677.186668082
  0
CIRCLE
  8
0
  6
CONTINUOUS
 62
     1
 10
529.986665723
 20
677.186668082
 40
16.575
  0
LINE
  8
0
  6
CONTINUOUS
 62
     1
 10
512.986665723
 20
694.186668082
 11
546.986665723
 21
694.186668082
  0
LINE
  8
0
  6
CONTINUOUS
 62
     1
 10
546.986665723
 20
660.186668082
 11
546.986665723
 21
694.186668082
  0
LINE
  8
0
  6
CONTINUOUS
 62
     1
 10
512.986665723
 20
660.186668082
 11
546.986665723
 21
660.186668082
  0
LINE
  8
0
  6
CONTINUOUS
 62
     1
 10
512.986665723
 20
660.186668082
 11
512.986665723
 21
694.186668082
  0
LINE
  8
0
  6
CONTINUOUS
 62
     1
 10
279.986665723
 20
624.186668082
 11
291.986665723
 21
624.186668082
  0
LINE
  8
0
  6
CONTINUOUS
 62
     1
 10
170.486665723
 20
612.186668082
 11
170.486665723
 21
622.186668082
  0
LINE
  8
0
  6
CONTINUOUS
 62
     1
 10
162.986665723
 20
730.186668082
 11
169.986665723
 21
730.186668082
  0
LINE
  8
0
  6
CONTINUOUS
 62
     1
 10
170.486665723
 20
742.186668082
 11
170.486665723
 21
732.186668082
  0
LINE
  8
0
  6
CONTINUOUS
 62
     1
 10
265.486665723
 20
612.186668082
 11
265.486665723
 21
622.186668082
  0
ARC
  8
0
  6
CONTINUOUS
 62
     1
 10
294.986665723
 20
640.186668082
 40
3.0
 50
90.0
 51
180.0
  0
LINE
  8
0
  6
CONTINUOUS
 62
     1
 10
291.986665723
 20
632.186668082
 11
293.986665635
 21
634.186667994
  0
LINE
  8
0
  6
CONTINUOUS
 62
     1
 10
293.986665723
 20
632.186668082
 11
291.986665811
 21
630.18666817
  0
LINE
  8
0
  6
CONTINUOUS
 62
     1
 10
291.986665723
 20
639.886668082
 11
293.986665723
 21
639.886668082
  0
LINE
  8
0
  6
CONTINUOUS
 62
     1
 10
293.986665723
 20
632.186668082
 11
293.986665723
 21
639.886668082
  0
LINE
  8
0
  6
CONTINUOUS
 62
     1
 10
293.986665723
 20
632.186668082
 11
293.986665723
 21
624.486668082
  0
LINE
  8
0
  6
CONTINUOUS
 62
     1
 10
291.986665723
 20
624.486668082
 11
293.986665723
 21
624.486668082
  0
LINE
  8
0
  6
CONTINUOUS
 62
     1
 10
293.986665723
 20
638.686668082
 11
301.486665723
 21
638.686668082
  0
LINE
  8
0
  6
CONTINUOUS
 62
     1
 10
301.486665723
 20
638.686668082
 11
301.486665723
 21
632.186668082
  0
LINE
  8
0
  6
CONTINUOUS
 62
     1
 10
301.486665723
 20
638.686668082
 11
301.986665723
 21
637.820642678
  0
LINE
  8
0
  6
CONTINUOUS
 62
     1
 10
301.986665723
 20
637.820642678
 11
301.986665723
 21
632.186668082
  0
LINE
  8
0
  6
CONTINUOUS
 62
     1
 10
293.986665723
 20
625.686668082
 11
301.486665723
 21
625.686668082
  0
LINE
  8
0
  6
CONTINUOUS
 62
     1
 10
301.486665723
 20
625.686668082
 11
301.486665723
 21
632.186668082
  0
LINE
  8
0
  6
CONTINUOUS
 62
     1
 10
301.486665723
 20
625.686668082
 11
301.986665723
 21
626.552693486
  0
LINE
  8
0
  6
CONTINUOUS
 62
     1
 10
301.986665723
 20
626.552693486
 11
301.986665723
 21
632.186668082
  0
LINE
  8
0
  6
CONTINUOUS
 62
     1
 10
162.986665723
 20
624.186668082
 11
168.986665723
 21
624.186668082
  0
LINE
  8
0
  6
CONTINUOUS
 62
     1
 10
162.986665723
 20
730.186668082
 11
168.986665723
 21
730.186668082
  0
LINE
  8
0
  6
CONTINUOUS
 62
     1
 10
242.986665723
 20
596.186668082
 11
242.986665723
 21
612.186668082
  0
ARC
  8
0
  6
CONTINUOUS
 62
     1
 10
340.471947097
 20
642.186668082
 40
6.0
 50
225.0
 51
270.0
  0
LINE
  8
0
  6
CONTINUOUS
 62
     1
 10
332.744025036
 20
641.429308769
 11
336.22930641
 21
637.944027395
  0
ARC
  8
0
  6
CONTINUOUS
 62
     1
 10
328.501384349
 20
637.186668082
 40
6.0
 50
45.0
 51
90.0
  0
LINE
  8
0
  6
CONTINUOUS
 62
     1
 10
294.986665723
 20
643.186668082
 11
328.501384349
 21
643.186668082
  0
LINE
  8
0
  6
CONTINUOUS
 62
     1
 10
340.471947097
 20
636.186668082
 11
368.986665723
 21
636.186668082
  0
LINE
  8
0
  6
CONTINUOUS
 62
     1
 10
210.486665723
 20
786.186668082
 11
225.486665723
 21
786.186668082
  0
LINE
  8
0
  6
CONTINUOUS
 62
     1
 10
192.986665723
 20
758.186668082
 11
192.986665723
 21
742.186668082
  0
LINE
  8
0
  6
CONTINUOUS
 62
     1
 10
210.486665723
 20
786.186668082
 11
210.486665723
 21
761.186668082
  0
LINE
  8
0
  6
CONTINUOUS
 62
     1
 10
225.486665723
 20
786.186668082
 11
225.486665723
 21
761.186668082
  0
LINE
  8
0
  6
CONTINUOUS
 62
     1
 10
209.486665723
 20
761.186668082
 11
226.486665723
 21
761.186668082
  0
LINE
  8
0
  6
CONTINUOUS
 62
     1
 10
242.986665723
 20
758.186668082
 11
242.986665723
 21
742.186668082
  0
LINE
  8
0
  6
CONTINUOUS
 62
     1
 10
168.986665723
 20
732.186668082
 11
176.186665723
 21
732.186668082
  0
LINE
  8
0
  6
CONTINUOUS
 62
     1
 10
168.986665723
 20
622.186668082
 11
168.986665723
 21
732.186668082
  0
LINE
  8
0
  6
CONTINUOUS
 62
     1
 10
168.986665723
 20
622.186668082
 11
176.186665723
 21
622.186668082
  0
LINE
  8
0
  6
CONTINUOUS
 62
     1
 10
279.986665723
 20
730.186668082
 11
291.986665723
 21
730.186668082
  0
ARC
  8
0
  6
CONTINUOUS
 62
     1
 10
294.986665723
 20
714.186668082
 40
3.0
 50
180.0
 51
270.0
  0
LINE
  8
0
  6
CONTINUOUS
 62
     1
 10
291.986665723
 20
722.186668082
 11
293.986665635
 21
720.18666817
  0
LINE
  8
0
  6
CONTINUOUS
 62
     1
 10
293.986665723
 20
722.186668082
 11
291.986665811
 21
724.186667994
  0
LINE
  8
0
  6
CONTINUOUS
 62
     1
 10
291.986665723
 20
714.486668082
 11
293.986665723
 21
714.486668082
  0
LINE
  8
0
  6
CONTINUOUS
 62
     1
 10
293.986665723
 20
722.186668082
 11
293.986665723
 21
714.486668082
  0
LINE
  8
0
  6
CONTINUOUS
 62
     1
 10
293.986665723
 20
722.186668082
 11
293.986665723
 21
729.886668082
  0
LINE
  8
0
  6
CONTINUOUS
 62
     1
 10
291.986665723
 20
729.886668082
 11
293.986665723
 21
729.886668082
  0
LINE
  8
0
  6
CONTINUOUS
 62
     1
 10
293.986665723
 20
715.686668082
 11
301.486665723
 21
715.686668082
  0
LINE
  8
0
  6
CONTINUOUS
 62
     1
 10
301.486665723
 20
715.686668082
 11
301.486665723
 21
722.186668082
  0
LINE
  8
0
  6
CONTINUOUS
 62
     1
 10
301.486665723
 20
715.686668082
 11
301.986665723
 21
716.552693486
  0
LINE
  8
0
  6
CONTINUOUS
 62
     1
 10
301.986665723
 20
716.552693486
 11
301.986665723
 21
722.186668082
  0
LINE
  8
0
  6
CONTINUOUS
 62
     1
 10
293.986665723
 20
728.686668082
 11
301.486665723
 21
728.686668082
  0
LINE
  8
0
  6
CONTINUOUS
 62
     1
 10
301.486665723
 20
728.686668082
 11
301.486665723
 21
722.186668082
  0
LINE
  8
0
  6
CONTINUOUS
 62
     1
 10
301.486665723
 20
728.686668082
 11
301.986665723
 21
727.820642678
  0
LINE
  8
0
  6
CONTINUOUS
 62
     1
 10
301.986665723
 20
727.820642678
 11
301.986665723
 21
722.186668082
  0
ARC
  8
0
  6
CONTINUOUS
 62
     1
 10
340.471947097
 20
712.186668082
 40
6.0
 50
90.0
 51
135.0
  0
LINE
  8
0
  6
CONTINUOUS
 62
     1
 10
332.744025036
 20
712.944027395
 11
336.22930641
 21
716.429308769
  0
ARC
  8
0
  6
CONTINUOUS
 62
     1
 10
328.501384349
 20
717.186668082
 40
6.0
 50
270.0
 51
315.0
  0
LINE
  8
0
  6
CONTINUOUS
 62
     1
 10
294.986665723
 20
711.186668082
 11
328.501384349
 21
711.186668082
  0
LINE
  8
0
  6
CONTINUOUS
 62
     1
 10
340.471947097
 20
718.186668082
 11
368.986665723
 21
718.186668082
  0
LINE
  8
0
  6
CONTINUOUS
 62
     1
 10
265.486665723
 20
742.186668082
 11
265.486665723
 21
732.186668082
  0
LINE
  8
0
  6
CONTINUOUS
 62
     1
 10
837.986665723
 20
833.186668082
 11
837.986665723
 21
883.186668082
  0
LINE
  8
0
  6
CONTINUOUS
 62
     1
 10
837.986665723
 20
858.186668082
 11
837.986665723
 21
833.186668082
  0
LINE
  8
0
  6
CONTINUOUS
 62
     1
 10
837.986665723
 20
833.186668082
 11
904.986665723
 21
833.186668082
  0
ARC
  8
0
  6
CONTINUOUS
 62
     1
 10
904.986665723
 20
841.186668082
 40
8.0
 50
270.0
 51
0.0
  0
LINE
  8
0
  6
CONTINUOUS
 62
     1
 10
837.986665723
 20
883.186668082
 11
904.986665723
 21
883.186668082
  0
LINE
  8
0
  6
CONTINUOUS
 62
     1
 10
912.986665723
 20
841.186668082
 11
912.986665723
 21
875.186668082
  0
ARC
  8
0
  6
CONTINUOUS
 62
     1
 10
904.986665723
 20
875.186668082
 40
8.0
 50
0.0
 51
90.0
  0
CIRCLE
  8
0
  6
CONTINUOUS
 62
     1
 10
887.986665723
 20
858.186668082
 40
12.5
  0
CIRCLE
  8
0
  6
CONTINUOUS
 62
     1
 10
887.986665723
 20
858.186668082
 40
22.0
  0
CIRCLE
  8
0
  6
CONTINUOUS
 62
     1
 10
887.986665723
 20
873.686668082
 40
3.0
  0
LINE
  8
0
  6
CONTINUOUS
 62
     1
 10
883.786665723
 20
841.386668082
 11
885.786665723
 21
841.086668082
  0
LINE
  8
0
  6
CONTINUOUS
 62
     1
 10
886.286665723
 20
845.786668082
 11
886.051281108
 21
844.217437313
  0
LINE
  8
0
  6
CONTINUOUS
 62
     1
 10
886.051281108
 20
844.217437313
 11
883.786665723
 21
841.386668082
  0
LINE
  8
0
  6
CONTINUOUS
 62
     1
 10
887.986665723
 20
843.786668082
 11
885.786665723
 21
841.086668082
  0
LINE
  8
0
  6
CONTINUOUS
 62
     1
 10
892.186665723
 20
841.386668082
 11
890.186665723
 21
841.086668082
  0
LINE
  8
0
  6
CONTINUOUS
 62
     1
 10
889.686665723
 20
845.786668082
 11
889.922050338
 21
844.217437313
  0
LINE
  8
0
  6
CONTINUOUS
 62
     1
 10
889.922050338
 20
844.217437313
 11
892.186665723
 21
841.386668082
  0
LINE
  8
0
  6
CONTINUOUS
 62
     1
 10
887.986665723
 20
843.786668082
 11
890.186665723
 21
841.086668082
  0
LINE
  8
0
  6
LTYPE2
 62
     2
 10
887.986665723
 20
858.186668082
 11
887.986665723
 21
677.186668082
  0
LINE
  8
0
  6
LTYPE3
 62
     2
 10
529.986665723
 20
655.851668082
 11
529.986665723
 21
698.266668082
  0
LINE
  8
0
  6
LTYPE2
 62
     2
 10
261.686665723
 20
632.186668082
 11
306.986665723
 21
632.186668082
  0
LINE
  8
0
  6
LTYPE2
 62
     2
 10
261.686665723
 20
722.186668082
 11
306.986665723
 21
722.186668082
  0
LINE
  8
0
  6
LTYPE2
 62
     2
 10
887.986665723
 20
833.186668082
 11
887.986665723
 21
883.186668082
  0
LINE
  8
0
  6
LTYPE1
 62
     2
 10
852.986665723
 20
833.186668082
 11
852.986665723
 21
883.186668082
  0
LINE
  8
0
  6
LTYPE2
 62
     2
 10
923.486665723
 20
858.186668082
 11
828.986665723
 21
858.186668082
  0
LINE
  8
0
  6
LTYPE2
 62
     2
 10
217.986665723
 20
555.686668082
 11
217.986665723
 21
802.186668082
  0
LINE
  8
0
  6
LTYPE2
 62
     2
 10
887.986665723
 20
617.186668082
 11
887.986665723
 21
677.186668082
  0
LINE
  8
0
  6
CONTINUOUS
 62
     2
 10
910.986665723
 20
883.186668082
 11
965.986665723
 21
883.186668082
  0
LINE
  8
0
  6
CONTINUOUS
 62
     2
 10
959.986665723
 20
883.186668082
 11
957.398475272
 21
873.527409819
  0
LINE
  8
0
  6
CONTINUOUS
 62
     2
 10
959.986665723
 20
883.186668082
 11
962.574856174
 21
873.527409819
  0
LINE
  8
0
  6
CONTINUOUS
 62
     2
 10
959.986665723
 20
883.186668082
 11
959.986665723
 21
833.186668082
  0
LINE
  8
0
  6
CONTINUOUS
 62
     2
 10
959.986665723
 20
833.186668082
 11
962.574856174
 21
842.845926345
  0
LINE
  8
0
  6
CONTINUOUS
 62
     2
 10
959.986665723
 20
833.186668082
 11
957.398475272
 21
842.845926345
  0
LINE
  8
0
  6
CONTINUOUS
 62
     2
 10
910.986665723
 20
833.186668082
 11
965.986665723
 21
833.186668082
  0
TEXT
  8
0
  6
CONTINUOUS
 62
     2
 10
955.986665723
 20
846.786668082
 30
1.2
 40
12.0
  1
５０
 50
90.0
 41
0.9
 51
0.0
  7
KANJI48
  0
LINE
  8
0
  6
CONTINUOUS
 62
     2
 10
887.986665723
 20
808.086668082
 11
897.645923986
 21
805.498477631
  0
LINE
  8
0
  6
CONTINUOUS
 62
     2
 10
887.986665723
 20
808.086668082
 11
897.645923986
 21
810.674858533
  0
LINE
  8
0
  6
CONTINUOUS
 62
     2
 10
887.986665723
 20
808.086668082
 11
912.986665723
 21
808.086668082
  0
LINE
  8
0
  6
CONTINUOUS
 62
     2
 10
912.986665723
 20
808.086668082
 11
903.32740746
 21
810.674858533
  0
LINE
  8
0
  6
CONTINUOUS
 62
     2
 10
912.986665723
 20
808.086668082
 11
903.32740746
 21
805.498477631
  0
LINE
  8
0
  6
CONTINUOUS
 62
     2
 10
912.986665723
 20
835.186668082
 11
912.986665723
 21
802.086668082
  0
TEXT
  8
0
  6
CONTINUOUS
 62
     2
 10
889.086665723
 20
812.086668082
 30
1.2
 40
12.0
  1
２５
 50
0.0
 41
0.9
 51
0.0
  7
KANJI48
  0
LINE
  8
0
  6
CONTINUOUS
 62
     2
 10
887.986665723
 20
808.086668082
 11
878.32740746
 21
810.674858533
  0
LINE
  8
0
  6
CONTINUOUS
 62
     2
 10
887.986665723
 20
808.086668082
 11
878.32740746
 21
805.498477631
  0
LINE
  8
0
  6
CONTINUOUS
 62
     2
 10
887.986665723
 20
808.086668082
 11
852.986665723
 21
808.086668082
  0
LINE
  8
0
  6
CONTINUOUS
 62
     2
 10
852.986665723
 20
808.086668082
 11
862.645923986
 21
805.498477631
  0
LINE
  8
0
  6
CONTINUOUS
 62
     2
 10
852.986665723
 20
808.086668082
 11
862.645923986
 21
810.674858533
  0
LINE
  8
0
  6
CONTINUOUS
 62
     2
 10
852.986665723
 20
827.186668082
 11
852.986665723
 21
802.086668082
  0
TEXT
  8
0
  6
CONTINUOUS
 62
     2
 10
859.086665723
 20
812.086668082
 30
1.2
 40
12.0
  1
３５
 50
0.0
 41
0.9
 51
0.0
  7
KANJI48
  0
LINE
  8
0
  6
CONTINUOUS
 62
     2
 10
852.986665723
 20
814.086668082
 11
852.986665723
 21
814.086668082
  0
LINE
  8
0
  6
CONTINUOUS
 62
     2
 10
852.986665723
 20
808.086668082
 11
843.32740746
 21
810.674858533
  0
LINE
  8
0
  6
CONTINUOUS
 62
     2
 10
852.986665723
 20
808.086668082
 11
843.32740746
 21
805.498477631
  0
LINE
  8
0
  6
CONTINUOUS
 62
     2
 10
852.986665723
 20
808.086668082
 11
837.986665723
 21
808.086668082
  0
LINE
  8
0
  6
CONTINUOUS
 62
     2
 10
837.986665723
 20
808.086668082
 11
847.645923986
 21
805.498477631
  0
LINE
  8
0
  6
CONTINUOUS
 62
     2
 10
837.986665723
 20
808.086668082
 11
847.645923986
 21
810.674858533
  0
LINE
  8
0
  6
CONTINUOUS
 62
     2
 10
837.986665723
 20
827.186668082
 11
837.986665723
 21
802.086668082
  0
TEXT
  8
0
  6
CONTINUOUS
 62
     2
 10
816.086665723
 20
812.086668082
 30
1.2
 40
12.0
  1
１５
 50
0.0
 41
0.9
 51
0.0
  7
KANJI48
  0
LINE
  8
0
  6
CONTINUOUS
 62
     1
 10
787.986665723
 20
652.186668082
 11
837.986665723
 21
652.186668082
  0
LINE
  8
0
  6
CONTINUOUS
 62
     1
 10
279.986665723
 20
622.186668082
 11
279.986665723
 21
677.186668082
  0
LINE
  8
0
  6
CONTINUOUS
 62
     1
 10
291.986665723
 20
624.186668082
 11
291.986665723
 21
677.186668082
  0
LINE
  8
0
  6
CONTINUOUS
 62
     1
 10
291.986665723
 20
730.186668082
 11
291.986665723
 21
677.186668082
  0
LINE
  8
0
  6
CONTINUOUS
 62
     1
 10
279.986665723
 20
732.186668082
 11
279.986665723
 21
677.186668082
  0
LINE
  8
0
  6
CONTINUOUS
 62
     1
 10
331.544030431
 20
642.829303374
 11
331.544030431
 21
711.829303374
  0
LINE
  8
0
  6
CONTINUOUS
 62
     1
 10
340.644030431
 20
718.529303374
 11
340.644030431
 21
636.529303374
  0
LINE
  8
0
  6
CONTINUOUS
 62
     1
 10
380.986665723
 20
643.386668082
 11
383.986665723
 21
643.386668082
  0
LINE
  8
0
  6
CONTINUOUS
 62
     1
 10
380.986665723
 20
710.986668082
 11
383.986665723
 21
710.986668082
  0
LINE
  8
0
  6
CONTINUOUS
 62
     1
 10
368.986665723
 20
723.186668082
 11
368.986665723
 21
677.186668082
  0
LINE
  8
0
  6
CONTINUOUS
 62
     1
 10
368.986665723
 20
723.186668082
 11
380.986665723
 21
723.186668082
  0
LINE
  8
0
  6
CONTINUOUS
 62
     1
 10
380.986665723
 20
723.186668082
 11
380.986665723
 21
677.186668082
  0
LINE
  8
0
  6
CONTINUOUS
 62
     1
 10
368.986665723
 20
631.186668082
 11
368.986665723
 21
677.186668082
  0
LINE
  8
0
  6
CONTINUOUS
 62
     1
 10
368.986665723
 20
631.186668082
 11
380.986665723
 21
631.186668082
  0
LINE
  8
0
  6
CONTINUOUS
 62
     1
 10
380.986665723
 20
631.186668082
 11
380.986665723
 21
677.186668082
  0
LINE
  8
0
  6
CONTINUOUS
 62
     1
 10
380.986665723
 20
642.186668082
 11
787.986665723
 21
642.186668082
  0
LINE
  8
0
  6
CONTINUOUS
 62
     1
 10
368.986665723
 20
681.186668082
 11
380.986665723
 21
681.186668082
  0
LINE
  8
0
  6
CONTINUOUS
 62
     1
 10
368.986665723
 20
673.186668082
 11
380.986665723
 21
673.186668082
  0
LINE
  8
0
  6
CONTINUOUS
 62
     1
 10
217.986665723
 20
758.186668082
 11
242.986665723
 21
758.186668082
  0
LINE
  8
0
  6
CONTINUOUS
 62
     1
 10
217.986665723
 20
732.186668082
 11
279.986665723
 21
732.186668082
  0
LINE
  8
0
  6
CONTINUOUS
 62
     1
 10
217.986665723
 20
622.186668082
 11
279.986665723
 21
622.186668082
  0
LINE
  8
0
  6
CONTINUOUS
 62
     1
 10
217.986665723
 20
612.186668082
 11
265.486665723
 21
612.186668082
  0
LINE
  8
0
  6
CONTINUOUS
 62
     1
 10
217.986665723
 20
742.186668082
 11
265.486665723
 21
742.186668082
  0
LINE
  8
0
  6
CONTINUOUS
 62
     1
 10
217.986665723
 20
596.186668082
 11
242.986665723
 21
596.186668082
  0
LINE
  8
0
  6
CONTINUOUS
 62
     1
 10
192.986665723
 20
596.186668082
 11
217.986665723
 21
596.186668082
  0
LINE
  8
0
  6
CONTINUOUS
 62
     1
 10
217.986665723
 20
612.186668082
 11
170.486665723
 21
612.186668082
  0
LINE
  8
0
  6
CONTINUOUS
 62
     1
 10
181.786665723
 20
622.186668082
 11
217.986665723
 21
622.186668082
  0
LINE
  8
0
  6
CONTINUOUS
 62
     1
 10
181.786665723
 20
732.186668082
 11
217.986665723
 21
732.186668082
  0
LINE
  8
0
  6
CONTINUOUS
 62
     1
 10
217.986665723
 20
742.186668082
 11
170.486665723
 21
742.186668082
  0
LINE
  8
0
  6
CONTINUOUS
 62
     1
 10
192.986665723
 20
758.186668082
 11
217.986665723
 21
758.186668082
  0
LINE
  8
0
  6
CONTINUOUS
 62
     1
 10
209.486665723
 20
761.186668082
 11
209.486665723
 21
758.186668082
  0
LINE
  8
0
  6
CONTINUOUS
 62
     1
 10
226.486665723
 20
761.186668082
 11
226.486665723
 21
758.186668082
  0
LINE
  8
0
  6
CONTINUOUS
 62
     1
 10
226.486665723
 20
761.186668082
 11
226.486665723
 21
758.186668082
  0
CIRCLE
  8
0
  6
CONTINUOUS
 62
     1
 10
238.471384578
 20
697.795853006
 40
10.0
  0
CIRCLE
  8
0
  6
CONTINUOUS
 62
     1
 10
238.471384578
 20
697.795853006
 40
11.0
  0
LINE
  8
0
  6
CONTINUOUS
 62
     2
 10
918.986665723
 20
689.686668082
 11
950.986665723
 21
689.686668082
  0
LINE
  8
0
  6
CONTINUOUS
 62
     2
 10
944.986665723
 20
689.686668082
 11
942.398475272
 21
680.027409819
  0
LINE
  8
0
  6
CONTINUOUS
 62
     2
 10
944.986665723
 20
689.686668082
 11
947.574856174
 21
680.027409819
  0
LINE
  8
0
  6
CONTINUOUS
 62
     2
 10
944.986665723
 20
689.686668082
 11
944.986665723
 21
664.686668082
  0
LINE
  8
0
  6
CONTINUOUS
 62
     2
 10
944.986665723
 20
664.686668082
 11
947.574856174
 21
674.345926345
  0
LINE
  8
0
  6
CONTINUOUS
 62
     2
 10
944.986665723
 20
664.686668082
 11
942.398475272
 21
674.345926345
  0
LINE
  8
0
  6
CONTINUOUS
 62
     2
 10
918.986665723
 20
664.686668082
 11
950.986665723
 21
664.686668082
  0
TEXT
  8
0
  6
CONTINUOUS
 62
     2
 10
940.986665723
 20
665.786668082
 30
1.2
 40
12.0
  1
２５
 50
90.0
 41
0.9
 51
0.0
  7
KANJI48
  0
LINE
  8
0
  6
CONTINUOUS
 62
     2
 10
918.986665723
 20
704.686668082
 11
983.086665723
 21
704.686668082
  0
LINE
  8
0
  6
CONTINUOUS
 62
     2
 10
977.086665723
 20
704.686668082
 11
974.498475272
 21
695.027409819
  0
LINE
  8
0
  6
CONTINUOUS
 62
     2
 10
977.086665723
 20
704.686668082
 11
979.674856174
 21
695.027409819
  0
LINE
  8
0
  6
CONTINUOUS
 62
     2
 10
977.086665723
 20
704.686668082
 11
977.086665723
 21
649.686668082
  0
LINE
  8
0
  6
CONTINUOUS
 62
     2
 10
977.086665723
 20
649.686668082
 11
979.674856174
 21
659.345926345
  0
LINE
  8
0
  6
CONTINUOUS
 62
     2
 10
977.086665723
 20
649.686668082
 11
974.498475272
 21
659.345926345
  0
LINE
  8
0
  6
CONTINUOUS
 62
     2
 10
918.986665723
 20
649.686668082
 11
983.086665723
 21
649.686668082
  0
TEXT
  8
0
  6
CONTINUOUS
 62
     2
 10
973.086665723
 20
665.786668082
 30
1.2
 40
12.0
  1
５５
 50
90.0
 41
0.9
 51
0.0
  7
KANJI48
  0
LINE
  8
0
  6
CONTINUOUS
 62
     1
 10
869.486665723
 20
707.686668082
 11
906.486665723
 21
707.686668082
  0
LINE
  8
0
  6
CONTINUOUS
 62
     1
 10
869.486665723
 20
707.686668082
 11
869.486665723
 21
704.686668082
  0
LINE
  8
0
  6
CONTINUOUS
 62
     1
 10
906.486665723
 20
707.686668082
 11
906.486665723
 21
704.686668082
  0
CIRCLE
  8
0
  6
CONTINUOUS
 62
     1
 10
887.786665723
 20
709.986668082
 40
2.0
  0
LINE
  8
0
  6
LTYPE4
 62
     2
 10
884.186665723
 20
710.186668082
 11
892.186665723
 21
710.186668082
  0
LINE
  8
0
  6
CONTINUOUS
 62
     1
 10
869.486665723
 20
646.686668082
 11
906.486665723
 21
646.686668082
  0
LINE
  8
0
  6
CONTINUOUS
 62
     1
 10
869.486665723
 20
646.686668082
 11
869.486665723
 21
649.686668082
  0
LINE
  8
0
  6
CONTINUOUS
 62
     1
 10
906.486665723
 20
646.686668082
 11
906.486665723
 21
649.686668082
  0
CIRCLE
  8
0
  6
CONTINUOUS
 62
     1
 10
887.786665723
 20
644.386668082
 40
2.0
  0
LINE
  8
0
  6
LTYPE4
 62
     2
 10
884.186665723
 20
644.186668082
 11
892.186665723
 21
644.186668082
  0
LINE
  8
0
  6
CONTINUOUS
 62
     2
 10
460.086665723
 20
642.186668082
 11
462.674856174
 21
651.845926345
  0
LINE
  8
0
  6
CONTINUOUS
 62
     2
 10
460.086665723
 20
642.186668082
 11
457.498475272
 21
651.845926345
  0
LINE
  8
0
  6
CONTINUOUS
 62
     2
 10
460.086665723
 20
642.186668082
 11
460.086665723
 21
712.186668082
  0
LINE
  8
0
  6
CONTINUOUS
 62
     2
 10
460.086665723
 20
712.186668082
 11
457.498475272
 21
702.527409819
  0
LINE
  8
0
  6
CONTINUOUS
 62
     2
 10
460.086665723
 20
712.186668082
 11
462.674856174
 21
702.527409819
  0
TEXT
  8
0
  6
CONTINUOUS
 62
     2
 10
456.086665723
 20
659.786668082
 30
1.2
 40
12.0
  1
φ７０
 50
90.0
 41
0.9
 51
0.0
  7
KANJI48
  0
LINE
  8
0
  6
LTYPE2
 62
     2
 10
464.686665723
 20
677.186668082
 11
923.186665723
 21
677.186668082
  0
LINE
  8
0
  6
CONTINUOUS
 62
     1
 10
383.986665723
 20
642.186668082
 11
383.986665723
 21
712.186668082
  0
LINE
  8
0
  6
LTYPE4
 62
     2
 10
225.786665723
 20
697.736668082
 11
252.786665723
 21
697.736668082
  0
LINE
  8
0
  6
LTYPE4
 62
     2
 10
252.786665723
 20
697.736668082
 11
238.186665723
 21
697.736668082
  0
LINE
  8
0
  6
LTYPE4
 62
     2
 10
238.086665723
 20
710.986668082
 11
238.086665723
 21
682.386668082
  0
LINE
  8
0
  6
CONTINUOUS
 62
     2
 10
217.986665723
 20
549.686668082
 11
217.986665723
 21
532.486668082
  0
LINE
  8
0
  6
CONTINUOUS
 62
     2
 10
217.986665723
 20
538.486668082
 11
227.645923986
 21
535.898477631
  0
LINE
  8
0
  6
CONTINUOUS
 62
     2
 10
217.986665723
 20
538.486668082
 11
227.645923986
 21
541.074858533
  0
LINE
  8
0
  6
CONTINUOUS
 62
     2
 10
217.986665723
 20
538.486668082
 11
787.986665723
 21
538.486668082
  0
LINE
  8
0
  6
CONTINUOUS
 62
     2
 10
787.986665723
 20
538.486668082
 11
778.32740746
 21
541.074858533
  0
LINE
  8
0
  6
CONTINUOUS
 62
     2
 10
787.986665723
 20
538.486668082
 11
778.32740746
 21
535.898477631
  0
LINE
  8
0
  6
CONTINUOUS
 62
     2
 10
787.986665723
 20
636.186668082
 11
787.986665723
 21
532.486668082
  0
TEXT
  8
0
  6
CONTINUOUS
 62
     2
 10
497.586665723
 20
542.486668082
 30
1.2
 40
12.0
  1
Ｃ
 50
0.0
 41
0.9
 51
0.0
  7
KANJI48
  0
LINE
  8
0
  6
CONTINUOUS
 62
     2
 10
787.986665723
 20
538.486668082
 11
797.645923986
 21
535.898477631
  0
LINE
  8
0
  6
CONTINUOUS
 62
     2
 10
787.986665723
 20
538.486668082
 11
797.645923986
 21
541.074858533
  0
LINE
  8
0
  6
CONTINUOUS
 62
     2
 10
787.986665723
 20
538.486668082
 11
837.986665723
 21
538.486668082
  0
LINE
  8
0
  6
CONTINUOUS
 62
     2
 10
837.986665723
 20
538.486668082
 11
828.32740746
 21
541.074858533
  0
LINE
  8
0
  6
CONTINUOUS
 62
     2
 10
837.986665723
 20
538.486668082
 11
828.32740746
 21
535.898477631
  0
LINE
  8
0
  6
CONTINUOUS
 62
     2
 10
837.986665723
 20
638.186668082
 11
837.986665723
 21
532.486668082
  0
LINE
  8
0
  6
CONTINUOUS
 62
     2
 10
837.986665723
 20
538.486668082
 11
847.645923986
 21
535.898477631
  0
LINE
  8
0
  6
CONTINUOUS
 62
     2
 10
837.986665723
 20
538.486668082
 11
847.645923986
 21
541.074858533
  0
LINE
  8
0
  6
CONTINUOUS
 62
     2
 10
837.986665723
 20
538.486668082
 11
887.986665723
 21
538.486668082
  0
LINE
  8
0
  6
CONTINUOUS
 62
     2
 10
887.986665723
 20
538.486668082
 11
878.32740746
 21
541.074858533
  0
LINE
  8
0
  6
CONTINUOUS
 62
     2
 10
887.986665723
 20
538.486668082
 11
878.32740746
 21
535.898477631
  0
LINE
  8
0
  6
CONTINUOUS
 62
     2
 10
887.986665723
 20
611.186668082
 11
887.986665723
 21
532.486668082
  0
TEXT
  8
0
  6
CONTINUOUS
 62
     2
 10
851.586665723
 20
542.486668082
 30
1.2
 40
12.0
  1
５０
 50
0.0
 41
0.9
 51
0.0
  7
KANJI48
  0
TEXT
  8
0
  6
CONTINUOUS
 62
     2
 10
774.586665723
 20
543.486668082
 30
1.2
 40
12.0
  1
ｍｉｎ．Ｐ
 50
0.0
 41
0.9
 51
0.0
  7
KANJI48
  0
LINE
  8
0
  6
CONTINUOUS
 62
     2
 10
217.986665723
 20
532.486668082
 11
217.986665723
 21
493.886668082
  0
LINE
  8
0
  6
CONTINUOUS
 62
     2
 10
217.986665723
 20
499.886668082
 11
227.645923986
 21
497.298477631
  0
LINE
  8
0
  6
CONTINUOUS
 62
     2
 10
217.986665723
 20
499.886668082
 11
227.645923986
 21
502.474858533
  0
LINE
  8
0
  6
CONTINUOUS
 62
     2
 10
217.986665723
 20
499.886668082
 11
887.986665723
 21
499.886668082
  0
LINE
  8
0
  6
CONTINUOUS
 62
     2
 10
887.986665723
 20
499.886668082
 11
878.32740746
 21
502.474858533
  0
LINE
  8
0
  6
CONTINUOUS
 62
     2
 10
887.986665723
 20
499.886668082
 11
878.32740746
 21
497.298477631
  0
LINE
  8
0
  6
CONTINUOUS
 62
     2
 10
887.986665723
 20
532.486668082
 11
887.986665723
 21
493.886668082
  0
TEXT
  8
0
  6
CONTINUOUS
 62
     2
 10
523.586665723
 20
503.886668082
 30
1.2
 40
12.0
  1
ｍｉｎ．Ｌ
 50
0.0
 41
0.9
 51
0.0
  7
KANJI48
  0
LINE
  8
0
  6
CONTINUOUS
 62
     2
 10
887.986665723
 20
493.886668082
 11
887.986665723
 21
455.886668082
  0
LINE
  8
0
  6
CONTINUOUS
 62
     2
 10
887.986665723
 20
461.886668082
 11
878.32740746
 21
464.474858533
  0
LINE
  8
0
  6
CONTINUOUS
 62
     2
 10
887.986665723
 20
461.886668082
 11
878.32740746
 21
459.298477631
  0
LINE
  8
0
  6
CONTINUOUS
 62
     2
 10
887.986665723
 20
461.886668082
 11
162.986665723
 21
461.886668082
  0
LINE
  8
0
  6
CONTINUOUS
 62
     2
 10
162.986665723
 20
461.886668082
 11
172.645923986
 21
459.298477631
  0
LINE
  8
0
  6
CONTINUOUS
 62
     2
 10
162.986665723
 20
461.886668082
 11
172.645923986
 21
464.474858533
  0
LINE
  8
0
  6
CONTINUOUS
 62
     2
 10
162.986665723
 20
618.186668082
 11
162.986665723
 21
455.886668082
  0
TEXT
  8
0
  6
CONTINUOUS
 62
     2
 10
490.086665723
 20
465.886668082
 30
1.2
 40
12.0
  1
ｍｉｎ．ＡＬ
 50
0.0
 41
0.9
 51
0.0
  7
KANJI48
  0
LINE
  8
0
  6
CONTINUOUS
 62
     2
 10
217.986665723
 20
499.886668082
 11
208.32740746
 21
502.474858533
  0
LINE
  8
0
  6
CONTINUOUS
 62
     2
 10
217.986665723
 20
499.886668082
 11
208.32740746
 21
497.298477631
  0
LINE
  8
0
  6
CONTINUOUS
 62
     2
 10
217.986665723
 20
499.886668082
 11
162.986665723
 21
499.886668082
  0
LINE
  8
0
  6
CONTINUOUS
 62
     2
 10
162.986665723
 20
499.886668082
 11
172.645923986
 21
497.298477631
  0
LINE
  8
0
  6
CONTINUOUS
 62
     2
 10
162.986665723
 20
499.886668082
 11
172.645923986
 21
502.474858533
  0
LINE
  8
0
  6
CONTINUOUS
 62
     2
 10
162.986665723
 20
494.886668082
 11
162.986665723
 21
493.886668082
  0
TEXT
  8
0
  6
CONTINUOUS
 62
     2
 10
179.086665723
 20
503.886668082
 30
1.2
 40
12.0
  1
５５
 50
0.0
 41
0.9
 51
0.0
  7
KANJI48
  0
LINE
  8
0
  6
LTYPE2
 62
     2
 10
152.086665723
 20
677.186668082
 11
438.686665723
 21
677.186668082
  0
LINE
  8
0
  6
CONTINUOUS
 62
     2
 10
164.486665723
 20
742.186668082
 11
119.986665723
 21
742.186668082
  0
LINE
  8
0
  6
CONTINUOUS
 62
     2
 10
125.986665723
 20
742.186668082
 11
123.398475272
 21
732.527409819
  0
LINE
  8
0
  6
CONTINUOUS
 62
     2
 10
125.986665723
 20
742.186668082
 11
128.574856174
 21
732.527409819
  0
LINE
  8
0
  6
CONTINUOUS
 62
     2
 10
125.986665723
 20
742.186668082
 11
125.986665723
 21
612.186668082
  0
LINE
  8
0
  6
CONTINUOUS
 62
     2
 10
125.986665723
 20
612.186668082
 11
128.574856174
 21
621.845926345
  0
LINE
  8
0
  6
CONTINUOUS
 62
     2
 10
125.986665723
 20
612.186668082
 11
123.398475272
 21
621.845926345
  0
LINE
  8
0
  6
CONTINUOUS
 62
     2
 10
164.486665723
 20
612.186668082
 11
119.986665723
 21
612.186668082
  0
TEXT
  8
0
  6
CONTINUOUS
 62
     2
 10
121.986665723
 20
659.786668082
 30
1.2
 40
12.0
  1
１３０
 50
90.0
 41
0.9
 51
0.0
  7
KANJI48
  0
LINE
  8
0
  6
CONTINUOUS
 62
     2
 10
125.986665723
 20
612.186668082
 11
123.398475272
 21
602.527409819
  0
LINE
  8
0
  6
CONTINUOUS
 62
     2
 10
125.986665723
 20
612.186668082
 11
128.574856174
 21
602.527409819
  0
LINE
  8
0
  6
CONTINUOUS
 62
     2
 10
125.986665723
 20
612.186668082
 11
125.986665723
 21
596.186668082
  0
LINE
  8
0
  6
CONTINUOUS
 62
     2
 10
125.986665723
 20
596.186668082
 11
128.574856174
 21
605.845926345
  0
LINE
  8
0
  6
CONTINUOUS
 62
     2
 10
125.986665723
 20
596.186668082
 11
123.398475272
 21
605.845926345
  0
LINE
  8
0
  6
CONTINUOUS
 62
     2
 10
186.986665723
 20
596.186668082
 11
119.986665723
 21
596.186668082
  0
TEXT
  8
0
  6
CONTINUOUS
 62
     2
 10
121.986665723
 20
592.786668082
 30
1.2
 40
12.0
  1
１６
 50
90.0
 41
0.9
 51
0.0
  7
KANJI48
  0
LINE
  8
0
  6
CONTINUOUS
 62
     2
 10
125.986665723
 20
742.186668082
 11
128.574856174
 21
751.845926345
  0
LINE
  8
0
  6
CONTINUOUS
 62
     2
 10
125.986665723
 20
742.186668082
 11
123.398475272
 21
751.845926345
  0
LINE
  8
0
  6
CONTINUOUS
 62
     2
 10
125.986665723
 20
742.186668082
 11
125.986665723
 21
758.186668082
  0
LINE
  8
0
  6
CONTINUOUS
 62
     2
 10
125.986665723
 20
758.186668082
 11
123.398475272
 21
748.527409819
  0
LINE
  8
0
  6
CONTINUOUS
 62
     2
 10
125.986665723
 20
758.186668082
 11
128.574856174
 21
748.527409819
  0
LINE
  8
0
  6
CONTINUOUS
 62
     2
 10
186.986665723
 20
758.186668082
 11
119.986665723
 21
758.186668082
  0
TEXT
  8
0
  6
CONTINUOUS
 62
     2
 10
121.986665723
 20
738.786668082
 30
1.2
 40
12.0
  1
１６
 50
90.0
 41
0.9
 51
0.0
  7
KANJI48
  0
LINE
  8
0
  6
CONTINUOUS
 62
     2
 10
204.486665723
 20
568.186668082
 11
91.386665723
 21
568.186668082
  0
LINE
  8
0
  6
CONTINUOUS
 62
     2
 10
97.386665723
 20
568.186668082
 11
99.974856174
 21
577.845926345
  0
LINE
  8
0
  6
CONTINUOUS
 62
     2
 10
97.386665723
 20
568.186668082
 11
94.798475272
 21
577.845926345
  0
LINE
  8
0
  6
CONTINUOUS
 62
     2
 10
97.386665723
 20
568.186668082
 11
97.386665723
 21
786.186668082
  0
LINE
  8
0
  6
CONTINUOUS
 62
     2
 10
97.386665723
 20
786.186668082
 11
94.798475272
 21
776.527409819
  0
LINE
  8
0
  6
CONTINUOUS
 62
     2
 10
97.386665723
 20
786.186668082
 11
99.974856174
 21
776.527409819
  0
LINE
  8
0
  6
CONTINUOUS
 62
     2
 10
204.486665723
 20
786.186668082
 11
91.386665723
 21
786.186668082
  0
TEXT
  8
0
  6
CONTINUOUS
 62
     2
 10
93.386665723
 20
659.786668082
 30
1.2
 40
12.0
  1
２１８
 50
90.0
 41
0.9
 51
0.0
  7
KANJI48
  0
LINE
  8
0
  6
CONTINUOUS
 62
     2
 10
125.986665723
 20
758.186668082
 11
123.398475272
 21
748.527409819
  0
LINE
  8
0
  6
CONTINUOUS
 62
     2
 10
125.986665723
 20
758.186668082
 11
128.574856174
 21
748.527409819
  0
LINE
  8
0
  6
CONTINUOUS
 62
     2
 10
125.986665723
 20
743.186668082
 11
125.986665723
 21
786.986668082
  0
LINE
  8
0
  6
CONTINUOUS
 62
     2
 10
125.986665723
 20
761.186668082
 11
128.574856174
 21
770.845926345
  0
LINE
  8
0
  6
CONTINUOUS
 62
     2
 10
125.986665723
 20
761.186668082
 11
123.398475272
 21
770.845926345
  0
LINE
  8
0
  6
CONTINUOUS
 62
     2
 10
203.486665723
 20
761.186668082
 11
119.986665723
 21
761.186668082
  0
TEXT
  8
0
  6
CONTINUOUS
 62
     2
 10
140.886665723
 20
766.286668082
 30
1.2
 40
12.0
  1
３
 50
90.0
 41
0.9
 51
0.0
  7
KANJI48
  0
LINE
  8
0
  6
CONTINUOUS
 62
     2
 10
125.986665723
 20
596.186668082
 11
128.574856174
 21
605.845926345
  0
LINE
  8
0
  6
CONTINUOUS
 62
     2
 10
125.986665723
 20
596.186668082
 11
123.398475272
 21
605.845926345
  0
LINE
  8
0
  6
CONTINUOUS
 62
     2
 10
125.986665723
 20
611.186668082
 11
125.986665723
 21
567.386668082
  0
LINE
  8
0
  6
CONTINUOUS
 62
     2
 10
125.986665723
 20
593.186668082
 11
123.398475272
 21
583.527409819
  0
LINE
  8
0
  6
CONTINUOUS
 62
     2
 10
125.986665723
 20
593.186668082
 11
128.574856174
 21
583.527409819
  0
LINE
  8
0
  6
CONTINUOUS
 62
     2
 10
204.486665723
 20
593.186668082
 11
119.986665723
 21
593.186668082
  0
TEXT
  8
0
  6
CONTINUOUS
 62
     2
 10
140.986665723
 20
581.386668082
 30
1.2
 40
12.0
  1
３
 50
90.0
 41
0.9
 51
0.0
  7
KANJI48
  0
LINE
  8
0
  6
CONTINUOUS
 62
     1
 10
380.986665723
 20
922.386668082
 11
383.986665723
 21
922.386668082
  0
LINE
  8
0
  6
CONTINUOUS
 62
     1
 10
380.986665723
 20
989.986668082
 11
383.986665723
 21
989.986668082
  0
LINE
  8
0
  6
CONTINUOUS
 62
     1
 10
368.986665723
 20
1002.186668082
 11
368.986665723
 21
956.186668082
  0
LINE
  8
0
  6
CONTINUOUS
 62
     1
 10
368.986665723
 20
1002.186668082
 11
380.986665723
 21
1002.186668082
  0
LINE
  8
0
  6
CONTINUOUS
 62
     1
 10
380.986665723
 20
1002.186668082
 11
380.986665723
 21
956.186668082
  0
LINE
  8
0
  6
CONTINUOUS
 62
     1
 10
368.986665723
 20
910.186668082
 11
368.986665723
 21
956.186668082
  0
LINE
  8
0
  6
CONTINUOUS
 62
     1
 10
368.986665723
 20
910.186668082
 11
380.986665723
 21
910.186668082
  0
LINE
  8
0
  6
CONTINUOUS
 62
     1
 10
380.986665723
 20
910.186668082
 11
380.986665723
 21
956.186668082
  0
LINE
  8
0
  6
CONTINUOUS
 62
     1
 10
368.986665723
 20
960.186668082
 11
380.986665723
 21
960.186668082
  0
LINE
  8
0
  6
CONTINUOUS
 62
     1
 10
368.986665723
 20
952.186668082
 11
380.986665723
 21
952.186668082
  0
LINE
  8
0
  6
CONTINUOUS
 62
     1
 10
383.986665723
 20
921.186668082
 11
383.986665723
 21
991.186668082
  0
LINE
  8
0
  6
CONTINUOUS
 62
     1
 10
380.986665723
 20
991.186668082
 11
454.986665723
 21
991.186668082
  0
LINE
  8
0
  6
CONTINUOUS
 62
     1
 10
380.986665723
 20
921.186668082
 11
454.986665723
 21
921.186668082
  0
LINE
  8
0
  6
CONTINUOUS
 62
     1
 10
220.486665723
 20
765.686668082
 11
220.486665723
 21
786.186668082
  0
ARC
  8
0
  6
CONTINUOUS
 62
     1
 10
217.986665723
 20
765.686668082
 40
2.5
 50
270.0
 51
0.0
  0
LINE
  8
0
  6
CONTINUOUS
 62
     1
 10
215.486665723
 20
765.686668082
 11
215.486665723
 21
786.186668082
  0
ARC
  8
0
  6
CONTINUOUS
 62
     1
 10
217.986665723
 20
765.686668082
 40
2.5
 50
180.0
 51
270.0
  0
LINE
  8
0
  6
CONTINUOUS
 62
     1
 10
220.486665723
 20
588.686668082
 11
220.486665723
 21
568.186668082
  0
ARC
  8
0
  6
CONTINUOUS
 62
     1
 10
217.986665723
 20
588.686668082
 40
2.5
 50
0.0
 51
90.0
  0
LINE
  8
0
  6
CONTINUOUS
 62
     1
 10
215.486665723
 20
588.686668082
 11
215.486665723
 21
568.186668082
  0
ARC
  8
0
  6
CONTINUOUS
 62
     1
 10
217.986665723
 20
588.686668082
 40
2.5
 50
90.0
 51
180.0
  0
LINE
  8
0
  6
CONTINUOUS
 62
     2
 10
239.886665723
 20
703.686668082
 11
247.063896182
 21
710.649954873
  0
LINE
  8
0
  6
CONTINUOUS
 62
     2
 10
239.886665723
 20
703.686668082
 11
242.620686234
 21
713.305666567
  0
LINE
  8
0
  6
CONTINUOUS
 62
     2
 10
239.886665723
 20
703.686668082
 11
291.886665723
 21
790.686668082
  0
LINE
  8
0
  6
CONTINUOUS
 62
     2
 10
291.886665723
 20
790.686668082
 11
326.686665723
 21
790.686668082
  0
TEXT
  8
0
  6
CONTINUOUS
 62
     2
 10
291.886665723
 20
794.686668082
 30
1.2
 40
12.0
  1
給脂口
 50
0.0
 41
0.9
 51
0.0
  7
KANJI0
  0
TEXT
  8
0
  6
CONTINUOUS
 62
     2
 10
292.986665723
 20
773.886668082
 30
1.2
 40
12.0
  1
点検口
 50
0.0
 41
0.9
 51
0.0
  7
KANJI0
  0
LINE
  8
0
  6
CONTINUOUS
 62
     2
 10
539.486665723
 20
687.786668082
 11
545.477098688
 21
695.793834428
  0
LINE
  8
0
  6
CONTINUOUS
 62
     2
 10
539.486665723
 20
687.786668082
 11
540.670949677
 21
697.716294033
  0
LINE
  8
0
  6
CONTINUOUS
 62
     2
 10
539.486665723
 20
687.786668082
 11
579.486665723
 21
787.786668082
  0
LINE
  8
0
  6
CONTINUOUS
 62
     2
 10
579.486665723
 20
787.786668082
 11
611.886665723
 21
787.786668082
  0
TEXT
  8
0
  6
CONTINUOUS
 62
     2
 10
579.486665723
 20
791.786668082
 30
0.0
 40
12.0
  1
給脂口
 50
0.0
 41
0.9
 51
0.0
  7
KANJI1
  0
TEXT
  8
0
  6
CONTINUOUS
 62
     2
 10
950.686665723
 20
729.586668082
 30
1.2
 40
12.0
  1
ｄ９
 50
0.0
 41
0.9
 51
0.0
  7
KANJI0
  0
TEXT
  8
0
  6
CONTINUOUS
 62
     2
 10
717.886665723
 20
886.686668082
 30
1.2
 40
12.0
  1
５Ｘ５Ｘ２０キー付
 50
0.0
 41
0.9
 51
0.0
  7
KANJI0
  0
LINE
  8
0
  6
CONTINUOUS
 62
     1
 10
162.986665723
 20
643.186668082
 11
162.986665723
 21
637.422014082
  0
LINE
  8
0
  6
CONTINUOUS
 62
     1
 10
162.986665723
 20
643.186668082
 11
162.986665723
 21
648.951322082
  0
LINE
  8
0
  6
CONTINUOUS
 62
     1
 10
158.987055723
 20
638.833766082
 11
159.80213112
 21
637.422014082
  0
LINE
  8
0
  6
CONTINUOUS
 62
     1
 10
158.987055723
 20
643.186668082
 11
158.987055723
 21
638.833766082
  0
LINE
  8
0
  6
CONTINUOUS
 62
     1
 10
158.987055723
 20
647.539570082
 11
159.80213112
 21
648.951322082
  0
LINE
  8
0
  6
CONTINUOUS
 62
     1
 10
158.987055723
 20
643.186668082
 11
158.987055723
 21
647.539570082
  0
ARC
  8
0
  6
CONTINUOUS
 62
     1
 10
164.490937247
 20
643.186668082
 40
5.503881523
 50
148.419912243
 51
211.580087757
  0
ARC
  8
0
  6
CONTINUOUS
 62
     1
 10
160.66814873
 20
638.863177582
 40
1.681350271
 50
121.002313915
 51
182.989498403
  0
LINE
  8
0
  6
CONTINUOUS
 62
     1
 10
158.987055723
 20
647.539570082
 11
159.80213112
 21
648.951322082
  0
ARC
  8
0
  6
CONTINUOUS
 62
     1
 10
160.66814873
 20
647.510158582
 40
1.681350271
 50
177.010501597
 51
238.997686085
  0
LINE
  8
0
  6
CONTINUOUS
 62
     1
 10
162.986665723
 20
640.304341082
 11
159.80213112
 21
640.304341082
  0
LINE
  8
0
  6
CONTINUOUS
 62
     1
 10
162.986665723
 20
637.422014082
 11
159.80213112
 21
637.422014082
  0
LINE
  8
0
  6
CONTINUOUS
 62
     1
 10
162.986665723
 20
646.068995082
 11
159.80213112
 21
646.068995082
  0
LINE
  8
0
  6
CONTINUOUS
 62
     1
 10
162.986665723
 20
648.951322082
 11
159.80213112
 21
648.951322082
  0
LINE
  8
0
  6
LTYPE4
 62
     2
 10
156.886665723
 20
643.186668082
 11
184.244030431
 21
643.186668082
  0
LINE
  8
0
  6
CONTINUOUS
 62
     1
 10
162.986665723
 20
711.186668082
 11
162.986665723
 21
716.951322082
  0
LINE
  8
0
  6
CONTINUOUS
 62
     1
 10
162.986665723
 20
711.186668082
 11
162.986665723
 21
705.422014082
  0
LINE
  8
0
  6
CONTINUOUS
 62
     1
 10
158.987055723
 20
715.539570082
 11
159.80213112
 21
716.951322082
  0
LINE
  8
0
  6
CONTINUOUS
 62
     1
 10
158.987055723
 20
711.186668082
 11
158.987055723
 21
715.539570082
  0
LINE
  8
0
  6
CONTINUOUS
 62
     1
 10
158.987055723
 20
706.833766082
 11
159.80213112
 21
705.422014082
  0
LINE
  8
0
  6
CONTINUOUS
 62
     1
 10
158.987055723
 20
711.186668082
 11
158.987055723
 21
706.833766082
  0
ARC
  8
0
  6
CONTINUOUS
 62
     1
 10
164.490937247
 20
711.186668082
 40
5.503881523
 50
148.419912243
 51
211.580087757
  0
ARC
  8
0
  6
CONTINUOUS
 62
     1
 10
160.66814873
 20
715.510158582
 40
1.681350271
 50
177.010501597
 51
238.997686085
  0
LINE
  8
0
  6
CONTINUOUS
 62
     1
 10
158.987055723
 20
706.833766082
 11
159.80213112
 21
705.422014082
  0
ARC
  8
0
  6
CONTINUOUS
 62
     1
 10
160.66814873
 20
706.863177582
 40
1.681350271
 50
121.002313915
 51
182.989498403
  0
LINE
  8
0
  6
CONTINUOUS
 62
     1
 10
162.986665723
 20
714.068995082
 11
159.80213112
 21
714.068995082
  0
LINE
  8
0
  6
CONTINUOUS
 62
     1
 10
162.986665723
 20
716.951322082
 11
159.80213112
 21
716.951322082
  0
LINE
  8
0
  6
CONTINUOUS
 62
     1
 10
162.986665723
 20
708.304341082
 11
159.80213112
 21
708.304341082
  0
LINE
  8
0
  6
CONTINUOUS
 62
     1
 10
162.986665723
 20
705.422014082
 11
159.80213112
 21
705.422014082
  0
LINE
  8
0
  6
LTYPE4
 62
     2
 10
156.886665723
 20
711.186668082
 11
184.244030431
 21
711.186668082
  0
LINE
  8
0
  6
CONTINUOUS
 62
     1
 10
162.986665723
 20
922.186668082
 11
162.986665723
 21
916.422014082
  0
LINE
  8
0
  6
CONTINUOUS
 62
     1
 10
162.986665723
 20
922.186668082
 11
162.986665723
 21
927.951322082
  0
LINE
  8
0
  6
CONTINUOUS
 62
     1
 10
158.987055723
 20
917.833766082
 11
159.80213112
 21
916.422014082
  0
LINE
  8
0
  6
CONTINUOUS
 62
     1
 10
158.987055723
 20
922.186668082
 11
158.987055723
 21
917.833766082
  0
LINE
  8
0
  6
CONTINUOUS
 62
     1
 10
158.987055723
 20
926.539570082
 11
159.80213112
 21
927.951322082
  0
LINE
  8
0
  6
CONTINUOUS
 62
     1
 10
158.987055723
 20
922.186668082
 11
158.987055723
 21
926.539570082
  0
ARC
  8
0
  6
CONTINUOUS
 62
     1
 10
164.490937247
 20
922.186668082
 40
5.503881523
 50
148.419912243
 51
211.580087757
  0
ARC
  8
0
  6
CONTINUOUS
 62
     1
 10
160.66814873
 20
917.863177582
 40
1.681350271
 50
121.002313915
 51
182.989498403
  0
LINE
  8
0
  6
CONTINUOUS
 62
     1
 10
158.987055723
 20
926.539570082
 11
159.80213112
 21
927.951322082
  0
ARC
  8
0
  6
CONTINUOUS
 62
     1
 10
160.66814873
 20
926.510158582
 40
1.681350271
 50
177.010501597
 51
238.997686085
  0
LINE
  8
0
  6
CONTINUOUS
 62
     1
 10
162.986665723
 20
919.304341082
 11
159.80213112
 21
919.304341082
  0
LINE
  8
0
  6
CONTINUOUS
 62
     1
 10
162.986665723
 20
916.422014082
 11
159.80213112
 21
916.422014082
  0
LINE
  8
0
  6
CONTINUOUS
 62
     1
 10
162.986665723
 20
925.068995082
 11
159.80213112
 21
925.068995082
  0
LINE
  8
0
  6
CONTINUOUS
 62
     1
 10
162.986665723
 20
927.951322082
 11
159.80213112
 21
927.951322082
  0
LINE
  8
0
  6
LTYPE4
 62
     2
 10
156.886665723
 20
922.186668082
 11
184.244030431
 21
922.186668082
  0
LINE
  8
0
  6
CONTINUOUS
 62
     1
 10
162.986665723
 20
990.186668082
 11
162.986665723
 21
995.951322082
  0
LINE
  8
0
  6
CONTINUOUS
 62
     1
 10
162.986665723
 20
990.186668082
 11
162.986665723
 21
984.422014082
  0
LINE
  8
0
  6
CONTINUOUS
 62
     1
 10
158.987055723
 20
994.539570082
 11
159.80213112
 21
995.951322082
  0
LINE
  8
0
  6
CONTINUOUS
 62
     1
 10
158.987055723
 20
990.186668082
 11
158.987055723
 21
994.539570082
  0
LINE
  8
0
  6
CONTINUOUS
 62
     1
 10
158.987055723
 20
985.833766082
 11
159.80213112
 21
984.422014082
  0
LINE
  8
0
  6
CONTINUOUS
 62
     1
 10
158.987055723
 20
990.186668082
 11
158.987055723
 21
985.833766082
  0
ARC
  8
0
  6
CONTINUOUS
 62
     1
 10
164.490937247
 20
990.186668082
 40
5.503881523
 50
148.419912243
 51
211.580087757
  0
ARC
  8
0
  6
CONTINUOUS
 62
     1
 10
160.66814873
 20
994.510158582
 40
1.681350271
 50
177.010501597
 51
238.997686085
  0
LINE
  8
0
  6
CONTINUOUS
 62
     1
 10
158.987055723
 20
985.833766082
 11
159.80213112
 21
984.422014082
  0
ARC
  8
0
  6
CONTINUOUS
 62
     1
 10
160.66814873
 20
985.863177582
 40
1.681350271
 50
121.002313915
 51
182.989498403
  0
LINE
  8
0
  6
CONTINUOUS
 62
     1
 10
162.986665723
 20
993.068995082
 11
159.80213112
 21
993.068995082
  0
LINE
  8
0
  6
CONTINUOUS
 62
     1
 10
162.986665723
 20
995.951322082
 11
159.80213112
 21
995.951322082
  0
LINE
  8
0
  6
CONTINUOUS
 62
     1
 10
162.986665723
 20
987.304341082
 11
159.80213112
 21
987.304341082
  0
LINE
  8
0
  6
CONTINUOUS
 62
     1
 10
162.986665723
 20
984.422014082
 11
159.80213112
 21
984.422014082
  0
LINE
  8
0
  6
LTYPE4
 62
     2
 10
156.886665723
 20
990.186668082
 11
184.244030431
 21
990.186668082
  0
TEXT
  8
0
  6
CONTINUOUS
 62
     2
 10
912.986665723
 20
745.386668082
 30
1.2
 40
12.0
  1
φ２５Ｈ１０
 50
0.0
 41
0.9
 51
0.0
  7
KANJI48
  0
LINE
  8
0
  6
CONTINUOUS
 62
     2
 10
210.486665723
 20
792.186668082
 11
210.486665723
 21
832.686668082
  0
LINE
  8
0
  6
CONTINUOUS
 62
     2
 10
210.486665723
 20
826.686668082
 11
200.82740746
 21
829.274858533
  0
LINE
  8
0
  6
CONTINUOUS
 62
     2
 10
210.486665723
 20
826.686668082
 11
200.82740746
 21
824.098477631
  0
LINE
  8
0
  6
CONTINUOUS
 62
     2
 10
195.486665723
 20
826.686668082
 11
297.686665723
 21
826.686668082
  0
LINE
  8
0
  6
CONTINUOUS
 62
     2
 10
225.486665723
 20
826.686668082
 11
235.145923986
 21
824.098477631
  0
LINE
  8
0
  6
CONTINUOUS
 62
     2
 10
225.486665723
 20
826.686668082
 11
235.145923986
 21
829.274858533
  0
LINE
  8
0
  6
CONTINUOUS
 62
     2
 10
225.486665723
 20
792.186668082
 11
225.486665723
 21
832.686668082
  0
TEXT
  8
0
  6
CONTINUOUS
 62
     2
 10
240.486665723
 20
830.686668082
 30
0.8
 40
12.0
  1
φ１５ｈ７
 50
0.0
 41
0.9
 51
0.0
  7
KANJI49
  0
LINE
  8
0
  6
CONTINUOUS
 62
     1
 10
837.986665723
 20
649.686668082
 11
837.986665723
 21
704.686668082
  0
LINE
  8
0
  6
CONTINUOUS
 62
     1
 10
737.986665723
 20
642.186668082
 11
737.986665723
 21
712.186668082
  0
LINE
  8
0
  6
CONTINUOUS
 62
     1
 10
380.986665723
 20
712.186668082
 11
787.986665723
 21
712.186668082
  0
LINE
  8
0
  6
CONTINUOUS
 62
     1
 10
787.986665723
 20
642.186668082
 11
787.986665723
 21
712.186668082
  0
LINE
  8
0
  6
CONTINUOUS
 62
     1
 10
787.986665723
 20
702.186668082
 11
837.986665723
 21
702.186668082
  0
LINE
  8
7
  6
CONTINUOUS
 62
     2
 10
818.986665723
 20
652.186668082
 11
816.398475272
 21
642.527409819
  0
LINE
  8
7
  6
CONTINUOUS
 62
     2
 10
818.986665723
 20
652.186668082
 11
821.574856174
 21
642.527409819
  0
LINE
  8
7
  6
CONTINUOUS
 62
     2
 10
818.986665723
 20
637.186668082
 11
818.986665723
 21
751.186668082
  0
LINE
  8
7
  6
CONTINUOUS
 62
     2
 10
818.986665723
 20
702.186668082
 11
821.574856174
 21
711.845926345
  0
LINE
  8
7
  6
CONTINUOUS
 62
     2
 10
818.986665723
 20
702.186668082
 11
816.398475272
 21
711.845926345
  0
TEXT
  8
7
  6
CONTINUOUS
 62
     2
 10
814.986665723
 20
717.186668082
 30
0.8
 40
12.0
  1
φ５０
 50
90.0
 41
0.9
 51
0.0
  7
KANJI49
  0
LINE
  8
0
  6
CONTINUOUS
 62
     2
 10
993.186665723
 20
975.136668082
 11
1002.845923986
 21
972.548477631
  0
LINE
  8
0
  6
CONTINUOUS
 62
     2
 10
993.186665723
 20
975.136668082
 11
1002.845923986
 21
977.724858533
  0
LINE
  8
0
  6
CONTINUOUS
 62
     2
 10
993.186665723
 20
975.136668082
 11
983.52740746
 21
977.724858533
  0
LINE
  8
0
  6
CONTINUOUS
 62
     2
 10
993.186665723
 20
975.136668082
 11
983.52740746
 21
972.548477631
  0
LINE
  8
0
  6
CONTINUOUS
 62
     2
 10
978.586665723
 20
972.936668082
 11
985.626015032
 21
965.834023412
  0
LINE
  8
0
  6
CONTINUOUS
 62
     2
 10
978.586665723
 20
972.936668082
 11
988.234243386
 21
970.305272018
  0
LINE
  8
0
  6
CONTINUOUS
 62
     2
 10
978.586665723
 20
972.936668082
 11
1050.586665723
 21
930.936668082
  0
LINE
  8
0
  6
CONTINUOUS
 62
     2
 10
959.786665723
 20
1006.536668082
 11
959.786665723
 21
963.536668082
  0
LINE
  8
0
  6
CONTINUOUS
 62
     2
 10
959.786665723
 20
994.536668082
 11
969.445923986
 21
991.948477631
  0
LINE
  8
0
  6
CONTINUOUS
 62
     2
 10
959.786665723
 20
994.536668082
 11
969.445923986
 21
997.124858533
  0
LINE
  8
0
  6
CONTINUOUS
 62
     2
 10
959.786665723
 20
975.136668082
 11
969.445923986
 21
972.548477631
  0
LINE
  8
0
  6
CONTINUOUS
 62
     2
 10
959.786665723
 20
975.136668082
 11
969.445923986
 21
977.724858533
  0
LINE
  8
0
  6
CONTINUOUS
 62
     2
 10
959.786665723
 20
994.536668082
 11
1183.586665723
 21
994.536668082
  0
LINE
  8
0
  6
CONTINUOUS
 62
     2
 10
959.786665723
 20
975.136668082
 11
950.12740746
 21
972.548477631
  0
LINE
  8
0
  6
CONTINUOUS
 62
     2
 10
959.786665723
 20
975.136668082
 11
950.12740746
 21
977.724858533
  0
LINE
  8
0
  6
CONTINUOUS
 62
     2
 10
993.186665723
 20
985.736668082
 11
993.186665723
 21
941.686668082
  0
LINE
  8
0
  6
CONTINUOUS
 62
     2
 10
993.186665723
 20
946.086668082
 11
865.386665723
 21
946.086668082
  0
LINE
  8
0
  6
CONTINUOUS
 62
     2
 10
993.186665723
 20
946.086668082
 11
983.52740746
 21
943.498477631
  0
LINE
  8
0
  6
CONTINUOUS
 62
     2
 10
993.186665723
 20
946.086668082
 11
983.52740746
 21
948.674858533
  0
TEXT
  8
0
  6
CONTINUOUS
 62
     2
 10
893.586665723
 20
950.486668082
 30
1.2
 40
12.0
  1
取付ｍｉｎ．寸法
 50
0.0
 41
0.9
 51
0.0
  7
KANJI50
  0
LINE
  8
0
  6
CONTINUOUS
 62
     2
 10
829.986665723
 20
975.136668082
 11
1183.786665723
 21
975.136668082
  0
LINE
  8
0
  6
CONTINUOUS
 62
     2
 10
1183.586665723
 20
1015.286668082
 11
956.186665723
 21
1015.286668082
  0
TEXT
  8
0
  6
CONTINUOUS
 62
     2
 10
894.986665723
 20
926.686668082
 30
1.2
 40
12.0
  1
（　　　　　）
 50
0.0
 41
0.9
 51
0.0
  7
KANJI50
  0
TEXT
  8
0
  6
CONTINUOUS
 62
     2
 10
833.786665723
 20
980.286668082
 30
1.2
 40
12.0
  1
ｍｉｎ．Ｌ（　　　　）
 50
0.0
 41
0.9
 51
0.0
  7
KANJI50
  0
TEXT
  8
0
  6
CONTINUOUS
 62
     2
 10
998.986665723
 20
1019.486668082
 30
1.2
 40
12.0
  1
ｍａｘ．Ｌ（　　　　）
 50
0.0
 41
0.9
 51
0.0
  7
KANJI50
  0
TEXT
  8
0
  6
CONTINUOUS
 62
     2
 10
1000.186665723
 20
1000.536668082
 30
1.2
 40
12.0
  1
機械的ストローク（　　　　）
 50
0.0
 41
0.9
 51
0.0
  7
KANJI50
  0
LINE
  8
0
  6
CONTINUOUS
 62
     1
 10
1118.986665723
 20
704.686668082
 11
1118.986665723
 21
689.686668082
  0
LINE
  8
0
  6
CONTINUOUS
 62
     1
 10
1165.986665723
 20
709.186668082
 11
1121.986665723
 21
709.186668082
  0
LINE
  8
0
  6
CONTINUOUS
 62
     1
 10
1156.486665723
 20
715.186668082
 11
1131.486665723
 21
715.186668082
  0
LINE
  8
0
  6
CONTINUOUS
 62
     1
 10
1131.486665723
 20
715.186668082
 11
1131.486665723
 21
709.186668082
  0
LINE
  8
0
  6
CONTINUOUS
 62
     1
 10
1156.486665723
 20
715.186668082
 11
1156.486665723
 21
709.186668082
  0
LINE
  8
0
  6
CONTINUOUS
 62
     1
 10
1121.986665723
 20
709.186668082
 11
1121.986665723
 21
704.686668082
  0
LINE
  8
0
  6
CONTINUOUS
 62
     1
 10
1165.986665723
 20
709.186668082
 11
1165.986665723
 21
704.686668082
  0
CIRCLE
  8
0
  6
CONTINUOUS
 62
     1
 10
1143.986665723
 20
711.186668082
 40
2.0
  0
LINE
  8
0
  6
CONTINUOUS
 62
     1
 10
1165.986665723
 20
645.186668082
 11
1121.986665723
 21
645.186668082
  0
LINE
  8
0
  6
CONTINUOUS
 62
     1
 10
1156.486665723
 20
639.186668082
 11
1131.486665723
 21
639.186668082
  0
LINE
  8
0
  6
CONTINUOUS
 62
     1
 10
1131.486665723
 20
639.186668082
 11
1131.486665723
 21
645.186668082
  0
LINE
  8
0
  6
CONTINUOUS
 62
     1
 10
1156.486665723
 20
639.186668082
 11
1156.486665723
 21
645.186668082
  0
LINE
  8
0
  6
CONTINUOUS
 62
     1
 10
1121.986665723
 20
645.186668082
 11
1121.986665723
 21
649.686668082
  0
LINE
  8
0
  6
CONTINUOUS
 62
     1
 10
1165.986665723
 20
645.186668082
 11
1165.986665723
 21
649.686668082
  0
CIRCLE
  8
0
  6
CONTINUOUS
 62
     1
 10
1143.986665723
 20
643.186668082
 40
2.0
  0
LINE
  8
0
  6
CONTINUOUS
 62
     1
 10
1156.486665723
 20
689.686668082
 11
1156.486665723
 21
664.686668082
  0
LINE
  8
0
  6
CONTINUOUS
 62
     1
 10
1131.486665723
 20
689.686668082
 11
1131.486665723
 21
664.686668082
  0
LINE
  8
0
  6
CONTINUOUS
 62
     1
 10
1156.486665723
 20
664.686668082
 11
1156.486665723
 21
689.686668082
  0
LINE
  8
0
  6
CONTINUOUS
 62
     1
 10
1131.486665723
 20
664.686668082
 11
1131.486665723
 21
689.686668082
  0
LINE
  8
0
  6
CONTINUOUS
 62
     1
 10
1118.986665723
 20
649.686668082
 11
1118.986665723
 21
689.686668082
  0
LINE
  8
0
  6
CONTINUOUS
 62
     1
 10
1168.986665723
 20
704.686668082
 11
1118.986665723
 21
704.686668082
  0
LINE
  8
0
  6
CONTINUOUS
 62
     1
 10
1168.986665723
 20
649.686668082
 11
1168.986665723
 21
704.686668082
  0
LINE
  8
0
  6
CONTINUOUS
 62
     1
 10
1168.986665723
 20
689.686668082
 11
1118.986665723
 21
689.686668082
  0
LINE
  8
0
  6
CONTINUOUS
 62
     1
 10
1168.986665723
 20
664.686668082
 11
1118.986665723
 21
664.686668082
  0
LINE
  8
0
  6
CONTINUOUS
 62
     1
 10
1168.986665723
 20
649.686668082
 11
1118.986665723
 21
649.686668082
  0
LINE
  8
0
  6
CONTINUOUS
 62
     1
 10
1136.486665723
 20
786.186668082
 11
1151.486665723
 21
786.186668082
  0
LINE
  8
0
  6
CONTINUOUS
 62
     1
 10
1135.486665723
 20
761.186668082
 11
1152.486665723
 21
761.186668082
  0
LINE
  8
0
  6
CONTINUOUS
 62
     1
 10
1151.486665723
 20
761.186668082
 11
1151.486665723
 21
786.186668082
  0
LINE
  8
0
  6
CONTINUOUS
 62
     1
 10
1136.486665723
 20
761.186668082
 11
1136.486665723
 21
786.186668082
  0
LINE
  8
0
  6
CONTINUOUS
 62
     1
 10
1135.486665723
 20
758.186668082
 11
1135.486665723
 21
761.186668082
  0
LINE
  8
0
  6
CONTINUOUS
 62
     1
 10
1152.486665723
 20
758.186668082
 11
1152.486665723
 21
761.186668082
  0
LINE
  8
0
  6
CONTINUOUS
 62
     1
 10
1118.986665723
 20
758.186668082
 11
1168.986665723
 21
758.186668082
  0
LINE
  8
0
  6
CONTINUOUS
 62
     1
 10
1168.986665723
 20
742.186668082
 11
1168.986665723
 21
758.186668082
  0
LINE
  8
0
  6
CONTINUOUS
 62
     1
 10
1118.986665723
 20
742.186668082
 11
1118.986665723
 21
758.186668082
  0
CIRCLE
  8
0
  6
CONTINUOUS
 62
     1
 10
1143.986665723
 20
677.186668082
 40
55.0
  0
LINE
  8
0
  6
CONTINUOUS
 62
     1
 10
1096.486665723
 20
742.186668082
 11
1191.486665723
 21
742.186668082
  0
LINE
  8
0
  6
CONTINUOUS
 62
     1
 10
1094.986665723
 20
732.186668082
 11
1192.986665723
 21
732.186668082
  0
LINE
  8
0
  6
CONTINUOUS
 62
     1
 10
1096.486665723
 20
732.186668082
 11
1096.486665723
 21
742.186668082
  0
LINE
  8
0
  6
CONTINUOUS
 62
     1
 10
1191.486665723
 20
732.186668082
 11
1191.486665723
 21
742.186668082
  0
LINE
  8
0
  6
CONTINUOUS
 62
     1
 10
1192.986665723
 20
702.686668082
 11
1192.986665723
 21
732.186668082
  0
LINE
  8
0
  6
CONTINUOUS
 62
     1
 10
1094.986665723
 20
701.686668082
 11
1094.986665723
 21
732.186668082
  0
LINE
  8
0
  6
CONTINUOUS
 62
     1
 10
1094.986665723
 20
622.186668082
 11
1192.986665723
 21
622.186668082
  0
LINE
  8
0
  6
CONTINUOUS
 62
     1
 10
1096.486665723
 20
612.186668082
 11
1191.486665723
 21
612.186668082
  0
LINE
  8
0
  6
CONTINUOUS
 62
     1
 10
1096.486665723
 20
612.186668082
 11
1096.486665723
 21
622.186668082
  0
LINE
  8
0
  6
CONTINUOUS
 62
     1
 10
1191.486665723
 20
612.186668082
 11
1191.486665723
 21
622.186668082
  0
LINE
  8
0
  6
CONTINUOUS
 62
     1
 10
1094.986665723
 20
622.186668082
 11
1094.986665723
 21
652.706676088
  0
LINE
  8
0
  6
CONTINUOUS
 62
     1
 10
1192.986665723
 20
622.186668082
 11
1192.986665723
 21
651.206676088
  0
LINE
  8
0
  6
CONTINUOUS
 62
     1
 10
1136.486665723
 20
568.186668082
 11
1151.486665723
 21
568.186668082
  0
LINE
  8
0
  6
CONTINUOUS
 62
     1
 10
1135.486665723
 20
593.186668082
 11
1152.486665723
 21
593.186668082
  0
LINE
  8
0
  6
CONTINUOUS
 62
     1
 10
1151.486665723
 20
593.186668082
 11
1151.486665723
 21
568.186668082
  0
LINE
  8
0
  6
CONTINUOUS
 62
     1
 10
1136.486665723
 20
593.186668082
 11
1136.486665723
 21
568.186668082
  0
LINE
  8
0
  6
CONTINUOUS
 62
     1
 10
1135.486665723
 20
596.186668082
 11
1135.486665723
 21
593.186668082
  0
LINE
  8
0
  6
CONTINUOUS
 62
     1
 10
1152.486665723
 20
596.186668082
 11
1152.486665723
 21
593.186668082
  0
LINE
  8
0
  6
CONTINUOUS
 62
     1
 10
1118.986665723
 20
596.186668082
 11
1168.986665723
 21
596.186668082
  0
LINE
  8
0
  6
CONTINUOUS
 62
     1
 10
1168.986665723
 20
612.186668082
 11
1168.986665723
 21
596.186668082
  0
LINE
  8
0
  6
CONTINUOUS
 62
     1
 10
1118.986665723
 20
612.186668082
 11
1118.986665723
 21
596.186668082
  0
LINE
  8
0
  6
LTYPE2
 62
     2
 10
1147.986665723
 20
711.086668082
 11
1139.786665723
 21
711.086668082
  0
LINE
  8
0
  6
LTYPE1
 62
     2
 10
1131.486665723
 20
709.186668082
 11
1131.486665723
 21
689.686668082
  0
LINE
  8
0
  6
LTYPE1
 62
     2
 10
1156.486665723
 20
709.186668082
 11
1156.486665723
 21
689.686668082
  0
LINE
  8
0
  6
LTYPE2
 62
     2
 10
1147.986665723
 20
643.286668082
 11
1139.786665723
 21
643.286668082
  0
LINE
  8
0
  6
LTYPE1
 62
     2
 10
1131.486665723
 20
645.186668082
 11
1131.486665723
 21
664.686668082
  0
LINE
  8
0
  6
LTYPE1
 62
     2
 10
1156.486665723
 20
645.186668082
 11
1156.486665723
 21
664.686668082
  0
LINE
  8
0
  6
LTYPE2
 62
     2
 10
1051.986665723
 20
677.186668082
 11
1216.986665723
 21
677.186668082
  0
LINE
  8
0
  6
CONTINUOUS
 62
     2
 10
1198.986665723
 20
683.186668082
 11
1198.986665723
 21
813.386668082
  0
LINE
  8
0
  6
CONTINUOUS
 62
     2
 10
1198.986665723
 20
807.386668082
 11
1189.32740746
 21
809.974858533
  0
LINE
  8
0
  6
CONTINUOUS
 62
     2
 10
1198.986665723
 20
807.386668082
 11
1189.32740746
 21
804.798477631
  0
LINE
  8
0
  6
CONTINUOUS
 62
     2
 10
1198.986665723
 20
807.386668082
 11
1143.986665723
 21
807.386668082
  0
LINE
  8
0
  6
CONTINUOUS
 62
     2
 10
1143.986665723
 20
807.386668082
 11
1153.645923986
 21
804.798477631
  0
LINE
  8
0
  6
CONTINUOUS
 62
     2
 10
1143.986665723
 20
807.386668082
 11
1153.645923986
 21
809.974858533
  0
LINE
  8
0
  6
CONTINUOUS
 62
     2
 10
1143.986665723
 20
807.186668082
 11
1143.986665723
 21
813.386668082
  0
ARC
  8
0
  6
CONTINUOUS
 62
     1
 10
1059.986665723
 20
677.186668082
 40
4.0
 50
90.0
 51
180.0
  0
POINT
  8
0
  6
CONTINUOUS
 62
     1
 10
1055.986665723
 20
677.186668082
  0
ARC
  8
0
  6
CONTINUOUS
 62
     1
 10
1059.986665723
 20
677.186668082
 40
4.0
 50
180.0
 51
270.0
  0
LINE
  8
0
  6
CONTINUOUS
 62
     1
 10
1085.986665723
 20
685.186668082
 11
1089.586665723
 21
685.186668082
  0
LINE
  8
0
  6
CONTINUOUS
 62
     1
 10
1085.986665723
 20
669.186668082
 11
1089.886665723
 21
669.186668082
  0
LINE
  8
0
  6
CONTINUOUS
 62
     1
 10
1085.986665723
 20
685.186668082
 11
1084.586665723
 21
680.886668082
  0
LINE
  8
0
  6
CONTINUOUS
 62
     1
 10
1059.986665723
 20
681.186668082
 11
1088.086665723
 21
681.186668082
  0
LINE
  8
0
  6
CONTINUOUS
 62
     1
 10
1085.986665723
 20
669.186668082
 11
1084.586665723
 21
673.486668082
  0
LINE
  8
0
  6
CONTINUOUS
 62
     1
 10
1059.986665723
 20
673.186668082
 11
1088.186665723
 21
673.186668082
  0
LINE
  8
0
  6
CONTINUOUS
 62
     2
 10
1129.486665723
 20
761.186668082
 11
1023.986665723
 21
761.186668082
  0
LINE
  8
0
  6
CONTINUOUS
 62
     2
 10
1029.986665723
 20
761.186668082
 11
1027.398475272
 21
751.527409819
  0
LINE
  8
0
  6
CONTINUOUS
 62
     2
 10
1029.986665723
 20
761.186668082
 11
1032.574856174
 21
751.527409819
  0
LINE
  8
0
  6
CONTINUOUS
 62
     2
 10
1029.986665723
 20
761.186668082
 11
1029.986665723
 21
593.186668082
  0
LINE
  8
0
  6
CONTINUOUS
 62
     2
 10
1029.986665723
 20
593.186668082
 11
1032.574856174
 21
602.845926345
  0
LINE
  8
0
  6
CONTINUOUS
 62
     2
 10
1029.986665723
 20
593.186668082
 11
1027.398475272
 21
602.845926345
  0
LINE
  8
0
  6
CONTINUOUS
 62
     2
 10
1129.486665723
 20
593.186668082
 11
1023.986665723
 21
593.186668082
  0
TEXT
  8
0
  6
CONTINUOUS
 62
     2
 10
1025.986665723
 20
659.786668082
 30
1.2
 40
12.0
  1
１６８
 50
90.0
 41
0.9
 51
0.0
  7
KANJI48
  0
LINE
  8
0
  6
CONTINUOUS
 62
     2
 10
1029.986665723
 20
593.186668082
 11
1027.398475272
 21
583.527409819
  0
LINE
  8
0
  6
CONTINUOUS
 62
     2
 10
1029.986665723
 20
593.186668082
 11
1032.574856174
 21
583.527409819
  0
LINE
  8
0
  6
CONTINUOUS
 62
     2
 10
1029.986665723
 20
593.186668082
 11
1029.986665723
 21
568.186668082
  0
LINE
  8
0
  6
CONTINUOUS
 62
     2
 10
1029.986665723
 20
568.186668082
 11
1032.574856174
 21
577.845926345
  0
LINE
  8
0
  6
CONTINUOUS
 62
     2
 10
1029.986665723
 20
568.186668082
 11
1027.398475272
 21
577.845926345
  0
LINE
  8
0
  6
CONTINUOUS
 62
     2
 10
1130.486665723
 20
568.186668082
 11
1023.986665723
 21
568.186668082
  0
TEXT
  8
0
  6
CONTINUOUS
 62
     2
 10
1025.986665723
 20
569.286668082
 30
1.2
 40
12.0
  1
２５
 50
90.0
 41
0.9
 51
0.0
  7
KANJI48
  0
LINE
  8
0
  6
CONTINUOUS
 62
     2
 10
1029.986665723
 20
761.186668082
 11
1032.574856174
 21
770.845926345
  0
LINE
  8
0
  6
CONTINUOUS
 62
     2
 10
1029.986665723
 20
761.186668082
 11
1027.398475272
 21
770.845926345
  0
LINE
  8
0
  6
CONTINUOUS
 62
     2
 10
1029.986665723
 20
761.186668082
 11
1029.986665723
 21
786.186668082
  0
LINE
  8
0
  6
CONTINUOUS
 62
     2
 10
1029.986665723
 20
786.186668082
 11
1027.398475272
 21
776.527409819
  0
LINE
  8
0
  6
CONTINUOUS
 62
     2
 10
1029.986665723
 20
786.186668082
 11
1032.574856174
 21
776.527409819
  0
LINE
  8
0
  6
CONTINUOUS
 62
     2
 10
1130.486665723
 20
786.186668082
 11
1023.986665723
 21
786.186668082
  0
TEXT
  8
0
  6
CONTINUOUS
 62
     2
 10
1025.986665723
 20
762.286668082
 30
1.2
 40
12.0
  1
２５
 50
90.0
 41
0.9
 51
0.0
  7
KANJI48
  0
LINE
  8
0
  6
CONTINUOUS
 62
     2
 10
1143.986665723
 20
807.386668082
 11
1134.32740746
 21
809.974858533
  0
LINE
  8
0
  6
CONTINUOUS
 62
     2
 10
1143.986665723
 20
807.386668082
 11
1134.32740746
 21
804.798477631
  0
LINE
  8
0
  6
CONTINUOUS
 62
     2
 10
1143.986665723
 20
807.386668082
 11
1055.986665723
 21
807.386668082
  0
LINE
  8
0
  6
CONTINUOUS
 62
     2
 10
1055.986665723
 20
807.386668082
 11
1065.645923986
 21
804.798477631
  0
LINE
  8
0
  6
CONTINUOUS
 62
     2
 10
1055.986665723
 20
807.386668082
 11
1065.645923986
 21
809.974858533
  0
LINE
  8
0
  6
CONTINUOUS
 62
     2
 10
1055.986665723
 20
683.186668082
 11
1055.986665723
 21
813.386668082
  0
TEXT
  8
0
  6
CONTINUOUS
 62
     2
 10
1088.586665723
 20
811.386668082
 30
1.2
 40
12.0
  1
８８
 50
0.0
 41
0.9
 51
0.0
  7
KANJI48
  0
LINE
  8
0
  6
LTYPE2
 62
     2
 10
1143.986665723
 20
555.436668082
 11
1143.986665723
 21
624.636668082
  0
LINE
  8
0
  6
LTYPE2
 62
     2
 10
1143.986665723
 20
625.036668082
 11
1143.986665723
 21
808.336668082
  0
LINE
  8
0
  6
CONTINUOUS
 62
     2
 10
1118.986665723
 20
590.186668082
 11
1118.986665723
 21
523.936668082
  0
LINE
  8
0
  6
CONTINUOUS
 62
     2
 10
1118.986665723
 20
529.936668082
 11
1128.645923986
 21
527.348477631
  0
LINE
  8
0
  6
CONTINUOUS
 62
     2
 10
1118.986665723
 20
529.936668082
 11
1128.645923986
 21
532.524858533
  0
LINE
  8
0
  6
CONTINUOUS
 62
     2
 10
1118.986665723
 20
529.936668082
 11
1168.986665723
 21
529.936668082
  0
LINE
  8
0
  6
CONTINUOUS
 62
     2
 10
1168.986665723
 20
529.936668082
 11
1159.32740746
 21
532.524858533
  0
LINE
  8
0
  6
CONTINUOUS
 62
     2
 10
1168.986665723
 20
529.936668082
 11
1159.32740746
 21
527.348477631
  0
LINE
  8
0
  6
CONTINUOUS
 62
     2
 10
1168.986665723
 20
590.186668082
 11
1168.986665723
 21
523.936668082
  0
TEXT
  8
0
  6
CONTINUOUS
 62
     2
 10
1110.586665723
 20
533.936668082
 30
1.2
 40
12.0
  1
φ５０ｄ９
 50
0.0
 41
0.9
 51
0.0
  7
KANJI48
  0
CIRCLE
  8
0
  6
CONTINUOUS
 62
     1
 10
1143.986665723
 20
677.186668082
 40
46.0
  0
ARC
  8
0
  6
CONTINUOUS
 62
     1
 10
1143.986665723
 20
677.186668082
 40
35.0
 50
316.169139328
 51
43.830860672
  0
ARC
  8
0
  6
CONTINUOUS
 62
     1
 10
1143.986665723
 20
677.186668082
 40
35.0
 50
135.0
 51
223.830860672
  0
TEXT
  8
0
  6
CONTINUOUS
 62
     2
 10
1160.086665723
 20
811.386668082
 30
1.2
 40
12.0
  1
５３
 50
0.0
 41
0.9
 51
0.0
  7
KANJI48
  0
LINE
  8
0
  6
CONTINUOUS
 62
     2
 10
1153.186665723
 20
985.336668082
 11
1153.186665723
 21
965.136668082
  0
LINE
  8
0
  6
CONTINUOUS
 62
     2
 10
1183.586665723
 20
994.536668082
 11
1173.92740746
 21
997.124858533
  0
LINE
  8
0
  6
CONTINUOUS
 62
     2
 10
1183.586665723
 20
994.536668082
 11
1173.92740746
 21
991.948477631
  0
LINE
  8
0
  6
CONTINUOUS
 62
     2
 10
1153.186665723
 20
975.136668082
 11
1143.52740746
 21
977.724858533
  0
LINE
  8
0
  6
CONTINUOUS
 62
     2
 10
1153.186665723
 20
975.136668082
 11
1143.52740746
 21
972.548477631
  0
LINE
  8
0
  6
CONTINUOUS
 62
     2
 10
1153.186665723
 20
975.136668082
 11
1162.845923986
 21
972.548477631
  0
LINE
  8
0
  6
CONTINUOUS
 62
     2
 10
1153.186665723
 20
975.136668082
 11
1162.845923986
 21
977.724858533
  0
LINE
  8
0
  6
CONTINUOUS
 62
     2
 10
1183.586665723
 20
975.136668082
 11
1173.92740746
 21
977.724858533
  0
LINE
  8
0
  6
CONTINUOUS
 62
     2
 10
1183.586665723
 20
975.136668082
 11
1173.92740746
 21
972.548477631
  0
LINE
  8
0
  6
CONTINUOUS
 62
     2
 10
1169.386665723
 20
975.536668082
 11
1159.434003918
 21
974.564802357
  0
LINE
  8
0
  6
CONTINUOUS
 62
     2
 10
1169.386665723
 20
975.536668082
 11
1161.253340627
 21
969.718676772
  0
LINE
  8
0
  6
CONTINUOUS
 62
     2
 10
1169.386665723
 20
975.536668082
 11
1050.586665723
 21
930.936668082
  0
LINE
  8
0
  6
CONTINUOUS
 62
     2
 10
1232.386665723
 20
930.936668082
 11
1050.586665723
 21
930.936668082
  0
TEXT
  8
0
  6
CONTINUOUS
 62
     2
 10
1100.986665723
 20
934.936668082
 30
0.0
 40
12.0
  1
惰行距離＋ストローク余裕
 50
0.0
 41
0.9
 51
0.0
  7
KANJI1
  0
LINE
  8
0
  6
CONTINUOUS
 62
     2
 10
1183.586665723
 20
1021.486668082
 11
1183.586665723
 21
967.536668082
  0
LINE
  8
0
  6
CONTINUOUS
 62
     2
 10
1183.424165723
 20
1015.336668082
 11
1173.76490746
 21
1017.924858533
  0
LINE
  8
0
  6
CONTINUOUS
 62
     2
 10
1183.424165723
 20
1015.336668082
 11
1173.76490746
 21
1012.748477631
  0
TEXT
  8
0
  6
CONTINUOUS
 62
     2
 10
1020.386665723
 20
978.736668082
 30
1.2
 40
12.0
  1
使用ストローク（　　　　）
 50
0.0
 41
0.9
 51
0.0
  7
KANJI50
  0
TEXT
  8
0
  6
CONTINUOUS
 62
     3
 10
1274.533399569
 20
130.933335446
 30
0.0
 40
12.0
  1
Ｓ
 50
0.0
 41
0.9
 51
0.0
  7
KANJI1
  0
CIRCLE
  8
0
  6
CONTINUOUS
 62
     3
 10
1280.433399569
 20
136.733335446
 40
8.0
  0
TEXT
  8
0
  6
CONTINUOUS
 62
     3
 10
154.03
 20
14.36
 30
0.0
 40
12.0
  1
ＦＤ　Ｎｏ．ＳＣ１６
 50
0.0
 41
0.9
 51
0.0
  7
KANJI1
  0
TEXT
  8
0
  6
CONTINUOUS
 62
     3
 10
1303.6
 20
91.52
 30
8.0
 40
16.0
  1
Ａ３００１９１６
 50
0.0
 41
1.0
 51
0.0
  7
KANJI51
  0
TEXT
  8
0
  6
CONTINUOUS
 62
     2
 10
793.966665723
 20
316.266668082
 30
1.2
 40
12.0
  1
４５
 50
0.0
 41
0.9
 51
0.0
  7
KANJI0
  0
TEXT
  8
0
  6
CONTINUOUS
 62
     2
 10
793.966665723
 20
288.266668082
 30
1.2
 40
12.0
  1
４５
 50
0.0
 41
0.9
 51
0.0
  7
KANJI0
  0
TEXT
  8
0
  6
CONTINUOUS
 62
     2
 10
793.966665723
 20
260.266668082
 30
1.2
 40
12.0
  1
４５
 50
0.0
 41
0.9
 51
0.0
  7
KANJI0
  0
TEXT
  8
0
  6
CONTINUOUS
 62
     2
 10
782.366665723
 20
232.466668082
 30
1.2
 40
12.0
  1
　４５
 50
0.0
 41
0.9
 51
0.0
  7
KANJI0
  0
TEXT
  8
0
  6
CONTINUOUS
 62
     2
 10
781.866665723
 20
204.366668082
 30
1.2
 40
12.0
  1
　４５
 50
0.0
 41
0.9
 51
0.0
  7
KANJI0
  0
TEXT
  8
0
  6
CONTINUOUS
 62
     2
 10
781.866665723
 20
176.366668082
 30
1.2
 40
12.0
  1
　４５
 50
0.0
 41
0.9
 51
0.0
  7
KANJI0
  0
TEXT
  8
0
  6
CONTINUOUS
 62
     2
 10
694.766665723
 20
204.366668082
 30
1.2
 40
12.0
  1
１０１０
 50
0.0
 41
0.9
 51
0.0
  7
KANJI0
  0
TEXT
  8
0
  6
CONTINUOUS
 62
     2
 10
694.766665723
 20
176.366668082
 30
1.2
 40
12.0
  1
１３１０
 50
0.0
 41
0.9
 51
0.0
  7
KANJI0
  0
TEXT
  8
0
  6
CONTINUOUS
 62
     2
 10
627.066665723
 20
315.566668082
 30
1.2
 40
12.0
  1
５６５
 50
0.0
 41
0.9
 51
0.0
  7
KANJI0
  0
TEXT
  8
0
  6
CONTINUOUS
 62
     2
 10
627.066665723
 20
287.566668082
 30
1.2
 40
12.0
  1
６６５
 50
0.0
 41
0.9
 51
0.0
  7
KANJI0
  0
TEXT
  8
0
  6
CONTINUOUS
 62
     2
 10
627.066665723
 20
259.566668082
 30
1.2
 40
12.0
  1
７６５
 50
0.0
 41
0.9
 51
0.0
  7
KANJI0
  0
TEXT
  8
0
  6
CONTINUOUS
 62
     2
 10
627.066665723
 20
231.566668082
 30
1.2
 40
12.0
  1
８６５
 50
0.0
 41
0.9
 51
0.0
  7
KANJI0
  0
TEXT
  8
0
  6
CONTINUOUS
 62
     2
 10
614.966665723
 20
203.666668082
 30
1.2
 40
12.0
  1
１１０５
 50
0.0
 41
0.9
 51
0.0
  7
KANJI0
  0
TEXT
  8
0
  6
CONTINUOUS
 62
     2
 10
614.966665723
 20
175.666668082
 30
1.2
 40
12.0
  1
１４０５
 50
0.0
 41
0.9
 51
0.0
  7
KANJI0
  0
TEXT
  8
0
  6
CONTINUOUS
 62
     2
 10
546.666665723
 20
314.766668082
 30
1.2
 40
12.0
  1
６２０
 50
0.0
 41
0.9
 51
0.0
  7
KANJI0
  0
TEXT
  8
0
  6
CONTINUOUS
 62
     2
 10
546.666665723
 20
286.766668082
 30
1.2
 40
12.0
  1
７２０
 50
0.0
 41
0.9
 51
0.0
  7
KANJI0
  0
TEXT
  8
0
  6
CONTINUOUS
 62
     2
 10
534.966665723
 20
258.766668082
 30
1.2
 40
12.0
  1
　８２０
 50
0.0
 41
0.9
 51
0.0
  7
KANJI0
  0
TEXT
  8
0
  6
CONTINUOUS
 62
     2
 10
546.666665723
 20
230.766668082
 30
1.2
 40
12.0
  1
９２０
 50
0.0
 41
0.9
 51
0.0
  7
KANJI0
  0
TEXT
  8
0
  6
CONTINUOUS
 62
     2
 10
534.566665723
 20
202.866668082
 30
1.2
 40
12.0
  1
１１６０
 50
0.0
 41
0.9
 51
0.0
  7
KANJI0
  0
TEXT
  8
0
  6
CONTINUOUS
 62
     2
 10
534.566665723
 20
174.866668082
 30
1.2
 40
12.0
  1
１４６０
 50
0.0
 41
0.9
 51
0.0
  7
KANJI0
  0
TEXT
  8
0
  6
CONTINUOUS
 62
     3
 10
1122.2
 20
98.92
 30
4.0
 40
12.0
  1
岡田
 50
0.0
 41
0.9
 51
0.0
  7
KANJI52
  0
CIRCLE
  8
0
  6
CONTINUOUS
 62
     1
 10
259.72930641
 20
886.186668082
 40
10.0
  0
ARC
  8
0
  6
CONTINUOUS
 62
     1
 10
259.72930641
 20
886.186668082
 40
16.3
 50
0.0
 51
59.342994563
  0
ARC
  8
0
  6
CONTINUOUS
 62
     1
 10
268.528322101
 20
901.087725752
 40
1.0
 50
174.289406863
 51
237.994616792
  0
LINE
  8
0
  6
CONTINUOUS
 62
     1
 10
267.239110332
 20
898.186668082
 11
259.939110332
 21
896.186668082
  0
LINE
  8
0
  6
CONTINUOUS
 62
     1
 10
267.72930641
 20
903.186668082
 11
267.239110332
 21
898.186668082
  0
LINE
  8
0
  6
CONTINUOUS
 62
     1
 10
259.72930641
 20
898.186668082
 11
267.239110332
 21
898.186668082
  0
ARC
  8
0
  6
CONTINUOUS
 62
     1
 10
250.930290719
 20
901.087725752
 40
1.0
 50
302.005383208
 51
5.710593137
  0
LINE
  8
0
  6
CONTINUOUS
 62
     1
 10
252.219502489
 20
898.186668082
 11
259.519502489
 21
896.186668082
  0
LINE
  8
0
  6
CONTINUOUS
 62
     1
 10
251.72930641
 20
903.186668082
 11
252.219502489
 21
898.186668082
  0
LINE
  8
0
  6
CONTINUOUS
 62
     1
 10
259.72930641
 20
898.186668082
 11
252.219502489
 21
898.186668082
  0
ARC
  8
0
  6
CONTINUOUS
 62
     1
 10
259.72930641
 20
886.186668082
 40
16.3
 50
120.483504423
 51
0.0
  0
LINE
  8
0
  6
LTYPE2
 62
     2
 10
240.72930641
 20
886.186668082
 11
279.72930641
 21
886.186668082
  0
TEXT
  8
0
  6
CONTINUOUS
 62
     3
 10
1108.4
 20
71.28
 30
0.0
 40
12.0
  1
２００３．１２．１０
 50
0.0
 41
0.666666667
 51
0.0
  7
KANJI53
  0
ARC
  8
0
  6
CONTINUOUS
 62
     1
 10
259.72930641
 20
677.186668082
 40
8.0
 50
23.7
 51
156.3
  0
LINE
  8
0
  6
CONTINUOUS
 62
     1
 10
272.82930641
 20
673.986668082
 11
246.62930641
 21
673.986668082
  0
LINE
  8
0
  6
CONTINUOUS
 62
     1
 10
272.82930641
 20
680.386668082
 11
246.52930641
 21
680.386668082
  0
ARC
  8
0
  6
CONTINUOUS
 62
     1
 10
246.62930641
 20
677.186668082
 40
3.2
 50
90.0
 51
270.0
  0
ARC
  8
0
  6
CONTINUOUS
 62
     1
 10
272.82930641
 20
677.186668082
 40
3.2
 50
270.0
 51
90.0
  0
ARC
  8
0
  6
CONTINUOUS
 62
     1
 10
259.72930641
 20
677.186668082
 40
8.0
 50
203.7
 51
336.3
  0
LINE
  8
0
  6
LTYPE5
 62
     2
 10
259.72930641
 20
688.686668082
 11
259.72930641
 21
665.686668082
  0
LINE
  8
0
  6
LTYPE5
 62
     2
 10
239.92930641
 20
677.186668082
 11
279.52930641
 21
677.186668082
  0
LINE
  8
0
  6
LTYPE2
 62
     2
 10
259.72930641
 20
908.186668082
 11
259.72930641
 21
866.186668082
  0
TEXT
  8
0
  6
CONTINUOUS
 62
     2
 10
873.466665723
 20
315.966668082
 30
1.2
 40
12.0
  1
１８
 50
0.0
 41
0.9
 51
0.0
  7
KANJI0
  0
TEXT
  8
0
  6
CONTINUOUS
 62
     2
 10
873.466665723
 20
287.966668082
 30
1.2
 40
12.0
  1
１９
 50
0.0
 41
0.9
 51
0.0
  7
KANJI0
  0
TEXT
  8
0
  6
CONTINUOUS
 62
     2
 10
873.466665723
 20
259.966668082
 30
1.2
 40
12.0
  1
２０
 50
0.0
 41
0.9
 51
0.0
  7
KANJI0
  0
TEXT
  8
0
  6
CONTINUOUS
 62
     2
 10
873.466665723
 20
231.966668082
 30
1.2
 40
12.0
  1
２２
 50
0.0
 41
0.9
 51
0.0
  7
KANJI0
  0
TEXT
  8
0
  6
CONTINUOUS
 62
     2
 10
873.466665723
 20
203.966668082
 30
1.2
 40
12.0
  1
２５
 50
0.0
 41
0.9
 51
0.0
  7
KANJI0
  0
TEXT
  8
0
  6
CONTINUOUS
 62
     2
 10
873.466665723
 20
175.966668082
 30
1.2
 40
12.0
  1
２９
 50
0.0
 41
0.9
 51
0.0
  7
KANJI0
  0
LINE
  8
0
  6
CONTINUOUS
 62
     2
 10
903.09
 20
316.35
 11
910.01820323
 21
328.35
  0
LINE
  8
0
  6
CONTINUOUS
 62
     2
 10
910.01820323
 20
328.35
 11
916.946406461
 21
316.35
  0
LINE
  8
0
  6
CONTINUOUS
 62
     2
 10
916.946406461
 20
316.35
 11
903.09
 21
316.35
  0
TEXT
  8
0
  6
CONTINUOUS
 62
     2
 10
907.189776106
 20
317.521572875
 30
0.0
 40
5.656854249
  1
１
 50
0.0
 41
1.0
 51
0.0
  7
KANJI54
  0
LINE
  8
0
  6
CONTINUOUS
 62
     2
 10
903.09
 20
288.35
 11
910.01820323
 21
300.35
  0
LINE
  8
0
  6
CONTINUOUS
 62
     2
 10
910.01820323
 20
300.35
 11
916.946406461
 21
288.35
  0
LINE
  8
0
  6
CONTINUOUS
 62
     2
 10
916.946406461
 20
288.35
 11
903.09
 21
288.35
  0
TEXT
  8
0
  6
CONTINUOUS
 62
     2
 10
907.189776106
 20
289.521572875
 30
0.0
 40
5.656854249
  1
１
 50
0.0
 41
1.0
 51
0.0
  7
KANJI54
  0
LINE
  8
0
  6
CONTINUOUS
 62
     2
 10
903.09
 20
260.35
 11
910.01820323
 21
272.35
  0
LINE
  8
0
  6
CONTINUOUS
 62
     2
 10
910.01820323
 20
272.35
 11
916.946406461
 21
260.35
  0
LINE
  8
0
  6
CONTINUOUS
 62
     2
 10
916.946406461
 20
260.35
 11
903.09
 21
260.35
  0
TEXT
  8
0
  6
CONTINUOUS
 62
     2
 10
907.189776106
 20
261.521572875
 30
0.0
 40
5.656854249
  1
１
 50
0.0
 41
1.0
 51
0.0
  7
KANJI54
  0
LINE
  8
0
  6
CONTINUOUS
 62
     2
 10
903.09
 20
232.35
 11
910.01820323
 21
244.35
  0
LINE
  8
0
  6
CONTINUOUS
 62
     2
 10
910.01820323
 20
244.35
 11
916.946406461
 21
232.35
  0
LINE
  8
0
  6
CONTINUOUS
 62
     2
 10
916.946406461
 20
232.35
 11
903.09
 21
232.35
  0
TEXT
  8
0
  6
CONTINUOUS
 62
     2
 10
907.189776106
 20
233.521572875
 30
0.0
 40
5.656854249
  1
１
 50
0.0
 41
1.0
 51
0.0
  7
KANJI54
  0
LINE
  8
0
  6
CONTINUOUS
 62
     2
 10
903.09
 20
204.35
 11
910.01820323
 21
216.35
  0
LINE
  8
0
  6
CONTINUOUS
 62
     2
 10
910.01820323
 20
216.35
 11
916.946406461
 21
204.35
  0
LINE
  8
0
  6
CONTINUOUS
 62
     2
 10
916.946406461
 20
204.35
 11
903.09
 21
204.35
  0
TEXT
  8
0
  6
CONTINUOUS
 62
     2
 10
907.189776106
 20
205.521572875
 30
0.0
 40
5.656854249
  1
１
 50
0.0
 41
1.0
 51
0.0
  7
KANJI54
  0
LINE
  8
0
  6
CONTINUOUS
 62
     2
 10
903.09
 20
176.35
 11
910.01820323
 21
188.35
  0
LINE
  8
0
  6
CONTINUOUS
 62
     2
 10
910.01820323
 20
188.35
 11
916.946406461
 21
176.35
  0
LINE
  8
0
  6
CONTINUOUS
 62
     2
 10
916.946406461
 20
176.35
 11
903.09
 21
176.35
  0
TEXT
  8
0
  6
CONTINUOUS
 62
     2
 10
907.189776106
 20
177.521572875
 30
0.0
 40
5.656854249
  1
１
 50
0.0
 41
1.0
 51
0.0
  7
KANJI54
  0
POLYLINE
  8
0
  6
CONTINUOUS
 62
     4
 66
     1
  0
VERTEX
  8
0
  6
CONTINUOUS
 62
     4
 10
814.466731769
 20
91.666667046
  0
VERTEX
  8
0
  6
CONTINUOUS
 62
     4
 10
803.200065969
 20
74.333335046
  0
VERTEX
  8
0
  6
CONTINUOUS
 62
     4
 10
825.733397569
 20
74.333335046
  0
SEQEND
  0
LINE
  8
0
  6
CONTINUOUS
 62
     4
 10
814.466731769
 20
91.666667046
 11
825.733397569
 21
74.333335046
  0
TEXT
  8
0
  6
CONTINUOUS
 62
     2
 10
809.733399569
 20
74.733335446
 30
0.0
 40
12.0
  1
１
 50
0.0
 41
0.9
 51
0.0
  7
KANJI1
  0
TEXT
  8
0
  6
CONTINUOUS
 62
     2
 10
832.133399569
 20
73.133335446
 30
0.0
 40
12.0
  1
２００４．０３．０５　岡田　概算重量変更
 50
0.0
 41
0.9
 51
0.0
  7
KANJI1
  0
TEXT
  8
0
  6
CONTINUOUS
 62
     3
 10
1122.2
 20
154.3866624
 30
4.0
 40
12.0
  1
田口
 50
0.0
 41
0.9
 51
0.0
  7
KANJI52
  0
TEXT
  8
0
  6
CONTINUOUS
 62
     3
 10
1122.2
 20
126.6533312
 30
4.0
 40
12.0
  1
村上
 50
0.0
 41
0.9
 51
0.0
  7
KANJI52
  0
TEXT
  8
0
  6
CONTINUOUS
 62
     2
 10
1157.570045169
 20
137.613329046
 30
0.0
 40
8.0
  1
０３
 50
0.0
 41
0.85
 51
0.0
  7
KANJI55
  0
TEXT
  8
0
  6
CONTINUOUS
 62
     2
 10
1163.280045169
 20
126.863329046
 30
0.0
 40
8.0
  1
１２／１１
 50
0.0
 41
0.85
 51
0.0
  7
KANJI55
  0
TEXT
  8
0
  6
CONTINUOUS
 62
     2
 10
1531.380045169
 20
95.923329046
 30
0.0
 40
12.0
  1
１
 50
0.0
 41
0.9
 51
0.0
  7
KANJI1
  0
LINE
  8
0
  6
CONTINUOUS
 62
     6
 10
1346.036690879
 20
60.189336134
 11
1336.884691583
 21
60.189336134
  0
LINE
  8
0
  6
CONTINUOUS
 62
     6
 10
1346.036690879
 20
61.853336006
 11
1336.884691583
 21
61.853336006
  0
LINE
  8
0
  6
CONTINUOUS
 62
     6
 10
1346.036690879
 20
60.189336134
 11
1355.188690175
 21
60.189336134
  0
LINE
  8
0
  6
CONTINUOUS
 62
     6
 10
1346.036690879
 20
61.853336006
 11
1355.188690175
 21
61.853336006
  0
LINE
  8
0
  6
CONTINUOUS
 62
     6
 10
1355.188690175
 20
61.853336006
 11
1355.188690175
 21
60.189336134
  0
ARC
  8
0
  6
CONTINUOUS
 62
     6
 10
1357.268690015
 20
61.02133607
 40
8.31999936
 50
185.739170477
 51
90.0
  0
ARC
  8
0
  6
CONTINUOUS
 62
     6
 10
1357.268690015
 20
61.02133607
 40
9.983999232
 50
184.780191847
 51
90.0
  0
LINE
  8
0
  6
CONTINUOUS
 62
     6
 10
1336.884691583
 20
60.189336134
 11
1336.884691583
 21
61.853336006
  0
LINE
  8
0
  6
CONTINUOUS
 62
     6
 10
1344.788690975
 20
71.005335302
 11
1334.804691743
 21
71.005335302
  0
LINE
  8
0
  6
CONTINUOUS
 62
     6
 10
1347.284690783
 20
71.005335302
 11
1357.268690015
 21
71.005335302
  0
ARC
  8
0
  6
CONTINUOUS
 62
     6
 10
1334.804691743
 20
61.02133607
 40
8.31999936
 50
90.0
 51
354.260829523
  0
ARC
  8
0
  6
CONTINUOUS
 62
     6
 10
1334.804691743
 20
61.02133607
 40
9.983999232
 50
90.0
 51
355.219808153
  0
LINE
  8
0
  6
CONTINUOUS
 62
     6
 10
1344.788690975
 20
71.005335302
 11
1344.788690975
 21
69.34133543
  0
LINE
  8
0
  6
CONTINUOUS
 62
     6
 10
1334.804691743
 20
69.34133543
 11
1344.788690975
 21
69.34133543
  0
LINE
  8
0
  6
CONTINUOUS
 62
     6
 10
1347.284690783
 20
71.005335302
 11
1347.284690783
 21
69.34133543
  0
LINE
  8
0
  6
CONTINUOUS
 62
     6
 10
1357.268690015
 20
69.34133543
 11
1347.284690783
 21
69.34133543
  0
LINE
  8
0
  6
LTYPE1
 62
     2
 10
900.486665723
 20
646.686668082
 11
900.486665723
 21
664.686668082
  0
LINE
  8
0
  6
CONTINUOUS
 62
     1
 10
900.486665723
 20
664.686668082
 11
900.486665723
 21
677.186668082
  0
LINE
  8
0
  6
LTYPE1
 62
     2
 10
900.486665723
 20
707.686668082
 11
900.486665723
 21
689.686668082
  0
LINE
  8
0
  6
CONTINUOUS
 62
     1
 10
900.486665723
 20
689.686668082
 11
900.486665723
 21
677.186668082
  0
LINE
  8
0
  6
CONTINUOUS
 62
     2
 10
900.486665723
 20
741.386668082
 11
910.145923986
 21
738.798477631
  0
LINE
  8
0
  6
CONTINUOUS
 62
     2
 10
900.486665723
 20
721.686668082
 11
900.486665723
 21
747.386668082
  0
LINE
  8
0
  6
CONTINUOUS
 62
     2
 10
865.486665723
 20
741.386668082
 11
986.286665723
 21
741.386668082
  0
LINE
  8
0
  6
CONTINUOUS
 62
     2
 10
900.486665723
 20
741.386668082
 11
910.145923986
 21
743.974858533
  0
LINE
  8
0
  6
CONTINUOUS
 62
     2
 10
875.486665723
 20
741.386668082
 11
865.82740746
 21
743.974858533
  0
LINE
  8
0
  6
CONTINUOUS
 62
     2
 10
875.486665723
 20
721.686668082
 11
875.486665723
 21
747.386668082
  0
LINE
  8
0
  6
CONTINUOUS
 62
     2
 10
875.486665723
 20
741.386668082
 11
865.82740746
 21
738.798477631
  0
LINE
  8
0
  6
LTYPE1
 62
     2
 10
875.486665723
 20
707.686668082
 11
875.486665723
 21
689.686668082
  0
LINE
  8
0
  6
CONTINUOUS
 62
     1
 10
875.486665723
 20
689.686668082
 11
875.486665723
 21
677.186668082
  0
LINE
  8
0
  6
CONTINUOUS
 62
     1
 10
875.486665723
 20
664.686668082
 11
875.486665723
 21
677.186668082
  0
LINE
  8
0
  6
LTYPE1
 62
     2
 10
875.486665723
 20
646.686668082
 11
875.486665723
 21
664.686668082
  0
LINE
  8
0
  6
CONTINUOUS
 62
     1
 10
900.486665723
 20
715.686668082
 11
900.486665723
 21
707.686668082
  0
LINE
  8
0
  6
CONTINUOUS
 62
     1
 10
875.486665723
 20
715.686668082
 11
875.486665723
 21
707.686668082
  0
LINE
  8
0
  6
CONTINUOUS
 62
     1
 10
875.486665723
 20
715.686668082
 11
900.486665723
 21
715.686668082
  0
LINE
  8
0
  6
CONTINUOUS
 62
     1
 10
875.486665723
 20
638.686668082
 11
875.486665723
 21
646.686668082
  0
LINE
  8
0
  6
CONTINUOUS
 62
     1
 10
900.486665723
 20
638.686668082
 11
900.486665723
 21
646.686668082
  0
LINE
  8
0
  6
CONTINUOUS
 62
     1
 10
875.486665723
 20
638.686668082
 11
900.486665723
 21
638.686668082
  0
ENDSEC
  0
EOF
