  0
SECTION
  2
HEADER
  9
$EXTMIN
 10
0.0
 20
0.0
 30
0.0
  9
$EXTMAX
 10
1680.0
 20
1188.0
 30
0.0
  9
$LIMMIN
 10
0.0
 20
0.0
  9
$LIMMAX
 10
1680.0
 20
1188.0
  9
$LTSCALE
 40
1.0
  9
$PDMODE
 70
     0
  0
ENDSEC
  0
SECTION
  2
TABLES
  0
TABLE
  2
LTYPE
 70
     6
  0
LTYPE
  2
CONTINUOUS
 70
    64
  3
Solid line
 72
    65
 73
     0
 40
0.0
  0
LTYPE
  2
LTYPE1
 70
    64
  3
CENTER
 72
    65
 73
     4
 40
80.0
 49
56.0
 49
-8.0
 49
8.0
 49
-8.0
  0
LTYPE
  2
LTYPE2
 70
    64
  3
PHANTOM
 72
    65
 73
     6
 40
60.0
 49
45.0
 49
-3.0
 49
3.0
 49
-3.0
 49
3.0
 49
-3.0
  0
LTYPE
  2
LTYPE3
 70
    64
  3
CENTER
 72
    65
 73
     4
 40
40.0
 49
28.0
 49
-4.0
 49
4.0
 49
-4.0
  0
LTYPE
  2
LTYPE4
 70
    64
  3
HIDDEN
 72
    65
 73
     2
 40
12.0
 49
7.2
 49
-4.8
  0
LTYPE
  2
LTYPE5
 70
    64
  3
CENTER
 72
    65
 73
     4
 40
60.0
 49
42.0
 49
-6.0
 49
6.0
 49
-6.0
  0
ENDTAB
  0
TABLE
  2
LAYER
 70
   128
  0
LAYER
  2
0
 70
     0
 62
     7
  6
CONTINUOUS
  0
LAYER
  2
2
 70
     0
 62
     7
  6
CONTINUOUS
  0
LAYER
  2
3
 70
     0
 62
     7
  6
CONTINUOUS
  0
LAYER
  2
4
 70
     0
 62
     7
  6
CONTINUOUS
  0
LAYER
  2
5
 70
     0
 62
     7
  6
CONTINUOUS
  0
LAYER
  2
6
 70
     0
 62
     7
  6
CONTINUOUS
  0
LAYER
  2
7
 70
     0
 62
     7
  6
CONTINUOUS
  0
LAYER
  2
8
 70
     0
 62
     7
  6
CONTINUOUS
  0
LAYER
  2
9
 70
     0
 62
     7
  6
CONTINUOUS
  0
LAYER
  2
10
 70
     0
 62
     7
  6
CONTINUOUS
  0
LAYER
  2
11
 70
     0
 62
     7
  6
CONTINUOUS
  0
LAYER
  2
12
 70
     0
 62
     7
  6
CONTINUOUS
  0
LAYER
  2
13
 70
     0
 62
     7
  6
CONTINUOUS
  0
LAYER
  2
14
 70
     0
 62
     7
  6
CONTINUOUS
  0
LAYER
  2
15
 70
     0
 62
     7
  6
CONTINUOUS
  0
LAYER
  2
16
 70
     0
 62
     7
  6
CONTINUOUS
  0
LAYER
  2
17
 70
     0
 62
     7
  6
CONTINUOUS
  0
LAYER
  2
18
 70
     0
 62
     7
  6
CONTINUOUS
  0
LAYER
  2
19
 70
     0
 62
     7
  6
CONTINUOUS
  0
LAYER
  2
20
 70
     0
 62
     7
  6
CONTINUOUS
  0
LAYER
  2
21
 70
     0
 62
     7
  6
CONTINUOUS
  0
LAYER
  2
22
 70
     0
 62
     7
  6
CONTINUOUS
  0
LAYER
  2
23
 70
     0
 62
     7
  6
CONTINUOUS
  0
LAYER
  2
24
 70
     0
 62
     7
  6
CONTINUOUS
  0
LAYER
  2
25
 70
     0
 62
     7
  6
CONTINUOUS
  0
LAYER
  2
26
 70
     0
 62
     7
  6
CONTINUOUS
  0
LAYER
  2
27
 70
     0
 62
     7
  6
CONTINUOUS
  0
LAYER
  2
28
 70
     0
 62
     7
  6
CONTINUOUS
  0
LAYER
  2
29
 70
     0
 62
     7
  6
CONTINUOUS
  0
LAYER
  2
30
 70
     0
 62
     7
  6
CONTINUOUS
  0
LAYER
  2
31
 70
     0
 62
     7
  6
CONTINUOUS
  0
LAYER
  2
32
 70
     0
 62
     7
  6
CONTINUOUS
  0
LAYER
  2
33
 70
     0
 62
     7
  6
CONTINUOUS
  0
LAYER
  2
34
 70
     0
 62
     7
  6
CONTINUOUS
  0
LAYER
  2
35
 70
     0
 62
     7
  6
CONTINUOUS
  0
LAYER
  2
36
 70
     0
 62
     7
  6
CONTINUOUS
  0
LAYER
  2
37
 70
     0
 62
     7
  6
CONTINUOUS
  0
LAYER
  2
38
 70
     0
 62
     7
  6
CONTINUOUS
  0
LAYER
  2
39
 70
     0
 62
     7
  6
CONTINUOUS
  0
LAYER
  2
40
 70
     0
 62
     7
  6
CONTINUOUS
  0
LAYER
  2
41
 70
     0
 62
     7
  6
CONTINUOUS
  0
LAYER
  2
42
 70
     0
 62
     7
  6
CONTINUOUS
  0
LAYER
  2
43
 70
     0
 62
     7
  6
CONTINUOUS
  0
LAYER
  2
44
 70
     0
 62
     7
  6
CONTINUOUS
  0
LAYER
  2
45
 70
     0
 62
     7
  6
CONTINUOUS
  0
LAYER
  2
46
 70
     0
 62
     7
  6
CONTINUOUS
  0
LAYER
  2
47
 70
     0
 62
     7
  6
CONTINUOUS
  0
LAYER
  2
48
 70
     0
 62
     7
  6
CONTINUOUS
  0
LAYER
  2
49
 70
     0
 62
     7
  6
CONTINUOUS
  0
LAYER
  2
50
 70
     0
 62
     7
  6
CONTINUOUS
  0
LAYER
  2
51
 70
     0
 62
     7
  6
CONTINUOUS
  0
LAYER
  2
52
 70
     0
 62
     7
  6
CONTINUOUS
  0
LAYER
  2
53
 70
     0
 62
     7
  6
CONTINUOUS
  0
LAYER
  2
54
 70
     0
 62
     7
  6
CONTINUOUS
  0
LAYER
  2
55
 70
     0
 62
     7
  6
CONTINUOUS
  0
LAYER
  2
56
 70
     0
 62
     7
  6
CONTINUOUS
  0
LAYER
  2
57
 70
     0
 62
     7
  6
CONTINUOUS
  0
LAYER
  2
58
 70
     0
 62
     7
  6
CONTINUOUS
  0
LAYER
  2
59
 70
     0
 62
     7
  6
CONTINUOUS
  0
LAYER
  2
60
 70
     0
 62
     7
  6
CONTINUOUS
  0
LAYER
  2
61
 70
     0
 62
     7
  6
CONTINUOUS
  0
LAYER
  2
62
 70
     0
 62
     7
  6
CONTINUOUS
  0
LAYER
  2
63
 70
     0
 62
     7
  6
CONTINUOUS
  0
LAYER
  2
64
 70
     0
 62
     7
  6
CONTINUOUS
  0
LAYER
  2
65
 70
     0
 62
     7
  6
CONTINUOUS
  0
LAYER
  2
66
 70
     0
 62
     7
  6
CONTINUOUS
  0
LAYER
  2
67
 70
     0
 62
     7
  6
CONTINUOUS
  0
LAYER
  2
68
 70
     0
 62
     7
  6
CONTINUOUS
  0
LAYER
  2
69
 70
     0
 62
     7
  6
CONTINUOUS
  0
LAYER
  2
70
 70
     0
 62
     7
  6
CONTINUOUS
  0
LAYER
  2
71
 70
     0
 62
     7
  6
CONTINUOUS
  0
LAYER
  2
72
 70
     0
 62
     7
  6
CONTINUOUS
  0
LAYER
  2
73
 70
     0
 62
     7
  6
CONTINUOUS
  0
LAYER
  2
74
 70
     0
 62
     7
  6
CONTINUOUS
  0
LAYER
  2
75
 70
     0
 62
     7
  6
CONTINUOUS
  0
LAYER
  2
76
 70
     0
 62
     7
  6
CONTINUOUS
  0
LAYER
  2
77
 70
     0
 62
     7
  6
CONTINUOUS
  0
LAYER
  2
78
 70
     0
 62
     7
  6
CONTINUOUS
  0
LAYER
  2
79
 70
     0
 62
     7
  6
CONTINUOUS
  0
LAYER
  2
80
 70
     0
 62
     7
  6
CONTINUOUS
  0
LAYER
  2
81
 70
     0
 62
     7
  6
CONTINUOUS
  0
LAYER
  2
82
 70
     0
 62
     7
  6
CONTINUOUS
  0
LAYER
  2
83
 70
     0
 62
     7
  6
CONTINUOUS
  0
LAYER
  2
84
 70
     0
 62
     7
  6
CONTINUOUS
  0
LAYER
  2
85
 70
     0
 62
     7
  6
CONTINUOUS
  0
LAYER
  2
86
 70
     0
 62
     7
  6
CONTINUOUS
  0
LAYER
  2
87
 70
     0
 62
     7
  6
CONTINUOUS
  0
LAYER
  2
88
 70
     0
 62
     7
  6
CONTINUOUS
  0
LAYER
  2
89
 70
     0
 62
     7
  6
CONTINUOUS
  0
LAYER
  2
90
 70
     0
 62
     7
  6
CONTINUOUS
  0
LAYER
  2
91
 70
     0
 62
     7
  6
CONTINUOUS
  0
LAYER
  2
92
 70
     0
 62
     7
  6
CONTINUOUS
  0
LAYER
  2
93
 70
     0
 62
     7
  6
CONTINUOUS
  0
LAYER
  2
94
 70
     0
 62
     7
  6
CONTINUOUS
  0
LAYER
  2
95
 70
     0
 62
     7
  6
CONTINUOUS
  0
LAYER
  2
96
 70
     0
 62
     7
  6
CONTINUOUS
  0
LAYER
  2
97
 70
     0
 62
     7
  6
CONTINUOUS
  0
LAYER
  2
98
 70
     0
 62
     7
  6
CONTINUOUS
  0
LAYER
  2
99
 70
     0
 62
     7
  6
CONTINUOUS
  0
LAYER
  2
100
 70
     0
 62
     7
  6
CONTINUOUS
  0
LAYER
  2
101
 70
     0
 62
     7
  6
CONTINUOUS
  0
LAYER
  2
102
 70
     0
 62
     7
  6
CONTINUOUS
  0
LAYER
  2
103
 70
     0
 62
     7
  6
CONTINUOUS
  0
LAYER
  2
104
 70
     0
 62
     7
  6
CONTINUOUS
  0
LAYER
  2
105
 70
     0
 62
     7
  6
CONTINUOUS
  0
LAYER
  2
106
 70
     0
 62
     7
  6
CONTINUOUS
  0
LAYER
  2
107
 70
     0
 62
     7
  6
CONTINUOUS
  0
LAYER
  2
108
 70
     0
 62
     7
  6
CONTINUOUS
  0
LAYER
  2
109
 70
     0
 62
     7
  6
CONTINUOUS
  0
LAYER
  2
110
 70
     0
 62
     7
  6
CONTINUOUS
  0
LAYER
  2
111
 70
     0
 62
     7
  6
CONTINUOUS
  0
LAYER
  2
112
 70
     0
 62
     7
  6
CONTINUOUS
  0
LAYER
  2
113
 70
     0
 62
     7
  6
CONTINUOUS
  0
LAYER
  2
114
 70
     0
 62
     7
  6
CONTINUOUS
  0
LAYER
  2
115
 70
     0
 62
     7
  6
CONTINUOUS
  0
LAYER
  2
116
 70
     0
 62
     7
  6
CONTINUOUS
  0
LAYER
  2
117
 70
     0
 62
     7
  6
CONTINUOUS
  0
LAYER
  2
118
 70
     0
 62
     7
  6
CONTINUOUS
  0
LAYER
  2
119
 70
     0
 62
     7
  6
CONTINUOUS
  0
LAYER
  2
120
 70
     0
 62
     7
  6
CONTINUOUS
  0
LAYER
  2
121
 70
     0
 62
     7
  6
CONTINUOUS
  0
LAYER
  2
122
 70
     0
 62
     7
  6
CONTINUOUS
  0
LAYER
  2
123
 70
     0
 62
     7
  6
CONTINUOUS
  0
LAYER
  2
124
 70
     0
 62
     7
  6
CONTINUOUS
  0
LAYER
  2
125
 70
     0
 62
     7
  6
CONTINUOUS
  0
LAYER
  2
126
 70
     0
 62
     7
  6
CONTINUOUS
  0
LAYER
  2
127
 70
     0
 62
     7
  6
CONTINUOUS
  0
LAYER
  2
128
 70
     0
 62
     7
  6
CONTINUOUS
  0
ENDTAB
  0
TABLE
  2
STYLE
 70
    55
  0
STYLE
  2
STANDARD
 70
     0
 40
0.0
 41
1.0
 50
0.0
 71
     0
 42
0.2
  3
txt
  4

  0
STYLE
  2
KANJI0
 70
     0
 40
18.0
 41
0.9
 50
0.0
 71
     0
 42
18.0
  3

  4
bigfont
  0
STYLE
  2
KANJI1
 70
     0
 40
12.0
 41
0.9
 50
0.0
 71
     0
 42
12.0
  3

  4
bigfont
  0
STYLE
  2
KANJI2
 70
     0
 40
12.0
 41
0.9
 50
0.0
 71
     0
 42
12.0
  3

  4
bigfont
  0
STYLE
  2
KANJI3
 70
     0
 40
9.6
 41
0.777777778
 50
0.0
 71
     0
 42
9.6
  3

  4
bigfont
  0
STYLE
  2
KANJI4
 70
     0
 40
12.8
 41
0.9
 50
0.0
 71
     0
 42
12.8
  3

  4
bigfont
  0
STYLE
  2
KANJI5
 70
     0
 40
15.2
 41
0.9
 50
0.0
 71
     0
 42
15.2
  3

  4
bigfont
  0
STYLE
  2
KANJI6
 70
     0
 40
15.2
 41
0.9
 50
0.0
 71
     0
 42
15.2
  3

  4
bigfont
  0
STYLE
  2
KANJI7
 70
     0
 40
15.2
 41
0.9
 50
0.0
 71
     0
 42
15.2
  3

  4
bigfont
  0
STYLE
  2
KANJI8
 70
     0
 40
11.2
 41
0.8
 50
0.0
 71
     0
 42
11.2
  3

  4
bigfont
  0
STYLE
  2
KANJI9
 70
     0
 40
14.0
 41
0.9
 50
0.0
 71
     0
 42
14.0
  3

  4
bigfont
  0
STYLE
  2
KANJI10
 70
     0
 40
15.2
 41
0.9
 50
0.0
 71
     0
 42
15.2
  3

  4
bigfont
  0
STYLE
  2
KANJI11
 70
     0
 40
15.2
 41
0.9
 50
0.0
 71
     0
 42
15.2
  3

  4
bigfont
  0
STYLE
  2
KANJI12
 70
     0
 40
15.2
 41
0.9
 50
0.0
 71
     0
 42
15.2
  3

  4
bigfont
  0
STYLE
  2
KANJI13
 70
     0
 40
15.2
 41
0.9
 50
0.0
 71
     0
 42
15.2
  3

  4
bigfont
  0
STYLE
  2
KANJI14
 70
     0
 40
15.2
 41
0.9
 50
0.0
 71
     0
 42
15.2
  3

  4
bigfont
  0
STYLE
  2
KANJI15
 70
     0
 40
11.2
 41
0.9
 50
0.0
 71
     0
 42
11.2
  3

  4
bigfont
  0
STYLE
  2
KANJI16
 70
     0
 40
11.2
 41
0.785714286
 50
0.0
 71
     0
 42
11.2
  3

  4
bigfont
  0
STYLE
  2
KANJI17
 70
     0
 40
15.2
 41
0.9
 50
0.0
 71
     0
 42
15.2
  3

  4
bigfont
  0
STYLE
  2
KANJI18
 70
     0
 40
12.0
 41
0.9
 50
0.0
 71
     0
 42
12.0
  3

  4
bigfont
  0
STYLE
  2
KANJI19
 70
     0
 40
14.0
 41
0.9
 50
0.0
 71
     0
 42
14.0
  3

  4
bigfont
  0
STYLE
  2
KANJI20
 70
     0
 40
15.0
 41
0.9
 50
0.0
 71
     0
 42
15.0
  3

  4
bigfont
  0
STYLE
  2
KANJI21
 70
     0
 40
9.0
 41
0.9
 50
0.0
 71
     0
 42
9.0
  3

  4
bigfont
  0
STYLE
  2
KANJI22
 70
     0
 40
20.0
 41
0.9
 50
0.0
 71
     0
 42
20.0
  3

  4
bigfont
  0
STYLE
  2
KANJI23
 70
     0
 40
12.0
 41
0.9
 50
0.0
 71
     0
 42
12.0
  3

  4
bigfont
  0
STYLE
  2
KANJI24
 70
     0
 40
80.0
 41
0.9
 50
0.0
 71
     0
 42
80.0
  3

  4
bigfont
  0
STYLE
  2
KANJI25
 70
     0
 40
72.0
 41
0.857142857
 50
0.0
 71
     0
 42
72.0
  3

  4
bigfont
  0
STYLE
  2
KANJI26
 70
     0
 40
72.0
 41
0.857222222
 50
0.0
 71
     0
 42
72.0
  3

  4
bigfont
  0
STYLE
  2
KANJI27
 70
     0
 40
110.0
 41
0.9
 50
0.0
 71
     0
 42
110.0
  3

  4
bigfont
  0
STYLE
  2
KANJI28
 70
     0
 40
100.0
 41
0.9
 50
0.0
 71
     0
 42
100.0
  3

  4
bigfont
  0
STYLE
  2
KANJI29
 70
     0
 40
64.0
 41
0.9
 50
0.0
 71
     0
 42
64.0
  3

  4
bigfont
  0
STYLE
  2
KANJI30
 70
     0
 40
16.0
 41
0.9
 50
0.0
 71
     0
 42
16.0
  3

  4
bigfont
  0
STYLE
  2
KANJI31
 70
     0
 40
12.0
 41
0.833333333
 50
0.0
 71
     0
 42
12.0
  3

  4
bigfont
  0
STYLE
  2
KANJI32
 70
     0
 40
7.999998318
 41
0.6
 50
0.0
 71
     0
 42
7.999998318
  3

  4
bigfont
  0
STYLE
  2
KANJI33
 70
     0
 40
9.599997982
 41
0.9
 50
0.0
 71
     0
 42
9.599997982
  3

  4
bigfont
  0
STYLE
  2
KANJI34
 70
     0
 40
11.999997477
 41
0.9
 50
0.0
 71
     0
 42
11.999997477
  3

  4
bigfont
  0
STYLE
  2
KANJI35
 70
     0
 40
10.3999992
 41
0.75
 50
0.0
 71
     0
 42
10.3999992
  3

  4
bigfont
  0
STYLE
  2
KANJI36
 70
     0
 40
6.9333328
 41
0.6
 50
0.0
 71
     0
 42
6.9333328
  3

  4
bigfont
  0
STYLE
  2
KANJI37
 70
     0
 40
8.31999936
 41
0.6
 50
0.0
 71
     0
 42
8.31999936
  3

  4
bigfont
  0
STYLE
  2
KANJI38
 70
     0
 40
6.9333328
 41
0.8
 50
0.0
 71
     0
 42
6.9333328
  3

  4
bigfont
  0
STYLE
  2
KANJI39
 70
     0
 40
8.31999936
 41
0.8
 50
0.0
 71
     0
 42
8.31999936
  3

  4
bigfont
  0
STYLE
  2
KANJI40
 70
     0
 40
34.666664
 41
0.9
 50
0.0
 71
     0
 42
34.666664
  3

  4
bigfont
  0
STYLE
  2
KANJI41
 70
     0
 40
12.1333324
 41
0.42031746
 50
0.0
 71
     0
 42
12.1333324
  3

  4
bigfont
  0
STYLE
  2
KANJI42
 70
     0
 40
20.7999984
 41
0.9
 50
0.0
 71
     0
 42
20.7999984
  3

  4
bigfont
  0
STYLE
  2
KANJI43
 70
     0
 40
14.4
 41
0.833333333
 50
0.0
 71
     0
 42
14.4
  3

  4
bigfont
  0
STYLE
  2
KANJI44
 70
     0
 40
12.0
 41
0.833333333
 50
0.0
 71
     0
 42
12.0
  3

  4
bigfont
  0
STYLE
  2
KANJI45
 70
     0
 40
18.0
 41
0.666666667
 50
0.0
 71
     0
 42
18.0
  3

  4
bigfont
  0
STYLE
  2
KANJI46
 70
     0
 40
12.8
 41
0.9
 50
0.0
 71
     0
 42
12.8
  3

  4
bigfont
  0
STYLE
  2
KANJI47
 70
     0
 40
14.4
 41
0.857142857
 50
0.0
 71
     0
 42
14.4
  3

  4
bigfont
  0
STYLE
  2
KANJI48
 70
     0
 40
14.4
 41
0.857222222
 50
0.0
 71
     0
 42
14.4
  3

  4
bigfont
  0
STYLE
  2
KANJI49
 70
     0
 40
14.0
 41
0.771428571
 50
0.0
 71
     0
 42
14.0
  3

  4
bigfont
  0
STYLE
  2
KANJI50
 70
     0
 40
14.0
 41
0.571428571
 50
0.0
 71
     0
 42
14.0
  3

  4
bigfont
  0
STYLE
  2
KANJI51
 70
     0
 40
20.0
 41
0.8
 50
0.0
 71
     0
 42
20.0
  3

  4
bigfont
  0
STYLE
  2
KANJI52
 70
     0
 40
5.656854249
 41
1.0
 50
0.0
 71
     0
 42
5.656854249
  3

  4
bigfont
  0
STYLE
  2
KANJI53
 70
     0
 40
12.0
 41
0.766666667
 50
0.0
 71
     0
 42
12.0
  3

  4
bigfont
  0
ENDTAB
  0
TABLE
  2
VIEW
 70
     0
  0
ENDTAB
  0
ENDSEC
  0
SECTION
  2
BLOCKS
  0
ENDSEC
  0
SECTION
  2
ENTITIES
  0
LINE
  8
0
  6
CONTINUOUS
 62
     1
 10
1270.0
 20
1058.0
 11
1620.0
 21
1058.0
  0
LINE
  8
0
  6
CONTINUOUS
 62
     1
 10
320.0
 20
360.0
 11
940.0
 21
360.0
  0
LINE
  8
0
  6
CONTINUOUS
 62
     1
 10
320.0
 20
332.0
 11
940.0
 21
332.0
  0
LINE
  8
0
  6
CONTINUOUS
 62
     1
 10
940.0
 20
360.0
 11
940.0
 21
164.0
  0
LINE
  8
0
  6
CONTINUOUS
 62
     1
 10
320.0
 20
164.0
 11
940.0
 21
164.0
  0
LINE
  8
0
  6
CONTINUOUS
 62
     1
 10
320.0
 20
360.0
 11
320.0
 21
164.0
  0
LINE
  8
0
  6
CONTINUOUS
 62
     1
 10
460.0
 20
360.0
 11
460.0
 21
164.0
  0
LINE
  8
0
  6
CONTINUOUS
 62
     1
 10
1270.0
 20
570.0
 11
1620.0
 21
570.0
  0
LINE
  8
0
  6
CONTINUOUS
 62
     1
 10
1270.0
 20
1058.0
 11
1270.0
 21
570.0
  0
TEXT
  8
0
  6
CONTINUOUS
 62
     2
 10
1320.0
 20
1028.8
 30
11.39976
 40
18.0
  1
マイティシリンダ仕様
 50
0.0
 41
0.9
 51
0.0
  7
KANJI0
  0
LINE
  8
0
  6
CONTINUOUS
 62
     2
 10
1270.0
 20
626.0
 11
1620.0
 21
626.0
  0
LINE
  8
0
  6
CONTINUOUS
 62
     2
 10
1270.0
 20
850.0
 11
1620.0
 21
850.0
  0
LINE
  8
0
  6
CONTINUOUS
 62
     2
 10
1270.0
 20
822.0
 11
1620.0
 21
822.0
  0
LINE
  8
0
  6
CONTINUOUS
 62
     2
 10
1270.0
 20
794.0
 11
1620.0
 21
794.0
  0
LINE
  8
0
  6
CONTINUOUS
 62
     2
 10
1270.0
 20
990.0
 11
1620.0
 21
990.0
  0
LINE
  8
0
  6
CONTINUOUS
 62
     2
 10
1270.0
 20
962.0
 11
1620.0
 21
962.0
  0
LINE
  8
0
  6
CONTINUOUS
 62
     2
 10
1270.0
 20
934.0
 11
1620.0
 21
934.0
  0
LINE
  8
0
  6
CONTINUOUS
 62
     2
 10
1270.0
 20
906.0
 11
1620.0
 21
906.0
  0
LINE
  8
0
  6
CONTINUOUS
 62
     2
 10
1270.0
 20
878.0
 11
1620.0
 21
878.0
  0
LINE
  8
0
  6
CONTINUOUS
 62
     2
 10
1270.0
 20
1018.0
 11
1620.0
 21
1018.0
  0
LINE
  8
0
  6
CONTINUOUS
 62
     2
 10
540.0
 20
360.0
 11
540.0
 21
164.0
  0
LINE
  8
0
  6
CONTINUOUS
 62
     2
 10
620.0
 20
360.0
 11
620.0
 21
164.0
  0
LINE
  8
0
  6
CONTINUOUS
 62
     2
 10
700.0
 20
360.0
 11
700.0
 21
164.0
  0
LINE
  8
0
  6
CONTINUOUS
 62
     2
 10
780.0
 20
360.0
 11
780.0
 21
164.0
  0
LINE
  8
0
  6
CONTINUOUS
 62
     2
 10
860.0
 20
360.0
 11
860.0
 21
164.0
  0
LINE
  8
0
  6
CONTINUOUS
 62
     2
 10
320.0
 20
192.0
 11
940.0
 21
192.0
  0
LINE
  8
0
  6
CONTINUOUS
 62
     2
 10
320.0
 20
304.0
 11
940.0
 21
304.0
  0
LINE
  8
0
  6
CONTINUOUS
 62
     2
 10
320.0
 20
276.0
 11
940.0
 21
276.0
  0
LINE
  8
0
  6
CONTINUOUS
 62
     2
 10
320.0
 20
248.0
 11
940.0
 21
248.0
  0
LINE
  8
0
  6
CONTINUOUS
 62
     2
 10
320.0
 20
220.0
 11
940.0
 21
220.0
  0
TEXT
  8
0
  6
CONTINUOUS
 62
     2
 10
470.4
 20
340.0
 30
1.2
 40
12.0
  1
ストローク
 50
0.0
 41
0.9
 51
0.0
  7
KANJI1
  0
TEXT
  8
0
  6
CONTINUOUS
 62
     2
 10
547.2
 20
339.2
 30
0.0
 40
12.0
  1
ｍｉｎ　
 50
0.0
 41
0.9
 51
0.0
  7
KANJI2
  0
TEXT
  8
0
  6
CONTINUOUS
 62
     2
 10
627.2
 20
339.2
 30
0.0
 40
12.0
  1
ｍｉｎ　
 50
0.0
 41
0.9
 51
0.0
  7
KANJI2
  0
TEXT
  8
0
  6
CONTINUOUS
 62
     2
 10
787.2
 20
339.2
 30
0.0
 40
12.0
  1
ｍｉｎ　
 50
0.0
 41
0.9
 51
0.0
  7
KANJI2
  0
TEXT
  8
0
  6
CONTINUOUS
 62
     2
 10
911.5
 20
340.9
 30
0.0
 40
9.6
  1
（ｋｇ）
 50
0.0
 41
0.777777778
 51
0.0
  7
KANJI3
  0
TEXT
  8
0
  6
CONTINUOUS
 62
     2
 10
863.5
 20
339.5
 30
1.28
 40
12.8
  1
概算重量
 50
0.0
 41
0.9
 51
0.0
  7
KANJI4
  0
TEXT
  8
0
  6
CONTINUOUS
 62
     2
 10
348.0
 20
340.0
 30
1.28
 40
12.8
  1
形
 50
0.0
 41
0.9
 51
0.0
  7
KANJI4
  0
TEXT
  8
0
  6
CONTINUOUS
 62
     2
 10
426.0
 20
340.0
 30
1.28
 40
12.8
  1
式
 50
0.0
 41
0.9
 51
0.0
  7
KANJI4
  0
TEXT
  8
0
  6
CONTINUOUS
 62
     2
 10
1300.0
 20
997.2
 30
120.297142857
 40
15.2
  1
形式
 50
0.0
 41
0.9
 51
0.0
  7
KANJI5
  0
TEXT
  8
0
  6
CONTINUOUS
 62
     2
 10
1300.0
 20
969.2
 30
120.297142857
 40
15.2
  1
推力
 50
0.0
 41
0.9
 51
0.0
  7
KANJI5
  0
TEXT
  8
0
  6
CONTINUOUS
 62
     2
 10
1300.0
 20
941.2
 30
19.814285714
 40
15.2
  1
ストローク
 50
0.0
 41
0.9
 51
0.0
  7
KANJI6
  0
TEXT
  8
0
  6
CONTINUOUS
 62
     2
 10
1300.0
 20
913.2
 30
30.978902857
 40
15.2
  1
公称速度
 50
0.0
 41
0.9
 51
0.0
  7
KANJI7
  0
TEXT
  8
0
  6
CONTINUOUS
 62
     2
 10
1595.4
 20
969.6
 30
0.0896
 40
11.2
  1
ｋｇ
 50
0.0
 41
0.8
 51
0.0
  7
KANJI8
  0
TEXT
  8
0
  6
CONTINUOUS
 62
     2
 10
1595.4
 20
942.8
 30
0.0896
 40
11.2
  1
ｍｍ
 50
0.0
 41
0.8
 51
0.0
  7
KANJI8
  0
TEXT
  8
0
  6
CONTINUOUS
 62
     2
 10
1565.4
 20
916.0
 30
0.0896
 40
11.2
  1
ｍｍ／ｓｅｃ
 50
0.0
 41
0.8
 51
0.0
  7
KANJI8
  0
TEXT
  8
0
  6
CONTINUOUS
 62
     2
 10
588.0
 20
340.0
 30
1.4
 40
14.0
  1
ＡＬ
 50
0.0
 41
0.9
 51
0.0
  7
KANJI9
  0
TEXT
  8
0
  6
CONTINUOUS
 62
     2
 10
668.0
 20
340.0
 30
1.4
 40
14.0
  1
Ｌ
 50
0.0
 41
0.9
 51
0.0
  7
KANJI9
  0
TEXT
  8
0
  6
CONTINUOUS
 62
     2
 10
736.0
 20
340.0
 30
1.4
 40
14.0
  1
Ｃ
 50
0.0
 41
0.9
 51
0.0
  7
KANJI9
  0
TEXT
  8
0
  6
CONTINUOUS
 62
     2
 10
828.0
 20
340.0
 30
1.4
 40
14.0
  1
Ｐ
 50
0.0
 41
0.9
 51
0.0
  7
KANJI9
  0
LINE
  8
0
  6
CONTINUOUS
 62
     2
 10
1270.0
 20
766.0
 11
1620.0
 21
766.0
  0
LINE
  8
0
  6
CONTINUOUS
 62
     2
 10
1270.0
 20
738.0
 11
1620.0
 21
738.0
  0
LINE
  8
0
  6
CONTINUOUS
 62
     2
 10
1270.0
 20
710.0
 11
1620.0
 21
710.0
  0
LINE
  8
0
  6
CONTINUOUS
 62
     2
 10
1270.0
 20
682.0
 11
1620.0
 21
682.0
  0
LINE
  8
0
  6
CONTINUOUS
 62
     2
 10
1270.0
 20
654.0
 11
1620.0
 21
654.0
  0
TEXT
  8
0
  6
CONTINUOUS
 62
     2
 10
1288.0
 20
773.2
 30
1.302857143
 40
15.2
  1
ピストンロッド回転トルク
 50
0.0
 41
0.9
 51
0.0
  7
KANJI10
  0
TEXT
  8
0
  6
CONTINUOUS
 62
     2
 10
1300.0
 20
745.2
 30
120.297142857
 40
15.2
  1
構造
 50
0.0
 41
0.9
 51
0.0
  7
KANJI5
  0
TEXT
  8
0
  6
CONTINUOUS
 62
     2
 10
1589.0
 20
775.2
 30
0.0896
 40
11.2
  1
ｋｇｍ
 50
0.0
 41
0.8
 51
0.0
  7
KANJI8
  0
TEXT
  8
0
  6
CONTINUOUS
 62
     2
 10
1300.0
 20
885.2
 30
53.308571429
 40
15.2
  1
減速比
 50
0.0
 41
0.9
 51
0.0
  7
KANJI11
  0
TEXT
  8
0
  6
CONTINUOUS
 62
     2
 10
1300.0
 20
857.2
 30
3.4
 40
15.2
  1
進み量／入力１回転
 50
0.0
 41
0.9
 51
0.0
  7
KANJI12
  0
TEXT
  8
0
  6
CONTINUOUS
 62
     2
 10
1300.0
 20
828.8
 30
120.297142857
 40
15.2
  1
効率
 50
0.0
 41
0.9
 51
0.0
  7
KANJI5
  0
TEXT
  8
0
  6
CONTINUOUS
 62
     2
 10
1300.0
 20
801.6
 30
5.8
 40
15.2
  1
使用時入力トルク
 50
0.0
 41
0.9
 51
0.0
  7
KANJI13
  0
TEXT
  8
0
  6
CONTINUOUS
 62
     2
 10
1300.0
 20
717.2
 30
30.98
 40
15.2
  1
ギヤ方式
 50
0.0
 41
0.9
 51
0.0
  7
KANJI14
  0
LINE
  8
0
  6
CONTINUOUS
 62
     2
 10
1270.0
 20
598.0
 11
1620.0
 21
598.0
  0
LINE
  8
0
  6
CONTINUOUS
 62
     2
 10
1470.0
 20
1018.0
 11
1470.0
 21
570.0
  0
TEXT
  8
0
  6
CONTINUOUS
 62
     2
 10
1477.2
 20
634.4
 30
0.4
 40
11.2
  1
マンセル
 50
0.0
 41
0.9
 51
0.0
  7
KANJI15
  0
TEXT
  8
0
  6
CONTINUOUS
 62
     2
 10
1300.0
 20
633.2
 30
53.308571429
 40
15.2
  1
塗装色
 50
0.0
 41
0.9
 51
0.0
  7
KANJI11
  0
TEXT
  8
0
  6
CONTINUOUS
 62
     2
 10
1300.0
 20
605.2
 30
53.308571429
 40
15.2
  1
付属品
 50
0.0
 41
0.9
 51
0.0
  7
KANJI11
  0
TEXT
  8
0
  6
CONTINUOUS
 62
     2
 10
1300.0
 20
577.2
 30
120.297142857
 40
15.2
  1
台数
 50
0.0
 41
0.9
 51
0.0
  7
KANJI5
  0
TEXT
  8
0
  6
CONTINUOUS
 62
     2
 10
1300.0
 20
661.2
 30
120.297142857
 40
15.2
  1
潤滑
 50
0.0
 41
0.9
 51
0.0
  7
KANJI5
  0
TEXT
  8
0
  6
CONTINUOUS
 62
     2
 10
1524.0
 20
635.2
 30
0.16
 40
11.2
  1
７．５ＧＹ５／４．５
 50
0.0
 41
0.785714286
 51
0.0
  7
KANJI16
  0
TEXT
  8
0
  6
CONTINUOUS
 62
     2
 10
1300.0
 20
689.2
 30
8.7068
 40
15.2
  1
スクリュー方式
 50
0.0
 41
0.9
 51
0.0
  7
KANJI17
  0
TEXT
  8
0
  6
CONTINUOUS
 62
     2
 10
1540.8
 20
830.0
 30
8.0
 40
12.0
  1
８５
 50
0.0
 41
0.9
 51
0.0
  7
KANJI18
  0
TEXT
  8
0
  6
CONTINUOUS
 62
     2
 10
1595.4
 20
858.8
 30
0.0896
 40
11.2
  1
ｍｍ
 50
0.0
 41
0.8
 51
0.0
  7
KANJI8
  0
TEXT
  8
0
  6
CONTINUOUS
 62
     2
 10
1589.0
 20
803.2
 30
0.0896
 40
11.2
  1
ｋｇｍ
 50
0.0
 41
0.8
 51
0.0
  7
KANJI8
  0
TEXT
  8
0
  6
CONTINUOUS
 62
     2
 10
1481.6
 20
830.0
 30
8.0
 40
12.0
  1
約
 50
0.0
 41
0.9
 51
0.0
  7
KANJI18
  0
TEXT
  8
0
  6
CONTINUOUS
 62
     2
 10
1481.6
 20
802.0
 30
8.0
 40
12.0
  1
約
 50
0.0
 41
0.9
 51
0.0
  7
KANJI18
  0
TEXT
  8
0
  6
CONTINUOUS
 62
     2
 10
1481.6
 20
774.0
 30
8.0
 40
12.0
  1
約
 50
0.0
 41
0.9
 51
0.0
  7
KANJI18
  0
TEXT
  8
0
  6
CONTINUOUS
 62
     2
 10
1600.0
 20
829.6
 30
8.0
 40
12.0
  1
％
 50
0.0
 41
0.9
 51
0.0
  7
KANJI18
  0
TEXT
  8
0
  6
CONTINUOUS
 62
     2
 10
1499.6
 20
719.2
 30
8.0
 40
12.0
  1
ベベルギヤ
 50
0.0
 41
0.9
 51
0.0
  7
KANJI18
  0
TEXT
  8
0
  6
CONTINUOUS
 62
     2
 10
1499.6
 20
690.4
 30
8.0
 40
12.0
  1
ボールネジ
 50
0.0
 41
0.9
 51
0.0
  7
KANJI18
  0
TEXT
  8
0
  6
CONTINUOUS
 62
     2
 10
1499.2
 20
662.4
 30
8.0
 40
12.0
  1
グリース方式
 50
0.0
 41
0.9
 51
0.0
  7
KANJI18
  0
TEXT
  8
0
  6
CONTINUOUS
 62
     2
 10
1499.2
 20
606.4
 30
1.2
 40
12.0
  1
入力キー
 50
0.0
 41
0.9
 51
0.0
  7
KANJI1
  0
TEXT
  8
0
  6
CONTINUOUS
 62
     2
 10
1548.0
 20
605.2
 30
1.2
 40
12.0
  1
、コラム
 50
0.0
 41
0.9
 51
0.0
  7
KANJI1
  0
TEXT
  8
0
  6
CONTINUOUS
 62
     2
 10
1532.0
 20
969.2
 30
1.2
 40
12.0
  1
１０００
 50
0.0
 41
0.9
 51
0.0
  7
KANJI1
  0
TEXT
  8
0
  6
CONTINUOUS
 62
     2
 10
1526.4
 20
885.6
 30
1.2
 40
12.0
  1
１　：　１
 50
0.0
 41
0.9
 51
0.0
  7
KANJI1
  0
TEXT
  8
0
  6
CONTINUOUS
 62
     2
 10
1544.4
 20
858.0
 30
8.0
 40
12.0
  1
５
 50
0.0
 41
0.9
 51
0.0
  7
KANJI18
  0
TEXT
  8
0
  6
CONTINUOUS
 62
     2
 10
1530.9
 20
773.1
 30
1.2
 40
12.0
  1
０．９５
 50
0.0
 41
0.9
 51
0.0
  7
KANJI1
  0
TEXT
  8
0
  6
CONTINUOUS
 62
     2
 10
1499.6
 20
745.6
 30
10.25
 40
14.0
  1
全閉屋外形
 50
0.0
 41
0.9
 51
0.0
  7
KANJI19
  0
LINE
  8
0
  6
CONTINUOUS
 62
     1
 10
747.5
 20
1006.0
 11
772.5
 21
1006.0
  0
ARC
  8
0
  6
CONTINUOUS
 62
     1
 10
760.0
 20
982.5
 40
38.5
 50
108.945905799
 51
0.0
  0
ARC
  8
0
  6
CONTINUOUS
 62
     1
 10
760.0
 20
982.5
 40
38.5
 50
0.0
 51
71.054094201
  0
LINE
  8
0
  6
CONTINUOUS
 62
     1
 10
747.5
 20
1006.0
 11
747.5
 21
1031.0
  0
LINE
  8
0
  6
CONTINUOUS
 62
     1
 10
747.5
 20
1031.0
 11
772.5
 21
1031.0
  0
LINE
  8
0
  6
CONTINUOUS
 62
     1
 10
772.5
 20
1006.0
 11
772.5
 21
1031.0
  0
LINE
  8
0
  6
LTYPE1
 62
     2
 10
710.0
 20
982.5
 11
813.5
 21
982.5
  0
LINE
  8
0
  6
LTYPE1
 62
     2
 10
760.0
 20
930.25
 11
760.0
 21
1034.75
  0
ARC
  8
0
  6
CONTINUOUS
 62
     2
 10
760.0
 20
982.5
 40
38.5
 50
71.054094201
 51
108.945905799
  0
LINE
  8
0
  6
CONTINUOUS
 62
     2
 10
747.5
 20
1031.0
 11
747.5
 21
1074.0
  0
LINE
  8
0
  6
CONTINUOUS
 62
     2
 10
747.5
 20
1066.5
 11
735.425927171
 21
1069.735238064
  0
LINE
  8
0
  6
CONTINUOUS
 62
     2
 10
747.5
 20
1066.5
 11
735.425927171
 21
1063.264761936
  0
LINE
  8
0
  6
CONTINUOUS
 62
     2
 10
722.5
 20
1066.5
 11
797.5
 21
1066.5
  0
LINE
  8
0
  6
CONTINUOUS
 62
     2
 10
772.5
 20
1066.5
 11
784.574072829
 21
1063.264761936
  0
LINE
  8
0
  6
CONTINUOUS
 62
     2
 10
772.5
 20
1066.5
 11
784.574072829
 21
1069.735238064
  0
LINE
  8
0
  6
CONTINUOUS
 62
     2
 10
772.5
 20
1031.0
 11
772.5
 21
1074.0
  0
TEXT
  8
0
  6
CONTINUOUS
 62
     2
 10
753.25
 20
1071.5
 30
0.5
 40
15.0
  1
５
 50
0.0
 41
0.9
 51
0.0
  7
KANJI20
  0
LINE
  8
0
  6
CONTINUOUS
 62
     2
 10
747.5
 20
1031.0
 11
693.0
 21
1031.0
  0
LINE
  8
0
  6
CONTINUOUS
 62
     2
 10
700.5
 20
1031.0
 11
703.735238064
 21
1043.074072829
  0
LINE
  8
0
  6
CONTINUOUS
 62
     2
 10
700.5
 20
1031.0
 11
697.264761936
 21
1043.074072829
  0
LINE
  8
0
  6
CONTINUOUS
 62
     2
 10
700.5
 20
1056.0
 11
700.5
 21
981.0
  0
LINE
  8
0
  6
CONTINUOUS
 62
     2
 10
700.5
 20
1006.0
 11
697.264761936
 21
993.925927171
  0
LINE
  8
0
  6
CONTINUOUS
 62
     2
 10
700.5
 20
1006.0
 11
703.735238064
 21
993.925927171
  0
LINE
  8
0
  6
CONTINUOUS
 62
     2
 10
747.5
 20
1006.0
 11
693.0
 21
1006.0
  0
TEXT
  8
0
  6
CONTINUOUS
 62
     2
 10
695.5
 20
1013.75
 30
0.5
 40
15.0
  1
５
 50
90.0
 41
0.9
 51
0.0
  7
KANJI20
  0
LINE
  8
0
  6
CONTINUOUS
 62
     2
 10
760.0
 20
1021.0
 11
846.0
 21
1021.0
  0
LINE
  8
0
  6
CONTINUOUS
 62
     2
 10
838.5
 20
1021.0
 11
841.735238064
 21
1033.074072829
  0
LINE
  8
0
  6
CONTINUOUS
 62
     2
 10
838.5
 20
1021.0
 11
835.264761936
 21
1033.074072829
  0
LINE
  8
0
  6
CONTINUOUS
 62
     2
 10
838.5
 20
1006.0
 11
835.264761936
 21
993.925927171
  0
LINE
  8
0
  6
CONTINUOUS
 62
     2
 10
838.5
 20
1006.0
 11
841.735238064
 21
993.925927171
  0
LINE
  8
0
  6
CONTINUOUS
 62
     2
 10
772.5
 20
1006.0
 11
846.0
 21
1006.0
  0
TEXT
  8
0
  6
CONTINUOUS
 62
     2
 10
833.5
 20
1046.0
 30
0.5
 40
15.0
  1
３　　
 50
90.0
 41
0.9
 51
0.0
  7
KANJI20
  0
TEXT
  8
0
  6
CONTINUOUS
 62
     2
 10
832.5
 20
1059.5
 30
0.3
 40
9.0
  1
－０
 50
90.0
 41
0.9
 51
0.0
  7
KANJI21
  0
TEXT
  8
0
  6
CONTINUOUS
 62
     2
 10
823.5
 20
1059.5
 30
0.3
 40
9.0
  1
＋０．１
 50
90.0
 41
0.9
 51
0.0
  7
KANJI21
  0
LINE
  8
0
  6
CONTINUOUS
 62
     2
 10
838.5
 20
1092.0
 11
838.5
 21
981.0
  0
TEXT
  8
0
  6
CONTINUOUS
 62
     2
 10
705.5
 20
905.8
 30
2.0
 40
20.0
  1
入力シャフト
 50
0.0
 41
0.9
 51
0.0
  7
KANJI22
  0
LINE
  8
0
  6
CONTINUOUS
 62
     2
 10
700.3
 20
899.7
 11
821.3
 21
899.7
  0
CIRCLE
  8
0
  6
CONTINUOUS
 62
     1
 10
228.0
 20
952.5
 40
7.5
  0
CIRCLE
  8
0
  6
CONTINUOUS
 62
     1
 10
228.0
 20
952.5
 40
8.5
  0
CIRCLE
  8
0
  6
CONTINUOUS
 62
     1
 10
228.0
 20
952.5
 40
47.5
  0
LINE
  8
0
  6
CONTINUOUS
 62
     1
 10
173.0
 20
899.5
 11
302.0
 21
899.5
  0
LINE
  8
0
  6
CONTINUOUS
 62
     1
 10
173.0
 20
899.5
 11
173.0
 21
1005.5
  0
LINE
  8
0
  6
CONTINUOUS
 62
     1
 10
290.0
 20
899.5
 11
290.0
 21
1005.5
  0
LINE
  8
0
  6
CONTINUOUS
 62
     1
 10
173.0
 20
1005.5
 11
302.0
 21
1005.5
  0
LINE
  8
0
  6
CONTINUOUS
 62
     1
 10
302.0
 20
899.5
 11
302.0
 21
1005.5
  0
LINE
  8
0
  6
CONTINUOUS
 62
     1
 10
179.0
 20
899.5
 11
179.0
 21
1005.5
  0
LINE
  8
0
  6
CONTINUOUS
 62
     1
 10
290.0
 20
899.5
 11
302.0
 21
899.5
  0
LINE
  8
0
  6
CONTINUOUS
 62
     1
 10
290.0
 20
897.5
 11
290.0
 21
918.5
  0
LINE
  8
0
  6
CONTINUOUS
 62
     1
 10
302.0
 20
899.5
 11
302.0
 21
915.5
  0
ARC
  8
0
  6
CONTINUOUS
 62
     1
 10
305.0
 20
915.5
 40
3.0
 50
90.0
 51
180.0
  0
LINE
  8
0
  6
CONTINUOUS
 62
     1
 10
302.0
 20
907.5
 11
303.999999912
 21
909.499999912
  0
LINE
  8
0
  6
CONTINUOUS
 62
     1
 10
304.0
 20
907.5
 11
302.000000088
 21
905.500000088
  0
LINE
  8
0
  6
CONTINUOUS
 62
     1
 10
302.0
 20
915.2
 11
304.0
 21
915.2
  0
LINE
  8
0
  6
CONTINUOUS
 62
     1
 10
304.0
 20
907.5
 11
304.0
 21
915.2
  0
LINE
  8
0
  6
CONTINUOUS
 62
     1
 10
304.0
 20
907.5
 11
304.0
 21
899.8
  0
LINE
  8
0
  6
CONTINUOUS
 62
     1
 10
302.0
 20
899.8
 11
304.0
 21
899.8
  0
LINE
  8
0
  6
CONTINUOUS
 62
     1
 10
304.0
 20
914.0
 11
311.5
 21
914.0
  0
LINE
  8
0
  6
CONTINUOUS
 62
     1
 10
311.5
 20
914.0
 11
311.5
 21
907.5
  0
LINE
  8
0
  6
CONTINUOUS
 62
     1
 10
311.5
 20
914.0
 11
312.0
 21
913.133974596
  0
LINE
  8
0
  6
CONTINUOUS
 62
     1
 10
312.0
 20
913.133974596
 11
312.0
 21
907.5
  0
LINE
  8
0
  6
CONTINUOUS
 62
     1
 10
304.0
 20
901.0
 11
311.5
 21
901.0
  0
LINE
  8
0
  6
CONTINUOUS
 62
     1
 10
311.5
 20
901.0
 11
311.5
 21
907.5
  0
LINE
  8
0
  6
CONTINUOUS
 62
     1
 10
311.5
 20
901.0
 11
312.0
 21
901.866025404
  0
LINE
  8
0
  6
CONTINUOUS
 62
     1
 10
312.0
 20
901.866025404
 11
312.0
 21
907.5
  0
ARC
  8
0
  6
CONTINUOUS
 62
     1
 10
350.485281374
 20
917.5
 40
6.0
 50
225.0
 51
270.0
  0
LINE
  8
0
  6
CONTINUOUS
 62
     1
 10
342.757359313
 20
916.742640687
 11
346.242640687
 21
913.257359313
  0
ARC
  8
0
  6
CONTINUOUS
 62
     1
 10
338.514718626
 20
912.5
 40
6.0
 50
45.0
 51
90.0
  0
LINE
  8
0
  6
CONTINUOUS
 62
     1
 10
305.0
 20
918.5
 11
338.514718626
 21
918.5
  0
LINE
  8
0
  6
CONTINUOUS
 62
     1
 10
350.485281374
 20
911.5
 11
379.0
 21
911.5
  0
LINE
  8
0
  6
CONTINUOUS
 62
     1
 10
290.0
 20
1005.5
 11
302.0
 21
1005.5
  0
LINE
  8
0
  6
CONTINUOUS
 62
     1
 10
302.0
 20
1005.5
 11
302.0
 21
989.5
  0
ARC
  8
0
  6
CONTINUOUS
 62
     1
 10
305.0
 20
989.5
 40
3.0
 50
180.0
 51
270.0
  0
LINE
  8
0
  6
CONTINUOUS
 62
     1
 10
302.0
 20
997.5
 11
303.999999912
 21
995.500000088
  0
LINE
  8
0
  6
CONTINUOUS
 62
     1
 10
304.0
 20
997.5
 11
302.000000088
 21
999.499999912
  0
LINE
  8
0
  6
CONTINUOUS
 62
     1
 10
302.0
 20
989.8
 11
304.0
 21
989.8
  0
LINE
  8
0
  6
CONTINUOUS
 62
     1
 10
304.0
 20
997.5
 11
304.0
 21
989.8
  0
LINE
  8
0
  6
CONTINUOUS
 62
     1
 10
304.0
 20
997.5
 11
304.0
 21
1005.2
  0
LINE
  8
0
  6
CONTINUOUS
 62
     1
 10
302.0
 20
1005.2
 11
304.0
 21
1005.2
  0
LINE
  8
0
  6
CONTINUOUS
 62
     1
 10
304.0
 20
991.0
 11
311.5
 21
991.0
  0
LINE
  8
0
  6
CONTINUOUS
 62
     1
 10
311.5
 20
991.0
 11
311.5
 21
997.5
  0
LINE
  8
0
  6
CONTINUOUS
 62
     1
 10
311.5
 20
991.0
 11
312.0
 21
991.866025404
  0
LINE
  8
0
  6
CONTINUOUS
 62
     1
 10
312.0
 20
991.866025404
 11
312.0
 21
997.5
  0
LINE
  8
0
  6
CONTINUOUS
 62
     1
 10
304.0
 20
1004.0
 11
311.5
 21
1004.0
  0
LINE
  8
0
  6
CONTINUOUS
 62
     1
 10
311.5
 20
1004.0
 11
311.5
 21
997.5
  0
LINE
  8
0
  6
CONTINUOUS
 62
     1
 10
311.5
 20
1004.0
 11
312.0
 21
1003.133974596
  0
LINE
  8
0
  6
CONTINUOUS
 62
     1
 10
312.0
 20
1003.133974596
 11
312.0
 21
997.5
  0
ARC
  8
0
  6
CONTINUOUS
 62
     1
 10
350.485281374
 20
987.5
 40
6.0
 50
90.0
 51
135.0
  0
LINE
  8
0
  6
CONTINUOUS
 62
     1
 10
342.757359313
 20
988.257359313
 11
346.242640687
 21
991.742640687
  0
ARC
  8
0
  6
CONTINUOUS
 62
     1
 10
338.514718626
 20
992.5
 40
6.0
 50
270.0
 51
315.0
  0
LINE
  8
0
  6
CONTINUOUS
 62
     1
 10
305.0
 20
986.5
 11
338.514718626
 21
986.5
  0
LINE
  8
0
  6
CONTINUOUS
 62
     1
 10
350.485281374
 20
993.5
 11
379.0
 21
993.5
  0
LINE
  8
0
  6
CONTINUOUS
 62
     1
 10
290.0
 20
1007.5
 11
290.0
 21
986.5
  0
LINE
  8
0
  6
CONTINUOUS
 62
     1
 10
379.0
 20
911.5
 11
379.0
 21
952.5
  0
LINE
  8
0
  6
CONTINUOUS
 62
     1
 10
348.742640687
 20
911.757359313
 11
348.742640687
 21
992.757359313
  0
LINE
  8
0
  6
CONTINUOUS
 62
     1
 10
340.742640687
 20
987.257359313
 11
340.742640687
 21
917.757359313
  0
LINE
  8
0
  6
CONTINUOUS
 62
     1
 10
379.0
 20
993.5
 11
379.0
 21
952.5
  0
CIRCLE
  8
0
  6
CONTINUOUS
 62
     1
 10
269.742640687
 20
1022.5
 40
10.0
  0
ARC
  8
0
  6
CONTINUOUS
 62
     1
 10
269.742640687
 20
1022.5
 40
16.3
 50
300.657005437
 51
0.0
  0
ARC
  8
0
  6
CONTINUOUS
 62
     1
 10
278.541656378
 20
1007.59894233
 40
1.0
 50
122.005383208
 51
185.710593137
  0
LINE
  8
0
  6
CONTINUOUS
 62
     1
 10
277.252444609
 20
1010.5
 11
269.952444609
 21
1012.5
  0
LINE
  8
0
  6
CONTINUOUS
 62
     1
 10
277.742640687
 20
1005.5
 11
277.252444609
 21
1010.5
  0
LINE
  8
0
  6
CONTINUOUS
 62
     1
 10
269.742640687
 20
1010.5
 11
277.252444609
 21
1010.5
  0
LINE
  8
0
  6
CONTINUOUS
 62
     1
 10
269.742640687
 20
1005.5
 11
277.742640687
 21
1005.5
  0
ARC
  8
0
  6
CONTINUOUS
 62
     1
 10
260.943624996
 20
1007.59894233
 40
1.0
 50
354.289406863
 51
57.994616792
  0
LINE
  8
0
  6
CONTINUOUS
 62
     1
 10
262.232836766
 20
1010.5
 11
269.532836766
 21
1012.5
  0
LINE
  8
0
  6
CONTINUOUS
 62
     1
 10
261.742640687
 20
1005.5
 11
262.232836766
 21
1010.5
  0
LINE
  8
0
  6
CONTINUOUS
 62
     1
 10
269.742640687
 20
1010.5
 11
262.232836766
 21
1010.5
  0
LINE
  8
0
  6
CONTINUOUS
 62
     1
 10
269.742640687
 20
1005.5
 11
261.742640687
 21
1005.5
  0
ARC
  8
0
  6
CONTINUOUS
 62
     1
 10
269.742640687
 20
1022.5
 40
16.3
 50
0.0
 51
239.516495577
  0
CIRCLE
  8
0
  6
CONTINUOUS
 62
     1
 10
255.577164466
 20
980.077164466
 40
5.0
  0
CIRCLE
  8
0
  6
CONTINUOUS
 62
     1
 10
228.0
 20
952.5
 40
25.0
  0
LINE
  8
0
  6
LTYPE1
 62
     2
 10
140.0
 20
952.5
 11
465.0
 21
952.5
  0
LINE
  8
0
  6
LTYPE1
 62
     2
 10
228.0
 20
884.5
 11
228.0
 21
1019.0
  0
LINE
  8
0
  6
LTYPE1
 62
     2
 10
250.742640687
 20
1022.5
 11
289.742640687
 21
1022.5
  0
LINE
  8
0
  6
LTYPE1
 62
     2
 10
269.742640687
 20
1000.5
 11
269.742640687
 21
1044.0
  0
CIRCLE
  8
0
  6
LTYPE1
 62
     2
 10
228.0
 20
952.5
 40
39.0
  0
LINE
  8
0
  6
LTYPE1
 62
     2
 10
248.0
 20
972.5
 11
260.0
 21
984.5
  0
LINE
  8
0
  6
CONTINUOUS
 62
     1
 10
220.5
 20
564.5
 11
235.5
 21
564.5
  0
LINE
  8
0
  6
CONTINUOUS
 62
     1
 10
203.0
 20
592.5
 11
203.0
 21
608.5
  0
LINE
  8
0
  6
CONTINUOUS
 62
     1
 10
220.5
 20
564.5
 11
220.5
 21
589.5
  0
LINE
  8
0
  6
CONTINUOUS
 62
     1
 10
235.5
 20
564.5
 11
235.5
 21
589.5
  0
LINE
  8
0
  6
CONTINUOUS
 62
     1
 10
923.0
 20
646.0
 11
923.0
 21
661.0
  0
LINE
  8
0
  6
CONTINUOUS
 62
     1
 10
848.0
 20
646.0
 11
923.0
 21
646.0
  0
LINE
  8
0
  6
CONTINUOUS
 62
     1
 10
236.5
 20
589.5
 11
236.5
 21
592.5
  0
LINE
  8
0
  6
CONTINUOUS
 62
     1
 10
219.5
 20
589.5
 11
219.5
 21
592.5
  0
LINE
  8
0
  6
CONTINUOUS
 62
     1
 10
219.5
 20
589.5
 11
236.5
 21
589.5
  0
LINE
  8
0
  6
CONTINUOUS
 62
     1
 10
863.0
 20
661.0
 11
863.0
 21
673.5
  0
LINE
  8
0
  6
CONTINUOUS
 62
     1
 10
173.0
 20
620.5
 11
173.0
 21
726.5
  0
LINE
  8
0
  6
CONTINUOUS
 62
     1
 10
923.0
 20
701.0
 11
923.0
 21
686.0
  0
LINE
  8
0
  6
CONTINUOUS
 62
     1
 10
863.0
 20
686.0
 11
923.0
 21
686.0
  0
LINE
  8
0
  6
CONTINUOUS
 62
     1
 10
848.0
 20
701.0
 11
923.0
 21
701.0
  0
LINE
  8
0
  6
CONTINUOUS
 62
     1
 10
863.0
 20
686.0
 11
863.0
 21
673.5
  0
LINE
  8
0
  6
CONTINUOUS
 62
     1
 10
748.0
 20
708.5
 11
748.0
 21
673.5
  0
ARC
  8
0
  6
CONTINUOUS
 62
     1
 10
731.122218677
 20
619.5
 40
1.0
 50
195.0
 51
270.0
  0
ARC
  8
0
  6
CONTINUOUS
 62
     1
 10
731.122219502
 20
619.5
 40
1.0
 50
270.0
 51
345.0
  0
LINE
  8
0
  6
CONTINUOUS
 62
     1
 10
735.710185539
 20
632.758819045
 11
732.088145329
 21
619.241180955
  0
ARC
  8
0
  6
CONTINUOUS
 62
     1
 10
736.676111365
 20
632.5
 40
1.0
 50
90.0
 51
165.0
  0
ARC
  8
0
  6
CONTINUOUS
 62
     1
 10
736.676112039
 20
632.5
 40
1.0
 50
15.0
 51
90.0
  0
LINE
  8
0
  6
CONTINUOUS
 62
     1
 10
737.642037865
 20
632.758819045
 11
741.264078075
 21
619.241180955
  0
ARC
  8
0
  6
CONTINUOUS
 62
     1
 10
742.230003902
 20
619.5
 40
1.0
 50
195.0
 51
270.0
  0
LINE
  8
0
  6
CONTINUOUS
 62
     1
 10
746.817970764
 20
632.758819045
 11
743.195930554
 21
619.241180955
  0
ARC
  8
0
  6
CONTINUOUS
 62
     1
 10
747.78389659
 20
632.5
 40
1.0
 50
90.0
 51
165.0
  0
ARC
  8
0
  6
CONTINUOUS
 62
     1
 10
742.230005553
 20
619.5
 40
1.0
 50
270.0
 51
345.0
  0
ARC
  8
0
  6
CONTINUOUS
 62
     1
 10
731.122218677
 20
727.5
 40
1.0
 50
90.0
 51
165.0
  0
ARC
  8
0
  6
CONTINUOUS
 62
     1
 10
731.122219502
 20
727.5
 40
1.0
 50
15.0
 51
90.0
  0
LINE
  8
0
  6
CONTINUOUS
 62
     1
 10
735.710185539
 20
714.241180955
 11
732.088145329
 21
727.758819045
  0
ARC
  8
0
  6
CONTINUOUS
 62
     1
 10
736.676111365
 20
714.5
 40
1.0
 50
195.0
 51
270.0
  0
ARC
  8
0
  6
CONTINUOUS
 62
     1
 10
736.676112039
 20
714.5
 40
1.0
 50
270.0
 51
345.0
  0
LINE
  8
0
  6
CONTINUOUS
 62
     1
 10
737.642037865
 20
714.241180955
 11
741.264078075
 21
727.758819045
  0
ARC
  8
0
  6
CONTINUOUS
 62
     1
 10
742.230003902
 20
727.5
 40
1.0
 50
90.0
 51
165.0
  0
LINE
  8
0
  6
CONTINUOUS
 62
     1
 10
746.817970764
 20
714.241180955
 11
743.195930554
 21
727.758819045
  0
ARC
  8
0
  6
CONTINUOUS
 62
     1
 10
747.78389659
 20
714.5
 40
1.0
 50
195.0
 51
270.0
  0
ARC
  8
0
  6
CONTINUOUS
 62
     1
 10
742.230005553
 20
727.5
 40
1.0
 50
15.0
 51
90.0
  0
LINE
  8
0
  6
CONTINUOUS
 62
     1
 10
724.460009455
 20
706.5
 11
730.15629285
 21
727.758819045
  0
LINE
  8
0
  6
CONTINUOUS
 62
     1
 10
731.122218677
 20
728.5
 11
731.122218677
 21
673.5
  0
LINE
  8
0
  6
CONTINUOUS
 62
     1
 10
736.676111365
 20
673.5
 11
736.676111365
 21
713.5
  0
LINE
  8
0
  6
CONTINUOUS
 62
     1
 10
742.230004728
 20
728.5
 11
742.230004728
 21
673.5
  0
LINE
  8
0
  6
CONTINUOUS
 62
     1
 10
747.78389659
 20
713.5
 11
747.78389659
 21
673.5
  0
CIRCLE
  8
0
  6
CONTINUOUS
 62
     1
 10
540.0
 20
673.5
 40
16.575
  0
LINE
  8
0
  6
CONTINUOUS
 62
     1
 10
523.0
 20
690.5
 11
557.0
 21
690.5
  0
LINE
  8
0
  6
CONTINUOUS
 62
     1
 10
557.0
 20
656.5
 11
557.0
 21
690.5
  0
LINE
  8
0
  6
CONTINUOUS
 62
     1
 10
523.0
 20
656.5
 11
557.0
 21
656.5
  0
LINE
  8
0
  6
CONTINUOUS
 62
     1
 10
523.0
 20
656.5
 11
523.0
 21
690.5
  0
LINE
  8
0
  6
CONTINUOUS
 62
     1
 10
713.031806225
 20
634.5
 11
723.031806225
 21
634.5
  0
LINE
  8
0
  6
CONTINUOUS
 62
     1
 10
713.031806225
 20
636.5
 11
713.031806225
 21
634.5
  0
LINE
  8
0
  6
CONTINUOUS
 62
     1
 10
723.031806225
 20
636.5
 11
723.031806225
 21
634.5
  0
LINE
  8
0
  6
CONTINUOUS
 62
     1
 10
710.531806225
 20
636.5
 11
725.531806225
 21
636.5
  0
LINE
  8
0
  6
CONTINUOUS
 62
     1
 10
725.531806225
 20
636.5
 11
730.15629285
 21
619.241180955
  0
LINE
  8
0
  6
CONTINUOUS
 62
     1
 10
713.031806225
 20
712.5
 11
723.031806225
 21
712.5
  0
LINE
  8
0
  6
CONTINUOUS
 62
     1
 10
710.531806225
 20
710.5
 11
725.531806225
 21
710.5
  0
LINE
  8
0
  6
CONTINUOUS
 62
     1
 10
713.031806225
 20
710.5
 11
713.031806225
 21
712.5
  0
LINE
  8
0
  6
CONTINUOUS
 62
     1
 10
723.031806225
 20
710.5
 11
723.031806225
 21
712.5
  0
LINE
  8
0
  6
CONTINUOUS
 62
     1
 10
290.0
 20
620.5
 11
302.0
 21
620.5
  0
LINE
  8
0
  6
CONTINUOUS
 62
     1
 10
180.5
 20
608.5
 11
180.5
 21
618.5
  0
LINE
  8
0
  6
CONTINUOUS
 62
     1
 10
173.0
 20
726.5
 11
180.0
 21
726.5
  0
LINE
  8
0
  6
CONTINUOUS
 62
     1
 10
180.5
 20
738.5
 11
180.5
 21
728.5
  0
LINE
  8
0
  6
CONTINUOUS
 62
     1
 10
275.5
 20
608.5
 11
275.5
 21
618.5
  0
ARC
  8
0
  6
CONTINUOUS
 62
     1
 10
305.0
 20
636.5
 40
3.0
 50
90.0
 51
180.0
  0
LINE
  8
0
  6
CONTINUOUS
 62
     1
 10
302.0
 20
628.5
 11
303.999999912
 21
630.499999912
  0
LINE
  8
0
  6
CONTINUOUS
 62
     1
 10
304.0
 20
628.5
 11
302.000000088
 21
626.500000088
  0
LINE
  8
0
  6
CONTINUOUS
 62
     1
 10
302.0
 20
636.2
 11
304.0
 21
636.2
  0
LINE
  8
0
  6
CONTINUOUS
 62
     1
 10
304.0
 20
628.5
 11
304.0
 21
636.2
  0
LINE
  8
0
  6
CONTINUOUS
 62
     1
 10
304.0
 20
628.5
 11
304.0
 21
620.8
  0
LINE
  8
0
  6
CONTINUOUS
 62
     1
 10
302.0
 20
620.8
 11
304.0
 21
620.8
  0
LINE
  8
0
  6
CONTINUOUS
 62
     1
 10
304.0
 20
635.0
 11
311.5
 21
635.0
  0
LINE
  8
0
  6
CONTINUOUS
 62
     1
 10
311.5
 20
635.0
 11
311.5
 21
628.5
  0
LINE
  8
0
  6
CONTINUOUS
 62
     1
 10
311.5
 20
635.0
 11
312.0
 21
634.133974596
  0
LINE
  8
0
  6
CONTINUOUS
 62
     1
 10
312.0
 20
634.133974596
 11
312.0
 21
628.5
  0
LINE
  8
0
  6
CONTINUOUS
 62
     1
 10
304.0
 20
622.0
 11
311.5
 21
622.0
  0
LINE
  8
0
  6
CONTINUOUS
 62
     1
 10
311.5
 20
622.0
 11
311.5
 21
628.5
  0
LINE
  8
0
  6
CONTINUOUS
 62
     1
 10
311.5
 20
622.0
 11
312.0
 21
622.866025404
  0
LINE
  8
0
  6
CONTINUOUS
 62
     1
 10
312.0
 20
622.866025404
 11
312.0
 21
628.5
  0
LINE
  8
0
  6
CONTINUOUS
 62
     1
 10
173.0
 20
620.5
 11
179.0
 21
620.5
  0
LINE
  8
0
  6
CONTINUOUS
 62
     1
 10
173.0
 20
726.5
 11
179.0
 21
726.5
  0
LINE
  8
0
  6
CONTINUOUS
 62
     1
 10
253.0
 20
592.5
 11
253.0
 21
608.5
  0
ARC
  8
0
  6
CONTINUOUS
 62
     1
 10
350.485281374
 20
638.5
 40
6.0
 50
225.0
 51
270.0
  0
LINE
  8
0
  6
CONTINUOUS
 62
     1
 10
342.757359313
 20
637.742640687
 11
346.242640687
 21
634.257359313
  0
ARC
  8
0
  6
CONTINUOUS
 62
     1
 10
338.514718626
 20
633.5
 40
6.0
 50
45.0
 51
90.0
  0
LINE
  8
0
  6
CONTINUOUS
 62
     1
 10
305.0
 20
639.5
 11
338.514718626
 21
639.5
  0
LINE
  8
0
  6
CONTINUOUS
 62
     1
 10
350.485281374
 20
632.5
 11
379.0
 21
632.5
  0
LINE
  8
0
  6
CONTINUOUS
 62
     1
 10
220.5
 20
782.5
 11
235.5
 21
782.5
  0
LINE
  8
0
  6
CONTINUOUS
 62
     1
 10
203.0
 20
754.5
 11
203.0
 21
738.5
  0
LINE
  8
0
  6
CONTINUOUS
 62
     1
 10
220.5
 20
782.5
 11
220.5
 21
757.5
  0
LINE
  8
0
  6
CONTINUOUS
 62
     1
 10
235.5
 20
782.5
 11
235.5
 21
757.5
  0
LINE
  8
0
  6
CONTINUOUS
 62
     1
 10
219.5
 20
757.5
 11
236.5
 21
757.5
  0
LINE
  8
0
  6
CONTINUOUS
 62
     1
 10
253.0
 20
754.5
 11
253.0
 21
738.5
  0
LINE
  8
0
  6
CONTINUOUS
 62
     1
 10
290.0
 20
726.5
 11
302.0
 21
726.5
  0
ARC
  8
0
  6
CONTINUOUS
 62
     1
 10
305.0
 20
710.5
 40
3.0
 50
180.0
 51
270.0
  0
LINE
  8
0
  6
CONTINUOUS
 62
     1
 10
302.0
 20
718.5
 11
303.999999912
 21
716.500000088
  0
LINE
  8
0
  6
CONTINUOUS
 62
     1
 10
304.0
 20
718.5
 11
302.000000088
 21
720.499999912
  0
LINE
  8
0
  6
CONTINUOUS
 62
     1
 10
302.0
 20
710.8
 11
304.0
 21
710.8
  0
LINE
  8
0
  6
CONTINUOUS
 62
     1
 10
304.0
 20
718.5
 11
304.0
 21
710.8
  0
LINE
  8
0
  6
CONTINUOUS
 62
     1
 10
304.0
 20
718.5
 11
304.0
 21
726.2
  0
LINE
  8
0
  6
CONTINUOUS
 62
     1
 10
302.0
 20
726.2
 11
304.0
 21
726.2
  0
LINE
  8
0
  6
CONTINUOUS
 62
     1
 10
304.0
 20
712.0
 11
311.5
 21
712.0
  0
LINE
  8
0
  6
CONTINUOUS
 62
     1
 10
311.5
 20
712.0
 11
311.5
 21
718.5
  0
LINE
  8
0
  6
CONTINUOUS
 62
     1
 10
311.5
 20
712.0
 11
312.0
 21
712.866025404
  0
LINE
  8
0
  6
CONTINUOUS
 62
     1
 10
312.0
 20
712.866025404
 11
312.0
 21
718.5
  0
LINE
  8
0
  6
CONTINUOUS
 62
     1
 10
304.0
 20
725.0
 11
311.5
 21
725.0
  0
LINE
  8
0
  6
CONTINUOUS
 62
     1
 10
311.5
 20
725.0
 11
311.5
 21
718.5
  0
LINE
  8
0
  6
CONTINUOUS
 62
     1
 10
311.5
 20
725.0
 11
312.0
 21
724.133974596
  0
LINE
  8
0
  6
CONTINUOUS
 62
     1
 10
312.0
 20
724.133974596
 11
312.0
 21
718.5
  0
ARC
  8
0
  6
CONTINUOUS
 62
     1
 10
350.485281374
 20
708.5
 40
6.0
 50
90.0
 51
135.0
  0
LINE
  8
0
  6
CONTINUOUS
 62
     1
 10
342.757359313
 20
709.257359313
 11
346.242640687
 21
712.742640687
  0
ARC
  8
0
  6
CONTINUOUS
 62
     1
 10
338.514718626
 20
713.5
 40
6.0
 50
270.0
 51
315.0
  0
LINE
  8
0
  6
CONTINUOUS
 62
     1
 10
305.0
 20
707.5
 11
338.514718626
 21
707.5
  0
LINE
  8
0
  6
CONTINUOUS
 62
     1
 10
350.485281374
 20
714.5
 11
379.0
 21
714.5
  0
LINE
  8
0
  6
CONTINUOUS
 62
     1
 10
275.5
 20
738.5
 11
275.5
 21
728.5
  0
LINE
  8
0
  6
CONTINUOUS
 62
     1
 10
848.0
 20
829.5
 11
848.0
 21
879.5
  0
LINE
  8
0
  6
CONTINUOUS
 62
     1
 10
848.0
 20
854.5
 11
848.0
 21
829.5
  0
LINE
  8
0
  6
CONTINUOUS
 62
     1
 10
848.0
 20
829.5
 11
915.0
 21
829.5
  0
ARC
  8
0
  6
CONTINUOUS
 62
     1
 10
915.0
 20
837.5
 40
8.0
 50
270.0
 51
0.0
  0
LINE
  8
0
  6
CONTINUOUS
 62
     1
 10
848.0
 20
879.5
 11
915.0
 21
879.5
  0
LINE
  8
0
  6
CONTINUOUS
 62
     1
 10
923.0
 20
837.5
 11
923.0
 21
871.5
  0
ARC
  8
0
  6
CONTINUOUS
 62
     1
 10
915.0
 20
871.5
 40
8.0
 50
0.0
 51
90.0
  0
CIRCLE
  8
0
  6
CONTINUOUS
 62
     1
 10
898.0
 20
854.5
 40
12.5
  0
CIRCLE
  8
0
  6
CONTINUOUS
 62
     1
 10
898.0
 20
854.5
 40
22.0
  0
CIRCLE
  8
0
  6
CONTINUOUS
 62
     1
 10
898.0
 20
870.0
 40
3.0
  0
LINE
  8
0
  6
CONTINUOUS
 62
     1
 10
893.8
 20
837.7
 11
895.8
 21
837.4
  0
LINE
  8
0
  6
CONTINUOUS
 62
     1
 10
896.3
 20
842.1
 11
896.064615385
 21
840.530769231
  0
LINE
  8
0
  6
CONTINUOUS
 62
     1
 10
896.064615385
 20
840.530769231
 11
893.8
 21
837.7
  0
LINE
  8
0
  6
CONTINUOUS
 62
     1
 10
898.0
 20
840.1
 11
895.8
 21
837.4
  0
LINE
  8
0
  6
CONTINUOUS
 62
     1
 10
902.2
 20
837.7
 11
900.2
 21
837.4
  0
LINE
  8
0
  6
CONTINUOUS
 62
     1
 10
899.7
 20
842.1
 11
899.935384615
 21
840.530769231
  0
LINE
  8
0
  6
CONTINUOUS
 62
     1
 10
899.935384615
 20
840.530769231
 11
902.2
 21
837.7
  0
LINE
  8
0
  6
CONTINUOUS
 62
     1
 10
898.0
 20
840.1
 11
900.2
 21
837.4
  0
LINE
  8
0
  6
LTYPE1
 62
     2
 10
898.0
 20
854.5
 11
898.0
 21
673.5
  0
LINE
  8
0
  6
LTYPE2
 62
     2
 10
747.78389659
 20
633.5
 11
778.730004728
 21
633.5
  0
LINE
  8
0
  6
LTYPE2
 62
     2
 10
742.230003902
 20
618.5
 11
778.730004728
 21
618.5
  0
LINE
  8
0
  6
LTYPE2
 62
     2
 10
747.78389659
 20
713.5
 11
778.730004728
 21
713.5
  0
LINE
  8
0
  6
LTYPE2
 62
     2
 10
742.230003902
 20
728.5
 11
778.730004728
 21
728.5
  0
LINE
  8
0
  6
LTYPE3
 62
     2
 10
540.0
 20
652.165
 11
540.0
 21
694.58
  0
LINE
  8
0
  6
LTYPE1
 62
     2
 10
271.7
 20
628.5
 11
317.0
 21
628.5
  0
LINE
  8
0
  6
LTYPE1
 62
     2
 10
271.7
 20
718.5
 11
317.0
 21
718.5
  0
LINE
  8
0
  6
LTYPE1
 62
     2
 10
898.0
 20
829.5
 11
898.0
 21
879.5
  0
LINE
  8
0
  6
LTYPE4
 62
     2
 10
863.0
 20
829.5
 11
863.0
 21
879.5
  0
LINE
  8
0
  6
LTYPE1
 62
     2
 10
933.5
 20
854.5
 11
839.0
 21
854.5
  0
LINE
  8
0
  6
LTYPE1
 62
     2
 10
228.0
 20
552.0
 11
228.0
 21
798.5
  0
LINE
  8
0
  6
LTYPE1
 62
     2
 10
898.0
 20
613.5
 11
898.0
 21
673.5
  0
LINE
  8
0
  6
CONTINUOUS
 62
     2
 10
921.0
 20
879.5
 11
976.0
 21
879.5
  0
LINE
  8
0
  6
CONTINUOUS
 62
     2
 10
970.0
 20
879.5
 11
967.411809549
 21
869.840741737
  0
LINE
  8
0
  6
CONTINUOUS
 62
     2
 10
970.0
 20
879.5
 11
972.588190451
 21
869.840741737
  0
LINE
  8
0
  6
CONTINUOUS
 62
     2
 10
970.0
 20
879.5
 11
970.0
 21
829.5
  0
LINE
  8
0
  6
CONTINUOUS
 62
     2
 10
970.0
 20
829.5
 11
972.588190451
 21
839.159258263
  0
LINE
  8
0
  6
CONTINUOUS
 62
     2
 10
970.0
 20
829.5
 11
967.411809549
 21
839.159258263
  0
LINE
  8
0
  6
CONTINUOUS
 62
     2
 10
921.0
 20
829.5
 11
976.0
 21
829.5
  0
TEXT
  8
0
  6
CONTINUOUS
 62
     2
 10
966.0
 20
843.1
 30
1.2
 40
12.0
  1
５０
 50
90.0
 41
0.9
 51
0.0
  7
KANJI23
  0
LINE
  8
0
  6
CONTINUOUS
 62
     2
 10
898.0
 20
804.4
 11
907.659258263
 21
801.811809549
  0
LINE
  8
0
  6
CONTINUOUS
 62
     2
 10
898.0
 20
804.4
 11
907.659258263
 21
806.988190451
  0
LINE
  8
0
  6
CONTINUOUS
 62
     2
 10
898.0
 20
804.4
 11
923.0
 21
804.4
  0
LINE
  8
0
  6
CONTINUOUS
 62
     2
 10
923.0
 20
804.4
 11
913.340741737
 21
806.988190451
  0
LINE
  8
0
  6
CONTINUOUS
 62
     2
 10
923.0
 20
804.4
 11
913.340741737
 21
801.811809549
  0
LINE
  8
0
  6
CONTINUOUS
 62
     2
 10
923.0
 20
831.5
 11
923.0
 21
798.4
  0
TEXT
  8
0
  6
CONTINUOUS
 62
     2
 10
899.1
 20
808.4
 30
1.2
 40
12.0
  1
２５
 50
0.0
 41
0.9
 51
0.0
  7
KANJI23
  0
LINE
  8
0
  6
CONTINUOUS
 62
     2
 10
898.0
 20
804.4
 11
888.340741737
 21
806.988190451
  0
LINE
  8
0
  6
CONTINUOUS
 62
     2
 10
898.0
 20
804.4
 11
888.340741737
 21
801.811809549
  0
LINE
  8
0
  6
CONTINUOUS
 62
     2
 10
898.0
 20
804.4
 11
863.0
 21
804.4
  0
LINE
  8
0
  6
CONTINUOUS
 62
     2
 10
863.0
 20
804.4
 11
872.659258263
 21
801.811809549
  0
LINE
  8
0
  6
CONTINUOUS
 62
     2
 10
863.0
 20
804.4
 11
872.659258263
 21
806.988190451
  0
LINE
  8
0
  6
CONTINUOUS
 62
     2
 10
863.0
 20
823.5
 11
863.0
 21
798.4
  0
TEXT
  8
0
  6
CONTINUOUS
 62
     2
 10
869.1
 20
808.4
 30
1.2
 40
12.0
  1
３５
 50
0.0
 41
0.9
 51
0.0
  7
KANJI23
  0
LINE
  8
0
  6
CONTINUOUS
 62
     2
 10
863.0
 20
810.4
 11
863.0
 21
810.4
  0
LINE
  8
0
  6
CONTINUOUS
 62
     2
 10
863.0
 20
804.4
 11
853.340741737
 21
806.988190451
  0
LINE
  8
0
  6
CONTINUOUS
 62
     2
 10
863.0
 20
804.4
 11
853.340741737
 21
801.811809549
  0
LINE
  8
0
  6
CONTINUOUS
 62
     2
 10
863.0
 20
804.4
 11
848.0
 21
804.4
  0
LINE
  8
0
  6
CONTINUOUS
 62
     2
 10
848.0
 20
804.4
 11
857.659258263
 21
801.811809549
  0
LINE
  8
0
  6
CONTINUOUS
 62
     2
 10
848.0
 20
804.4
 11
857.659258263
 21
806.988190451
  0
LINE
  8
0
  6
CONTINUOUS
 62
     2
 10
848.0
 20
823.5
 11
848.0
 21
798.4
  0
TEXT
  8
0
  6
CONTINUOUS
 62
     2
 10
826.1
 20
808.4
 30
1.2
 40
12.0
  1
１５
 50
0.0
 41
0.9
 51
0.0
  7
KANJI23
  0
LINE
  8
0
  6
CONTINUOUS
 62
     1
 10
725.531806225
 20
673.5
 11
725.531806225
 21
710.5
  0
LINE
  8
0
  6
CONTINUOUS
 62
     1
 10
798.0
 20
638.5
 11
798.0
 21
673.5
  0
LINE
  8
0
  6
CONTINUOUS
 62
     1
 10
748.0
 20
638.5
 11
748.0
 21
673.5
  0
LINE
  8
0
  6
CONTINUOUS
 62
     1
 10
290.0
 20
618.5
 11
290.0
 21
673.5
  0
LINE
  8
0
  6
CONTINUOUS
 62
     1
 10
302.0
 20
620.5
 11
302.0
 21
673.5
  0
LINE
  8
0
  6
CONTINUOUS
 62
     1
 10
302.0
 20
726.5
 11
302.0
 21
673.5
  0
LINE
  8
0
  6
CONTINUOUS
 62
     1
 10
290.0
 20
728.5
 11
290.0
 21
673.5
  0
LINE
  8
0
  6
CONTINUOUS
 62
     1
 10
341.557364708
 20
639.142635292
 11
341.557364708
 21
708.142635292
  0
LINE
  8
0
  6
CONTINUOUS
 62
     1
 10
350.657364708
 20
714.842635292
 11
350.657364708
 21
632.842635292
  0
LINE
  8
0
  6
LTYPE5
 62
     2
 10
322.157364708
 20
664.042635292
 11
322.157364708
 21
686.642635292
  0
LINE
  8
0
  6
CONTINUOUS
 62
     1
 10
391.0
 20
639.7
 11
394.0
 21
639.7
  0
LINE
  8
0
  6
CONTINUOUS
 62
     1
 10
391.0
 20
707.3
 11
394.0
 21
707.3
  0
LINE
  8
0
  6
CONTINUOUS
 62
     1
 10
379.0
 20
719.5
 11
379.0
 21
673.5
  0
LINE
  8
0
  6
CONTINUOUS
 62
     1
 10
379.0
 20
719.5
 11
391.0
 21
719.5
  0
LINE
  8
0
  6
CONTINUOUS
 62
     1
 10
391.0
 20
719.5
 11
391.0
 21
673.5
  0
LINE
  8
0
  6
CONTINUOUS
 62
     1
 10
379.0
 20
627.5
 11
379.0
 21
673.5
  0
LINE
  8
0
  6
CONTINUOUS
 62
     1
 10
379.0
 20
627.5
 11
391.0
 21
627.5
  0
LINE
  8
0
  6
CONTINUOUS
 62
     1
 10
391.0
 20
627.5
 11
391.0
 21
673.5
  0
LINE
  8
0
  6
CONTINUOUS
 62
     1
 10
379.0
 20
677.5
 11
391.0
 21
677.5
  0
LINE
  8
0
  6
CONTINUOUS
 62
     1
 10
379.0
 20
669.5
 11
391.0
 21
669.5
  0
LINE
  8
0
  6
CONTINUOUS
 62
     1
 10
228.0
 20
754.5
 11
253.0
 21
754.5
  0
LINE
  8
0
  6
CONTINUOUS
 62
     1
 10
228.0
 20
728.5
 11
290.0
 21
728.5
  0
LINE
  8
0
  6
CONTINUOUS
 62
     1
 10
228.0
 20
618.5
 11
290.0
 21
618.5
  0
LINE
  8
0
  6
CONTINUOUS
 62
     1
 10
228.0
 20
608.5
 11
275.5
 21
608.5
  0
LINE
  8
0
  6
CONTINUOUS
 62
     1
 10
228.0
 20
738.5
 11
275.5
 21
738.5
  0
LINE
  8
0
  6
CONTINUOUS
 62
     1
 10
228.0
 20
592.5
 11
253.0
 21
592.5
  0
LINE
  8
0
  6
CONTINUOUS
 62
     1
 10
203.0
 20
592.5
 11
228.0
 21
592.5
  0
LINE
  8
0
  6
CONTINUOUS
 62
     1
 10
228.0
 20
608.5
 11
180.5
 21
608.5
  0
LINE
  8
0
  6
CONTINUOUS
 62
     1
 10
228.0
 20
738.5
 11
180.5
 21
738.5
  0
LINE
  8
0
  6
CONTINUOUS
 62
     1
 10
203.0
 20
754.5
 11
228.0
 21
754.5
  0
LINE
  8
0
  6
CONTINUOUS
 62
     1
 10
219.5
 20
757.5
 11
219.5
 21
754.5
  0
LINE
  8
0
  6
CONTINUOUS
 62
     1
 10
236.5
 20
757.5
 11
236.5
 21
754.5
  0
LINE
  8
0
  6
CONTINUOUS
 62
     1
 10
236.5
 20
757.5
 11
236.5
 21
754.5
  0
CIRCLE
  8
0
  6
CONTINUOUS
 62
     1
 10
248.484718855
 20
694.109184924
 40
10.0
  0
CIRCLE
  8
0
  6
CONTINUOUS
 62
     1
 10
248.484718855
 20
694.109184924
 40
11.0
  0
LINE
  8
0
  6
CONTINUOUS
 62
     2
 10
929.0
 20
686.0
 11
961.0
 21
686.0
  0
LINE
  8
0
  6
CONTINUOUS
 62
     2
 10
955.0
 20
686.0
 11
952.411809549
 21
676.340741737
  0
LINE
  8
0
  6
CONTINUOUS
 62
     2
 10
955.0
 20
686.0
 11
957.588190451
 21
676.340741737
  0
LINE
  8
0
  6
CONTINUOUS
 62
     2
 10
955.0
 20
686.0
 11
955.0
 21
661.0
  0
LINE
  8
0
  6
CONTINUOUS
 62
     2
 10
955.0
 20
661.0
 11
957.588190451
 21
670.659258263
  0
LINE
  8
0
  6
CONTINUOUS
 62
     2
 10
955.0
 20
661.0
 11
952.411809549
 21
670.659258263
  0
LINE
  8
0
  6
CONTINUOUS
 62
     2
 10
929.0
 20
661.0
 11
961.0
 21
661.0
  0
TEXT
  8
0
  6
CONTINUOUS
 62
     2
 10
951.0
 20
662.1
 30
1.2
 40
12.0
  1
２５
 50
90.0
 41
0.9
 51
0.0
  7
KANJI23
  0
LINE
  8
0
  6
CONTINUOUS
 62
     2
 10
929.0
 20
701.0
 11
993.1
 21
701.0
  0
LINE
  8
0
  6
CONTINUOUS
 62
     2
 10
987.1
 20
701.0
 11
984.511809549
 21
691.340741737
  0
LINE
  8
0
  6
CONTINUOUS
 62
     2
 10
987.1
 20
701.0
 11
989.688190451
 21
691.340741737
  0
LINE
  8
0
  6
CONTINUOUS
 62
     2
 10
987.1
 20
701.0
 11
987.1
 21
646.0
  0
LINE
  8
0
  6
CONTINUOUS
 62
     2
 10
987.1
 20
646.0
 11
989.688190451
 21
655.659258263
  0
LINE
  8
0
  6
CONTINUOUS
 62
     2
 10
987.1
 20
646.0
 11
984.511809549
 21
655.659258263
  0
LINE
  8
0
  6
CONTINUOUS
 62
     2
 10
929.0
 20
646.0
 11
993.1
 21
646.0
  0
TEXT
  8
0
  6
CONTINUOUS
 62
     2
 10
983.1
 20
662.1
 30
1.2
 40
12.0
  1
５５
 50
90.0
 41
0.9
 51
0.0
  7
KANJI23
  0
LINE
  8
0
  6
CONTINUOUS
 62
     1
 10
879.5
 20
704.0
 11
916.5
 21
704.0
  0
LINE
  8
0
  6
CONTINUOUS
 62
     1
 10
879.5
 20
704.0
 11
879.5
 21
701.0
  0
LINE
  8
0
  6
CONTINUOUS
 62
     1
 10
916.5
 20
704.0
 11
916.5
 21
701.0
  0
CIRCLE
  8
0
  6
CONTINUOUS
 62
     1
 10
897.8
 20
706.3
 40
2.0
  0
LINE
  8
0
  6
LTYPE5
 62
     2
 10
894.2
 20
706.5
 11
902.2
 21
706.5
  0
LINE
  8
0
  6
CONTINUOUS
 62
     1
 10
879.5
 20
643.0
 11
916.5
 21
643.0
  0
LINE
  8
0
  6
CONTINUOUS
 62
     1
 10
879.5
 20
643.0
 11
879.5
 21
646.0
  0
LINE
  8
0
  6
CONTINUOUS
 62
     1
 10
916.5
 20
643.0
 11
916.5
 21
646.0
  0
CIRCLE
  8
0
  6
CONTINUOUS
 62
     1
 10
897.8
 20
640.7
 40
2.0
  0
LINE
  8
0
  6
LTYPE5
 62
     2
 10
894.2
 20
640.5
 11
902.2
 21
640.5
  0
LINE
  8
0
  6
CONTINUOUS
 62
     2
 10
775.4
 20
618.5
 11
777.988190451
 21
628.159258263
  0
LINE
  8
0
  6
CONTINUOUS
 62
     2
 10
775.4
 20
618.5
 11
772.811809549
 21
628.159258263
  0
LINE
  8
0
  6
CONTINUOUS
 62
     2
 10
775.4
 20
618.5
 11
775.4
 21
728.5
  0
LINE
  8
0
  6
CONTINUOUS
 62
     2
 10
775.4
 20
728.5
 11
772.811809549
 21
718.840741737
  0
LINE
  8
0
  6
CONTINUOUS
 62
     2
 10
775.4
 20
728.5
 11
777.988190451
 21
718.840741737
  0
TEXT
  8
0
  6
CONTINUOUS
 62
     2
 10
771.4
 20
650.1
 30
1.2
 40
12.0
  1
φ１１０
 50
90.0
 41
0.9
 51
0.0
  7
KANJI23
  0
LINE
  8
0
  6
CONTINUOUS
 62
     2
 10
470.1
 20
638.5
 11
472.688190451
 21
648.159258263
  0
LINE
  8
0
  6
CONTINUOUS
 62
     2
 10
470.1
 20
638.5
 11
467.511809549
 21
648.159258263
  0
LINE
  8
0
  6
CONTINUOUS
 62
     2
 10
470.1
 20
638.5
 11
470.1
 21
708.5
  0
LINE
  8
0
  6
CONTINUOUS
 62
     2
 10
470.1
 20
708.5
 11
467.511809549
 21
698.840741737
  0
LINE
  8
0
  6
CONTINUOUS
 62
     2
 10
470.1
 20
708.5
 11
472.688190451
 21
698.840741737
  0
TEXT
  8
0
  6
CONTINUOUS
 62
     2
 10
466.1
 20
656.1
 30
1.2
 40
12.0
  1
φ７０
 50
90.0
 41
0.9
 51
0.0
  7
KANJI23
  0
LINE
  8
0
  6
LTYPE1
 62
     2
 10
474.7
 20
673.5
 11
933.2
 21
673.5
  0
LINE
  8
0
  6
CONTINUOUS
 62
     1
 10
394.0
 20
638.5
 11
394.0
 21
708.5
  0
LINE
  8
0
  6
LTYPE5
 62
     2
 10
235.8
 20
694.05
 11
262.8
 21
694.05
  0
LINE
  8
0
  6
LTYPE5
 62
     2
 10
262.8
 20
694.05
 11
248.2
 21
694.05
  0
LINE
  8
0
  6
LTYPE5
 62
     2
 10
248.1
 20
707.3
 11
248.1
 21
678.7
  0
LINE
  8
0
  6
CONTINUOUS
 62
     2
 10
228.0
 20
546.0
 11
228.0
 21
528.8
  0
LINE
  8
0
  6
CONTINUOUS
 62
     2
 10
228.0
 20
534.8
 11
237.659258263
 21
532.211809549
  0
LINE
  8
0
  6
CONTINUOUS
 62
     2
 10
228.0
 20
534.8
 11
237.659258263
 21
537.388190451
  0
LINE
  8
0
  6
CONTINUOUS
 62
     2
 10
228.0
 20
534.8
 11
798.0
 21
534.8
  0
LINE
  8
0
  6
CONTINUOUS
 62
     2
 10
798.0
 20
534.8
 11
788.340741737
 21
537.388190451
  0
LINE
  8
0
  6
CONTINUOUS
 62
     2
 10
798.0
 20
534.8
 11
788.340741737
 21
532.211809549
  0
LINE
  8
0
  6
CONTINUOUS
 62
     2
 10
798.0
 20
632.5
 11
798.0
 21
528.8
  0
TEXT
  8
0
  6
CONTINUOUS
 62
     2
 10
507.6
 20
538.8
 30
1.2
 40
12.0
  1
Ｃ
 50
0.0
 41
0.9
 51
0.0
  7
KANJI23
  0
LINE
  8
0
  6
CONTINUOUS
 62
     2
 10
798.0
 20
534.8
 11
807.659258263
 21
532.211809549
  0
LINE
  8
0
  6
CONTINUOUS
 62
     2
 10
798.0
 20
534.8
 11
807.659258263
 21
537.388190451
  0
LINE
  8
0
  6
CONTINUOUS
 62
     2
 10
798.0
 20
534.8
 11
848.0
 21
534.8
  0
LINE
  8
0
  6
CONTINUOUS
 62
     2
 10
848.0
 20
534.8
 11
838.340741737
 21
537.388190451
  0
LINE
  8
0
  6
CONTINUOUS
 62
     2
 10
848.0
 20
534.8
 11
838.340741737
 21
532.211809549
  0
LINE
  8
0
  6
CONTINUOUS
 62
     2
 10
848.0
 20
534.8
 11
857.659258263
 21
532.211809549
  0
LINE
  8
0
  6
CONTINUOUS
 62
     2
 10
848.0
 20
534.8
 11
857.659258263
 21
537.388190451
  0
LINE
  8
0
  6
CONTINUOUS
 62
     2
 10
848.0
 20
534.8
 11
898.0
 21
534.8
  0
LINE
  8
0
  6
CONTINUOUS
 62
     2
 10
898.0
 20
534.8
 11
888.340741737
 21
537.388190451
  0
LINE
  8
0
  6
CONTINUOUS
 62
     2
 10
898.0
 20
534.8
 11
888.340741737
 21
532.211809549
  0
LINE
  8
0
  6
CONTINUOUS
 62
     2
 10
898.0
 20
607.5
 11
898.0
 21
528.8
  0
TEXT
  8
0
  6
CONTINUOUS
 62
     2
 10
861.6
 20
538.8
 30
1.2
 40
12.0
  1
５０
 50
0.0
 41
0.9
 51
0.0
  7
KANJI23
  0
TEXT
  8
0
  6
CONTINUOUS
 62
     2
 10
784.6
 20
539.8
 30
1.2
 40
12.0
  1
ｍｉｎ．Ｐ
 50
0.0
 41
0.9
 51
0.0
  7
KANJI23
  0
LINE
  8
0
  6
CONTINUOUS
 62
     2
 10
228.0
 20
528.8
 11
228.0
 21
490.2
  0
LINE
  8
0
  6
CONTINUOUS
 62
     2
 10
228.0
 20
496.2
 11
237.659258263
 21
493.611809549
  0
LINE
  8
0
  6
CONTINUOUS
 62
     2
 10
228.0
 20
496.2
 11
237.659258263
 21
498.788190451
  0
LINE
  8
0
  6
CONTINUOUS
 62
     2
 10
228.0
 20
496.2
 11
898.0
 21
496.2
  0
LINE
  8
0
  6
CONTINUOUS
 62
     2
 10
898.0
 20
496.2
 11
888.340741737
 21
498.788190451
  0
LINE
  8
0
  6
CONTINUOUS
 62
     2
 10
898.0
 20
496.2
 11
888.340741737
 21
493.611809549
  0
LINE
  8
0
  6
CONTINUOUS
 62
     2
 10
898.0
 20
528.8
 11
898.0
 21
490.2
  0
TEXT
  8
0
  6
CONTINUOUS
 62
     2
 10
533.6
 20
500.2
 30
1.2
 40
12.0
  1
ｍｉｎ．Ｌ
 50
0.0
 41
0.9
 51
0.0
  7
KANJI23
  0
LINE
  8
0
  6
CONTINUOUS
 62
     2
 10
898.0
 20
490.2
 11
898.0
 21
452.2
  0
LINE
  8
0
  6
CONTINUOUS
 62
     2
 10
898.0
 20
458.2
 11
888.340741737
 21
460.788190451
  0
LINE
  8
0
  6
CONTINUOUS
 62
     2
 10
898.0
 20
458.2
 11
888.340741737
 21
455.611809549
  0
LINE
  8
0
  6
CONTINUOUS
 62
     2
 10
898.0
 20
458.2
 11
173.0
 21
458.2
  0
LINE
  8
0
  6
CONTINUOUS
 62
     2
 10
173.0
 20
458.2
 11
182.659258263
 21
455.611809549
  0
LINE
  8
0
  6
CONTINUOUS
 62
     2
 10
173.0
 20
458.2
 11
182.659258263
 21
460.788190451
  0
LINE
  8
0
  6
CONTINUOUS
 62
     2
 10
173.0
 20
614.5
 11
173.0
 21
452.2
  0
TEXT
  8
0
  6
CONTINUOUS
 62
     2
 10
500.1
 20
462.2
 30
1.2
 40
12.0
  1
ｍｉｎ．ＡＬ
 50
0.0
 41
0.9
 51
0.0
  7
KANJI23
  0
LINE
  8
0
  6
CONTINUOUS
 62
     2
 10
228.0
 20
496.2
 11
218.340741737
 21
498.788190451
  0
LINE
  8
0
  6
CONTINUOUS
 62
     2
 10
228.0
 20
496.2
 11
218.340741737
 21
493.611809549
  0
LINE
  8
0
  6
CONTINUOUS
 62
     2
 10
228.0
 20
496.2
 11
173.0
 21
496.2
  0
LINE
  8
0
  6
CONTINUOUS
 62
     2
 10
173.0
 20
496.2
 11
182.659258263
 21
493.611809549
  0
LINE
  8
0
  6
CONTINUOUS
 62
     2
 10
173.0
 20
496.2
 11
182.659258263
 21
498.788190451
  0
LINE
  8
0
  6
CONTINUOUS
 62
     2
 10
173.0
 20
491.2
 11
173.0
 21
490.2
  0
TEXT
  8
0
  6
CONTINUOUS
 62
     2
 10
189.1
 20
500.2
 30
1.2
 40
12.0
  1
５５
 50
0.0
 41
0.9
 51
0.0
  7
KANJI23
  0
LINE
  8
0
  6
LTYPE1
 62
     2
 10
162.1
 20
673.5
 11
448.7
 21
673.5
  0
LINE
  8
0
  6
CONTINUOUS
 62
     2
 10
174.5
 20
738.5
 11
130.0
 21
738.5
  0
LINE
  8
0
  6
CONTINUOUS
 62
     2
 10
136.0
 20
738.5
 11
133.411809549
 21
728.840741737
  0
LINE
  8
0
  6
CONTINUOUS
 62
     2
 10
136.0
 20
738.5
 11
138.588190451
 21
728.840741737
  0
LINE
  8
0
  6
CONTINUOUS
 62
     2
 10
136.0
 20
738.5
 11
136.0
 21
608.5
  0
LINE
  8
0
  6
CONTINUOUS
 62
     2
 10
136.0
 20
608.5
 11
138.588190451
 21
618.159258263
  0
LINE
  8
0
  6
CONTINUOUS
 62
     2
 10
136.0
 20
608.5
 11
133.411809549
 21
618.159258263
  0
LINE
  8
0
  6
CONTINUOUS
 62
     2
 10
174.5
 20
608.5
 11
130.0
 21
608.5
  0
TEXT
  8
0
  6
CONTINUOUS
 62
     2
 10
132.0
 20
656.1
 30
1.2
 40
12.0
  1
１３０
 50
90.0
 41
0.9
 51
0.0
  7
KANJI23
  0
LINE
  8
0
  6
CONTINUOUS
 62
     2
 10
136.0
 20
608.5
 11
133.411809549
 21
598.840741737
  0
LINE
  8
0
  6
CONTINUOUS
 62
     2
 10
136.0
 20
608.5
 11
138.588190451
 21
598.840741737
  0
LINE
  8
0
  6
CONTINUOUS
 62
     2
 10
136.0
 20
608.5
 11
136.0
 21
592.5
  0
LINE
  8
0
  6
CONTINUOUS
 62
     2
 10
136.0
 20
592.5
 11
138.588190451
 21
602.159258263
  0
LINE
  8
0
  6
CONTINUOUS
 62
     2
 10
136.0
 20
592.5
 11
133.411809549
 21
602.159258263
  0
LINE
  8
0
  6
CONTINUOUS
 62
     2
 10
197.0
 20
592.5
 11
130.0
 21
592.5
  0
TEXT
  8
0
  6
CONTINUOUS
 62
     2
 10
132.0
 20
589.1
 30
1.2
 40
12.0
  1
１６
 50
90.0
 41
0.9
 51
0.0
  7
KANJI23
  0
LINE
  8
0
  6
CONTINUOUS
 62
     2
 10
136.0
 20
738.5
 11
138.588190451
 21
748.159258263
  0
LINE
  8
0
  6
CONTINUOUS
 62
     2
 10
136.0
 20
738.5
 11
133.411809549
 21
748.159258263
  0
LINE
  8
0
  6
CONTINUOUS
 62
     2
 10
136.0
 20
738.5
 11
136.0
 21
754.5
  0
LINE
  8
0
  6
CONTINUOUS
 62
     2
 10
136.0
 20
754.5
 11
133.411809549
 21
744.840741737
  0
LINE
  8
0
  6
CONTINUOUS
 62
     2
 10
136.0
 20
754.5
 11
138.588190451
 21
744.840741737
  0
LINE
  8
0
  6
CONTINUOUS
 62
     2
 10
197.0
 20
754.5
 11
130.0
 21
754.5
  0
TEXT
  8
0
  6
CONTINUOUS
 62
     2
 10
132.0
 20
735.1
 30
1.2
 40
12.0
  1
１６
 50
90.0
 41
0.9
 51
0.0
  7
KANJI23
  0
LINE
  8
0
  6
CONTINUOUS
 62
     2
 10
214.5
 20
564.5
 11
101.4
 21
564.5
  0
LINE
  8
0
  6
CONTINUOUS
 62
     2
 10
107.4
 20
564.5
 11
109.988190451
 21
574.159258263
  0
LINE
  8
0
  6
CONTINUOUS
 62
     2
 10
107.4
 20
564.5
 11
104.811809549
 21
574.159258263
  0
LINE
  8
0
  6
CONTINUOUS
 62
     2
 10
107.4
 20
564.5
 11
107.4
 21
782.5
  0
LINE
  8
0
  6
CONTINUOUS
 62
     2
 10
107.4
 20
782.5
 11
104.811809549
 21
772.840741737
  0
LINE
  8
0
  6
CONTINUOUS
 62
     2
 10
107.4
 20
782.5
 11
109.988190451
 21
772.840741737
  0
LINE
  8
0
  6
CONTINUOUS
 62
     2
 10
214.5
 20
782.5
 11
101.4
 21
782.5
  0
TEXT
  8
0
  6
CONTINUOUS
 62
     2
 10
103.4
 20
656.1
 30
1.2
 40
12.0
  1
２１８
 50
90.0
 41
0.9
 51
0.0
  7
KANJI23
  0
LINE
  8
0
  6
CONTINUOUS
 62
     2
 10
136.0
 20
754.5
 11
133.411809549
 21
744.840741737
  0
LINE
  8
0
  6
CONTINUOUS
 62
     2
 10
136.0
 20
754.5
 11
138.588190451
 21
744.840741737
  0
LINE
  8
0
  6
CONTINUOUS
 62
     2
 10
136.0
 20
739.5
 11
136.0
 21
783.3
  0
LINE
  8
0
  6
CONTINUOUS
 62
     2
 10
136.0
 20
757.5
 11
138.588190451
 21
767.159258263
  0
LINE
  8
0
  6
CONTINUOUS
 62
     2
 10
136.0
 20
757.5
 11
133.411809549
 21
767.159258263
  0
LINE
  8
0
  6
CONTINUOUS
 62
     2
 10
213.5
 20
757.5
 11
130.0
 21
757.5
  0
TEXT
  8
0
  6
CONTINUOUS
 62
     2
 10
150.9
 20
762.6
 30
1.2
 40
12.0
  1
３
 50
90.0
 41
0.9
 51
0.0
  7
KANJI23
  0
LINE
  8
0
  6
CONTINUOUS
 62
     2
 10
136.0
 20
592.5
 11
138.588190451
 21
602.159258263
  0
LINE
  8
0
  6
CONTINUOUS
 62
     2
 10
136.0
 20
592.5
 11
133.411809549
 21
602.159258263
  0
LINE
  8
0
  6
CONTINUOUS
 62
     2
 10
136.0
 20
607.5
 11
136.0
 21
563.7
  0
LINE
  8
0
  6
CONTINUOUS
 62
     2
 10
136.0
 20
589.5
 11
133.411809549
 21
579.840741737
  0
LINE
  8
0
  6
CONTINUOUS
 62
     2
 10
136.0
 20
589.5
 11
138.588190451
 21
579.840741737
  0
LINE
  8
0
  6
CONTINUOUS
 62
     2
 10
214.5
 20
589.5
 11
130.0
 21
589.5
  0
TEXT
  8
0
  6
CONTINUOUS
 62
     2
 10
151.0
 20
577.7
 30
1.2
 40
12.0
  1
３
 50
90.0
 41
0.9
 51
0.0
  7
KANJI23
  0
LINE
  8
0
  6
CONTINUOUS
 62
     1
 10
1129.0
 20
701.0
 11
1129.0
 21
686.0
  0
LINE
  8
0
  6
CONTINUOUS
 62
     1
 10
1176.0
 20
705.5
 11
1132.0
 21
705.5
  0
LINE
  8
0
  6
CONTINUOUS
 62
     1
 10
1166.5
 20
711.5
 11
1141.5
 21
711.5
  0
LINE
  8
0
  6
CONTINUOUS
 62
     1
 10
1141.5
 20
711.5
 11
1141.5
 21
705.5
  0
LINE
  8
0
  6
CONTINUOUS
 62
     1
 10
1166.5
 20
711.5
 11
1166.5
 21
705.5
  0
LINE
  8
0
  6
CONTINUOUS
 62
     1
 10
1132.0
 20
705.5
 11
1132.0
 21
701.0
  0
LINE
  8
0
  6
CONTINUOUS
 62
     1
 10
1176.0
 20
705.5
 11
1176.0
 21
701.0
  0
CIRCLE
  8
0
  6
CONTINUOUS
 62
     1
 10
1154.0
 20
707.5
 40
2.0
  0
LINE
  8
0
  6
CONTINUOUS
 62
     1
 10
1176.0
 20
641.5
 11
1132.0
 21
641.5
  0
LINE
  8
0
  6
CONTINUOUS
 62
     1
 10
1166.5
 20
635.5
 11
1141.5
 21
635.5
  0
LINE
  8
0
  6
CONTINUOUS
 62
     1
 10
1141.5
 20
635.5
 11
1141.5
 21
641.5
  0
LINE
  8
0
  6
CONTINUOUS
 62
     1
 10
1166.5
 20
635.5
 11
1166.5
 21
641.5
  0
LINE
  8
0
  6
CONTINUOUS
 62
     1
 10
1132.0
 20
641.5
 11
1132.0
 21
646.0
  0
LINE
  8
0
  6
CONTINUOUS
 62
     1
 10
1176.0
 20
641.5
 11
1176.0
 21
646.0
  0
CIRCLE
  8
0
  6
CONTINUOUS
 62
     1
 10
1154.0
 20
639.5
 40
2.0
  0
LINE
  8
0
  6
CONTINUOUS
 62
     1
 10
1166.5
 20
686.0
 11
1166.5
 21
661.0
  0
LINE
  8
0
  6
CONTINUOUS
 62
     1
 10
1141.5
 20
686.0
 11
1141.5
 21
661.0
  0
LINE
  8
0
  6
CONTINUOUS
 62
     1
 10
1166.5
 20
661.0
 11
1166.5
 21
686.0
  0
LINE
  8
0
  6
CONTINUOUS
 62
     1
 10
1141.5
 20
661.0
 11
1141.5
 21
686.0
  0
LINE
  8
0
  6
CONTINUOUS
 62
     1
 10
1129.0
 20
646.0
 11
1129.0
 21
686.0
  0
LINE
  8
0
  6
CONTINUOUS
 62
     1
 10
1179.0
 20
701.0
 11
1129.0
 21
701.0
  0
LINE
  8
0
  6
CONTINUOUS
 62
     1
 10
1179.0
 20
646.0
 11
1179.0
 21
701.0
  0
LINE
  8
0
  6
CONTINUOUS
 62
     1
 10
1179.0
 20
686.0
 11
1129.0
 21
686.0
  0
LINE
  8
0
  6
CONTINUOUS
 62
     1
 10
1179.0
 20
661.0
 11
1129.0
 21
661.0
  0
LINE
  8
0
  6
CONTINUOUS
 62
     1
 10
1179.0
 20
646.0
 11
1129.0
 21
646.0
  0
LINE
  8
0
  6
CONTINUOUS
 62
     1
 10
1146.5
 20
782.5
 11
1161.5
 21
782.5
  0
LINE
  8
0
  6
CONTINUOUS
 62
     1
 10
1145.5
 20
757.5
 11
1162.5
 21
757.5
  0
LINE
  8
0
  6
CONTINUOUS
 62
     1
 10
1161.5
 20
757.5
 11
1161.5
 21
782.5
  0
LINE
  8
0
  6
CONTINUOUS
 62
     1
 10
1146.5
 20
757.5
 11
1146.5
 21
782.5
  0
LINE
  8
0
  6
CONTINUOUS
 62
     1
 10
1145.5
 20
754.5
 11
1145.5
 21
757.5
  0
LINE
  8
0
  6
CONTINUOUS
 62
     1
 10
1162.5
 20
754.5
 11
1162.5
 21
757.5
  0
LINE
  8
0
  6
CONTINUOUS
 62
     1
 10
1129.0
 20
754.5
 11
1179.0
 21
754.5
  0
LINE
  8
0
  6
CONTINUOUS
 62
     1
 10
1179.0
 20
738.5
 11
1179.0
 21
754.5
  0
LINE
  8
0
  6
CONTINUOUS
 62
     1
 10
1129.0
 20
738.5
 11
1129.0
 21
754.5
  0
LINE
  8
0
  6
CONTINUOUS
 62
     1
 10
1106.5
 20
738.5
 11
1201.5
 21
738.5
  0
LINE
  8
0
  6
CONTINUOUS
 62
     1
 10
1105.0
 20
728.5
 11
1203.0
 21
728.5
  0
LINE
  8
0
  6
CONTINUOUS
 62
     1
 10
1106.5
 20
728.5
 11
1106.5
 21
738.5
  0
LINE
  8
0
  6
CONTINUOUS
 62
     1
 10
1201.5
 20
728.5
 11
1201.5
 21
738.5
  0
LINE
  8
0
  6
CONTINUOUS
 62
     1
 10
1203.0
 20
699.0
 11
1203.0
 21
728.5
  0
LINE
  8
0
  6
CONTINUOUS
 62
     1
 10
1105.0
 20
698.0
 11
1105.0
 21
728.5
  0
LINE
  8
0
  6
CONTINUOUS
 62
     1
 10
1105.0
 20
618.5
 11
1105.0
 21
649.020008006
  0
LINE
  8
0
  6
CONTINUOUS
 62
     1
 10
1203.0
 20
618.5
 11
1203.0
 21
647.520008006
  0
LINE
  8
0
  6
LTYPE1
 62
     2
 10
1158.0
 20
707.4
 11
1149.8
 21
707.4
  0
LINE
  8
0
  6
LTYPE4
 62
     2
 10
1141.5
 20
705.5
 11
1141.5
 21
686.0
  0
LINE
  8
0
  6
LTYPE4
 62
     2
 10
1166.5
 20
705.5
 11
1166.5
 21
686.0
  0
LINE
  8
0
  6
LTYPE1
 62
     2
 10
1158.0
 20
639.6
 11
1149.8
 21
639.6
  0
LINE
  8
0
  6
LTYPE4
 62
     2
 10
1141.5
 20
641.5
 11
1141.5
 21
661.0
  0
LINE
  8
0
  6
LTYPE4
 62
     2
 10
1166.5
 20
641.5
 11
1166.5
 21
661.0
  0
LINE
  8
0
  6
LTYPE1
 62
     2
 10
1062.0
 20
673.5
 11
1227.0
 21
673.5
  0
ARC
  8
0
  6
CONTINUOUS
 62
     1
 10
1070.0
 20
673.5
 40
4.0
 50
90.0
 51
180.0
  0
POINT
  8
0
  6
CONTINUOUS
 62
     1
 10
1066.0
 20
673.5
  0
ARC
  8
0
  6
CONTINUOUS
 62
     1
 10
1070.0
 20
673.5
 40
4.0
 50
180.0
 51
270.0
  0
LINE
  8
0
  6
CONTINUOUS
 62
     1
 10
1096.0
 20
681.5
 11
1099.6
 21
681.5
  0
LINE
  8
0
  6
CONTINUOUS
 62
     1
 10
1096.0
 20
665.5
 11
1099.9
 21
665.5
  0
LINE
  8
0
  6
CONTINUOUS
 62
     1
 10
1096.0
 20
681.5
 11
1094.6
 21
677.2
  0
LINE
  8
0
  6
CONTINUOUS
 62
     1
 10
1070.0
 20
677.5
 11
1098.1
 21
677.5
  0
LINE
  8
0
  6
CONTINUOUS
 62
     1
 10
1096.0
 20
665.5
 11
1094.6
 21
669.8
  0
LINE
  8
0
  6
CONTINUOUS
 62
     1
 10
1070.0
 20
669.5
 11
1098.2
 21
669.5
  0
LINE
  8
0
  6
CONTINUOUS
 62
     1
 10
391.0
 20
918.7
 11
394.0
 21
918.7
  0
LINE
  8
0
  6
CONTINUOUS
 62
     1
 10
391.0
 20
986.3
 11
394.0
 21
986.3
  0
LINE
  8
0
  6
CONTINUOUS
 62
     1
 10
379.0
 20
998.5
 11
379.0
 21
952.5
  0
LINE
  8
0
  6
CONTINUOUS
 62
     1
 10
379.0
 20
998.5
 11
391.0
 21
998.5
  0
LINE
  8
0
  6
CONTINUOUS
 62
     1
 10
391.0
 20
998.5
 11
391.0
 21
952.5
  0
LINE
  8
0
  6
CONTINUOUS
 62
     1
 10
379.0
 20
906.5
 11
379.0
 21
952.5
  0
LINE
  8
0
  6
CONTINUOUS
 62
     1
 10
379.0
 20
906.5
 11
391.0
 21
906.5
  0
LINE
  8
0
  6
CONTINUOUS
 62
     1
 10
391.0
 20
906.5
 11
391.0
 21
952.5
  0
LINE
  8
0
  6
CONTINUOUS
 62
     1
 10
379.0
 20
956.5
 11
391.0
 21
956.5
  0
LINE
  8
0
  6
CONTINUOUS
 62
     1
 10
379.0
 20
948.5
 11
391.0
 21
948.5
  0
LINE
  8
0
  6
CONTINUOUS
 62
     1
 10
394.0
 20
917.5
 11
394.0
 21
987.5
  0
LINE
  8
0
  6
CONTINUOUS
 62
     1
 10
391.0
 20
987.5
 11
465.0
 21
987.5
  0
LINE
  8
0
  6
CONTINUOUS
 62
     1
 10
391.0
 20
917.5
 11
465.0
 21
917.5
  0
LINE
  8
0
  6
CONTINUOUS
 62
     2
 10
1139.5
 20
757.5
 11
1034.0
 21
757.5
  0
LINE
  8
0
  6
CONTINUOUS
 62
     2
 10
1040.0
 20
757.5
 11
1037.411809549
 21
747.840741737
  0
LINE
  8
0
  6
CONTINUOUS
 62
     2
 10
1040.0
 20
757.5
 11
1042.588190451
 21
747.840741737
  0
LINE
  8
0
  6
CONTINUOUS
 62
     2
 10
1040.0
 20
757.5
 11
1040.0
 21
589.5
  0
LINE
  8
0
  6
CONTINUOUS
 62
     2
 10
1040.0
 20
589.5
 11
1042.588190451
 21
599.159258263
  0
LINE
  8
0
  6
CONTINUOUS
 62
     2
 10
1040.0
 20
589.5
 11
1037.411809549
 21
599.159258263
  0
LINE
  8
0
  6
CONTINUOUS
 62
     2
 10
1139.5
 20
589.5
 11
1034.0
 21
589.5
  0
TEXT
  8
0
  6
CONTINUOUS
 62
     2
 10
1036.0
 20
656.1
 30
1.2
 40
12.0
  1
１６８
 50
90.0
 41
0.9
 51
0.0
  7
KANJI23
  0
LINE
  8
0
  6
CONTINUOUS
 62
     2
 10
1040.0
 20
589.5
 11
1037.411809549
 21
579.840741737
  0
LINE
  8
0
  6
CONTINUOUS
 62
     2
 10
1040.0
 20
589.5
 11
1042.588190451
 21
579.840741737
  0
LINE
  8
0
  6
CONTINUOUS
 62
     2
 10
1040.0
 20
589.5
 11
1040.0
 21
564.5
  0
LINE
  8
0
  6
CONTINUOUS
 62
     2
 10
1040.0
 20
564.5
 11
1042.588190451
 21
574.159258263
  0
LINE
  8
0
  6
CONTINUOUS
 62
     2
 10
1040.0
 20
564.5
 11
1037.411809549
 21
574.159258263
  0
LINE
  8
0
  6
CONTINUOUS
 62
     2
 10
1140.5
 20
564.5
 11
1034.0
 21
564.5
  0
TEXT
  8
0
  6
CONTINUOUS
 62
     2
 10
1036.0
 20
565.6
 30
1.2
 40
12.0
  1
２５
 50
90.0
 41
0.9
 51
0.0
  7
KANJI23
  0
LINE
  8
0
  6
CONTINUOUS
 62
     2
 10
1040.0
 20
757.5
 11
1042.588190451
 21
767.159258263
  0
LINE
  8
0
  6
CONTINUOUS
 62
     2
 10
1040.0
 20
757.5
 11
1037.411809549
 21
767.159258263
  0
LINE
  8
0
  6
CONTINUOUS
 62
     2
 10
1040.0
 20
757.5
 11
1040.0
 21
782.5
  0
LINE
  8
0
  6
CONTINUOUS
 62
     2
 10
1040.0
 20
782.5
 11
1037.411809549
 21
772.840741737
  0
LINE
  8
0
  6
CONTINUOUS
 62
     2
 10
1040.0
 20
782.5
 11
1042.588190451
 21
772.840741737
  0
LINE
  8
0
  6
CONTINUOUS
 62
     2
 10
1140.5
 20
782.5
 11
1034.0
 21
782.5
  0
TEXT
  8
0
  6
CONTINUOUS
 62
     2
 10
1036.0
 20
758.6
 30
1.2
 40
12.0
  1
２５
 50
90.0
 41
0.9
 51
0.0
  7
KANJI23
  0
LINE
  8
0
  6
LTYPE1
 62
     2
 10
1154.0
 20
551.75
 11
1154.0
 21
620.95
  0
TEXT
  8
0
  6
CONTINUOUS
 62
     2
 10
1479.4
 20
913.1
 30
1.2
 40
12.0
  1
ＭＡＸ．１００
 50
0.0
 41
0.9
 51
0.0
  7
KANJI1
  0
TEXT
  8
0
  6
CONTINUOUS
 62
     2
 10
1530.4
 20
799.75
 30
1.2
 40
12.0
  1
１
 50
0.0
 41
0.9
 51
0.0
  7
KANJI1
  0
LINE
  8
0
  6
CONTINUOUS
 62
     1
 10
230.5
 20
762.0
 11
230.5
 21
782.5
  0
ARC
  8
0
  6
CONTINUOUS
 62
     1
 10
228.0
 20
762.0
 40
2.5
 50
270.0
 51
0.0
  0
LINE
  8
0
  6
CONTINUOUS
 62
     1
 10
225.5
 20
762.0
 11
225.5
 21
782.5
  0
ARC
  8
0
  6
CONTINUOUS
 62
     1
 10
228.0
 20
762.0
 40
2.5
 50
180.0
 51
270.0
  0
LINE
  8
0
  6
CONTINUOUS
 62
     1
 10
230.5
 20
585.0
 11
230.5
 21
564.5
  0
ARC
  8
0
  6
CONTINUOUS
 62
     1
 10
228.0
 20
585.0
 40
2.5
 50
0.0
 51
90.0
  0
LINE
  8
0
  6
CONTINUOUS
 62
     1
 10
225.5
 20
585.0
 11
225.5
 21
564.5
  0
ARC
  8
0
  6
CONTINUOUS
 62
     1
 10
228.0
 20
585.0
 40
2.5
 50
90.0
 51
180.0
  0
LINE
  8
0
  6
CONTINUOUS
 62
     2
 10
249.9
 20
700.0
 11
257.077230459
 21
706.963286791
  0
LINE
  8
0
  6
CONTINUOUS
 62
     2
 10
249.9
 20
700.0
 11
252.634020511
 21
709.618998485
  0
LINE
  8
0
  6
CONTINUOUS
 62
     2
 10
249.9
 20
700.0
 11
301.9
 21
787.0
  0
LINE
  8
0
  6
CONTINUOUS
 62
     2
 10
301.9
 20
787.0
 11
336.7
 21
787.0
  0
TEXT
  8
0
  6
CONTINUOUS
 62
     2
 10
301.9
 20
791.0
 30
1.2
 40
12.0
  1
給脂口
 50
0.0
 41
0.9
 51
0.0
  7
KANJI1
  0
TEXT
  8
0
  6
CONTINUOUS
 62
     2
 10
303.0
 20
770.2
 30
1.2
 40
12.0
  1
点検口
 50
0.0
 41
0.9
 51
0.0
  7
KANJI1
  0
LINE
  8
0
  6
CONTINUOUS
 62
     2
 10
549.5
 20
684.1
 11
555.490432965
 21
692.107166346
  0
LINE
  8
0
  6
CONTINUOUS
 62
     2
 10
549.5
 20
684.1
 11
550.684283954
 21
694.02962595
  0
LINE
  8
0
  6
CONTINUOUS
 62
     2
 10
549.5
 20
684.1
 11
589.5
 21
784.1
  0
LINE
  8
0
  6
CONTINUOUS
 62
     2
 10
589.5
 20
784.1
 11
621.9
 21
784.1
  0
TEXT
  8
0
  6
CONTINUOUS
 62
     2
 10
589.5
 20
788.1
 30
0.0
 40
12.0
  1
給脂口
 50
0.0
 41
0.9
 51
0.0
  7
KANJI2
  0
TEXT
  8
0
  6
CONTINUOUS
 62
     2
 10
960.7
 20
725.9
 30
1.2
 40
12.0
  1
ｄ９
 50
0.0
 41
0.9
 51
0.0
  7
KANJI1
  0
TEXT
  8
0
  6
CONTINUOUS
 62
     2
 10
727.9
 20
883.0
 30
1.2
 40
12.0
  1
５Ｘ５Ｘ２０キー付
 50
0.0
 41
0.9
 51
0.0
  7
KANJI1
  0
TEXT
  8
0
  6
CONTINUOUS
 62
     2
 10
6080.0
 20
2494.0
 30
40.0
 40
80.0
  1
特記事項
 50
0.0
 41
0.9
 51
0.0
  7
KANJI24
  0
TEXT
  8
0
  6
CONTINUOUS
 62
     2
 10
5800.0
 20
2334.0
 30
20.571428571
 40
72.0
  1
１。運転時は必ずピストンロッドの回転防止を行って下さい。
 50
0.0
 41
0.857142857
 51
0.0
  7
KANJI25
  0
TEXT
  8
0
  6
CONTINUOUS
 62
     2
 10
5800.0
 20
2178.0
 30
20.52
 40
72.0
  1
２。形式表示ストロークは機械的最大ストロークです。
 50
0.0
 41
0.857222222
 51
0.0
  7
KANJI26
  0
TEXT
  8
0
  6
CONTINUOUS
 62
     2
 10
5800.0
 20
2021.2
 30
20.52
 40
72.0
  1
　　実際に使用する場合は惰行距離を含め、両端に十分余裕を
 50
0.0
 41
0.857222222
 51
0.0
  7
KANJI26
  0
TEXT
  8
0
  6
CONTINUOUS
 62
     2
 10
5800.0
 20
1865.2
 30
20.52
 40
72.0
  1
　　みて下さい。
 50
0.0
 41
0.857222222
 51
0.0
  7
KANJI26
  0
TEXT
  8
0
  6
CONTINUOUS
 62
     2
 10
5800.0
 20
1711.2
 30
20.52
 40
72.0
  1
３．外部ＬＳユニット：信号確認用
 50
0.0
 41
0.857222222
 51
0.0
  7
KANJI26
  0
TEXT
  8
0
  6
CONTINUOUS
 62
     2
 10
5800.0
 20
1553.2
 30
20.52
 40
72.0
  1
　　リミットＳＷ　形式：ＷＬＣＡ２　Ｘ　２　（ＯＭＲＯＮ）
 50
0.0
 41
0.857222222
 51
0.0
  7
KANJI26
  0
TEXT
  8
0
  6
CONTINUOUS
 62
     2
 10
7292.0
 20
736.0
 30
55.0
 40
110.0
  1
外寸図
 50
0.0
 41
0.9
 51
0.0
  7
KANJI27
  0
TEXT
  8
0
  6
CONTINUOUS
 62
     2
 10
7138.0
 20
850.0
 30
10.0
 40
100.0
  1
マイティシリンダ
 50
0.0
 41
0.9
 51
0.0
  7
KANJI28
  0
TEXT
  8
0
  6
CONTINUOUS
 62
     2
 10
6320.0
 20
828.0
 30
6.4
 40
64.0
  1
ＳＣＤ５Ｂ－ＪＬＳ
 50
0.0
 41
0.9
 51
0.0
  7
KANJI29
  0
TEXT
  8
0
  6
CONTINUOUS
 62
     2
 10
1216.0
 20
498.8
 30
8.0
 40
16.0
  1
特記事項
 50
0.0
 41
0.9
 51
0.0
  7
KANJI30
  0
LINE
  8
0
  6
CONTINUOUS
 62
     1
 10
1109.0
 20
708.5
 11
1199.0
 21
708.5
  0
LINE
  8
0
  6
CONTINUOUS
 62
     1
 10
1139.0
 20
552.5
 11
1169.0
 21
552.5
  0
LINE
  8
0
  6
CONTINUOUS
 62
     1
 10
1109.0
 20
648.5
 11
1139.0
 21
552.5
  0
LINE
  8
0
  6
CONTINUOUS
 62
     1
 10
1199.0
 20
648.5
 11
1169.0
 21
552.5
  0
LINE
  8
0
  6
CONTINUOUS
 62
     1
 10
1109.0
 20
708.5
 11
1109.0
 21
675.0
  0
LINE
  8
0
  6
CONTINUOUS
 62
     1
 10
1109.0
 20
672.0
 11
1109.0
 21
648.5
  0
LINE
  8
0
  6
CONTINUOUS
 62
     1
 10
1199.0
 20
708.5
 11
1199.0
 21
675.0
  0
LINE
  8
0
  6
CONTINUOUS
 62
     1
 10
1199.0
 20
672.0
 11
1199.0
 21
648.5
  0
LINE
  8
0
  6
LTYPE1
 62
     2
 10
1105.2
 20
673.5
 11
1205.1
 21
673.5
  0
LINE
  8
0
  6
LTYPE1
 62
     2
 10
1123.1
 20
565.5
 11
1185.1
 21
565.5
  0
LINE
  8
0
  6
LTYPE1
 62
     2
 10
1154.0
 20
716.5
 11
1154.0
 21
549.3
  0
CIRCLE
  8
0
  6
CONTINUOUS
 62
     1
 10
1154.0
 20
565.5
 40
6.49995
  0
LINE
  8
0
  6
CONTINUOUS
 62
     1
 10
1160.49995
 20
569.24703
 11
1160.49995
 21
561.75297
  0
LINE
  8
0
  6
CONTINUOUS
 62
     1
 10
1160.49995
 20
561.75297
 11
1154.0
 21
558.00594
  0
LINE
  8
0
  6
CONTINUOUS
 62
     1
 10
1147.50005
 20
569.24703
 11
1147.50005
 21
561.75297
  0
LINE
  8
0
  6
CONTINUOUS
 62
     1
 10
1147.50005
 20
561.75297
 11
1154.0
 21
558.00594
  0
LINE
  8
0
  6
CONTINUOUS
 62
     1
 10
1160.49995
 20
569.24703
 11
1154.0
 21
572.99406
  0
LINE
  8
0
  6
CONTINUOUS
 62
     1
 10
1147.50005
 20
569.24703
 11
1154.0
 21
572.99406
  0
LINE
  8
0
  6
CONTINUOUS
 62
     1
 10
1236.5
 20
606.5
 11
1236.5
 21
612.5
  0
LINE
  8
0
  6
CONTINUOUS
 62
     1
 10
1071.5
 20
606.5
 11
1071.5
 21
612.5
  0
LINE
  8
0
  6
CONTINUOUS
 62
     1
 10
1116.0
 20
606.5
 11
1076.0
 21
606.5
  0
LINE
  8
0
  6
CONTINUOUS
 62
     1
 10
1076.0
 20
606.5
 11
1076.0
 21
606.6
  0
LINE
  8
0
  6
CONTINUOUS
 62
     1
 10
1076.0
 20
566.5
 11
1076.0
 21
567.5
  0
LINE
  8
0
  6
CONTINUOUS
 62
     1
 10
1076.0
 20
566.5
 11
1076.0
 21
606.5
  0
LINE
  8
0
  6
CONTINUOUS
 62
     1
 10
1116.0
 20
606.5
 11
1116.0
 21
566.5
  0
LINE
  8
0
  6
CONTINUOUS
 62
     1
 10
1125.25
 20
562.0
 11
1125.25
 21
569.0
  0
LINE
  8
0
  6
LTYPE3
 62
     2
 10
1096.0
 20
549.9
 11
1096.0
 21
607.9
  0
LINE
  8
0
  6
LTYPE3
 62
     2
 10
1111.1
 20
609.9
 11
1111.1
 21
562.9
  0
LINE
  8
0
  6
LTYPE3
 62
     2
 10
1080.9
 20
563.9
 11
1080.9
 21
610.9
  0
LINE
  8
0
  6
CONTINUOUS
 62
     1
 10
1139.0
 20
553.5
 11
1139.0
 21
561.5
  0
LINE
  8
0
  6
CONTINUOUS
 62
     1
 10
1139.0
 20
561.5
 11
1125.25
 21
561.5
  0
LINE
  8
0
  6
CONTINUOUS
 62
     1
 10
1116.0
 20
563.5
 11
1103.5
 21
563.5
  0
LINE
  8
0
  6
CONTINUOUS
 62
     1
 10
1125.25
 20
561.4
 11
1116.0
 21
563.5
  0
LINE
  8
0
  6
LTYPE3
 62
     2
 10
1134.0
 20
552.3
 11
1134.0
 21
571.5
  0
LINE
  8
0
  6
CONTINUOUS
 62
     1
 10
1103.5
 20
563.5
 11
1088.5
 21
563.5
  0
ARC
  8
0
  6
CONTINUOUS
 62
     1
 10
1085.3
 20
582.7
 40
2.0
 50
180.0
 51
270.0
  0
LINE
  8
0
  6
CONTINUOUS
 62
     1
 10
1106.7
 20
580.7
 11
1085.3
 21
580.7
  0
ARC
  8
0
  6
CONTINUOUS
 62
     1
 10
1106.7
 20
582.7
 40
2.0
 50
270.0
 51
360.0
  0
LINE
  8
0
  6
CONTINUOUS
 62
     1
 10
1108.7
 20
582.7
 11
1108.7
 21
604.1
  0
ARC
  8
0
  6
CONTINUOUS
 62
     1
 10
1106.7
 20
604.1
 40
2.0
 50
0.0
 51
90.0
  0
LINE
  8
0
  6
CONTINUOUS
 62
     1
 10
1083.3
 20
582.7
 11
1083.3
 21
604.1
  0
LINE
  8
0
  6
CONTINUOUS
 62
     1
 10
1106.7
 20
606.1
 11
1085.3
 21
606.1
  0
ARC
  8
0
  6
CONTINUOUS
 62
     1
 10
1085.3
 20
604.1
 40
2.0
 50
90.0
 51
180.0
  0
LINE
  8
0
  6
LTYPE3
 62
     2
 10
1081.9
 20
593.4
 11
1110.3
 21
593.4
  0
LINE
  8
0
  6
CONTINUOUS
 62
     1
 10
1103.5
 20
553.5
 11
1103.5
 21
580.7
  0
LINE
  8
0
  6
CONTINUOUS
 62
     1
 10
1088.5
 20
571.5
 11
1076.0
 21
571.5
  0
LINE
  8
0
  6
CONTINUOUS
 62
     1
 10
1116.0
 20
571.5
 11
1103.4
 21
571.5
  0
LINE
  8
0
  6
CONTINUOUS
 62
     1
 10
1088.4
 20
566.5
 11
1076.0
 21
566.5
  0
LINE
  8
0
  6
CONTINUOUS
 62
     1
 10
1116.0
 20
566.5
 11
1103.5
 21
566.5
  0
LINE
  8
0
  6
CONTINUOUS
 62
     1
 10
1232.0
 20
606.5
 11
1192.0
 21
606.5
  0
LINE
  8
0
  6
CONTINUOUS
 62
     1
 10
1192.0
 20
606.5
 11
1192.0
 21
606.6
  0
LINE
  8
0
  6
CONTINUOUS
 62
     1
 10
1192.0
 20
566.5
 11
1192.0
 21
567.5
  0
LINE
  8
0
  6
CONTINUOUS
 62
     1
 10
1192.0
 20
566.5
 11
1192.0
 21
606.5
  0
LINE
  8
0
  6
CONTINUOUS
 62
     1
 10
1232.0
 20
606.5
 11
1232.0
 21
566.5
  0
LINE
  8
0
  6
CONTINUOUS
 62
     1
 10
1232.0
 20
566.5
 11
1192.0
 21
566.5
  0
LINE
  8
0
  6
CONTINUOUS
 62
     1
 10
1232.0
 20
571.5
 11
1192.0
 21
571.5
  0
LINE
  8
0
  6
CONTINUOUS
 62
     1
 10
1219.5
 20
553.5
 11
1219.5
 21
566.5
  0
LINE
  8
0
  6
CONTINUOUS
 62
     1
 10
1204.5
 20
553.5
 11
1204.5
 21
566.5
  0
CIRCLE
  8
0
  6
CONTINUOUS
 62
     1
 10
1212.0
 20
584.9
 40
9.36
  0
LINE
  8
0
  6
CONTINUOUS
 62
     1
 10
1182.75
 20
562.0
 11
1182.75
 21
569.0
  0
LINE
  8
0
  6
LTYPE3
 62
     2
 10
1212.0
 20
549.9
 11
1212.0
 21
607.9
  0
LINE
  8
0
  6
LTYPE3
 62
     2
 10
1225.0
 20
584.9
 11
1199.0
 21
584.9
  0
LINE
  8
0
  6
LTYPE3
 62
     2
 10
1227.1
 20
609.9
 11
1227.1
 21
562.9
  0
LINE
  8
0
  6
LTYPE3
 62
     2
 10
1196.9
 20
563.9
 11
1196.9
 21
610.9
  0
LINE
  8
0
  6
LTYPE3
 62
     2
 10
1174.0
 20
549.9
 11
1174.0
 21
571.5
  0
CIRCLE
  8
0
  6
CONTINUOUS
 62
     2
 10
1212.0
 20
584.9
 40
10.47
  0
LINE
  8
0
  6
CONTINUOUS
 62
     1
 10
1169.0
 20
553.5
 11
1169.0
 21
562.0
  0
LINE
  8
0
  6
CONTINUOUS
 62
     1
 10
1169.0
 20
561.5
 11
1182.75
 21
561.5
  0
LINE
  8
0
  6
CONTINUOUS
 62
     1
 10
1192.0
 20
563.5
 11
1204.5
 21
563.5
  0
LINE
  8
0
  6
CONTINUOUS
 62
     1
 10
1182.75
 20
561.4
 11
1192.0
 21
563.5
  0
LINE
  8
0
  6
CONTINUOUS
 62
     1
 10
1169.0
 20
553.5
 11
1219.5
 21
553.5
  0
LINE
  8
0
  6
CONTINUOUS
 62
     1
 10
1088.5
 20
553.5
 11
1088.5
 21
580.7
  0
LINE
  8
0
  6
CONTINUOUS
 62
     1
 10
1139.0
 20
553.5
 11
1088.5
 21
553.5
  0
LINE
  8
0
  6
CONTINUOUS
 62
     1
 10
1138.0
 20
552.5
 11
1170.0
 21
552.5
  0
LINE
  8
0
  6
LTYPE1
 62
     2
 10
1066.0
 20
565.5
 11
1243.0
 21
565.5
  0
LINE
  8
0
  6
LTYPE1
 62
     2
 10
1154.0
 20
547.7
 11
1154.0
 21
620.95
  0
LINE
  8
0
  6
CONTINUOUS
 62
     1
 10
1187.75
 20
612.5
 11
1236.5
 21
612.5
  0
LINE
  8
0
  6
CONTINUOUS
 62
     1
 10
1071.5
 20
612.5
 11
1120.25
 21
612.5
  0
LINE
  8
0
  6
CONTINUOUS
 62
     1
 10
1185.875
 20
606.5
 11
1236.5
 21
606.5
  0
LINE
  8
0
  6
CONTINUOUS
 62
     1
 10
1071.5
 20
606.5
 11
1122.125
 21
606.5
  0
LINE
  8
0
  6
CONTINUOUS
 62
     1
 10
1133.84375
 20
569.0
 11
1125.25
 21
569.0
  0
LINE
  8
0
  6
CONTINUOUS
 62
     1
 10
1136.03125
 20
562.0
 11
1125.25
 21
562.0
  0
LINE
  8
0
  6
CONTINUOUS
 62
     1
 10
1182.75
 20
562.0
 11
1171.96875
 21
562.0
  0
LINE
  8
0
  6
CONTINUOUS
 62
     1
 10
1182.75
 20
569.0
 11
1174.0
 21
569.0
  0
LINE
  8
0
  6
LTYPE4
 62
     2
 10
1165.25
 20
562.0
 11
1165.25
 21
569.0
  0
LINE
  8
0
  6
LTYPE4
 62
     2
 10
1174.0
 20
569.0
 11
1165.25
 21
569.0
  0
LINE
  8
0
  6
LTYPE4
 62
     2
 10
1171.93125
 20
562.0
 11
1165.25
 21
562.0
  0
LINE
  8
0
  6
LTYPE4
 62
     2
 10
1142.75
 20
562.0
 11
1142.75
 21
569.0
  0
LINE
  8
0
  6
LTYPE4
 62
     2
 10
1142.75
 20
569.0
 11
1133.84375
 21
569.0
  0
LINE
  8
0
  6
LTYPE4
 62
     2
 10
1142.75
 20
562.0
 11
1136.03125
 21
562.0
  0
CIRCLE
  8
0
  6
CONTINUOUS
 62
     1
 10
1154.0
 20
565.5
 40
4.0
  0
CIRCLE
  8
0
  6
CONTINUOUS
 62
     2
 10
1154.0
 20
565.5
 40
3.2
  0
LINE
  8
0
  6
CONTINUOUS
 62
     1
 10
1109.0
 20
675.0
 11
1129.0
 21
675.0
  0
LINE
  8
0
  6
CONTINUOUS
 62
     1
 10
1109.0
 20
672.0
 11
1129.0
 21
672.0
  0
LINE
  8
0
  6
CONTINUOUS
 62
     1
 10
1179.0
 20
675.0
 11
1199.0
 21
675.0
  0
LINE
  8
0
  6
CONTINUOUS
 62
     1
 10
1179.0
 20
672.0
 11
1199.0
 21
672.0
  0
ARC
  8
0
  6
CONTINUOUS
 62
     1
 10
1154.0
 20
673.5
 40
55.0
 50
319.331205941
 51
0.0
  0
LINE
  8
0
  6
CONTINUOUS
 62
     1
 10
1188.5
 20
618.5
 11
1203.0
 21
618.5
  0
LINE
  8
0
  6
CONTINUOUS
 62
     1
 10
1187.1
 20
608.5
 11
1201.5
 21
608.5
  0
LINE
  8
0
  6
CONTINUOUS
 62
     1
 10
1106.5
 20
608.5
 11
1121.0
 21
608.5
  0
LINE
  8
0
  6
CONTINUOUS
 62
     1
 10
1105.0
 20
618.5
 11
1118.1
 21
618.5
  0
LINE
  8
0
  6
CONTINUOUS
 62
     1
 10
1106.5
 20
612.5
 11
1106.5
 21
618.5
  0
LINE
  8
0
  6
CONTINUOUS
 62
     1
 10
1106.5
 20
608.5
 11
1106.5
 21
612.5
  0
LINE
  8
0
  6
CONTINUOUS
 62
     1
 10
1201.5
 20
611.5
 11
1201.5
 21
618.5
  0
LINE
  8
0
  6
CONTINUOUS
 62
     1
 10
1201.5
 20
608.5
 11
1201.5
 21
611.5
  0
ARC
  8
0
  6
LTYPE4
 62
     2
 10
1154.0
 20
673.5
 40
55.0
 50
220.5225608
 51
319.331205941
  0
LINE
  8
0
  6
LTYPE4
 62
     2
 10
1118.1
 20
618.5
 11
1188.5
 21
618.5
  0
LINE
  8
0
  6
LTYPE4
 62
     2
 10
1179.0
 20
608.5
 11
1179.0
 21
592.5
  0
LINE
  8
0
  6
LTYPE4
 62
     2
 10
1121.0
 20
608.5
 11
1187.1
 21
608.5
  0
LINE
  8
0
  6
LTYPE4
 62
     2
 10
1129.0
 20
608.5
 11
1129.0
 21
592.5
  0
LINE
  8
0
  6
LTYPE4
 62
     2
 10
1146.5
 20
589.5
 11
1146.5
 21
564.5
  0
LINE
  8
0
  6
LTYPE4
 62
     2
 10
1145.5
 20
592.5
 11
1145.5
 21
589.5
  0
LINE
  8
0
  6
LTYPE4
 62
     2
 10
1161.5
 20
589.5
 11
1161.5
 21
564.5
  0
LINE
  8
0
  6
LTYPE4
 62
     2
 10
1162.5
 20
592.5
 11
1162.5
 21
589.5
  0
LINE
  8
0
  6
LTYPE4
 62
     2
 10
1129.0
 20
592.5
 11
1179.0
 21
592.5
  0
LINE
  8
0
  6
LTYPE4
 62
     2
 10
1145.5
 20
589.5
 11
1162.5
 21
589.5
  0
LINE
  8
0
  6
LTYPE4
 62
     2
 10
1146.5
 20
564.5
 11
1161.5
 21
564.5
  0
LINE
  8
0
  6
CONTINUOUS
 62
     2
 10
220.5
 20
788.5
 11
220.5
 21
816.6
  0
LINE
  8
0
  6
CONTINUOUS
 62
     2
 10
220.5
 20
810.6
 11
210.840741737
 21
813.188190451
  0
LINE
  8
0
  6
CONTINUOUS
 62
     2
 10
220.5
 20
810.6
 11
210.840741737
 21
808.011809549
  0
LINE
  8
0
  6
CONTINUOUS
 62
     2
 10
205.5
 20
810.6
 11
309.3
 21
810.6
  0
LINE
  8
0
  6
CONTINUOUS
 62
     2
 10
235.5
 20
810.6
 11
245.159258263
 21
808.011809549
  0
LINE
  8
0
  6
CONTINUOUS
 62
     2
 10
235.5
 20
810.6
 11
245.159258263
 21
813.188190451
  0
LINE
  8
0
  6
CONTINUOUS
 62
     2
 10
235.5
 20
788.5
 11
235.5
 21
816.6
  0
TEXT
  8
0
  6
CONTINUOUS
 62
     2
 10
250.5
 20
814.6
 30
1.2
 40
12.0
  1
φ１５ｈ７
 50
0.0
 41
0.9
 51
0.0
  7
KANJI23
  0
LINE
  8
0
  6
CONTINUOUS
 62
     2
 10
1209.0
 20
828.7
 11
1199.340741737
 21
831.288190451
  0
LINE
  8
0
  6
CONTINUOUS
 62
     2
 10
1209.0
 20
828.7
 11
1199.340741737
 21
826.111809549
  0
LINE
  8
0
  6
CONTINUOUS
 62
     2
 10
1209.0
 20
828.7
 11
1154.0
 21
828.7
  0
LINE
  8
0
  6
CONTINUOUS
 62
     2
 10
1154.0
 20
828.7
 11
1163.659258263
 21
826.111809549
  0
LINE
  8
0
  6
CONTINUOUS
 62
     2
 10
1154.0
 20
828.7
 11
1163.659258263
 21
831.288190451
  0
LINE
  8
0
  6
CONTINUOUS
 62
     2
 10
1154.0
 20
828.5
 11
1154.0
 21
834.7
  0
TEXT
  8
0
  6
CONTINUOUS
 62
     2
 10
1170.1
 20
832.7
 30
1.2
 40
12.0
  1
５５
 50
0.0
 41
0.9
 51
0.0
  7
KANJI23
  0
LINE
  8
0
  6
CONTINUOUS
 62
     2
 10
1154.0
 20
828.7
 11
1144.340741737
 21
831.288190451
  0
LINE
  8
0
  6
CONTINUOUS
 62
     2
 10
1154.0
 20
828.7
 11
1144.340741737
 21
826.111809549
  0
LINE
  8
0
  6
CONTINUOUS
 62
     2
 10
1154.0
 20
828.7
 11
1066.0
 21
828.7
  0
LINE
  8
0
  6
CONTINUOUS
 62
     2
 10
1066.0
 20
828.7
 11
1075.659258263
 21
826.111809549
  0
LINE
  8
0
  6
CONTINUOUS
 62
     2
 10
1066.0
 20
828.7
 11
1075.659258263
 21
831.288190451
  0
TEXT
  8
0
  6
CONTINUOUS
 62
     2
 10
1098.6
 20
832.7
 30
1.2
 40
12.0
  1
８８
 50
0.0
 41
0.9
 51
0.0
  7
KANJI23
  0
LINE
  8
0
  6
CONTINUOUS
 62
     2
 10
1066.0
 20
679.5
 11
1066.0
 21
836.2
  0
LINE
  8
0
  6
CONTINUOUS
 62
     2
 10
1209.0
 20
679.5
 11
1209.0
 21
836.2
  0
LINE
  8
0
  6
LTYPE1
 62
     2
 10
1154.0
 20
621.35
 11
1154.0
 21
830.2
  0
LINE
  8
0
  6
CONTINUOUS
 62
     2
 10
1129.0
 20
760.5
 11
1129.0
 21
811.4
  0
LINE
  8
0
  6
CONTINUOUS
 62
     2
 10
1129.0
 20
805.4
 11
1138.659258263
 21
802.811809549
  0
LINE
  8
0
  6
CONTINUOUS
 62
     2
 10
1129.0
 20
805.4
 11
1138.659258263
 21
807.988190451
  0
LINE
  8
0
  6
CONTINUOUS
 62
     2
 10
1129.0
 20
805.4
 11
1179.0
 21
805.4
  0
LINE
  8
0
  6
CONTINUOUS
 62
     2
 10
1179.0
 20
805.4
 11
1169.340741737
 21
807.988190451
  0
LINE
  8
0
  6
CONTINUOUS
 62
     2
 10
1179.0
 20
805.4
 11
1169.340741737
 21
802.811809549
  0
LINE
  8
0
  6
CONTINUOUS
 62
     2
 10
1179.0
 20
760.5
 11
1179.0
 21
811.4
  0
TEXT
  8
0
  6
CONTINUOUS
 62
     2
 10
1124.6
 20
809.4
 30
1.2
 40
12.0
  1
φ５０ｄ９
 50
0.0
 41
0.9
 51
0.0
  7
KANJI23
  0
ARC
  8
0
  6
CONTINUOUS
 62
     1
 10
1154.0
 20
673.5
 40
55.0
 50
145.093521362
 51
220.5225608
  0
ARC
  8
0
  6
LTYPE4
 62
     2
 10
1154.0
 20
673.5
 40
55.0
 50
140.31454567
 51
145.093521362
  0
ARC
  8
0
  6
CONTINUOUS
 62
     1
 10
1154.0
 20
673.5
 40
55.0
 50
39.521196359
 51
140.247888915
  0
ARC
  8
0
  6
CONTINUOUS
 62
     1
 10
1154.0
 20
673.5
 40
55.0
 50
0.0
 51
35.096801228
  0
ARC
  8
0
  6
LTYPE4
 62
     2
 10
1154.0
 20
673.5
 40
55.0
 50
35.096801228
 51
39.521196359
  0
LINE
  8
0
  6
CONTINUOUS
 62
     1
 10
832.0
 20
701.0
 11
832.0
 21
673.5
  0
ARC
  8
0
  6
CONTINUOUS
 62
     1
 10
810.337790779
 20
619.5
 40
1.0
 50
270.0
 51
345.0
  0
ARC
  8
0
  6
CONTINUOUS
 62
     1
 10
810.337789953
 20
619.5
 40
1.0
 50
195.0
 51
270.0
  0
LINE
  8
0
  6
CONTINUOUS
 62
     1
 10
805.749823916
 20
632.758819045
 11
809.371864126
 21
619.241180955
  0
ARC
  8
0
  6
CONTINUOUS
 62
     1
 10
804.78389809
 20
632.5
 40
1.0
 50
15.0
 51
90.0
  0
ARC
  8
0
  6
CONTINUOUS
 62
     1
 10
804.783897416
 20
632.5
 40
1.0
 50
90.0
 51
165.0
  0
LINE
  8
0
  6
CONTINUOUS
 62
     1
 10
803.81797159
 20
632.758819045
 11
800.19593138
 21
619.241180955
  0
ARC
  8
0
  6
CONTINUOUS
 62
     1
 10
799.230005553
 20
619.5
 40
1.0
 50
270.0
 51
345.0
  0
ARC
  8
0
  6
CONTINUOUS
 62
     1
 10
799.230003902
 20
619.5
 40
1.0
 50
195.0
 51
270.0
  0
ARC
  8
0
  6
CONTINUOUS
 62
     1
 10
793.676112865
 20
632.5
 40
1.0
 50
15.0
 51
90.0
  0
LINE
  8
0
  6
CONTINUOUS
 62
     1
 10
794.642038691
 20
632.758819045
 11
798.264078901
 21
619.241180955
  0
LINE
  8
0
  6
CONTINUOUS
 62
     1
 10
817.0
 20
640.5
 11
811.303716605
 21
619.241180955
  0
LINE
  8
0
  6
CONTINUOUS
 62
     1
 10
829.5
 20
638.5
 11
819.5
 21
638.5
  0
LINE
  8
0
  6
CONTINUOUS
 62
     1
 10
832.0
 20
640.5
 11
817.0
 21
640.5
  0
LINE
  8
0
  6
CONTINUOUS
 62
     1
 10
829.5
 20
640.5
 11
829.5
 21
638.5
  0
LINE
  8
0
  6
CONTINUOUS
 62
     1
 10
819.5
 20
640.5
 11
819.5
 21
638.5
  0
ARC
  8
0
  6
CONTINUOUS
 62
     1
 10
810.337790779
 20
727.5
 40
1.0
 50
15.0
 51
90.0
  0
ARC
  8
0
  6
CONTINUOUS
 62
     1
 10
810.337789953
 20
727.5
 40
1.0
 50
90.0
 51
165.0
  0
LINE
  8
0
  6
CONTINUOUS
 62
     1
 10
805.749823916
 20
714.241180955
 11
809.371864126
 21
727.758819045
  0
ARC
  8
0
  6
CONTINUOUS
 62
     1
 10
804.78389809
 20
714.5
 40
1.0
 50
270.0
 51
345.0
  0
ARC
  8
0
  6
CONTINUOUS
 62
     1
 10
804.783897416
 20
714.5
 40
1.0
 50
195.0
 51
270.0
  0
LINE
  8
0
  6
CONTINUOUS
 62
     1
 10
803.81797159
 20
714.241180955
 11
800.19593138
 21
727.758819045
  0
ARC
  8
0
  6
CONTINUOUS
 62
     1
 10
799.230005553
 20
727.5
 40
1.0
 50
15.0
 51
90.0
  0
ARC
  8
0
  6
CONTINUOUS
 62
     1
 10
799.230003902
 20
727.5
 40
1.0
 50
90.0
 51
165.0
  0
ARC
  8
0
  6
CONTINUOUS
 62
     1
 10
793.676112865
 20
714.5
 40
1.0
 50
270.0
 51
345.0
  0
LINE
  8
0
  6
CONTINUOUS
 62
     1
 10
794.642038691
 20
714.241180955
 11
798.264078901
 21
727.758819045
  0
LINE
  8
0
  6
CONTINUOUS
 62
     1
 10
817.0
 20
706.5
 11
811.303716605
 21
727.758819045
  0
LINE
  8
0
  6
CONTINUOUS
 62
     1
 10
829.5
 20
708.5
 11
819.5
 21
708.5
  0
LINE
  8
0
  6
CONTINUOUS
 62
     1
 10
832.0
 20
706.5
 11
817.0
 21
706.5
  0
LINE
  8
0
  6
CONTINUOUS
 62
     1
 10
829.5
 20
706.5
 11
829.5
 21
708.5
  0
LINE
  8
0
  6
CONTINUOUS
 62
     1
 10
819.5
 20
706.5
 11
819.5
 21
708.5
  0
LINE
  8
0
  6
CONTINUOUS
 62
     1
 10
817.0
 20
673.5
 11
817.0
 21
706.5
  0
LINE
  8
0
  6
CONTINUOUS
 62
     1
 10
793.676112865
 20
713.5
 11
793.676112865
 21
673.5
  0
LINE
  8
0
  6
CONTINUOUS
 62
     1
 10
799.230004728
 20
728.5
 11
799.230004728
 21
673.5
  0
LINE
  8
0
  6
CONTINUOUS
 62
     1
 10
810.337790779
 20
728.5
 11
810.337790779
 21
673.5
  0
LINE
  8
0
  6
CONTINUOUS
 62
     1
 10
804.78389809
 20
673.5
 11
804.78389809
 21
713.5
  0
LINE
  8
0
  6
CONTINUOUS
 62
     1
 10
832.0
 20
640.5
 11
832.0
 21
673.5
  0
LINE
  8
0
  6
CONTINUOUS
 62
     1
 10
817.0
 20
640.5
 11
817.0
 21
648.5
  0
LINE
  8
0
  6
CONTINUOUS
 62
     1
 10
798.0
 20
648.5
 11
832.0
 21
648.5
  0
LINE
  8
0
  6
CONTINUOUS
 62
     1
 10
710.531806225
 20
701.5
 11
710.531806225
 21
669.5
  0
LINE
  8
0
  6
CONTINUOUS
 62
     1
 10
607.531806225
 20
612.5
 11
737.531806225
 21
612.5
  0
LINE
  8
0
  6
CONTINUOUS
 62
     1
 10
745.231806225
 20
605.5
 11
745.231806225
 21
580.1
  0
LINE
  8
0
  6
CONTINUOUS
 62
     1
 10
719.831806225
 20
605.5
 11
745.231806225
 21
605.5
  0
LINE
  8
0
  6
CONTINUOUS
 62
     1
 10
607.531806225
 20
606.5
 11
607.531806225
 21
612.5
  0
LINE
  8
0
  6
CONTINUOUS
 62
     1
 10
607.531806225
 20
606.5
 11
737.531806225
 21
606.5
  0
LINE
  8
0
  6
CONTINUOUS
 62
     1
 10
737.531806225
 20
606.5
 11
737.531806225
 21
612.5
  0
LINE
  8
0
  6
CONTINUOUS
 62
     1
 10
719.831806225
 20
580.1
 11
745.231806225
 21
580.1
  0
LINE
  8
0
  6
CONTINUOUS
 62
     1
 10
651.131806225
 20
606.5
 11
651.131806225
 21
566.5
  0
LINE
  8
0
  6
CONTINUOUS
 62
     1
 10
719.831806225
 20
606.5
 11
719.831806225
 21
566.5
  0
LINE
  8
0
  6
LTYPE4
 62
     2
 10
656.231806225
 20
575.73
 11
651.231806225
 21
575.73
  0
LINE
  8
0
  6
LTYPE4
 62
     2
 10
656.231806225
 20
576.885
 11
651.231806225
 21
576.885
  0
LINE
  8
0
  6
LTYPE4
 62
     2
 10
656.231806225
 20
596.67
 11
651.231806225
 21
596.67
  0
LINE
  8
0
  6
LTYPE4
 62
     2
 10
656.231806225
 20
595.515
 11
651.231806225
 21
595.515
  0
LINE
  8
0
  6
LTYPE4
 62
     2
 10
656.231806225
 20
596.67
 11
651.231806225
 21
596.67
  0
LINE
  8
0
  6
LTYPE3
 62
     2
 10
672.531806225
 20
550.5
 11
672.531806225
 21
615.8
  0
LINE
  8
0
  6
LTYPE3
 62
     2
 10
729.531806225
 20
591.6875
 11
729.531806225
 21
551.7
  0
LINE
  8
0
  6
CONTINUOUS
 62
     1
 10
599.831806225
 20
605.5
 11
599.831806225
 21
580.1
  0
LINE
  8
0
  6
CONTINUOUS
 62
     1
 10
625.231806225
 20
605.5
 11
599.831806225
 21
605.5
  0
LINE
  8
0
  6
CONTINUOUS
 62
     1
 10
625.231806225
 20
580.1
 11
599.831806225
 21
580.1
  0
LINE
  8
0
  6
CONTINUOUS
 62
     1
 10
625.231806225
 20
606.5
 11
625.231806225
 21
566.5
  0
LINE
  8
0
  6
LTYPE3
 62
     2
 10
672.531806225
 20
548.0
 11
672.531806225
 21
636.3
  0
LINE
  8
0
  6
CONTINUOUS
 62
     1
 10
656.531806225
 20
551.5
 11
656.531806225
 21
566.5
  0
LINE
  8
0
  6
CONTINUOUS
 62
     1
 10
656.531806225
 20
551.5
 11
688.531806225
 21
551.5
  0
LINE
  8
0
  6
CONTINUOUS
 62
     1
 10
688.531806225
 20
551.5
 11
688.531806225
 21
566.5
  0
LINE
  8
0
  6
LTYPE1
 62
     2
 10
656.231806225
 20
585.2
 11
647.131806225
 21
585.2
  0
LINE
  8
0
  6
CONTINUOUS
 62
     1
 10
760.531806225
 20
556.5
 11
774.388212685
 21
548.5
  0
LINE
  8
0
  6
LTYPE4
 62
     2
 10
760.531806225
 20
558.5
 11
810.531806225
 21
558.5
  0
LINE
  8
0
  6
CONTINUOUS
 62
     1
 10
774.388212685
 20
548.5
 11
796.675399764
 21
548.5
  0
LINE
  8
0
  6
LTYPE4
 62
     2
 10
760.531806225
 20
570.5
 11
810.531806225
 21
570.5
  0
LINE
  8
0
  6
CONTINUOUS
 62
     1
 10
760.531806225
 20
572.5
 11
774.388212685
 21
580.5
  0
LINE
  8
0
  6
CONTINUOUS
 62
     1
 10
774.388212685
 20
580.5
 11
796.675399764
 21
580.5
  0
LINE
  8
0
  6
CONTINUOUS
 62
     1
 10
810.531806225
 20
572.5
 11
796.675399764
 21
580.5
  0
LINE
  8
0
  6
CONTINUOUS
 62
     1
 10
810.531806225
 20
556.5
 11
810.531806225
 21
572.5
  0
LINE
  8
0
  6
CONTINUOUS
 62
     1
 10
810.531806225
 20
556.5
 11
796.675399764
 21
548.5
  0
LINE
  8
0
  6
CONTINUOUS
 62
     1
 10
796.675399764
 20
548.5
 11
796.675399764
 21
580.5
  0
LINE
  8
0
  6
CONTINUOUS
 62
     1
 10
774.388212685
 20
548.5
 11
796.675399764
 21
548.5
  0
LINE
  8
0
  6
CONTINUOUS
 62
     1
 10
774.388212685
 20
548.5
 11
774.388212685
 21
580.5
  0
LINE
  8
0
  6
CONTINUOUS
 62
     1
 10
760.531806225
 20
556.5
 11
760.531806225
 21
572.5
  0
CIRCLE
  8
0
  6
CONTINUOUS
 62
     2
 10
785.531806225
 20
564.5
 40
5.0
  0
CIRCLE
  8
0
  6
CONTINUOUS
 62
     2
 10
785.531806225
 20
564.5
 40
4.0
  0
LINE
  8
0
  6
LTYPE3
 62
     2
 10
785.531806225
 20
554.5
 11
785.531806225
 21
574.5
  0
LINE
  8
0
  6
CONTINUOUS
 62
     1
 10
719.831806225
 20
570.5
 11
760.531806225
 21
570.5
  0
LINE
  8
0
  6
CONTINUOUS
 62
     1
 10
688.531806225
 20
558.5
 11
760.531806225
 21
558.5
  0
LINE
  8
0
  6
CONTINUOUS
 62
     1
 10
625.231806225
 20
572.5
 11
719.831806225
 21
572.5
  0
LINE
  8
0
  6
CONTINUOUS
 62
     1
 10
625.231806225
 20
566.5
 11
719.831806225
 21
566.5
  0
LINE
  8
0
  6
CONTINUOUS
 62
     1
 10
409.431806225
 20
570.5
 11
625.231806225
 21
570.5
  0
LINE
  8
0
  6
CONTINUOUS
 62
     1
 10
409.431806225
 20
558.5
 11
656.531806225
 21
558.5
  0
LINE
  8
0
  6
CONTINUOUS
 62
     1
 10
359.431806225
 20
556.5
 11
373.288212685
 21
548.5
  0
LINE
  8
0
  6
LTYPE4
 62
     2
 10
359.431806225
 20
558.5
 11
409.431806225
 21
558.5
  0
LINE
  8
0
  6
CONTINUOUS
 62
     1
 10
373.288212685
 20
548.5
 11
395.575399764
 21
548.5
  0
LINE
  8
0
  6
LTYPE4
 62
     2
 10
359.431806225
 20
570.5
 11
409.431806225
 21
570.5
  0
LINE
  8
0
  6
CONTINUOUS
 62
     1
 10
359.431806225
 20
572.5
 11
373.288212685
 21
580.5
  0
LINE
  8
0
  6
CONTINUOUS
 62
     1
 10
373.288212685
 20
580.5
 11
395.575399764
 21
580.5
  0
LINE
  8
0
  6
CONTINUOUS
 62
     1
 10
409.431806225
 20
572.5
 11
395.575399764
 21
580.5
  0
LINE
  8
0
  6
CONTINUOUS
 62
     1
 10
409.431806225
 20
556.5
 11
409.431806225
 21
572.5
  0
LINE
  8
0
  6
CONTINUOUS
 62
     1
 10
409.431806225
 20
556.5
 11
395.575399764
 21
548.5
  0
LINE
  8
0
  6
CONTINUOUS
 62
     1
 10
395.575399764
 20
548.5
 11
395.575399764
 21
580.5
  0
LINE
  8
0
  6
CONTINUOUS
 62
     1
 10
373.288212685
 20
548.5
 11
395.575399764
 21
548.5
  0
LINE
  8
0
  6
CONTINUOUS
 62
     1
 10
373.288212685
 20
548.5
 11
373.288212685
 21
580.5
  0
LINE
  8
0
  6
CONTINUOUS
 62
     1
 10
359.431806225
 20
556.5
 11
359.431806225
 21
572.5
  0
CIRCLE
  8
0
  6
CONTINUOUS
 62
     2
 10
384.431806225
 20
564.5
 40
5.0
  0
CIRCLE
  8
0
  6
CONTINUOUS
 62
     2
 10
384.431806225
 20
564.5
 40
4.0
  0
LINE
  8
0
  6
LTYPE3
 62
     2
 10
384.431806225
 20
554.5
 11
384.431806225
 21
574.5
  0
LINE
  8
0
  6
CONTINUOUS
 62
     1
 10
359.431806225
 20
558.5
 11
342.431806225
 21
558.5
  0
POINT
  8
0
  6
CONTINUOUS
 62
     1
 10
342.431806225
 20
558.5
  0
LINE
  8
0
  6
CONTINUOUS
 62
     1
 10
342.431806225
 20
558.5
 11
342.431806225
 21
570.5
  0
LINE
  8
0
  6
CONTINUOUS
 62
     1
 10
342.431806225
 20
570.5
 11
359.431806225
 21
570.5
  0
LINE
  8
0
  6
LTYPE1
 62
     2
 10
334.131806225
 20
564.5
 11
865.039806225
 21
564.5
  0
LINE
  8
0
  6
CONTINUOUS
 62
     1
 10
848.000304845
 20
564.5
 11
848.000304845
 21
571.99406
  0
LINE
  8
0
  6
CONTINUOUS
 62
     1
 10
848.000304845
 20
564.5
 11
848.000304845
 21
557.00594
  0
LINE
  8
0
  6
CONTINUOUS
 62
     1
 10
853.500204845
 20
570.15878
 11
852.440605443
 21
571.99406
  0
LINE
  8
0
  6
CONTINUOUS
 62
     1
 10
853.500204845
 20
564.5
 11
853.500204845
 21
570.15878
  0
LINE
  8
0
  6
CONTINUOUS
 62
     1
 10
853.500204845
 20
558.84122
 11
852.440605443
 21
557.00594
  0
LINE
  8
0
  6
CONTINUOUS
 62
     1
 10
853.500204845
 20
564.5
 11
853.500204845
 21
558.84122
  0
ARC
  8
0
  6
CONTINUOUS
 62
     1
 10
846.345149508
 20
564.5
 40
7.155055337
 50
328.419912243
 51
31.580087757
  0
ARC
  8
0
  6
CONTINUOUS
 62
     1
 10
851.314781079
 20
570.120545
 40
2.185758211
 50
301.002313915
 51
2.989498403
  0
LINE
  8
0
  6
CONTINUOUS
 62
     1
 10
853.500204845
 20
558.84122
 11
852.440605443
 21
557.00594
  0
ARC
  8
0
  6
CONTINUOUS
 62
     1
 10
851.314781079
 20
558.879455
 40
2.185758211
 50
357.010501597
 51
58.997686085
  0
LINE
  8
0
  6
CONTINUOUS
 62
     1
 10
848.000304845
 20
571.99406
 11
852.440605443
 21
571.99406
  0
LINE
  8
0
  6
CONTINUOUS
 62
     1
 10
848.000304845
 20
568.24703
 11
852.440605443
 21
568.24703
  0
LINE
  8
0
  6
CONTINUOUS
 62
     1
 10
848.000304845
 20
560.75297
 11
852.440605443
 21
560.75297
  0
LINE
  8
0
  6
CONTINUOUS
 62
     1
 10
848.000304845
 20
557.00594
 11
852.440605443
 21
557.00594
  0
LINE
  8
0
  6
CONTINUOUS
 62
     1
 10
853.500204845
 20
560.5
 11
858.500204845
 21
560.5
  0
LINE
  8
0
  6
CONTINUOUS
 62
     1
 10
853.500204845
 20
568.5
 11
858.500204845
 21
568.5
  0
LINE
  8
0
  6
CONTINUOUS
 62
     1
 10
858.500204845
 20
560.5
 11
858.500204845
 21
568.5
  0
LINE
  8
0
  6
CONTINUOUS
 62
     2
 10
853.500204845
 20
567.7
 11
858.500204845
 21
567.7
  0
LINE
  8
0
  6
CONTINUOUS
 62
     2
 10
853.500204845
 20
561.3
 11
858.500204845
 21
561.3
  0
LINE
  8
0
  6
CONTINUOUS
 62
     1
 10
810.531806225
 20
570.5
 11
832.000304845
 21
570.5
  0
LINE
  8
0
  6
CONTINUOUS
 62
     1
 10
810.531806225
 20
558.5
 11
832.000304845
 21
558.5
  0
LINE
  8
0
  6
CONTINUOUS
 62
     2
 10
848.0
 20
549.95
 11
848.0
 21
528.8
  0
LINE
  8
0
  6
CONTINUOUS
 62
     1
 10
832.0
 20
673.5
 11
832.0
 21
708.5
  0
LINE
  8
0
  6
CONTINUOUS
 62
     1
 10
848.000304845
 20
701.5
 11
848.000304845
 21
708.5
  0
LINE
  8
0
  6
CONTINUOUS
 62
     1
 10
832.000304845
 20
551.5
 11
832.000304845
 21
708.5
  0
LINE
  8
0
  6
LTYPE2
 62
     2
 10
793.676112865
 20
713.5
 11
778.730004728
 21
713.5
  0
LINE
  8
0
  6
LTYPE2
 62
     2
 10
793.676112865
 20
633.5
 11
778.730004728
 21
633.5
  0
LINE
  8
0
  6
LTYPE2
 62
     2
 10
799.230004728
 20
728.5
 11
778.730004728
 21
728.5
  0
LINE
  8
0
  6
LTYPE2
 62
     2
 10
799.230004728
 20
618.5
 11
778.730004728
 21
618.5
  0
LINE
  8
0
  6
CONTINUOUS
 62
     1
 10
832.000304845
 20
708.5
 11
848.0
 21
708.5
  0
LINE
  8
0
  6
CONTINUOUS
 62
     1
 10
832.000304845
 20
551.5
 11
848.0
 21
551.5
  0
LINE
  8
0
  6
CONTINUOUS
 62
     1
 10
848.0
 20
708.5
 11
848.0
 21
551.5
  0
LINE
  8
0
  6
CONTINUOUS
 62
     1
 10
694.531806225
 20
612.5
 11
694.531806225
 21
718.5
  0
LINE
  8
0
  6
CONTINUOUS
 62
     1
 10
694.531806225
 20
718.5
 11
710.531806225
 21
718.5
  0
LINE
  8
0
  6
CONTINUOUS
 62
     1
 10
710.531806225
 20
673.5
 11
710.531806225
 21
718.5
  0
LINE
  8
0
  6
CONTINUOUS
 62
     1
 10
710.531806225
 20
612.5
 11
710.531806225
 21
718.5
  0
LINE
  8
0
  6
CONTINUOUS
 62
     1
 10
634.531806225
 20
612.5
 11
634.531806225
 21
718.5
  0
LINE
  8
0
  6
CONTINUOUS
 62
     1
 10
634.531806225
 20
718.5
 11
650.531806225
 21
718.5
  0
LINE
  8
0
  6
CONTINUOUS
 62
     1
 10
650.531806225
 20
612.5
 11
650.531806225
 21
718.5
  0
LINE
  8
0
  6
CONTINUOUS
 62
     1
 10
391.0
 20
708.5
 11
634.900304845
 21
708.5
  0
LINE
  8
0
  6
CONTINUOUS
 62
     1
 10
650.200304845
 20
708.5
 11
694.300304845
 21
708.5
  0
LINE
  8
0
  6
CONTINUOUS
 62
     1
 10
391.0
 20
638.5
 11
635.200304845
 21
638.5
  0
LINE
  8
0
  6
CONTINUOUS
 62
     1
 10
711.200304845
 20
638.5
 11
798.0
 21
638.5
  0
LINE
  8
0
  6
CONTINUOUS
 62
     1
 10
648.200304845
 20
638.5
 11
693.200304845
 21
638.5
  0
TEXT
  8
0
  6
CONTINUOUS
 62
     2
 10
333.0
 20
310.4
 30
0.8
 40
12.0
  1
ＳＣＤ１－　２ＪＬ
 50
0.0
 41
0.833333333
 51
0.0
  7
KANJI31
  0
TEXT
  8
0
  6
CONTINUOUS
 62
     2
 10
333.0
 20
282.4
 30
0.8
 40
12.0
  1
ＳＣＤ１－　３ＪＬ
 50
0.0
 41
0.833333333
 51
0.0
  7
KANJI31
  0
TEXT
  8
0
  6
CONTINUOUS
 62
     2
 10
333.0
 20
254.4
 30
0.8
 40
12.0
  1
ＳＣＤ１－　４ＪＬ
 50
0.0
 41
0.833333333
 51
0.0
  7
KANJI31
  0
TEXT
  8
0
  6
CONTINUOUS
 62
     2
 10
333.0
 20
226.4
 30
0.8
 40
12.0
  1
ＳＣＤ１－　５ＪＬ
 50
0.0
 41
0.833333333
 51
0.0
  7
KANJI31
  0
TEXT
  8
0
  6
CONTINUOUS
 62
     2
 10
333.0
 20
198.4
 30
0.8
 40
12.0
  1
ＳＣＤ１－　７ＪＬ
 50
0.0
 41
0.833333333
 51
0.0
  7
KANJI31
  0
TEXT
  8
0
  6
CONTINUOUS
 62
     2
 10
333.0
 20
170.4
 30
0.8
 40
12.0
  1
ＳＣＤ１－１０ＪＬ
 50
0.0
 41
0.833333333
 51
0.0
  7
KANJI31
  0
LINE
  8
0
  6
CONTINUOUS
 62
     2
 10
1206.900304845
 20
575.65
 11
1198.453740305
 21
570.296912344
  0
LINE
  8
0
  6
CONTINUOUS
 62
     2
 10
1206.900304845
 20
575.65
 11
1202.261909207
 21
566.79080783
  0
LINE
  8
0
  6
CONTINUOUS
 62
     2
 10
1206.900304845
 20
575.65
 11
1141.900304845
 21
505.05
  0
LINE
  8
0
  6
CONTINUOUS
 62
     2
 10
1141.900304845
 20
505.05
 11
1059.100304845
 21
505.05
  0
TEXT
  8
0
  6
CONTINUOUS
 62
     2
 10
1059.100304845
 20
509.05
 30
1.2
 40
12.0
  1
２－ＰＦ１／２
 50
0.0
 41
0.9
 51
0.0
  7
KANJI1
  0
LINE
  8
0
  6
CONTINUOUS
 62
     2
 10
680.200304845
 20
550.45
 11
681.943123316
 21
540.603041902
  0
LINE
  8
0
  6
CONTINUOUS
 62
     2
 10
680.200304845
 20
550.45
 11
686.633108964
 21
542.793693373
  0
LINE
  8
0
  6
CONTINUOUS
 62
     2
 10
680.200304845
 20
550.45
 11
702.200304845
 21
503.35
  0
LINE
  8
0
  6
CONTINUOUS
 62
     2
 10
702.200304845
 20
503.35
 11
773.000304845
 21
503.35
  0
TEXT
  8
0
  6
CONTINUOUS
 62
     2
 10
702.200304845
 20
507.35
 30
1.2
 40
12.0
  1
ＬＳユニット
 50
0.0
 41
0.9
 51
0.0
  7
KANJI1
  0
LINE
  8
0
  6
CONTINUOUS
 62
     1
 10
179.0
 20
728.5
 11
228.0
 21
728.5
  0
LINE
  8
0
  6
CONTINUOUS
 62
     1
 10
179.0
 20
618.5
 11
179.0
 21
728.5
  0
LINE
  8
0
  6
CONTINUOUS
 62
     1
 10
179.0
 20
618.5
 11
228.0
 21
618.5
  0
CIRCLE
  8
0
  6
CONTINUOUS
 62
     1
 10
322.157364708
 20
673.5
 40
5.0
  0
CIRCLE
  8
0
  6
CONTINUOUS
 62
     1
 10
322.157364708
 20
673.5
 40
10.0
  0
LINE
  8
0
  6
CONTINUOUS
 62
     2
 10
325.857364708
 20
679.9
 11
332.917672594
 21
686.981811389
  0
LINE
  8
0
  6
CONTINUOUS
 62
     2
 10
325.857364708
 20
679.9
 11
328.430865001
 21
689.563182511
  0
LINE
  8
0
  6
CONTINUOUS
 62
     2
 10
325.857364708
 20
679.9
 11
370.157364708
 21
756.9
  0
LINE
  8
0
  6
CONTINUOUS
 62
     2
 10
370.157364708
 20
756.9
 11
464.957364708
 21
756.9
  0
TEXT
  8
0
  6
CONTINUOUS
 62
     2
 10
370.157364708
 20
760.9
 30
1.2
 40
12.0
  1
グリースニップル
 50
0.0
 41
0.9
 51
0.0
  7
KANJI1
  0
LINE
  8
0
  6
CONTINUOUS
 62
     2
 10
1071.5
 20
600.5
 11
1071.5
 21
523.2
  0
LINE
  8
0
  6
CONTINUOUS
 62
     2
 10
1071.5
 20
529.2
 11
1081.159258263
 21
526.611809549
  0
LINE
  8
0
  6
CONTINUOUS
 62
     2
 10
1071.5
 20
529.2
 11
1081.159258263
 21
531.788190451
  0
LINE
  8
0
  6
CONTINUOUS
 62
     2
 10
1071.5
 20
529.2
 11
1236.5
 21
529.2
  0
LINE
  8
0
  6
CONTINUOUS
 62
     2
 10
1236.5
 20
529.2
 11
1226.840741737
 21
531.788190451
  0
LINE
  8
0
  6
CONTINUOUS
 62
     2
 10
1236.5
 20
529.2
 11
1226.840741737
 21
526.611809549
  0
LINE
  8
0
  6
CONTINUOUS
 62
     2
 10
1236.5
 20
600.5
 11
1236.5
 21
523.2
  0
TEXT
  8
0
  6
CONTINUOUS
 62
     2
 10
1136.6
 20
533.2
 30
1.2
 40
12.0
  1
１６５
 50
0.0
 41
0.9
 51
0.0
  7
KANJI23
  0
LINE
  8
0
  6
CONTINUOUS
 62
     1
 10
173.0
 20
707.5
 11
173.0
 21
713.264654
  0
LINE
  8
0
  6
CONTINUOUS
 62
     1
 10
173.0
 20
707.5
 11
173.0
 21
701.735346
  0
LINE
  8
0
  6
CONTINUOUS
 62
     1
 10
169.00039
 20
711.852902
 11
169.815465397
 21
713.264654
  0
LINE
  8
0
  6
CONTINUOUS
 62
     1
 10
169.00039
 20
707.5
 11
169.00039
 21
711.852902
  0
LINE
  8
0
  6
CONTINUOUS
 62
     1
 10
169.00039
 20
703.147098
 11
169.815465397
 21
701.735346
  0
LINE
  8
0
  6
CONTINUOUS
 62
     1
 10
169.00039
 20
707.5
 11
169.00039
 21
703.147098
  0
ARC
  8
0
  6
CONTINUOUS
 62
     1
 10
174.504271523
 20
707.5
 40
5.503881523
 50
148.419912243
 51
211.580087757
  0
ARC
  8
0
  6
CONTINUOUS
 62
     1
 10
170.681483007
 20
711.8234905
 40
1.681350271
 50
177.010501597
 51
238.997686085
  0
LINE
  8
0
  6
CONTINUOUS
 62
     1
 10
169.00039
 20
703.147098
 11
169.815465397
 21
701.735346
  0
ARC
  8
0
  6
CONTINUOUS
 62
     1
 10
170.681483007
 20
703.1765095
 40
1.681350271
 50
121.002313915
 51
182.989498403
  0
LINE
  8
0
  6
CONTINUOUS
 62
     1
 10
173.0
 20
710.382327
 11
169.815465397
 21
710.382327
  0
LINE
  8
0
  6
CONTINUOUS
 62
     1
 10
173.0
 20
713.264654
 11
169.815465397
 21
713.264654
  0
LINE
  8
0
  6
CONTINUOUS
 62
     1
 10
173.0
 20
704.617673
 11
169.815465397
 21
704.617673
  0
LINE
  8
0
  6
CONTINUOUS
 62
     1
 10
173.0
 20
701.735346
 11
169.815465397
 21
701.735346
  0
LINE
  8
0
  6
LTYPE5
 62
     2
 10
167.1
 20
707.5
 11
185.3
 21
707.5
  0
LINE
  8
0
  6
CONTINUOUS
 62
     1
 10
173.0
 20
918.5
 11
173.0
 21
912.735346
  0
LINE
  8
0
  6
CONTINUOUS
 62
     1
 10
173.0
 20
918.5
 11
173.0
 21
924.264654
  0
LINE
  8
0
  6
CONTINUOUS
 62
     1
 10
169.00039
 20
914.147098
 11
169.815465397
 21
912.735346
  0
LINE
  8
0
  6
CONTINUOUS
 62
     1
 10
169.00039
 20
918.5
 11
169.00039
 21
914.147098
  0
LINE
  8
0
  6
CONTINUOUS
 62
     1
 10
169.00039
 20
922.852902
 11
169.815465397
 21
924.264654
  0
LINE
  8
0
  6
CONTINUOUS
 62
     1
 10
169.00039
 20
918.5
 11
169.00039
 21
922.852902
  0
ARC
  8
0
  6
CONTINUOUS
 62
     1
 10
174.504271523
 20
918.5
 40
5.503881523
 50
148.419912243
 51
211.580087757
  0
ARC
  8
0
  6
CONTINUOUS
 62
     1
 10
170.681483007
 20
914.1765095
 40
1.681350271
 50
121.002313915
 51
182.989498403
  0
LINE
  8
0
  6
CONTINUOUS
 62
     1
 10
169.00039
 20
922.852902
 11
169.815465397
 21
924.264654
  0
ARC
  8
0
  6
CONTINUOUS
 62
     1
 10
170.681483007
 20
922.8234905
 40
1.681350271
 50
177.010501597
 51
238.997686085
  0
LINE
  8
0
  6
CONTINUOUS
 62
     1
 10
173.0
 20
915.617673
 11
169.815465397
 21
915.617673
  0
LINE
  8
0
  6
CONTINUOUS
 62
     1
 10
173.0
 20
912.735346
 11
169.815465397
 21
912.735346
  0
LINE
  8
0
  6
CONTINUOUS
 62
     1
 10
173.0
 20
921.382327
 11
169.815465397
 21
921.382327
  0
LINE
  8
0
  6
CONTINUOUS
 62
     1
 10
173.0
 20
924.264654
 11
169.815465397
 21
924.264654
  0
LINE
  8
0
  6
LTYPE5
 62
     2
 10
167.1
 20
918.5
 11
185.3
 21
918.5
  0
LINE
  8
0
  6
CONTINUOUS
 62
     1
 10
173.0
 20
986.5
 11
173.0
 21
992.264654
  0
LINE
  8
0
  6
CONTINUOUS
 62
     1
 10
173.0
 20
986.5
 11
173.0
 21
980.735346
  0
LINE
  8
0
  6
CONTINUOUS
 62
     1
 10
169.00039
 20
990.852902
 11
169.815465397
 21
992.264654
  0
LINE
  8
0
  6
CONTINUOUS
 62
     1
 10
169.00039
 20
986.5
 11
169.00039
 21
990.852902
  0
LINE
  8
0
  6
CONTINUOUS
 62
     1
 10
169.00039
 20
982.147098
 11
169.815465397
 21
980.735346
  0
LINE
  8
0
  6
CONTINUOUS
 62
     1
 10
169.00039
 20
986.5
 11
169.00039
 21
982.147098
  0
ARC
  8
0
  6
CONTINUOUS
 62
     1
 10
174.504271523
 20
986.5
 40
5.503881523
 50
148.419912243
 51
211.580087757
  0
ARC
  8
0
  6
CONTINUOUS
 62
     1
 10
170.681483007
 20
990.8234905
 40
1.681350271
 50
177.010501597
 51
238.997686085
  0
LINE
  8
0
  6
CONTINUOUS
 62
     1
 10
169.00039
 20
982.147098
 11
169.815465397
 21
980.735346
  0
ARC
  8
0
  6
CONTINUOUS
 62
     1
 10
170.681483007
 20
982.1765095
 40
1.681350271
 50
121.002313915
 51
182.989498403
  0
LINE
  8
0
  6
CONTINUOUS
 62
     1
 10
173.0
 20
989.382327
 11
169.815465397
 21
989.382327
  0
LINE
  8
0
  6
CONTINUOUS
 62
     1
 10
173.0
 20
992.264654
 11
169.815465397
 21
992.264654
  0
LINE
  8
0
  6
CONTINUOUS
 62
     1
 10
173.0
 20
983.617673
 11
169.815465397
 21
983.617673
  0
LINE
  8
0
  6
CONTINUOUS
 62
     1
 10
173.0
 20
980.735346
 11
169.815465397
 21
980.735346
  0
LINE
  8
0
  6
LTYPE5
 62
     2
 10
167.1
 20
986.5
 11
185.3
 21
986.5
  0
TEXT
  8
0
  6
CONTINUOUS
 62
     2
 10
923.0
 20
741.7
 30
1.2
 40
12.0
  1
φ２５Ｈ１０
 50
0.0
 41
0.9
 51
0.0
  7
KANJI23
  0
LINE
  8
0
  6
CONTINUOUS
 62
     6
 10
73.36
 20
55.2
 11
73.36
 21
1131.2
  0
LINE
  8
0
  6
CONTINUOUS
 62
     6
 10
73.36
 20
1131.2
 11
1621.36
 21
1131.2
  0
TEXT
  8
0
  6
CONTINUOUS
 62
     4
 10
85.359997477
 20
75.199995795
 30
0.799999832
 40
7.999998318
  1
ＰＡＲＴＳ　ＬＩＳＴ
 50
0.0
 41
0.6
 51
0.0
  7
KANJI32
  0
TEXT
  8
0
  6
CONTINUOUS
 62
     4
 10
85.359997477
 20
63.199998318
 30
0.959999798
 40
9.599997982
  1
部品表
 50
0.0
 41
0.9
 51
0.0
  7
KANJI33
  0
LINE
  8
0
  6
CONTINUOUS
 62
     6
 10
1621.36
 20
55.2
 11
73.36
 21
55.2
  0
LINE
  8
0
  6
CONTINUOUS
 62
     6
 10
77.359999159
 20
115.199987385
 11
337.359944492
 21
115.199987385
  0
LINE
  8
0
  6
CONTINUOUS
 62
     6
 10
77.359999159
 20
59.199999159
 11
337.359944492
 21
59.199999159
  0
LINE
  8
0
  6
CONTINUOUS
 62
     6
 10
77.359999159
 20
59.199999159
 11
77.359999159
 21
115.199987385
  0
LINE
  8
0
  6
CONTINUOUS
 62
     6
 10
77.359999159
 20
87.199993272
 11
337.359944492
 21
87.199993272
  0
TEXT
  8
0
  6
CONTINUOUS
 62
     3
 10
85.359997477
 20
95.19999159
 30
1.199999748
 40
11.999997477
  1
ＰＬ
 50
0.0
 41
0.9
 51
0.0
  7
KANJI34
  0
LINE
  8
0
  6
CONTINUOUS
 62
     4
 10
28.8266664
 20
58.6666664
 11
70.4266632
 21
58.6666664
  0
LINE
  8
0
  6
CONTINUOUS
 62
     4
 10
28.8266664
 20
79.4666648
 11
70.4266632
 21
79.4666648
  0
LINE
  8
0
  6
CONTINUOUS
 62
     4
 10
28.8266664
 20
100.2666632
 11
70.4266632
 21
100.2666632
  0
LINE
  8
0
  6
CONTINUOUS
 62
     4
 10
28.8266664
 20
121.0666616
 11
70.4266632
 21
121.0666616
  0
LINE
  8
0
  6
CONTINUOUS
 62
     4
 10
28.8266664
 20
141.86666
 11
70.4266632
 21
141.86666
  0
LINE
  8
0
  6
CONTINUOUS
 62
     4
 10
28.8266664
 20
162.6666584
 11
70.4266632
 21
162.6666584
  0
LINE
  8
0
  6
CONTINUOUS
 62
     4
 10
28.8266664
 20
183.4666568
 11
70.4266632
 21
183.4666568
  0
LINE
  8
0
  6
CONTINUOUS
 62
     4
 10
28.8266664
 20
204.2666552
 11
70.4266632
 21
204.2666552
  0
LINE
  8
0
  6
CONTINUOUS
 62
     4
 10
28.8266664
 20
225.0666536
 11
70.4266632
 21
225.0666536
  0
LINE
  8
0
  6
CONTINUOUS
 62
     4
 10
28.8266664
 20
245.866652
 11
70.4266632
 21
245.866652
  0
LINE
  8
0
  6
CONTINUOUS
 62
     4
 10
70.4266632
 20
58.6666664
 11
70.4266632
 21
245.866652
  0
LINE
  8
0
  6
CONTINUOUS
 62
     4
 10
49.6266648
 20
58.6666664
 11
49.6266648
 21
225.0666536
  0
TEXT
  8
0
  6
CONTINUOUS
 62
     4
 10
35.93333252
 20
64.7333326
 30
1.03999992
 40
10.3999992
  1
計
 50
0.0
 41
0.75
 51
0.0
  7
KANJI35
  0
TEXT
  8
0
  6
CONTINUOUS
 62
     4
 10
35.93333252
 20
106.67999604
 30
1.03999992
 40
10.3999992
  1
設
 50
0.0
 41
0.75
 51
0.0
  7
KANJI35
  0
TEXT
  8
0
  6
CONTINUOUS
 62
     4
 10
35.93333252
 20
127.1333278
 30
1.03999992
 40
10.3999992
  1
管
 50
0.0
 41
0.75
 51
0.0
  7
KANJI35
  0
TEXT
  8
0
  6
CONTINUOUS
 62
     4
 10
35.93333252
 20
147.9333262
 30
1.03999992
 40
10.3999992
  1
製
 50
0.0
 41
0.75
 51
0.0
  7
KANJI35
  0
TEXT
  8
0
  6
CONTINUOUS
 62
     4
 10
35.93333252
 20
168.7333246
 30
1.03999992
 40
10.3999992
  1
資
 50
0.0
 41
0.75
 51
0.0
  7
KANJI35
  0
TEXT
  8
0
  6
CONTINUOUS
 62
     4
 10
35.93333252
 20
189.533323
 30
1.03999992
 40
10.3999992
  1
営
 50
0.0
 41
0.75
 51
0.0
  7
KANJI35
  0
TEXT
  8
0
  6
CONTINUOUS
 62
     4
 10
35.93333252
 20
210.3333214
 30
1.03999992
 40
10.3999992
  1
客
 50
0.0
 41
0.75
 51
0.0
  7
KANJI35
  0
TEXT
  8
0
  6
CONTINUOUS
 62
     4
 10
35.7599992
 20
231.9999864
 30
1.03999992
 40
10.3999992
  1
出　図
 50
0.0
 41
0.75
 51
0.0
  7
KANJI35
  0
TEXT
  8
0
  6
CONTINUOUS
 62
     4
 10
265.359959631
 20
75.199995795
 30
0.799999832
 40
7.999998318
  1
Ｎ０．
 50
0.0
 41
0.6
 51
0.0
  7
KANJI32
  0
TEXT
  8
0
  6
CONTINUOUS
 62
     4
 10
265.359959631
 20
63.199998318
 30
0.959999798
 40
9.599997982
  1
項番
 50
0.0
 41
0.9
 51
0.0
  7
KANJI33
  0
LINE
  8
0
  6
CONTINUOUS
 62
     6
 10
337.359944492
 20
59.199999159
 11
337.359944492
 21
115.199987385
  0
LINE
  8
0
  6
CONTINUOUS
 62
     6
 10
257.359961313
 20
59.199999159
 11
257.359961313
 21
115.199987385
  0
TEXT
  8
0
  6
CONTINUOUS
 62
     4
 10
1090.9600408
 20
129.7333276
 30
0.69333328
 40
6.9333328
  1
ＤＲＡＷＮ
 50
0.0
 41
0.6
 51
0.0
  7
KANJI36
  0
TEXT
  8
0
  6
CONTINUOUS
 62
     4
 10
1090.9600408
 20
157.4666588
 30
0.69333328
 40
6.9333328
  1
ＤＥＳＩＧＮ
 50
0.0
 41
0.6
 51
0.0
  7
KANJI36
  0
TEXT
  8
0
  6
CONTINUOUS
 62
     4
 10
1090.9600408
 20
185.19999
 30
0.69333328
 40
6.9333328
  1
ＣＨＥＣＫ
 50
0.0
 41
0.6
 51
0.0
  7
KANJI36
  0
TEXT
  8
0
  6
CONTINUOUS
 62
     4
 10
1090.9600408
 20
212.9333212
 30
0.69333328
 40
6.9333328
  1
ＣＯＤＥ
 50
0.0
 41
0.6
 51
0.0
  7
KANJI36
  0
LINE
  8
0
  6
CONTINUOUS
 62
     4
 10
1084.026708
 20
169.5999912
 11
1210.5600316
 21
169.5999912
  0
LINE
  8
0
  6
CONTINUOUS
 62
     4
 10
1084.026708
 20
141.86666
 11
1210.5600316
 21
141.86666
  0
LINE
  8
0
  6
CONTINUOUS
 62
     4
 10
1084.026708
 20
197.3333224
 11
1210.5600316
 21
197.3333224
  0
LINE
  8
0
  6
CONTINUOUS
 62
     4
 10
1084.026708
 20
225.0666536
 11
1617.8933336
 21
225.0666536
  0
TEXT
  8
0
  6
CONTINUOUS
 62
     4
 10
1090.9600408
 20
147.0666596
 30
0.831999936
 40
8.31999936
  1
設計
 50
0.0
 41
0.6
 51
0.0
  7
KANJI37
  0
TEXT
  8
0
  6
CONTINUOUS
 62
     4
 10
1090.9600408
 20
174.7999908
 30
0.831999936
 40
8.31999936
  1
検図
 50
0.0
 41
0.6
 51
0.0
  7
KANJI37
  0
TEXT
  8
0
  6
CONTINUOUS
 62
     4
 10
1090.9600408
 20
202.533322
 30
0.831999936
 40
8.31999936
  1
分類
 50
0.0
 41
0.6
 51
0.0
  7
KANJI37
  0
LINE
  8
0
  6
CONTINUOUS
 62
     4
 10
1220.78669748
 20
197.3333224
 11
1617.8933336
 21
197.3333224
  0
LINE
  8
0
  6
CONTINUOUS
 62
     4
 10
1210.5600316
 20
141.86666
 11
1617.8933336
 21
141.86666
  0
TEXT
  8
0
  6
CONTINUOUS
 62
     4
 10
1217.4933644
 20
129.7333276
 30
0.69333328
 40
6.9333328
  1
ＤＲＡＷＩＮＧ　ＮＯ．
 50
0.0
 41
0.8
 51
0.0
  7
KANJI38
  0
TEXT
  8
0
  6
CONTINUOUS
 62
     4
 10
1217.4933644
 20
157.4666588
 30
0.69333328
 40
6.9333328
  1
ＭＦＧ　ＮＯ．
 50
0.0
 41
0.8
 51
0.0
  7
KANJI38
  0
TEXT
  8
0
  6
CONTINUOUS
 62
     4
 10
1217.4933644
 20
185.19999
 30
0.69333328
 40
6.9333328
  1
ＴＹＰＥ
 50
0.0
 41
0.8
 51
0.0
  7
KANJI38
  0
LINE
  8
0
  6
CONTINUOUS
 62
     4
 10
1220.9600308
 20
169.5999912
 11
1380.4266852
 21
169.5999912
  0
TEXT
  8
0
  6
CONTINUOUS
 62
     4
 10
1217.4933644
 20
117.5999952
 30
0.831999936
 40
8.31999936
  1
図　面　番　号
 50
0.0
 41
0.8
 51
0.0
  7
KANJI39
  0
TEXT
  8
0
  6
CONTINUOUS
 62
     4
 10
1217.4933644
 20
145.3333264
 30
0.831999936
 40
8.31999936
  1
製番
 50
0.0
 41
0.8
 51
0.0
  7
KANJI39
  0
TEXT
  8
0
  6
CONTINUOUS
 62
     4
 10
1217.4933644
 20
173.0666576
 30
0.831999936
 40
8.31999936
  1
機種
 50
0.0
 41
0.8
 51
0.0
  7
KANJI39
  0
LINE
  8
0
  6
CONTINUOUS
 62
     4
 10
1084.026708
 20
86.3999976
 11
1210.5600316
 21
86.3999976
  0
LINE
  8
0
  6
CONTINUOUS
 62
     4
 10
1084.026708
 20
114.1333288
 11
1210.5600316
 21
114.1333288
  0
TEXT
  8
0
  6
CONTINUOUS
 62
     4
 10
1090.9600408
 20
74.2666652
 30
0.69333328
 40
6.9333328
  1
ＳＣＡＬＥ
 50
0.0
 41
0.6
 51
0.0
  7
KANJI36
  0
TEXT
  8
0
  6
CONTINUOUS
 62
     4
 10
1090.9600408
 20
101.9999964
 30
0.69333328
 40
6.9333328
  1
ＤＡＴＥ
 50
0.0
 41
0.6
 51
0.0
  7
KANJI36
  0
TEXT
  8
0
  6
CONTINUOUS
 62
     4
 10
1090.9600408
 20
63.866666
 30
0.831999936
 40
8.31999936
  1
尺度
 50
0.0
 41
0.6
 51
0.0
  7
KANJI37
  0
TEXT
  8
0
  6
CONTINUOUS
 62
     4
 10
1090.9600408
 20
91.5999972
 30
0.831999936
 40
8.31999936
  1
日付
 50
0.0
 41
0.6
 51
0.0
  7
KANJI37
  0
TEXT
  8
0
  6
CONTINUOUS
 62
     4
 10
1090.9600408
 20
119.3333284
 30
0.831999936
 40
8.31999936
  1
作図
 50
0.0
 41
0.6
 51
0.0
  7
KANJI37
  0
LINE
  8
0
  6
CONTINUOUS
 62
     4
 10
1210.5600316
 20
101.9999964
 11
1617.8933336
 21
101.9999964
  0
LINE
  8
0
  6
CONTINUOUS
 62
     4
 10
1210.5600316
 20
58.6666664
 11
1210.5600316
 21
225.0666536
  0
LINE
  8
0
  6
LTYPE4
 62
     4
 10
1501.7600092
 20
107.199996
 11
1501.7600092
 21
134.9333272
  0
LINE
  8
0
  6
LTYPE4
 62
     4
 10
1477.4933444
 20
107.199996
 11
1477.4933444
 21
134.9333272
  0
LINE
  8
0
  6
LTYPE4
 62
     4
 10
1453.2266796
 20
107.199996
 11
1453.2266796
 21
134.9333272
  0
LINE
  8
0
  6
LTYPE4
 62
     4
 10
1428.9600148
 20
107.199996
 11
1428.9600148
 21
134.9333272
  0
LINE
  8
0
  6
LTYPE4
 62
     4
 10
1404.69335
 20
107.199996
 11
1404.69335
 21
134.9333272
  0
LINE
  8
0
  6
LTYPE4
 62
     4
 10
1380.4266852
 20
107.199996
 11
1380.4266852
 21
134.9333272
  0
LINE
  8
0
  6
LTYPE4
 62
     4
 10
1356.1600204
 20
107.199996
 11
1356.1600204
 21
134.9333272
  0
LINE
  8
0
  6
LTYPE4
 62
     4
 10
1331.8933556
 20
107.199996
 11
1331.8933556
 21
134.9333272
  0
LINE
  8
0
  6
LTYPE4
 62
     4
 10
1331.8933556
 20
134.9333272
 11
1501.7600092
 21
134.9333272
  0
LINE
  8
0
  6
LTYPE4
 62
     4
 10
1331.8933556
 20
107.199996
 11
1501.7600092
 21
107.199996
  0
LINE
  8
0
  6
CONTINUOUS
 62
     4
 10
1515.6266748
 20
121.9333282
 11
1522.5600076
 21
121.9333282
  0
LINE
  8
0
  6
CONTINUOUS
 62
     4
 10
1558.9600048
 20
111.533329
 11
1534.69334
 21
111.533329
  0
LINE
  8
0
  6
CONTINUOUS
 62
     4
 10
1534.69334
 20
111.533329
 11
1546.8266724
 21
132.3333274
  0
LINE
  8
0
  6
CONTINUOUS
 62
     4
 10
1546.8266724
 20
132.3333274
 11
1558.9600048
 21
111.533329
  0
TEXT
  8
0
  6
CONTINUOUS
 62
     4
 10
1562.4266712
 20
20.533336
 30
3.4666664
 40
34.666664
  1
／
 50
0.0
 41
0.9
 51
0.0
  7
KANJI40
  0
TEXT
  8
0
  6
CONTINUOUS
 62
     4
 10
1390.8266844
 20
185.19999
 30
0.69333328
 40
6.9333328
  1
ＴＩＴＬＥ
 50
0.0
 41
0.8
 51
0.0
  7
KANJI38
  0
TEXT
  8
0
  6
CONTINUOUS
 62
     4
 10
1390.8266844
 20
173.0666576
 30
0.831999936
 40
8.31999936
  1
名称
 50
0.0
 41
0.8
 51
0.0
  7
KANJI39
  0
LINE
  8
0
  6
CONTINUOUS
 62
     6
 10
1621.36
 20
1131.2
 11
1621.36
 21
55.2
  0
LINE
  8
0
  6
CONTINUOUS
 62
     6
 10
810.1600624
 20
86.3999976
 11
1084.026708
 21
86.3999976
  0
LINE
  8
0
  6
CONTINUOUS
 62
     6
 10
810.1600624
 20
58.6666664
 11
1617.8933336
 21
58.6666664
  0
TEXT
  8
0
  6
CONTINUOUS
 62
     6
 10
1214.026698
 20
74.2666652
 30
0.0
 40
12.1333324
  1
ＵＮＩＴＥＣ　ＩＮＤＵＳＴＲＹ　ＣＯ．，ＬＴＤ．
 50
0.0
 41
0.42031746
 51
0.0
  7
KANJI41
  0
TEXT
  8
0
  6
CONTINUOUS
 62
     6
 10
1384.19668491
 20
69.75999888
 30
2.07999984
 40
20.7999984
  1
ユニテック工業株式会社
 50
0.0
 41
0.9
 51
0.0
  7
KANJI42
  0
TEXT
  8
0
  6
CONTINUOUS
 62
     3
 10
1463.36
 20
147.6
 30
2.0
 40
20.0
  1
外形寸法図
 50
0.0
 41
0.9
 51
0.0
  7
KANJI22
  0
TEXT
  8
0
  6
CONTINUOUS
 62
     3
 10
1426.36
 20
172.8
 30
2.0
 40
20.0
  1
マイティシリンダ
 50
0.0
 41
0.9
 51
0.0
  7
KANJI22
  0
LINE
  8
0
  6
CONTINUOUS
 62
     6
 10
1084.526708
 20
252.7999848
 11
1618.3933336
 21
252.7999848
  0
LINE
  8
0
  6
CONTINUOUS
 62
     6
 10
1617.8933336
 20
58.6666664
 11
1617.8933336
 21
280.533316
  0
LINE
  8
0
  6
CONTINUOUS
 62
     6
 10
1084.026708
 20
280.533316
 11
1617.8933336
 21
280.533316
  0
LINE
  8
0
  6
CONTINUOUS
 62
     6
 10
1084.026708
 20
58.6666664
 11
1084.026708
 21
280.533316
  0
LINE
  8
0
  6
CONTINUOUS
 62
     6
 10
1210.5600316
 20
225.0666536
 11
1210.5600316
 21
280.533316
  0
TEXT
  8
0
  6
CONTINUOUS
 62
     6
 10
1112.36
 20
256.9333312
 30
4.0
 40
14.4
  1
ご用途
 50
0.0
 41
0.833333333
 51
0.0
  7
KANJI43
  0
TEXT
  8
0
  6
CONTINUOUS
 62
     6
 10
1112.36
 20
229.2
 30
4.0
 40
14.4
  1
ご注文主
 50
0.0
 41
0.833333333
 51
0.0
  7
KANJI43
  0
LINE
  8
0
  6
CONTINUOUS
 62
     4
 10
888.1600564
 20
58.6666664
 11
888.1600564
 21
86.3999976
  0
LINE
  8
0
  6
CONTINUOUS
 62
     4
 10
919.360054
 20
58.6666664
 11
919.360054
 21
86.3999976
  0
TEXT
  8
0
  6
CONTINUOUS
 62
     4
 10
898.5600556
 20
74.2666652
 30
0.69333328
 40
6.9333328
  1
ＢＹ
 50
0.0
 41
0.6
 51
0.0
  7
KANJI36
  0
TEXT
  8
0
  6
CONTINUOUS
 62
     4
 10
974.8267164
 20
74.2666652
 30
0.69333328
 40
6.9333328
  1
ＤＥＳＣＲＩＰＴＩＯＮ
 50
0.0
 41
0.6
 51
0.0
  7
KANJI36
  0
TEXT
  8
0
  6
CONTINUOUS
 62
     4
 10
898.5600556
 20
63.866666
 30
0.831999936
 40
8.31999936
  1
担当
 50
0.0
 41
0.6
 51
0.0
  7
KANJI37
  0
TEXT
  8
0
  6
CONTINUOUS
 62
     4
 10
985.2267156
 20
63.866666
 30
0.831999936
 40
8.31999936
  1
記　　　　事
 50
0.0
 41
0.6
 51
0.0
  7
KANJI37
  0
LINE
  8
0
  6
CONTINUOUS
 62
     4
 10
824.8933946
 20
81.199998
 11
813.6267288
 21
63.866666
  0
TEXT
  8
0
  6
CONTINUOUS
 62
     4
 10
853.4933924
 20
74.2666652
 30
0.69333328
 40
6.9333328
  1
ＤＡＴＥ
 50
0.0
 41
0.6
 51
0.0
  7
KANJI36
  0
TEXT
  8
0
  6
CONTINUOUS
 62
     4
 10
858.693392
 20
63.866666
 30
0.831999936
 40
8.31999936
  1
日付
 50
0.0
 41
0.6
 51
0.0
  7
KANJI37
  0
LINE
  8
0
  6
CONTINUOUS
 62
     4
 10
813.6267288
 20
63.866666
 11
836.1600604
 21
63.866666
  0
LINE
  8
0
  6
CONTINUOUS
 62
     4
 10
839.6267268
 20
58.6666664
 11
839.6267268
 21
86.3999976
  0
LINE
  8
0
  6
CONTINUOUS
 62
     4
 10
824.8933946
 20
81.199998
 11
836.1600604
 21
63.866666
  0
LINE
  8
0
  6
CONTINUOUS
 62
     6
 10
810.1600624
 20
58.6666664
 11
810.1600624
 21
86.3999976
  0
TEXT
  8
0
  6
CONTINUOUS
 62
     3
 10
150.4266632
 20
34.6666664
 30
0.0
 40
12.0
  1
ＦＤ　Ｎｏ．ＳＣ１１
 50
0.0
 41
0.833333333
 51
0.0
  7
KANJI44
  0
LINE
  8
0
  6
CONTINUOUS
 62
     4
 10
824.8933946
 20
108.9333292
 11
813.6267288
 21
91.5999972
  0
LINE
  8
0
  6
CONTINUOUS
 62
     4
 10
813.6267288
 20
91.5999972
 11
836.1600604
 21
91.5999972
  0
LINE
  8
0
  6
CONTINUOUS
 62
     4
 10
824.8933946
 20
108.9333292
 11
836.1600604
 21
91.5999972
  0
TEXT
  8
0
  6
CONTINUOUS
 62
     2
 10
820.1600624
 20
91.9999976
 30
0.0
 40
12.0
  1
１
 50
0.0
 41
0.9
 51
0.0
  7
KANJI2
  0
TEXT
  8
0
  6
CONTINUOUS
 62
     2
 10
842.5600624
 20
90.3999976
 30
0.0
 40
12.0
  1
２００３．０９．２４　岡田　変更書替
 50
0.0
 41
0.9
 51
0.0
  7
KANJI2
  0
TEXT
  8
0
  6
CONTINUOUS
 62
     3
 10
1157.36
 20
63.2
 30
1.2
 40
18.0
  1
１／４
 50
0.0
 41
0.666666667
 51
0.0
  7
KANJI45
  0
TEXT
  8
0
  6
CONTINUOUS
 62
     2
 10
1263.5
 20
173.0
 30
1.28
 40
12.8
  1
ＳＣＤ１－ＪＬ
 50
0.0
 41
0.9
 51
0.0
  7
KANJI46
  0
TEXT
  8
0
  6
CONTINUOUS
 62
     2
 10
1147.1
 20
466.8
 30
4.114285714
 40
14.4
  1
１。運転時は必ずピストンロッドの回転防止を行って下さい。
 50
0.0
 41
0.857142857
 51
0.0
  7
KANJI47
  0
TEXT
  8
0
  6
CONTINUOUS
 62
     2
 10
1147.1
 20
435.6
 30
4.104
 40
14.4
  1
２。形式表示ストロークは機械的最大ストロークです。
 50
0.0
 41
0.857222222
 51
0.0
  7
KANJI48
  0
TEXT
  8
0
  6
CONTINUOUS
 62
     2
 10
1147.1
 20
404.24
 30
4.104
 40
14.4
  1
　　実際に使用する場合は惰行距離を含め、両端に十分余裕を
 50
0.0
 41
0.857222222
 51
0.0
  7
KANJI48
  0
TEXT
  8
0
  6
CONTINUOUS
 62
     2
 10
1147.1
 20
373.04
 30
4.104
 40
14.4
  1
　　みて下さい。
 50
0.0
 41
0.857222222
 51
0.0
  7
KANJI48
  0
TEXT
  8
0
  6
CONTINUOUS
 62
     2
 10
1147.1
 20
342.24
 30
4.104
 40
14.4
  1
３．外部ＬＳユニット：信号確認用
 50
0.0
 41
0.857222222
 51
0.0
  7
KANJI48
  0
TEXT
  8
0
  6
CONTINUOUS
 62
     2
 10
1287.626708
 20
148.1333224
 30
0.0
 40
12.0
  1
Ｓ
 50
0.0
 41
0.9
 51
0.0
  7
KANJI2
  0
CIRCLE
  8
0
  6
CONTINUOUS
 62
     2
 10
1292.426708
 20
153.7333224
 40
8.0
  0
TEXT
  8
0
  6
CONTINUOUS
 62
     3
 10
1128.6933556
 20
176.6666584
 30
1.2
 40
14.0
  1
田口
 50
0.0
 41
0.771428571
 51
0.0
  7
KANJI49
  0
TEXT
  8
0
  6
CONTINUOUS
 62
     3
 10
1128.6933556
 20
121.199996
 30
1.2
 40
14.0
  1
藤本
 50
0.0
 41
0.771428571
 51
0.0
  7
KANJI49
  0
TEXT
  8
0
  6
CONTINUOUS
 62
     3
 10
1117.0933556
 20
91.999996
 30
1.2
 40
14.0
  1
’９８．８．４
 50
0.0
 41
0.571428571
 51
0.0
  7
KANJI50
  0
TEXT
  8
0
  6
CONTINUOUS
 62
     2
 10
870.8
 20
40.0
 30
0.0
 40
12.0
  1
（Ａ３００００６６より変更）
 50
0.0
 41
0.9
 51
0.0
  7
KANJI2
  0
TEXT
  8
0
  6
CONTINUOUS
 62
     3
 10
1311.6266908
 20
111.199996
 30
8.666666667
 40
20.0
  1
Ａ３０００９７８
 50
0.0
 41
0.8
 51
0.0
  7
KANJI51
  0
TEXT
  8
0
  6
CONTINUOUS
 62
     2
 10
1147.1
 20
310.64
 30
4.104
 40
14.4
  1
　　リミットＳＷ　形式：１ＬＳ１－Ｊ　Ｘ　２　（山武）
 50
0.0
 41
0.857222222
 51
0.0
  7
KANJI48
  0
TEXT
  8
0
  6
CONTINUOUS
 62
     2
 10
479.6
 20
310.3
 30
1.2
 40
12.0
  1
　２００
 50
0.0
 41
0.9
 51
0.0
  7
KANJI1
  0
TEXT
  8
0
  6
CONTINUOUS
 62
     2
 10
479.6
 20
282.3
 30
1.2
 40
12.0
  1
　３００
 50
0.0
 41
0.9
 51
0.0
  7
KANJI1
  0
TEXT
  8
0
  6
CONTINUOUS
 62
     2
 10
479.6
 20
254.3
 30
1.2
 40
12.0
  1
　４００
 50
0.0
 41
0.9
 51
0.0
  7
KANJI1
  0
TEXT
  8
0
  6
CONTINUOUS
 62
     2
 10
479.6
 20
226.3
 30
1.2
 40
12.0
  1
　５００
 50
0.0
 41
0.9
 51
0.0
  7
KANJI1
  0
TEXT
  8
0
  6
CONTINUOUS
 62
     2
 10
479.6
 20
198.3
 30
1.2
 40
12.0
  1
　７００
 50
0.0
 41
0.9
 51
0.0
  7
KANJI1
  0
TEXT
  8
0
  6
CONTINUOUS
 62
     2
 10
479.6
 20
170.3
 30
1.2
 40
12.0
  1
１０００
 50
0.0
 41
0.9
 51
0.0
  7
KANJI1
  0
TEXT
  8
0
  6
CONTINUOUS
 62
     2
 10
559.6
 20
170.3
 30
1.2
 40
12.0
  1
１６４６
 50
0.0
 41
0.9
 51
0.0
  7
KANJI1
  0
TEXT
  8
0
  6
CONTINUOUS
 62
     2
 10
559.6
 20
198.3
 30
1.2
 40
12.0
  1
１２６３
 50
0.0
 41
0.9
 51
0.0
  7
KANJI1
  0
TEXT
  8
0
  6
CONTINUOUS
 62
     2
 10
559.6
 20
226.3
 30
1.2
 40
12.0
  1
　９８７
 50
0.0
 41
0.9
 51
0.0
  7
KANJI1
  0
TEXT
  8
0
  6
CONTINUOUS
 62
     2
 10
559.6
 20
254.3
 30
1.2
 40
12.0
  1
　８６０
 50
0.0
 41
0.9
 51
0.0
  7
KANJI1
  0
TEXT
  8
0
  6
CONTINUOUS
 62
     2
 10
559.6
 20
282.3
 30
1.2
 40
12.0
  1
　７２０
 50
0.0
 41
0.9
 51
0.0
  7
KANJI1
  0
TEXT
  8
0
  6
CONTINUOUS
 62
     2
 10
559.6
 20
310.3
 30
1.2
 40
12.0
  1
　６２０
 50
0.0
 41
0.9
 51
0.0
  7
KANJI1
  0
TEXT
  8
0
  6
CONTINUOUS
 62
     2
 10
639.6
 20
310.3
 30
1.2
 40
12.0
  1
　５６５
 50
0.0
 41
0.9
 51
0.0
  7
KANJI1
  0
TEXT
  8
0
  6
CONTINUOUS
 62
     2
 10
639.6
 20
282.3
 30
1.2
 40
12.0
  1
　６６５
 50
0.0
 41
0.9
 51
0.0
  7
KANJI1
  0
TEXT
  8
0
  6
CONTINUOUS
 62
     2
 10
639.6
 20
254.3
 30
1.2
 40
12.0
  1
　８０５
 50
0.0
 41
0.9
 51
0.0
  7
KANJI1
  0
TEXT
  8
0
  6
CONTINUOUS
 62
     2
 10
639.6
 20
226.3
 30
1.2
 40
12.0
  1
　９３２
 50
0.0
 41
0.9
 51
0.0
  7
KANJI1
  0
TEXT
  8
0
  6
CONTINUOUS
 62
     2
 10
639.6
 20
198.3
 30
1.2
 40
12.0
  1
１２０８
 50
0.0
 41
0.9
 51
0.0
  7
KANJI1
  0
TEXT
  8
0
  6
CONTINUOUS
 62
     2
 10
639.6
 20
170.3
 30
1.2
 40
12.0
  1
１５９１
 50
0.0
 41
0.9
 51
0.0
  7
KANJI1
  0
TEXT
  8
0
  6
CONTINUOUS
 62
     2
 10
719.6
 20
170.3
 30
1.2
 40
12.0
  1
１３１０
 50
0.0
 41
0.9
 51
0.0
  7
KANJI1
  0
TEXT
  8
0
  6
CONTINUOUS
 62
     2
 10
719.6
 20
198.3
 30
1.2
 40
12.0
  1
１０１０
 50
0.0
 41
0.9
 51
0.0
  7
KANJI1
  0
TEXT
  8
0
  6
CONTINUOUS
 62
     2
 10
719.6
 20
226.3
 30
1.2
 40
12.0
  1
　７７０
 50
0.0
 41
0.9
 51
0.0
  7
KANJI1
  0
TEXT
  8
0
  6
CONTINUOUS
 62
     2
 10
719.6
 20
254.3
 30
1.2
 40
12.0
  1
　６７０
 50
0.0
 41
0.9
 51
0.0
  7
KANJI1
  0
TEXT
  8
0
  6
CONTINUOUS
 62
     2
 10
719.6
 20
282.3
 30
1.2
 40
12.0
  1
　５７０
 50
0.0
 41
0.9
 51
0.0
  7
KANJI1
  0
TEXT
  8
0
  6
CONTINUOUS
 62
     2
 10
719.6
 20
310.3
 30
1.2
 40
12.0
  1
　４７０
 50
0.0
 41
0.9
 51
0.0
  7
KANJI1
  0
TEXT
  8
0
  6
CONTINUOUS
 62
     2
 10
799.6
 20
310.3
 30
1.2
 40
12.0
  1
　４５
 50
0.0
 41
0.9
 51
0.0
  7
KANJI1
  0
TEXT
  8
0
  6
CONTINUOUS
 62
     2
 10
799.6
 20
282.3
 30
1.2
 40
12.0
  1
　４５
 50
0.0
 41
0.9
 51
0.0
  7
KANJI1
  0
TEXT
  8
0
  6
CONTINUOUS
 62
     2
 10
799.6
 20
254.3
 30
1.2
 40
12.0
  1
　８５
 50
0.0
 41
0.9
 51
0.0
  7
KANJI1
  0
TEXT
  8
0
  6
CONTINUOUS
 62
     2
 10
799.6
 20
226.3
 30
1.2
 40
12.0
  1
１１２
 50
0.0
 41
0.9
 51
0.0
  7
KANJI1
  0
TEXT
  8
0
  6
CONTINUOUS
 62
     2
 10
799.6
 20
198.3
 30
1.2
 40
12.0
  1
１４８
 50
0.0
 41
0.9
 51
0.0
  7
KANJI1
  0
TEXT
  8
0
  6
CONTINUOUS
 62
     2
 10
799.6
 20
170.3
 30
1.2
 40
12.0
  1
２３１
 50
0.0
 41
0.9
 51
0.0
  7
KANJI1
  0
TEXT
  8
0
  6
CONTINUOUS
 62
     2
 10
1489.0
 20
996.6
 30
0.8
 40
12.0
  1
ＳＣＤ１－　　　ＪＬ
 50
0.0
 41
0.833333333
 51
0.0
  7
KANJI31
  0
TEXT
  8
0
  6
CONTINUOUS
 62
     2
 10
889.4
 20
312.2
 30
1.2
 40
12.0
  1
２４
 50
0.0
 41
0.9
 51
0.0
  7
KANJI1
  0
TEXT
  8
0
  6
CONTINUOUS
 62
     2
 10
889.4
 20
284.2
 30
1.2
 40
12.0
  1
２５
 50
0.0
 41
0.9
 51
0.0
  7
KANJI1
  0
TEXT
  8
0
  6
CONTINUOUS
 62
     2
 10
889.4
 20
256.2
 30
1.2
 40
12.0
  1
２７
 50
0.0
 41
0.9
 51
0.0
  7
KANJI1
  0
TEXT
  8
0
  6
CONTINUOUS
 62
     2
 10
889.4
 20
228.2
 30
1.2
 40
12.0
  1
２９
 50
0.0
 41
0.9
 51
0.0
  7
KANJI1
  0
TEXT
  8
0
  6
CONTINUOUS
 62
     2
 10
889.4
 20
200.2
 30
1.2
 40
12.0
  1
３７
 50
0.0
 41
0.9
 51
0.0
  7
KANJI1
  0
TEXT
  8
0
  6
CONTINUOUS
 62
     2
 10
889.4
 20
172.2
 30
1.2
 40
12.0
  1
４２
 50
0.0
 41
0.9
 51
0.0
  7
KANJI1
  0
LINE
  8
0
  6
CONTINUOUS
 62
     2
 10
919.539776106
 20
312.071572875
 11
926.467979336
 21
324.071572875
  0
LINE
  8
0
  6
CONTINUOUS
 62
     2
 10
926.467979336
 20
324.071572875
 11
933.396182566
 21
312.071572875
  0
LINE
  8
0
  6
CONTINUOUS
 62
     2
 10
933.396182566
 20
312.071572875
 11
919.539776106
 21
312.071572875
  0
TEXT
  8
0
  6
CONTINUOUS
 62
     2
 10
923.639552211
 20
313.243145751
 30
0.0
 40
5.656854249
  1
２
 50
0.0
 41
1.0
 51
0.0
  7
KANJI52
  0
LINE
  8
0
  6
CONTINUOUS
 62
     2
 10
919.539776106
 20
284.071572875
 11
926.467979336
 21
296.071572875
  0
LINE
  8
0
  6
CONTINUOUS
 62
     2
 10
926.467979336
 20
296.071572875
 11
933.396182566
 21
284.071572875
  0
LINE
  8
0
  6
CONTINUOUS
 62
     2
 10
933.396182566
 20
284.071572875
 11
919.539776106
 21
284.071572875
  0
TEXT
  8
0
  6
CONTINUOUS
 62
     2
 10
923.639552211
 20
285.243145751
 30
0.0
 40
5.656854249
  1
２
 50
0.0
 41
1.0
 51
0.0
  7
KANJI52
  0
LINE
  8
0
  6
CONTINUOUS
 62
     2
 10
919.539776106
 20
256.071572875
 11
926.467979336
 21
268.071572875
  0
LINE
  8
0
  6
CONTINUOUS
 62
     2
 10
926.467979336
 20
268.071572875
 11
933.396182566
 21
256.071572875
  0
LINE
  8
0
  6
CONTINUOUS
 62
     2
 10
933.396182566
 20
256.071572875
 11
919.539776106
 21
256.071572875
  0
TEXT
  8
0
  6
CONTINUOUS
 62
     2
 10
923.639552211
 20
257.243145751
 30
0.0
 40
5.656854249
  1
２
 50
0.0
 41
1.0
 51
0.0
  7
KANJI52
  0
LINE
  8
0
  6
CONTINUOUS
 62
     2
 10
919.539776106
 20
228.071572875
 11
926.467979336
 21
240.071572875
  0
LINE
  8
0
  6
CONTINUOUS
 62
     2
 10
926.467979336
 20
240.071572875
 11
933.396182566
 21
228.071572875
  0
LINE
  8
0
  6
CONTINUOUS
 62
     2
 10
933.396182566
 20
228.071572875
 11
919.539776106
 21
228.071572875
  0
TEXT
  8
0
  6
CONTINUOUS
 62
     2
 10
923.639552211
 20
229.243145751
 30
0.0
 40
5.656854249
  1
２
 50
0.0
 41
1.0
 51
0.0
  7
KANJI52
  0
LINE
  8
0
  6
CONTINUOUS
 62
     2
 10
919.539776106
 20
200.071572875
 11
926.467979336
 21
212.071572875
  0
LINE
  8
0
  6
CONTINUOUS
 62
     2
 10
926.467979336
 20
212.071572875
 11
933.396182566
 21
200.071572875
  0
LINE
  8
0
  6
CONTINUOUS
 62
     2
 10
933.396182566
 20
200.071572875
 11
919.539776106
 21
200.071572875
  0
TEXT
  8
0
  6
CONTINUOUS
 62
     2
 10
923.639552211
 20
201.243145751
 30
0.0
 40
5.656854249
  1
２
 50
0.0
 41
1.0
 51
0.0
  7
KANJI52
  0
LINE
  8
0
  6
CONTINUOUS
 62
     2
 10
919.539776106
 20
172.071572875
 11
926.467979336
 21
184.071572875
  0
LINE
  8
0
  6
CONTINUOUS
 62
     2
 10
926.467979336
 20
184.071572875
 11
933.396182566
 21
172.071572875
  0
LINE
  8
0
  6
CONTINUOUS
 62
     2
 10
933.396182566
 20
172.071572875
 11
919.539776106
 21
172.071572875
  0
TEXT
  8
0
  6
CONTINUOUS
 62
     2
 10
923.639552211
 20
173.243145751
 30
0.0
 40
5.656854249
  1
２
 50
0.0
 41
1.0
 51
0.0
  7
KANJI52
  0
POLYLINE
  8
0
  6
CONTINUOUS
 62
     4
 66
     1
  0
VERTEX
  8
0
  6
CONTINUOUS
 62
     4
 10
824.5233946
 20
128.4266604
  0
VERTEX
  8
0
  6
CONTINUOUS
 62
     4
 10
813.2567288
 20
111.0933284
  0
VERTEX
  8
0
  6
CONTINUOUS
 62
     4
 10
835.7900604
 20
111.0933284
  0
SEQEND
  0
LINE
  8
0
  6
CONTINUOUS
 62
     4
 10
824.5233946
 20
128.4266604
 11
835.7900604
 21
111.0933284
  0
TEXT
  8
0
  6
CONTINUOUS
 62
     2
 10
819.7900624
 20
111.4933288
 30
0.0
 40
12.0
  1
２
 50
0.0
 41
0.9
 51
0.0
  7
KANJI2
  0
TEXT
  8
0
  6
CONTINUOUS
 62
     2
 10
842.1900624
 20
109.8933288
 30
0.0
 40
12.0
  1
２００４．０３．０５　岡田　概算重量変更
 50
0.0
 41
0.9
 51
0.0
  7
KANJI2
  0
TEXT
  8
0
  6
CONTINUOUS
 62
     3
 10
1542.0
 20
112.68
 30
0.0
 40
12.0
  1
２
 50
0.0
 41
0.766666667
 51
0.0
  7
KANJI53
  0
LINE
  8
0
  6
CONTINUOUS
 62
     6
 10
1356.46335371
 20
77.455998288
 11
1347.311354414
 21
77.455998288
  0
LINE
  8
0
  6
CONTINUOUS
 62
     6
 10
1356.46335371
 20
79.11999816
 11
1347.311354414
 21
79.11999816
  0
LINE
  8
0
  6
CONTINUOUS
 62
     6
 10
1356.46335371
 20
77.455998288
 11
1365.615353006
 21
77.455998288
  0
LINE
  8
0
  6
CONTINUOUS
 62
     6
 10
1356.46335371
 20
79.11999816
 11
1365.615353006
 21
79.11999816
  0
LINE
  8
0
  6
CONTINUOUS
 62
     6
 10
1365.615353006
 20
79.11999816
 11
1365.615353006
 21
77.455998288
  0
ARC
  8
0
  6
CONTINUOUS
 62
     6
 10
1367.695352846
 20
78.287998224
 40
8.31999936
 50
185.739170477
 51
90.0
  0
ARC
  8
0
  6
CONTINUOUS
 62
     6
 10
1367.695352846
 20
78.287998224
 40
9.983999232
 50
184.780191847
 51
90.0
  0
LINE
  8
0
  6
CONTINUOUS
 62
     6
 10
1347.311354414
 20
77.455998288
 11
1347.311354414
 21
79.11999816
  0
LINE
  8
0
  6
CONTINUOUS
 62
     6
 10
1355.215353806
 20
88.271997456
 11
1345.231354574
 21
88.271997456
  0
LINE
  8
0
  6
CONTINUOUS
 62
     6
 10
1357.711353614
 20
88.271997456
 11
1367.695352846
 21
88.271997456
  0
ARC
  8
0
  6
CONTINUOUS
 62
     6
 10
1345.231354574
 20
78.287998224
 40
8.31999936
 50
90.0
 51
354.260829523
  0
ARC
  8
0
  6
CONTINUOUS
 62
     6
 10
1345.231354574
 20
78.287998224
 40
9.983999232
 50
90.0
 51
355.219808153
  0
LINE
  8
0
  6
CONTINUOUS
 62
     6
 10
1355.215353806
 20
88.271997456
 11
1355.215353806
 21
86.607997584
  0
LINE
  8
0
  6
CONTINUOUS
 62
     6
 10
1345.231354574
 20
86.607997584
 11
1355.215353806
 21
86.607997584
  0
LINE
  8
0
  6
CONTINUOUS
 62
     6
 10
1357.711353614
 20
88.271997456
 11
1357.711353614
 21
86.607997584
  0
LINE
  8
0
  6
CONTINUOUS
 62
     6
 10
1367.695352846
 20
86.607997584
 11
1357.711353614
 21
86.607997584
  0
LINE
  8
0
  6
CONTINUOUS
 62
     2
 10
910.5
 20
718.0
 11
910.5
 21
743.7
  0
LINE
  8
0
  6
CONTINUOUS
 62
     1
 10
910.5
 20
712.0
 11
910.5
 21
704.0
  0
LINE
  8
0
  6
LTYPE4
 62
     2
 10
910.5
 20
704.0
 11
910.5
 21
686.0
  0
LINE
  8
0
  6
CONTINUOUS
 62
     1
 10
910.5
 20
686.0
 11
910.5
 21
673.5
  0
LINE
  8
0
  6
CONTINUOUS
 62
     1
 10
910.5
 20
661.0
 11
910.5
 21
673.5
  0
LINE
  8
0
  6
LTYPE4
 62
     2
 10
910.5
 20
643.0
 11
910.5
 21
661.0
  0
LINE
  8
0
  6
CONTINUOUS
 62
     1
 10
910.5
 20
635.0
 11
910.5
 21
643.0
  0
LINE
  8
0
  6
CONTINUOUS
 62
     2
 10
885.5
 20
718.0
 11
885.5
 21
743.7
  0
LINE
  8
0
  6
CONTINUOUS
 62
     2
 10
885.5
 20
737.7
 11
875.840741737
 21
740.288190451
  0
LINE
  8
0
  6
CONTINUOUS
 62
     2
 10
885.5
 20
737.7
 11
875.840741737
 21
735.111809549
  0
LINE
  8
0
  6
CONTINUOUS
 62
     1
 10
885.5
 20
712.0
 11
885.5
 21
704.0
  0
LINE
  8
0
  6
LTYPE4
 62
     2
 10
885.5
 20
704.0
 11
885.5
 21
686.0
  0
LINE
  8
0
  6
CONTINUOUS
 62
     1
 10
885.5
 20
661.0
 11
885.5
 21
673.5
  0
LINE
  8
0
  6
CONTINUOUS
 62
     1
 10
885.5
 20
686.0
 11
885.5
 21
673.5
  0
LINE
  8
0
  6
LTYPE4
 62
     2
 10
885.5
 20
643.0
 11
885.5
 21
661.0
  0
LINE
  8
0
  6
CONTINUOUS
 62
     1
 10
885.5
 20
635.0
 11
885.5
 21
643.0
  0
LINE
  8
0
  6
CONTINUOUS
 62
     2
 10
873.0
 20
737.7
 11
993.8
 21
737.7
  0
LINE
  8
0
  6
CONTINUOUS
 62
     2
 10
910.5
 20
737.7
 11
920.159258263
 21
740.288190451
  0
LINE
  8
0
  6
CONTINUOUS
 62
     2
 10
910.5
 20
737.7
 11
920.159258263
 21
735.111809549
  0
LINE
  8
0
  6
CONTINUOUS
 62
     1
 10
885.5
 20
635.0
 11
910.5
 21
635.0
  0
LINE
  8
0
  6
CONTINUOUS
 62
     1
 10
885.5
 20
712.0
 11
910.5
 21
712.0
  0
LINE
  8
0
  6
CONTINUOUS
 62
     1
 10
863.0
 20
661.0
 11
923.0
 21
661.0
  0
ENDSEC
  0
EOF
