  0
SECTION
  2
HEADER
  9
$EXTMIN
 10
0.0
 20
0.0
 30
0.0
  9
$EXTMAX
 10
1680.0
 20
1188.0
 30
0.0
  9
$LIMMIN
 10
0.0
 20
0.0
  9
$LIMMAX
 10
1680.0
 20
1188.0
  9
$LTSCALE
 40
1.0
  9
$PDMODE
 70
     0
  0
ENDSEC
  0
SECTION
  2
TABLES
  0
TABLE
  2
LTYPE
 70
     5
  0
LTYPE
  2
CONTINUOUS
 70
    64
  3
Solid line
 72
    65
 73
     0
 40
0.0
  0
LTYPE
  2
LTYPE1
 70
    64
  3
CENTER
 72
    65
 73
     4
 40
80.0
 49
56.0
 49
-8.0
 49
8.0
 49
-8.0
  0
LTYPE
  2
LTYPE2
 70
    64
  3
CENTER
 72
    65
 73
     4
 40
40.0
 49
28.0
 49
-4.0
 49
4.0
 49
-4.0
  0
LTYPE
  2
LTYPE3
 70
    64
  3
CENTER
 72
    65
 73
     4
 40
60.0
 49
42.0
 49
-6.0
 49
6.0
 49
-6.0
  0
LTYPE
  2
LTYPE4
 70
    64
  3
HIDDEN
 72
    65
 73
     2
 40
12.0
 49
7.2
 49
-4.8
  0
ENDTAB
  0
TABLE
  2
LAYER
 70
   128
  0
LAYER
  2
0
 70
     0
 62
     7
  6
CONTINUOUS
  0
LAYER
  2
2
 70
     0
 62
     7
  6
CONTINUOUS
  0
LAYER
  2
3
 70
     0
 62
     7
  6
CONTINUOUS
  0
LAYER
  2
4
 70
     0
 62
     7
  6
CONTINUOUS
  0
LAYER
  2
5
 70
     0
 62
     7
  6
CONTINUOUS
  0
LAYER
  2
6
 70
     0
 62
     7
  6
CONTINUOUS
  0
LAYER
  2
7
 70
     0
 62
     7
  6
CONTINUOUS
  0
LAYER
  2
8
 70
     0
 62
     7
  6
CONTINUOUS
  0
LAYER
  2
9
 70
     0
 62
     7
  6
CONTINUOUS
  0
LAYER
  2
10
 70
     0
 62
     7
  6
CONTINUOUS
  0
LAYER
  2
11
 70
     0
 62
     7
  6
CONTINUOUS
  0
LAYER
  2
12
 70
     0
 62
     7
  6
CONTINUOUS
  0
LAYER
  2
13
 70
     0
 62
     7
  6
CONTINUOUS
  0
LAYER
  2
14
 70
     0
 62
     7
  6
CONTINUOUS
  0
LAYER
  2
15
 70
     0
 62
     7
  6
CONTINUOUS
  0
LAYER
  2
16
 70
     0
 62
     7
  6
CONTINUOUS
  0
LAYER
  2
17
 70
     0
 62
     7
  6
CONTINUOUS
  0
LAYER
  2
18
 70
     0
 62
     7
  6
CONTINUOUS
  0
LAYER
  2
19
 70
     0
 62
     7
  6
CONTINUOUS
  0
LAYER
  2
20
 70
     0
 62
     7
  6
CONTINUOUS
  0
LAYER
  2
21
 70
     0
 62
     7
  6
CONTINUOUS
  0
LAYER
  2
22
 70
     0
 62
     7
  6
CONTINUOUS
  0
LAYER
  2
23
 70
     0
 62
     7
  6
CONTINUOUS
  0
LAYER
  2
24
 70
     0
 62
     7
  6
CONTINUOUS
  0
LAYER
  2
25
 70
     0
 62
     7
  6
CONTINUOUS
  0
LAYER
  2
26
 70
     0
 62
     7
  6
CONTINUOUS
  0
LAYER
  2
27
 70
     0
 62
     7
  6
CONTINUOUS
  0
LAYER
  2
28
 70
     0
 62
     7
  6
CONTINUOUS
  0
LAYER
  2
29
 70
     0
 62
     7
  6
CONTINUOUS
  0
LAYER
  2
30
 70
     0
 62
     7
  6
CONTINUOUS
  0
LAYER
  2
31
 70
     0
 62
     7
  6
CONTINUOUS
  0
LAYER
  2
32
 70
     0
 62
     7
  6
CONTINUOUS
  0
LAYER
  2
33
 70
     0
 62
     7
  6
CONTINUOUS
  0
LAYER
  2
34
 70
     0
 62
     7
  6
CONTINUOUS
  0
LAYER
  2
35
 70
     0
 62
     7
  6
CONTINUOUS
  0
LAYER
  2
36
 70
     0
 62
     7
  6
CONTINUOUS
  0
LAYER
  2
37
 70
     0
 62
     7
  6
CONTINUOUS
  0
LAYER
  2
38
 70
     0
 62
     7
  6
CONTINUOUS
  0
LAYER
  2
39
 70
     0
 62
     7
  6
CONTINUOUS
  0
LAYER
  2
40
 70
     0
 62
     7
  6
CONTINUOUS
  0
LAYER
  2
41
 70
     0
 62
     7
  6
CONTINUOUS
  0
LAYER
  2
42
 70
     0
 62
     7
  6
CONTINUOUS
  0
LAYER
  2
43
 70
     0
 62
     7
  6
CONTINUOUS
  0
LAYER
  2
44
 70
     0
 62
     7
  6
CONTINUOUS
  0
LAYER
  2
45
 70
     0
 62
     7
  6
CONTINUOUS
  0
LAYER
  2
46
 70
     0
 62
     7
  6
CONTINUOUS
  0
LAYER
  2
47
 70
     0
 62
     7
  6
CONTINUOUS
  0
LAYER
  2
48
 70
     0
 62
     7
  6
CONTINUOUS
  0
LAYER
  2
49
 70
     0
 62
     7
  6
CONTINUOUS
  0
LAYER
  2
50
 70
     0
 62
     7
  6
CONTINUOUS
  0
LAYER
  2
51
 70
     0
 62
     7
  6
CONTINUOUS
  0
LAYER
  2
52
 70
     0
 62
     7
  6
CONTINUOUS
  0
LAYER
  2
53
 70
     0
 62
     7
  6
CONTINUOUS
  0
LAYER
  2
54
 70
     0
 62
     7
  6
CONTINUOUS
  0
LAYER
  2
55
 70
     0
 62
     7
  6
CONTINUOUS
  0
LAYER
  2
56
 70
     0
 62
     7
  6
CONTINUOUS
  0
LAYER
  2
57
 70
     0
 62
     7
  6
CONTINUOUS
  0
LAYER
  2
58
 70
     0
 62
     7
  6
CONTINUOUS
  0
LAYER
  2
59
 70
     0
 62
     7
  6
CONTINUOUS
  0
LAYER
  2
60
 70
     0
 62
     7
  6
CONTINUOUS
  0
LAYER
  2
61
 70
     0
 62
     7
  6
CONTINUOUS
  0
LAYER
  2
62
 70
     0
 62
     7
  6
CONTINUOUS
  0
LAYER
  2
63
 70
     0
 62
     7
  6
CONTINUOUS
  0
LAYER
  2
64
 70
     0
 62
     7
  6
CONTINUOUS
  0
LAYER
  2
65
 70
     0
 62
     7
  6
CONTINUOUS
  0
LAYER
  2
66
 70
     0
 62
     7
  6
CONTINUOUS
  0
LAYER
  2
67
 70
     0
 62
     7
  6
CONTINUOUS
  0
LAYER
  2
68
 70
     0
 62
     7
  6
CONTINUOUS
  0
LAYER
  2
69
 70
     0
 62
     7
  6
CONTINUOUS
  0
LAYER
  2
70
 70
     0
 62
     7
  6
CONTINUOUS
  0
LAYER
  2
71
 70
     0
 62
     7
  6
CONTINUOUS
  0
LAYER
  2
72
 70
     0
 62
     7
  6
CONTINUOUS
  0
LAYER
  2
73
 70
     0
 62
     7
  6
CONTINUOUS
  0
LAYER
  2
74
 70
     0
 62
     7
  6
CONTINUOUS
  0
LAYER
  2
75
 70
     0
 62
     7
  6
CONTINUOUS
  0
LAYER
  2
76
 70
     0
 62
     7
  6
CONTINUOUS
  0
LAYER
  2
77
 70
     0
 62
     7
  6
CONTINUOUS
  0
LAYER
  2
78
 70
     0
 62
     7
  6
CONTINUOUS
  0
LAYER
  2
79
 70
     0
 62
     7
  6
CONTINUOUS
  0
LAYER
  2
80
 70
     0
 62
     7
  6
CONTINUOUS
  0
LAYER
  2
81
 70
     0
 62
     7
  6
CONTINUOUS
  0
LAYER
  2
82
 70
     0
 62
     7
  6
CONTINUOUS
  0
LAYER
  2
83
 70
     0
 62
     7
  6
CONTINUOUS
  0
LAYER
  2
84
 70
     0
 62
     7
  6
CONTINUOUS
  0
LAYER
  2
85
 70
     0
 62
     7
  6
CONTINUOUS
  0
LAYER
  2
86
 70
     0
 62
     7
  6
CONTINUOUS
  0
LAYER
  2
87
 70
     0
 62
     7
  6
CONTINUOUS
  0
LAYER
  2
88
 70
     0
 62
     7
  6
CONTINUOUS
  0
LAYER
  2
89
 70
     0
 62
     7
  6
CONTINUOUS
  0
LAYER
  2
90
 70
     0
 62
     7
  6
CONTINUOUS
  0
LAYER
  2
91
 70
     0
 62
     7
  6
CONTINUOUS
  0
LAYER
  2
92
 70
     0
 62
     7
  6
CONTINUOUS
  0
LAYER
  2
93
 70
     0
 62
     7
  6
CONTINUOUS
  0
LAYER
  2
94
 70
     0
 62
     7
  6
CONTINUOUS
  0
LAYER
  2
95
 70
     0
 62
     7
  6
CONTINUOUS
  0
LAYER
  2
96
 70
     0
 62
     7
  6
CONTINUOUS
  0
LAYER
  2
97
 70
     0
 62
     7
  6
CONTINUOUS
  0
LAYER
  2
98
 70
     0
 62
     7
  6
CONTINUOUS
  0
LAYER
  2
99
 70
     0
 62
     7
  6
CONTINUOUS
  0
LAYER
  2
100
 70
     0
 62
     7
  6
CONTINUOUS
  0
LAYER
  2
101
 70
     0
 62
     7
  6
CONTINUOUS
  0
LAYER
  2
102
 70
     0
 62
     7
  6
CONTINUOUS
  0
LAYER
  2
103
 70
     0
 62
     7
  6
CONTINUOUS
  0
LAYER
  2
104
 70
     0
 62
     7
  6
CONTINUOUS
  0
LAYER
  2
105
 70
     0
 62
     7
  6
CONTINUOUS
  0
LAYER
  2
106
 70
     0
 62
     7
  6
CONTINUOUS
  0
LAYER
  2
107
 70
     0
 62
     7
  6
CONTINUOUS
  0
LAYER
  2
108
 70
     0
 62
     7
  6
CONTINUOUS
  0
LAYER
  2
109
 70
     0
 62
     7
  6
CONTINUOUS
  0
LAYER
  2
110
 70
     0
 62
     7
  6
CONTINUOUS
  0
LAYER
  2
111
 70
     0
 62
     7
  6
CONTINUOUS
  0
LAYER
  2
112
 70
     0
 62
     7
  6
CONTINUOUS
  0
LAYER
  2
113
 70
     0
 62
     7
  6
CONTINUOUS
  0
LAYER
  2
114
 70
     0
 62
     7
  6
CONTINUOUS
  0
LAYER
  2
115
 70
     0
 62
     7
  6
CONTINUOUS
  0
LAYER
  2
116
 70
     0
 62
     7
  6
CONTINUOUS
  0
LAYER
  2
117
 70
     0
 62
     7
  6
CONTINUOUS
  0
LAYER
  2
118
 70
     0
 62
     7
  6
CONTINUOUS
  0
LAYER
  2
119
 70
     0
 62
     7
  6
CONTINUOUS
  0
LAYER
  2
120
 70
     0
 62
     7
  6
CONTINUOUS
  0
LAYER
  2
121
 70
     0
 62
     7
  6
CONTINUOUS
  0
LAYER
  2
122
 70
     0
 62
     7
  6
CONTINUOUS
  0
LAYER
  2
123
 70
     0
 62
     7
  6
CONTINUOUS
  0
LAYER
  2
124
 70
     0
 62
     7
  6
CONTINUOUS
  0
LAYER
  2
125
 70
     0
 62
     7
  6
CONTINUOUS
  0
LAYER
  2
126
 70
     0
 62
     7
  6
CONTINUOUS
  0
LAYER
  2
127
 70
     0
 62
     7
  6
CONTINUOUS
  0
LAYER
  2
128
 70
     0
 62
     7
  6
CONTINUOUS
  0
ENDTAB
  0
TABLE
  2
STYLE
 70
    57
  0
STYLE
  2
STANDARD
 70
     0
 40
0.0
 41
1.0
 50
0.0
 71
     0
 42
0.2
  3
txt
  4

  0
STYLE
  2
KANJI0
 70
     0
 40
12.0
 41
0.9
 50
0.0
 71
     0
 42
12.0
  3

  4
bigfont
  0
STYLE
  2
KANJI1
 70
     0
 40
12.0
 41
0.9
 50
0.0
 71
     0
 42
12.0
  3

  4
bigfont
  0
STYLE
  2
KANJI2
 70
     0
 40
9.6
 41
0.777777778
 50
0.0
 71
     0
 42
9.6
  3

  4
bigfont
  0
STYLE
  2
KANJI3
 70
     0
 40
12.8
 41
0.9
 50
0.0
 71
     0
 42
12.8
  3

  4
bigfont
  0
STYLE
  2
KANJI4
 70
     0
 40
14.0
 41
0.9
 50
0.0
 71
     0
 42
14.0
  3

  4
bigfont
  0
STYLE
  2
KANJI5
 70
     0
 40
15.0
 41
0.9
 50
0.0
 71
     0
 42
15.0
  3

  4
bigfont
  0
STYLE
  2
KANJI6
 70
     0
 40
9.0
 41
0.9
 50
0.0
 71
     0
 42
9.0
  3

  4
bigfont
  0
STYLE
  2
KANJI7
 70
     0
 40
20.0
 41
0.9
 50
0.0
 71
     0
 42
20.0
  3

  4
bigfont
  0
STYLE
  2
KANJI8
 70
     0
 40
12.0
 41
0.9
 50
0.0
 71
     0
 42
12.0
  3

  4
bigfont
  0
STYLE
  2
KANJI9
 70
     0
 40
80.0
 41
0.9
 50
0.0
 71
     0
 42
80.0
  3

  4
bigfont
  0
STYLE
  2
KANJI10
 70
     0
 40
72.0
 41
0.857142857
 50
0.0
 71
     0
 42
72.0
  3

  4
bigfont
  0
STYLE
  2
KANJI11
 70
     0
 40
72.0
 41
0.857222222
 50
0.0
 71
     0
 42
72.0
  3

  4
bigfont
  0
STYLE
  2
KANJI12
 70
     0
 40
110.0
 41
0.9
 50
0.0
 71
     0
 42
110.0
  3

  4
bigfont
  0
STYLE
  2
KANJI13
 70
     0
 40
100.0
 41
0.9
 50
0.0
 71
     0
 42
100.0
  3

  4
bigfont
  0
STYLE
  2
KANJI14
 70
     0
 40
64.0
 41
0.9
 50
0.0
 71
     0
 42
64.0
  3

  4
bigfont
  0
STYLE
  2
KANJI15
 70
     0
 40
16.0
 41
0.9
 50
0.0
 71
     0
 42
16.0
  3

  4
bigfont
  0
STYLE
  2
KANJI16
 70
     0
 40
14.4
 41
0.857142857
 50
0.0
 71
     0
 42
14.4
  3

  4
bigfont
  0
STYLE
  2
KANJI17
 70
     0
 40
14.4
 41
0.857222222
 50
0.0
 71
     0
 42
14.4
  3

  4
bigfont
  0
STYLE
  2
KANJI18
 70
     0
 40
12.0
 41
0.9
 50
0.0
 71
     0
 42
12.0
  3

  4
bigfont
  0
STYLE
  2
KANJI19
 70
     0
 40
12.0
 41
0.833333333
 50
0.0
 71
     0
 42
12.0
  3

  4
bigfont
  0
STYLE
  2
KANJI20
 70
     0
 40
12.0
 41
0.9
 50
0.0
 71
     0
 42
12.0
  3

  4
bigfont
  0
STYLE
  2
KANJI21
 70
     0
 40
7.999998318
 41
0.6
 50
0.0
 71
     0
 42
7.999998318
  3

  4
bigfont
  0
STYLE
  2
KANJI22
 70
     0
 40
9.599997982
 41
0.9
 50
0.0
 71
     0
 42
9.599997982
  3

  4
bigfont
  0
STYLE
  2
KANJI23
 70
     0
 40
11.999997477
 41
0.9
 50
0.0
 71
     0
 42
11.999997477
  3

  4
bigfont
  0
STYLE
  2
KANJI24
 70
     0
 40
10.3999992
 41
0.75
 50
0.0
 71
     0
 42
10.3999992
  3

  4
bigfont
  0
STYLE
  2
KANJI25
 70
     0
 40
6.9333328
 41
0.6
 50
0.0
 71
     0
 42
6.9333328
  3

  4
bigfont
  0
STYLE
  2
KANJI26
 70
     0
 40
8.31999936
 41
0.6
 50
0.0
 71
     0
 42
8.31999936
  3

  4
bigfont
  0
STYLE
  2
KANJI27
 70
     0
 40
6.9333328
 41
0.8
 50
0.0
 71
     0
 42
6.9333328
  3

  4
bigfont
  0
STYLE
  2
KANJI28
 70
     0
 40
8.31999936
 41
0.8
 50
0.0
 71
     0
 42
8.31999936
  3

  4
bigfont
  0
STYLE
  2
KANJI29
 70
     0
 40
34.666664
 41
0.9
 50
0.0
 71
     0
 42
34.666664
  3

  4
bigfont
  0
STYLE
  2
KANJI30
 70
     0
 40
12.1333324
 41
0.42031746
 50
0.0
 71
     0
 42
12.1333324
  3

  4
bigfont
  0
STYLE
  2
KANJI31
 70
     0
 40
20.7999984
 41
0.9
 50
0.0
 71
     0
 42
20.7999984
  3

  4
bigfont
  0
STYLE
  2
KANJI32
 70
     0
 40
20.0
 41
1.0
 50
0.0
 71
     0
 42
20.0
  3

  4
bigfont
  0
STYLE
  2
KANJI33
 70
     0
 40
20.0
 41
1.0
 50
0.0
 71
     0
 42
20.0
  3

  4
bigfont
  0
STYLE
  2
KANJI34
 70
     0
 40
14.4
 41
0.833333333
 50
0.0
 71
     0
 42
14.4
  3

  4
bigfont
  0
STYLE
  2
KANJI35
 70
     0
 40
18.0
 41
0.9
 50
0.0
 71
     0
 42
18.0
  3

  4
bigfont
  0
STYLE
  2
KANJI36
 70
     0
 40
15.2
 41
0.9
 50
0.0
 71
     0
 42
15.2
  3

  4
bigfont
  0
STYLE
  2
KANJI37
 70
     0
 40
15.2
 41
0.9
 50
0.0
 71
     0
 42
15.2
  3

  4
bigfont
  0
STYLE
  2
KANJI38
 70
     0
 40
15.2
 41
0.9
 50
0.0
 71
     0
 42
15.2
  3

  4
bigfont
  0
STYLE
  2
KANJI39
 70
     0
 40
11.2
 41
0.8
 50
0.0
 71
     0
 42
11.2
  3

  4
bigfont
  0
STYLE
  2
KANJI40
 70
     0
 40
15.2
 41
0.9
 50
0.0
 71
     0
 42
15.2
  3

  4
bigfont
  0
STYLE
  2
KANJI41
 70
     0
 40
15.2
 41
0.9
 50
0.0
 71
     0
 42
15.2
  3

  4
bigfont
  0
STYLE
  2
KANJI42
 70
     0
 40
15.2
 41
0.9
 50
0.0
 71
     0
 42
15.2
  3

  4
bigfont
  0
STYLE
  2
KANJI43
 70
     0
 40
15.2
 41
0.9
 50
0.0
 71
     0
 42
15.2
  3

  4
bigfont
  0
STYLE
  2
KANJI44
 70
     0
 40
15.2
 41
0.9
 50
0.0
 71
     0
 42
15.2
  3

  4
bigfont
  0
STYLE
  2
KANJI45
 70
     0
 40
11.2
 41
0.9
 50
0.0
 71
     0
 42
11.2
  3

  4
bigfont
  0
STYLE
  2
KANJI46
 70
     0
 40
11.2
 41
0.785714286
 50
0.0
 71
     0
 42
11.2
  3

  4
bigfont
  0
STYLE
  2
KANJI47
 70
     0
 40
15.2
 41
0.9
 50
0.0
 71
     0
 42
15.2
  3

  4
bigfont
  0
STYLE
  2
KANJI48
 70
     0
 40
12.0
 41
0.9
 50
0.0
 71
     0
 42
12.0
  3

  4
bigfont
  0
STYLE
  2
KANJI49
 70
     0
 40
14.0
 41
0.9
 50
0.0
 71
     0
 42
14.0
  3

  4
bigfont
  0
STYLE
  2
KANJI50
 70
     0
 40
12.8
 41
0.9
 50
0.0
 71
     0
 42
12.8
  3

  4
bigfont
  0
STYLE
  2
KANJI51
 70
     0
 40
16.0
 41
1.0
 50
0.0
 71
     0
 42
16.0
  3

  4
bigfont
  0
STYLE
  2
KANJI52
 70
     0
 40
12.0
 41
0.9
 50
0.0
 71
     0
 42
12.0
  3

  4
bigfont
  0
STYLE
  2
KANJI53
 70
     0
 40
12.0
 41
0.45
 50
0.0
 71
     0
 42
12.0
  3

  4
bigfont
  0
STYLE
  2
KANJI54
 70
     0
 40
12.8
 41
0.9375
 50
0.0
 71
     0
 42
12.8
  3

  4
bigfont
  0
STYLE
  2
KANJI55
 70
     0
 40
7.68
 41
0.9375
 50
0.0
 71
     0
 42
7.68
  3

  4
bigfont
  0
ENDTAB
  0
TABLE
  2
VIEW
 70
     0
  0
ENDTAB
  0
ENDSEC
  0
SECTION
  2
BLOCKS
  0
ENDSEC
  0
SECTION
  2
ENTITIES
  0
LINE
  8
0
  6
CONTINUOUS
 62
     1
 10
304.066665723
 20
363.766668082
 11
924.066665723
 21
363.766668082
  0
LINE
  8
0
  6
CONTINUOUS
 62
     1
 10
304.066665723
 20
335.766668082
 11
924.066665723
 21
335.766668082
  0
LINE
  8
0
  6
CONTINUOUS
 62
     1
 10
924.066665723
 20
363.766668082
 11
924.066665723
 21
167.766668082
  0
LINE
  8
0
  6
CONTINUOUS
 62
     1
 10
304.066665723
 20
167.766668082
 11
924.066665723
 21
167.766668082
  0
LINE
  8
0
  6
CONTINUOUS
 62
     1
 10
304.066665723
 20
363.766668082
 11
304.066665723
 21
167.766668082
  0
LINE
  8
0
  6
CONTINUOUS
 62
     1
 10
444.066665723
 20
363.766668082
 11
444.066665723
 21
167.766668082
  0
TEXT
  8
0
  6
CONTINUOUS
 62
     2
 10
468.066665723
 20
314.466668082
 30
1.2
 40
12.0
  1
２００
 50
0.0
 41
0.9
 51
0.0
  7
KANJI0
  0
TEXT
  8
0
  6
CONTINUOUS
 62
     2
 10
468.066665723
 20
286.466668082
 30
1.2
 40
12.0
  1
３００
 50
0.0
 41
0.9
 51
0.0
  7
KANJI0
  0
TEXT
  8
0
  6
CONTINUOUS
 62
     2
 10
873.466665723
 20
287.966668082
 30
1.2
 40
12.0
  1
３３
 50
0.0
 41
0.9
 51
0.0
  7
KANJI0
  0
LINE
  8
0
  6
CONTINUOUS
 62
     2
 10
524.066665723
 20
363.766668082
 11
524.066665723
 21
167.766668082
  0
LINE
  8
0
  6
CONTINUOUS
 62
     2
 10
604.066665723
 20
363.766668082
 11
604.066665723
 21
167.766668082
  0
LINE
  8
0
  6
CONTINUOUS
 62
     2
 10
684.066665723
 20
363.766668082
 11
684.066665723
 21
167.766668082
  0
LINE
  8
0
  6
CONTINUOUS
 62
     2
 10
764.066665723
 20
363.766668082
 11
764.066665723
 21
167.766668082
  0
LINE
  8
0
  6
CONTINUOUS
 62
     2
 10
844.066665723
 20
363.766668082
 11
844.066665723
 21
167.766668082
  0
LINE
  8
0
  6
CONTINUOUS
 62
     2
 10
304.066665723
 20
195.766668082
 11
924.066665723
 21
195.766668082
  0
LINE
  8
0
  6
CONTINUOUS
 62
     2
 10
304.066665723
 20
307.766668082
 11
924.066665723
 21
307.766668082
  0
LINE
  8
0
  6
CONTINUOUS
 62
     2
 10
304.066665723
 20
279.766668082
 11
924.066665723
 21
279.766668082
  0
LINE
  8
0
  6
CONTINUOUS
 62
     2
 10
304.066665723
 20
251.766668082
 11
924.066665723
 21
251.766668082
  0
LINE
  8
0
  6
CONTINUOUS
 62
     2
 10
304.066665723
 20
223.766668082
 11
924.066665723
 21
223.766668082
  0
TEXT
  8
0
  6
CONTINUOUS
 62
     2
 10
454.466665723
 20
343.766668082
 30
1.2
 40
12.0
  1
ストローク
 50
0.0
 41
0.9
 51
0.0
  7
KANJI0
  0
TEXT
  8
0
  6
CONTINUOUS
 62
     2
 10
531.266665723
 20
342.966668082
 30
0.0
 40
12.0
  1
ｍｉｎ　
 50
0.0
 41
0.9
 51
0.0
  7
KANJI1
  0
TEXT
  8
0
  6
CONTINUOUS
 62
     2
 10
611.266665723
 20
342.966668082
 30
0.0
 40
12.0
  1
ｍｉｎ　
 50
0.0
 41
0.9
 51
0.0
  7
KANJI1
  0
TEXT
  8
0
  6
CONTINUOUS
 62
     2
 10
771.266665723
 20
342.966668082
 30
0.0
 40
12.0
  1
ｍｉｎ　
 50
0.0
 41
0.9
 51
0.0
  7
KANJI1
  0
TEXT
  8
0
  6
CONTINUOUS
 62
     2
 10
895.566665723
 20
344.666668082
 30
0.0
 40
9.6
  1
（ｋｇ）
 50
0.0
 41
0.777777778
 51
0.0
  7
KANJI2
  0
TEXT
  8
0
  6
CONTINUOUS
 62
     2
 10
847.566665723
 20
343.266668082
 30
1.28
 40
12.8
  1
概算重量
 50
0.0
 41
0.9
 51
0.0
  7
KANJI3
  0
TEXT
  8
0
  6
CONTINUOUS
 62
     2
 10
332.066665723
 20
343.766668082
 30
1.28
 40
12.8
  1
形
 50
0.0
 41
0.9
 51
0.0
  7
KANJI3
  0
TEXT
  8
0
  6
CONTINUOUS
 62
     2
 10
410.066665723
 20
343.766668082
 30
1.28
 40
12.8
  1
式
 50
0.0
 41
0.9
 51
0.0
  7
KANJI3
  0
TEXT
  8
0
  6
CONTINUOUS
 62
     2
 10
572.066665723
 20
343.766668082
 30
1.4
 40
14.0
  1
ＡＬ
 50
0.0
 41
0.9
 51
0.0
  7
KANJI4
  0
TEXT
  8
0
  6
CONTINUOUS
 62
     2
 10
652.066665723
 20
343.766668082
 30
1.4
 40
14.0
  1
Ｌ
 50
0.0
 41
0.9
 51
0.0
  7
KANJI4
  0
TEXT
  8
0
  6
CONTINUOUS
 62
     2
 10
720.066665723
 20
343.766668082
 30
1.4
 40
14.0
  1
Ｃ
 50
0.0
 41
0.9
 51
0.0
  7
KANJI4
  0
TEXT
  8
0
  6
CONTINUOUS
 62
     2
 10
812.066665723
 20
343.766668082
 30
1.4
 40
14.0
  1
Ｐ
 50
0.0
 41
0.9
 51
0.0
  7
KANJI4
  0
LINE
  8
0
  6
CONTINUOUS
 62
     1
 10
731.566665723
 20
1009.766668082
 11
756.566665723
 21
1009.766668082
  0
ARC
  8
0
  6
CONTINUOUS
 62
     1
 10
744.066665723
 20
986.266668082
 40
38.5
 50
108.945905799
 51
0.0
  0
ARC
  8
0
  6
CONTINUOUS
 62
     1
 10
744.066665723
 20
986.266668082
 40
38.5
 50
0.0
 51
71.054094201
  0
LINE
  8
0
  6
CONTINUOUS
 62
     1
 10
731.566665723
 20
1009.766668082
 11
731.566665723
 21
1034.766668082
  0
LINE
  8
0
  6
CONTINUOUS
 62
     1
 10
731.566665723
 20
1034.766668082
 11
756.566665723
 21
1034.766668082
  0
LINE
  8
0
  6
CONTINUOUS
 62
     1
 10
756.566665723
 20
1009.766668082
 11
756.566665723
 21
1034.766668082
  0
LINE
  8
0
  6
LTYPE1
 62
     2
 10
694.066665723
 20
986.266668082
 11
797.566665723
 21
986.266668082
  0
LINE
  8
0
  6
LTYPE1
 62
     2
 10
744.066665723
 20
934.016668082
 11
744.066665723
 21
1038.516668082
  0
ARC
  8
0
  6
CONTINUOUS
 62
     2
 10
744.066665723
 20
986.266668082
 40
38.5
 50
71.054094201
 51
108.945905799
  0
LINE
  8
0
  6
CONTINUOUS
 62
     2
 10
731.566665723
 20
1034.766668082
 11
731.566665723
 21
1077.766668082
  0
LINE
  8
0
  6
CONTINUOUS
 62
     2
 10
731.566665723
 20
1070.266668082
 11
719.492592894
 21
1073.501906146
  0
LINE
  8
0
  6
CONTINUOUS
 62
     2
 10
731.566665723
 20
1070.266668082
 11
719.492592894
 21
1067.031430018
  0
LINE
  8
0
  6
CONTINUOUS
 62
     2
 10
706.566665723
 20
1070.266668082
 11
781.566665723
 21
1070.266668082
  0
LINE
  8
0
  6
CONTINUOUS
 62
     2
 10
756.566665723
 20
1070.266668082
 11
768.640738552
 21
1067.031430018
  0
LINE
  8
0
  6
CONTINUOUS
 62
     2
 10
756.566665723
 20
1070.266668082
 11
768.640738552
 21
1073.501906146
  0
LINE
  8
0
  6
CONTINUOUS
 62
     2
 10
756.566665723
 20
1034.766668082
 11
756.566665723
 21
1077.766668082
  0
TEXT
  8
0
  6
CONTINUOUS
 62
     2
 10
737.316665723
 20
1075.266668082
 30
0.5
 40
15.0
  1
５
 50
0.0
 41
0.9
 51
0.0
  7
KANJI5
  0
LINE
  8
0
  6
CONTINUOUS
 62
     2
 10
731.566665723
 20
1034.766668082
 11
677.066665723
 21
1034.766668082
  0
LINE
  8
0
  6
CONTINUOUS
 62
     2
 10
684.566665723
 20
1034.766668082
 11
687.801903787
 21
1046.840740911
  0
LINE
  8
0
  6
CONTINUOUS
 62
     2
 10
684.566665723
 20
1034.766668082
 11
681.331427659
 21
1046.840740911
  0
LINE
  8
0
  6
CONTINUOUS
 62
     2
 10
684.566665723
 20
1059.766668082
 11
684.566665723
 21
984.766668082
  0
LINE
  8
0
  6
CONTINUOUS
 62
     2
 10
684.566665723
 20
1009.766668082
 11
681.331427659
 21
997.692595253
  0
LINE
  8
0
  6
CONTINUOUS
 62
     2
 10
684.566665723
 20
1009.766668082
 11
687.801903787
 21
997.692595253
  0
LINE
  8
0
  6
CONTINUOUS
 62
     2
 10
731.566665723
 20
1009.766668082
 11
677.066665723
 21
1009.766668082
  0
TEXT
  8
0
  6
CONTINUOUS
 62
     2
 10
679.566665723
 20
1017.516668082
 30
0.5
 40
15.0
  1
５
 50
90.0
 41
0.9
 51
0.0
  7
KANJI5
  0
LINE
  8
0
  6
CONTINUOUS
 62
     2
 10
744.066665723
 20
1024.766668082
 11
830.066665723
 21
1024.766668082
  0
LINE
  8
0
  6
CONTINUOUS
 62
     2
 10
822.566665723
 20
1024.766668082
 11
825.801903787
 21
1036.840740911
  0
LINE
  8
0
  6
CONTINUOUS
 62
     2
 10
822.566665723
 20
1024.766668082
 11
819.331427659
 21
1036.840740911
  0
LINE
  8
0
  6
CONTINUOUS
 62
     2
 10
822.566665723
 20
1009.766668082
 11
819.331427659
 21
997.692595253
  0
LINE
  8
0
  6
CONTINUOUS
 62
     2
 10
822.566665723
 20
1009.766668082
 11
825.801903787
 21
997.692595253
  0
LINE
  8
0
  6
CONTINUOUS
 62
     2
 10
756.566665723
 20
1009.766668082
 11
830.066665723
 21
1009.766668082
  0
TEXT
  8
0
  6
CONTINUOUS
 62
     2
 10
817.566665723
 20
1049.766668082
 30
0.5
 40
15.0
  1
３　　
 50
90.0
 41
0.9
 51
0.0
  7
KANJI5
  0
TEXT
  8
0
  6
CONTINUOUS
 62
     2
 10
816.566665723
 20
1063.266668082
 30
0.3
 40
9.0
  1
－０
 50
90.0
 41
0.9
 51
0.0
  7
KANJI6
  0
TEXT
  8
0
  6
CONTINUOUS
 62
     2
 10
807.566665723
 20
1063.266668082
 30
0.3
 40
9.0
  1
＋０．１
 50
90.0
 41
0.9
 51
0.0
  7
KANJI6
  0
LINE
  8
0
  6
CONTINUOUS
 62
     2
 10
822.566665723
 20
1095.766668082
 11
822.566665723
 21
984.766668082
  0
TEXT
  8
0
  6
CONTINUOUS
 62
     2
 10
793.966665723
 20
316.266668082
 30
1.2
 40
12.0
  1
５０
 50
0.0
 41
0.9
 51
0.0
  7
KANJI0
  0
TEXT
  8
0
  6
CONTINUOUS
 62
     2
 10
793.966665723
 20
288.266668082
 30
1.2
 40
12.0
  1
５０
 50
0.0
 41
0.9
 51
0.0
  7
KANJI0
  0
TEXT
  8
0
  6
CONTINUOUS
 62
     2
 10
706.866665723
 20
316.266668082
 30
1.2
 40
12.0
  1
４７０
 50
0.0
 41
0.9
 51
0.0
  7
KANJI0
  0
TEXT
  8
0
  6
CONTINUOUS
 62
     2
 10
706.866665723
 20
288.266668082
 30
1.2
 40
12.0
  1
５７０
 50
0.0
 41
0.9
 51
0.0
  7
KANJI0
  0
TEXT
  8
0
  6
CONTINUOUS
 62
     2
 10
706.866665723
 20
260.266668082
 30
1.2
 40
12.0
  1
６７０
 50
0.0
 41
0.9
 51
0.0
  7
KANJI0
  0
TEXT
  8
0
  6
CONTINUOUS
 62
     2
 10
706.866665723
 20
232.266668082
 30
1.2
 40
12.0
  1
７７０
 50
0.0
 41
0.9
 51
0.0
  7
KANJI0
  0
TEXT
  8
0
  6
CONTINUOUS
 62
     2
 10
873.466665723
 20
315.966668082
 30
1.2
 40
12.0
  1
３０
 50
0.0
 41
0.9
 51
0.0
  7
KANJI0
  0
TEXT
  8
0
  6
CONTINUOUS
 62
     2
 10
873.466665723
 20
259.966668082
 30
1.2
 40
12.0
  1
３６
 50
0.0
 41
0.9
 51
0.0
  7
KANJI0
  0
TEXT
  8
0
  6
CONTINUOUS
 62
     2
 10
627.066665723
 20
315.566668082
 30
1.2
 40
12.0
  1
５７０
 50
0.0
 41
0.9
 51
0.0
  7
KANJI0
  0
TEXT
  8
0
  6
CONTINUOUS
 62
     2
 10
627.066665723
 20
287.566668082
 30
1.2
 40
12.0
  1
６７０
 50
0.0
 41
0.9
 51
0.0
  7
KANJI0
  0
TEXT
  8
0
  6
CONTINUOUS
 62
     2
 10
546.666665723
 20
314.766668082
 30
1.2
 40
12.0
  1
６２５
 50
0.0
 41
0.9
 51
0.0
  7
KANJI0
  0
TEXT
  8
0
  6
CONTINUOUS
 62
     2
 10
546.666665723
 20
286.766668082
 30
1.2
 40
12.0
  1
７２５
 50
0.0
 41
0.9
 51
0.0
  7
KANJI0
  0
TEXT
  8
0
  6
CONTINUOUS
 62
     2
 10
468.066665723
 20
258.466668082
 30
1.2
 40
12.0
  1
４００
 50
0.0
 41
0.9
 51
0.0
  7
KANJI0
  0
TEXT
  8
0
  6
CONTINUOUS
 62
     2
 10
468.066665723
 20
230.466668082
 30
1.2
 40
12.0
  1
５００
 50
0.0
 41
0.9
 51
0.0
  7
KANJI0
  0
TEXT
  8
0
  6
CONTINUOUS
 62
     2
 10
468.066665723
 20
202.466668082
 30
1.2
 40
12.0
  1
７００
 50
0.0
 41
0.9
 51
0.0
  7
KANJI0
  0
TEXT
  8
0
  6
CONTINUOUS
 62
     2
 10
873.466665723
 20
231.966668082
 30
1.2
 40
12.0
  1
３８
 50
0.0
 41
0.9
 51
0.0
  7
KANJI0
  0
TEXT
  8
0
  6
CONTINUOUS
 62
     2
 10
873.466665723
 20
203.966668082
 30
1.2
 40
12.0
  1
４５
 50
0.0
 41
0.9
 51
0.0
  7
KANJI0
  0
TEXT
  8
0
  6
CONTINUOUS
 62
     2
 10
873.466665723
 20
175.966668082
 30
1.2
 40
12.0
  1
５６
 50
0.0
 41
0.9
 51
0.0
  7
KANJI0
  0
TEXT
  8
0
  6
CONTINUOUS
 62
     2
 10
689.566665723
 20
909.566668082
 30
2.0
 40
20.0
  1
入力シャフト
 50
0.0
 41
0.9
 51
0.0
  7
KANJI7
  0
LINE
  8
0
  6
CONTINUOUS
 62
     2
 10
684.366665723
 20
903.466668082
 11
805.366665723
 21
903.466668082
  0
CIRCLE
  8
0
  6
CONTINUOUS
 62
     1
 10
212.066665723
 20
956.266668082
 40
7.5
  0
CIRCLE
  8
0
  6
CONTINUOUS
 62
     1
 10
212.066665723
 20
956.266668082
 40
8.5
  0
CIRCLE
  8
0
  6
CONTINUOUS
 62
     1
 10
212.066665723
 20
956.266668082
 40
47.5
  0
LINE
  8
0
  6
CONTINUOUS
 62
     1
 10
157.066665723
 20
903.266668082
 11
286.066665723
 21
903.266668082
  0
LINE
  8
0
  6
CONTINUOUS
 62
     1
 10
157.066665723
 20
903.266668082
 11
157.066665723
 21
1009.266668082
  0
LINE
  8
0
  6
CONTINUOUS
 62
     1
 10
274.066665723
 20
903.266668082
 11
274.066665723
 21
1009.266668082
  0
LINE
  8
0
  6
CONTINUOUS
 62
     1
 10
157.066665723
 20
1009.266668082
 11
286.066665723
 21
1009.266668082
  0
LINE
  8
0
  6
CONTINUOUS
 62
     1
 10
286.066665723
 20
903.266668082
 11
286.066665723
 21
1009.266668082
  0
LINE
  8
0
  6
CONTINUOUS
 62
     1
 10
163.066665723
 20
903.266668082
 11
163.066665723
 21
1009.266668082
  0
LINE
  8
0
  6
CONTINUOUS
 62
     1
 10
274.066665723
 20
903.266668082
 11
286.066665723
 21
903.266668082
  0
LINE
  8
0
  6
CONTINUOUS
 62
     1
 10
274.066665723
 20
901.266668082
 11
274.066665723
 21
922.266668082
  0
LINE
  8
0
  6
CONTINUOUS
 62
     1
 10
286.066665723
 20
903.266668082
 11
286.066665723
 21
919.266668082
  0
ARC
  8
0
  6
CONTINUOUS
 62
     1
 10
289.066665723
 20
919.266668082
 40
3.0
 50
90.0
 51
180.0
  0
LINE
  8
0
  6
CONTINUOUS
 62
     1
 10
286.066665723
 20
911.266668082
 11
288.066665635
 21
913.266667994
  0
LINE
  8
0
  6
CONTINUOUS
 62
     1
 10
288.066665723
 20
911.266668082
 11
286.066665811
 21
909.26666817
  0
LINE
  8
0
  6
CONTINUOUS
 62
     1
 10
286.066665723
 20
918.966668082
 11
288.066665723
 21
918.966668082
  0
LINE
  8
0
  6
CONTINUOUS
 62
     1
 10
288.066665723
 20
911.266668082
 11
288.066665723
 21
918.966668082
  0
LINE
  8
0
  6
CONTINUOUS
 62
     1
 10
288.066665723
 20
911.266668082
 11
288.066665723
 21
903.566668082
  0
LINE
  8
0
  6
CONTINUOUS
 62
     1
 10
286.066665723
 20
903.566668082
 11
288.066665723
 21
903.566668082
  0
LINE
  8
0
  6
CONTINUOUS
 62
     1
 10
288.066665723
 20
917.766668082
 11
295.566665723
 21
917.766668082
  0
LINE
  8
0
  6
CONTINUOUS
 62
     1
 10
295.566665723
 20
917.766668082
 11
295.566665723
 21
911.266668082
  0
LINE
  8
0
  6
CONTINUOUS
 62
     1
 10
295.566665723
 20
917.766668082
 11
296.066665723
 21
916.900642678
  0
LINE
  8
0
  6
CONTINUOUS
 62
     1
 10
296.066665723
 20
916.900642678
 11
296.066665723
 21
911.266668082
  0
LINE
  8
0
  6
CONTINUOUS
 62
     1
 10
288.066665723
 20
904.766668082
 11
295.566665723
 21
904.766668082
  0
LINE
  8
0
  6
CONTINUOUS
 62
     1
 10
295.566665723
 20
904.766668082
 11
295.566665723
 21
911.266668082
  0
LINE
  8
0
  6
CONTINUOUS
 62
     1
 10
295.566665723
 20
904.766668082
 11
296.066665723
 21
905.632693486
  0
LINE
  8
0
  6
CONTINUOUS
 62
     1
 10
296.066665723
 20
905.632693486
 11
296.066665723
 21
911.266668082
  0
ARC
  8
0
  6
CONTINUOUS
 62
     1
 10
334.551947097
 20
921.266668082
 40
6.0
 50
225.0
 51
270.0
  0
LINE
  8
0
  6
CONTINUOUS
 62
     1
 10
326.824025036
 20
920.509308769
 11
330.30930641
 21
917.024027395
  0
ARC
  8
0
  6
CONTINUOUS
 62
     1
 10
322.581384349
 20
916.266668082
 40
6.0
 50
45.0
 51
90.0
  0
LINE
  8
0
  6
CONTINUOUS
 62
     1
 10
289.066665723
 20
922.266668082
 11
322.581384349
 21
922.266668082
  0
LINE
  8
0
  6
CONTINUOUS
 62
     1
 10
334.551947097
 20
915.266668082
 11
363.066665723
 21
915.266668082
  0
LINE
  8
0
  6
CONTINUOUS
 62
     1
 10
274.066665723
 20
1009.266668082
 11
286.066665723
 21
1009.266668082
  0
LINE
  8
0
  6
CONTINUOUS
 62
     1
 10
286.066665723
 20
1009.266668082
 11
286.066665723
 21
993.266668082
  0
ARC
  8
0
  6
CONTINUOUS
 62
     1
 10
289.066665723
 20
993.266668082
 40
3.0
 50
180.0
 51
270.0
  0
LINE
  8
0
  6
CONTINUOUS
 62
     1
 10
286.066665723
 20
1001.266668082
 11
288.066665635
 21
999.26666817
  0
LINE
  8
0
  6
CONTINUOUS
 62
     1
 10
288.066665723
 20
1001.266668082
 11
286.066665811
 21
1003.266667994
  0
LINE
  8
0
  6
CONTINUOUS
 62
     1
 10
286.066665723
 20
993.566668082
 11
288.066665723
 21
993.566668082
  0
LINE
  8
0
  6
CONTINUOUS
 62
     1
 10
288.066665723
 20
1001.266668082
 11
288.066665723
 21
993.566668082
  0
LINE
  8
0
  6
CONTINUOUS
 62
     1
 10
288.066665723
 20
1001.266668082
 11
288.066665723
 21
1008.966668082
  0
LINE
  8
0
  6
CONTINUOUS
 62
     1
 10
286.066665723
 20
1008.966668082
 11
288.066665723
 21
1008.966668082
  0
LINE
  8
0
  6
CONTINUOUS
 62
     1
 10
288.066665723
 20
994.766668082
 11
295.566665723
 21
994.766668082
  0
LINE
  8
0
  6
CONTINUOUS
 62
     1
 10
295.566665723
 20
994.766668082
 11
295.566665723
 21
1001.266668082
  0
LINE
  8
0
  6
CONTINUOUS
 62
     1
 10
295.566665723
 20
994.766668082
 11
296.066665723
 21
995.632693486
  0
LINE
  8
0
  6
CONTINUOUS
 62
     1
 10
296.066665723
 20
995.632693486
 11
296.066665723
 21
1001.266668082
  0
LINE
  8
0
  6
CONTINUOUS
 62
     1
 10
288.066665723
 20
1007.766668082
 11
295.566665723
 21
1007.766668082
  0
LINE
  8
0
  6
CONTINUOUS
 62
     1
 10
295.566665723
 20
1007.766668082
 11
295.566665723
 21
1001.266668082
  0
LINE
  8
0
  6
CONTINUOUS
 62
     1
 10
295.566665723
 20
1007.766668082
 11
296.066665723
 21
1006.900642678
  0
LINE
  8
0
  6
CONTINUOUS
 62
     1
 10
296.066665723
 20
1006.900642678
 11
296.066665723
 21
1001.266668082
  0
ARC
  8
0
  6
CONTINUOUS
 62
     1
 10
334.551947097
 20
991.266668082
 40
6.0
 50
90.0
 51
135.0
  0
LINE
  8
0
  6
CONTINUOUS
 62
     1
 10
326.824025036
 20
992.024027395
 11
330.30930641
 21
995.509308769
  0
ARC
  8
0
  6
CONTINUOUS
 62
     1
 10
322.581384349
 20
996.266668082
 40
6.0
 50
270.0
 51
315.0
  0
LINE
  8
0
  6
CONTINUOUS
 62
     1
 10
289.066665723
 20
990.266668082
 11
322.581384349
 21
990.266668082
  0
LINE
  8
0
  6
CONTINUOUS
 62
     1
 10
334.551947097
 20
997.266668082
 11
363.066665723
 21
997.266668082
  0
LINE
  8
0
  6
CONTINUOUS
 62
     1
 10
274.066665723
 20
1011.266668082
 11
274.066665723
 21
990.266668082
  0
LINE
  8
0
  6
CONTINUOUS
 62
     1
 10
363.066665723
 20
915.266668082
 11
363.066665723
 21
956.266668082
  0
LINE
  8
0
  6
CONTINUOUS
 62
     1
 10
332.80930641
 20
915.524027395
 11
332.80930641
 21
996.524027395
  0
LINE
  8
0
  6
CONTINUOUS
 62
     1
 10
324.80930641
 20
991.024027395
 11
324.80930641
 21
921.524027395
  0
LINE
  8
0
  6
CONTINUOUS
 62
     1
 10
363.066665723
 20
997.266668082
 11
363.066665723
 21
956.266668082
  0
CIRCLE
  8
0
  6
CONTINUOUS
 62
     1
 10
253.80930641
 20
1026.266668082
 40
10.0
  0
ARC
  8
0
  6
CONTINUOUS
 62
     1
 10
253.80930641
 20
1026.266668082
 40
16.3
 50
300.657005437
 51
0.0
  0
ARC
  8
0
  6
CONTINUOUS
 62
     1
 10
262.608322101
 20
1011.365610412
 40
1.0
 50
122.005383208
 51
185.710593137
  0
LINE
  8
0
  6
CONTINUOUS
 62
     1
 10
261.319110332
 20
1014.266668082
 11
254.019110332
 21
1016.266668082
  0
LINE
  8
0
  6
CONTINUOUS
 62
     1
 10
261.80930641
 20
1009.266668082
 11
261.319110332
 21
1014.266668082
  0
LINE
  8
0
  6
CONTINUOUS
 62
     1
 10
253.80930641
 20
1014.266668082
 11
261.319110332
 21
1014.266668082
  0
LINE
  8
0
  6
CONTINUOUS
 62
     1
 10
253.80930641
 20
1009.266668082
 11
261.80930641
 21
1009.266668082
  0
ARC
  8
0
  6
CONTINUOUS
 62
     1
 10
245.010290719
 20
1011.365610412
 40
1.0
 50
354.289406863
 51
57.994616792
  0
LINE
  8
0
  6
CONTINUOUS
 62
     1
 10
246.299502489
 20
1014.266668082
 11
253.599502489
 21
1016.266668082
  0
LINE
  8
0
  6
CONTINUOUS
 62
     1
 10
245.80930641
 20
1009.266668082
 11
246.299502489
 21
1014.266668082
  0
LINE
  8
0
  6
CONTINUOUS
 62
     1
 10
253.80930641
 20
1014.266668082
 11
246.299502489
 21
1014.266668082
  0
LINE
  8
0
  6
CONTINUOUS
 62
     1
 10
253.80930641
 20
1009.266668082
 11
245.80930641
 21
1009.266668082
  0
ARC
  8
0
  6
CONTINUOUS
 62
     1
 10
253.80930641
 20
1026.266668082
 40
16.3
 50
0.0
 51
239.516495577
  0
CIRCLE
  8
0
  6
CONTINUOUS
 62
     1
 10
239.643830189
 20
983.843832548
 40
5.0
  0
CIRCLE
  8
0
  6
CONTINUOUS
 62
     1
 10
212.066665723
 20
956.266668082
 40
25.0
  0
LINE
  8
0
  6
LTYPE1
 62
     2
 10
124.066665723
 20
956.266668082
 11
449.066665723
 21
956.266668082
  0
LINE
  8
0
  6
LTYPE1
 62
     2
 10
212.066665723
 20
888.266668082
 11
212.066665723
 21
1022.766668082
  0
LINE
  8
0
  6
LTYPE1
 62
     2
 10
234.80930641
 20
1026.266668082
 11
273.80930641
 21
1026.266668082
  0
LINE
  8
0
  6
LTYPE1
 62
     2
 10
253.80930641
 20
1004.266668082
 11
253.80930641
 21
1047.766668082
  0
CIRCLE
  8
0
  6
LTYPE1
 62
     2
 10
212.066665723
 20
956.266668082
 40
39.0
  0
LINE
  8
0
  6
LTYPE1
 62
     2
 10
232.066665723
 20
976.266668082
 11
244.066665723
 21
988.266668082
  0
LINE
  8
0
  6
CONTINUOUS
 62
     1
 10
204.566665723
 20
568.266668082
 11
219.566665723
 21
568.266668082
  0
LINE
  8
0
  6
CONTINUOUS
 62
     1
 10
187.066665723
 20
596.266668082
 11
187.066665723
 21
612.266668082
  0
LINE
  8
0
  6
CONTINUOUS
 62
     1
 10
204.566665723
 20
568.266668082
 11
204.566665723
 21
593.266668082
  0
LINE
  8
0
  6
CONTINUOUS
 62
     1
 10
219.566665723
 20
568.266668082
 11
219.566665723
 21
593.266668082
  0
LINE
  8
0
  6
CONTINUOUS
 62
     1
 10
220.566665723
 20
593.266668082
 11
220.566665723
 21
596.266668082
  0
LINE
  8
0
  6
CONTINUOUS
 62
     1
 10
203.566665723
 20
593.266668082
 11
203.566665723
 21
596.266668082
  0
LINE
  8
0
  6
CONTINUOUS
 62
     1
 10
203.566665723
 20
593.266668082
 11
220.566665723
 21
593.266668082
  0
LINE
  8
0
  6
CONTINUOUS
 62
     1
 10
157.066665723
 20
624.266668082
 11
157.066665723
 21
730.266668082
  0
CIRCLE
  8
0
  6
CONTINUOUS
 62
     1
 10
524.066665723
 20
677.266668082
 40
16.575
  0
LINE
  8
0
  6
CONTINUOUS
 62
     1
 10
507.066665723
 20
694.266668082
 11
541.066665723
 21
694.266668082
  0
LINE
  8
0
  6
CONTINUOUS
 62
     1
 10
541.066665723
 20
660.266668082
 11
541.066665723
 21
694.266668082
  0
LINE
  8
0
  6
CONTINUOUS
 62
     1
 10
507.066665723
 20
660.266668082
 11
541.066665723
 21
660.266668082
  0
LINE
  8
0
  6
CONTINUOUS
 62
     1
 10
507.066665723
 20
660.266668082
 11
507.066665723
 21
694.266668082
  0
LINE
  8
0
  6
CONTINUOUS
 62
     1
 10
274.066665723
 20
624.266668082
 11
286.066665723
 21
624.266668082
  0
LINE
  8
0
  6
CONTINUOUS
 62
     1
 10
164.566665723
 20
612.266668082
 11
164.566665723
 21
622.266668082
  0
LINE
  8
0
  6
CONTINUOUS
 62
     1
 10
157.066665723
 20
730.266668082
 11
164.066665723
 21
730.266668082
  0
LINE
  8
0
  6
CONTINUOUS
 62
     1
 10
164.566665723
 20
742.266668082
 11
164.566665723
 21
732.266668082
  0
LINE
  8
0
  6
CONTINUOUS
 62
     1
 10
259.566665723
 20
612.266668082
 11
259.566665723
 21
622.266668082
  0
ARC
  8
0
  6
CONTINUOUS
 62
     1
 10
289.066665723
 20
640.266668082
 40
3.0
 50
90.0
 51
180.0
  0
LINE
  8
0
  6
CONTINUOUS
 62
     1
 10
286.066665723
 20
632.266668082
 11
288.066665635
 21
634.266667994
  0
LINE
  8
0
  6
CONTINUOUS
 62
     1
 10
288.066665723
 20
632.266668082
 11
286.066665811
 21
630.26666817
  0
LINE
  8
0
  6
CONTINUOUS
 62
     1
 10
286.066665723
 20
639.966668082
 11
288.066665723
 21
639.966668082
  0
LINE
  8
0
  6
CONTINUOUS
 62
     1
 10
288.066665723
 20
632.266668082
 11
288.066665723
 21
639.966668082
  0
LINE
  8
0
  6
CONTINUOUS
 62
     1
 10
288.066665723
 20
632.266668082
 11
288.066665723
 21
624.566668082
  0
LINE
  8
0
  6
CONTINUOUS
 62
     1
 10
286.066665723
 20
624.566668082
 11
288.066665723
 21
624.566668082
  0
LINE
  8
0
  6
CONTINUOUS
 62
     1
 10
288.066665723
 20
638.766668082
 11
295.566665723
 21
638.766668082
  0
LINE
  8
0
  6
CONTINUOUS
 62
     1
 10
295.566665723
 20
638.766668082
 11
295.566665723
 21
632.266668082
  0
LINE
  8
0
  6
CONTINUOUS
 62
     1
 10
295.566665723
 20
638.766668082
 11
296.066665723
 21
637.900642678
  0
LINE
  8
0
  6
CONTINUOUS
 62
     1
 10
296.066665723
 20
637.900642678
 11
296.066665723
 21
632.266668082
  0
LINE
  8
0
  6
CONTINUOUS
 62
     1
 10
288.066665723
 20
625.766668082
 11
295.566665723
 21
625.766668082
  0
LINE
  8
0
  6
CONTINUOUS
 62
     1
 10
295.566665723
 20
625.766668082
 11
295.566665723
 21
632.266668082
  0
LINE
  8
0
  6
CONTINUOUS
 62
     1
 10
295.566665723
 20
625.766668082
 11
296.066665723
 21
626.632693486
  0
LINE
  8
0
  6
CONTINUOUS
 62
     1
 10
296.066665723
 20
626.632693486
 11
296.066665723
 21
632.266668082
  0
LINE
  8
0
  6
CONTINUOUS
 62
     1
 10
157.066665723
 20
624.266668082
 11
163.066665723
 21
624.266668082
  0
LINE
  8
0
  6
CONTINUOUS
 62
     1
 10
157.066665723
 20
730.266668082
 11
163.066665723
 21
730.266668082
  0
LINE
  8
0
  6
CONTINUOUS
 62
     1
 10
237.066665723
 20
596.266668082
 11
237.066665723
 21
612.266668082
  0
ARC
  8
0
  6
CONTINUOUS
 62
     1
 10
334.551947097
 20
642.266668082
 40
6.0
 50
225.0
 51
270.0
  0
LINE
  8
0
  6
CONTINUOUS
 62
     1
 10
326.824025036
 20
641.509308769
 11
330.30930641
 21
638.024027395
  0
ARC
  8
0
  6
CONTINUOUS
 62
     1
 10
322.581384349
 20
637.266668082
 40
6.0
 50
45.0
 51
90.0
  0
LINE
  8
0
  6
CONTINUOUS
 62
     1
 10
289.066665723
 20
643.266668082
 11
322.581384349
 21
643.266668082
  0
LINE
  8
0
  6
CONTINUOUS
 62
     1
 10
334.551947097
 20
636.266668082
 11
363.066665723
 21
636.266668082
  0
LINE
  8
0
  6
CONTINUOUS
 62
     1
 10
204.566665723
 20
786.266668082
 11
219.566665723
 21
786.266668082
  0
LINE
  8
0
  6
CONTINUOUS
 62
     1
 10
187.066665723
 20
758.266668082
 11
187.066665723
 21
742.266668082
  0
LINE
  8
0
  6
CONTINUOUS
 62
     1
 10
204.566665723
 20
786.266668082
 11
204.566665723
 21
761.266668082
  0
LINE
  8
0
  6
CONTINUOUS
 62
     1
 10
219.566665723
 20
786.266668082
 11
219.566665723
 21
761.266668082
  0
LINE
  8
0
  6
CONTINUOUS
 62
     1
 10
203.566665723
 20
761.266668082
 11
220.566665723
 21
761.266668082
  0
LINE
  8
0
  6
CONTINUOUS
 62
     1
 10
237.066665723
 20
758.266668082
 11
237.066665723
 21
742.266668082
  0
LINE
  8
0
  6
CONTINUOUS
 62
     1
 10
163.066665723
 20
732.266668082
 11
170.266665723
 21
732.266668082
  0
LINE
  8
0
  6
CONTINUOUS
 62
     1
 10
163.066665723
 20
622.266668082
 11
163.066665723
 21
732.266668082
  0
LINE
  8
0
  6
CONTINUOUS
 62
     1
 10
163.066665723
 20
622.266668082
 11
170.266665723
 21
622.266668082
  0
LINE
  8
0
  6
CONTINUOUS
 62
     1
 10
274.066665723
 20
730.266668082
 11
286.066665723
 21
730.266668082
  0
ARC
  8
0
  6
CONTINUOUS
 62
     1
 10
289.066665723
 20
714.266668082
 40
3.0
 50
180.0
 51
270.0
  0
LINE
  8
0
  6
CONTINUOUS
 62
     1
 10
286.066665723
 20
722.266668082
 11
288.066665635
 21
720.26666817
  0
LINE
  8
0
  6
CONTINUOUS
 62
     1
 10
288.066665723
 20
722.266668082
 11
286.066665811
 21
724.266667994
  0
LINE
  8
0
  6
CONTINUOUS
 62
     1
 10
286.066665723
 20
714.566668082
 11
288.066665723
 21
714.566668082
  0
LINE
  8
0
  6
CONTINUOUS
 62
     1
 10
288.066665723
 20
722.266668082
 11
288.066665723
 21
714.566668082
  0
LINE
  8
0
  6
CONTINUOUS
 62
     1
 10
288.066665723
 20
722.266668082
 11
288.066665723
 21
729.966668082
  0
LINE
  8
0
  6
CONTINUOUS
 62
     1
 10
286.066665723
 20
729.966668082
 11
288.066665723
 21
729.966668082
  0
LINE
  8
0
  6
CONTINUOUS
 62
     1
 10
288.066665723
 20
715.766668082
 11
295.566665723
 21
715.766668082
  0
LINE
  8
0
  6
CONTINUOUS
 62
     1
 10
295.566665723
 20
715.766668082
 11
295.566665723
 21
722.266668082
  0
LINE
  8
0
  6
CONTINUOUS
 62
     1
 10
295.566665723
 20
715.766668082
 11
296.066665723
 21
716.632693486
  0
LINE
  8
0
  6
CONTINUOUS
 62
     1
 10
296.066665723
 20
716.632693486
 11
296.066665723
 21
722.266668082
  0
LINE
  8
0
  6
CONTINUOUS
 62
     1
 10
288.066665723
 20
728.766668082
 11
295.566665723
 21
728.766668082
  0
LINE
  8
0
  6
CONTINUOUS
 62
     1
 10
295.566665723
 20
728.766668082
 11
295.566665723
 21
722.266668082
  0
LINE
  8
0
  6
CONTINUOUS
 62
     1
 10
295.566665723
 20
728.766668082
 11
296.066665723
 21
727.900642678
  0
LINE
  8
0
  6
CONTINUOUS
 62
     1
 10
296.066665723
 20
727.900642678
 11
296.066665723
 21
722.266668082
  0
ARC
  8
0
  6
CONTINUOUS
 62
     1
 10
334.551947097
 20
712.266668082
 40
6.0
 50
90.0
 51
135.0
  0
LINE
  8
0
  6
CONTINUOUS
 62
     1
 10
326.824025036
 20
713.024027395
 11
330.30930641
 21
716.509308769
  0
ARC
  8
0
  6
CONTINUOUS
 62
     1
 10
322.581384349
 20
717.266668082
 40
6.0
 50
270.0
 51
315.0
  0
LINE
  8
0
  6
CONTINUOUS
 62
     1
 10
289.066665723
 20
711.266668082
 11
322.581384349
 21
711.266668082
  0
LINE
  8
0
  6
CONTINUOUS
 62
     1
 10
334.551947097
 20
718.266668082
 11
363.066665723
 21
718.266668082
  0
LINE
  8
0
  6
CONTINUOUS
 62
     1
 10
259.566665723
 20
742.266668082
 11
259.566665723
 21
732.266668082
  0
LINE
  8
0
  6
CONTINUOUS
 62
     1
 10
832.066665723
 20
833.266668082
 11
832.066665723
 21
883.266668082
  0
LINE
  8
0
  6
CONTINUOUS
 62
     1
 10
832.066665723
 20
858.266668082
 11
832.066665723
 21
833.266668082
  0
LINE
  8
0
  6
LTYPE2
 62
     2
 10
524.066665723
 20
655.931668082
 11
524.066665723
 21
698.346668082
  0
LINE
  8
0
  6
LTYPE1
 62
     2
 10
255.766665723
 20
632.266668082
 11
301.066665723
 21
632.266668082
  0
LINE
  8
0
  6
LTYPE1
 62
     2
 10
255.766665723
 20
722.266668082
 11
301.066665723
 21
722.266668082
  0
LINE
  8
0
  6
LTYPE1
 62
     2
 10
882.066665723
 20
833.266668082
 11
882.066665723
 21
883.266668082
  0
LINE
  8
0
  6
LTYPE1
 62
     2
 10
212.066665723
 20
555.766668082
 11
212.066665723
 21
802.266668082
  0
LINE
  8
0
  6
CONTINUOUS
 62
     2
 10
905.066665723
 20
883.266668082
 11
960.066665723
 21
883.266668082
  0
LINE
  8
0
  6
CONTINUOUS
 62
     2
 10
954.066665723
 20
883.266668082
 11
951.478475272
 21
873.607409819
  0
LINE
  8
0
  6
CONTINUOUS
 62
     2
 10
954.066665723
 20
883.266668082
 11
956.654856174
 21
873.607409819
  0
LINE
  8
0
  6
CONTINUOUS
 62
     2
 10
954.066665723
 20
883.266668082
 11
954.066665723
 21
833.266668082
  0
LINE
  8
0
  6
CONTINUOUS
 62
     2
 10
954.066665723
 20
833.266668082
 11
956.654856174
 21
842.925926345
  0
LINE
  8
0
  6
CONTINUOUS
 62
     2
 10
954.066665723
 20
833.266668082
 11
951.478475272
 21
842.925926345
  0
LINE
  8
0
  6
CONTINUOUS
 62
     2
 10
905.066665723
 20
833.266668082
 11
960.066665723
 21
833.266668082
  0
TEXT
  8
0
  6
CONTINUOUS
 62
     2
 10
950.066665723
 20
846.866668082
 30
1.2
 40
12.0
  1
５０
 50
90.0
 41
0.9
 51
0.0
  7
KANJI8
  0
LINE
  8
0
  6
CONTINUOUS
 62
     2
 10
882.066665723
 20
808.166668082
 11
891.725923986
 21
805.578477631
  0
LINE
  8
0
  6
CONTINUOUS
 62
     2
 10
882.066665723
 20
808.166668082
 11
891.725923986
 21
810.754858533
  0
LINE
  8
0
  6
CONTINUOUS
 62
     2
 10
882.066665723
 20
808.166668082
 11
907.066665723
 21
808.166668082
  0
LINE
  8
0
  6
CONTINUOUS
 62
     2
 10
907.066665723
 20
808.166668082
 11
897.40740746
 21
810.754858533
  0
LINE
  8
0
  6
CONTINUOUS
 62
     2
 10
907.066665723
 20
808.166668082
 11
897.40740746
 21
805.578477631
  0
LINE
  8
0
  6
CONTINUOUS
 62
     2
 10
907.066665723
 20
835.266668082
 11
907.066665723
 21
802.166668082
  0
TEXT
  8
0
  6
CONTINUOUS
 62
     2
 10
883.166665723
 20
812.166668082
 30
1.2
 40
12.0
  1
２５
 50
0.0
 41
0.9
 51
0.0
  7
KANJI8
  0
LINE
  8
0
  6
CONTINUOUS
 62
     2
 10
882.066665723
 20
808.166668082
 11
872.40740746
 21
810.754858533
  0
LINE
  8
0
  6
CONTINUOUS
 62
     2
 10
882.066665723
 20
808.166668082
 11
872.40740746
 21
805.578477631
  0
LINE
  8
0
  6
CONTINUOUS
 62
     2
 10
882.066665723
 20
808.166668082
 11
847.066665723
 21
808.166668082
  0
LINE
  8
0
  6
CONTINUOUS
 62
     2
 10
847.066665723
 20
808.166668082
 11
856.725923986
 21
805.578477631
  0
LINE
  8
0
  6
CONTINUOUS
 62
     2
 10
847.066665723
 20
808.166668082
 11
856.725923986
 21
810.754858533
  0
LINE
  8
0
  6
CONTINUOUS
 62
     2
 10
847.066665723
 20
827.266668082
 11
847.066665723
 21
802.166668082
  0
TEXT
  8
0
  6
CONTINUOUS
 62
     2
 10
853.166665723
 20
812.166668082
 30
1.2
 40
12.0
  1
３５
 50
0.0
 41
0.9
 51
0.0
  7
KANJI8
  0
POINT
  8
0
  6
CONTINUOUS
 62
     2
 10
847.066665723
 20
814.166668082
  0
LINE
  8
0
  6
CONTINUOUS
 62
     2
 10
847.066665723
 20
808.166668082
 11
837.40740746
 21
810.754858533
  0
LINE
  8
0
  6
CONTINUOUS
 62
     2
 10
847.066665723
 20
808.166668082
 11
837.40740746
 21
805.578477631
  0
LINE
  8
0
  6
CONTINUOUS
 62
     2
 10
847.066665723
 20
808.166668082
 11
832.066665723
 21
808.166668082
  0
LINE
  8
0
  6
CONTINUOUS
 62
     2
 10
832.066665723
 20
808.166668082
 11
841.725923986
 21
805.578477631
  0
LINE
  8
0
  6
CONTINUOUS
 62
     2
 10
832.066665723
 20
808.166668082
 11
841.725923986
 21
810.754858533
  0
LINE
  8
0
  6
CONTINUOUS
 62
     2
 10
832.066665723
 20
827.266668082
 11
832.066665723
 21
802.166668082
  0
TEXT
  8
0
  6
CONTINUOUS
 62
     2
 10
810.166665723
 20
812.166668082
 30
1.2
 40
12.0
  1
１５
 50
0.0
 41
0.9
 51
0.0
  7
KANJI8
  0
LINE
  8
0
  6
CONTINUOUS
 62
     1
 10
274.066665723
 20
622.266668082
 11
274.066665723
 21
677.266668082
  0
LINE
  8
0
  6
CONTINUOUS
 62
     1
 10
286.066665723
 20
624.266668082
 11
286.066665723
 21
677.266668082
  0
LINE
  8
0
  6
CONTINUOUS
 62
     1
 10
286.066665723
 20
730.266668082
 11
286.066665723
 21
677.266668082
  0
LINE
  8
0
  6
CONTINUOUS
 62
     1
 10
274.066665723
 20
732.266668082
 11
274.066665723
 21
677.266668082
  0
LINE
  8
0
  6
CONTINUOUS
 62
     1
 10
325.624030431
 20
642.909303374
 11
325.624030431
 21
711.909303374
  0
LINE
  8
0
  6
CONTINUOUS
 62
     1
 10
334.724030431
 20
718.609303374
 11
334.724030431
 21
636.609303374
  0
LINE
  8
0
  6
LTYPE3
 62
     2
 10
306.224030431
 20
667.809303374
 11
306.224030431
 21
690.409303374
  0
LINE
  8
0
  6
CONTINUOUS
 62
     1
 10
375.066665723
 20
643.466668082
 11
378.066665723
 21
643.466668082
  0
LINE
  8
0
  6
CONTINUOUS
 62
     1
 10
375.066665723
 20
711.066668082
 11
378.066665723
 21
711.066668082
  0
LINE
  8
0
  6
CONTINUOUS
 62
     1
 10
363.066665723
 20
723.266668082
 11
363.066665723
 21
677.266668082
  0
LINE
  8
0
  6
CONTINUOUS
 62
     1
 10
363.066665723
 20
723.266668082
 11
375.066665723
 21
723.266668082
  0
LINE
  8
0
  6
CONTINUOUS
 62
     1
 10
375.066665723
 20
723.266668082
 11
375.066665723
 21
677.266668082
  0
LINE
  8
0
  6
CONTINUOUS
 62
     1
 10
363.066665723
 20
631.266668082
 11
363.066665723
 21
677.266668082
  0
LINE
  8
0
  6
CONTINUOUS
 62
     1
 10
363.066665723
 20
631.266668082
 11
375.066665723
 21
631.266668082
  0
LINE
  8
0
  6
CONTINUOUS
 62
     1
 10
375.066665723
 20
631.266668082
 11
375.066665723
 21
677.266668082
  0
LINE
  8
0
  6
CONTINUOUS
 62
     1
 10
363.066665723
 20
681.266668082
 11
375.066665723
 21
681.266668082
  0
LINE
  8
0
  6
CONTINUOUS
 62
     1
 10
363.066665723
 20
673.266668082
 11
375.066665723
 21
673.266668082
  0
LINE
  8
0
  6
CONTINUOUS
 62
     1
 10
212.066665723
 20
758.266668082
 11
237.066665723
 21
758.266668082
  0
LINE
  8
0
  6
CONTINUOUS
 62
     1
 10
212.066665723
 20
732.266668082
 11
274.066665723
 21
732.266668082
  0
LINE
  8
0
  6
CONTINUOUS
 62
     1
 10
212.066665723
 20
622.266668082
 11
274.066665723
 21
622.266668082
  0
LINE
  8
0
  6
CONTINUOUS
 62
     1
 10
212.066665723
 20
612.266668082
 11
259.566665723
 21
612.266668082
  0
LINE
  8
0
  6
CONTINUOUS
 62
     1
 10
212.066665723
 20
742.266668082
 11
259.566665723
 21
742.266668082
  0
LINE
  8
0
  6
CONTINUOUS
 62
     1
 10
212.066665723
 20
596.266668082
 11
237.066665723
 21
596.266668082
  0
LINE
  8
0
  6
CONTINUOUS
 62
     1
 10
187.066665723
 20
596.266668082
 11
212.066665723
 21
596.266668082
  0
LINE
  8
0
  6
CONTINUOUS
 62
     1
 10
212.066665723
 20
612.266668082
 11
164.566665723
 21
612.266668082
  0
LINE
  8
0
  6
CONTINUOUS
 62
     1
 10
175.866665723
 20
622.266668082
 11
212.066665723
 21
622.266668082
  0
LINE
  8
0
  6
CONTINUOUS
 62
     1
 10
175.866665723
 20
732.266668082
 11
212.066665723
 21
732.266668082
  0
LINE
  8
0
  6
CONTINUOUS
 62
     1
 10
212.066665723
 20
742.266668082
 11
164.566665723
 21
742.266668082
  0
LINE
  8
0
  6
CONTINUOUS
 62
     1
 10
187.066665723
 20
758.266668082
 11
212.066665723
 21
758.266668082
  0
LINE
  8
0
  6
CONTINUOUS
 62
     1
 10
203.566665723
 20
761.266668082
 11
203.566665723
 21
758.266668082
  0
LINE
  8
0
  6
CONTINUOUS
 62
     1
 10
220.566665723
 20
761.266668082
 11
220.566665723
 21
758.266668082
  0
LINE
  8
0
  6
CONTINUOUS
 62
     1
 10
220.566665723
 20
761.266668082
 11
220.566665723
 21
758.266668082
  0
CIRCLE
  8
0
  6
CONTINUOUS
 62
     1
 10
232.551384578
 20
697.875853006
 40
10.0
  0
CIRCLE
  8
0
  6
CONTINUOUS
 62
     1
 10
232.551384578
 20
697.875853006
 40
11.0
  0
LINE
  8
0
  6
CONTINUOUS
 62
     2
 10
454.166665723
 20
642.266668082
 11
456.754856174
 21
651.925926345
  0
LINE
  8
0
  6
CONTINUOUS
 62
     2
 10
454.166665723
 20
642.266668082
 11
451.578475272
 21
651.925926345
  0
LINE
  8
0
  6
CONTINUOUS
 62
     2
 10
454.166665723
 20
642.266668082
 11
454.166665723
 21
712.266668082
  0
LINE
  8
0
  6
CONTINUOUS
 62
     2
 10
454.166665723
 20
712.266668082
 11
451.578475272
 21
702.607409819
  0
LINE
  8
0
  6
CONTINUOUS
 62
     2
 10
454.166665723
 20
712.266668082
 11
456.754856174
 21
702.607409819
  0
TEXT
  8
0
  6
CONTINUOUS
 62
     2
 10
450.166665723
 20
659.866668082
 30
1.2
 40
12.0
  1
φ７０
 50
90.0
 41
0.9
 51
0.0
  7
KANJI8
  0
LINE
  8
0
  6
LTYPE1
 62
     2
 10
458.766665723
 20
677.266668082
 11
917.266665723
 21
677.266668082
  0
LINE
  8
0
  6
CONTINUOUS
 62
     1
 10
378.066665723
 20
642.266668082
 11
378.066665723
 21
712.266668082
  0
LINE
  8
0
  6
LTYPE3
 62
     2
 10
219.866665723
 20
697.816668082
 11
246.866665723
 21
697.816668082
  0
LINE
  8
0
  6
LTYPE3
 62
     2
 10
246.866665723
 20
697.816668082
 11
232.266665723
 21
697.816668082
  0
LINE
  8
0
  6
LTYPE3
 62
     2
 10
232.166665723
 20
711.066668082
 11
232.166665723
 21
682.466668082
  0
LINE
  8
0
  6
CONTINUOUS
 62
     2
 10
212.066665723
 20
549.766668082
 11
212.066665723
 21
532.566668082
  0
LINE
  8
0
  6
CONTINUOUS
 62
     2
 10
212.066665723
 20
538.566668082
 11
221.725923986
 21
535.978477631
  0
LINE
  8
0
  6
CONTINUOUS
 62
     2
 10
212.066665723
 20
538.566668082
 11
221.725923986
 21
541.154858533
  0
LINE
  8
0
  6
CONTINUOUS
 62
     2
 10
212.066665723
 20
538.566668082
 11
782.066665723
 21
538.566668082
  0
LINE
  8
0
  6
CONTINUOUS
 62
     2
 10
782.066665723
 20
538.566668082
 11
772.40740746
 21
541.154858533
  0
LINE
  8
0
  6
CONTINUOUS
 62
     2
 10
782.066665723
 20
538.566668082
 11
772.40740746
 21
535.978477631
  0
LINE
  8
0
  6
CONTINUOUS
 62
     2
 10
782.066665723
 20
636.266668082
 11
782.066665723
 21
532.566668082
  0
LINE
  8
0
  6
CONTINUOUS
 62
     2
 10
782.066665723
 20
538.566668082
 11
791.725923986
 21
535.978477631
  0
LINE
  8
0
  6
CONTINUOUS
 62
     2
 10
782.066665723
 20
538.566668082
 11
791.725923986
 21
541.154858533
  0
LINE
  8
0
  6
CONTINUOUS
 62
     2
 10
782.066665723
 20
538.566668082
 11
832.066665723
 21
538.566668082
  0
LINE
  8
0
  6
CONTINUOUS
 62
     2
 10
832.066665723
 20
538.566668082
 11
822.40740746
 21
541.154858533
  0
LINE
  8
0
  6
CONTINUOUS
 62
     2
 10
832.066665723
 20
538.566668082
 11
822.40740746
 21
535.978477631
  0
LINE
  8
0
  6
CONTINUOUS
 62
     2
 10
832.066665723
 20
638.266668082
 11
832.066665723
 21
532.566668082
  0
LINE
  8
0
  6
CONTINUOUS
 62
     2
 10
832.066665723
 20
538.566668082
 11
841.725923986
 21
535.978477631
  0
LINE
  8
0
  6
CONTINUOUS
 62
     2
 10
832.066665723
 20
538.566668082
 11
841.725923986
 21
541.154858533
  0
LINE
  8
0
  6
CONTINUOUS
 62
     2
 10
832.066665723
 20
538.566668082
 11
882.066665723
 21
538.566668082
  0
LINE
  8
0
  6
CONTINUOUS
 62
     2
 10
882.066665723
 20
538.566668082
 11
872.40740746
 21
541.154858533
  0
LINE
  8
0
  6
CONTINUOUS
 62
     2
 10
882.066665723
 20
538.566668082
 11
872.40740746
 21
535.978477631
  0
LINE
  8
0
  6
CONTINUOUS
 62
     2
 10
882.066665723
 20
611.266668082
 11
882.066665723
 21
532.566668082
  0
TEXT
  8
0
  6
CONTINUOUS
 62
     2
 10
845.666665723
 20
542.566668082
 30
1.2
 40
12.0
  1
５０
 50
0.0
 41
0.9
 51
0.0
  7
KANJI8
  0
LINE
  8
0
  6
CONTINUOUS
 62
     2
 10
212.066665723
 20
532.566668082
 11
212.066665723
 21
493.966668082
  0
LINE
  8
0
  6
CONTINUOUS
 62
     2
 10
212.066665723
 20
499.966668082
 11
221.725923986
 21
497.378477631
  0
LINE
  8
0
  6
CONTINUOUS
 62
     2
 10
212.066665723
 20
499.966668082
 11
221.725923986
 21
502.554858533
  0
LINE
  8
0
  6
CONTINUOUS
 62
     2
 10
212.066665723
 20
499.966668082
 11
882.066665723
 21
499.966668082
  0
LINE
  8
0
  6
CONTINUOUS
 62
     2
 10
882.066665723
 20
499.966668082
 11
872.40740746
 21
502.554858533
  0
LINE
  8
0
  6
CONTINUOUS
 62
     2
 10
882.066665723
 20
499.966668082
 11
872.40740746
 21
497.378477631
  0
LINE
  8
0
  6
CONTINUOUS
 62
     2
 10
882.066665723
 20
532.566668082
 11
882.066665723
 21
493.966668082
  0
LINE
  8
0
  6
CONTINUOUS
 62
     2
 10
882.066665723
 20
493.966668082
 11
882.066665723
 21
455.966668082
  0
LINE
  8
0
  6
CONTINUOUS
 62
     2
 10
882.066665723
 20
461.966668082
 11
872.40740746
 21
464.554858533
  0
LINE
  8
0
  6
CONTINUOUS
 62
     2
 10
882.066665723
 20
461.966668082
 11
872.40740746
 21
459.378477631
  0
LINE
  8
0
  6
CONTINUOUS
 62
     2
 10
882.066665723
 20
461.966668082
 11
157.066665723
 21
461.966668082
  0
LINE
  8
0
  6
CONTINUOUS
 62
     2
 10
157.066665723
 20
461.966668082
 11
166.725923986
 21
459.378477631
  0
LINE
  8
0
  6
CONTINUOUS
 62
     2
 10
157.066665723
 20
461.966668082
 11
166.725923986
 21
464.554858533
  0
LINE
  8
0
  6
CONTINUOUS
 62
     2
 10
157.066665723
 20
618.266668082
 11
157.066665723
 21
455.966668082
  0
LINE
  8
0
  6
CONTINUOUS
 62
     2
 10
212.066665723
 20
499.966668082
 11
202.40740746
 21
502.554858533
  0
LINE
  8
0
  6
CONTINUOUS
 62
     2
 10
212.066665723
 20
499.966668082
 11
202.40740746
 21
497.378477631
  0
LINE
  8
0
  6
CONTINUOUS
 62
     2
 10
212.066665723
 20
499.966668082
 11
157.066665723
 21
499.966668082
  0
LINE
  8
0
  6
CONTINUOUS
 62
     2
 10
157.066665723
 20
499.966668082
 11
166.725923986
 21
497.378477631
  0
LINE
  8
0
  6
CONTINUOUS
 62
     2
 10
157.066665723
 20
499.966668082
 11
166.725923986
 21
502.554858533
  0
LINE
  8
0
  6
CONTINUOUS
 62
     2
 10
157.066665723
 20
494.966668082
 11
157.066665723
 21
493.966668082
  0
TEXT
  8
0
  6
CONTINUOUS
 62
     2
 10
173.166665723
 20
503.966668082
 30
1.2
 40
12.0
  1
５５
 50
0.0
 41
0.9
 51
0.0
  7
KANJI8
  0
LINE
  8
0
  6
LTYPE1
 62
     2
 10
146.166665723
 20
677.266668082
 11
432.766665723
 21
677.266668082
  0
LINE
  8
0
  6
CONTINUOUS
 62
     2
 10
158.566665723
 20
742.266668082
 11
114.066665723
 21
742.266668082
  0
LINE
  8
0
  6
CONTINUOUS
 62
     2
 10
120.066665723
 20
742.266668082
 11
117.478475272
 21
732.607409819
  0
LINE
  8
0
  6
CONTINUOUS
 62
     2
 10
120.066665723
 20
742.266668082
 11
122.654856174
 21
732.607409819
  0
LINE
  8
0
  6
CONTINUOUS
 62
     2
 10
120.066665723
 20
742.266668082
 11
120.066665723
 21
612.266668082
  0
LINE
  8
0
  6
CONTINUOUS
 62
     2
 10
120.066665723
 20
612.266668082
 11
122.654856174
 21
621.925926345
  0
LINE
  8
0
  6
CONTINUOUS
 62
     2
 10
120.066665723
 20
612.266668082
 11
117.478475272
 21
621.925926345
  0
LINE
  8
0
  6
CONTINUOUS
 62
     2
 10
158.566665723
 20
612.266668082
 11
114.066665723
 21
612.266668082
  0
TEXT
  8
0
  6
CONTINUOUS
 62
     2
 10
116.066665723
 20
659.866668082
 30
1.2
 40
12.0
  1
１３０
 50
90.0
 41
0.9
 51
0.0
  7
KANJI8
  0
LINE
  8
0
  6
CONTINUOUS
 62
     2
 10
120.066665723
 20
612.266668082
 11
117.478475272
 21
602.607409819
  0
LINE
  8
0
  6
CONTINUOUS
 62
     2
 10
120.066665723
 20
612.266668082
 11
122.654856174
 21
602.607409819
  0
LINE
  8
0
  6
CONTINUOUS
 62
     2
 10
120.066665723
 20
612.266668082
 11
120.066665723
 21
596.266668082
  0
LINE
  8
0
  6
CONTINUOUS
 62
     2
 10
120.066665723
 20
596.266668082
 11
122.654856174
 21
605.925926345
  0
LINE
  8
0
  6
CONTINUOUS
 62
     2
 10
120.066665723
 20
596.266668082
 11
117.478475272
 21
605.925926345
  0
LINE
  8
0
  6
CONTINUOUS
 62
     2
 10
181.066665723
 20
596.266668082
 11
114.066665723
 21
596.266668082
  0
TEXT
  8
0
  6
CONTINUOUS
 62
     2
 10
116.066665723
 20
592.866668082
 30
1.2
 40
12.0
  1
１６
 50
90.0
 41
0.9
 51
0.0
  7
KANJI8
  0
LINE
  8
0
  6
CONTINUOUS
 62
     2
 10
120.066665723
 20
742.266668082
 11
122.654856174
 21
751.925926345
  0
LINE
  8
0
  6
CONTINUOUS
 62
     2
 10
120.066665723
 20
742.266668082
 11
117.478475272
 21
751.925926345
  0
LINE
  8
0
  6
CONTINUOUS
 62
     2
 10
120.066665723
 20
742.266668082
 11
120.066665723
 21
758.266668082
  0
LINE
  8
0
  6
CONTINUOUS
 62
     2
 10
120.066665723
 20
758.266668082
 11
117.478475272
 21
748.607409819
  0
LINE
  8
0
  6
CONTINUOUS
 62
     2
 10
120.066665723
 20
758.266668082
 11
122.654856174
 21
748.607409819
  0
LINE
  8
0
  6
CONTINUOUS
 62
     2
 10
181.066665723
 20
758.266668082
 11
114.066665723
 21
758.266668082
  0
TEXT
  8
0
  6
CONTINUOUS
 62
     2
 10
116.066665723
 20
738.866668082
 30
1.2
 40
12.0
  1
１６
 50
90.0
 41
0.9
 51
0.0
  7
KANJI8
  0
LINE
  8
0
  6
CONTINUOUS
 62
     2
 10
198.566665723
 20
568.266668082
 11
85.466665723
 21
568.266668082
  0
LINE
  8
0
  6
CONTINUOUS
 62
     2
 10
91.466665723
 20
568.266668082
 11
94.054856174
 21
577.925926345
  0
LINE
  8
0
  6
CONTINUOUS
 62
     2
 10
91.466665723
 20
568.266668082
 11
88.878475272
 21
577.925926345
  0
LINE
  8
0
  6
CONTINUOUS
 62
     2
 10
91.466665723
 20
568.266668082
 11
91.466665723
 21
786.266668082
  0
LINE
  8
0
  6
CONTINUOUS
 62
     2
 10
91.466665723
 20
786.266668082
 11
88.878475272
 21
776.607409819
  0
LINE
  8
0
  6
CONTINUOUS
 62
     2
 10
91.466665723
 20
786.266668082
 11
94.054856174
 21
776.607409819
  0
LINE
  8
0
  6
CONTINUOUS
 62
     2
 10
198.566665723
 20
786.266668082
 11
85.466665723
 21
786.266668082
  0
TEXT
  8
0
  6
CONTINUOUS
 62
     2
 10
87.466665723
 20
659.866668082
 30
1.2
 40
12.0
  1
２１８
 50
90.0
 41
0.9
 51
0.0
  7
KANJI8
  0
LINE
  8
0
  6
CONTINUOUS
 62
     2
 10
120.066665723
 20
758.266668082
 11
117.478475272
 21
748.607409819
  0
LINE
  8
0
  6
CONTINUOUS
 62
     2
 10
120.066665723
 20
758.266668082
 11
122.654856174
 21
748.607409819
  0
LINE
  8
0
  6
CONTINUOUS
 62
     2
 10
120.066665723
 20
743.266668082
 11
120.066665723
 21
787.066668082
  0
LINE
  8
0
  6
CONTINUOUS
 62
     2
 10
120.066665723
 20
761.266668082
 11
122.654856174
 21
770.925926345
  0
LINE
  8
0
  6
CONTINUOUS
 62
     2
 10
120.066665723
 20
761.266668082
 11
117.478475272
 21
770.925926345
  0
LINE
  8
0
  6
CONTINUOUS
 62
     2
 10
197.566665723
 20
761.266668082
 11
114.066665723
 21
761.266668082
  0
TEXT
  8
0
  6
CONTINUOUS
 62
     2
 10
134.966665723
 20
766.366668082
 30
1.2
 40
12.0
  1
３
 50
90.0
 41
0.9
 51
0.0
  7
KANJI8
  0
LINE
  8
0
  6
CONTINUOUS
 62
     2
 10
120.066665723
 20
596.266668082
 11
122.654856174
 21
605.925926345
  0
LINE
  8
0
  6
CONTINUOUS
 62
     2
 10
120.066665723
 20
596.266668082
 11
117.478475272
 21
605.925926345
  0
LINE
  8
0
  6
CONTINUOUS
 62
     2
 10
120.066665723
 20
611.266668082
 11
120.066665723
 21
567.466668082
  0
LINE
  8
0
  6
CONTINUOUS
 62
     2
 10
120.066665723
 20
593.266668082
 11
117.478475272
 21
583.607409819
  0
LINE
  8
0
  6
CONTINUOUS
 62
     2
 10
120.066665723
 20
593.266668082
 11
122.654856174
 21
583.607409819
  0
LINE
  8
0
  6
CONTINUOUS
 62
     2
 10
198.566665723
 20
593.266668082
 11
114.066665723
 21
593.266668082
  0
TEXT
  8
0
  6
CONTINUOUS
 62
     2
 10
135.066665723
 20
581.466668082
 30
1.2
 40
12.0
  1
３
 50
90.0
 41
0.9
 51
0.0
  7
KANJI8
  0
LINE
  8
0
  6
CONTINUOUS
 62
     1
 10
1130.566665723
 20
786.266668082
 11
1145.566665723
 21
786.266668082
  0
LINE
  8
0
  6
CONTINUOUS
 62
     1
 10
1129.566665723
 20
761.266668082
 11
1146.566665723
 21
761.266668082
  0
LINE
  8
0
  6
CONTINUOUS
 62
     1
 10
1145.566665723
 20
761.266668082
 11
1145.566665723
 21
786.266668082
  0
LINE
  8
0
  6
CONTINUOUS
 62
     1
 10
1130.566665723
 20
761.266668082
 11
1130.566665723
 21
786.266668082
  0
LINE
  8
0
  6
CONTINUOUS
 62
     1
 10
1129.566665723
 20
758.266668082
 11
1129.566665723
 21
761.266668082
  0
LINE
  8
0
  6
CONTINUOUS
 62
     1
 10
1146.566665723
 20
758.266668082
 11
1146.566665723
 21
761.266668082
  0
LINE
  8
0
  6
CONTINUOUS
 62
     1
 10
1113.066665723
 20
758.266668082
 11
1163.066665723
 21
758.266668082
  0
LINE
  8
0
  6
CONTINUOUS
 62
     1
 10
1163.066665723
 20
742.266668082
 11
1163.066665723
 21
758.266668082
  0
LINE
  8
0
  6
CONTINUOUS
 62
     1
 10
1113.066665723
 20
742.266668082
 11
1113.066665723
 21
758.266668082
  0
CIRCLE
  8
0
  6
CONTINUOUS
 62
     1
 10
1138.066665723
 20
677.266668082
 40
55.0
  0
LINE
  8
0
  6
CONTINUOUS
 62
     1
 10
1090.566665723
 20
742.266668082
 11
1185.566665723
 21
742.266668082
  0
LINE
  8
0
  6
CONTINUOUS
 62
     1
 10
1089.066665723
 20
732.266668082
 11
1187.066665723
 21
732.266668082
  0
LINE
  8
0
  6
CONTINUOUS
 62
     1
 10
1090.566665723
 20
732.266668082
 11
1090.566665723
 21
742.266668082
  0
LINE
  8
0
  6
CONTINUOUS
 62
     1
 10
1185.566665723
 20
732.266668082
 11
1185.566665723
 21
742.266668082
  0
LINE
  8
0
  6
CONTINUOUS
 62
     1
 10
1187.066665723
 20
702.766668082
 11
1187.066665723
 21
732.266668082
  0
LINE
  8
0
  6
CONTINUOUS
 62
     1
 10
1089.066665723
 20
701.766668082
 11
1089.066665723
 21
732.266668082
  0
LINE
  8
0
  6
CONTINUOUS
 62
     1
 10
1089.066665723
 20
622.266668082
 11
1187.066665723
 21
622.266668082
  0
LINE
  8
0
  6
CONTINUOUS
 62
     1
 10
1090.566665723
 20
612.266668082
 11
1185.566665723
 21
612.266668082
  0
LINE
  8
0
  6
CONTINUOUS
 62
     1
 10
1090.566665723
 20
612.266668082
 11
1090.566665723
 21
622.266668082
  0
LINE
  8
0
  6
CONTINUOUS
 62
     1
 10
1185.566665723
 20
612.266668082
 11
1185.566665723
 21
622.266668082
  0
LINE
  8
0
  6
CONTINUOUS
 62
     1
 10
1089.066665723
 20
622.266668082
 11
1089.066665723
 21
652.786676088
  0
LINE
  8
0
  6
CONTINUOUS
 62
     1
 10
1187.066665723
 20
622.266668082
 11
1187.066665723
 21
651.286676088
  0
LINE
  8
0
  6
CONTINUOUS
 62
     1
 10
1130.566665723
 20
568.266668082
 11
1145.566665723
 21
568.266668082
  0
LINE
  8
0
  6
CONTINUOUS
 62
     1
 10
1129.566665723
 20
593.266668082
 11
1146.566665723
 21
593.266668082
  0
LINE
  8
0
  6
CONTINUOUS
 62
     1
 10
1145.566665723
 20
593.266668082
 11
1145.566665723
 21
568.266668082
  0
LINE
  8
0
  6
CONTINUOUS
 62
     1
 10
1130.566665723
 20
593.266668082
 11
1130.566665723
 21
568.266668082
  0
LINE
  8
0
  6
CONTINUOUS
 62
     1
 10
1129.566665723
 20
596.266668082
 11
1129.566665723
 21
593.266668082
  0
LINE
  8
0
  6
CONTINUOUS
 62
     1
 10
1146.566665723
 20
596.266668082
 11
1146.566665723
 21
593.266668082
  0
LINE
  8
0
  6
CONTINUOUS
 62
     1
 10
1113.066665723
 20
596.266668082
 11
1163.066665723
 21
596.266668082
  0
LINE
  8
0
  6
CONTINUOUS
 62
     1
 10
1163.066665723
 20
612.266668082
 11
1163.066665723
 21
596.266668082
  0
LINE
  8
0
  6
CONTINUOUS
 62
     1
 10
1113.066665723
 20
612.266668082
 11
1113.066665723
 21
596.266668082
  0
LINE
  8
0
  6
CONTINUOUS
 62
     2
 10
1193.066665723
 20
683.266668082
 11
1193.066665723
 21
813.466668082
  0
LINE
  8
0
  6
CONTINUOUS
 62
     2
 10
1193.066665723
 20
807.466668082
 11
1183.40740746
 21
810.054858533
  0
LINE
  8
0
  6
CONTINUOUS
 62
     2
 10
1193.066665723
 20
807.466668082
 11
1183.40740746
 21
804.878477631
  0
LINE
  8
0
  6
CONTINUOUS
 62
     2
 10
1193.066665723
 20
807.466668082
 11
1138.066665723
 21
807.466668082
  0
LINE
  8
0
  6
CONTINUOUS
 62
     2
 10
1138.066665723
 20
807.466668082
 11
1147.725923986
 21
804.878477631
  0
LINE
  8
0
  6
CONTINUOUS
 62
     2
 10
1138.066665723
 20
807.466668082
 11
1147.725923986
 21
810.054858533
  0
LINE
  8
0
  6
CONTINUOUS
 62
     2
 10
1138.066665723
 20
807.266668082
 11
1138.066665723
 21
813.466668082
  0
ARC
  8
0
  6
CONTINUOUS
 62
     1
 10
1054.066665723
 20
677.266668082
 40
4.0
 50
90.0
 51
180.0
  0
POINT
  8
0
  6
CONTINUOUS
 62
     1
 10
1050.066665723
 20
677.266668082
  0
ARC
  8
0
  6
CONTINUOUS
 62
     1
 10
1054.066665723
 20
677.266668082
 40
4.0
 50
180.0
 51
270.0
  0
LINE
  8
0
  6
CONTINUOUS
 62
     1
 10
1080.066665723
 20
685.266668082
 11
1083.666665723
 21
685.266668082
  0
LINE
  8
0
  6
CONTINUOUS
 62
     1
 10
1080.066665723
 20
669.266668082
 11
1083.966665723
 21
669.266668082
  0
LINE
  8
0
  6
CONTINUOUS
 62
     1
 10
1080.066665723
 20
685.266668082
 11
1078.666665723
 21
680.966668082
  0
LINE
  8
0
  6
CONTINUOUS
 62
     1
 10
1054.066665723
 20
681.266668082
 11
1082.166665723
 21
681.266668082
  0
LINE
  8
0
  6
CONTINUOUS
 62
     1
 10
1080.066665723
 20
669.266668082
 11
1078.666665723
 21
673.566668082
  0
LINE
  8
0
  6
CONTINUOUS
 62
     1
 10
1054.066665723
 20
673.266668082
 11
1082.266665723
 21
673.266668082
  0
LINE
  8
0
  6
CONTINUOUS
 62
     1
 10
375.066665723
 20
922.466668082
 11
378.066665723
 21
922.466668082
  0
LINE
  8
0
  6
CONTINUOUS
 62
     1
 10
375.066665723
 20
990.066668082
 11
378.066665723
 21
990.066668082
  0
LINE
  8
0
  6
CONTINUOUS
 62
     1
 10
363.066665723
 20
1002.266668082
 11
363.066665723
 21
956.266668082
  0
LINE
  8
0
  6
CONTINUOUS
 62
     1
 10
363.066665723
 20
1002.266668082
 11
375.066665723
 21
1002.266668082
  0
LINE
  8
0
  6
CONTINUOUS
 62
     1
 10
375.066665723
 20
1002.266668082
 11
375.066665723
 21
956.266668082
  0
LINE
  8
0
  6
CONTINUOUS
 62
     1
 10
363.066665723
 20
910.266668082
 11
363.066665723
 21
956.266668082
  0
LINE
  8
0
  6
CONTINUOUS
 62
     1
 10
363.066665723
 20
910.266668082
 11
375.066665723
 21
910.266668082
  0
LINE
  8
0
  6
CONTINUOUS
 62
     1
 10
375.066665723
 20
910.266668082
 11
375.066665723
 21
956.266668082
  0
LINE
  8
0
  6
CONTINUOUS
 62
     1
 10
363.066665723
 20
960.266668082
 11
375.066665723
 21
960.266668082
  0
LINE
  8
0
  6
CONTINUOUS
 62
     1
 10
363.066665723
 20
952.266668082
 11
375.066665723
 21
952.266668082
  0
LINE
  8
0
  6
CONTINUOUS
 62
     1
 10
378.066665723
 20
921.266668082
 11
378.066665723
 21
991.266668082
  0
LINE
  8
0
  6
CONTINUOUS
 62
     1
 10
375.066665723
 20
991.266668082
 11
449.066665723
 21
991.266668082
  0
LINE
  8
0
  6
CONTINUOUS
 62
     1
 10
375.066665723
 20
921.266668082
 11
449.066665723
 21
921.266668082
  0
LINE
  8
0
  6
CONTINUOUS
 62
     2
 10
1123.566665723
 20
761.266668082
 11
1018.066665723
 21
761.266668082
  0
LINE
  8
0
  6
CONTINUOUS
 62
     2
 10
1024.066665723
 20
761.266668082
 11
1021.478475272
 21
751.607409819
  0
LINE
  8
0
  6
CONTINUOUS
 62
     2
 10
1024.066665723
 20
761.266668082
 11
1026.654856174
 21
751.607409819
  0
LINE
  8
0
  6
CONTINUOUS
 62
     2
 10
1024.066665723
 20
761.266668082
 11
1024.066665723
 21
593.266668082
  0
LINE
  8
0
  6
CONTINUOUS
 62
     2
 10
1024.066665723
 20
593.266668082
 11
1026.654856174
 21
602.925926345
  0
LINE
  8
0
  6
CONTINUOUS
 62
     2
 10
1024.066665723
 20
593.266668082
 11
1021.478475272
 21
602.925926345
  0
LINE
  8
0
  6
CONTINUOUS
 62
     2
 10
1123.566665723
 20
593.266668082
 11
1018.066665723
 21
593.266668082
  0
TEXT
  8
0
  6
CONTINUOUS
 62
     2
 10
1020.066665723
 20
659.866668082
 30
1.2
 40
12.0
  1
１６８
 50
90.0
 41
0.9
 51
0.0
  7
KANJI8
  0
LINE
  8
0
  6
CONTINUOUS
 62
     2
 10
1024.066665723
 20
593.266668082
 11
1021.478475272
 21
583.607409819
  0
LINE
  8
0
  6
CONTINUOUS
 62
     2
 10
1024.066665723
 20
593.266668082
 11
1026.654856174
 21
583.607409819
  0
LINE
  8
0
  6
CONTINUOUS
 62
     2
 10
1024.066665723
 20
593.266668082
 11
1024.066665723
 21
568.266668082
  0
LINE
  8
0
  6
CONTINUOUS
 62
     2
 10
1024.066665723
 20
568.266668082
 11
1026.654856174
 21
577.925926345
  0
LINE
  8
0
  6
CONTINUOUS
 62
     2
 10
1024.066665723
 20
568.266668082
 11
1021.478475272
 21
577.925926345
  0
LINE
  8
0
  6
CONTINUOUS
 62
     2
 10
1124.566665723
 20
568.266668082
 11
1018.066665723
 21
568.266668082
  0
TEXT
  8
0
  6
CONTINUOUS
 62
     2
 10
1020.066665723
 20
569.366668082
 30
1.2
 40
12.0
  1
２５
 50
90.0
 41
0.9
 51
0.0
  7
KANJI8
  0
LINE
  8
0
  6
CONTINUOUS
 62
     2
 10
1024.066665723
 20
761.266668082
 11
1026.654856174
 21
770.925926345
  0
LINE
  8
0
  6
CONTINUOUS
 62
     2
 10
1024.066665723
 20
761.266668082
 11
1021.478475272
 21
770.925926345
  0
LINE
  8
0
  6
CONTINUOUS
 62
     2
 10
1024.066665723
 20
761.266668082
 11
1024.066665723
 21
786.266668082
  0
LINE
  8
0
  6
CONTINUOUS
 62
     2
 10
1024.066665723
 20
786.266668082
 11
1021.478475272
 21
776.607409819
  0
LINE
  8
0
  6
CONTINUOUS
 62
     2
 10
1024.066665723
 20
786.266668082
 11
1026.654856174
 21
776.607409819
  0
LINE
  8
0
  6
CONTINUOUS
 62
     2
 10
1124.566665723
 20
786.266668082
 11
1018.066665723
 21
786.266668082
  0
TEXT
  8
0
  6
CONTINUOUS
 62
     2
 10
1020.066665723
 20
762.366668082
 30
1.2
 40
12.0
  1
２５
 50
90.0
 41
0.9
 51
0.0
  7
KANJI8
  0
LINE
  8
0
  6
CONTINUOUS
 62
     2
 10
1138.066665723
 20
807.466668082
 11
1128.40740746
 21
810.054858533
  0
LINE
  8
0
  6
CONTINUOUS
 62
     2
 10
1138.066665723
 20
807.466668082
 11
1128.40740746
 21
804.878477631
  0
LINE
  8
0
  6
CONTINUOUS
 62
     2
 10
1138.066665723
 20
807.466668082
 11
1050.066665723
 21
807.466668082
  0
LINE
  8
0
  6
CONTINUOUS
 62
     2
 10
1050.066665723
 20
807.466668082
 11
1059.725923986
 21
804.878477631
  0
LINE
  8
0
  6
CONTINUOUS
 62
     2
 10
1050.066665723
 20
807.466668082
 11
1059.725923986
 21
810.054858533
  0
LINE
  8
0
  6
CONTINUOUS
 62
     2
 10
1050.066665723
 20
683.266668082
 11
1050.066665723
 21
813.466668082
  0
TEXT
  8
0
  6
CONTINUOUS
 62
     2
 10
1082.666665723
 20
811.466668082
 30
1.2
 40
12.0
  1
８８
 50
0.0
 41
0.9
 51
0.0
  7
KANJI8
  0
LINE
  8
0
  6
LTYPE1
 62
     2
 10
1138.066665723
 20
555.516668082
 11
1138.066665723
 21
624.716668082
  0
LINE
  8
0
  6
CONTINUOUS
 62
     2
 10
1113.066665723
 20
590.266668082
 11
1113.066665723
 21
524.016668082
  0
LINE
  8
0
  6
CONTINUOUS
 62
     2
 10
1113.066665723
 20
530.016668082
 11
1122.725923986
 21
527.428477631
  0
LINE
  8
0
  6
CONTINUOUS
 62
     2
 10
1113.066665723
 20
530.016668082
 11
1122.725923986
 21
532.604858533
  0
LINE
  8
0
  6
CONTINUOUS
 62
     2
 10
1113.066665723
 20
530.016668082
 11
1163.066665723
 21
530.016668082
  0
LINE
  8
0
  6
CONTINUOUS
 62
     2
 10
1163.066665723
 20
530.016668082
 11
1153.40740746
 21
532.604858533
  0
LINE
  8
0
  6
CONTINUOUS
 62
     2
 10
1163.066665723
 20
530.016668082
 11
1153.40740746
 21
527.428477631
  0
LINE
  8
0
  6
CONTINUOUS
 62
     2
 10
1163.066665723
 20
590.266668082
 11
1163.066665723
 21
524.016668082
  0
TEXT
  8
0
  6
CONTINUOUS
 62
     2
 10
1104.666665723
 20
534.016668082
 30
1.2
 40
12.0
  1
φ５０ｄ９
 50
0.0
 41
0.9
 51
0.0
  7
KANJI8
  0
LINE
  8
0
  6
CONTINUOUS
 62
     1
 10
214.566665723
 20
765.766668082
 11
214.566665723
 21
786.266668082
  0
ARC
  8
0
  6
CONTINUOUS
 62
     1
 10
212.066665723
 20
765.766668082
 40
2.5
 50
270.0
 51
0.0
  0
LINE
  8
0
  6
CONTINUOUS
 62
     1
 10
209.566665723
 20
765.766668082
 11
209.566665723
 21
786.266668082
  0
ARC
  8
0
  6
CONTINUOUS
 62
     1
 10
212.066665723
 20
765.766668082
 40
2.5
 50
180.0
 51
270.0
  0
LINE
  8
0
  6
CONTINUOUS
 62
     1
 10
214.566665723
 20
588.766668082
 11
214.566665723
 21
568.266668082
  0
ARC
  8
0
  6
CONTINUOUS
 62
     1
 10
212.066665723
 20
588.766668082
 40
2.5
 50
0.0
 51
90.0
  0
LINE
  8
0
  6
CONTINUOUS
 62
     1
 10
209.566665723
 20
588.766668082
 11
209.566665723
 21
568.266668082
  0
ARC
  8
0
  6
CONTINUOUS
 62
     1
 10
212.066665723
 20
588.766668082
 40
2.5
 50
90.0
 51
180.0
  0
LINE
  8
0
  6
CONTINUOUS
 62
     2
 10
233.966665723
 20
703.766668082
 11
241.143896182
 21
710.729954873
  0
LINE
  8
0
  6
CONTINUOUS
 62
     2
 10
233.966665723
 20
703.766668082
 11
236.700686234
 21
713.385666567
  0
LINE
  8
0
  6
CONTINUOUS
 62
     2
 10
233.966665723
 20
703.766668082
 11
285.966665723
 21
790.766668082
  0
LINE
  8
0
  6
CONTINUOUS
 62
     2
 10
285.966665723
 20
790.766668082
 11
320.766665723
 21
790.766668082
  0
TEXT
  8
0
  6
CONTINUOUS
 62
     2
 10
285.966665723
 20
794.766668082
 30
1.2
 40
12.0
  1
給脂口
 50
0.0
 41
0.9
 51
0.0
  7
KANJI0
  0
TEXT
  8
0
  6
CONTINUOUS
 62
     2
 10
287.066665723
 20
773.966668082
 30
1.2
 40
12.0
  1
点検口
 50
0.0
 41
0.9
 51
0.0
  7
KANJI0
  0
LINE
  8
0
  6
CONTINUOUS
 62
     2
 10
533.566665723
 20
687.866668082
 11
539.557098688
 21
695.873834428
  0
LINE
  8
0
  6
CONTINUOUS
 62
     2
 10
533.566665723
 20
687.866668082
 11
534.750949677
 21
697.796294033
  0
LINE
  8
0
  6
CONTINUOUS
 62
     2
 10
533.566665723
 20
687.866668082
 11
573.566665723
 21
787.866668082
  0
LINE
  8
0
  6
CONTINUOUS
 62
     2
 10
573.566665723
 20
787.866668082
 11
605.966665723
 21
787.866668082
  0
TEXT
  8
0
  6
CONTINUOUS
 62
     2
 10
573.566665723
 20
791.866668082
 30
0.0
 40
12.0
  1
給脂口
 50
0.0
 41
0.9
 51
0.0
  7
KANJI1
  0
TEXT
  8
0
  6
CONTINUOUS
 62
     2
 10
711.966665723
 20
886.766668082
 30
1.2
 40
12.0
  1
５Ｘ５Ｘ２０キー付
 50
0.0
 41
0.9
 51
0.0
  7
KANJI0
  0
TEXT
  8
0
  6
CONTINUOUS
 62
     2
 10
6064.066665723
 20
2497.766668082
 30
40.0
 40
80.0
  1
特記事項
 50
0.0
 41
0.9
 51
0.0
  7
KANJI9
  0
TEXT
  8
0
  6
CONTINUOUS
 62
     2
 10
5784.066665723
 20
2337.766668082
 30
20.571428571
 40
72.0
  1
１。運転時は必ずピストンロッドの回転防止を行って下さい。
 50
0.0
 41
0.857142857
 51
0.0
  7
KANJI10
  0
TEXT
  8
0
  6
CONTINUOUS
 62
     2
 10
5784.066665723
 20
2181.766668082
 30
20.52
 40
72.0
  1
２。形式表示ストロークは機械的最大ストロークです。
 50
0.0
 41
0.857222222
 51
0.0
  7
KANJI11
  0
TEXT
  8
0
  6
CONTINUOUS
 62
     2
 10
5784.066665723
 20
2024.966668082
 30
20.52
 40
72.0
  1
　　実際に使用する場合は惰行距離を含め、両端に十分余裕を
 50
0.0
 41
0.857222222
 51
0.0
  7
KANJI11
  0
TEXT
  8
0
  6
CONTINUOUS
 62
     2
 10
5784.066665723
 20
1868.966668082
 30
20.52
 40
72.0
  1
　　みて下さい。
 50
0.0
 41
0.857222222
 51
0.0
  7
KANJI11
  0
TEXT
  8
0
  6
CONTINUOUS
 62
     2
 10
5784.066665723
 20
1714.966668082
 30
20.52
 40
72.0
  1
３．外部ＬＳユニット：信号確認用
 50
0.0
 41
0.857222222
 51
0.0
  7
KANJI11
  0
TEXT
  8
0
  6
CONTINUOUS
 62
     2
 10
5784.066665723
 20
1556.966668082
 30
20.52
 40
72.0
  1
　　リミットＳＷ　形式：ＷＬＣＡ２　Ｘ　２　（ＯＭＲＯＮ）
 50
0.0
 41
0.857222222
 51
0.0
  7
KANJI11
  0
TEXT
  8
0
  6
CONTINUOUS
 62
     2
 10
7276.066665723
 20
739.766668082
 30
55.0
 40
110.0
  1
外寸図
 50
0.0
 41
0.9
 51
0.0
  7
KANJI12
  0
TEXT
  8
0
  6
CONTINUOUS
 62
     2
 10
7122.066665723
 20
853.766668082
 30
10.0
 40
100.0
  1
マイティシリンダ
 50
0.0
 41
0.9
 51
0.0
  7
KANJI13
  0
TEXT
  8
0
  6
CONTINUOUS
 62
     2
 10
6304.066665723
 20
831.766668082
 30
6.4
 40
64.0
  1
ＳＣＤ５Ｂ－ＪＬＳ
 50
0.0
 41
0.9
 51
0.0
  7
KANJI14
  0
TEXT
  8
0
  6
CONTINUOUS
 62
     2
 10
1200.066665723
 20
502.566668082
 30
8.0
 40
16.0
  1
特記事項
 50
0.0
 41
0.9
 51
0.0
  7
KANJI15
  0
TEXT
  8
0
  6
CONTINUOUS
 62
     2
 10
1144.066665723
 20
470.566668082
 30
4.114285714
 40
14.4
  1
１。運転時は必ずピストンロッドの回転防止を行って下さい。
 50
0.0
 41
0.857142857
 51
0.0
  7
KANJI16
  0
TEXT
  8
0
  6
CONTINUOUS
 62
     2
 10
1144.066665723
 20
439.366668082
 30
4.104
 40
14.4
  1
２。形式表示ストロークは機械的最大ストロークです。
 50
0.0
 41
0.857222222
 51
0.0
  7
KANJI17
  0
TEXT
  8
0
  6
CONTINUOUS
 62
     2
 10
1144.066665723
 20
408.006668082
 30
4.104
 40
14.4
  1
　　実際に使用する場合は惰行距離を含め、両端に十分余裕を
 50
0.0
 41
0.857222222
 51
0.0
  7
KANJI17
  0
TEXT
  8
0
  6
CONTINUOUS
 62
     2
 10
1144.066665723
 20
376.806668082
 30
4.104
 40
14.4
  1
　　みて下さい。
 50
0.0
 41
0.857222222
 51
0.0
  7
KANJI17
  0
CIRCLE
  8
0
  6
CONTINUOUS
 62
     1
 10
306.224030431
 20
677.266668082
 40
10.0
  0
CIRCLE
  8
0
  6
CONTINUOUS
 62
     1
 10
306.224030431
 20
677.266668082
 40
5.0
  0
LINE
  8
0
  6
CONTINUOUS
 62
     2
 10
309.724030431
 20
682.866668082
 11
316.784432972
 21
689.948385102
  0
LINE
  8
0
  6
CONTINUOUS
 62
     2
 10
309.724030431
 20
682.866668082
 11
312.297659883
 21
692.529816194
  0
LINE
  8
0
  6
CONTINUOUS
 62
     2
 10
309.724030431
 20
682.866668082
 11
351.724030431
 21
755.866668082
  0
LINE
  8
0
  6
CONTINUOUS
 62
     2
 10
351.724030431
 20
755.866668082
 11
446.524030431
 21
755.866668082
  0
TEXT
  8
0
  6
CONTINUOUS
 62
     2
 10
351.724030431
 20
759.866668082
 30
1.2
 40
12.0
  1
グリースニップル
 50
0.0
 41
0.9
 51
0.0
  7
KANJI0
  0
LINE
  8
0
  6
CONTINUOUS
 62
     1
 10
157.066665723
 20
643.266668082
 11
157.066665723
 21
637.502014082
  0
LINE
  8
0
  6
CONTINUOUS
 62
     1
 10
157.066665723
 20
643.266668082
 11
157.066665723
 21
649.031322082
  0
LINE
  8
0
  6
CONTINUOUS
 62
     1
 10
153.067055723
 20
638.913766082
 11
153.88213112
 21
637.502014082
  0
LINE
  8
0
  6
CONTINUOUS
 62
     1
 10
153.067055723
 20
643.266668082
 11
153.067055723
 21
638.913766082
  0
LINE
  8
0
  6
CONTINUOUS
 62
     1
 10
153.067055723
 20
647.619570082
 11
153.88213112
 21
649.031322082
  0
LINE
  8
0
  6
CONTINUOUS
 62
     1
 10
153.067055723
 20
643.266668082
 11
153.067055723
 21
647.619570082
  0
ARC
  8
0
  6
CONTINUOUS
 62
     1
 10
158.570937247
 20
643.266668082
 40
5.503881523
 50
148.419912243
 51
211.580087757
  0
ARC
  8
0
  6
CONTINUOUS
 62
     1
 10
154.74814873
 20
638.943177582
 40
1.681350271
 50
121.002313915
 51
182.989498403
  0
LINE
  8
0
  6
CONTINUOUS
 62
     1
 10
153.067055723
 20
647.619570082
 11
153.88213112
 21
649.031322082
  0
ARC
  8
0
  6
CONTINUOUS
 62
     1
 10
154.74814873
 20
647.590158582
 40
1.681350271
 50
177.010501597
 51
238.997686085
  0
LINE
  8
0
  6
CONTINUOUS
 62
     1
 10
157.066665723
 20
640.384341082
 11
153.88213112
 21
640.384341082
  0
LINE
  8
0
  6
CONTINUOUS
 62
     1
 10
157.066665723
 20
637.502014082
 11
153.88213112
 21
637.502014082
  0
LINE
  8
0
  6
CONTINUOUS
 62
     1
 10
157.066665723
 20
646.148995082
 11
153.88213112
 21
646.148995082
  0
LINE
  8
0
  6
CONTINUOUS
 62
     1
 10
157.066665723
 20
649.031322082
 11
153.88213112
 21
649.031322082
  0
LINE
  8
0
  6
LTYPE3
 62
     2
 10
150.966665723
 20
643.266668082
 11
178.324030431
 21
643.266668082
  0
LINE
  8
0
  6
CONTINUOUS
 62
     1
 10
157.066665723
 20
711.266668082
 11
157.066665723
 21
717.031322082
  0
LINE
  8
0
  6
CONTINUOUS
 62
     1
 10
157.066665723
 20
711.266668082
 11
157.066665723
 21
705.502014082
  0
LINE
  8
0
  6
CONTINUOUS
 62
     1
 10
153.067055723
 20
715.619570082
 11
153.88213112
 21
717.031322082
  0
LINE
  8
0
  6
CONTINUOUS
 62
     1
 10
153.067055723
 20
711.266668082
 11
153.067055723
 21
715.619570082
  0
LINE
  8
0
  6
CONTINUOUS
 62
     1
 10
153.067055723
 20
706.913766082
 11
153.88213112
 21
705.502014082
  0
LINE
  8
0
  6
CONTINUOUS
 62
     1
 10
153.067055723
 20
711.266668082
 11
153.067055723
 21
706.913766082
  0
ARC
  8
0
  6
CONTINUOUS
 62
     1
 10
158.570937247
 20
711.266668082
 40
5.503881523
 50
148.419912243
 51
211.580087757
  0
ARC
  8
0
  6
CONTINUOUS
 62
     1
 10
154.74814873
 20
715.590158582
 40
1.681350271
 50
177.010501597
 51
238.997686085
  0
LINE
  8
0
  6
CONTINUOUS
 62
     1
 10
153.067055723
 20
706.913766082
 11
153.88213112
 21
705.502014082
  0
ARC
  8
0
  6
CONTINUOUS
 62
     1
 10
154.74814873
 20
706.943177582
 40
1.681350271
 50
121.002313915
 51
182.989498403
  0
LINE
  8
0
  6
CONTINUOUS
 62
     1
 10
157.066665723
 20
714.148995082
 11
153.88213112
 21
714.148995082
  0
LINE
  8
0
  6
CONTINUOUS
 62
     1
 10
157.066665723
 20
717.031322082
 11
153.88213112
 21
717.031322082
  0
LINE
  8
0
  6
CONTINUOUS
 62
     1
 10
157.066665723
 20
708.384341082
 11
153.88213112
 21
708.384341082
  0
LINE
  8
0
  6
CONTINUOUS
 62
     1
 10
157.066665723
 20
705.502014082
 11
153.88213112
 21
705.502014082
  0
LINE
  8
0
  6
LTYPE3
 62
     2
 10
150.966665723
 20
711.266668082
 11
178.324030431
 21
711.266668082
  0
LINE
  8
0
  6
CONTINUOUS
 62
     1
 10
157.066665723
 20
922.266668082
 11
157.066665723
 21
916.502014082
  0
LINE
  8
0
  6
CONTINUOUS
 62
     1
 10
157.066665723
 20
922.266668082
 11
157.066665723
 21
928.031322082
  0
LINE
  8
0
  6
CONTINUOUS
 62
     1
 10
153.067055723
 20
917.913766082
 11
153.88213112
 21
916.502014082
  0
LINE
  8
0
  6
CONTINUOUS
 62
     1
 10
153.067055723
 20
922.266668082
 11
153.067055723
 21
917.913766082
  0
LINE
  8
0
  6
CONTINUOUS
 62
     1
 10
153.067055723
 20
926.619570082
 11
153.88213112
 21
928.031322082
  0
LINE
  8
0
  6
CONTINUOUS
 62
     1
 10
153.067055723
 20
922.266668082
 11
153.067055723
 21
926.619570082
  0
ARC
  8
0
  6
CONTINUOUS
 62
     1
 10
158.570937247
 20
922.266668082
 40
5.503881523
 50
148.419912243
 51
211.580087757
  0
ARC
  8
0
  6
CONTINUOUS
 62
     1
 10
154.74814873
 20
917.943177582
 40
1.681350271
 50
121.002313915
 51
182.989498403
  0
LINE
  8
0
  6
CONTINUOUS
 62
     1
 10
153.067055723
 20
926.619570082
 11
153.88213112
 21
928.031322082
  0
ARC
  8
0
  6
CONTINUOUS
 62
     1
 10
154.74814873
 20
926.590158582
 40
1.681350271
 50
177.010501597
 51
238.997686085
  0
LINE
  8
0
  6
CONTINUOUS
 62
     1
 10
157.066665723
 20
919.384341082
 11
153.88213112
 21
919.384341082
  0
LINE
  8
0
  6
CONTINUOUS
 62
     1
 10
157.066665723
 20
916.502014082
 11
153.88213112
 21
916.502014082
  0
LINE
  8
0
  6
CONTINUOUS
 62
     1
 10
157.066665723
 20
925.148995082
 11
153.88213112
 21
925.148995082
  0
LINE
  8
0
  6
CONTINUOUS
 62
     1
 10
157.066665723
 20
928.031322082
 11
153.88213112
 21
928.031322082
  0
LINE
  8
0
  6
LTYPE3
 62
     2
 10
150.966665723
 20
922.266668082
 11
178.324030431
 21
922.266668082
  0
LINE
  8
0
  6
CONTINUOUS
 62
     1
 10
157.066665723
 20
990.266668082
 11
157.066665723
 21
996.031322082
  0
LINE
  8
0
  6
CONTINUOUS
 62
     1
 10
157.066665723
 20
990.266668082
 11
157.066665723
 21
984.502014082
  0
LINE
  8
0
  6
CONTINUOUS
 62
     1
 10
153.067055723
 20
994.619570082
 11
153.88213112
 21
996.031322082
  0
LINE
  8
0
  6
CONTINUOUS
 62
     1
 10
153.067055723
 20
990.266668082
 11
153.067055723
 21
994.619570082
  0
LINE
  8
0
  6
CONTINUOUS
 62
     1
 10
153.067055723
 20
985.913766082
 11
153.88213112
 21
984.502014082
  0
LINE
  8
0
  6
CONTINUOUS
 62
     1
 10
153.067055723
 20
990.266668082
 11
153.067055723
 21
985.913766082
  0
ARC
  8
0
  6
CONTINUOUS
 62
     1
 10
158.570937247
 20
990.266668082
 40
5.503881523
 50
148.419912243
 51
211.580087757
  0
ARC
  8
0
  6
CONTINUOUS
 62
     1
 10
154.74814873
 20
994.590158582
 40
1.681350271
 50
177.010501597
 51
238.997686085
  0
LINE
  8
0
  6
CONTINUOUS
 62
     1
 10
153.067055723
 20
985.913766082
 11
153.88213112
 21
984.502014082
  0
ARC
  8
0
  6
CONTINUOUS
 62
     1
 10
154.74814873
 20
985.943177582
 40
1.681350271
 50
121.002313915
 51
182.989498403
  0
LINE
  8
0
  6
CONTINUOUS
 62
     1
 10
157.066665723
 20
993.148995082
 11
153.88213112
 21
993.148995082
  0
LINE
  8
0
  6
CONTINUOUS
 62
     1
 10
157.066665723
 20
996.031322082
 11
153.88213112
 21
996.031322082
  0
LINE
  8
0
  6
CONTINUOUS
 62
     1
 10
157.066665723
 20
987.384341082
 11
153.88213112
 21
987.384341082
  0
LINE
  8
0
  6
CONTINUOUS
 62
     1
 10
157.066665723
 20
984.502014082
 11
153.88213112
 21
984.502014082
  0
LINE
  8
0
  6
LTYPE3
 62
     2
 10
150.966665723
 20
990.266668082
 11
178.324030431
 21
990.266668082
  0
LINE
  8
0
  6
CONTINUOUS
 62
     2
 10
204.566665723
 20
792.266668082
 11
204.566665723
 21
832.766668082
  0
LINE
  8
0
  6
CONTINUOUS
 62
     2
 10
204.566665723
 20
826.766668082
 11
194.90740746
 21
829.354858533
  0
LINE
  8
0
  6
CONTINUOUS
 62
     2
 10
204.566665723
 20
826.766668082
 11
194.90740746
 21
824.178477631
  0
LINE
  8
0
  6
CONTINUOUS
 62
     2
 10
189.566665723
 20
826.766668082
 11
291.766665723
 21
826.766668082
  0
LINE
  8
0
  6
CONTINUOUS
 62
     2
 10
219.566665723
 20
826.766668082
 11
229.225923986
 21
824.178477631
  0
LINE
  8
0
  6
CONTINUOUS
 62
     2
 10
219.566665723
 20
826.766668082
 11
229.225923986
 21
829.354858533
  0
LINE
  8
0
  6
CONTINUOUS
 62
     2
 10
219.566665723
 20
792.266668082
 11
219.566665723
 21
832.766668082
  0
TEXT
  8
0
  6
CONTINUOUS
 62
     2
 10
234.566665723
 20
830.766668082
 30
0.8
 40
12.0
  1
φ１５ｈ７
 50
0.0
 41
0.9
 51
0.0
  7
KANJI18
  0
TEXT
  8
0
  6
CONTINUOUS
 62
     2
 10
317.066665723
 20
314.166668082
 30
0.8
 40
12.0
  1
ＳＣＤ１－　２
 50
0.0
 41
0.833333333
 51
0.0
  7
KANJI19
  0
TEXT
  8
0
  6
CONTINUOUS
 62
     2
 10
317.066665723
 20
286.166668082
 30
0.8
 40
12.0
  1
ＳＣＤ１－　３
 50
0.0
 41
0.833333333
 51
0.0
  7
KANJI19
  0
TEXT
  8
0
  6
CONTINUOUS
 62
     2
 10
317.066665723
 20
258.166668082
 30
0.8
 40
12.0
  1
ＳＣＤ１－　４
 50
0.0
 41
0.833333333
 51
0.0
  7
KANJI19
  0
TEXT
  8
0
  6
CONTINUOUS
 62
     2
 10
317.066665723
 20
230.166668082
 30
0.8
 40
12.0
  1
ＳＣＤ１－　５
 50
0.0
 41
0.833333333
 51
0.0
  7
KANJI19
  0
TEXT
  8
0
  6
CONTINUOUS
 62
     2
 10
317.066665723
 20
202.166668082
 30
0.8
 40
12.0
  1
ＳＣＤ１－　７
 50
0.0
 41
0.833333333
 51
0.0
  7
KANJI19
  0
TEXT
  8
0
  6
CONTINUOUS
 62
     2
 10
317.066665723
 20
174.166668082
 30
0.8
 40
12.0
  1
ＳＣＤ１－１０
 50
0.0
 41
0.833333333
 51
0.0
  7
KANJI19
  0
TEXT
  8
0
  6
CONTINUOUS
 62
     2
 10
694.766665723
 20
204.366668082
 30
1.2
 40
12.0
  1
１００８
 50
0.0
 41
0.9
 51
0.0
  7
KANJI0
  0
TEXT
  8
0
  6
CONTINUOUS
 62
     2
 10
694.766665723
 20
176.366668082
 30
1.2
 40
12.0
  1
１３０８
 50
0.0
 41
0.9
 51
0.0
  7
KANJI0
  0
TEXT
  8
0
  6
CONTINUOUS
 62
     2
 10
455.966665723
 20
174.466668082
 30
1.2
 40
12.0
  1
１０００
 50
0.0
 41
0.9
 51
0.0
  7
KANJI0
  0
TEXT
  8
0
  6
CONTINUOUS
 62
     2
 10
793.966665723
 20
260.266668082
 30
1.2
 40
12.0
  1
５０
 50
0.0
 41
0.9
 51
0.0
  7
KANJI0
  0
TEXT
  8
0
  6
CONTINUOUS
 62
     2
 10
782.366665723
 20
232.466668082
 30
1.2
 40
12.0
  1
　５０
 50
0.0
 41
0.9
 51
0.0
  7
KANJI0
  0
TEXT
  8
0
  6
CONTINUOUS
 62
     2
 10
781.866665723
 20
204.366668082
 30
1.2
 40
12.0
  1
　５０
 50
0.0
 41
0.9
 51
0.0
  7
KANJI0
  0
TEXT
  8
0
  6
CONTINUOUS
 62
     2
 10
781.866665723
 20
176.366668082
 30
1.2
 40
12.0
  1
　５０
 50
0.0
 41
0.9
 51
0.0
  7
KANJI0
  0
TEXT
  8
0
  6
CONTINUOUS
 62
     2
 10
627.066665723
 20
259.566668082
 30
1.2
 40
12.0
  1
７７０
 50
0.0
 41
0.9
 51
0.0
  7
KANJI0
  0
TEXT
  8
0
  6
CONTINUOUS
 62
     2
 10
627.066665723
 20
231.566668082
 30
1.2
 40
12.0
  1
８７０
 50
0.0
 41
0.9
 51
0.0
  7
KANJI0
  0
TEXT
  8
0
  6
CONTINUOUS
 62
     2
 10
614.966665723
 20
203.666668082
 30
1.2
 40
12.0
  1
１１０８
 50
0.0
 41
0.9
 51
0.0
  7
KANJI0
  0
TEXT
  8
0
  6
CONTINUOUS
 62
     2
 10
614.966665723
 20
175.666668082
 30
1.2
 40
12.0
  1
１４０８
 50
0.0
 41
0.9
 51
0.0
  7
KANJI0
  0
TEXT
  8
0
  6
CONTINUOUS
 62
     2
 10
534.966665723
 20
258.766668082
 30
1.2
 40
12.0
  1
　８２５
 50
0.0
 41
0.9
 51
0.0
  7
KANJI0
  0
TEXT
  8
0
  6
CONTINUOUS
 62
     2
 10
546.666665723
 20
230.766668082
 30
1.2
 40
12.0
  1
９２５
 50
0.0
 41
0.9
 51
0.0
  7
KANJI0
  0
TEXT
  8
0
  6
CONTINUOUS
 62
     2
 10
534.566665723
 20
202.866668082
 30
1.2
 40
12.0
  1
１１６３
 50
0.0
 41
0.9
 51
0.0
  7
KANJI0
  0
CIRCLE
  8
0
  6
CONTINUOUS
 62
     1
 10
1138.066665723
 20
677.266668082
 40
46.0
  0
LINE
  8
0
  6
CONTINUOUS
 62
     1
 10
732.066665723
 20
642.266668082
 11
732.066665723
 21
712.266668082
  0
LINE
  8
0
  6
CONTINUOUS
 62
     1
 10
782.066665723
 20
642.266668082
 11
782.066665723
 21
712.266668082
  0
LINE
  8
7
  6
CONTINUOUS
 62
     2
 10
813.066665723
 20
652.266668082
 11
810.478475272
 21
642.607409819
  0
LINE
  8
7
  6
CONTINUOUS
 62
     2
 10
813.066665723
 20
652.266668082
 11
815.654856174
 21
642.607409819
  0
LINE
  8
7
  6
CONTINUOUS
 62
     2
 10
813.066665723
 20
637.266668082
 11
813.066665723
 21
751.266668082
  0
LINE
  8
7
  6
CONTINUOUS
 62
     2
 10
813.066665723
 20
702.266668082
 11
815.654856174
 21
711.925926345
  0
LINE
  8
7
  6
CONTINUOUS
 62
     2
 10
813.066665723
 20
702.266668082
 11
810.478475272
 21
711.925926345
  0
TEXT
  8
7
  6
CONTINUOUS
 62
     2
 10
809.066665723
 20
717.266668082
 30
0.8
 40
12.0
  1
φ５０
 50
90.0
 41
0.9
 51
0.0
  7
KANJI18
  0
TEXT
  8
0
  6
CONTINUOUS
 62
     2
 10
1154.166665723
 20
811.466668082
 30
1.2
 40
12.0
  1
５３
 50
0.0
 41
0.9
 51
0.0
  7
KANJI8
  0
TEXT
  8
0
  6
CONTINUOUS
 62
     2
 10
534.566665723
 20
174.866668082
 30
1.2
 40
12.0
  1
１４６３
 50
0.0
 41
0.9
 51
0.0
  7
KANJI0
  0
LINE
  8
0
  6
CONTINUOUS
 62
     2
 10
1147.266665723
 20
985.416668082
 11
1147.266665723
 21
965.216668082
  0
LINE
  8
0
  6
CONTINUOUS
 62
     2
 10
1177.666665723
 20
994.616668082
 11
1168.00740746
 21
997.204858533
  0
LINE
  8
0
  6
CONTINUOUS
 62
     2
 10
1177.666665723
 20
994.616668082
 11
1168.00740746
 21
992.028477631
  0
LINE
  8
0
  6
CONTINUOUS
 62
     2
 10
987.266665723
 20
975.216668082
 11
996.925923986
 21
972.628477631
  0
LINE
  8
0
  6
CONTINUOUS
 62
     2
 10
987.266665723
 20
975.216668082
 11
996.925923986
 21
977.804858533
  0
LINE
  8
0
  6
CONTINUOUS
 62
     2
 10
1147.266665723
 20
975.216668082
 11
1137.60740746
 21
977.804858533
  0
LINE
  8
0
  6
CONTINUOUS
 62
     2
 10
1147.266665723
 20
975.216668082
 11
1137.60740746
 21
972.628477631
  0
LINE
  8
0
  6
CONTINUOUS
 62
     2
 10
987.266665723
 20
975.216668082
 11
977.60740746
 21
977.804858533
  0
LINE
  8
0
  6
CONTINUOUS
 62
     2
 10
987.266665723
 20
975.216668082
 11
977.60740746
 21
972.628477631
  0
LINE
  8
0
  6
CONTINUOUS
 62
     2
 10
1147.266665723
 20
975.216668082
 11
1156.925923986
 21
972.628477631
  0
LINE
  8
0
  6
CONTINUOUS
 62
     2
 10
1147.266665723
 20
975.216668082
 11
1156.925923986
 21
977.804858533
  0
LINE
  8
0
  6
CONTINUOUS
 62
     2
 10
1177.666665723
 20
975.216668082
 11
1168.00740746
 21
977.804858533
  0
LINE
  8
0
  6
CONTINUOUS
 62
     2
 10
1177.666665723
 20
975.216668082
 11
1168.00740746
 21
972.628477631
  0
LINE
  8
0
  6
CONTINUOUS
 62
     2
 10
972.666665723
 20
973.016668082
 11
979.706015032
 21
965.914023412
  0
LINE
  8
0
  6
CONTINUOUS
 62
     2
 10
972.666665723
 20
973.016668082
 11
982.314243386
 21
970.385272018
  0
LINE
  8
0
  6
CONTINUOUS
 62
     2
 10
972.666665723
 20
973.016668082
 11
1044.666665723
 21
931.016668082
  0
LINE
  8
0
  6
CONTINUOUS
 62
     2
 10
1163.466665723
 20
975.616668082
 11
1153.514003918
 21
974.644802357
  0
LINE
  8
0
  6
CONTINUOUS
 62
     2
 10
1163.466665723
 20
975.616668082
 11
1155.333340627
 21
969.798676772
  0
LINE
  8
0
  6
CONTINUOUS
 62
     2
 10
1163.466665723
 20
975.616668082
 11
1044.666665723
 21
931.016668082
  0
LINE
  8
0
  6
CONTINUOUS
 62
     2
 10
1226.466665723
 20
931.016668082
 11
1044.666665723
 21
931.016668082
  0
TEXT
  8
0
  6
CONTINUOUS
 62
     2
 10
1095.066665723
 20
935.016668082
 30
0.0
 40
12.0
  1
惰行距離＋ストローク余裕
 50
0.0
 41
0.9
 51
0.0
  7
KANJI1
  0
LINE
  8
0
  6
CONTINUOUS
 62
     2
 10
953.866665723
 20
1006.616668082
 11
953.866665723
 21
963.616668082
  0
LINE
  8
0
  6
CONTINUOUS
 62
     2
 10
953.866665723
 20
994.616668082
 11
963.525923986
 21
992.028477631
  0
LINE
  8
0
  6
CONTINUOUS
 62
     2
 10
953.866665723
 20
994.616668082
 11
963.525923986
 21
997.204858533
  0
LINE
  8
0
  6
CONTINUOUS
 62
     2
 10
953.866665723
 20
975.216668082
 11
963.525923986
 21
972.628477631
  0
LINE
  8
0
  6
CONTINUOUS
 62
     2
 10
953.866665723
 20
975.216668082
 11
963.525923986
 21
977.804858533
  0
LINE
  8
0
  6
CONTINUOUS
 62
     2
 10
953.866665723
 20
994.616668082
 11
1177.666665723
 21
994.616668082
  0
LINE
  8
0
  6
CONTINUOUS
 62
     2
 10
953.866665723
 20
975.216668082
 11
944.20740746
 21
972.628477631
  0
LINE
  8
0
  6
CONTINUOUS
 62
     2
 10
953.866665723
 20
975.216668082
 11
944.20740746
 21
977.804858533
  0
LINE
  8
0
  6
CONTINUOUS
 62
     2
 10
987.266665723
 20
985.816668082
 11
987.266665723
 21
941.766668082
  0
LINE
  8
0
  6
CONTINUOUS
 62
     2
 10
987.266665723
 20
946.166668082
 11
859.466665723
 21
946.166668082
  0
LINE
  8
0
  6
CONTINUOUS
 62
     2
 10
987.266665723
 20
946.166668082
 11
977.60740746
 21
943.578477631
  0
LINE
  8
0
  6
CONTINUOUS
 62
     2
 10
987.266665723
 20
946.166668082
 11
977.60740746
 21
948.754858533
  0
LINE
  8
0
  6
CONTINUOUS
 62
     2
 10
1177.666665723
 20
1021.566668082
 11
1177.666665723
 21
967.616668082
  0
TEXT
  8
0
  6
CONTINUOUS
 62
     2
 10
887.666665723
 20
950.566668082
 30
1.2
 40
12.0
  1
取付ｍｉｎ．寸法
 50
0.0
 41
0.9
 51
0.0
  7
KANJI20
  0
LINE
  8
0
  6
CONTINUOUS
 62
     2
 10
824.066665723
 20
975.216668082
 11
1177.866665723
 21
975.216668082
  0
LINE
  8
0
  6
CONTINUOUS
 62
     2
 10
1177.504165723
 20
1015.416668082
 11
1167.84490746
 21
1018.004858533
  0
LINE
  8
0
  6
CONTINUOUS
 62
     2
 10
1177.504165723
 20
1015.416668082
 11
1167.84490746
 21
1012.828477631
  0
LINE
  8
0
  6
CONTINUOUS
 62
     2
 10
1177.666665723
 20
1015.366668082
 11
950.266665723
 21
1015.366668082
  0
TEXT
  8
0
  6
CONTINUOUS
 62
     2
 10
889.066665723
 20
926.766668082
 30
1.2
 40
12.0
  1
（　　　　　）
 50
0.0
 41
0.9
 51
0.0
  7
KANJI20
  0
TEXT
  8
0
  6
CONTINUOUS
 62
     2
 10
827.866665723
 20
980.366668082
 30
1.2
 40
12.0
  1
ｍｉｎ．Ｌ（　　　　）
 50
0.0
 41
0.9
 51
0.0
  7
KANJI20
  0
TEXT
  8
0
  6
CONTINUOUS
 62
     2
 10
993.066665723
 20
1019.566668082
 30
1.2
 40
12.0
  1
ｍａｘ．Ｌ（　　　　）
 50
0.0
 41
0.9
 51
0.0
  7
KANJI20
  0
TEXT
  8
0
  6
CONTINUOUS
 62
     2
 10
994.266665723
 20
1000.616668082
 30
1.2
 40
12.0
  1
機械的ストローク（　　　　）
 50
0.0
 41
0.9
 51
0.0
  7
KANJI20
  0
TEXT
  8
0
  6
CONTINUOUS
 62
     2
 10
1014.466665723
 20
978.816668082
 30
1.2
 40
12.0
  1
使用ストローク（　　　　）
 50
0.0
 41
0.9
 51
0.0
  7
KANJI20
  0
TEXT
  8
0
  6
CONTINUOUS
 62
     4
 10
74.933334646
 20
57.933333641
 30
0.799999832
 40
7.999998318
  1
ＰＡＲＴＳ　ＬＩＳＴ
 50
0.0
 41
0.6
 51
0.0
  7
KANJI21
  0
TEXT
  8
0
  6
CONTINUOUS
 62
     4
 10
254.9332968
 20
57.933333641
 30
0.799999832
 40
7.999998318
  1
Ｎ０．
 50
0.0
 41
0.6
 51
0.0
  7
KANJI21
  0
TEXT
  8
0
  6
CONTINUOUS
 62
     4
 10
74.933334646
 20
45.933336164
 30
0.959999798
 40
9.599997982
  1
部品表
 50
0.0
 41
0.9
 51
0.0
  7
KANJI22
  0
TEXT
  8
0
  6
CONTINUOUS
 62
     4
 10
254.9332968
 20
45.933336164
 30
0.959999798
 40
9.599997982
  1
項番
 50
0.0
 41
0.9
 51
0.0
  7
KANJI22
  0
LINE
  8
0
  6
CONTINUOUS
 62
     6
 10
62.933337169
 20
37.933337846
 11
62.933337169
 21
1113.933337846
  0
LINE
  8
0
  6
CONTINUOUS
 62
     6
 10
62.933337169
 20
1113.933337846
 11
1610.933337169
 21
1113.933337846
  0
LINE
  8
0
  6
CONTINUOUS
 62
     6
 10
1610.933337169
 20
37.933337846
 11
62.933337169
 21
37.933337846
  0
LINE
  8
0
  6
CONTINUOUS
 62
     6
 10
326.933281662
 20
41.933337005
 11
326.933281662
 21
97.933325231
  0
LINE
  8
0
  6
CONTINUOUS
 62
     6
 10
66.933336328
 20
97.933325231
 11
326.933281662
 21
97.933325231
  0
LINE
  8
0
  6
CONTINUOUS
 62
     6
 10
66.933336328
 20
41.933337005
 11
326.933281662
 21
41.933337005
  0
LINE
  8
0
  6
CONTINUOUS
 62
     6
 10
66.933336328
 20
41.933337005
 11
66.933336328
 21
97.933325231
  0
LINE
  8
0
  6
CONTINUOUS
 62
     6
 10
246.933298482
 20
41.933337005
 11
246.933298482
 21
97.933325231
  0
LINE
  8
0
  6
CONTINUOUS
 62
     6
 10
66.933336328
 20
69.933331118
 11
326.933281662
 21
69.933331118
  0
TEXT
  8
0
  6
CONTINUOUS
 62
     3
 10
74.933334646
 20
77.933329436
 30
1.199999748
 40
11.999997477
  1
ＰＬ
 50
0.0
 41
0.9
 51
0.0
  7
KANJI23
  0
LINE
  8
0
  6
CONTINUOUS
 62
     4
 10
17.400003569
 20
40.900004246
 11
59.000000369
 21
40.900004246
  0
LINE
  8
0
  6
CONTINUOUS
 62
     4
 10
17.400003569
 20
61.700002646
 11
59.000000369
 21
61.700002646
  0
LINE
  8
0
  6
CONTINUOUS
 62
     4
 10
17.400003569
 20
82.500001046
 11
59.000000369
 21
82.500001046
  0
LINE
  8
0
  6
CONTINUOUS
 62
     4
 10
17.400003569
 20
103.299999446
 11
59.000000369
 21
103.299999446
  0
LINE
  8
0
  6
CONTINUOUS
 62
     4
 10
17.400003569
 20
124.099997846
 11
59.000000369
 21
124.099997846
  0
LINE
  8
0
  6
CONTINUOUS
 62
     4
 10
17.400003569
 20
144.899996246
 11
59.000000369
 21
144.899996246
  0
LINE
  8
0
  6
CONTINUOUS
 62
     4
 10
17.400003569
 20
165.699994646
 11
59.000000369
 21
165.699994646
  0
LINE
  8
0
  6
CONTINUOUS
 62
     4
 10
17.400003569
 20
186.499993046
 11
59.000000369
 21
186.499993046
  0
LINE
  8
0
  6
CONTINUOUS
 62
     4
 10
17.400003569
 20
207.299991446
 11
59.000000369
 21
207.299991446
  0
LINE
  8
0
  6
CONTINUOUS
 62
     4
 10
17.400003569
 20
228.099989846
 11
59.000000369
 21
228.099989846
  0
LINE
  8
0
  6
CONTINUOUS
 62
     4
 10
59.000000369
 20
40.900004246
 11
59.000000369
 21
228.099989846
  0
LINE
  8
0
  6
CONTINUOUS
 62
     4
 10
38.200001969
 20
40.900004246
 11
38.200001969
 21
207.299991446
  0
TEXT
  8
0
  6
CONTINUOUS
 62
     4
 10
24.506669689
 20
46.966670446
 30
1.03999992
 40
10.3999992
  1
計
 50
0.0
 41
0.75
 51
0.0
  7
KANJI24
  0
TEXT
  8
0
  6
CONTINUOUS
 62
     4
 10
24.506669689
 20
88.913333886
 30
1.03999992
 40
10.3999992
  1
設
 50
0.0
 41
0.75
 51
0.0
  7
KANJI24
  0
TEXT
  8
0
  6
CONTINUOUS
 62
     4
 10
24.506669689
 20
109.366665646
 30
1.03999992
 40
10.3999992
  1
管
 50
0.0
 41
0.75
 51
0.0
  7
KANJI24
  0
TEXT
  8
0
  6
CONTINUOUS
 62
     4
 10
24.506669689
 20
130.166664046
 30
1.03999992
 40
10.3999992
  1
製
 50
0.0
 41
0.75
 51
0.0
  7
KANJI24
  0
TEXT
  8
0
  6
CONTINUOUS
 62
     4
 10
24.506669689
 20
150.966662446
 30
1.03999992
 40
10.3999992
  1
資
 50
0.0
 41
0.75
 51
0.0
  7
KANJI24
  0
TEXT
  8
0
  6
CONTINUOUS
 62
     4
 10
24.506669689
 20
171.766660846
 30
1.03999992
 40
10.3999992
  1
営
 50
0.0
 41
0.75
 51
0.0
  7
KANJI24
  0
TEXT
  8
0
  6
CONTINUOUS
 62
     4
 10
24.506669689
 20
192.566659246
 30
1.03999992
 40
10.3999992
  1
客
 50
0.0
 41
0.75
 51
0.0
  7
KANJI24
  0
TEXT
  8
0
  6
CONTINUOUS
 62
     4
 10
24.333336369
 20
214.233324246
 30
1.03999992
 40
10.3999992
  1
出　図
 50
0.0
 41
0.75
 51
0.0
  7
KANJI24
  0
LINE
  8
0
  6
CONTINUOUS
 62
     4
 10
17.400003569
 20
40.900004246
 11
17.400003569
 21
228.099989846
  0
TEXT
  8
0
  6
CONTINUOUS
 62
     4
 10
1080.533377969
 20
112.466665446
 30
0.69333328
 40
6.9333328
  1
ＤＲＡＷＮ
 50
0.0
 41
0.6
 51
0.0
  7
KANJI25
  0
TEXT
  8
0
  6
CONTINUOUS
 62
     4
 10
1080.533377969
 20
140.199996646
 30
0.69333328
 40
6.9333328
  1
ＤＥＳＩＧＮ
 50
0.0
 41
0.6
 51
0.0
  7
KANJI25
  0
TEXT
  8
0
  6
CONTINUOUS
 62
     4
 10
1080.533377969
 20
167.933327846
 30
0.69333328
 40
6.9333328
  1
ＣＨＥＣＫ
 50
0.0
 41
0.6
 51
0.0
  7
KANJI25
  0
TEXT
  8
0
  6
CONTINUOUS
 62
     4
 10
1080.533377969
 20
195.666659046
 30
0.69333328
 40
6.9333328
  1
ＣＯＤＥ
 50
0.0
 41
0.6
 51
0.0
  7
KANJI25
  0
LINE
  8
0
  6
CONTINUOUS
 62
     4
 10
1073.600045169
 20
152.333329046
 11
1200.133368769
 21
152.333329046
  0
LINE
  8
0
  6
CONTINUOUS
 62
     4
 10
1073.600045169
 20
124.599997846
 11
1200.133368769
 21
124.599997846
  0
LINE
  8
0
  6
CONTINUOUS
 62
     4
 10
1073.600045169
 20
180.066660246
 11
1200.133368769
 21
180.066660246
  0
LINE
  8
0
  6
CONTINUOUS
 62
     4
 10
1073.600045169
 20
207.799991446
 11
1607.466670769
 21
207.799991446
  0
TEXT
  8
0
  6
CONTINUOUS
 62
     4
 10
1080.533377969
 20
129.799997446
 30
0.831999936
 40
8.31999936
  1
設計
 50
0.0
 41
0.6
 51
0.0
  7
KANJI26
  0
TEXT
  8
0
  6
CONTINUOUS
 62
     4
 10
1080.533377969
 20
157.533328646
 30
0.831999936
 40
8.31999936
  1
検図
 50
0.0
 41
0.6
 51
0.0
  7
KANJI26
  0
TEXT
  8
0
  6
CONTINUOUS
 62
     4
 10
1080.533377969
 20
185.266659846
 30
0.831999936
 40
8.31999936
  1
分類
 50
0.0
 41
0.6
 51
0.0
  7
KANJI26
  0
LINE
  8
0
  6
CONTINUOUS
 62
     4
 10
1210.360034649
 20
180.066660246
 11
1607.466670769
 21
180.066660246
  0
LINE
  8
0
  6
CONTINUOUS
 62
     4
 10
1200.133368769
 20
124.599997846
 11
1607.466670769
 21
124.599997846
  0
TEXT
  8
0
  6
CONTINUOUS
 62
     4
 10
1207.066701569
 20
112.466665446
 30
0.69333328
 40
6.9333328
  1
ＤＲＡＷＩＮＧ　ＮＯ．
 50
0.0
 41
0.8
 51
0.0
  7
KANJI27
  0
TEXT
  8
0
  6
CONTINUOUS
 62
     4
 10
1207.066701569
 20
140.199996646
 30
0.69333328
 40
6.9333328
  1
ＭＦＧ　ＮＯ．
 50
0.0
 41
0.8
 51
0.0
  7
KANJI27
  0
TEXT
  8
0
  6
CONTINUOUS
 62
     4
 10
1207.066701569
 20
167.933327846
 30
0.69333328
 40
6.9333328
  1
ＴＹＰＥ
 50
0.0
 41
0.8
 51
0.0
  7
KANJI27
  0
LINE
  8
0
  6
CONTINUOUS
 62
     4
 10
1210.533367969
 20
152.333329046
 11
1370.000022369
 21
152.333329046
  0
TEXT
  8
0
  6
CONTINUOUS
 62
     4
 10
1207.066701569
 20
100.333333046
 30
0.831999936
 40
8.31999936
  1
図　面　番　号
 50
0.0
 41
0.8
 51
0.0
  7
KANJI28
  0
TEXT
  8
0
  6
CONTINUOUS
 62
     4
 10
1207.066701569
 20
128.066664246
 30
0.831999936
 40
8.31999936
  1
製番
 50
0.0
 41
0.8
 51
0.0
  7
KANJI28
  0
TEXT
  8
0
  6
CONTINUOUS
 62
     4
 10
1207.066701569
 20
155.799995446
 30
0.831999936
 40
8.31999936
  1
機種
 50
0.0
 41
0.8
 51
0.0
  7
KANJI28
  0
LINE
  8
0
  6
CONTINUOUS
 62
     4
 10
1073.600045169
 20
69.133335446
 11
1200.133368769
 21
69.133335446
  0
LINE
  8
0
  6
CONTINUOUS
 62
     4
 10
1073.600045169
 20
96.866666646
 11
1200.133368769
 21
96.866666646
  0
TEXT
  8
0
  6
CONTINUOUS
 62
     4
 10
1080.533377969
 20
57.000003046
 30
0.69333328
 40
6.9333328
  1
ＳＣＡＬＥ
 50
0.0
 41
0.6
 51
0.0
  7
KANJI25
  0
TEXT
  8
0
  6
CONTINUOUS
 62
     4
 10
1080.533377969
 20
84.733334246
 30
0.69333328
 40
6.9333328
  1
ＤＡＴＥ
 50
0.0
 41
0.6
 51
0.0
  7
KANJI25
  0
TEXT
  8
0
  6
CONTINUOUS
 62
     4
 10
1080.533377969
 20
46.600003846
 30
0.831999936
 40
8.31999936
  1
尺度
 50
0.0
 41
0.6
 51
0.0
  7
KANJI26
  0
TEXT
  8
0
  6
CONTINUOUS
 62
     4
 10
1080.533377969
 20
74.333335046
 30
0.831999936
 40
8.31999936
  1
日付
 50
0.0
 41
0.6
 51
0.0
  7
KANJI26
  0
TEXT
  8
0
  6
CONTINUOUS
 62
     4
 10
1080.533377969
 20
102.066666246
 30
0.831999936
 40
8.31999936
  1
作図
 50
0.0
 41
0.6
 51
0.0
  7
KANJI26
  0
LINE
  8
0
  6
CONTINUOUS
 62
     4
 10
877.733393569
 20
41.400004246
 11
877.733393569
 21
69.133335446
  0
LINE
  8
0
  6
CONTINUOUS
 62
     4
 10
908.933391169
 20
41.400004246
 11
908.933391169
 21
69.133335446
  0
TEXT
  8
0
  6
CONTINUOUS
 62
     4
 10
888.133392769
 20
57.000003046
 30
0.69333328
 40
6.9333328
  1
ＢＹ
 50
0.0
 41
0.6
 51
0.0
  7
KANJI25
  0
TEXT
  8
0
  6
CONTINUOUS
 62
     4
 10
964.400053569
 20
57.000003046
 30
0.69333328
 40
6.9333328
  1
ＤＥＳＣＲＩＰＴＩＯＮ
 50
0.0
 41
0.6
 51
0.0
  7
KANJI25
  0
TEXT
  8
0
  6
CONTINUOUS
 62
     4
 10
888.133392769
 20
46.600003846
 30
0.831999936
 40
8.31999936
  1
担当
 50
0.0
 41
0.6
 51
0.0
  7
KANJI26
  0
TEXT
  8
0
  6
CONTINUOUS
 62
     4
 10
974.800052769
 20
46.600003846
 30
0.831999936
 40
8.31999936
  1
記　　　　事
 50
0.0
 41
0.6
 51
0.0
  7
KANJI26
  0
LINE
  8
0
  6
CONTINUOUS
 62
     4
 10
814.466731769
 20
63.933335846
 11
803.200065969
 21
46.600003846
  0
TEXT
  8
0
  6
CONTINUOUS
 62
     4
 10
843.066729569
 20
57.000003046
 30
0.69333328
 40
6.9333328
  1
ＤＡＴＥ
 50
0.0
 41
0.6
 51
0.0
  7
KANJI25
  0
TEXT
  8
0
  6
CONTINUOUS
 62
     4
 10
848.266729169
 20
46.600003846
 30
0.831999936
 40
8.31999936
  1
日付
 50
0.0
 41
0.6
 51
0.0
  7
KANJI26
  0
LINE
  8
0
  6
CONTINUOUS
 62
     4
 10
803.200065969
 20
46.600003846
 11
825.733397569
 21
46.600003846
  0
LINE
  8
0
  6
CONTINUOUS
 62
     4
 10
829.200063969
 20
41.400004246
 11
829.200063969
 21
69.133335446
  0
LINE
  8
0
  6
CONTINUOUS
 62
     4
 10
814.466731769
 20
63.933335846
 11
825.733397569
 21
46.600003846
  0
LINE
  8
0
  6
CONTINUOUS
 62
     4
 10
1200.133368769
 20
84.733334246
 11
1607.466670769
 21
84.733334246
  0
LINE
  8
0
  6
CONTINUOUS
 62
     4
 10
1200.133368769
 20
41.400004246
 11
1200.133368769
 21
207.799991446
  0
LINE
  8
0
  6
LTYPE4
 62
     4
 10
1491.333346369
 20
89.933333846
 11
1491.333346369
 21
117.666665046
  0
LINE
  8
0
  6
LTYPE4
 62
     4
 10
1467.066681569
 20
89.933333846
 11
1467.066681569
 21
117.666665046
  0
LINE
  8
0
  6
LTYPE4
 62
     4
 10
1442.800016769
 20
89.933333846
 11
1442.800016769
 21
117.666665046
  0
LINE
  8
0
  6
LTYPE4
 62
     4
 10
1418.533351969
 20
89.933333846
 11
1418.533351969
 21
117.666665046
  0
LINE
  8
0
  6
LTYPE4
 62
     4
 10
1394.266687169
 20
89.933333846
 11
1394.266687169
 21
117.666665046
  0
LINE
  8
0
  6
LTYPE4
 62
     4
 10
1370.000022369
 20
89.933333846
 11
1370.000022369
 21
117.666665046
  0
LINE
  8
0
  6
LTYPE4
 62
     4
 10
1345.733357569
 20
89.933333846
 11
1345.733357569
 21
117.666665046
  0
LINE
  8
0
  6
LTYPE4
 62
     4
 10
1321.466692769
 20
89.933333846
 11
1321.466692769
 21
117.666665046
  0
LINE
  8
0
  6
LTYPE4
 62
     4
 10
1321.466692769
 20
117.666665046
 11
1491.333346369
 21
117.666665046
  0
LINE
  8
0
  6
LTYPE4
 62
     4
 10
1321.466692769
 20
89.933333846
 11
1491.333346369
 21
89.933333846
  0
LINE
  8
0
  6
CONTINUOUS
 62
     4
 10
1548.533341969
 20
94.266666846
 11
1524.266677169
 21
94.266666846
  0
LINE
  8
0
  6
CONTINUOUS
 62
     4
 10
1524.266677169
 20
94.266666846
 11
1536.400009569
 21
115.066665246
  0
LINE
  8
0
  6
CONTINUOUS
 62
     4
 10
1536.400009569
 20
115.066665246
 11
1548.533341969
 21
94.266666846
  0
TEXT
  8
0
  6
CONTINUOUS
 62
     4
 10
1552.000008369
 20
3.266673846
 30
3.4666664
 40
34.666664
  1
／
 50
0.0
 41
0.9
 51
0.0
  7
KANJI29
  0
TEXT
  8
0
  6
CONTINUOUS
 62
     4
 10
1380.400021569
 20
167.933327846
 30
0.69333328
 40
6.9333328
  1
ＴＩＴＬＥ
 50
0.0
 41
0.8
 51
0.0
  7
KANJI27
  0
TEXT
  8
0
  6
CONTINUOUS
 62
     4
 10
1380.400021569
 20
155.799995446
 30
0.831999936
 40
8.31999936
  1
名称
 50
0.0
 41
0.8
 51
0.0
  7
KANJI28
  0
LINE
  8
0
  6
CONTINUOUS
 62
     6
 10
1610.933337169
 20
1113.933337846
 11
1610.933337169
 21
37.933337846
  0
LINE
  8
0
  6
CONTINUOUS
 62
     6
 10
799.733399569
 20
41.400004246
 11
799.733399569
 21
69.133335446
  0
LINE
  8
0
  6
CONTINUOUS
 62
     6
 10
799.733399569
 20
69.133335446
 11
1073.600045169
 21
69.133335446
  0
LINE
  8
0
  6
CONTINUOUS
 62
     6
 10
799.733399569
 20
41.400004246
 11
1607.466670769
 21
41.400004246
  0
LINE
  8
0
  6
CONTINUOUS
 62
     6
 10
1346.036690879
 20
59.773336166
 11
1334.596691759
 21
59.773336166
  0
LINE
  8
0
  6
CONTINUOUS
 62
     6
 10
1346.036690879
 20
61.853336006
 11
1334.596691759
 21
61.853336006
  0
LINE
  8
0
  6
CONTINUOUS
 62
     6
 10
1346.036690879
 20
59.773336166
 11
1357.476689999
 21
59.773336166
  0
LINE
  8
0
  6
CONTINUOUS
 62
     6
 10
1346.036690879
 20
61.853336006
 11
1357.476689999
 21
61.853336006
  0
LINE
  8
0
  6
CONTINUOUS
 62
     6
 10
1357.476689999
 20
61.853336006
 11
1357.476689999
 21
59.773336166
  0
ARC
  8
0
  6
CONTINUOUS
 62
     6
 10
1360.076689799
 20
60.813336086
 40
10.3999992
 50
185.739170477
 51
90.0
  0
ARC
  8
0
  6
CONTINUOUS
 62
     6
 10
1360.076689799
 20
60.813336086
 40
12.47999904
 50
184.780191847
 51
90.0
  0
LINE
  8
0
  6
CONTINUOUS
 62
     6
 10
1334.596691759
 20
59.773336166
 11
1334.596691759
 21
61.853336006
  0
TEXT
  8
0
  6
CONTINUOUS
 62
     6
 10
1203.600035169
 20
57.000003046
 30
0.0
 40
12.1333324
  1
ＵＮＩＴＥＣ　ＩＮＤＵＳＴＲＹ　ＣＯ．，ＬＴＤ．
 50
0.0
 41
0.42031746
 51
0.0
  7
KANJI30
  0
LINE
  8
0
  6
CONTINUOUS
 62
     6
 10
1344.476690999
 20
73.293335126
 11
1331.996691959
 21
73.293335126
  0
LINE
  8
0
  6
CONTINUOUS
 62
     6
 10
1347.596690759
 20
73.293335126
 11
1360.076689799
 21
73.293335126
  0
ARC
  8
0
  6
CONTINUOUS
 62
     6
 10
1331.996691959
 20
60.813336086
 40
10.3999992
 50
90.0
 51
354.260829523
  0
ARC
  8
0
  6
CONTINUOUS
 62
     6
 10
1331.996691959
 20
60.813336086
 40
12.47999904
 50
90.0
 51
355.219808153
  0
LINE
  8
0
  6
CONTINUOUS
 62
     6
 10
1344.476690999
 20
73.293335126
 11
1344.476690999
 21
71.213335286
  0
LINE
  8
0
  6
CONTINUOUS
 62
     6
 10
1331.996691959
 20
71.213335286
 11
1344.476690999
 21
71.213335286
  0
LINE
  8
0
  6
CONTINUOUS
 62
     6
 10
1347.596690759
 20
73.293335126
 11
1347.596690759
 21
71.213335286
  0
LINE
  8
0
  6
CONTINUOUS
 62
     6
 10
1360.076689799
 20
71.213335286
 11
1347.596690759
 21
71.213335286
  0
TEXT
  8
0
  6
CONTINUOUS
 62
     6
 10
1373.770022079
 20
52.493336726
 30
2.07999984
 40
20.7999984
  1
ユニテック工業株式会社
 50
0.0
 41
0.9
 51
0.0
  7
KANJI31
  0
LINE
  8
0
  6
CONTINUOUS
 62
     4
 10
1505.200011969
 20
104.666666046
 11
1512.133344769
 21
104.666666046
  0
TEXT
  8
0
  6
CONTINUOUS
 62
     2
 10
1442.933337169
 20
129.933337846
 30
10.0
 40
20.0
  1
外形寸法図
 50
0.0
 41
1.0
 51
0.0
  7
KANJI32
  0
TEXT
  8
0
  6
CONTINUOUS
 62
     2
 10
1418.933337169
 20
153.933337846
 30
2.857142857
 40
20.0
  1
マイティシリンダ
 50
0.0
 41
1.0
 51
0.0
  7
KANJI33
  0
LINE
  8
0
  6
CONTINUOUS
 62
     6
 10
1074.100045169
 20
235.533322646
 11
1607.966670769
 21
235.533322646
  0
LINE
  8
0
  6
CONTINUOUS
 62
     6
 10
1607.466670769
 20
41.400004246
 11
1607.466670769
 21
263.266653846
  0
LINE
  8
0
  6
CONTINUOUS
 62
     6
 10
1073.600045169
 20
263.266653846
 11
1607.466670769
 21
263.266653846
  0
LINE
  8
0
  6
CONTINUOUS
 62
     6
 10
1073.600045169
 20
41.400004246
 11
1073.600045169
 21
263.266653846
  0
LINE
  8
0
  6
CONTINUOUS
 62
     6
 10
1200.133368769
 20
207.799991446
 11
1200.133368769
 21
263.266653846
  0
TEXT
  8
0
  6
CONTINUOUS
 62
     6
 10
1101.933337169
 20
239.666669046
 30
4.0
 40
14.4
  1
ご用途
 50
0.0
 41
0.833333333
 51
0.0
  7
KANJI34
  0
TEXT
  8
0
  6
CONTINUOUS
 62
     6
 10
1101.933337169
 20
211.933337846
 30
4.0
 40
14.4
  1
ご注文主
 50
0.0
 41
0.833333333
 51
0.0
  7
KANJI34
  0
LINE
  8
0
  6
CONTINUOUS
 62
     1
 10
1259.986665723
 20
1061.686668082
 11
1609.986665723
 21
1061.686668082
  0
LINE
  8
0
  6
CONTINUOUS
 62
     1
 10
1259.986665723
 20
573.686668082
 11
1609.986665723
 21
573.686668082
  0
LINE
  8
0
  6
CONTINUOUS
 62
     1
 10
1259.986665723
 20
1061.686668082
 11
1259.986665723
 21
573.686668082
  0
TEXT
  8
0
  6
CONTINUOUS
 62
     2
 10
1309.986665723
 20
1032.486668082
 30
11.39976
 40
18.0
  1
マイティシリンダ仕様
 50
0.0
 41
0.9
 51
0.0
  7
KANJI35
  0
LINE
  8
0
  6
CONTINUOUS
 62
     2
 10
1259.986665723
 20
629.686668082
 11
1609.986665723
 21
629.686668082
  0
LINE
  8
0
  6
CONTINUOUS
 62
     2
 10
1259.986665723
 20
853.686668082
 11
1609.986665723
 21
853.686668082
  0
LINE
  8
0
  6
CONTINUOUS
 62
     2
 10
1259.986665723
 20
825.686668082
 11
1609.986665723
 21
825.686668082
  0
LINE
  8
0
  6
CONTINUOUS
 62
     2
 10
1259.986665723
 20
797.686668082
 11
1609.986665723
 21
797.686668082
  0
LINE
  8
0
  6
CONTINUOUS
 62
     2
 10
1259.986665723
 20
993.686668082
 11
1609.986665723
 21
993.686668082
  0
LINE
  8
0
  6
CONTINUOUS
 62
     2
 10
1259.986665723
 20
965.686668082
 11
1609.986665723
 21
965.686668082
  0
LINE
  8
0
  6
CONTINUOUS
 62
     2
 10
1259.986665723
 20
937.686668082
 11
1609.986665723
 21
937.686668082
  0
LINE
  8
0
  6
CONTINUOUS
 62
     2
 10
1259.986665723
 20
909.686668082
 11
1609.986665723
 21
909.686668082
  0
LINE
  8
0
  6
CONTINUOUS
 62
     2
 10
1259.986665723
 20
881.686668082
 11
1609.986665723
 21
881.686668082
  0
LINE
  8
0
  6
CONTINUOUS
 62
     2
 10
1259.986665723
 20
1021.686668082
 11
1609.986665723
 21
1021.686668082
  0
TEXT
  8
0
  6
CONTINUOUS
 62
     2
 10
1289.986665723
 20
1000.886668082
 30
120.297142857
 40
15.2
  1
形式
 50
0.0
 41
0.9
 51
0.0
  7
KANJI36
  0
TEXT
  8
0
  6
CONTINUOUS
 62
     2
 10
1289.986665723
 20
972.886668082
 30
120.297142857
 40
15.2
  1
推力
 50
0.0
 41
0.9
 51
0.0
  7
KANJI36
  0
TEXT
  8
0
  6
CONTINUOUS
 62
     2
 10
1289.986665723
 20
944.886668082
 30
19.814285714
 40
15.2
  1
ストローク
 50
0.0
 41
0.9
 51
0.0
  7
KANJI37
  0
TEXT
  8
0
  6
CONTINUOUS
 62
     2
 10
1289.986665723
 20
916.886668082
 30
30.978902857
 40
15.2
  1
公称速度
 50
0.0
 41
0.9
 51
0.0
  7
KANJI38
  0
TEXT
  8
0
  6
CONTINUOUS
 62
     2
 10
1585.386665723
 20
946.486668082
 30
0.0896
 40
11.2
  1
ｍｍ
 50
0.0
 41
0.8
 51
0.0
  7
KANJI39
  0
TEXT
  8
0
  6
CONTINUOUS
 62
     2
 10
1555.386665723
 20
919.686668082
 30
0.0896
 40
11.2
  1
ｍｍ／ｓｅｃ
 50
0.0
 41
0.8
 51
0.0
  7
KANJI39
  0
LINE
  8
0
  6
CONTINUOUS
 62
     2
 10
1259.986665723
 20
769.686668082
 11
1609.986665723
 21
769.686668082
  0
LINE
  8
0
  6
CONTINUOUS
 62
     2
 10
1259.986665723
 20
741.686668082
 11
1609.986665723
 21
741.686668082
  0
LINE
  8
0
  6
CONTINUOUS
 62
     2
 10
1259.986665723
 20
713.686668082
 11
1609.986665723
 21
713.686668082
  0
LINE
  8
0
  6
CONTINUOUS
 62
     2
 10
1259.986665723
 20
685.686668082
 11
1609.986665723
 21
685.686668082
  0
LINE
  8
0
  6
CONTINUOUS
 62
     2
 10
1259.986665723
 20
657.686668082
 11
1609.986665723
 21
657.686668082
  0
TEXT
  8
0
  6
CONTINUOUS
 62
     2
 10
1277.986665723
 20
776.886668082
 30
1.302857143
 40
15.2
  1
ピストンロッド回転トルク
 50
0.0
 41
0.9
 51
0.0
  7
KANJI40
  0
TEXT
  8
0
  6
CONTINUOUS
 62
     2
 10
1289.986665723
 20
748.886668082
 30
120.297142857
 40
15.2
  1
構造
 50
0.0
 41
0.9
 51
0.0
  7
KANJI36
  0
TEXT
  8
0
  6
CONTINUOUS
 62
     2
 10
1578.986665723
 20
778.886668082
 30
0.0896
 40
11.2
  1
ｋｇｍ
 50
0.0
 41
0.8
 51
0.0
  7
KANJI39
  0
TEXT
  8
0
  6
CONTINUOUS
 62
     2
 10
1289.986665723
 20
888.886668082
 30
53.308571429
 40
15.2
  1
減速比
 50
0.0
 41
0.9
 51
0.0
  7
KANJI41
  0
TEXT
  8
0
  6
CONTINUOUS
 62
     2
 10
1289.986665723
 20
860.886668082
 30
3.4
 40
15.2
  1
進み量／入力１回転
 50
0.0
 41
0.9
 51
0.0
  7
KANJI42
  0
TEXT
  8
0
  6
CONTINUOUS
 62
     2
 10
1289.986665723
 20
832.486668082
 30
120.297142857
 40
15.2
  1
効率
 50
0.0
 41
0.9
 51
0.0
  7
KANJI36
  0
TEXT
  8
0
  6
CONTINUOUS
 62
     2
 10
1289.986665723
 20
805.286668082
 30
5.8
 40
15.2
  1
使用時入力トルク
 50
0.0
 41
0.9
 51
0.0
  7
KANJI43
  0
TEXT
  8
0
  6
CONTINUOUS
 62
     2
 10
1289.986665723
 20
720.886668082
 30
30.98
 40
15.2
  1
ギヤ方式
 50
0.0
 41
0.9
 51
0.0
  7
KANJI44
  0
LINE
  8
0
  6
CONTINUOUS
 62
     2
 10
1259.986665723
 20
601.686668082
 11
1609.986665723
 21
601.686668082
  0
LINE
  8
0
  6
CONTINUOUS
 62
     2
 10
1459.986665723
 20
1021.686668082
 11
1459.986665723
 21
573.686668082
  0
TEXT
  8
0
  6
CONTINUOUS
 62
     2
 10
1467.186665723
 20
638.086668082
 30
0.4
 40
11.2
  1
マンセル
 50
0.0
 41
0.9
 51
0.0
  7
KANJI45
  0
TEXT
  8
0
  6
CONTINUOUS
 62
     2
 10
1289.986665723
 20
636.886668082
 30
53.308571429
 40
15.2
  1
塗装色
 50
0.0
 41
0.9
 51
0.0
  7
KANJI41
  0
TEXT
  8
0
  6
CONTINUOUS
 62
     2
 10
1289.986665723
 20
608.886668082
 30
53.308571429
 40
15.2
  1
付属品
 50
0.0
 41
0.9
 51
0.0
  7
KANJI41
  0
TEXT
  8
0
  6
CONTINUOUS
 62
     2
 10
1289.986665723
 20
580.886668082
 30
120.297142857
 40
15.2
  1
台数
 50
0.0
 41
0.9
 51
0.0
  7
KANJI36
  0
TEXT
  8
0
  6
CONTINUOUS
 62
     2
 10
1289.986665723
 20
664.886668082
 30
120.297142857
 40
15.2
  1
潤滑
 50
0.0
 41
0.9
 51
0.0
  7
KANJI36
  0
TEXT
  8
0
  6
CONTINUOUS
 62
     2
 10
1513.986665723
 20
638.886668082
 30
0.16
 40
11.2
  1
７．５ＧＹ５／４．５
 50
0.0
 41
0.785714286
 51
0.0
  7
KANJI46
  0
TEXT
  8
0
  6
CONTINUOUS
 62
     2
 10
1289.986665723
 20
692.886668082
 30
8.7068
 40
15.2
  1
スクリュー方式
 50
0.0
 41
0.9
 51
0.0
  7
KANJI47
  0
TEXT
  8
0
  6
CONTINUOUS
 62
     2
 10
1530.786665723
 20
833.686668082
 30
8.0
 40
12.0
  1
８５
 50
0.0
 41
0.9
 51
0.0
  7
KANJI48
  0
TEXT
  8
0
  6
CONTINUOUS
 62
     2
 10
1585.386665723
 20
862.486668082
 30
0.0896
 40
11.2
  1
ｍｍ
 50
0.0
 41
0.8
 51
0.0
  7
KANJI39
  0
TEXT
  8
0
  6
CONTINUOUS
 62
     2
 10
1578.986665723
 20
806.886668082
 30
0.0896
 40
11.2
  1
ｋｇｍ
 50
0.0
 41
0.8
 51
0.0
  7
KANJI39
  0
TEXT
  8
0
  6
CONTINUOUS
 62
     2
 10
1471.586665723
 20
833.686668082
 30
8.0
 40
12.0
  1
約
 50
0.0
 41
0.9
 51
0.0
  7
KANJI48
  0
TEXT
  8
0
  6
CONTINUOUS
 62
     2
 10
1471.586665723
 20
805.686668082
 30
8.0
 40
12.0
  1
約
 50
0.0
 41
0.9
 51
0.0
  7
KANJI48
  0
TEXT
  8
0
  6
CONTINUOUS
 62
     2
 10
1471.586665723
 20
777.686668082
 30
8.0
 40
12.0
  1
約
 50
0.0
 41
0.9
 51
0.0
  7
KANJI48
  0
TEXT
  8
0
  6
CONTINUOUS
 62
     2
 10
1589.986665723
 20
833.286668082
 30
8.0
 40
12.0
  1
％
 50
0.0
 41
0.9
 51
0.0
  7
KANJI48
  0
TEXT
  8
0
  6
CONTINUOUS
 62
     2
 10
1489.586665723
 20
722.886668082
 30
8.0
 40
12.0
  1
ベベルギヤ
 50
0.0
 41
0.9
 51
0.0
  7
KANJI48
  0
TEXT
  8
0
  6
CONTINUOUS
 62
     2
 10
1489.586665723
 20
694.086668082
 30
8.0
 40
12.0
  1
ボールネジ
 50
0.0
 41
0.9
 51
0.0
  7
KANJI48
  0
TEXT
  8
0
  6
CONTINUOUS
 62
     2
 10
1489.186665723
 20
666.086668082
 30
8.0
 40
12.0
  1
グリース方式
 50
0.0
 41
0.9
 51
0.0
  7
KANJI48
  0
TEXT
  8
0
  6
CONTINUOUS
 62
     2
 10
1489.186665723
 20
610.086668082
 30
1.2
 40
12.0
  1
入力キー
 50
0.0
 41
0.9
 51
0.0
  7
KANJI0
  0
TEXT
  8
0
  6
CONTINUOUS
 62
     2
 10
1537.986665723
 20
608.886668082
 30
1.2
 40
12.0
  1
、コラム
 50
0.0
 41
0.9
 51
0.0
  7
KANJI0
  0
TEXT
  8
0
  6
CONTINUOUS
 62
     2
 10
1516.386665723
 20
889.286668082
 30
1.2
 40
12.0
  1
１　：　１
 50
0.0
 41
0.9
 51
0.0
  7
KANJI0
  0
TEXT
  8
0
  6
CONTINUOUS
 62
     2
 10
1534.386665723
 20
861.686668082
 30
8.0
 40
12.0
  1
５
 50
0.0
 41
0.9
 51
0.0
  7
KANJI48
  0
TEXT
  8
0
  6
CONTINUOUS
 62
     2
 10
1520.886665723
 20
776.786668082
 30
1.2
 40
12.0
  1
０．９５
 50
0.0
 41
0.9
 51
0.0
  7
KANJI0
  0
TEXT
  8
0
  6
CONTINUOUS
 62
     2
 10
1469.386665723
 20
916.786668082
 30
1.2
 40
12.0
  1
ＭＡＸ．１００
 50
0.0
 41
0.9
 51
0.0
  7
KANJI0
  0
TEXT
  8
0
  6
CONTINUOUS
 62
     2
 10
1520.386665723
 20
803.436668082
 30
1.2
 40
12.0
  1
１
 50
0.0
 41
0.9
 51
0.0
  7
KANJI0
  0
TEXT
  8
0
  6
CONTINUOUS
 62
     2
 10
1478.986665723
 20
1000.286668082
 30
0.8
 40
12.0
  1
ＳＣＤ１－
 50
0.0
 41
0.833333333
 51
0.0
  7
KANJI19
  0
TEXT
  8
0
  6
CONTINUOUS
 62
     2
 10
1521.986665723
 20
944.986668082
 30
1.2
 40
12.0
  1
　００
 50
0.0
 41
0.9
 51
0.0
  7
KANJI0
  0
TEXT
  8
0
  6
CONTINUOUS
 62
     2
 10
1489.586665723
 20
749.286668082
 30
10.25
 40
14.0
  1
全閉屋内形
 50
0.0
 41
0.9
 51
0.0
  7
KANJI49
  0
LINE
  8
0
  6
CONTINUOUS
 62
     1
 10
1609.986665723
 20
1061.686668082
 11
1609.986665723
 21
573.686668082
  0
TEXT
  8
0
  6
CONTINUOUS
 62
     2
 10
1249.266665723
 20
158.366668082
 30
1.28
 40
12.8
  1
ＳＣＤ１－
 50
0.0
 41
0.9
 51
0.0
  7
KANJI50
  0
TEXT
  8
0
  6
CONTINUOUS
 62
     3
 10
1303.6
 20
91.52
 30
8.0
 40
16.0
  1
Ａ３００１７７２
 50
0.0
 41
1.0
 51
0.0
  7
KANJI51
  0
TEXT
  8
0
  6
CONTINUOUS
 62
     3
 10
1122.2
 20
98.92
 30
4.0
 40
12.0
  1
岡田
 50
0.0
 41
0.9
 51
0.0
  7
KANJI52
  0
TEXT
  8
0
  6
CONTINUOUS
 62
     3
 10
1108.4
 20
71.28
 30
0.0
 40
12.0
  1
２００３．０３．２８
 50
0.0
 41
0.45
 51
0.0
  7
KANJI53
  0
TEXT
  8
0
  6
CONTINUOUS
 62
     3
 10
1125.76
 20
45.88
 30
0.0
 40
12.0
  1
１／４
 50
0.0
 41
0.9
 51
0.0
  7
KANJI1
  0
LINE
  8
0
  6
LTYPE3
 62
     2
 10
595.56
 20
722.78
 11
595.56
 21
627.84
  0
LINE
  8
0
  6
LTYPE3
 62
     2
 10
598.73
 20
722.89
 11
598.73
 21
627.72
  0
LINE
  8
0
  6
CONTINUOUS
 62
     1
 10
375.066665723
 20
712.266668082
 11
595.56
 21
712.266668082
  0
LINE
  8
0
  6
CONTINUOUS
 62
     1
 10
375.066665723
 20
642.266668082
 11
595.56
 21
642.266668082
  0
LINE
  8
0
  6
CONTINUOUS
 62
     1
 10
598.73
 20
712.266668082
 11
782.066665723
 21
712.266668082
  0
LINE
  8
0
  6
CONTINUOUS
 62
     1
 10
598.73
 20
642.266668082
 11
782.066665723
 21
642.266668082
  0
LINE
  8
0
  6
LTYPE1
 62
     2
 10
882.066665723
 20
858.266668082
 11
882.066665723
 21
634.436668082
  0
LINE
  8
0
  6
CONTINUOUS
 62
     1
 10
832.066665723
 20
652.266668082
 11
832.066665723
 21
702.266668082
  0
LINE
  8
0
  6
CONTINUOUS
 62
     1
 10
782.066665723
 20
702.266668082
 11
847.066665723
 21
702.266668082
  0
LINE
  8
0
  6
CONTINUOUS
 62
     1
 10
847.066665723
 20
692.266668082
 11
847.066665723
 21
702.266668082
  0
LINE
  8
0
  6
CONTINUOUS
 62
     1
 10
847.066665723
 20
692.266668082
 11
907.066665723
 21
692.266668082
  0
LINE
  8
0
  6
CONTINUOUS
 62
     1
 10
907.066665723
 20
692.266668082
 11
907.066665723
 21
662.266668082
  0
LINE
  8
0
  6
CONTINUOUS
 62
     1
 10
847.066665723
 20
662.266668082
 11
907.066665723
 21
662.266668082
  0
LINE
  8
0
  6
CONTINUOUS
 62
     1
 10
847.066665723
 20
652.266668082
 11
847.066665723
 21
662.266668082
  0
LINE
  8
0
  6
CONTINUOUS
 62
     1
 10
782.066665723
 20
652.266668082
 11
847.066665723
 21
652.266668082
  0
LINE
  8
0
  6
LTYPE4
 62
     2
 10
869.566665723
 20
692.266668082
 11
869.566665723
 21
662.266668082
  0
LINE
  8
0
  6
LTYPE4
 62
     2
 10
894.566665723
 20
692.266668082
 11
894.566665723
 21
662.266668082
  0
LINE
  8
0
  6
CONTINUOUS
 62
     2
 10
869.566665723
 20
731.186668082
 11
879.225923986
 21
728.598477631
  0
LINE
  8
0
  6
CONTINUOUS
 62
     2
 10
869.566665723
 20
731.186668082
 11
879.225923986
 21
733.774858533
  0
LINE
  8
0
  6
CONTINUOUS
 62
     2
 10
869.566665723
 20
731.186668082
 11
894.566665723
 21
731.186668082
  0
LINE
  8
0
  6
CONTINUOUS
 62
     2
 10
894.566665723
 20
731.186668082
 11
884.90740746
 21
733.774858533
  0
LINE
  8
0
  6
CONTINUOUS
 62
     2
 10
894.566665723
 20
731.186668082
 11
884.90740746
 21
728.598477631
  0
TEXT
  8
0
  6
CONTINUOUS
 62
     3
 10
846.066665723
 20
733.186668082
 30
0.0
 40
12.8
  1
φ２５Ｈ１０
 50
0.0
 41
0.9375
 51
0.0
  7
KANJI54
  0
LINE
  8
0
  6
CONTINUOUS
 62
     2
 10
894.566665723
 20
692.266668082
 11
894.566665723
 21
737.186668082
  0
LINE
  8
0
  6
CONTINUOUS
 62
     2
 10
869.566665723
 20
692.266668082
 11
869.566665723
 21
737.186668082
  0
CIRCLE
  8
0
  6
CONTINUOUS
 62
     1
 10
882.066665723
 20
858.266668082
 40
12.5
  0
CIRCLE
  8
0
  6
CONTINUOUS
 62
     1
 10
1138.066665723
 20
677.266668082
 40
35.0
  0
LINE
  8
0
  6
LTYPE4
 62
     2
 10
1150.566665723
 20
662.266668082
 11
1150.566665723
 21
692.266668082
  0
LINE
  8
0
  6
LTYPE4
 62
     2
 10
1125.566665723
 20
662.266668082
 11
1125.566665723
 21
692.266668082
  0
LINE
  8
0
  6
CONTINUOUS
 62
     1
 10
847.066665723
 20
838.266668082
 11
847.066665723
 21
878.266668082
  0
POLYLINE
  8
0
  6
CONTINUOUS
 62
     1
 66
     1
  0
VERTEX
  8
0
  6
CONTINUOUS
 62
     1
 10
832.066665723
 20
883.266668082
  0
VERTEX
  8
0
  6
CONTINUOUS
 62
     1
 10
897.066665723
 20
883.266668082
  0
VERTEX
  8
0
  6
CONTINUOUS
 62
     1
 10
907.066665723
 20
873.266668082
  0
SEQEND
  0
LINE
  8
0
  6
CONTINUOUS
 62
     1
 10
907.066665723
 20
843.266668082
 11
907.066665723
 21
873.266668082
  0
LINE
  8
0
  6
CONTINUOUS
 62
     1
 10
832.066665723
 20
833.266668082
 11
897.066665723
 21
833.266668082
  0
LINE
  8
0
  6
CONTINUOUS
 62
     1
 10
907.066665723
 20
843.266668082
 11
897.066665723
 21
833.266668082
  0
LINE
  8
0
  6
CONTINUOUS
 62
     1
 10
1118.066665723
 20
662.266668082
 11
1158.066665723
 21
662.266668082
  0
LINE
  8
0
  6
LTYPE1
 62
     2
 10
1046.066665723
 20
677.266668082
 11
1211.066665723
 21
677.266668082
  0
LINE
  8
0
  6
LTYPE1
 62
     2
 10
1138.066665723
 20
625.116668082
 11
1138.066665723
 21
808.416668082
  0
TEXT
  8
0
  6
CONTINUOUS
 62
     2
 10
491.666665723
 20
542.566668082
 30
1.2
 40
12.0
  1
Ｃ
 50
0.0
 41
0.9
 51
0.0
  7
KANJI8
  0
TEXT
  8
0
  6
CONTINUOUS
 62
     2
 10
517.666665723
 20
503.966668082
 30
1.2
 40
12.0
  1
ｍｉｎ．Ｌ
 50
0.0
 41
0.9
 51
0.0
  7
KANJI8
  0
TEXT
  8
0
  6
CONTINUOUS
 62
     2
 10
484.166665723
 20
465.966668082
 30
1.2
 40
12.0
  1
ｍｉｎ．ＡＬ
 50
0.0
 41
0.9
 51
0.0
  7
KANJI8
  0
TEXT
  8
0
  6
CONTINUOUS
 62
     2
 10
769.456665723
 20
543.566668082
 30
1.2
 40
12.0
  1
ｍｉｎ．Ｐ
 50
0.0
 41
0.9
 51
0.0
  7
KANJI8
  0
TEXT
  8
0
  6
CONTINUOUS
 62
     2
 10
1465.706665723
 20
972.886668082
 30
1.2
 40
12.0
  1
９．８ＫＮ（１ｔｏｎ）
 50
0.0
 41
0.9
 51
0.0
  7
KANJI0
  0
TEXT
  8
0
  6
CONTINUOUS
 62
     3
 10
154.03
 20
14.36
 30
0.0
 40
12.0
  1
ＦＤ　Ｎｏ．ＳＣ８
 50
0.0
 41
0.9
 51
0.0
  7
KANJI1
  0
LINE
  8
0
  6
CONTINUOUS
 62
     1
 10
897.066665723
 20
883.266668082
 11
897.066665723
 21
878.266668082
  0
LINE
  8
0
  6
CONTINUOUS
 62
     1
 10
897.066665723
 20
833.266668082
 11
897.066665723
 21
838.266668082
  0
POLYLINE
  8
0
  6
CONTINUOUS
 62
     2
 66
     1
  0
VERTEX
  8
0
  6
CONTINUOUS
 62
     2
 10
894.626665723
 20
713.741309098
  0
VERTEX
  8
0
  6
CONTINUOUS
 62
     2
 10
889.626665723
 20
716.628060444
  0
VERTEX
  8
0
  6
CONTINUOUS
 62
     2
 10
889.626665723
 20
710.854557752
  0
VERTEX
  8
0
  6
CONTINUOUS
 62
     2
 10
894.626665723
 20
713.741309098
  0
SEQEND
  0
LINE
  8
0
  6
CONTINUOUS
 62
     2
 10
894.626665723
 20
707.967806406
 11
889.626665723
 21
710.854557752
  0
LINE
  8
0
  6
CONTINUOUS
 62
     2
 10
889.626665723
 20
710.854557752
 11
889.626665723
 21
705.08105506
  0
LINE
  8
0
  6
CONTINUOUS
 62
     2
 10
889.626665723
 20
705.08105506
 11
894.626665723
 21
707.967806406
  0
LINE
  8
0
  6
CONTINUOUS
 62
     2
 10
911.066665723
 20
662.266668082
 11
949.866665723
 21
662.266668082
  0
LINE
  8
0
  6
CONTINUOUS
 62
     2
 10
943.866665723
 20
662.266668082
 11
941.278475272
 21
652.607409819
  0
LINE
  8
0
  6
CONTINUOUS
 62
     2
 10
943.866665723
 20
662.266668082
 11
946.454856174
 21
652.607409819
  0
LINE
  8
0
  6
CONTINUOUS
 62
     2
 10
943.866665723
 20
647.266668082
 11
943.866665723
 21
662.266668082
  0
LINE
  8
0
  6
CONTINUOUS
 62
     2
 10
943.866665723
 20
662.266668082
 11
943.866665723
 21
692.266668082
  0
LINE
  8
0
  6
CONTINUOUS
 62
     2
 10
943.866665723
 20
692.266668082
 11
943.866665723
 21
760.066668082
  0
LINE
  8
0
  6
CONTINUOUS
 62
     2
 10
943.866665723
 20
692.266668082
 11
946.454856174
 21
701.925926345
  0
LINE
  8
0
  6
CONTINUOUS
 62
     2
 10
943.866665723
 20
692.266668082
 11
941.278475272
 21
701.925926345
  0
LINE
  8
0
  6
CONTINUOUS
 62
     2
 10
911.066665723
 20
692.266668082
 11
949.866665723
 21
692.266668082
  0
TEXT
  8
0
  6
CONTINUOUS
 62
     3
 10
941.866665723
 20
707.266668082
 30
0.0
 40
12.8
  1
３０
 50
90.0
 41
0.9375
 51
0.0
  7
KANJI54
  0
TEXT
  8
0
  6
CONTINUOUS
 62
     3
 10
941.866665723
 20
731.266668082
 30
0.0
 40
7.68
  1
－０．３
 50
90.0
 41
0.9375
 51
0.0
  7
KANJI55
  0
TEXT
  8
0
  6
CONTINUOUS
 62
     3
 10
934.186665723
 20
731.266668082
 30
0.0
 40
7.68
  1
　０
 50
90.0
 41
0.9375
 51
0.0
  7
KANJI55
  0
LINE
  8
0
  6
CONTINUOUS
 62
     2
 10
902.066665723
 20
878.266668082
 11
910.726919761
 21
883.266668082
  0
LINE
  8
0
  6
CONTINUOUS
 62
     2
 10
902.066665723
 20
878.266668082
 11
907.066665723
 21
886.92692212
  0
TEXT
  8
0
  6
CONTINUOUS
 62
     3
 10
908.49404737
 20
887.522476854
 30
0.0
 40
12.8
  1
Ｃ１０
 50
45.0
 41
0.9375
 51
0.0
  7
KANJI54
  0
LINE
  8
0
  6
CONTINUOUS
 62
     2
 10
902.066665723
 20
878.266668082
 11
939.305700265
 21
915.505702624
  0
LINE
  8
0
  6
CONTINUOUS
 62
     1
 10
1118.066665723
 20
692.266668082
 11
1158.066665723
 21
692.266668082
  0
LINE
  8
0
  6
CONTINUOUS
 62
     1
 10
1123.066665723
 20
662.266668082
 11
1123.066665723
 21
692.266668082
  0
LINE
  8
0
  6
CONTINUOUS
 62
     1
 10
1153.066665723
 20
662.266668082
 11
1153.066665723
 21
692.266668082
  0
CIRCLE
  8
0
  6
CONTINUOUS
 62
     1
 10
1138.066665723
 20
677.266668082
 40
25.0
  0
LINE
  8
0
  6
CONTINUOUS
 62
     1
 10
897.066665723
 20
878.266668082
 11
907.066665723
 21
873.266668082
  0
LINE
  8
0
  6
CONTINUOUS
 62
     1
 10
897.066665723
 20
838.266668082
 11
907.066665723
 21
843.266668082
  0
LINE
  8
0
  6
CONTINUOUS
 62
     1
 10
897.066665723
 20
878.266668082
 11
847.066665723
 21
878.266668082
  0
LINE
  8
0
  6
CONTINUOUS
 62
     1
 10
897.066665723
 20
838.266668082
 11
847.066665723
 21
838.266668082
  0
LINE
  8
0
  6
LTYPE1
 62
     2
 10
919.266665723
 20
858.266668082
 11
823.066665723
 21
858.266668082
  0
LINE
  8
0
  6
CONTINUOUS
 62
     1
 10
897.066665723
 20
692.266668082
 11
897.066665723
 21
662.266668082
  0
ENDSEC
  0
EOF
