  0
SECTION
  2
HEADER
  9
$EXTMIN
 10
0.0
 20
0.0
 30
0.0
  9
$EXTMAX
 10
3360.0
 20
2376.0
 30
0.0
  9
$LIMMIN
 10
0.0
 20
0.0
  9
$LIMMAX
 10
3360.0
 20
2376.0
  9
$LTSCALE
 40
1.0
  9
$PDMODE
 70
     0
  0
ENDSEC
  0
SECTION
  2
TABLES
  0
TABLE
  2
LTYPE
 70
     6
  0
LTYPE
  2
CONTINUOUS
 70
    64
  3
Solid line
 72
    65
 73
     0
 40
0.0
  0
LTYPE
  2
LTYPE1
 70
    64
  3
HIDDEN
 72
    65
 73
     2
 40
24.0
 49
14.4
 49
-9.6
  0
LTYPE
  2
LTYPE2
 70
    64
  3
CENTER
 72
    65
 73
     4
 40
120.0
 49
84.0
 49
-12.0
 49
12.0
 49
-12.0
  0
LTYPE
  2
LTYPE3
 70
    64
  3
CENTER
 72
    65
 73
     4
 40
80.0
 49
56.0
 49
-8.0
 49
8.0
 49
-8.0
  0
LTYPE
  2
LTYPE4
 70
    64
  3
CENTER
 72
    65
 73
     4
 40
64.0
 49
44.8
 49
-6.4
 49
6.4
 49
-6.4
  0
LTYPE
  2
LTYPE5
 70
    64
  3
PHANTOM
 72
    65
 73
     6
 40
80.0
 49
60.0
 49
-4.0
 49
4.0
 49
-4.0
 49
4.0
 49
-4.0
  0
ENDTAB
  0
TABLE
  2
LAYER
 70
   128
  0
LAYER
  2
0
 70
     0
 62
     7
  6
CONTINUOUS
  0
LAYER
  2
2
 70
     0
 62
     7
  6
CONTINUOUS
  0
LAYER
  2
3
 70
     0
 62
     7
  6
CONTINUOUS
  0
LAYER
  2
4
 70
     0
 62
     7
  6
CONTINUOUS
  0
LAYER
  2
5
 70
     0
 62
     7
  6
CONTINUOUS
  0
LAYER
  2
6
 70
     0
 62
     7
  6
CONTINUOUS
  0
LAYER
  2
7
 70
     0
 62
     7
  6
CONTINUOUS
  0
LAYER
  2
8
 70
     0
 62
     7
  6
CONTINUOUS
  0
LAYER
  2
9
 70
     0
 62
     7
  6
CONTINUOUS
  0
LAYER
  2
10
 70
     0
 62
     7
  6
CONTINUOUS
  0
LAYER
  2
11
 70
     0
 62
     7
  6
CONTINUOUS
  0
LAYER
  2
12
 70
     0
 62
     7
  6
CONTINUOUS
  0
LAYER
  2
13
 70
     0
 62
     7
  6
CONTINUOUS
  0
LAYER
  2
14
 70
     0
 62
     7
  6
CONTINUOUS
  0
LAYER
  2
15
 70
     0
 62
     7
  6
CONTINUOUS
  0
LAYER
  2
16
 70
     0
 62
     7
  6
CONTINUOUS
  0
LAYER
  2
17
 70
     0
 62
     7
  6
CONTINUOUS
  0
LAYER
  2
18
 70
     0
 62
     7
  6
CONTINUOUS
  0
LAYER
  2
19
 70
     0
 62
     7
  6
CONTINUOUS
  0
LAYER
  2
20
 70
     0
 62
     7
  6
CONTINUOUS
  0
LAYER
  2
21
 70
     0
 62
     7
  6
CONTINUOUS
  0
LAYER
  2
22
 70
     0
 62
     7
  6
CONTINUOUS
  0
LAYER
  2
23
 70
     0
 62
     7
  6
CONTINUOUS
  0
LAYER
  2
24
 70
     0
 62
     7
  6
CONTINUOUS
  0
LAYER
  2
25
 70
     0
 62
     7
  6
CONTINUOUS
  0
LAYER
  2
26
 70
     0
 62
     7
  6
CONTINUOUS
  0
LAYER
  2
27
 70
     0
 62
     7
  6
CONTINUOUS
  0
LAYER
  2
28
 70
     0
 62
     7
  6
CONTINUOUS
  0
LAYER
  2
29
 70
     0
 62
     7
  6
CONTINUOUS
  0
LAYER
  2
30
 70
     0
 62
     7
  6
CONTINUOUS
  0
LAYER
  2
31
 70
     0
 62
     7
  6
CONTINUOUS
  0
LAYER
  2
32
 70
     0
 62
     7
  6
CONTINUOUS
  0
LAYER
  2
33
 70
     0
 62
     7
  6
CONTINUOUS
  0
LAYER
  2
34
 70
     0
 62
     7
  6
CONTINUOUS
  0
LAYER
  2
35
 70
     0
 62
     7
  6
CONTINUOUS
  0
LAYER
  2
36
 70
     0
 62
     7
  6
CONTINUOUS
  0
LAYER
  2
37
 70
     0
 62
     7
  6
CONTINUOUS
  0
LAYER
  2
38
 70
     0
 62
     7
  6
CONTINUOUS
  0
LAYER
  2
39
 70
     0
 62
     7
  6
CONTINUOUS
  0
LAYER
  2
40
 70
     0
 62
     7
  6
CONTINUOUS
  0
LAYER
  2
41
 70
     0
 62
     7
  6
CONTINUOUS
  0
LAYER
  2
42
 70
     0
 62
     7
  6
CONTINUOUS
  0
LAYER
  2
43
 70
     0
 62
     7
  6
CONTINUOUS
  0
LAYER
  2
44
 70
     0
 62
     7
  6
CONTINUOUS
  0
LAYER
  2
45
 70
     0
 62
     7
  6
CONTINUOUS
  0
LAYER
  2
46
 70
     0
 62
     7
  6
CONTINUOUS
  0
LAYER
  2
47
 70
     0
 62
     7
  6
CONTINUOUS
  0
LAYER
  2
48
 70
     0
 62
     7
  6
CONTINUOUS
  0
LAYER
  2
49
 70
     0
 62
     7
  6
CONTINUOUS
  0
LAYER
  2
50
 70
     0
 62
     7
  6
CONTINUOUS
  0
LAYER
  2
51
 70
     0
 62
     7
  6
CONTINUOUS
  0
LAYER
  2
52
 70
     0
 62
     7
  6
CONTINUOUS
  0
LAYER
  2
53
 70
     0
 62
     7
  6
CONTINUOUS
  0
LAYER
  2
54
 70
     0
 62
     7
  6
CONTINUOUS
  0
LAYER
  2
55
 70
     0
 62
     7
  6
CONTINUOUS
  0
LAYER
  2
56
 70
     0
 62
     7
  6
CONTINUOUS
  0
LAYER
  2
57
 70
     0
 62
     7
  6
CONTINUOUS
  0
LAYER
  2
58
 70
     0
 62
     7
  6
CONTINUOUS
  0
LAYER
  2
59
 70
     0
 62
     7
  6
CONTINUOUS
  0
LAYER
  2
60
 70
     0
 62
     7
  6
CONTINUOUS
  0
LAYER
  2
61
 70
     0
 62
     7
  6
CONTINUOUS
  0
LAYER
  2
62
 70
     0
 62
     7
  6
CONTINUOUS
  0
LAYER
  2
63
 70
     0
 62
     7
  6
CONTINUOUS
  0
LAYER
  2
64
 70
     0
 62
     7
  6
CONTINUOUS
  0
LAYER
  2
65
 70
     0
 62
     7
  6
CONTINUOUS
  0
LAYER
  2
66
 70
     0
 62
     7
  6
CONTINUOUS
  0
LAYER
  2
67
 70
     0
 62
     7
  6
CONTINUOUS
  0
LAYER
  2
68
 70
     0
 62
     7
  6
CONTINUOUS
  0
LAYER
  2
69
 70
     0
 62
     7
  6
CONTINUOUS
  0
LAYER
  2
70
 70
     0
 62
     7
  6
CONTINUOUS
  0
LAYER
  2
71
 70
     0
 62
     7
  6
CONTINUOUS
  0
LAYER
  2
72
 70
     0
 62
     7
  6
CONTINUOUS
  0
LAYER
  2
73
 70
     0
 62
     7
  6
CONTINUOUS
  0
LAYER
  2
74
 70
     0
 62
     7
  6
CONTINUOUS
  0
LAYER
  2
75
 70
     0
 62
     7
  6
CONTINUOUS
  0
LAYER
  2
76
 70
     0
 62
     7
  6
CONTINUOUS
  0
LAYER
  2
77
 70
     0
 62
     7
  6
CONTINUOUS
  0
LAYER
  2
78
 70
     0
 62
     7
  6
CONTINUOUS
  0
LAYER
  2
79
 70
     0
 62
     7
  6
CONTINUOUS
  0
LAYER
  2
80
 70
     0
 62
     7
  6
CONTINUOUS
  0
LAYER
  2
81
 70
     0
 62
     7
  6
CONTINUOUS
  0
LAYER
  2
82
 70
     0
 62
     7
  6
CONTINUOUS
  0
LAYER
  2
83
 70
     0
 62
     7
  6
CONTINUOUS
  0
LAYER
  2
84
 70
     0
 62
     7
  6
CONTINUOUS
  0
LAYER
  2
85
 70
     0
 62
     7
  6
CONTINUOUS
  0
LAYER
  2
86
 70
     0
 62
     7
  6
CONTINUOUS
  0
LAYER
  2
87
 70
     0
 62
     7
  6
CONTINUOUS
  0
LAYER
  2
88
 70
     0
 62
     7
  6
CONTINUOUS
  0
LAYER
  2
89
 70
     0
 62
     7
  6
CONTINUOUS
  0
LAYER
  2
90
 70
     0
 62
     7
  6
CONTINUOUS
  0
LAYER
  2
91
 70
     0
 62
     7
  6
CONTINUOUS
  0
LAYER
  2
92
 70
     0
 62
     7
  6
CONTINUOUS
  0
LAYER
  2
93
 70
     0
 62
     7
  6
CONTINUOUS
  0
LAYER
  2
94
 70
     0
 62
     7
  6
CONTINUOUS
  0
LAYER
  2
95
 70
     0
 62
     7
  6
CONTINUOUS
  0
LAYER
  2
96
 70
     0
 62
     7
  6
CONTINUOUS
  0
LAYER
  2
97
 70
     0
 62
     7
  6
CONTINUOUS
  0
LAYER
  2
98
 70
     0
 62
     7
  6
CONTINUOUS
  0
LAYER
  2
99
 70
     0
 62
     7
  6
CONTINUOUS
  0
LAYER
  2
100
 70
     0
 62
     7
  6
CONTINUOUS
  0
LAYER
  2
101
 70
     0
 62
     7
  6
CONTINUOUS
  0
LAYER
  2
102
 70
     0
 62
     7
  6
CONTINUOUS
  0
LAYER
  2
103
 70
     0
 62
     7
  6
CONTINUOUS
  0
LAYER
  2
104
 70
     0
 62
     7
  6
CONTINUOUS
  0
LAYER
  2
105
 70
     0
 62
     7
  6
CONTINUOUS
  0
LAYER
  2
106
 70
     0
 62
     7
  6
CONTINUOUS
  0
LAYER
  2
107
 70
     0
 62
     7
  6
CONTINUOUS
  0
LAYER
  2
108
 70
     0
 62
     7
  6
CONTINUOUS
  0
LAYER
  2
109
 70
     0
 62
     7
  6
CONTINUOUS
  0
LAYER
  2
110
 70
     0
 62
     7
  6
CONTINUOUS
  0
LAYER
  2
111
 70
     0
 62
     7
  6
CONTINUOUS
  0
LAYER
  2
112
 70
     0
 62
     7
  6
CONTINUOUS
  0
LAYER
  2
113
 70
     0
 62
     7
  6
CONTINUOUS
  0
LAYER
  2
114
 70
     0
 62
     7
  6
CONTINUOUS
  0
LAYER
  2
115
 70
     0
 62
     7
  6
CONTINUOUS
  0
LAYER
  2
116
 70
     0
 62
     7
  6
CONTINUOUS
  0
LAYER
  2
117
 70
     0
 62
     7
  6
CONTINUOUS
  0
LAYER
  2
118
 70
     0
 62
     7
  6
CONTINUOUS
  0
LAYER
  2
119
 70
     0
 62
     7
  6
CONTINUOUS
  0
LAYER
  2
120
 70
     0
 62
     7
  6
CONTINUOUS
  0
LAYER
  2
121
 70
     0
 62
     7
  6
CONTINUOUS
  0
LAYER
  2
122
 70
     0
 62
     7
  6
CONTINUOUS
  0
LAYER
  2
123
 70
     0
 62
     7
  6
CONTINUOUS
  0
LAYER
  2
124
 70
     0
 62
     7
  6
CONTINUOUS
  0
LAYER
  2
125
 70
     0
 62
     7
  6
CONTINUOUS
  0
LAYER
  2
126
 70
     0
 62
     7
  6
CONTINUOUS
  0
LAYER
  2
127
 70
     0
 62
     7
  6
CONTINUOUS
  0
LAYER
  2
128
 70
     0
 62
     7
  6
CONTINUOUS
  0
ENDTAB
  0
TABLE
  2
STYLE
 70
    58
  0
STYLE
  2
STANDARD
 70
     0
 40
0.0
 41
1.0
 50
0.0
 71
     0
 42
0.2
  3
txt
  4

  0
STYLE
  2
KANJI0
 70
     0
 40
15.999996636
 41
0.6
 50
0.0
 71
     0
 42
15.999996636
  3

  4
bigfont
  0
STYLE
  2
KANJI1
 70
     0
 40
19.199995963
 41
0.9
 50
0.0
 71
     0
 42
19.199995963
  3

  4
bigfont
  0
STYLE
  2
KANJI2
 70
     0
 40
13.8666656
 41
0.6
 50
0.0
 71
     0
 42
13.8666656
  3

  4
bigfont
  0
STYLE
  2
KANJI3
 70
     0
 40
16.63999872
 41
0.6
 50
0.0
 71
     0
 42
16.63999872
  3

  4
bigfont
  0
STYLE
  2
KANJI4
 70
     0
 40
13.8666656
 41
0.8
 50
0.0
 71
     0
 42
13.8666656
  3

  4
bigfont
  0
STYLE
  2
KANJI5
 70
     0
 40
16.63999872
 41
0.8
 50
0.0
 71
     0
 42
16.63999872
  3

  4
bigfont
  0
STYLE
  2
KANJI6
 70
     0
 40
69.333328
 41
0.9
 50
0.0
 71
     0
 42
69.333328
  3

  4
bigfont
  0
STYLE
  2
KANJI7
 70
     0
 40
23.999994954
 41
0.9
 50
0.0
 71
     0
 42
23.999994954
  3

  4
bigfont
  0
STYLE
  2
KANJI8
 70
     0
 40
24.2666648
 41
0.42031746
 50
0.0
 71
     0
 42
24.2666648
  3

  4
bigfont
  0
STYLE
  2
KANJI9
 70
     0
 40
41.5999968
 41
0.9
 50
0.0
 71
     0
 42
41.5999968
  3

  4
bigfont
  0
STYLE
  2
KANJI10
 70
     0
 40
40.0
 41
1.0
 50
0.0
 71
     0
 42
40.0
  3

  4
bigfont
  0
STYLE
  2
KANJI11
 70
     0
 40
40.0
 41
1.0
 50
0.0
 71
     0
 42
40.0
  3

  4
bigfont
  0
STYLE
  2
KANJI12
 70
     0
 40
28.0
 41
0.857142857
 50
0.0
 71
     0
 42
28.0
  3

  4
bigfont
  0
STYLE
  2
KANJI13
 70
     0
 40
20.7999984
 41
0.75
 50
0.0
 71
     0
 42
20.7999984
  3

  4
bigfont
  0
STYLE
  2
KANJI14
 70
     0
 40
36.0
 41
0.666666667
 50
0.0
 71
     0
 42
36.0
  3

  4
bigfont
  0
STYLE
  2
KANJI15
 70
     0
 40
36.0
 41
0.9
 50
0.0
 71
     0
 42
36.0
  3

  4
bigfont
  0
STYLE
  2
KANJI16
 70
     0
 40
30.4
 41
0.9
 50
0.0
 71
     0
 42
30.4
  3

  4
bigfont
  0
STYLE
  2
KANJI17
 70
     0
 40
30.4
 41
0.9
 50
0.0
 71
     0
 42
30.4
  3

  4
bigfont
  0
STYLE
  2
KANJI18
 70
     0
 40
30.4
 41
0.9
 50
0.0
 71
     0
 42
30.4
  3

  4
bigfont
  0
STYLE
  2
KANJI19
 70
     0
 40
22.4
 41
0.8
 50
0.0
 71
     0
 42
22.4
  3

  4
bigfont
  0
STYLE
  2
KANJI20
 70
     0
 40
30.4
 41
0.9
 50
0.0
 71
     0
 42
30.4
  3

  4
bigfont
  0
STYLE
  2
KANJI21
 70
     0
 40
30.4
 41
0.9
 50
0.0
 71
     0
 42
30.4
  3

  4
bigfont
  0
STYLE
  2
KANJI22
 70
     0
 40
30.4
 41
0.9
 50
0.0
 71
     0
 42
30.4
  3

  4
bigfont
  0
STYLE
  2
KANJI23
 70
     0
 40
30.4
 41
0.9
 50
0.0
 71
     0
 42
30.4
  3

  4
bigfont
  0
STYLE
  2
KANJI24
 70
     0
 40
30.4
 41
0.9
 50
0.0
 71
     0
 42
30.4
  3

  4
bigfont
  0
STYLE
  2
KANJI25
 70
     0
 40
30.4
 41
0.9
 50
0.0
 71
     0
 42
30.4
  3

  4
bigfont
  0
STYLE
  2
KANJI26
 70
     0
 40
24.0
 41
0.9
 50
0.0
 71
     0
 42
24.0
  3

  4
bigfont
  0
STYLE
  2
KANJI27
 70
     0
 40
24.0
 41
0.9
 50
0.0
 71
     0
 42
24.0
  3

  4
bigfont
  0
STYLE
  2
KANJI28
 70
     0
 40
24.0
 41
0.9
 50
0.0
 71
     0
 42
24.0
  3

  4
bigfont
  0
STYLE
  2
KANJI29
 70
     0
 40
28.0
 41
0.9
 50
0.0
 71
     0
 42
28.0
  3

  4
bigfont
  0
STYLE
  2
KANJI30
 70
     0
 40
14.4
 41
0.9
 50
0.0
 71
     0
 42
14.4
  3

  4
bigfont
  0
STYLE
  2
KANJI31
 70
     0
 40
28.0
 41
0.857142857
 50
0.0
 71
     0
 42
28.0
  3

  4
bigfont
  0
STYLE
  2
KANJI32
 70
     0
 40
36.0
 41
0.888888889
 50
0.0
 71
     0
 42
36.0
  3

  4
bigfont
  0
STYLE
  2
KANJI33
 70
     0
 40
24.0
 41
0.9
 50
0.0
 71
     0
 42
24.0
  3

  4
bigfont
  0
STYLE
  2
KANJI34
 70
     0
 40
19.2
 41
0.777777778
 50
0.0
 71
     0
 42
19.2
  3

  4
bigfont
  0
STYLE
  2
KANJI35
 70
     0
 40
25.6
 41
0.9
 50
0.0
 71
     0
 42
25.6
  3

  4
bigfont
  0
STYLE
  2
KANJI36
 70
     0
 40
28.0
 41
0.9
 50
0.0
 71
     0
 42
28.0
  3

  4
bigfont
  0
STYLE
  2
KANJI37
 70
     0
 40
24.0
 41
0.9
 50
0.0
 71
     0
 42
24.0
  3

  4
bigfont
  0
STYLE
  2
KANJI38
 70
     0
 40
21.0
 41
0.857142857
 50
0.0
 71
     0
 42
21.0
  3

  4
bigfont
  0
STYLE
  2
KANJI39
 70
     0
 40
24.0
 41
0.666666667
 50
0.0
 71
     0
 42
24.0
  3

  4
bigfont
  0
STYLE
  2
KANJI40
 70
     0
 40
24.0
 41
0.833333333
 50
0.0
 71
     0
 42
24.0
  3

  4
bigfont
  0
STYLE
  2
KANJI41
 70
     0
 40
22.4
 41
0.9
 50
0.0
 71
     0
 42
22.4
  3

  4
bigfont
  0
STYLE
  2
KANJI42
 70
     0
 40
32.0
 41
0.75
 50
0.0
 71
     0
 42
32.0
  3

  4
bigfont
  0
STYLE
  2
KANJI43
 70
     0
 40
32.0
 41
0.75
 50
0.0
 71
     0
 42
32.0
  3

  4
bigfont
  0
STYLE
  2
KANJI44
 70
     0
 40
32.0
 41
1.0
 50
0.0
 71
     0
 42
32.0
  3

  4
bigfont
  0
STYLE
  2
KANJI45
 70
     0
 40
28.0
 41
0.793650794
 50
0.0
 71
     0
 42
28.0
  3

  4
bigfont
  0
STYLE
  2
KANJI46
 70
     0
 40
40.0
 41
0.8
 50
0.0
 71
     0
 42
40.0
  3

  4
bigfont
  0
STYLE
  2
KANJI47
 70
     0
 40
24.0
 41
0.833333333
 50
0.0
 71
     0
 42
24.0
  3

  4
bigfont
  0
STYLE
  2
KANJI48
 70
     0
 40
24.0
 41
1.0
 50
0.0
 71
     0
 42
24.0
  3

  4
bigfont
  0
STYLE
  2
KANJI49
 70
     0
 40
28.8
 41
0.9
 50
0.0
 71
     0
 42
28.8
  3

  4
bigfont
  0
STYLE
  2
KANJI50
 70
     0
 40
24.0
 41
0.9
 50
0.0
 71
     0
 42
24.0
  3

  4
bigfont
  0
STYLE
  2
KANJI51
 70
     0
 40
24.0
 41
0.9
 50
0.0
 71
     0
 42
24.0
  3

  4
bigfont
  0
STYLE
  2
KANJI52
 70
     0
 40
28.0
 41
0.571428571
 50
0.0
 71
     0
 42
28.0
  3

  4
bigfont
  0
STYLE
  2
KANJI53
 70
     0
 40
11.313708499
 41
1.0
 50
0.0
 71
     0
 42
11.313708499
  3

  4
bigfont
  0
STYLE
  2
KANJI54
 70
     0
 40
32.0
 41
0.375
 50
0.0
 71
     0
 42
32.0
  3

  4
bigfont
  0
STYLE
  2
KANJI55
 70
     0
 40
32.0
 41
0.25
 50
0.0
 71
     0
 42
32.0
  3

  4
bigfont
  0
STYLE
  2
KANJI56
 70
     0
 40
24.0
 41
0.666666667
 50
0.0
 71
     0
 42
24.0
  3

  4
bigfont
  0
ENDTAB
  0
TABLE
  2
VIEW
 70
     0
  0
ENDTAB
  0
ENDSEC
  0
SECTION
  2
BLOCKS
  0
ENDSEC
  0
SECTION
  2
ENTITIES
  0
LINE
  8
0
  6
CONTINUOUS
 62
     4
 10
3201.985251001
 20
-54.52
 11
2409.985251001
 21
-54.52
  0
LINE
  8
0
  6
CONTINUOUS
 62
     4
 10
3201.985251001
 20
-134.52
 11
2409.985251001
 21
-134.52
  0
TEXT
  8
0
  6
CONTINUOUS
 62
     4
 10
129.985245955
 20
137.47999159
 30
1.599999664
 40
15.999996636
  1
ＰＡＲＴＳ　ＬＩＳＴ
 50
0.0
 41
0.6
 51
0.0
  7
KANJI0
  0
TEXT
  8
0
  6
CONTINUOUS
 62
     4
 10
489.985170263
 20
137.47999159
 30
1.599999664
 40
15.999996636
  1
Ｎ０．
 50
0.0
 41
0.6
 51
0.0
  7
KANJI0
  0
TEXT
  8
0
  6
CONTINUOUS
 62
     4
 10
129.985245955
 20
113.479996636
 30
1.919999596
 40
19.199995963
  1
部品表
 50
0.0
 41
0.9
 51
0.0
  7
KANJI1
  0
TEXT
  8
0
  6
CONTINUOUS
 62
     4
 10
489.985170263
 20
113.479996636
 30
1.919999596
 40
19.199995963
  1
項番
 50
0.0
 41
0.9
 51
0.0
  7
KANJI1
  0
TEXT
  8
0
  6
CONTINUOUS
 62
     4
 10
2141.185332601
 20
246.5466552
 30
1.38666656
 40
13.8666656
  1
ＤＲＡＷＮ
 50
0.0
 41
0.6
 51
0.0
  7
KANJI2
  0
TEXT
  8
0
  6
CONTINUOUS
 62
     4
 10
2141.185332601
 20
302.0133176
 30
1.38666656
 40
13.8666656
  1
ＤＥＳＩＧＮ
 50
0.0
 41
0.6
 51
0.0
  7
KANJI2
  0
TEXT
  8
0
  6
CONTINUOUS
 62
     4
 10
2141.185332601
 20
357.47998
 30
1.38666656
 40
13.8666656
  1
ＣＨＥＣＫ
 50
0.0
 41
0.6
 51
0.0
  7
KANJI2
  0
TEXT
  8
0
  6
CONTINUOUS
 62
     4
 10
2141.185332601
 20
412.9466424
 30
1.38666656
 40
13.8666656
  1
ＣＯＤＥ
 50
0.0
 41
0.6
 51
0.0
  7
KANJI2
  0
LINE
  8
0
  6
CONTINUOUS
 62
     4
 10
2127.318667001
 20
326.2799824
 11
2380.385314201
 21
326.2799824
  0
LINE
  8
0
  6
CONTINUOUS
 62
     4
 10
2127.318667001
 20
270.81332
 11
2380.385314201
 21
270.81332
  0
LINE
  8
0
  6
CONTINUOUS
 62
     4
 10
2127.318667001
 20
381.7466448
 11
2380.385314201
 21
381.7466448
  0
LINE
  8
0
  6
CONTINUOUS
 62
     4
 10
2127.318667001
 20
437.2133072
 11
3195.051918201
 21
437.2133072
  0
TEXT
  8
0
  6
CONTINUOUS
 62
     4
 10
2141.185332601
 20
281.2133192
 30
1.663999872
 40
16.63999872
  1
設計
 50
0.0
 41
0.6
 51
0.0
  7
KANJI3
  0
TEXT
  8
0
  6
CONTINUOUS
 62
     4
 10
2141.185332601
 20
336.6799816
 30
1.663999872
 40
16.63999872
  1
検図
 50
0.0
 41
0.6
 51
0.0
  7
KANJI3
  0
TEXT
  8
0
  6
CONTINUOUS
 62
     4
 10
2141.185332601
 20
392.146644
 30
1.663999872
 40
16.63999872
  1
分類
 50
0.0
 41
0.6
 51
0.0
  7
KANJI3
  0
LINE
  8
0
  6
CONTINUOUS
 62
     4
 10
2400.838645961
 20
381.7466448
 11
3195.051918201
 21
381.7466448
  0
LINE
  8
0
  6
CONTINUOUS
 62
     4
 10
2380.385314201
 20
270.81332
 11
3195.051918201
 21
270.81332
  0
TEXT
  8
0
  6
CONTINUOUS
 62
     4
 10
2394.251979801
 20
246.5466552
 30
1.38666656
 40
13.8666656
  1
ＤＲＡＷＩＮＧ　ＮＯ．
 50
0.0
 41
0.8
 51
0.0
  7
KANJI4
  0
TEXT
  8
0
  6
CONTINUOUS
 62
     4
 10
2394.251979801
 20
302.0133176
 30
1.38666656
 40
13.8666656
  1
ＭＦＧ　ＮＯ．
 50
0.0
 41
0.8
 51
0.0
  7
KANJI4
  0
TEXT
  8
0
  6
CONTINUOUS
 62
     4
 10
2394.251979801
 20
357.47998
 30
1.38666656
 40
13.8666656
  1
ＴＹＰＥ
 50
0.0
 41
0.8
 51
0.0
  7
KANJI4
  0
LINE
  8
0
  6
CONTINUOUS
 62
     4
 10
2401.185312601
 20
326.2799824
 11
2720.118621401
 21
326.2799824
  0
TEXT
  8
0
  6
CONTINUOUS
 62
     4
 10
2394.251979801
 20
222.2799904
 30
1.663999872
 40
16.63999872
  1
図　面　番　号
 50
0.0
 41
0.8
 51
0.0
  7
KANJI5
  0
TEXT
  8
0
  6
CONTINUOUS
 62
     4
 10
2394.251979801
 20
277.7466528
 30
1.663999872
 40
16.63999872
  1
製番
 50
0.0
 41
0.8
 51
0.0
  7
KANJI5
  0
TEXT
  8
0
  6
CONTINUOUS
 62
     4
 10
2394.251979801
 20
333.2133152
 30
1.663999872
 40
16.63999872
  1
機種
 50
0.0
 41
0.8
 51
0.0
  7
KANJI5
  0
LINE
  8
0
  6
CONTINUOUS
 62
     4
 10
2127.318667001
 20
159.8799952
 11
2380.385314201
 21
159.8799952
  0
LINE
  8
0
  6
CONTINUOUS
 62
     4
 10
2127.318667001
 20
215.3466576
 11
2380.385314201
 21
215.3466576
  0
TEXT
  8
0
  6
CONTINUOUS
 62
     4
 10
2141.185332601
 20
135.6133304
 30
1.38666656
 40
13.8666656
  1
ＳＣＡＬＥ
 50
0.0
 41
0.6
 51
0.0
  7
KANJI2
  0
TEXT
  8
0
  6
CONTINUOUS
 62
     4
 10
2141.185332601
 20
191.0799928
 30
1.38666656
 40
13.8666656
  1
ＤＡＴＥ
 50
0.0
 41
0.6
 51
0.0
  7
KANJI2
  0
TEXT
  8
0
  6
CONTINUOUS
 62
     4
 10
2141.185332601
 20
114.813332
 30
1.663999872
 40
16.63999872
  1
尺度
 50
0.0
 41
0.6
 51
0.0
  7
KANJI3
  0
TEXT
  8
0
  6
CONTINUOUS
 62
     4
 10
2141.185332601
 20
170.2799944
 30
1.663999872
 40
16.63999872
  1
日付
 50
0.0
 41
0.6
 51
0.0
  7
KANJI3
  0
TEXT
  8
0
  6
CONTINUOUS
 62
     4
 10
2141.185332601
 20
225.7466568
 30
1.663999872
 40
16.63999872
  1
作図
 50
0.0
 41
0.6
 51
0.0
  7
KANJI3
  0
TEXT
  8
0
  6
CONTINUOUS
 62
     4
 10
1756.385362201
 20
135.6133304
 30
1.38666656
 40
13.8666656
  1
ＢＹ
 50
0.0
 41
0.6
 51
0.0
  7
KANJI2
  0
TEXT
  8
0
  6
CONTINUOUS
 62
     4
 10
1908.918683801
 20
135.6133304
 30
1.38666656
 40
13.8666656
  1
ＤＥＳＣＲＩＰＴＩＯＮ
 50
0.0
 41
0.6
 51
0.0
  7
KANJI2
  0
TEXT
  8
0
  6
CONTINUOUS
 62
     4
 10
1756.385362201
 20
114.813332
 30
1.663999872
 40
16.63999872
  1
担当
 50
0.0
 41
0.6
 51
0.0
  7
KANJI3
  0
TEXT
  8
0
  6
CONTINUOUS
 62
     4
 10
1929.718682201
 20
114.813332
 30
1.663999872
 40
16.63999872
  1
記　　　　事
 50
0.0
 41
0.6
 51
0.0
  7
KANJI3
  0
LINE
  8
0
  6
CONTINUOUS
 62
     4
 10
1609.052040201
 20
149.479996
 11
1586.518708601
 21
114.813332
  0
TEXT
  8
0
  6
CONTINUOUS
 62
     4
 10
1666.252035801
 20
135.6133304
 30
1.38666656
 40
13.8666656
  1
ＤＡＴＥ
 50
0.0
 41
0.6
 51
0.0
  7
KANJI2
  0
TEXT
  8
0
  6
CONTINUOUS
 62
     4
 10
1676.652035001
 20
114.813332
 30
1.663999872
 40
16.63999872
  1
日付
 50
0.0
 41
0.6
 51
0.0
  7
KANJI3
  0
LINE
  8
0
  6
CONTINUOUS
 62
     4
 10
1586.518708601
 20
114.813332
 11
1631.585371801
 21
114.813332
  0
LINE
  8
0
  6
CONTINUOUS
 62
     4
 10
1609.052040201
 20
149.479996
 11
1631.585371801
 21
114.813332
  0
LINE
  8
0
  6
CONTINUOUS
 62
     4
 10
2380.385314201
 20
191.0799928
 11
3195.051918201
 21
191.0799928
  0
LINE
  8
0
  6
LTYPE1
 62
     4
 10
2962.785269401
 20
201.479992
 11
2962.785269401
 21
256.9466544
  0
LINE
  8
0
  6
LTYPE1
 62
     4
 10
2914.251939801
 20
201.479992
 11
2914.251939801
 21
256.9466544
  0
LINE
  8
0
  6
LTYPE1
 62
     4
 10
2865.718610201
 20
201.479992
 11
2865.718610201
 21
256.9466544
  0
LINE
  8
0
  6
LTYPE1
 62
     4
 10
2817.185280601
 20
201.479992
 11
2817.185280601
 21
256.9466544
  0
LINE
  8
0
  6
LTYPE1
 62
     4
 10
2768.651951001
 20
201.479992
 11
2768.651951001
 21
256.9466544
  0
LINE
  8
0
  6
LTYPE1
 62
     4
 10
2720.118621401
 20
201.479992
 11
2720.118621401
 21
256.9466544
  0
LINE
  8
0
  6
LTYPE1
 62
     4
 10
2671.585291801
 20
201.479992
 11
2671.585291801
 21
256.9466544
  0
LINE
  8
0
  6
LTYPE1
 62
     4
 10
2623.051962201
 20
201.479992
 11
2623.051962201
 21
256.9466544
  0
LINE
  8
0
  6
LTYPE1
 62
     4
 10
2623.051962201
 20
256.9466544
 11
2962.785269401
 21
256.9466544
  0
LINE
  8
0
  6
LTYPE1
 62
     4
 10
2623.051962201
 20
201.479992
 11
2962.785269401
 21
201.479992
  0
LINE
  8
0
  6
CONTINUOUS
 62
     4
 10
3077.185260601
 20
210.146658
 11
3028.651931001
 21
210.146658
  0
LINE
  8
0
  6
CONTINUOUS
 62
     4
 10
3028.651931001
 20
210.146658
 11
3052.918595801
 21
251.7466548
  0
LINE
  8
0
  6
CONTINUOUS
 62
     4
 10
3052.918595801
 20
251.7466548
 11
3077.185260601
 21
210.146658
  0
TEXT
  8
0
  6
CONTINUOUS
 62
     4
 10
3084.118593401
 20
28.146672
 30
6.9333328
 40
69.333328
  1
／
 50
0.0
 41
0.9
 51
0.0
  7
KANJI6
  0
TEXT
  8
0
  6
CONTINUOUS
 62
     4
 10
2740.918619801
 20
357.47998
 30
1.38666656
 40
13.8666656
  1
ＴＩＴＬＥ
 50
0.0
 41
0.8
 51
0.0
  7
KANJI4
  0
TEXT
  8
0
  6
CONTINUOUS
 62
     4
 10
2740.918619801
 20
333.2133152
 30
1.663999872
 40
16.63999872
  1
名称
 50
0.0
 41
0.8
 51
0.0
  7
KANJI5
  0
LINE
  8
0
  6
CONTINUOUS
 62
     6
 10
105.985251001
 20
97.48
 11
105.985251001
 21
2249.48
  0
LINE
  8
0
  6
CONTINUOUS
 62
     6
 10
105.985251001
 20
2249.48
 11
3201.985251001
 21
2249.48
  0
LINE
  8
0
  6
CONTINUOUS
 62
     6
 10
3201.985251001
 20
2249.48
 11
3201.985251001
 21
97.48
  0
LINE
  8
0
  6
CONTINUOUS
 62
     6
 10
3201.985251001
 20
97.48
 11
105.985251001
 21
97.48
  0
LINE
  8
0
  6
CONTINUOUS
 62
     6
 10
633.985139986
 20
105.479998318
 11
633.985139986
 21
217.479974769
  0
LINE
  8
0
  6
CONTINUOUS
 62
     6
 10
113.985249319
 20
217.479974769
 11
633.985139986
 21
217.479974769
  0
LINE
  8
0
  6
CONTINUOUS
 62
     6
 10
113.985249319
 20
105.479998318
 11
633.985139986
 21
105.479998318
  0
LINE
  8
0
  6
CONTINUOUS
 62
     6
 10
113.985249319
 20
105.479998318
 11
113.985249319
 21
217.479974769
  0
LINE
  8
0
  6
CONTINUOUS
 62
     6
 10
473.985173627
 20
105.479998318
 11
473.985173627
 21
217.479974769
  0
LINE
  8
0
  6
CONTINUOUS
 62
     6
 10
113.985249319
 20
161.479986544
 11
633.985139986
 21
161.479986544
  0
TEXT
  8
0
  6
CONTINUOUS
 62
     3
 10
129.985245955
 20
177.479983179
 30
2.399999495
 40
23.999994954
  1
ＰＬ
 50
0.0
 41
0.9
 51
0.0
  7
KANJI7
  0
LINE
  8
0
  6
CONTINUOUS
 62
     6
 10
1579.585375801
 20
159.8799952
 11
2127.318667001
 21
159.8799952
  0
LINE
  8
0
  6
CONTINUOUS
 62
     6
 10
1579.585375801
 20
104.4133328
 11
3195.051918201
 21
104.4133328
  0
TEXT
  8
0
  6
CONTINUOUS
 62
     6
 10
2387.318647001
 20
135.6133304
 30
0.0
 40
24.2666648
  1
ＵＮＩＴＥＣ　ＩＮＤＵＳＴＲＹ　ＣＯ．，ＬＴＤ．
 50
0.0
 41
0.42031746
 51
0.0
  7
KANJI8
  0
TEXT
  8
0
  6
CONTINUOUS
 62
     6
 10
2727.658620821
 20
126.59999776
 30
4.15999968
 40
41.5999968
  1
ユニテック工業株式会社
 50
0.0
 41
0.9
 51
0.0
  7
KANJI9
  0
LINE
  8
0
  6
CONTINUOUS
 62
     4
 10
2990.518600601
 20
230.9466564
 11
3004.385266201
 21
230.9466564
  0
TEXT
  8
0
  6
CONTINUOUS
 62
     2
 10
2865.985251001
 20
281.48
 30
20.0
 40
40.0
  1
外形寸法図
 50
0.0
 41
1.0
 51
0.0
  7
KANJI10
  0
TEXT
  8
0
  6
CONTINUOUS
 62
     2
 10
2817.985251001
 20
329.48
 30
5.714285714
 40
40.0
  1
マイティシリンダ
 50
0.0
 41
1.0
 51
0.0
  7
KANJI11
  0
TEXT
  8
0
  6
CONTINUOUS
 62
     3
 10
2216.651962201
 20
229.479992
 30
24.0
 40
28.0
  1
岡田
 50
0.0
 41
0.857142857
 51
0.0
  7
KANJI12
  0
LINE
  8
0
  6
CONTINUOUS
 62
     4
 10
14.918583801
 20
103.4133328
 11
98.118577401
 21
103.4133328
  0
LINE
  8
0
  6
CONTINUOUS
 62
     4
 10
14.918583801
 20
145.0133296
 11
98.118577401
 21
145.0133296
  0
LINE
  8
0
  6
CONTINUOUS
 62
     4
 10
14.918583801
 20
186.6133264
 11
98.118577401
 21
186.6133264
  0
LINE
  8
0
  6
CONTINUOUS
 62
     4
 10
14.918583801
 20
228.2133232
 11
98.118577401
 21
228.2133232
  0
LINE
  8
0
  6
CONTINUOUS
 62
     4
 10
14.918583801
 20
269.81332
 11
98.118577401
 21
269.81332
  0
LINE
  8
0
  6
CONTINUOUS
 62
     4
 10
14.918583801
 20
311.4133168
 11
98.118577401
 21
311.4133168
  0
LINE
  8
0
  6
CONTINUOUS
 62
     4
 10
14.918583801
 20
353.0133136
 11
98.118577401
 21
353.0133136
  0
LINE
  8
0
  6
CONTINUOUS
 62
     4
 10
14.918583801
 20
394.6133104
 11
98.118577401
 21
394.6133104
  0
LINE
  8
0
  6
CONTINUOUS
 62
     4
 10
14.918583801
 20
436.2133072
 11
98.118577401
 21
436.2133072
  0
LINE
  8
0
  6
CONTINUOUS
 62
     4
 10
14.918583801
 20
477.813304
 11
98.118577401
 21
477.813304
  0
LINE
  8
0
  6
CONTINUOUS
 62
     4
 10
98.118577401
 20
103.4133328
 11
98.118577401
 21
477.813304
  0
LINE
  8
0
  6
CONTINUOUS
 62
     4
 10
56.518580601
 20
103.4133328
 11
56.518580601
 21
436.2133072
  0
TEXT
  8
0
  6
CONTINUOUS
 62
     4
 10
29.131916041
 20
115.5466652
 30
2.07999984
 40
20.7999984
  1
計
 50
0.0
 41
0.75
 51
0.0
  7
KANJI13
  0
TEXT
  8
0
  6
CONTINUOUS
 62
     4
 10
29.131916041
 20
199.43999208
 30
2.07999984
 40
20.7999984
  1
設
 50
0.0
 41
0.75
 51
0.0
  7
KANJI13
  0
TEXT
  8
0
  6
CONTINUOUS
 62
     4
 10
29.131916041
 20
240.3466556
 30
2.07999984
 40
20.7999984
  1
管
 50
0.0
 41
0.75
 51
0.0
  7
KANJI13
  0
TEXT
  8
0
  6
CONTINUOUS
 62
     4
 10
29.131916041
 20
281.9466524
 30
2.07999984
 40
20.7999984
  1
製
 50
0.0
 41
0.75
 51
0.0
  7
KANJI13
  0
TEXT
  8
0
  6
CONTINUOUS
 62
     4
 10
29.131916041
 20
323.5466492
 30
2.07999984
 40
20.7999984
  1
資
 50
0.0
 41
0.75
 51
0.0
  7
KANJI13
  0
TEXT
  8
0
  6
CONTINUOUS
 62
     4
 10
29.131916041
 20
365.146646
 30
2.07999984
 40
20.7999984
  1
営
 50
0.0
 41
0.75
 51
0.0
  7
KANJI13
  0
TEXT
  8
0
  6
CONTINUOUS
 62
     4
 10
29.131916041
 20
406.7466428
 30
2.07999984
 40
20.7999984
  1
客
 50
0.0
 41
0.75
 51
0.0
  7
KANJI13
  0
TEXT
  8
0
  6
CONTINUOUS
 62
     4
 10
28.785249401
 20
450.0799728
 30
2.07999984
 40
20.7999984
  1
出　図
 50
0.0
 41
0.75
 51
0.0
  7
KANJI13
  0
LINE
  8
0
  6
CONTINUOUS
 62
     4
 10
14.918583801
 20
103.4133328
 11
14.918583801
 21
477.813304
  0
LINE
  8
0
  6
CONTINUOUS
 62
     6
 10
2128.318667001
 20
492.6799696
 11
3196.051918201
 21
492.6799696
  0
LINE
  8
0
  6
CONTINUOUS
 62
     6
 10
3195.051918201
 20
104.4133328
 11
3195.051918201
 21
548.146632
  0
LINE
  8
0
  6
CONTINUOUS
 62
     6
 10
2127.318667001
 20
548.146632
 11
3195.051918201
 21
548.146632
  0
LINE
  8
0
  6
CONTINUOUS
 62
     6
 10
2127.318667001
 20
104.4133328
 11
2127.318667001
 21
548.146632
  0
TEXT
  8
0
  6
CONTINUOUS
 62
     3
 10
2249.585251001
 20
113.48
 30
2.4
 40
36.0
  1
１／８
 50
0.0
 41
0.666666667
 51
0.0
  7
KANJI14
  0
LINE
  8
0
  6
CONTINUOUS
 62
     1
 10
2500.8
 20
2054.0
 11
2500.8
 21
1078.0
  0
TEXT
  8
0
  6
CONTINUOUS
 62
     2
 10
2600.8
 20
1995.6
 30
22.79952
 40
36.0
  1
マイティシリンダ仕様
 50
0.0
 41
0.9
 51
0.0
  7
KANJI15
  0
LINE
  8
0
  6
CONTINUOUS
 62
     2
 10
2500.8
 20
1190.0
 11
3200.8
 21
1190.0
  0
LINE
  8
0
  6
CONTINUOUS
 62
     2
 10
2500.8
 20
1638.0
 11
3200.8
 21
1638.0
  0
LINE
  8
0
  6
CONTINUOUS
 62
     2
 10
2500.8
 20
1582.0
 11
3200.8
 21
1582.0
  0
LINE
  8
0
  6
CONTINUOUS
 62
     2
 10
2500.8
 20
1526.0
 11
3200.8
 21
1526.0
  0
LINE
  8
0
  6
CONTINUOUS
 62
     2
 10
2500.8
 20
1918.0
 11
3200.8
 21
1918.0
  0
LINE
  8
0
  6
CONTINUOUS
 62
     2
 10
2500.8
 20
1862.0
 11
3200.8
 21
1862.0
  0
LINE
  8
0
  6
CONTINUOUS
 62
     2
 10
2500.8
 20
1806.0
 11
3200.8
 21
1806.0
  0
LINE
  8
0
  6
CONTINUOUS
 62
     2
 10
2500.8
 20
1750.0
 11
3200.8
 21
1750.0
  0
LINE
  8
0
  6
CONTINUOUS
 62
     2
 10
2500.8
 20
1694.0
 11
3200.8
 21
1694.0
  0
LINE
  8
0
  6
CONTINUOUS
 62
     2
 10
2500.8
 20
1974.0
 11
3200.8
 21
1974.0
  0
TEXT
  8
0
  6
CONTINUOUS
 62
     2
 10
2560.8
 20
1932.4
 30
240.594285714
 40
30.4
  1
形式
 50
0.0
 41
0.9
 51
0.0
  7
KANJI16
  0
TEXT
  8
0
  6
CONTINUOUS
 62
     2
 10
2560.8
 20
1876.4
 30
240.594285714
 40
30.4
  1
推力
 50
0.0
 41
0.9
 51
0.0
  7
KANJI16
  0
TEXT
  8
0
  6
CONTINUOUS
 62
     2
 10
2560.8
 20
1820.4
 30
39.628571429
 40
30.4
  1
ストローク
 50
0.0
 41
0.9
 51
0.0
  7
KANJI17
  0
TEXT
  8
0
  6
CONTINUOUS
 62
     2
 10
2560.8
 20
1764.4
 30
61.957805714
 40
30.4
  1
公称速度
 50
0.0
 41
0.9
 51
0.0
  7
KANJI18
  0
TEXT
  8
0
  6
CONTINUOUS
 62
     2
 10
3151.6
 20
1823.6
 30
0.1792
 40
22.4
  1
ｍｍ
 50
0.0
 41
0.8
 51
0.0
  7
KANJI19
  0
TEXT
  8
0
  6
CONTINUOUS
 62
     2
 10
3091.6
 20
1770.0
 30
0.1792
 40
22.4
  1
ｍｍ／ｓｅｃ
 50
0.0
 41
0.8
 51
0.0
  7
KANJI19
  0
LINE
  8
0
  6
CONTINUOUS
 62
     2
 10
2500.8
 20
1470.0
 11
3200.8
 21
1470.0
  0
LINE
  8
0
  6
CONTINUOUS
 62
     2
 10
2500.8
 20
1414.0
 11
3200.8
 21
1414.0
  0
LINE
  8
0
  6
CONTINUOUS
 62
     2
 10
2500.8
 20
1358.0
 11
3200.8
 21
1358.0
  0
LINE
  8
0
  6
CONTINUOUS
 62
     2
 10
2500.8
 20
1302.0
 11
3200.8
 21
1302.0
  0
LINE
  8
0
  6
CONTINUOUS
 62
     2
 10
2500.8
 20
1246.0
 11
3200.8
 21
1246.0
  0
TEXT
  8
0
  6
CONTINUOUS
 62
     2
 10
2536.8
 20
1484.4
 30
2.605714286
 40
30.4
  1
ピストンロッド回転トルク
 50
0.0
 41
0.9
 51
0.0
  7
KANJI20
  0
TEXT
  8
0
  6
CONTINUOUS
 62
     2
 10
2560.8
 20
1428.4
 30
240.594285714
 40
30.4
  1
構造
 50
0.0
 41
0.9
 51
0.0
  7
KANJI16
  0
TEXT
  8
0
  6
CONTINUOUS
 62
     2
 10
3138.8
 20
1488.4
 30
0.1792
 40
22.4
  1
ｋｇｍ
 50
0.0
 41
0.8
 51
0.0
  7
KANJI19
  0
TEXT
  8
0
  6
CONTINUOUS
 62
     2
 10
2560.8
 20
1708.4
 30
106.617142857
 40
30.4
  1
減速比
 50
0.0
 41
0.9
 51
0.0
  7
KANJI21
  0
TEXT
  8
0
  6
CONTINUOUS
 62
     2
 10
2560.8
 20
1652.4
 30
6.8
 40
30.4
  1
進み量／入力１回転
 50
0.0
 41
0.9
 51
0.0
  7
KANJI22
  0
TEXT
  8
0
  6
CONTINUOUS
 62
     2
 10
2560.8
 20
1595.6
 30
240.594285714
 40
30.4
  1
効率
 50
0.0
 41
0.9
 51
0.0
  7
KANJI16
  0
TEXT
  8
0
  6
CONTINUOUS
 62
     2
 10
2560.8
 20
1541.2
 30
11.6
 40
30.4
  1
使用時入力トルク
 50
0.0
 41
0.9
 51
0.0
  7
KANJI23
  0
TEXT
  8
0
  6
CONTINUOUS
 62
     2
 10
2560.8
 20
1372.4
 30
61.96
 40
30.4
  1
ギヤ方式
 50
0.0
 41
0.9
 51
0.0
  7
KANJI24
  0
LINE
  8
0
  6
CONTINUOUS
 62
     2
 10
2500.8
 20
1134.0
 11
3200.8
 21
1134.0
  0
LINE
  8
0
  6
CONTINUOUS
 62
     2
 10
2900.8
 20
1974.0
 11
2900.8
 21
1078.0
  0
TEXT
  8
0
  6
CONTINUOUS
 62
     2
 10
2560.8
 20
1204.4
 30
106.617142857
 40
30.4
  1
塗装色
 50
0.0
 41
0.9
 51
0.0
  7
KANJI21
  0
TEXT
  8
0
  6
CONTINUOUS
 62
     2
 10
2560.8
 20
1148.4
 30
106.617142857
 40
30.4
  1
付属品
 50
0.0
 41
0.9
 51
0.0
  7
KANJI21
  0
TEXT
  8
0
  6
CONTINUOUS
 62
     2
 10
2560.8
 20
1092.4
 30
240.594285714
 40
30.4
  1
台数
 50
0.0
 41
0.9
 51
0.0
  7
KANJI16
  0
TEXT
  8
0
  6
CONTINUOUS
 62
     2
 10
2560.8
 20
1260.4
 30
240.594285714
 40
30.4
  1
潤滑
 50
0.0
 41
0.9
 51
0.0
  7
KANJI16
  0
TEXT
  8
0
  6
CONTINUOUS
 62
     2
 10
2560.8
 20
1316.4
 30
17.4136
 40
30.4
  1
スクリュー方式
 50
0.0
 41
0.9
 51
0.0
  7
KANJI25
  0
TEXT
  8
0
  6
CONTINUOUS
 62
     2
 10
3013.6
 20
1709.2
 30
2.4
 40
24.0
  1
２　：　１
 50
0.0
 41
0.9
 51
0.0
  7
KANJI26
  0
TEXT
  8
0
  6
CONTINUOUS
 62
     2
 10
3151.6
 20
1655.6
 30
0.1792
 40
22.4
  1
ｍｍ
 50
0.0
 41
0.8
 51
0.0
  7
KANJI19
  0
TEXT
  8
0
  6
CONTINUOUS
 62
     2
 10
3138.8
 20
1544.4
 30
0.1792
 40
22.4
  1
ｋｇｍ
 50
0.0
 41
0.8
 51
0.0
  7
KANJI19
  0
TEXT
  8
0
  6
CONTINUOUS
 62
     2
 10
2924.0
 20
1598.0
 30
16.0
 40
24.0
  1
約
 50
0.0
 41
0.9
 51
0.0
  7
KANJI27
  0
TEXT
  8
0
  6
CONTINUOUS
 62
     2
 10
2924.0
 20
1542.0
 30
16.0
 40
24.0
  1
約
 50
0.0
 41
0.9
 51
0.0
  7
KANJI27
  0
TEXT
  8
0
  6
CONTINUOUS
 62
     2
 10
2924.0
 20
1486.0
 30
16.0
 40
24.0
  1
約
 50
0.0
 41
0.9
 51
0.0
  7
KANJI27
  0
TEXT
  8
0
  6
CONTINUOUS
 62
     2
 10
3160.8
 20
1597.2
 30
16.0
 40
24.0
  1
％
 50
0.0
 41
0.9
 51
0.0
  7
KANJI27
  0
TEXT
  8
0
  6
CONTINUOUS
 62
     2
 10
2960.0
 20
1376.4
 30
16.0
 40
24.0
  1
ベベルギヤ
 50
0.0
 41
0.9
 51
0.0
  7
KANJI27
  0
TEXT
  8
0
  6
CONTINUOUS
 62
     2
 10
2960.0
 20
1318.8
 30
16.0
 40
24.0
  1
ボールネジ
 50
0.0
 41
0.9
 51
0.0
  7
KANJI27
  0
TEXT
  8
0
  6
CONTINUOUS
 62
     2
 10
2959.2
 20
1262.8
 30
16.0
 40
24.0
  1
グリース方式
 50
0.0
 41
0.9
 51
0.0
  7
KANJI27
  0
TEXT
  8
0
  6
CONTINUOUS
 62
     2
 10
3042.4
 20
1598.0
 30
16.0
 40
24.0
  1
８５
 50
0.0
 41
0.9
 51
0.0
  7
KANJI27
  0
TEXT
  8
0
  6
CONTINUOUS
 62
     2
 10
2928.6
 20
1764.2
 30
2.4
 40
24.0
  1
ｍａｘ．１５０
 50
0.0
 41
0.9
 51
0.0
  7
KANJI26
  0
TEXT
  8
0
  6
CONTINUOUS
 62
     2
 10
3049.6
 20
1654.0
 30
16.0
 40
24.0
  1
８　
 50
0.0
 41
0.9
 51
0.0
  7
KANJI27
  0
LINE
  8
0
  6
CONTINUOUS
 62
     1
 10
2500.8
 20
2054.0
 11
3200.8
 21
2054.0
  0
LINE
  8
0
  6
CONTINUOUS
 62
     1
 10
3200.8
 20
2054.0
 11
3200.8
 21
1078.0
  0
LINE
  8
0
  6
CONTINUOUS
 62
     1
 10
2500.8
 20
1078.0
 11
3200.8
 21
1078.0
  0
TEXT
  8
0
  6
CONTINUOUS
 62
     2
 10
2910.154
 20
1876.4
 30
2.4
 40
24.0
  1
　９８ＫＮ（１０ｔｏｎ）
 50
0.0
 41
0.9
 51
0.0
  7
KANJI26
  0
TEXT
  8
0
  6
CONTINUOUS
 62
     2
 10
3022.133333333
 20
1542.666666667
 30
0.0
 40
24.0
  1
１４．５
 50
0.0
 41
0.9
 51
0.0
  7
KANJI28
  0
TEXT
  8
0
  6
CONTINUOUS
 62
     2
 10
3022.6
 20
1484.2
 30
2.4
 40
24.0
  1
２８
 50
0.0
 41
0.9
 51
0.0
  7
KANJI26
  0
TEXT
  8
0
  6
CONTINUOUS
 62
     2
 10
2960.0
 20
1429.2
 30
20.5
 40
28.0
  1
全閉屋外形
 50
0.0
 41
0.9
 51
0.0
  7
KANJI29
  0
LINE
  8
0
  6
LTYPE2
 62
     2
 10
1069.3
 20
2013.8
 11
871.3
 21
2013.8
  0
LINE
  8
0
  6
CONTINUOUS
 62
     1
 10
949.3
 20
2093.8
 11
949.3
 21
2061.8
  0
LINE
  8
0
  6
CONTINUOUS
 62
     1
 10
949.3
 20
2093.8
 11
989.3
 21
2093.8
  0
LINE
  8
0
  6
CONTINUOUS
 62
     1
 10
989.3
 20
2093.8
 11
989.3
 21
2061.8
  0
LINE
  8
0
  6
CONTINUOUS
 62
     1
 10
949.3
 20
2061.8
 11
989.3
 21
2061.8
  0
ARC
  8
0
  6
CONTINUOUS
 62
     1
 10
969.3
 20
2013.8
 40
68.0
 50
108.154845237
 51
0.0
  0
ARC
  8
0
  6
CONTINUOUS
 62
     1
 10
969.3
 20
2013.8
 40
68.0
 50
0.0
 51
72.38540425
  0
ARC
  8
0
  6
CONTINUOUS
 62
     2
 10
969.3
 20
2013.8
 40
68.0
 50
72.895364823
 51
90.00002567
  0
LINE
  8
0
  6
CONTINUOUS
 62
     2
 10
949.3
 20
2101.8
 11
949.3
 21
2134.792307237
  0
LINE
  8
0
  6
CONTINUOUS
 62
     2
 10
949.3
 20
2122.792307237
 11
968.618516526
 21
2117.615926335
  0
LINE
  8
0
  6
CONTINUOUS
 62
     2
 10
949.3
 20
2122.792307237
 11
968.618516526
 21
2127.968688139
  0
LINE
  8
0
  6
CONTINUOUS
 62
     2
 10
949.3
 20
2122.792307237
 11
989.3
 21
2122.792307237
  0
LINE
  8
0
  6
CONTINUOUS
 62
     2
 10
989.3
 20
2122.792307237
 11
969.981483474
 21
2127.968688139
  0
LINE
  8
0
  6
CONTINUOUS
 62
     2
 10
989.3
 20
2122.792307237
 11
969.981483474
 21
2117.615926335
  0
LINE
  8
0
  6
CONTINUOUS
 62
     2
 10
989.3
 20
2101.8
 11
989.3
 21
2134.792307237
  0
LINE
  8
0
  6
LTYPE2
 62
     2
 10
969.3
 20
2107.8
 11
969.3
 21
1907.8
  0
LINE
  8
0
  6
CONTINUOUS
 62
     2
 10
997.3
 20
2061.8
 11
1065.3
 21
2061.8
  0
LINE
  8
0
  6
CONTINUOUS
 62
     2
 10
1053.3
 20
2061.8
 11
1048.123619098
 21
2042.481483474
  0
LINE
  8
0
  6
CONTINUOUS
 62
     2
 10
1053.3
 20
2061.8
 11
1058.476380902
 21
2042.481483474
  0
LINE
  8
0
  6
CONTINUOUS
 62
     2
 10
1053.3
 20
2031.8
 11
1053.3
 21
2061.8
  0
LINE
  8
0
  6
CONTINUOUS
 62
     2
 10
1053.3
 20
2061.8
 11
1053.3
 21
2081.8
  0
LINE
  8
0
  6
CONTINUOUS
 62
     2
 10
1053.3
 20
2081.8
 11
1053.3
 21
2185.24
  0
LINE
  8
0
  6
CONTINUOUS
 62
     2
 10
1053.3
 20
2081.8
 11
1058.476380902
 21
2101.118516526
  0
LINE
  8
0
  6
CONTINUOUS
 62
     2
 10
1053.3
 20
2081.8
 11
1048.123619098
 21
2101.118516526
  0
LINE
  8
0
  6
CONTINUOUS
 62
     2
 10
977.3
 20
2081.8
 11
1065.3
 21
2081.8
  0
TEXT
  8
0
  6
CONTINUOUS
 62
     3
 10
1049.3
 20
2111.8
 30
0.0
 40
24.0
  1
５
 50
90.0
 41
0.9
 51
0.0
  7
KANJI28
  0
TEXT
  8
0
  6
CONTINUOUS
 62
     3
 10
1049.3
 20
2133.4
 30
0.0
 40
14.4
  1
－０
 50
90.0
 41
0.9
 51
0.0
  7
KANJI30
  0
TEXT
  8
0
  6
CONTINUOUS
 62
     3
 10
1034.9
 20
2133.4
 30
0.0
 40
14.4
  1
＋０．２
 50
90.0
 41
0.9
 51
0.0
  7
KANJI30
  0
LINE
  8
0
  6
CONTINUOUS
 62
     2
 10
941.3
 20
2093.8
 11
867.3
 21
2093.8
  0
LINE
  8
0
  6
CONTINUOUS
 62
     2
 10
879.3
 20
2093.8
 11
884.476380902
 21
2113.118516526
  0
LINE
  8
0
  6
CONTINUOUS
 62
     2
 10
879.3
 20
2093.8
 11
874.123619098
 21
2113.118516526
  0
LINE
  8
0
  6
CONTINUOUS
 62
     2
 10
879.3
 20
2145.4
 11
879.3
 21
2093.8
  0
LINE
  8
0
  6
CONTINUOUS
 62
     2
 10
879.3
 20
2093.8
 11
879.3
 21
2061.8
  0
LINE
  8
0
  6
CONTINUOUS
 62
     2
 10
879.3
 20
2061.8
 11
879.3
 21
2031.8
  0
LINE
  8
0
  6
CONTINUOUS
 62
     2
 10
879.3
 20
2061.8
 11
874.123619098
 21
2042.481483474
  0
LINE
  8
0
  6
CONTINUOUS
 62
     2
 10
879.3
 20
2061.8
 11
884.476380902
 21
2042.481483474
  0
LINE
  8
0
  6
CONTINUOUS
 62
     2
 10
941.3
 20
2061.8
 11
867.3
 21
2061.8
  0
TEXT
  8
0
  6
CONTINUOUS
 62
     3
 10
875.3
 20
2123.8
 30
0.0
 40
24.0
  1
８
 50
90.0
 41
0.9
 51
0.0
  7
KANJI28
  0
TEXT
  8
0
  6
CONTINUOUS
 62
     3
 10
946.9
 20
2136.492307237
 30
0.0
 40
24.0
  1
１０
 50
0.0
 41
0.9
 51
0.0
  7
KANJI28
  0
TEXT
  8
0
  6
CONTINUOUS
 62
     2
 10
854.75
 20
1805.85
 30
0.0
 40
28.0
  1
新ＪＩＳキー付
 50
0.0
 41
0.857142857
 51
0.0
  7
KANJI31
  0
LINE
  8
0
  6
CONTINUOUS
 62
     2
 10
775.5
 20
1838.1
 11
1133.5
 21
1838.1
  0
TEXT
  8
0
  6
CONTINUOUS
 62
     2
 10
787.625
 20
1849.725
 30
0.0
 40
36.0
  1
入力シャフト（１／２）
 50
0.0
 41
0.888888889
 51
0.0
  7
KANJI32
  0
LINE
  8
0
  6
CONTINUOUS
 62
     1
 10
616.251917668
 20
750.013333333
 11
1856.251917668
 21
750.013333333
  0
LINE
  8
0
  6
CONTINUOUS
 62
     1
 10
616.251917668
 20
694.013333333
 11
1856.251917668
 21
694.013333333
  0
TEXT
  8
0
  6
CONTINUOUS
 62
     2
 10
917.051917668
 20
710.013333333
 30
2.4
 40
24.0
  1
ストローク
 50
0.0
 41
0.9
 51
0.0
  7
KANJI33
  0
TEXT
  8
0
  6
CONTINUOUS
 62
     2
 10
1070.651917668
 20
708.413333333
 30
0.0
 40
24.0
  1
ｍｉｎ　
 50
0.0
 41
0.9
 51
0.0
  7
KANJI28
  0
TEXT
  8
0
  6
CONTINUOUS
 62
     2
 10
1230.651917668
 20
708.413333333
 30
0.0
 40
24.0
  1
ｍｉｎ　
 50
0.0
 41
0.9
 51
0.0
  7
KANJI28
  0
TEXT
  8
0
  6
CONTINUOUS
 62
     2
 10
1550.651917668
 20
708.413333333
 30
0.0
 40
24.0
  1
ｍｉｎ　
 50
0.0
 41
0.9
 51
0.0
  7
KANJI28
  0
TEXT
  8
0
  6
CONTINUOUS
 62
     2
 10
1799.251917668
 20
711.813333333
 30
0.0
 40
19.2
  1
（ｋｇ）
 50
0.0
 41
0.777777778
 51
0.0
  7
KANJI34
  0
TEXT
  8
0
  6
CONTINUOUS
 62
     2
 10
1703.251917668
 20
709.013333333
 30
2.56
 40
25.6
  1
概算重量
 50
0.0
 41
0.9
 51
0.0
  7
KANJI35
  0
TEXT
  8
0
  6
CONTINUOUS
 62
     2
 10
672.251917668
 20
710.013333333
 30
2.56
 40
25.6
  1
形
 50
0.0
 41
0.9
 51
0.0
  7
KANJI35
  0
TEXT
  8
0
  6
CONTINUOUS
 62
     2
 10
828.251917668
 20
710.013333333
 30
2.56
 40
25.6
  1
式
 50
0.0
 41
0.9
 51
0.0
  7
KANJI35
  0
TEXT
  8
0
  6
CONTINUOUS
 62
     2
 10
1152.251917668
 20
710.013333333
 30
2.8
 40
28.0
  1
ＡＬ
 50
0.0
 41
0.9
 51
0.0
  7
KANJI36
  0
TEXT
  8
0
  6
CONTINUOUS
 62
     2
 10
1312.251917668
 20
710.013333333
 30
2.8
 40
28.0
  1
Ｌ
 50
0.0
 41
0.9
 51
0.0
  7
KANJI36
  0
TEXT
  8
0
  6
CONTINUOUS
 62
     2
 10
1448.251917668
 20
710.013333333
 30
2.8
 40
28.0
  1
Ｃ
 50
0.0
 41
0.9
 51
0.0
  7
KANJI36
  0
TEXT
  8
0
  6
CONTINUOUS
 62
     2
 10
1632.251917668
 20
710.013333333
 30
2.8
 40
28.0
  1
Ｐ
 50
0.0
 41
0.9
 51
0.0
  7
KANJI36
  0
TEXT
  8
0
  6
CONTINUOUS
 62
     2
 10
944.251917668
 20
651.413333333
 30
2.4
 40
24.0
  1
３００
 50
0.0
 41
0.9
 51
0.0
  7
KANJI33
  0
TEXT
  8
0
  6
CONTINUOUS
 62
     2
 10
944.251917668
 20
595.413333333
 30
2.4
 40
24.0
  1
５００
 50
0.0
 41
0.9
 51
0.0
  7
KANJI33
  0
TEXT
  8
0
  6
CONTINUOUS
 62
     2
 10
944.251917668
 20
539.413333333
 30
2.4
 40
24.0
  1
７００
 50
0.0
 41
0.9
 51
0.0
  7
KANJI33
  0
TEXT
  8
0
  6
CONTINUOUS
 62
     2
 10
921.051917668
 20
483.413333333
 30
2.4
 40
24.0
  1
１０００
 50
0.0
 41
0.9
 51
0.0
  7
KANJI33
  0
TEXT
  8
0
  6
CONTINUOUS
 62
     2
 10
921.051917668
 20
427.413333333
 30
2.4
 40
24.0
  1
１５００
 50
0.0
 41
0.9
 51
0.0
  7
KANJI33
  0
TEXT
  8
0
  6
CONTINUOUS
 62
     2
 10
921.051917668
 20
371.413333333
 30
2.4
 40
24.0
  1
２０００
 50
0.0
 41
0.9
 51
0.0
  7
KANJI33
  0
TEXT
  8
0
  6
CONTINUOUS
 62
     2
 10
1735.851917668
 20
654.413333333
 30
2.4
 40
24.0
  1
１７５
 50
0.0
 41
0.9
 51
0.0
  7
KANJI33
  0
TEXT
  8
0
  6
CONTINUOUS
 62
     2
 10
1735.851917668
 20
598.413333333
 30
2.4
 40
24.0
  1
２０５
 50
0.0
 41
0.9
 51
0.0
  7
KANJI33
  0
TEXT
  8
0
  6
CONTINUOUS
 62
     2
 10
1735.851917668
 20
542.413333333
 30
2.4
 40
24.0
  1
２３５
 50
0.0
 41
0.9
 51
0.0
  7
KANJI33
  0
TEXT
  8
0
  6
CONTINUOUS
 62
     2
 10
1735.851917668
 20
486.413333333
 30
2.4
 40
24.0
  1
２７５
 50
0.0
 41
0.9
 51
0.0
  7
KANJI33
  0
TEXT
  8
0
  6
CONTINUOUS
 62
     2
 10
1735.851917668
 20
430.413333333
 30
2.4
 40
24.0
  1
３４５
 50
0.0
 41
0.9
 51
0.0
  7
KANJI33
  0
TEXT
  8
0
  6
CONTINUOUS
 62
     2
 10
1735.851917668
 20
374.413333333
 30
2.4
 40
24.0
  1
４２０
 50
0.0
 41
0.9
 51
0.0
  7
KANJI33
  0
LINE
  8
0
  6
CONTINUOUS
 62
     1
 10
616.251917668
 20
302.013333333
 11
1856.251917668
 21
302.013333333
  0
LINE
  8
0
  6
CONTINUOUS
 62
     2
 10
616.251917668
 20
358.013333333
 11
1856.251917668
 21
358.013333333
  0
LINE
  8
0
  6
CONTINUOUS
 62
     1
 10
616.251917668
 20
750.013333333
 11
616.251917668
 21
302.013333333
  0
LINE
  8
0
  6
CONTINUOUS
 62
     1
 10
896.251917668
 20
750.013333333
 11
896.251917668
 21
302.013333333
  0
LINE
  8
0
  6
CONTINUOUS
 62
     2
 10
1056.251917668
 20
750.013333333
 11
1056.251917668
 21
302.013333333
  0
LINE
  8
0
  6
CONTINUOUS
 62
     2
 10
1216.251917668
 20
750.013333333
 11
1216.251917668
 21
302.013333333
  0
LINE
  8
0
  6
CONTINUOUS
 62
     2
 10
1376.251917668
 20
750.013333333
 11
1376.251917668
 21
302.013333333
  0
LINE
  8
0
  6
CONTINUOUS
 62
     2
 10
1536.251917668
 20
750.013333333
 11
1536.251917668
 21
302.013333333
  0
LINE
  8
0
  6
CONTINUOUS
 62
     2
 10
1696.251917668
 20
750.013333333
 11
1696.251917668
 21
302.013333333
  0
LINE
  8
0
  6
CONTINUOUS
 62
     1
 10
1856.251917668
 20
750.013333333
 11
1856.251917668
 21
302.013333333
  0
LINE
  8
0
  6
CONTINUOUS
 62
     2
 10
616.251917668
 20
414.013333333
 11
1856.251917668
 21
414.013333333
  0
LINE
  8
0
  6
CONTINUOUS
 62
     2
 10
616.251917668
 20
638.013333333
 11
1856.251917668
 21
638.013333333
  0
LINE
  8
0
  6
CONTINUOUS
 62
     2
 10
616.251917668
 20
582.013333333
 11
1856.251917668
 21
582.013333333
  0
LINE
  8
0
  6
CONTINUOUS
 62
     2
 10
616.251917668
 20
526.013333333
 11
1856.251917668
 21
526.013333333
  0
LINE
  8
0
  6
CONTINUOUS
 62
     2
 10
616.251917668
 20
470.013333333
 11
1856.251917668
 21
470.013333333
  0
LINE
  8
0
  6
CONTINUOUS
 62
     1
 10
402.49
 20
1566.01
 11
447.49
 21
1566.01
  0
LINE
  8
0
  6
CONTINUOUS
 62
     2
 10
402.49
 20
1566.01
 11
290.29
 21
1566.01
  0
LINE
  8
0
  6
CONTINUOUS
 62
     2
 10
295.29
 20
1524.01
 11
292.054761936
 21
1511.935927171
  0
LINE
  8
0
  6
CONTINUOUS
 62
     2
 10
295.29
 20
1524.01
 11
298.525238064
 21
1511.935927171
  0
LINE
  8
0
  6
CONTINUOUS
 62
     2
 10
373.49
 20
1524.01
 11
290.29
 21
1524.01
  0
LINE
  8
0
  6
CONTINUOUS
 62
     2
 10
295.29
 20
1524.01
 11
292.054761936
 21
1536.084072829
  0
LINE
  8
0
  6
CONTINUOUS
 62
     2
 10
295.29
 20
1524.01
 11
298.525238064
 21
1536.084072829
  0
LINE
  8
0
  6
CONTINUOUS
 62
     2
 10
295.29
 20
1566.01
 11
295.29
 21
1524.01
  0
LINE
  8
0
  6
CONTINUOUS
 62
     2
 10
295.29
 20
1224.01
 11
292.054761936
 21
1211.935927171
  0
LINE
  8
0
  6
CONTINUOUS
 62
     2
 10
295.29
 20
1224.01
 11
298.525238064
 21
1211.935927171
  0
LINE
  8
0
  6
CONTINUOUS
 62
     2
 10
295.29
 20
1224.01
 11
298.525238064
 21
1236.084072829
  0
LINE
  8
0
  6
CONTINUOUS
 62
     2
 10
295.29
 20
1224.01
 11
292.054761936
 21
1236.084072829
  0
LINE
  8
0
  6
CONTINUOUS
 62
     2
 10
371.69
 20
1224.01
 11
290.29
 21
1224.01
  0
LINE
  8
0
  6
CONTINUOUS
 62
     2
 10
295.29
 20
1224.01
 11
295.29
 21
1524.01
  0
LINE
  8
0
  6
CONTINUOUS
 62
     2
 10
402.49
 20
1182.01
 11
290.29
 21
1182.01
  0
LINE
  8
0
  6
CONTINUOUS
 62
     2
 10
295.29
 20
1182.01
 11
298.525238064
 21
1194.084072829
  0
LINE
  8
0
  6
CONTINUOUS
 62
     2
 10
295.29
 20
1182.01
 11
292.054761936
 21
1194.084072829
  0
LINE
  8
7
  6
CONTINUOUS
 62
     2
 10
295.29
 20
1182.01
 11
298.525238064
 21
1194.084072829
  0
LINE
  8
7
  6
CONTINUOUS
 62
     2
 10
295.29
 20
1182.01
 11
292.054761936
 21
1194.084072829
  0
LINE
  8
0
  6
CONTINUOUS
 62
     2
 10
295.29
 20
1182.01
 11
295.29
 21
1224.01
  0
LINE
  8
0
  6
CONTINUOUS
 62
     1
 10
492.49
 20
1566.01
 11
402.49
 21
1566.01
  0
LINE
  8
0
  6
CONTINUOUS
 62
     1
 10
492.49
 20
1566.01
 11
492.49
 21
1524.01
  0
LINE
  8
0
  6
CONTINUOUS
 62
     1
 10
402.49
 20
1566.01
 11
402.49
 21
1524.01
  0
LINE
  8
0
  6
CONTINUOUS
 62
     2
 10
447.49
 20
1053.41
 11
466.808516526
 21
1048.233619098
  0
LINE
  8
0
  6
CONTINUOUS
 62
     2
 10
447.49
 20
1053.41
 11
466.808516526
 21
1058.586380902
  0
LINE
  8
0
  6
CONTINUOUS
 62
     2
 10
447.49
 20
1081.91
 11
447.49
 21
1041.41
  0
LINE
  8
0
  6
CONTINUOUS
 62
     2
 10
447.49
 20
991.21
 11
466.808516526
 21
986.033619098
  0
LINE
  8
0
  6
CONTINUOUS
 62
     2
 10
447.49
 20
991.21
 11
466.808516526
 21
996.386380902
  0
LINE
  8
0
  6
CONTINUOUS
 62
     2
 10
447.49
 20
1070.21
 11
447.49
 21
979.21
  0
LINE
  8
0
  6
CONTINUOUS
 62
     1
 10
347.49
 20
1454.013066274
 11
347.49
 21
1444.213066274
  0
LINE
  8
0
  6
CONTINUOUS
 62
     1
 10
347.49
 20
1454.013066274
 11
347.49
 21
1463.813066274
  0
LINE
  8
0
  6
CONTINUOUS
 62
     1
 10
347.49
 20
1252.01
 11
347.49
 21
1496.01
  0
LINE
  8
0
  6
CONTINUOUS
 62
     1
 10
492.49
 20
1182.01
 11
402.49
 21
1182.01
  0
LINE
  8
0
  6
CONTINUOUS
 62
     1
 10
492.49
 20
1224.01
 11
492.49
 21
1182.01
  0
LINE
  8
0
  6
CONTINUOUS
 62
     1
 10
402.49
 20
1224.01
 11
402.49
 21
1182.01
  0
LINE
  8
0
  6
CONTINUOUS
 62
     1
 10
521.49
 20
1224.01
 11
447.69
 21
1224.01
  0
LINE
  8
0
  6
CONTINUOUS
 62
     1
 10
373.49
 20
1224.01
 11
447.49
 21
1224.01
  0
LINE
  8
0
  6
CONTINUOUS
 62
     1
 10
521.49
 20
1244.01
 11
521.49
 21
1224.01
  0
LINE
  8
0
  6
CONTINUOUS
 62
     1
 10
373.49
 20
1244.01
 11
373.49
 21
1224.01
  0
LINE
  8
0
  6
CONTINUOUS
 62
     1
 10
521.49
 20
1524.01
 11
447.69
 21
1524.01
  0
LINE
  8
0
  6
CONTINUOUS
 62
     1
 10
373.49
 20
1524.01
 11
447.49
 21
1524.01
  0
LINE
  8
0
  6
CONTINUOUS
 62
     1
 10
521.49
 20
1524.01
 11
521.49
 21
1504.01
  0
LINE
  8
0
  6
CONTINUOUS
 62
     1
 10
373.49
 20
1524.01
 11
373.49
 21
1504.01
  0
LINE
  8
0
  6
CONTINUOUS
 62
     1
 10
357.49
 20
1496.26
 11
357.49
 21
1251.76
  0
LINE
  8
0
  6
CONTINUOUS
 62
     1
 10
347.49
 20
1252.01
 11
357.49
 21
1252.01
  0
LINE
  8
0
  6
CONTINUOUS
 62
     2
 10
447.49
 20
999.21
 11
447.49
 21
979.21
  0
LINE
  8
0
  6
CONTINUOUS
 62
     2
 10
447.49
 20
991.21
 11
428.171483474
 21
996.386380902
  0
LINE
  8
0
  6
CONTINUOUS
 62
     2
 10
447.49
 20
991.21
 11
428.171483474
 21
986.033619098
  0
LINE
  8
0
  6
CONTINUOUS
 62
     2
 10
447.49
 20
991.21
 11
357.49
 21
991.21
  0
LINE
  8
0
  6
CONTINUOUS
 62
     2
 10
357.49
 20
991.21
 11
376.808516526
 21
986.033619098
  0
LINE
  8
0
  6
CONTINUOUS
 62
     2
 10
357.49
 20
991.21
 11
376.808516526
 21
996.386380902
  0
LINE
  8
0
  6
CONTINUOUS
 62
     2
 10
357.49
 20
1243.76
 11
357.49
 21
979.21
  0
LINE
  8
0
  6
CONTINUOUS
 62
     2
 10
357.49
 20
996.71
 11
357.49
 21
979.21
  0
LINE
  8
0
  6
CONTINUOUS
 62
     2
 10
357.49
 20
991.21
 11
376.808516526
 21
986.033619098
  0
LINE
  8
0
  6
CONTINUOUS
 62
     2
 10
357.49
 20
991.21
 11
376.808516526
 21
996.386380902
  0
LINE
  8
0
  6
CONTINUOUS
 62
     2
 10
387.49
 20
991.21
 11
357.49
 21
991.21
  0
LINE
  8
0
  6
CONTINUOUS
 62
     2
 10
357.49
 20
991.21
 11
347.49
 21
991.21
  0
LINE
  8
0
  6
CONTINUOUS
 62
     2
 10
347.49
 20
991.21
 11
274.29
 21
991.21
  0
LINE
  8
0
  6
CONTINUOUS
 62
     2
 10
347.49
 20
991.21
 11
328.171483474
 21
996.386380902
  0
LINE
  8
0
  6
CONTINUOUS
 62
     2
 10
347.49
 20
991.21
 11
328.171483474
 21
986.033619098
  0
LINE
  8
0
  6
CONTINUOUS
 62
     2
 10
347.49
 20
1244.01
 11
347.49
 21
979.21
  0
LINE
  8
0
  6
CONTINUOUS
 62
     2
 10
347.49
 20
925.51
 11
366.808516526
 21
920.333619098
  0
LINE
  8
0
  6
CONTINUOUS
 62
     2
 10
347.49
 20
925.51
 11
366.808516526
 21
930.686380902
  0
LINE
  8
0
  6
CONTINUOUS
 62
     2
 10
347.49
 20
1010.51
 11
347.49
 21
913.51
  0
LINE
  8
0
  6
CONTINUOUS
 62
     2
 10
447.49
 20
1318.43
 11
447.49
 21
1346.94
  0
LINE
  8
0
  6
LTYPE1
 62
     2
 10
387.49
 20
1533.2
 11
387.49
 21
1489.2
  0
LINE
  8
0
  6
LTYPE1
 62
     2
 10
507.49
 20
1535.2
 11
507.49
 21
1487.2
  0
LINE
  8
0
  6
LTYPE1
 62
     2
 10
387.49
 20
1258.2
 11
387.49
 21
1215.2
  0
LINE
  8
0
  6
LTYPE1
 62
     2
 10
507.49
 20
1259.2
 11
507.49
 21
1215.2
  0
LINE
  8
0
  6
CONTINUOUS
 62
     1
 10
347.49
 20
1496.01
 11
357.49
 21
1496.01
  0
LINE
  8
0
  6
LTYPE3
 62
     2
 10
339.493066274
 20
1454.013066274
 11
383.493066274
 21
1454.013066274
  0
LINE
  8
0
  6
CONTINUOUS
 62
     1
 10
347.49
 20
1444.213066274
 11
341.875640646
 21
1444.213066274
  0
LINE
  8
0
  6
CONTINUOUS
 62
     1
 10
340.49
 20
1446.613066274
 11
341.875640646
 21
1444.213066274
  0
LINE
  8
0
  6
CONTINUOUS
 62
     1
 10
340.49
 20
1454.013066274
 11
340.49
 21
1446.613066274
  0
LINE
  8
0
  6
CONTINUOUS
 62
     1
 10
347.49
 20
1449.113066274
 11
341.875640646
 21
1449.113066274
  0
LINE
  8
0
  6
CONTINUOUS
 62
     1
 10
347.49
 20
1463.813066274
 11
341.875640646
 21
1463.813066274
  0
LINE
  8
0
  6
CONTINUOUS
 62
     1
 10
340.49
 20
1461.413066274
 11
341.875640646
 21
1463.813066274
  0
LINE
  8
0
  6
CONTINUOUS
 62
     1
 10
340.49
 20
1454.013066274
 11
340.49
 21
1461.413066274
  0
LINE
  8
0
  6
CONTINUOUS
 62
     1
 10
347.49
 20
1458.913066274
 11
341.875640646
 21
1458.913066274
  0
ARC
  8
0
  6
CONTINUOUS
 62
     1
 10
349.8466828
 20
1454.013066274
 40
9.3566828
 50
148.419912243
 51
211.580087757
  0
ARC
  8
0
  6
CONTINUOUS
 62
     1
 10
343.347883832
 20
1446.663066274
 40
2.858321186
 50
121.002313915
 51
182.989498403
  0
LINE
  8
0
  6
CONTINUOUS
 62
     1
 10
340.49
 20
1461.413066274
 11
341.875640646
 21
1463.813066274
  0
ARC
  8
0
  6
CONTINUOUS
 62
     1
 10
343.347883832
 20
1461.363066274
 40
2.858321186
 50
177.010501597
 51
238.997686085
  0
TEXT
  8
0
  6
CONTINUOUS
 62
     3
 10
290.29
 20
1351.51
 30
2.4
 40
24.0
  1
３００
 50
90.0
 41
0.9
 51
0.0
  7
KANJI37
  0
TEXT
  8
0
  6
CONTINUOUS
 62
     3
 10
274.29
 20
995.21
 30
2.4
 40
24.0
  1
１０
 50
0.0
 41
0.9
 51
0.0
  7
KANJI37
  0
TEXT
  8
0
  6
CONTINUOUS
 62
     3
 10
380.89
 20
995.21
 30
2.4
 40
24.0
  1
９０
 50
0.0
 41
0.9
 51
0.0
  7
KANJI37
  0
TEXT
  8
0
  6
CONTINUOUS
 62
     3
 10
290.29
 20
1188.26
 30
2.4
 40
24.0
  1
４２
 50
90.0
 41
0.9
 51
0.0
  7
KANJI37
  0
TEXT
  8
0
  6
CONTINUOUS
 62
     3
 10
292.29
 20
1520.36
 30
2.4
 40
24.0
  1
４２
 50
90.0
 41
0.9
 51
0.0
  7
KANJI37
  0
LINE
  8
0
  6
CONTINUOUS
 62
     1
 10
371.49
 20
1504.01
 11
523.49
 21
1504.01
  0
LINE
  8
0
  6
CONTINUOUS
 62
     1
 10
371.49
 20
1244.01
 11
523.49
 21
1244.01
  0
LINE
  8
0
  6
CONTINUOUS
 62
     1
 10
371.49
 20
1504.01
 11
371.49
 21
1475.71
  0
LINE
  8
0
  6
CONTINUOUS
 62
     1
 10
523.49
 20
1504.01
 11
523.49
 21
1475.71
  0
LINE
  8
0
  6
CONTINUOUS
 62
     1
 10
371.49
 20
1272.71
 11
371.49
 21
1244.01
  0
LINE
  8
0
  6
CONTINUOUS
 62
     1
 10
523.49
 20
1272.71
 11
523.49
 21
1244.01
  0
LINE
  8
0
  6
CONTINUOUS
 62
     1
 10
357.49
 20
1496.26
 11
371.49
 21
1496.26
  0
LINE
  8
0
  6
CONTINUOUS
 62
     1
 10
357.49
 20
1251.76
 11
371.49
 21
1251.76
  0
LINE
  8
0
  6
CONTINUOUS
 62
     1
 10
523.49
 20
1251.76
 11
562.49
 21
1251.76
  0
LINE
  8
0
  6
CONTINUOUS
 62
     1
 10
523.49
 20
1496.26
 11
562.49
 21
1496.26
  0
LINE
  8
0
  6
LTYPE4
 62
     2
 10
521.49
 20
1354.01
 11
521.49
 21
1394.01
  0
LINE
  8
0
  6
LTYPE4
 62
     2
 10
486.49
 20
1374.01
 11
556.49
 21
1374.01
  0
POINT
  8
0
  6
CONTINUOUS
 62
     1
 10
491.49
 20
1374.01
  0
LINE
  8
0
  6
CONTINUOUS
 62
     2
 10
299.29
 20
1566.01
 11
283.29
 21
1566.01
  0
LINE
  8
0
  6
CONTINUOUS
 62
     2
 10
295.29
 20
1566.01
 11
291.148895278
 21
1550.555186779
  0
LINE
  8
0
  6
CONTINUOUS
 62
     2
 10
295.29
 20
1566.01
 11
299.431104722
 21
1550.555186779
  0
LINE
  8
0
  6
CONTINUOUS
 62
     2
 10
295.29
 20
1542.01
 11
295.29
 21
1566.01
  0
LINE
  8
0
  6
CONTINUOUS
 62
     2
 10
309.29
 20
1182.01
 11
283.29
 21
1182.01
  0
LINE
  8
0
  6
CONTINUOUS
 62
     2
 10
295.29
 20
1182.01
 11
299.431104722
 21
1197.464813221
  0
LINE
  8
0
  6
CONTINUOUS
 62
     2
 10
295.29
 20
1182.01
 11
291.148895278
 21
1197.464813221
  0
LINE
  8
0
  6
CONTINUOUS
 62
     2
 10
295.29
 20
1206.01
 11
295.29
 21
1182.01
  0
LINE
  8
0
  6
CONTINUOUS
 62
     2
 10
295.29
 20
1182.01
 11
295.29
 21
1176.01
  0
LINE
  8
0
  6
CONTINUOUS
 62
     2
 10
295.29
 20
1176.01
 11
295.29
 21
1130.41
  0
LINE
  8
0
  6
CONTINUOUS
 62
     2
 10
295.29
 20
1176.01
 11
291.148895278
 21
1160.555186779
  0
LINE
  8
0
  6
CONTINUOUS
 62
     2
 10
295.29
 20
1176.01
 11
299.431104722
 21
1160.555186779
  0
LINE
  8
0
  6
CONTINUOUS
 62
     2
 10
421.99
 20
1176.01
 11
283.29
 21
1176.01
  0
TEXT
  8
0
  6
CONTINUOUS
 62
     3
 10
291.29
 20
1130.41
 30
0.0
 40
24.0
  1
６
 50
90.0
 41
0.9
 51
0.0
  7
KANJI28
  0
LINE
  8
0
  6
LTYPE2
 62
     2
 10
492.404421099
 20
1410.51
 11
492.404421099
 21
1463.01
  0
LINE
  8
0
  6
LTYPE2
 62
     2
 10
460.404421099
 20
1437.51
 11
522.904421099
 21
1437.51
  0
POLYLINE
  8
0
  6
CONTINUOUS
 62
     1
 66
     1
 70
     1
  0
VERTEX
  8
0
  6
CONTINUOUS
 62
     1
 10
507.404421099
 20
1437.51
 42
0.030828907
  0
VERTEX
  8
0
  6
CONTINUOUS
 62
     1
 10
507.347341571
 20
1438.434426251
 42
0.030425797
  0
VERTEX
  8
0
  6
CONTINUOUS
 62
     1
 10
507.176537394
 20
1439.35181706
 42
0.029607756
  0
VERTEX
  8
0
  6
CONTINUOUS
 62
     1
 10
506.893308494
 20
1440.255190528
 42
0.028462655
  0
VERTEX
  8
0
  6
CONTINUOUS
 62
     1
 10
506.499810411
 20
1441.13767144
 42
0.02709878
  0
VERTEX
  8
0
  6
CONTINUOUS
 62
     1
 10
505.999037905
 20
1441.992543581
 42
0.025623927
  0
VERTEX
  8
0
  6
CONTINUOUS
 62
     1
 10
505.394802156
 20
1442.813300859
 42
0.024130573
  0
VERTEX
  8
0
  6
CONTINUOUS
 62
     1
 10
504.691701764
 20
1443.593696815
 42
0.022689019
  0
VERTEX
  8
0
  6
CONTINUOUS
 62
     1
 10
503.895087746
 20
1444.327792165
 42
0.021347012
  0
VERTEX
  8
0
  6
CONTINUOUS
 62
     1
 10
503.011022817
 20
1445.01
 42
0.020133139
  0
VERTEX
  8
0
  6
CONTINUOUS
 62
     1
 10
502.046235245
 20
1445.635128306
 42
0.019061584
  0
VERTEX
  8
0
  6
CONTINUOUS
 62
     1
 10
501.008067644
 20
1446.19841948
 42
0.018136748
  0
VERTEX
  8
0
  6
CONTINUOUS
 62
     1
 10
499.904421099
 20
1446.695586535
 42
0.017357048
  0
VERTEX
  8
0
  6
CONTINUOUS
 62
     1
 10
498.743695025
 20
1447.122845731
 42
0.016717738
  0
VERTEX
  8
0
  6
CONTINUOUS
 62
     1
 10
497.534723249
 20
1447.476945366
 42
0.016212869
  0
VERTEX
  8
0
  6
CONTINUOUS
 62
     1
 10
496.286706776
 20
1447.755190528
 42
0.015836575
  0
VERTEX
  8
0
  6
CONTINUOUS
 62
     1
 10
495.009143764
 20
1447.955463605
 42
0.015583879
  0
VERTEX
  8
0
  6
CONTINUOUS
 62
     1
 10
493.71175724
 20
1448.076240396
 42
0.01545117
  0
VERTEX
  8
0
  6
CONTINUOUS
 62
     1
 10
492.404421099
 20
1448.116601718
 42
0.015436471
  0
VERTEX
  8
0
  6
CONTINUOUS
 62
     1
 10
491.097084958
 20
1448.076240396
 42
0.01553956
  0
VERTEX
  8
0
  6
CONTINUOUS
 62
     1
 10
489.799698434
 20
1447.955463605
 42
0.015761981
  0
VERTEX
  8
0
  6
CONTINUOUS
 62
     1
 10
488.522135423
 20
1447.755190528
 42
0.016106956
  0
VERTEX
  8
0
  6
CONTINUOUS
 62
     1
 10
487.274118949
 20
1447.476945366
 42
0.016579155
  0
VERTEX
  8
0
  6
CONTINUOUS
 62
     1
 10
486.065147173
 20
1447.122845731
 42
0.017184283
  0
VERTEX
  8
0
  6
CONTINUOUS
 62
     1
 10
484.904421099
 20
1446.695586535
 42
0.017928366
  0
VERTEX
  8
0
  6
CONTINUOUS
 62
     1
 10
483.800774554
 20
1446.19841948
 42
0.018816605
  0
VERTEX
  8
0
  6
CONTINUOUS
 62
     1
 10
482.762606954
 20
1445.635128306
 42
0.019851601
  0
VERTEX
  8
0
  6
CONTINUOUS
 62
     1
 10
481.797819381
 20
1445.01
 42
0.021030768
  0
VERTEX
  8
0
  6
CONTINUOUS
 62
     1
 10
480.913754452
 20
1444.327792165
 42
0.022342775
  0
VERTEX
  8
0
  6
CONTINUOUS
 62
     1
 10
480.117140435
 20
1443.593696815
 42
0.023763095
  0
VERTEX
  8
0
  6
CONTINUOUS
 62
     1
 10
479.414040042
 20
1442.813300859
 42
0.025249176
  0
VERTEX
  8
0
  6
CONTINUOUS
 62
     1
 10
478.809804294
 20
1441.992543581
 42
0.026736517
  0
VERTEX
  8
0
  6
CONTINUOUS
 62
     1
 10
478.309031787
 20
1441.13767144
 42
0.028137835
  0
VERTEX
  8
0
  6
CONTINUOUS
 62
     1
 10
477.915533705
 20
1440.255190528
 42
0.029348088
  0
VERTEX
  8
0
  6
CONTINUOUS
 62
     1
 10
477.632304804
 20
1439.35181706
 42
0.030257315
  0
VERTEX
  8
0
  6
CONTINUOUS
 62
     1
 10
477.461500628
 20
1438.434426251
 42
0.030770446
  0
VERTEX
  8
0
  6
CONTINUOUS
 62
     1
 10
477.404421099
 20
1437.51
 42
0.030828907
  0
VERTEX
  8
0
  6
CONTINUOUS
 62
     1
 10
477.461500628
 20
1436.585573749
 42
0.030425797
  0
VERTEX
  8
0
  6
CONTINUOUS
 62
     1
 10
477.632304804
 20
1435.66818294
 42
0.029607756
  0
VERTEX
  8
0
  6
CONTINUOUS
 62
     1
 10
477.915533705
 20
1434.764809472
 42
0.028462655
  0
VERTEX
  8
0
  6
CONTINUOUS
 62
     1
 10
478.309031787
 20
1433.88232856
 42
0.02709878
  0
VERTEX
  8
0
  6
CONTINUOUS
 62
     1
 10
478.809804294
 20
1433.027456419
 42
0.025623927
  0
VERTEX
  8
0
  6
CONTINUOUS
 62
     1
 10
479.414040042
 20
1432.206699141
 42
0.024130573
  0
VERTEX
  8
0
  6
CONTINUOUS
 62
     1
 10
480.117140435
 20
1431.426303185
 42
0.022689019
  0
VERTEX
  8
0
  6
CONTINUOUS
 62
     1
 10
480.913754452
 20
1430.692207835
 42
0.021347012
  0
VERTEX
  8
0
  6
CONTINUOUS
 62
     1
 10
481.797819381
 20
1430.01
 42
0.020133139
  0
VERTEX
  8
0
  6
CONTINUOUS
 62
     1
 10
482.762606954
 20
1429.384871694
 42
0.019061584
  0
VERTEX
  8
0
  6
CONTINUOUS
 62
     1
 10
483.800774554
 20
1428.82158052
 42
0.018136748
  0
VERTEX
  8
0
  6
CONTINUOUS
 62
     1
 10
484.904421099
 20
1428.324413465
 42
0.017357048
  0
VERTEX
  8
0
  6
CONTINUOUS
 62
     1
 10
486.065147173
 20
1427.897154269
 42
0.016717738
  0
VERTEX
  8
0
  6
CONTINUOUS
 62
     1
 10
487.274118949
 20
1427.543054634
 42
0.016212869
  0
VERTEX
  8
0
  6
CONTINUOUS
 62
     1
 10
488.522135423
 20
1427.264809472
 42
0.015836575
  0
VERTEX
  8
0
  6
CONTINUOUS
 62
     1
 10
489.799698434
 20
1427.064536395
 42
0.015583879
  0
VERTEX
  8
0
  6
CONTINUOUS
 62
     1
 10
491.097084958
 20
1426.943759604
 42
0.01545117
  0
VERTEX
  8
0
  6
CONTINUOUS
 62
     1
 10
492.404421099
 20
1426.903398282
 42
0.015436471
  0
VERTEX
  8
0
  6
CONTINUOUS
 62
     1
 10
493.71175724
 20
1426.943759604
 42
0.01553956
  0
VERTEX
  8
0
  6
CONTINUOUS
 62
     1
 10
495.009143764
 20
1427.064536395
 42
0.015761981
  0
VERTEX
  8
0
  6
CONTINUOUS
 62
     1
 10
496.286706776
 20
1427.264809472
 42
0.016106956
  0
VERTEX
  8
0
  6
CONTINUOUS
 62
     1
 10
497.534723249
 20
1427.543054634
 42
0.016579155
  0
VERTEX
  8
0
  6
CONTINUOUS
 62
     1
 10
498.743695025
 20
1427.897154269
 42
0.017184283
  0
VERTEX
  8
0
  6
CONTINUOUS
 62
     1
 10
499.904421099
 20
1428.324413465
 42
0.017928366
  0
VERTEX
  8
0
  6
CONTINUOUS
 62
     1
 10
501.008067644
 20
1428.82158052
 42
0.018816605
  0
VERTEX
  8
0
  6
CONTINUOUS
 62
     1
 10
502.046235245
 20
1429.384871694
 42
0.019851601
  0
VERTEX
  8
0
  6
CONTINUOUS
 62
     1
 10
503.011022817
 20
1430.01
 42
0.021030768
  0
VERTEX
  8
0
  6
CONTINUOUS
 62
     1
 10
503.895087746
 20
1430.692207835
 42
0.022342775
  0
VERTEX
  8
0
  6
CONTINUOUS
 62
     1
 10
504.691701764
 20
1431.426303185
 42
0.023763095
  0
VERTEX
  8
0
  6
CONTINUOUS
 62
     1
 10
505.394802156
 20
1432.206699141
 42
0.025249176
  0
VERTEX
  8
0
  6
CONTINUOUS
 62
     1
 10
505.999037905
 20
1433.027456419
 42
0.026736517
  0
VERTEX
  8
0
  6
CONTINUOUS
 62
     1
 10
506.499810411
 20
1433.88232856
 42
0.028137835
  0
VERTEX
  8
0
  6
CONTINUOUS
 62
     1
 10
506.893308494
 20
1434.764809472
 42
0.029348088
  0
VERTEX
  8
0
  6
CONTINUOUS
 62
     1
 10
507.176537394
 20
1435.66818294
 42
0.030257315
  0
VERTEX
  8
0
  6
CONTINUOUS
 62
     1
 10
507.347341571
 20
1436.585573749
 42
0.030770446
  0
SEQEND
  8
0
  6
CONTINUOUS
 62
     1
  0
POLYLINE
  8
0
  6
CONTINUOUS
 62
     1
 66
     1
 70
     1
  0
VERTEX
  8
0
  6
CONTINUOUS
 62
     1
 10
508.904421099
 20
1437.51
 42
0.030828907
  0
VERTEX
  8
0
  6
CONTINUOUS
 62
     1
 10
508.841633618
 20
1438.526868876
 42
0.030425797
  0
VERTEX
  8
0
  6
CONTINUOUS
 62
     1
 10
508.653749024
 20
1439.535998765
 42
0.029607756
  0
VERTEX
  8
0
  6
CONTINUOUS
 62
     1
 10
508.342197233
 20
1440.529709581
 42
0.028462655
  0
VERTEX
  8
0
  6
CONTINUOUS
 62
     1
 10
507.909349342
 20
1441.500438584
 42
0.02709878
  0
VERTEX
  8
0
  6
CONTINUOUS
 62
     1
 10
507.358499585
 20
1442.440797939
 42
0.025623927
  0
VERTEX
  8
0
  6
CONTINUOUS
 62
     1
 10
506.693840262
 20
1443.343630945
 42
0.024130573
  0
VERTEX
  8
0
  6
CONTINUOUS
 62
     1
 10
505.92042983
 20
1444.202066497
 42
0.022689019
  0
VERTEX
  8
0
  6
CONTINUOUS
 62
     1
 10
505.044154411
 20
1445.009571382
 42
0.021347012
  0
VERTEX
  8
0
  6
CONTINUOUS
 62
     1
 10
504.071682989
 20
1445.76
 42
0.020133139
  0
VERTEX
  8
0
  6
CONTINUOUS
 62
     1
 10
503.010416659
 20
1446.447641137
 42
0.019061584
  0
VERTEX
  8
0
  6
CONTINUOUS
 62
     1
 10
501.868432299
 20
1447.067261428
 42
0.018136748
  0
VERTEX
  8
0
  6
CONTINUOUS
 62
     1
 10
500.654421099
 20
1447.614145189
 42
0.017357048
  0
VERTEX
  8
0
  6
CONTINUOUS
 62
     1
 10
499.377622418
 20
1448.084130304
 42
0.016717738
  0
VERTEX
  8
0
  6
CONTINUOUS
 62
     1
 10
498.047753464
 20
1448.473639902
 42
0.016212869
  0
VERTEX
  8
0
  6
CONTINUOUS
 62
     1
 10
496.674935343
 20
1448.779709581
 42
0.015836575
  0
VERTEX
  8
0
  6
CONTINUOUS
 62
     1
 10
495.269616031
 20
1449.000009965
 42
0.015583879
  0
VERTEX
  8
0
  6
CONTINUOUS
 62
     1
 10
493.842490855
 20
1449.132864436
 42
0.01545117
  0
VERTEX
  8
0
  6
CONTINUOUS
 62
     1
 10
492.404421099
 20
1449.17726189
 42
0.015436471
  0
VERTEX
  8
0
  6
CONTINUOUS
 62
     1
 10
490.966351344
 20
1449.132864436
 42
0.01553956
  0
VERTEX
  8
0
  6
CONTINUOUS
 62
     1
 10
489.539226168
 20
1449.000009965
 42
0.015761981
  0
VERTEX
  8
0
  6
CONTINUOUS
 62
     1
 10
488.133906855
 20
1448.779709581
 42
0.016106956
  0
VERTEX
  8
0
  6
CONTINUOUS
 62
     1
 10
486.761088734
 20
1448.473639902
 42
0.016579155
  0
VERTEX
  8
0
  6
CONTINUOUS
 62
     1
 10
485.43121978
 20
1448.084130304
 42
0.017184283
  0
VERTEX
  8
0
  6
CONTINUOUS
 62
     1
 10
484.154421099
 20
1447.614145189
 42
0.017928366
  0
VERTEX
  8
0
  6
CONTINUOUS
 62
     1
 10
482.940409899
 20
1447.067261428
 42
0.018816605
  0
VERTEX
  8
0
  6
CONTINUOUS
 62
     1
 10
481.798425539
 20
1446.447641137
 42
0.019851601
  0
VERTEX
  8
0
  6
CONTINUOUS
 62
     1
 10
480.73715921
 20
1445.76
 42
0.021030768
  0
VERTEX
  8
0
  6
CONTINUOUS
 62
     1
 10
479.764687788
 20
1445.009571382
 42
0.022342775
  0
VERTEX
  8
0
  6
CONTINUOUS
 62
     1
 10
478.888412368
 20
1444.202066497
 42
0.023763095
  0
VERTEX
  8
0
  6
CONTINUOUS
 62
     1
 10
478.115001937
 20
1443.343630945
 42
0.025249176
  0
VERTEX
  8
0
  6
CONTINUOUS
 62
     1
 10
477.450342613
 20
1442.440797939
 42
0.026736517
  0
VERTEX
  8
0
  6
CONTINUOUS
 62
     1
 10
476.899492856
 20
1441.500438584
 42
0.028137835
  0
VERTEX
  8
0
  6
CONTINUOUS
 62
     1
 10
476.466644965
 20
1440.529709581
 42
0.029348088
  0
VERTEX
  8
0
  6
CONTINUOUS
 62
     1
 10
476.155093175
 20
1439.535998765
 42
0.030257315
  0
VERTEX
  8
0
  6
CONTINUOUS
 62
     1
 10
475.967208581
 20
1438.526868876
 42
0.030770446
  0
VERTEX
  8
0
  6
CONTINUOUS
 62
     1
 10
475.904421099
 20
1437.51
 42
0.030828907
  0
VERTEX
  8
0
  6
CONTINUOUS
 62
     1
 10
475.967208581
 20
1436.493131124
 42
0.030425797
  0
VERTEX
  8
0
  6
CONTINUOUS
 62
     1
 10
476.155093175
 20
1435.484001235
 42
0.029607756
  0
VERTEX
  8
0
  6
CONTINUOUS
 62
     1
 10
476.466644965
 20
1434.490290419
 42
0.028462655
  0
VERTEX
  8
0
  6
CONTINUOUS
 62
     1
 10
476.899492856
 20
1433.519561416
 42
0.02709878
  0
VERTEX
  8
0
  6
CONTINUOUS
 62
     1
 10
477.450342613
 20
1432.579202061
 42
0.025623927
  0
VERTEX
  8
0
  6
CONTINUOUS
 62
     1
 10
478.115001937
 20
1431.676369055
 42
0.024130573
  0
VERTEX
  8
0
  6
CONTINUOUS
 62
     1
 10
478.888412368
 20
1430.817933503
 42
0.022689019
  0
VERTEX
  8
0
  6
CONTINUOUS
 62
     1
 10
479.764687788
 20
1430.010428618
 42
0.021347012
  0
VERTEX
  8
0
  6
CONTINUOUS
 62
     1
 10
480.73715921
 20
1429.26
 42
0.020133139
  0
VERTEX
  8
0
  6
CONTINUOUS
 62
     1
 10
481.798425539
 20
1428.572358863
 42
0.019061584
  0
VERTEX
  8
0
  6
CONTINUOUS
 62
     1
 10
482.940409899
 20
1427.952738572
 42
0.018136748
  0
VERTEX
  8
0
  6
CONTINUOUS
 62
     1
 10
484.154421099
 20
1427.405854811
 42
0.017357048
  0
VERTEX
  8
0
  6
CONTINUOUS
 62
     1
 10
485.43121978
 20
1426.935869696
 42
0.016717738
  0
VERTEX
  8
0
  6
CONTINUOUS
 62
     1
 10
486.761088734
 20
1426.546360098
 42
0.016212869
  0
VERTEX
  8
0
  6
CONTINUOUS
 62
     1
 10
488.133906855
 20
1426.240290419
 42
0.015836575
  0
VERTEX
  8
0
  6
CONTINUOUS
 62
     1
 10
489.539226168
 20
1426.019990035
 42
0.015583879
  0
VERTEX
  8
0
  6
CONTINUOUS
 62
     1
 10
490.966351344
 20
1425.887135564
 42
0.01545117
  0
VERTEX
  8
0
  6
CONTINUOUS
 62
     1
 10
492.404421099
 20
1425.84273811
 42
0.015436471
  0
VERTEX
  8
0
  6
CONTINUOUS
 62
     1
 10
493.842490855
 20
1425.887135564
 42
0.01553956
  0
VERTEX
  8
0
  6
CONTINUOUS
 62
     1
 10
495.269616031
 20
1426.019990035
 42
0.015761981
  0
VERTEX
  8
0
  6
CONTINUOUS
 62
     1
 10
496.674935343
 20
1426.240290419
 42
0.016106956
  0
VERTEX
  8
0
  6
CONTINUOUS
 62
     1
 10
498.047753464
 20
1426.546360098
 42
0.016579155
  0
VERTEX
  8
0
  6
CONTINUOUS
 62
     1
 10
499.377622418
 20
1426.935869696
 42
0.017184283
  0
VERTEX
  8
0
  6
CONTINUOUS
 62
     1
 10
500.654421099
 20
1427.405854811
 42
0.017928366
  0
VERTEX
  8
0
  6
CONTINUOUS
 62
     1
 10
501.868432299
 20
1427.952738572
 42
0.018816605
  0
VERTEX
  8
0
  6
CONTINUOUS
 62
     1
 10
503.010416659
 20
1428.572358863
 42
0.019851601
  0
VERTEX
  8
0
  6
CONTINUOUS
 62
     1
 10
504.071682989
 20
1429.26
 42
0.021030768
  0
VERTEX
  8
0
  6
CONTINUOUS
 62
     1
 10
505.044154411
 20
1430.010428618
 42
0.022342775
  0
VERTEX
  8
0
  6
CONTINUOUS
 62
     1
 10
505.92042983
 20
1430.817933503
 42
0.023763095
  0
VERTEX
  8
0
  6
CONTINUOUS
 62
     1
 10
506.693840262
 20
1431.676369055
 42
0.025249176
  0
VERTEX
  8
0
  6
CONTINUOUS
 62
     1
 10
507.358499585
 20
1432.579202061
 42
0.026736517
  0
VERTEX
  8
0
  6
CONTINUOUS
 62
     1
 10
507.909349342
 20
1433.519561416
 42
0.028137835
  0
VERTEX
  8
0
  6
CONTINUOUS
 62
     1
 10
508.342197233
 20
1434.490290419
 42
0.029348088
  0
VERTEX
  8
0
  6
CONTINUOUS
 62
     1
 10
508.653749024
 20
1435.484001235
 42
0.030257315
  0
VERTEX
  8
0
  6
CONTINUOUS
 62
     1
 10
508.841633618
 20
1436.493131124
 42
0.030770446
  0
SEQEND
  8
0
  6
CONTINUOUS
 62
     1
  0
ARC
  8
0
  6
CONTINUOUS
 62
     1
 10
521.49
 20
1374.01
 40
15.0
 50
24.9
 51
155.1
  0
ARC
  8
0
  6
CONTINUOUS
 62
     1
 10
497.79
 20
1374.01
 40
6.3
 50
90.0
 51
180.0
  0
ARC
  8
0
  6
CONTINUOUS
 62
     1
 10
497.79
 20
1374.01
 40
6.3
 50
180.0
 51
270.0
  0
ARC
  8
0
  6
CONTINUOUS
 62
     1
 10
521.49
 20
1374.01
 40
15.0
 50
204.9
 51
335.1
  0
LINE
  8
0
  6
CONTINUOUS
 62
     1
 10
545.19
 20
1367.71
 11
497.79
 21
1367.71
  0
ARC
  8
0
  6
CONTINUOUS
 62
     1
 10
545.19
 20
1374.01
 40
6.3
 50
0.0
 51
90.0
  0
LINE
  8
0
  6
CONTINUOUS
 62
     1
 10
497.79
 20
1380.31
 11
545.19
 21
1380.31
  0
ARC
  8
0
  6
CONTINUOUS
 62
     1
 10
545.19
 20
1374.01
 40
6.3
 50
270.0
 51
0.0
  0
LINE
  8
0
  6
CONTINUOUS
 62
     1
 10
429.99
 20
1176.01
 11
447.49
 21
1176.01
  0
LINE
  8
0
  6
CONTINUOUS
 62
     1
 10
442.49
 20
1116.01
 11
442.49
 21
1171.01
  0
LINE
  8
0
  6
CONTINUOUS
 62
     1
 10
452.49
 20
1171.01
 11
442.49
 21
1171.01
  0
ARC
  8
0
  6
CONTINUOUS
 62
     1
 10
447.49
 20
1171.01
 40
5.0
 50
0.0
 51
180.0
  0
LINE
  8
0
  6
CONTINUOUS
 62
     1
 10
429.99
 20
1182.01
 11
429.99
 21
1176.01
  0
LINE
  8
0
  6
CONTINUOUS
 62
     1
 10
430.49
 20
1176.01
 11
430.49
 21
1116.01
  0
LINE
  8
0
  6
CONTINUOUS
 62
     1
 10
464.49
 20
1116.01
 11
430.49
 21
1116.01
  0
LINE
  8
0
  6
CONTINUOUS
 62
     1
 10
465.19
 20
1176.01
 11
447.69
 21
1176.01
  0
LINE
  8
0
  6
CONTINUOUS
 62
     1
 10
452.49
 20
1116.01
 11
452.49
 21
1171.01
  0
LINE
  8
0
  6
CONTINUOUS
 62
     1
 10
465.19
 20
1182.01
 11
465.19
 21
1176.01
  0
LINE
  8
0
  6
CONTINUOUS
 62
     1
 10
464.49
 20
1176.01
 11
464.49
 21
1116.01
  0
LINE
  8
0
  6
CONTINUOUS
 62
     1
 10
429.99
 20
1572.01
 11
447.49
 21
1572.01
  0
LINE
  8
0
  6
CONTINUOUS
 62
     1
 10
442.49
 20
1632.01
 11
442.49
 21
1577.01
  0
LINE
  8
0
  6
CONTINUOUS
 62
     1
 10
452.49
 20
1577.01
 11
442.49
 21
1577.01
  0
ARC
  8
0
  6
CONTINUOUS
 62
     1
 10
447.49
 20
1577.01
 40
5.0
 50
180.0
 51
0.0
  0
LINE
  8
0
  6
CONTINUOUS
 62
     1
 10
429.99
 20
1566.01
 11
429.99
 21
1572.01
  0
LINE
  8
0
  6
CONTINUOUS
 62
     1
 10
430.49
 20
1572.01
 11
430.49
 21
1632.01
  0
LINE
  8
0
  6
CONTINUOUS
 62
     1
 10
464.49
 20
1632.01
 11
430.49
 21
1632.01
  0
LINE
  8
0
  6
CONTINUOUS
 62
     1
 10
465.19
 20
1572.01
 11
447.69
 21
1572.01
  0
LINE
  8
0
  6
CONTINUOUS
 62
     1
 10
452.49
 20
1632.01
 11
452.49
 21
1577.01
  0
LINE
  8
0
  6
CONTINUOUS
 62
     1
 10
465.19
 20
1566.01
 11
465.19
 21
1572.01
  0
LINE
  8
0
  6
CONTINUOUS
 62
     1
 10
464.49
 20
1572.01
 11
464.49
 21
1632.01
  0
LINE
  8
0
  6
CONTINUOUS
 62
     2
 10
402.49
 20
1549.258895278
 11
402.49
 21
1556.858895278
  0
LINE
  8
0
  6
CONTINUOUS
 62
     2
 10
402.49
 20
1548.858895278
 11
421.808516526
 21
1543.682514376
  0
LINE
  8
0
  6
CONTINUOUS
 62
     2
 10
402.49
 20
1548.858895278
 11
421.808516526
 21
1554.03527618
  0
LINE
  8
0
  6
CONTINUOUS
 62
     2
 10
402.49
 20
1548.858895278
 11
620.49
 21
1548.858895278
  0
LINE
  8
0
  6
CONTINUOUS
 62
     2
 10
492.49
 20
1548.858895278
 11
473.171483474
 21
1554.03527618
  0
LINE
  8
0
  6
CONTINUOUS
 62
     2
 10
492.49
 20
1548.858895278
 11
473.171483474
 21
1543.682514376
  0
LINE
  8
0
  6
CONTINUOUS
 62
     2
 10
492.49
 20
1554.358895278
 11
492.49
 21
1556.858895278
  0
TEXT
  8
0
  6
CONTINUOUS
 62
     2
 10
512.49
 20
1552.858895278
 30
0.0
 40
24.0
  1
φ９０ｄ９
 50
0.0
 41
0.9
 51
0.0
  7
KANJI28
  0
LINE
  8
0
  6
CONTINUOUS
 62
     2
 10
382.94
 20
1784.012
 11
505.82
 21
1784.012
  0
LINE
  8
0
  6
CONTINUOUS
 62
     2
 10
505.82
 20
1784.012
 11
468.72844827
 21
1793.950651332
  0
LINE
  8
0
  6
CONTINUOUS
 62
     2
 10
505.82
 20
1784.012
 11
468.72844827
 21
1774.073348668
  0
LINE
  8
0
  6
LTYPE1
 62
     2
 10
382.94
 20
1758.412
 11
505.82
 21
1758.412
  0
LINE
  8
0
  6
LTYPE1
 62
     2
 10
377.82
 20
1758.412
 11
414.91155173
 21
1748.473348668
  0
LINE
  8
0
  6
LTYPE1
 62
     2
 10
377.82
 20
1758.412
 11
414.91155173
 21
1768.350651332
  0
TEXT
  8
0
  6
CONTINUOUS
 62
     2
 10
366.104
 20
1814.1272
 30
1.8
 40
21.0
  1
シャフト回転方向
 50
0.0
 41
0.857142857
 51
0.0
  7
KANJI38
  0
LINE
  8
0
  6
LTYPE2
 62
     2
 10
447.49
 20
1649.9
 11
447.49
 21
1086.81
  0
LINE
  8
0
  6
CONTINUOUS
 62
     2
 10
430.49
 20
1640.01
 11
430.49
 21
1673.11
  0
LINE
  8
0
  6
CONTINUOUS
 62
     2
 10
430.49
 20
1665.11
 11
449.808516526
 21
1659.933619098
  0
LINE
  8
0
  6
CONTINUOUS
 62
     2
 10
430.49
 20
1665.11
 11
449.808516526
 21
1670.286380902
  0
LINE
  8
0
  6
CONTINUOUS
 62
     2
 10
430.49
 20
1665.11
 11
464.49
 21
1665.11
  0
LINE
  8
0
  6
CONTINUOUS
 62
     2
 10
464.49
 20
1665.11
 11
445.171483474
 21
1670.286380902
  0
LINE
  8
0
  6
CONTINUOUS
 62
     2
 10
464.49
 20
1665.11
 11
445.171483474
 21
1659.933619098
  0
LINE
  8
0
  6
CONTINUOUS
 62
     2
 10
464.49
 20
1640.01
 11
464.49
 21
1673.11
  0
TEXT
  8
0
  6
CONTINUOUS
 62
     2
 10
393.49
 20
1684.01
 30
0.0
 40
24.0
  1
φ３４ｈ７
 50
0.0
 41
0.9
 51
0.0
  7
KANJI28
  0
LINE
  8
0
  6
CONTINUOUS
 62
     2
 10
303.79
 20
1566.01
 11
287.29
 21
1566.01
  0
LINE
  8
0
  6
CONTINUOUS
 62
     2
 10
295.29
 20
1566.01
 11
290.113619098
 21
1546.691483474
  0
LINE
  8
0
  6
CONTINUOUS
 62
     2
 10
295.29
 20
1566.01
 11
300.466380902
 21
1546.691483474
  0
LINE
  8
0
  6
CONTINUOUS
 62
     2
 10
295.29
 20
1536.01
 11
295.29
 21
1566.01
  0
LINE
  8
0
  6
CONTINUOUS
 62
     2
 10
295.29
 20
1566.01
 11
295.29
 21
1572.01
  0
LINE
  8
0
  6
CONTINUOUS
 62
     2
 10
295.29
 20
1572.01
 11
295.29
 21
1623.61
  0
LINE
  8
0
  6
CONTINUOUS
 62
     2
 10
295.29
 20
1572.01
 11
300.466380902
 21
1591.328516526
  0
LINE
  8
0
  6
CONTINUOUS
 62
     2
 10
295.29
 20
1572.01
 11
290.113619098
 21
1591.328516526
  0
LINE
  8
0
  6
CONTINUOUS
 62
     2
 10
421.99
 20
1572.01
 11
287.29
 21
1572.01
  0
TEXT
  8
0
  6
CONTINUOUS
 62
     2
 10
291.29
 20
1602.01
 30
0.0
 40
24.0
  1
６
 50
90.0
 41
0.9
 51
0.0
  7
KANJI28
  0
LINE
  8
0
  6
CONTINUOUS
 62
     2
 10
422.49
 20
1116.01
 11
243.9
 21
1116.01
  0
LINE
  8
0
  6
CONTINUOUS
 62
     2
 10
422.49
 20
1632.01
 11
243.9
 21
1632.01
  0
LINE
  8
0
  6
CONTINUOUS
 62
     2
 10
505.204421099
 20
1446.41
 11
523.464372998
 21
1454.569298784
  0
LINE
  8
0
  6
CONTINUOUS
 62
     2
 10
505.204421099
 20
1446.41
 11
516.938353923
 21
1462.606135974
  0
LINE
  8
0
  6
CONTINUOUS
 62
     2
 10
505.204421099
 20
1446.41
 11
685.004421099
 21
1592.41
  0
LINE
  8
0
  6
CONTINUOUS
 62
     2
 10
251.9
 20
1116.01
 11
257.076380902
 21
1135.328516526
  0
LINE
  8
0
  6
CONTINUOUS
 62
     2
 10
251.9
 20
1116.01
 11
246.723619098
 21
1135.328516526
  0
LINE
  8
0
  6
CONTINUOUS
 62
     2
 10
251.9
 20
1116.01
 11
251.9
 21
1632.01
  0
LINE
  8
0
  6
CONTINUOUS
 62
     2
 10
251.9
 20
1632.01
 11
246.723619098
 21
1612.691483474
  0
LINE
  8
0
  6
CONTINUOUS
 62
     2
 10
251.9
 20
1632.01
 11
257.076380902
 21
1612.691483474
  0
TEXT
  8
0
  6
CONTINUOUS
 62
     2
 10
247.9
 20
1341.61
 30
0.0
 40
24.0
  1
５１６
 50
90.0
 41
0.9
 51
0.0
  7
KANJI28
  0
LINE
  8
0
  6
CONTINUOUS
 62
     1
 10
717.49
 20
1272.61
 11
737.49
 21
1272.61
  0
LINE
  8
0
  6
CONTINUOUS
 62
     1
 10
717.49
 20
1368.11
 11
737.49
 21
1368.11
  0
LINE
  8
0
  6
CONTINUOUS
 62
     1
 10
717.49
 20
1380.11
 11
737.49
 21
1380.11
  0
LINE
  8
0
  6
CONTINUOUS
 62
     1
 10
717.49
 20
1475.61
 11
737.49
 21
1475.61
  0
LINE
  8
0
  6
CONTINUOUS
 62
     1
 10
717.49
 20
1272.61
 11
717.49
 21
1475.61
  0
LINE
  8
0
  6
CONTINUOUS
 62
     1
 10
737.49
 20
1272.61
 11
737.49
 21
1475.61
  0
POINT
  8
0
  6
CONTINUOUS
 62
     1
 10
737.49
 20
1278.76
  0
LINE
  8
0
  6
CONTINUOUS
 62
     1
 10
587.49
 20
1254.01
 11
587.49
 21
1494.01
  0
LINE
  8
0
  6
CONTINUOUS
 62
     1
 10
597.49
 20
1449.679750074
 11
652.49
 21
1431.237389395
  0
LINE
  8
0
  6
CONTINUOUS
 62
     1
 10
652.49
 20
1427.686677217
 11
587.49
 21
1427.686677217
  0
LINE
  8
0
  6
CONTINUOUS
 62
     1
 10
597.49
 20
1460.993458573
 11
652.49
 21
1442.551097894
  0
LINE
  8
0
  6
CONTINUOUS
 62
     1
 10
597.49
 20
1460.993458573
 11
587.49
 21
1460.993458573
  0
LINE
  8
0
  6
CONTINUOUS
 62
     1
 10
597.49
 20
1449.679750074
 11
597.49
 21
1460.993458573
  0
LINE
  8
0
  6
CONTINUOUS
 62
     1
 10
597.49
 20
1449.679750074
 11
587.49
 21
1449.679750074
  0
LINE
  8
0
  6
CONTINUOUS
 62
     1
 10
605.940123292
 20
1458.16
 11
712.49
 21
1458.16
  0
LINE
  8
0
  6
CONTINUOUS
 62
     1
 10
587.49
 20
1492.01
 11
587.49
 21
1464.01
  0
LINE
  8
0
  6
CONTINUOUS
 62
     1
 10
562.49
 20
1251.76
 11
562.49
 21
1496.26
  0
LINE
  8
0
  6
CONTINUOUS
 62
     1
 10
562.49
 20
1494.01
 11
587.49
 21
1494.01
  0
LINE
  8
0
  6
CONTINUOUS
 62
     1
 10
562.49
 20
1254.01
 11
587.49
 21
1254.01
  0
LINE
  8
0
  6
CONTINUOUS
 62
     1
 10
597.49
 20
1297.795028715
 11
652.49
 21
1316.237389395
  0
LINE
  8
0
  6
CONTINUOUS
 62
     1
 10
652.49
 20
1319.788101573
 11
652.49
 21
1304.923680896
  0
LINE
  8
0
  6
CONTINUOUS
 62
     1
 10
652.49
 20
1319.788101573
 11
587.49
 21
1319.788101573
  0
LINE
  8
0
  6
CONTINUOUS
 62
     1
 10
597.49
 20
1286.481320216
 11
652.49
 21
1304.923680896
  0
LINE
  8
0
  6
CONTINUOUS
 62
     1
 10
597.49
 20
1286.481320216
 11
587.49
 21
1286.481320216
  0
LINE
  8
0
  6
CONTINUOUS
 62
     1
 10
597.49
 20
1297.795028715
 11
597.49
 21
1286.481320216
  0
LINE
  8
0
  6
CONTINUOUS
 62
     1
 10
597.49
 20
1297.795028715
 11
587.49
 21
1297.795028715
  0
LINE
  8
0
  6
CONTINUOUS
 62
     1
 10
605.940123292
 20
1289.31477879
 11
712.49
 21
1289.31477879
  0
LINE
  8
0
  6
CONTINUOUS
 62
     1
 10
587.49
 20
1284.01
 11
587.49
 21
1256.01
  0
LINE
  8
0
  6
CONTINUOUS
 62
     1
 10
652.49
 20
1427.686677217
 11
652.49
 21
1442.551097894
  0
LINE
  8
0
  6
LTYPE2
 62
     2
 10
652.49
 20
1352.11
 11
652.49
 21
1399.11
  0
LINE
  8
0
  6
LTYPE2
 62
     2
 10
652.49
 20
1352.11
 11
652.49
 21
1399.11
  0
LINE
  8
0
  6
CONTINUOUS
 62
     1
 10
712.49
 20
1289.31477879
 11
712.49
 21
1458.16
  0
LINE
  8
0
  6
CONTINUOUS
 62
     1
 10
712.49
 20
1456.51
 11
717.49
 21
1456.51
  0
LINE
  8
0
  6
CONTINUOUS
 62
     1
 10
712.49
 20
1454.91
 11
717.49
 21
1454.91
  0
LINE
  8
0
  6
CONTINUOUS
 62
     1
 10
712.49
 20
1291.51
 11
717.49
 21
1291.51
  0
LINE
  8
0
  6
CONTINUOUS
 62
     1
 10
712.49
 20
1293.11
 11
717.49
 21
1293.11
  0
LINE
  8
0
  6
CONTINUOUS
 62
     1
 10
591.49
 20
1464.01
 11
591.49
 21
1492.01
  0
LINE
  8
0
  6
CONTINUOUS
 62
     1
 10
591.49
 20
1492.01
 11
587.49
 21
1492.01
  0
LINE
  8
0
  6
CONTINUOUS
 62
     1
 10
591.49
 20
1490.01
 11
591.49
 21
1466.01
  0
LINE
  8
0
  6
CONTINUOUS
 62
     1
 10
601.49
 20
1490.01
 11
591.49
 21
1490.01
  0
LINE
  8
0
  6
CONTINUOUS
 62
     1
 10
587.49
 20
1464.01
 11
591.49
 21
1464.01
  0
LINE
  8
0
  6
CONTINUOUS
 62
     1
 10
601.49
 20
1466.01
 11
591.49
 21
1466.01
  0
LINE
  8
0
  6
CONTINUOUS
 62
     1
 10
591.49
 20
1478.01
 11
600.09
 21
1478.01
  0
LINE
  8
0
  6
LTYPE3
 62
     2
 10
583.49
 20
1478.01
 11
605.49
 21
1478.01
  0
LINE
  8
0
  6
CONTINUOUS
 62
     1
 10
591.49
 20
1478.01
 11
587.49
 21
1475.700598923
  0
LINE
  8
0
  6
CONTINUOUS
 62
     1
 10
587.49
 20
1478.01
 11
591.49
 21
1480.319401077
  0
LINE
  8
0
  6
CONTINUOUS
 62
     1
 10
601.49
 20
1490.01
 11
601.49
 21
1466.01
  0
ARC
  8
0
  6
CONTINUOUS
 62
     1
 10
587.89
 20
1484.01
 40
13.6
 50
333.7
 51
26.3
  0
ARC
  8
0
  6
CONTINUOUS
 62
     1
 10
587.89
 20
1472.01
 40
13.6
 50
333.7
 51
26.3
  0
LINE
  8
0
  6
CONTINUOUS
 62
     1
 10
591.49
 20
1256.01
 11
591.49
 21
1284.01
  0
LINE
  8
0
  6
CONTINUOUS
 62
     1
 10
591.49
 20
1284.01
 11
587.49
 21
1284.01
  0
LINE
  8
0
  6
CONTINUOUS
 62
     1
 10
591.49
 20
1282.01
 11
591.49
 21
1258.01
  0
LINE
  8
0
  6
CONTINUOUS
 62
     1
 10
601.49
 20
1282.01
 11
591.49
 21
1282.01
  0
LINE
  8
0
  6
CONTINUOUS
 62
     1
 10
591.49
 20
1270.01
 11
600.09
 21
1270.01
  0
LINE
  8
0
  6
LTYPE3
 62
     2
 10
583.49
 20
1270.01
 11
605.49
 21
1270.01
  0
LINE
  8
0
  6
CONTINUOUS
 62
     1
 10
591.49
 20
1270.01
 11
587.49
 21
1267.700598923
  0
LINE
  8
0
  6
CONTINUOUS
 62
     1
 10
587.49
 20
1270.01
 11
591.49
 21
1272.319401077
  0
LINE
  8
0
  6
CONTINUOUS
 62
     1
 10
587.49
 20
1256.01
 11
591.49
 21
1256.01
  0
LINE
  8
0
  6
CONTINUOUS
 62
     1
 10
601.49
 20
1258.01
 11
591.49
 21
1258.01
  0
LINE
  8
0
  6
CONTINUOUS
 62
     1
 10
601.49
 20
1282.01
 11
601.49
 21
1258.01
  0
ARC
  8
0
  6
CONTINUOUS
 62
     1
 10
587.89
 20
1276.01
 40
13.6
 50
333.7
 51
26.3
  0
ARC
  8
0
  6
CONTINUOUS
 62
     1
 10
587.89
 20
1264.01
 40
13.6
 50
333.7
 51
26.3
  0
POINT
  8
0
  6
CONTINUOUS
 62
     1
 10
551.49
 20
1374.01
  0
CIRCLE
  8
0
  6
CONTINUOUS
 62
     1
 10
652.49
 20
1374.11
 40
5.0
  0
CIRCLE
  8
0
  6
CONTINUOUS
 62
     1
 10
652.49
 20
1374.11
 40
10.0
  0
CIRCLE
  8
0
  6
CONTINUOUS
 62
     1
 10
652.49
 20
1374.11
 40
5.0
  0
CIRCLE
  8
0
  6
CONTINUOUS
 62
     1
 10
652.49
 20
1374.11
 40
10.0
  0
LINE
  8
0
  6
CONTINUOUS
 62
     2
 10
685.004421099
 20
1592.41
 11
797.004421099
 21
1592.41
  0
TEXT
  8
0
  6
CONTINUOUS
 62
     2
 10
685.004421099
 20
1596.41
 30
0.0
 40
24.0
  1
給脂口兼点検口
 50
0.0
 41
0.666666667
 51
0.0
  7
KANJI39
  0
LINE
  8
0
  6
CONTINUOUS
 62
     2
 10
659.604421099
 20
1383.91
 11
673.004154213
 21
1398.75746283
  0
LINE
  8
0
  6
CONTINUOUS
 62
     2
 10
659.604421099
 20
1383.91
 11
663.785198965
 21
1403.468146549
  0
LINE
  8
0
  6
CONTINUOUS
 62
     2
 10
659.604421099
 20
1383.91
 11
736.404421099
 21
1534.21
  0
LINE
  8
0
  6
CONTINUOUS
 62
     2
 10
736.404421099
 20
1534.21
 11
864.404421099
 21
1534.21
  0
TEXT
  8
0
  6
CONTINUOUS
 62
     2
 10
736.404421099
 20
1538.21
 30
0.0
 40
24.0
  1
グリースニップル
 50
0.0
 41
0.666666667
 51
0.0
  7
KANJI39
  0
LINE
  8
0
  6
LTYPE3
 62
     2
 10
878.8
 20
1374.01
 11
937.864421099
 21
1374.01
  0
LINE
  8
0
  6
CONTINUOUS
 62
     2
 10
846.1
 20
1464.01
 11
850.7
 21
1464.01
  0
LINE
  8
0
  6
CONTINUOUS
 62
     2
 10
842.7
 20
1464.01
 11
837.523619098
 21
1444.691483474
  0
LINE
  8
0
  6
CONTINUOUS
 62
     2
 10
842.7
 20
1464.01
 11
847.876380902
 21
1444.691483474
  0
LINE
  8
0
  6
CONTINUOUS
 62
     2
 10
842.7
 20
1464.01
 11
842.7
 21
1284.01
  0
LINE
  8
0
  6
CONTINUOUS
 62
     2
 10
842.7
 20
1284.01
 11
847.876380902
 21
1303.328516526
  0
LINE
  8
0
  6
CONTINUOUS
 62
     2
 10
842.7
 20
1284.01
 11
837.523619098
 21
1303.328516526
  0
LINE
  8
0
  6
CONTINUOUS
 62
     2
 10
846.1
 20
1284.01
 11
850.7
 21
1284.01
  0
TEXT
  8
0
  6
CONTINUOUS
 62
     2
 10
838.7
 20
1330.81
 30
0.0
 40
24.0
  1
φ１８０
 50
90.0
 41
0.9
 51
0.0
  7
KANJI28
  0
LINE
  8
0
  6
CONTINUOUS
 62
     2
 10
1449.89
 20
1053.41
 11
1469.208516526
 21
1048.233619098
  0
LINE
  8
0
  6
CONTINUOUS
 62
     2
 10
1449.89
 20
1053.41
 11
1469.208516526
 21
1058.586380902
  0
LINE
  8
0
  6
CONTINUOUS
 62
     2
 10
1449.89
 20
1270.66
 11
1449.89
 21
1041.41
  0
LINE
  8
0
  6
CONTINUOUS
 62
     2
 10
1449.89
 20
1053.41
 11
1430.571483474
 21
1058.586380902
  0
LINE
  8
0
  6
CONTINUOUS
 62
     2
 10
1449.89
 20
1053.41
 11
1430.571483474
 21
1048.233619098
  0
LINE
  8
0
  6
CONTINUOUS
 62
     2
 10
1675.89
 20
1053.41
 11
1449.89
 21
1053.41
  0
LINE
  8
0
  6
CONTINUOUS
 62
     1
 10
737.49
 20
1284.01
 11
1449.89
 21
1284.01
  0
LINE
  8
0
  6
CONTINUOUS
 62
     2
 10
1449.89
 20
1053.41
 11
447.49
 21
1053.41
  0
LINE
  8
0
  6
CONTINUOUS
 62
     1
 10
1449.89
 20
1309.01
 11
1558.89
 21
1309.01
  0
LINE
  8
0
  6
LTYPE2
 62
     2
 10
1688.89
 20
1448.21
 11
1688.89
 21
1274.01
  0
LINE
  8
0
  6
CONTINUOUS
 62
     1
 10
1568.89
 20
1439.01
 11
1568.89
 21
1409.01
  0
LINE
  8
0
  6
CONTINUOUS
 62
     1
 10
1568.89
 20
1409.01
 11
1743.89
 21
1409.01
  0
LINE
  8
0
  6
CONTINUOUS
 62
     1
 10
1743.89
 20
1409.01
 11
1743.89
 21
1339.01
  0
LINE
  8
0
  6
CONTINUOUS
 62
     2
 10
1751.89
 20
1409.01
 11
1813.89
 21
1409.01
  0
LINE
  8
0
  6
CONTINUOUS
 62
     2
 10
1801.89
 20
1409.01
 11
1796.713619098
 21
1389.691483474
  0
LINE
  8
0
  6
CONTINUOUS
 62
     2
 10
1801.89
 20
1409.01
 11
1807.066380902
 21
1389.691483474
  0
LINE
  8
0
  6
CONTINUOUS
 62
     2
 10
1801.89
 20
1409.01
 11
1801.89
 21
1339.01
  0
TEXT
  8
0
  6
CONTINUOUS
 62
     3
 10
1797.89
 20
1352.41
 30
0.0
 40
24.0
  1
７０
 50
90.0
 41
0.9
 51
0.0
  7
KANJI28
  0
LINE
  8
0
  6
CONTINUOUS
 62
     2
 10
1801.89
 20
1339.01
 11
1807.066380902
 21
1358.328516526
  0
LINE
  8
0
  6
CONTINUOUS
 62
     2
 10
1801.89
 20
1339.01
 11
1796.713619098
 21
1358.328516526
  0
LINE
  8
0
  6
CONTINUOUS
 62
     2
 10
1751.89
 20
1339.01
 11
1813.89
 21
1339.01
  0
LINE
  8
0
  6
CONTINUOUS
 62
     1
 10
1558.89
 20
1309.01
 11
1568.89
 21
1309.01
  0
LINE
  8
0
  6
CONTINUOUS
 62
     1
 10
1568.89
 20
1339.01
 11
1743.89
 21
1339.01
  0
LINE
  8
0
  6
CONTINUOUS
 62
     1
 10
1568.89
 20
1339.01
 11
1568.89
 21
1309.01
  0
LINE
  8
0
  6
CONTINUOUS
 62
     2
 10
1558.89
 20
1053.41
 11
1539.571483474
 21
1058.586380902
  0
LINE
  8
0
  6
CONTINUOUS
 62
     2
 10
1558.89
 20
1053.41
 11
1539.571483474
 21
1048.233619098
  0
LINE
  8
2
  6
CONTINUOUS
 62
     2
 10
1688.89
 20
1267.21
 11
1688.89
 21
1037.41
  0
LINE
  8
2
  6
CONTINUOUS
 62
     2
 10
1558.89
 20
1053.41
 11
1578.208516526
 21
1048.233619098
  0
LINE
  8
2
  6
CONTINUOUS
 62
     2
 10
1558.89
 20
1053.41
 11
1578.208516526
 21
1058.586380902
  0
LINE
  8
2
  6
CONTINUOUS
 62
     2
 10
1558.89
 20
1053.41
 11
1688.89
 21
1053.41
  0
LINE
  8
2
  6
CONTINUOUS
 62
     2
 10
1688.89
 20
1053.41
 11
1669.571483474
 21
1058.586380902
  0
LINE
  8
2
  6
CONTINUOUS
 62
     2
 10
1688.89
 20
1053.41
 11
1669.571483474
 21
1048.233619098
  0
TEXT
  8
2
  6
CONTINUOUS
 62
     3
 10
1583.09
 20
1061.41
 30
2.4
 40
24.0
  1
１３０
 50
0.0
 41
0.9
 51
0.0
  7
KANJI37
  0
LINE
  8
0
  6
CONTINUOUS
 62
     2
 10
1688.89
 20
991.21
 11
1669.571483474
 21
996.386380902
  0
LINE
  8
0
  6
CONTINUOUS
 62
     2
 10
1688.89
 20
991.21
 11
1669.571483474
 21
986.033619098
  0
LINE
  8
0
  6
CONTINUOUS
 62
     2
 10
1688.89
 20
925.51
 11
1669.571483474
 21
930.686380902
  0
LINE
  8
0
  6
CONTINUOUS
 62
     2
 10
1688.89
 20
925.51
 11
1669.571483474
 21
920.333619098
  0
LINE
  8
2
  6
CONTINUOUS
 62
     2
 10
1558.89
 20
1299.71
 11
1558.89
 21
1037.41
  0
TEXT
  8
0
  6
CONTINUOUS
 62
     3
 10
1455.88
 20
1064.3
 30
0.0
 40
24.0
  1
ｍｉｎ．Ｐ
 50
0.0
 41
0.833333333
 51
0.0
  7
KANJI40
  0
LINE
  8
0
  6
CONTINUOUS
 62
     2
 10
1688.89
 20
925.51
 11
347.49
 21
925.51
  0
LINE
  8
0
  6
CONTINUOUS
 62
     2
 10
1688.89
 20
991.21
 11
447.49
 21
991.21
  0
LINE
  8
0
  6
CONTINUOUS
 62
     2
 10
1688.89
 20
1065.71
 11
1688.89
 21
914.586380902
  0
LINE
  8
0
  6
LTYPE2
 62
     2
 10
327.99
 20
1374.01
 11
1751.59
 21
1374.01
  0
LINE
  8
0
  6
CONTINUOUS
 62
     1
 10
1542.889190206
 20
1298.51
 11
1554.889190206
 21
1298.51
  0
LINE
  8
0
  6
CONTINUOUS
 62
     1
 10
1542.889190206
 20
1301.51
 11
1542.889190206
 21
1298.51
  0
LINE
  8
0
  6
CONTINUOUS
 62
     1
 10
1554.889190206
 20
1301.51
 11
1554.889190206
 21
1298.51
  0
LINE
  8
0
  6
CONTINUOUS
 62
     1
 10
1509.092755451
 20
1276.268819045
 11
1513.518643238
 21
1259.751180955
  0
ARC
  8
0
  6
CONTINUOUS
 62
     1
 10
1508.126829625
 20
1276.01
 40
1.0
 50
15.0
 51
90.0
  0
LINE
  8
0
  6
CONTINUOUS
 62
     1
 10
1521.40823433
 20
1276.268819045
 11
1525.834122117
 21
1259.751180955
  0
ARC
  8
0
  6
CONTINUOUS
 62
     1
 10
1520.442308504
 20
1276.01
 40
1.0
 50
15.0
 51
90.0
  0
LINE
  8
0
  6
CONTINUOUS
 62
     1
 10
1520.442308504
 20
1277.01
 11
1520.442308504
 21
1275.01
  0
LINE
  8
0
  6
CONTINUOUS
 62
     1
 10
1519.476382678
 20
1276.268819045
 11
1515.050494891
 21
1259.751180955
  0
ARC
  8
0
  6
CONTINUOUS
 62
     1
 10
1520.442308504
 20
1276.01
 40
1.0
 50
90.0
 51
165.0
  0
ARC
  8
0
  6
CONTINUOUS
 62
     1
 10
1526.600047944
 20
1260.01
 40
1.0
 50
270.0
 51
345.0
  0
LINE
  8
0
  6
CONTINUOUS
 62
     1
 10
1526.600047944
 20
1259.01
 11
1526.600047944
 21
1262.01
  0
ARC
  8
0
  6
CONTINUOUS
 62
     1
 10
1526.800047944
 20
1260.01
 40
1.0
 50
195.0
 51
270.0
  0
ARC
  8
0
  6
CONTINUOUS
 62
     1
 10
1514.084569064
 20
1260.01
 40
1.0
 50
270.0
 51
345.0
  0
ARC
  8
0
  6
CONTINUOUS
 62
     1
 10
1514.484569064
 20
1260.01
 40
1.0
 50
195.0
 51
270.0
  0
LINE
  8
0
  6
CONTINUOUS
 62
     1
 10
1514.284569064
 20
1259.01
 11
1514.284569064
 21
1262.01
  0
LINE
  8
0
  6
CONTINUOUS
 62
     1
 10
1538.75521561
 20
1301.51
 11
1527.56597377
 21
1259.751180955
  0
LINE
  8
0
  6
CONTINUOUS
 62
     1
 10
1509.092755451
 20
1471.751180955
 11
1513.518643238
 21
1488.268819045
  0
ARC
  8
0
  6
CONTINUOUS
 62
     1
 10
1508.126829625
 20
1472.01
 40
1.0
 50
270.0
 51
345.0
  0
LINE
  8
0
  6
CONTINUOUS
 62
     1
 10
1521.40823433
 20
1471.751180955
 11
1525.834122117
 21
1488.268819045
  0
ARC
  8
0
  6
CONTINUOUS
 62
     1
 10
1520.442308504
 20
1472.01
 40
1.0
 50
270.0
 51
345.0
  0
LINE
  8
0
  6
CONTINUOUS
 62
     1
 10
1519.476382678
 20
1471.751180955
 11
1515.050494891
 21
1488.268819045
  0
ARC
  8
0
  6
CONTINUOUS
 62
     1
 10
1520.442308504
 20
1472.01
 40
1.0
 50
195.0
 51
270.0
  0
ARC
  8
0
  6
CONTINUOUS
 62
     1
 10
1526.600047944
 20
1488.01
 40
1.0
 50
15.0
 51
90.0
  0
LINE
  8
0
  6
CONTINUOUS
 62
     1
 10
1526.600047944
 20
1489.01
 11
1526.600047944
 21
1486.01
  0
ARC
  8
0
  6
CONTINUOUS
 62
     1
 10
1526.800047944
 20
1488.01
 40
1.0
 50
90.0
 51
165.0
  0
ARC
  8
0
  6
CONTINUOUS
 62
     1
 10
1514.084569064
 20
1488.01
 40
1.0
 50
15.0
 51
90.0
  0
ARC
  8
0
  6
CONTINUOUS
 62
     1
 10
1514.484569064
 20
1488.01
 40
1.0
 50
90.0
 51
165.0
  0
LINE
  8
0
  6
CONTINUOUS
 62
     1
 10
1514.284569064
 20
1489.01
 11
1514.284569064
 21
1486.01
  0
LINE
  8
0
  6
CONTINUOUS
 62
     1
 10
1508.126829625
 20
1471.01
 11
1508.126829625
 21
1374.01
  0
LINE
  8
0
  6
CONTINUOUS
 62
     1
 10
1520.442308504
 20
1374.01
 11
1520.442308504
 21
1471.01
  0
LINE
  8
0
  6
CONTINUOUS
 62
     1
 10
1514.284569064
 20
1489.01
 11
1514.284569064
 21
1374.01
  0
LINE
  8
0
  6
CONTINUOUS
 62
     1
 10
1526.600047944
 20
1489.01
 11
1526.600047944
 21
1374.01
  0
LINE
  8
0
  6
CONTINUOUS
 62
     1
 10
1542.889190206
 20
1449.51
 11
1554.889190206
 21
1449.51
  0
LINE
  8
0
  6
CONTINUOUS
 62
     1
 10
1542.889190206
 20
1446.51
 11
1542.889190206
 21
1449.51
  0
LINE
  8
0
  6
CONTINUOUS
 62
     1
 10
1538.75521561
 20
1446.51
 11
1558.89
 21
1446.51
  0
LINE
  8
0
  6
CONTINUOUS
 62
     1
 10
1538.75521561
 20
1301.51
 11
1558.89
 21
1301.51
  0
LINE
  8
0
  6
CONTINUOUS
 62
     1
 10
1538.889190206
 20
1309.01
 11
1538.889190206
 21
1301.51
  0
LINE
  8
0
  6
CONTINUOUS
 62
     1
 10
1538.889190206
 20
1446.01
 11
1527.56597377
 21
1488.268819045
  0
LINE
  8
0
  6
CONTINUOUS
 62
     1
 10
1538.889190206
 20
1374.01
 11
1538.889190206
 21
1446.01
  0
LINE
  8
0
  6
CONTINUOUS
 62
     1
 10
1554.889190206
 20
1449.51
 11
1554.889190206
 21
1446.51
  0
LINE
  8
0
  6
CONTINUOUS
 62
     1
 10
1558.89
 20
1439.01
 11
1568.89
 21
1439.01
  0
LINE
  8
0
  6
CONTINUOUS
 62
     1
 10
1558.89
 20
1374.01
 11
1558.89
 21
1301.51
  0
LINE
  8
0
  6
CONTINUOUS
 62
     1
 10
1558.89
 20
1446.51
 11
1558.89
 21
1374.21
  0
LINE
  8
0
  6
CONTINUOUS
 62
     1
 10
1374.89
 20
1464.01
 11
1374.89
 21
1284.01
  0
LINE
  8
0
  6
CONTINUOUS
 62
     1
 10
1354.794135666
 20
1469.01
 11
1374.794135666
 21
1469.01
  0
LINE
  8
0
  6
CONTINUOUS
 62
     1
 10
1358.794135666
 20
1472.01
 11
1370.794135666
 21
1472.01
  0
LINE
  8
0
  6
CONTINUOUS
 62
     1
 10
1370.794135666
 20
1472.01
 11
1370.794135666
 21
1469.01
  0
LINE
  8
0
  6
CONTINUOUS
 62
     1
 10
1358.794135666
 20
1472.01
 11
1358.794135666
 21
1468.91
  0
ARC
  8
0
  6
CONTINUOUS
 62
     1
 10
1381.054421099
 20
1488.01
 40
1.0
 50
90.0
 51
165.0
  0
LINE
  8
0
  6
CONTINUOUS
 62
     1
 10
1381.054421099
 20
1489.01
 11
1381.054421099
 21
1486.01
  0
ARC
  8
0
  6
CONTINUOUS
 62
     1
 10
1380.854421099
 20
1488.01
 40
1.0
 50
15.0
 51
90.0
  0
ARC
  8
0
  6
CONTINUOUS
 62
     1
 10
1393.569899979
 20
1488.01
 40
1.0
 50
90.0
 51
165.0
  0
ARC
  8
0
  6
CONTINUOUS
 62
     1
 10
1393.169899979
 20
1488.01
 40
1.0
 50
15.0
 51
90.0
  0
LINE
  8
0
  6
CONTINUOUS
 62
     1
 10
1393.369899979
 20
1489.01
 11
1393.369899979
 21
1486.01
  0
LINE
  8
0
  6
CONTINUOUS
 62
     1
 10
1388.178086365
 20
1471.751180955
 11
1392.603974152
 21
1488.268819045
  0
LINE
  8
0
  6
CONTINUOUS
 62
     1
 10
1398.561713592
 20
1471.751180955
 11
1394.135825805
 21
1488.268819045
  0
LINE
  8
0
  6
CONTINUOUS
 62
     1
 10
1386.246234713
 20
1471.751180955
 11
1381.820346925
 21
1488.268819045
  0
ARC
  8
0
  6
CONTINUOUS
 62
     1
 10
1399.527639418
 20
1472.01
 40
1.0
 50
195.0
 51
270.0
  0
ARC
  8
0
  6
CONTINUOUS
 62
     1
 10
1387.212160539
 20
1472.01
 40
1.0
 50
195.0
 51
270.0
  0
ARC
  8
0
  6
CONTINUOUS
 62
     1
 10
1387.212160539
 20
1472.01
 40
1.0
 50
270.0
 51
345.0
  0
LINE
  8
0
  6
CONTINUOUS
 62
     1
 10
1399.527639418
 20
1471.01
 11
1399.527639418
 21
1374.01
  0
LINE
  8
0
  6
CONTINUOUS
 62
     1
 10
1387.212160539
 20
1374.01
 11
1387.212160539
 21
1471.01
  0
LINE
  8
0
  6
CONTINUOUS
 62
     1
 10
1393.369899979
 20
1489.01
 11
1393.369899979
 21
1374.01
  0
LINE
  8
0
  6
CONTINUOUS
 62
     1
 10
1381.054421099
 20
1489.01
 11
1381.054421099
 21
1374.01
  0
LINE
  8
0
  6
CONTINUOUS
 62
     1
 10
1374.89
 20
1468.867770564
 11
1380.088495273
 21
1488.268819045
  0
LINE
  8
0
  6
CONTINUOUS
 62
     1
 10
1374.89
 20
1468.867770564
 11
1374.89
 21
1279.01
  0
LINE
  8
0
  6
CONTINUOUS
 62
     1
 10
1354.794135666
 20
1469.01
 11
1354.794135666
 21
1374.01
  0
LINE
  8
0
  6
CONTINUOUS
 62
     1
 10
1374.794135666
 20
1279.01
 11
1374.794135666
 21
1281.01
  0
LINE
  8
0
  6
CONTINUOUS
 62
     1
 10
1358.794135666
 20
1276.01
 11
1370.794135666
 21
1276.01
  0
LINE
  8
0
  6
CONTINUOUS
 62
     1
 10
1370.794135666
 20
1276.01
 11
1370.794135666
 21
1279.01
  0
LINE
  8
0
  6
CONTINUOUS
 62
     1
 10
1358.794135666
 20
1276.01
 11
1358.794135666
 21
1279.11
  0
LINE
  8
0
  6
CONTINUOUS
 62
     1
 10
1354.794135666
 20
1279.01
 11
1374.89
 21
1279.01
  0
ARC
  8
0
  6
CONTINUOUS
 62
     1
 10
1381.054421099
 20
1260.01
 40
1.0
 50
195.0
 51
270.0
  0
LINE
  8
0
  6
CONTINUOUS
 62
     1
 10
1381.054421099
 20
1259.01
 11
1381.054421099
 21
1262.01
  0
ARC
  8
0
  6
CONTINUOUS
 62
     1
 10
1380.854421099
 20
1260.01
 40
1.0
 50
270.0
 51
345.0
  0
LINE
  8
0
  6
CONTINUOUS
 62
     1
 10
1386.246234713
 20
1276.268819045
 11
1381.820346925
 21
1259.751180955
  0
LINE
  8
0
  6
CONTINUOUS
 62
     1
 10
1374.928110263
 20
1279.01
 11
1380.088495273
 21
1259.751180955
  0
LINE
  8
0
  6
CONTINUOUS
 62
     1
 10
1354.794135666
 20
1279.01
 11
1354.794135666
 21
1284.01
  0
ARC
  8
0
  6
CONTINUOUS
 62
     1
 10
1393.569899979
 20
1260.01
 40
1.0
 50
195.0
 51
270.0
  0
ARC
  8
0
  6
CONTINUOUS
 62
     1
 10
1393.169899979
 20
1260.01
 40
1.0
 50
270.0
 51
345.0
  0
LINE
  8
0
  6
CONTINUOUS
 62
     1
 10
1393.369899979
 20
1259.01
 11
1393.369899979
 21
1262.01
  0
LINE
  8
0
  6
CONTINUOUS
 62
     1
 10
1388.178086365
 20
1276.268819045
 11
1392.603974152
 21
1259.751180955
  0
LINE
  8
0
  6
CONTINUOUS
 62
     1
 10
1398.561713592
 20
1276.268819045
 11
1394.135825805
 21
1259.751180955
  0
ARC
  8
0
  6
CONTINUOUS
 62
     1
 10
1399.527639418
 20
1276.01
 40
1.0
 50
90.0
 51
165.0
  0
ARC
  8
0
  6
CONTINUOUS
 62
     1
 10
1387.212160539
 20
1276.01
 40
1.0
 50
90.0
 51
165.0
  0
LINE
  8
0
  6
CONTINUOUS
 62
     1
 10
1387.212160539
 20
1277.01
 11
1387.212160539
 21
1275.01
  0
ARC
  8
0
  6
CONTINUOUS
 62
     1
 10
1387.212160539
 20
1276.01
 40
1.0
 50
15.0
 51
90.0
  0
LINE
  8
0
  6
LTYPE5
 62
     2
 10
1399.527639418
 20
1277.01
 11
1508.126829625
 21
1277.01
  0
LINE
  8
0
  6
LTYPE5
 62
     2
 10
1393.369899979
 20
1259.01
 11
1514.284569064
 21
1259.01
  0
LINE
  8
0
  6
LTYPE5
 62
     2
 10
1399.561713592
 20
1471.01
 11
1508.126829625
 21
1471.01
  0
LINE
  8
0
  6
LTYPE5
 62
     2
 10
1393.369899979
 20
1489.01
 11
1514.284569064
 21
1489.01
  0
LINE
  8
0
  6
CONTINUOUS
 62
     1
 10
1449.89
 20
1374.01
 11
1449.89
 21
1284.01
  0
LINE
  8
0
  6
CONTINUOUS
 62
     1
 10
737.49
 20
1464.01
 11
1354.794135666
 21
1464.01
  0
LINE
  8
0
  6
CONTINUOUS
 62
     2
 10
1398.085378858
 20
1489.01
 11
1309.385378858
 21
1489.01
  0
LINE
  8
0
  6
CONTINUOUS
 62
     2
 10
1317.385378858
 20
1489.01
 11
1312.208997956
 21
1469.691483474
  0
LINE
  8
0
  6
CONTINUOUS
 62
     2
 10
1317.385378858
 20
1489.01
 11
1322.56175976
 21
1469.691483474
  0
LINE
  8
0
  6
CONTINUOUS
 62
     2
 10
1317.385378858
 20
1489.01
 11
1317.385378858
 21
1259.01
  0
LINE
  8
0
  6
CONTINUOUS
 62
     2
 10
1317.385378858
 20
1259.01
 11
1322.56175976
 21
1278.328516526
  0
LINE
  8
0
  6
CONTINUOUS
 62
     2
 10
1317.385378858
 20
1259.01
 11
1312.208997956
 21
1278.328516526
  0
LINE
  8
0
  6
CONTINUOUS
 62
     2
 10
1397.185378858
 20
1259.01
 11
1309.385378858
 21
1259.01
  0
TEXT
  8
0
  6
CONTINUOUS
 62
     2
 10
1313.385378858
 20
1330.81
 30
0.0
 40
24.0
  1
φ２３０
 50
90.0
 41
0.9
 51
0.0
  7
KANJI28
  0
CIRCLE
  8
0
  6
CONTINUOUS
 62
     1
 10
2153.7
 20
1378.1
 40
122.25
  0
CIRCLE
  8
0
  6
CONTINUOUS
 62
     1
 10
2153.7
 20
1378.1
 40
120.0
  0
LINE
  8
0
  6
CONTINUOUS
 62
     1
 10
2012.7
 20
1391.1
 11
2012.7
 21
1384.4
  0
LINE
  8
0
  6
CONTINUOUS
 62
     1
 10
2012.7
 20
1391.1
 11
2008.7
 21
1387.1
  0
LINE
  8
0
  6
CONTINUOUS
 62
     1
 10
2008.7
 20
1387.1
 11
2008.7
 21
1384.4
  0
LINE
  8
0
  6
CONTINUOUS
 62
     1
 10
2020.8
 20
1384.4
 11
1970.0
 21
1384.4
  0
ARC
  8
0
  6
CONTINUOUS
 62
     1
 10
1970.0
 20
1378.1
 40
6.3
 50
90.0
 51
270.0
  0
ARC
  8
0
  6
CONTINUOUS
 62
     1
 10
2020.8
 20
1386.0
 40
1.6
 50
270.0
 51
0.0
  0
LINE
  8
0
  6
CONTINUOUS
 62
     1
 10
2012.7
 20
1365.1
 11
2008.7
 21
1369.1
  0
LINE
  8
0
  6
CONTINUOUS
 62
     1
 10
2020.8
 20
1371.8
 11
1970.0
 21
1371.8
  0
ARC
  8
0
  6
CONTINUOUS
 62
     1
 10
2020.8
 20
1370.2
 40
1.6
 50
0.0
 51
90.0
  0
LINE
  8
0
  6
CONTINUOUS
 62
     1
 10
2012.7
 20
1365.1
 11
2012.7
 21
1371.8
  0
LINE
  8
0
  6
CONTINUOUS
 62
     1
 10
2008.7
 20
1369.1
 11
2008.7
 21
1371.8
  0
LINE
  8
0
  6
CONTINUOUS
 62
     1
 10
2031.937948271
 20
1392.772865067
 11
2012.7
 21
1391.1
  0
LINE
  8
0
  6
CONTINUOUS
 62
     1
 10
2032.137948271
 20
1363.409743629
 11
2012.7
 21
1365.1
  0
LINE
  8
0
  6
LTYPE2
 62
     2
 10
2291.8
 20
1378.1
 11
1946.6
 21
1378.1
  0
LINE
  8
0
  6
CONTINUOUS
 62
     2
 10
2153.7
 20
1678.0
 11
1963.7
 21
1678.0
  0
LINE
  8
0
  6
CONTINUOUS
 62
     2
 10
1963.7
 20
1678.0
 11
1983.018516526
 21
1672.823619098
  0
LINE
  8
0
  6
CONTINUOUS
 62
     2
 10
1963.7
 20
1678.0
 11
1983.018516526
 21
1683.176380902
  0
LINE
  8
0
  6
CONTINUOUS
 62
     2
 10
1963.7
 20
1386.1
 11
1963.7
 21
1686.0
  0
TEXT
  8
0
  6
CONTINUOUS
 62
     2
 10
2026.3
 20
1682.0
 30
0.0
 40
24.0
  1
１９０
 50
0.0
 41
0.9
 51
0.0
  7
KANJI28
  0
CIRCLE
  8
0
  6
CONTINUOUS
 62
     1
 10
2153.7
 20
1378.1
 40
115.0
  0
CIRCLE
  8
0
  6
CONTINUOUS
 62
     1
 10
2153.7
 20
1378.1
 40
85.0
  0
LINE
  8
0
  6
LTYPE4
 62
     2
 10
2146.9
 20
1378.1
 11
2160.5
 21
1378.1
  0
LINE
  8
0
  6
CONTINUOUS
 62
     1
 10
2108.7
 20
1570.1
 11
2153.7
 21
1570.1
  0
LINE
  8
0
  6
CONTINUOUS
 62
     1
 10
2079.7
 20
1528.1
 11
2227.7
 21
1528.1
  0
LINE
  8
0
  6
CONTINUOUS
 62
     1
 10
2108.7
 20
1528.1
 11
2108.7
 21
1570.1
  0
LINE
  8
0
  6
CONTINUOUS
 62
     1
 10
2079.7
 20
1508.1
 11
2227.7
 21
1508.1
  0
LINE
  8
0
  6
LTYPE3
 62
     2
 10
2093.7
 20
1503.913126264
 11
2093.7
 21
1540.813126264
  0
LINE
  8
0
  6
CONTINUOUS
 62
     1
 10
2198.9
 20
1528.1
 11
2198.9
 21
1570.1
  0
LINE
  8
0
  6
CONTINUOUS
 62
     1
 10
2198.9
 20
1570.1
 11
2153.9
 21
1570.1
  0
LINE
  8
0
  6
LTYPE3
 62
     2
 10
2213.7
 20
1501.913126264
 11
2213.7
 21
1539.813126264
  0
LINE
  8
0
  6
CONTINUOUS
 62
     1
 10
2079.7
 20
1248.1
 11
2227.7
 21
1248.1
  0
LINE
  8
0
  6
CONTINUOUS
 62
     1
 10
2079.7
 20
1228.1
 11
2227.7
 21
1228.1
  0
LINE
  8
0
  6
CONTINUOUS
 62
     1
 10
2108.7
 20
1228.1
 11
2108.7
 21
1186.1
  0
LINE
  8
0
  6
LTYPE3
 62
     2
 10
2093.7
 20
1252.286873736
 11
2093.7
 21
1215.386873736
  0
LINE
  8
0
  6
CONTINUOUS
 62
     1
 10
2198.9
 20
1228.1
 11
2198.9
 21
1186.1
  0
LINE
  8
0
  6
LTYPE3
 62
     2
 10
2213.7
 20
1254.286873736
 11
2213.7
 21
1216.386873736
  0
LINE
  8
0
  6
CONTINUOUS
 62
     1
 10
2111.273593129
 20
1413.1
 11
2196.126406871
 21
1413.1
  0
LINE
  8
0
  6
CONTINUOUS
 62
     1
 10
2111.273593129
 20
1343.1
 11
2196.126406871
 21
1343.1
  0
ARC
  8
0
  6
CONTINUOUS
 62
     1
 10
2153.7
 20
1378.1
 40
50.0
 50
135.465666269
 51
225.341341324
  0
ARC
  8
0
  6
CONTINUOUS
 62
     1
 10
2153.7
 20
1378.1
 40
50.0
 50
315.35704049
 51
44.353908637
  0
CIRCLE
  8
0
  6
CONTINUOUS
 62
     1
 10
2153.7
 20
1378.1
 40
55.0
  0
CIRCLE
  8
0
  6
CONTINUOUS
 62
     1
 10
2153.7
 20
1378.1
 40
65.0
  0
LINE
  8
0
  6
CONTINUOUS
 62
     1
 10
2108.7
 20
1186.1
 11
2153.7
 21
1186.1
  0
LINE
  8
0
  6
CONTINUOUS
 62
     1
 10
2198.9
 20
1186.1
 11
2153.9
 21
1186.1
  0
LINE
  8
0
  6
CONTINUOUS
 62
     1
 10
2227.7
 20
1280.790891999
 11
2227.7
 21
1228.1
  0
LINE
  8
0
  6
CONTINUOUS
 62
     1
 10
2227.7
 20
1475.409108001
 11
2227.7
 21
1528.1
  0
LINE
  8
0
  6
CONTINUOUS
 62
     1
 10
2079.7
 20
1477.4
 11
2079.7
 21
1528.1
  0
LINE
  8
0
  6
CONTINUOUS
 62
     1
 10
2079.7
 20
1280.2
 11
2079.7
 21
1228.1
  0
LINE
  8
0
  6
LTYPE4
 62
     2
 10
2153.7
 20
1648.7
 11
2153.7
 21
1111.6
  0
LINE
  8
0
  6
CONTINUOUS
 62
     1
 10
2170.9
 20
1120.1
 11
2136.7
 21
1120.1
  0
LINE
  8
0
  6
CONTINUOUS
 62
     1
 10
2136.7
 20
1180.1
 11
2136.7
 21
1120.1
  0
LINE
  8
0
  6
CONTINUOUS
 62
     1
 10
2171.4
 20
1180.1
 11
2136.2
 21
1180.1
  0
LINE
  8
0
  6
CONTINUOUS
 62
     1
 10
2136.2
 20
1186.1
 11
2136.2
 21
1180.1
  0
LINE
  8
0
  6
CONTINUOUS
 62
     1
 10
2170.9
 20
1180.1
 11
2170.9
 21
1120.1
  0
LINE
  8
0
  6
CONTINUOUS
 62
     1
 10
2171.4
 20
1186.1
 11
2171.4
 21
1180.1
  0
LINE
  8
0
  6
CONTINUOUS
 62
     1
 10
2170.9
 20
1636.1
 11
2136.7
 21
1636.1
  0
LINE
  8
0
  6
CONTINUOUS
 62
     1
 10
2136.7
 20
1576.1
 11
2136.7
 21
1636.1
  0
LINE
  8
0
  6
CONTINUOUS
 62
     1
 10
2171.4
 20
1576.1
 11
2136.2
 21
1576.1
  0
LINE
  8
0
  6
CONTINUOUS
 62
     1
 10
2136.2
 20
1570.1
 11
2136.2
 21
1576.1
  0
LINE
  8
0
  6
CONTINUOUS
 62
     1
 10
2170.9
 20
1576.1
 11
2170.9
 21
1636.1
  0
LINE
  8
0
  6
CONTINUOUS
 62
     1
 10
2171.4
 20
1570.1
 11
2171.4
 21
1576.1
  0
LINE
  8
0
  6
CONTINUOUS
 62
     2
 10
2178.9
 20
1576.1
 11
2339.5
 21
1576.1
  0
LINE
  8
0
  6
CONTINUOUS
 62
     2
 10
2331.5
 20
1576.1
 11
2326.323619098
 21
1556.781483474
  0
LINE
  8
0
  6
CONTINUOUS
 62
     2
 10
2331.5
 20
1576.1
 11
2336.676380902
 21
1556.781483474
  0
LINE
  8
0
  6
CONTINUOUS
 62
     2
 10
2331.5
 20
1576.1
 11
2331.5
 21
1180.1
  0
LINE
  8
0
  6
CONTINUOUS
 62
     2
 10
2331.5
 20
1180.1
 11
2336.676380902
 21
1199.418516526
  0
LINE
  8
0
  6
CONTINUOUS
 62
     2
 10
2331.5
 20
1180.1
 11
2326.323619098
 21
1199.418516526
  0
LINE
  8
0
  6
CONTINUOUS
 62
     2
 10
2178.9
 20
1180.1
 11
2339.5
 21
1180.1
  0
TEXT
  8
0
  6
CONTINUOUS
 62
     2
 10
2327.5
 20
1345.7
 30
0.0
 40
24.0
  1
３９６
 50
90.0
 41
0.9
 51
0.0
  7
KANJI28
  0
LINE
  8
0
  6
CONTINUOUS
 62
     2
 10
2286.3
 20
1180.1
 11
2339.5
 21
1180.1
  0
LINE
  8
0
  6
CONTINUOUS
 62
     2
 10
2331.5
 20
1180.1
 11
2326.323619098
 21
1160.781483474
  0
LINE
  8
0
  6
CONTINUOUS
 62
     2
 10
2331.5
 20
1180.1
 11
2336.676380902
 21
1160.781483474
  0
LINE
  8
0
  6
CONTINUOUS
 62
     2
 10
2331.5
 20
1180.1
 11
2331.5
 21
1120.1
  0
LINE
  8
0
  6
CONTINUOUS
 62
     2
 10
2331.5
 20
1120.1
 11
2336.676380902
 21
1139.418516526
  0
LINE
  8
0
  6
CONTINUOUS
 62
     2
 10
2331.5
 20
1120.1
 11
2326.323619098
 21
1139.418516526
  0
LINE
  8
0
  6
CONTINUOUS
 62
     2
 10
2178.9
 20
1120.1
 11
2339.5
 21
1120.1
  0
TEXT
  8
0
  6
CONTINUOUS
 62
     2
 10
2327.5
 20
1128.5
 30
0.0
 40
24.0
  1
６０
 50
90.0
 41
0.9
 51
0.0
  7
KANJI28
  0
LINE
  8
0
  6
CONTINUOUS
 62
     2
 10
2324.3
 20
1576.1
 11
2339.5
 21
1576.1
  0
LINE
  8
0
  6
CONTINUOUS
 62
     2
 10
2331.5
 20
1576.1
 11
2336.676380902
 21
1595.418516526
  0
LINE
  8
0
  6
CONTINUOUS
 62
     2
 10
2331.5
 20
1576.1
 11
2326.323619098
 21
1595.418516526
  0
LINE
  8
0
  6
CONTINUOUS
 62
     2
 10
2331.5
 20
1576.1
 11
2331.5
 21
1636.1
  0
LINE
  8
0
  6
CONTINUOUS
 62
     2
 10
2331.5
 20
1636.1
 11
2326.323619098
 21
1616.781483474
  0
LINE
  8
0
  6
CONTINUOUS
 62
     2
 10
2331.5
 20
1636.1
 11
2336.676380902
 21
1616.781483474
  0
LINE
  8
0
  6
CONTINUOUS
 62
     2
 10
2178.9
 20
1636.1
 11
2339.5
 21
1636.1
  0
TEXT
  8
0
  6
CONTINUOUS
 62
     2
 10
2327.5
 20
1584.5
 30
0.0
 40
24.0
  1
６０
 50
90.0
 41
0.9
 51
0.0
  7
KANJI28
  0
LINE
  8
0
  6
CONTINUOUS
 62
     2
 10
2153.7
 20
1654.8
 11
2153.7
 21
1686.0
  0
LINE
  8
0
  6
CONTINUOUS
 62
     2
 10
2153.7
 20
1678.0
 11
2173.018516526
 21
1672.823619098
  0
LINE
  8
0
  6
CONTINUOUS
 62
     2
 10
2153.7
 20
1678.0
 11
2173.018516526
 21
1683.176380902
  0
LINE
  8
0
  6
CONTINUOUS
 62
     2
 10
2153.7
 20
1678.0
 11
2275.95
 21
1678.0
  0
LINE
  8
0
  6
CONTINUOUS
 62
     2
 10
2275.95
 20
1678.0
 11
2256.631483474
 21
1683.176380902
  0
LINE
  8
0
  6
CONTINUOUS
 62
     2
 10
2275.95
 20
1678.0
 11
2256.631483474
 21
1672.823619098
  0
LINE
  8
0
  6
CONTINUOUS
 62
     2
 10
2275.95
 20
1386.1
 11
2275.95
 21
1686.0
  0
TEXT
  8
0
  6
CONTINUOUS
 62
     2
 10
2182.425
 20
1682.0
 30
0.0
 40
24.0
  1
１３０
 50
0.0
 41
0.9
 51
0.0
  7
KANJI28
  0
LINE
  8
0
  6
CONTINUOUS
 62
     2
 10
2153.7
 20
1674.2
 11
2153.7
 21
1686.0
  0
LINE
  8
0
  6
CONTINUOUS
 62
     2
 10
2153.7
 20
1678.0
 11
2134.381483474
 21
1683.176380902
  0
LINE
  8
0
  6
CONTINUOUS
 62
     2
 10
2153.7
 20
1678.0
 11
2134.381483474
 21
1672.823619098
  0
LINE
  8
0
  6
LTYPE1
 62
     2
 10
1663.89
 20
1409.01
 11
1663.89
 21
1339.01
  0
LINE
  8
0
  6
LTYPE1
 62
     2
 10
1713.89
 20
1409.01
 11
1713.89
 21
1339.01
  0
LINE
  8
0
  6
CONTINUOUS
 62
     2
 10
1663.89
 20
1417.01
 11
1663.89
 21
1479.81
  0
LINE
  8
0
  6
CONTINUOUS
 62
     2
 10
1663.89
 20
1471.81
 11
1683.208516526
 21
1466.633619098
  0
LINE
  8
0
  6
CONTINUOUS
 62
     2
 10
1663.89
 20
1471.81
 11
1683.208516526
 21
1476.986380902
  0
LINE
  8
0
  6
CONTINUOUS
 62
     2
 10
1663.89
 20
1471.81
 11
1713.89
 21
1471.81
  0
LINE
  8
0
  6
CONTINUOUS
 62
     2
 10
1713.89
 20
1471.81
 11
1694.571483474
 21
1476.986380902
  0
LINE
  8
0
  6
CONTINUOUS
 62
     2
 10
1713.89
 20
1471.81
 11
1694.571483474
 21
1466.633619098
  0
LINE
  8
0
  6
CONTINUOUS
 62
     2
 10
1713.89
 20
1417.01
 11
1713.89
 21
1479.81
  0
TEXT
  8
0
  6
CONTINUOUS
 62
     2
 10
1624.09
 20
1482.71
 30
0.0
 40
24.0
  1
φ５０Ｈ１０
 50
0.0
 41
0.9
 51
0.0
  7
KANJI28
  0
LINE
  8
0
  6
LTYPE1
 62
     2
 10
2128.7
 20
1413.1
 11
2128.7
 21
1343.1
  0
LINE
  8
0
  6
LTYPE1
 62
     2
 10
2178.7
 20
1413.1
 11
2178.7
 21
1343.1
  0
TEXT
  8
0
  6
CONTINUOUS
 62
     3
 10
908.19
 20
995.21
 30
2.4
 40
24.0
  1
ｍｉｎ．Ｌ
 50
0.0
 41
0.9
 51
0.0
  7
KANJI37
  0
TEXT
  8
0
  6
CONTINUOUS
 62
     3
 10
850.69
 20
929.51
 30
2.4
 40
24.0
  1
ｍｉｎ．ＡＬ
 50
0.0
 41
0.9
 51
0.0
  7
KANJI37
  0
TEXT
  8
0
  6
CONTINUOUS
 62
     2
 10
2909.666666667
 20
1206.9
 30
0.8
 40
22.4
  1
マンセル７．５ＧＹ５／４．５
 50
0.0
 41
0.9
 51
0.0
  7
KANJI41
  0
TEXT
  8
0
  6
CONTINUOUS
 62
     2
 10
2943.093
 20
1151.23
 30
2.4
 40
24.0
  1
入力キー
 50
0.0
 41
0.9
 51
0.0
  7
KANJI26
  0
TEXT
  8
0
  6
CONTINUOUS
 62
     2
 10
2273.016876985
 20
937.419993986
 30
2.4
 40
32.0
  1
特記事項
 50
0.0
 41
0.75
 51
0.0
  7
KANJI42
  0
TEXT
  8
0
  6
CONTINUOUS
 62
     2
 10
2189.016876985
 20
874.419993986
 30
8.0
 40
32.0
  1
１。運転時は必ずピストンロッドの回転防止を行って下さい。
 50
0.0
 41
0.75
 51
0.0
  7
KANJI43
  0
TEXT
  8
0
  6
CONTINUOUS
 62
     2
 10
2191.016876985
 20
812.619993986
 30
8.0
 40
32.0
  1
２。形式表示ストロークは機械的最大ストロークです。
 50
0.0
 41
0.75
 51
0.0
  7
KANJI43
  0
TEXT
  8
0
  6
CONTINUOUS
 62
     2
 10
2191.016876985
 20
750.579993986
 30
8.0
 40
32.0
  1
　　実際に使用する場合は惰行距離を含め、両端に十分余裕を
 50
0.0
 41
0.75
 51
0.0
  7
KANJI43
  0
TEXT
  8
0
  6
CONTINUOUS
 62
     2
 10
2189.016876985
 20
690.279993986
 30
8.0
 40
32.0
  1
　　みて下さい。
 50
0.0
 41
0.75
 51
0.0
  7
KANJI43
  0
TEXT
  8
0
  6
CONTINUOUS
 62
     2
 10
2191.141876985
 20
635.969993986
 30
8.0
 40
32.0
  1
３。ボールネジサイズ　　＃６３１６
 50
0.0
 41
0.75
 51
0.0
  7
KANJI43
  0
LINE
  8
0
  6
CONTINUOUS
 62
     4
 10
2380.385314201
 20
104.4133328
 11
2380.385314201
 21
548.146632
  0
TEXT
  8
0
  6
CONTINUOUS
 62
     4
 10
2151.985251001
 20
500.9466624
 30
8.0
 40
32.0
  1
ご用途
 50
0.0
 41
1.0
 51
0.0
  7
KANJI44
  0
TEXT
  8
0
  6
CONTINUOUS
 62
     4
 10
2151.985251001
 20
445.48
 30
8.0
 40
32.0
  1
ご注文主
 50
0.0
 41
1.0
 51
0.0
  7
KANJI44
  0
TEXT
  8
0
  6
CONTINUOUS
 62
     2
 10
2485.0
 20
334.0
 30
0.0
 40
28.0
  1
ＳＣＤ１０Ｂ－Ｊ
 50
0.0
 41
0.793650794
 51
0.0
  7
KANJI45
  0
TEXT
  8
0
  6
CONTINUOUS
 62
     3
 10
2582.518632601
 20
209.479992
 30
17.333333333
 40
40.0
  1
Ａ３００１８０８
 50
0.0
 41
0.8
 51
0.0
  7
KANJI46
  0
TEXT
  8
0
  6
CONTINUOUS
 62
     2
 10
642.251917668
 20
650.813333333
 30
1.6
 40
24.0
  1
ＳＣＤ１０Ｂ－　３Ｊ
 50
0.0
 41
0.833333333
 51
0.0
  7
KANJI47
  0
TEXT
  8
0
  6
CONTINUOUS
 62
     2
 10
642.251917668
 20
594.813333333
 30
1.6
 40
24.0
  1
ＳＣＤ１０Ｂ－　５Ｊ
 50
0.0
 41
0.833333333
 51
0.0
  7
KANJI47
  0
TEXT
  8
0
  6
CONTINUOUS
 62
     2
 10
642.251917668
 20
538.813333333
 30
1.6
 40
24.0
  1
ＳＣＤ１０Ｂ－　７Ｊ
 50
0.0
 41
0.833333333
 51
0.0
  7
KANJI47
  0
TEXT
  8
0
  6
CONTINUOUS
 62
     2
 10
642.251917668
 20
482.813333333
 30
1.6
 40
24.0
  1
ＳＣＤ１０Ｂ－１０Ｊ
 50
0.0
 41
0.833333333
 51
0.0
  7
KANJI47
  0
TEXT
  8
0
  6
CONTINUOUS
 62
     2
 10
642.251917668
 20
426.813333333
 30
1.6
 40
24.0
  1
ＳＣＤ１０Ｂ－１５Ｊ
 50
0.0
 41
0.833333333
 51
0.0
  7
KANJI47
  0
TEXT
  8
0
  6
CONTINUOUS
 62
     2
 10
642.251917668
 20
370.813333333
 30
1.6
 40
24.0
  1
ＳＣＤ１０Ｂ－２０Ｊ
 50
0.0
 41
0.833333333
 51
0.0
  7
KANJI47
  0
TEXT
  8
0
  6
CONTINUOUS
 62
     2
 10
1598.718584335
 20
600.613333333
 30
2.4
 40
24.0
  1
１１２
 50
0.0
 41
0.9
 51
0.0
  7
KANJI33
  0
TEXT
  8
0
  6
CONTINUOUS
 62
     2
 10
1598.718584335
 20
544.613333333
 30
2.4
 40
24.0
  1
１４８
 50
0.0
 41
0.9
 51
0.0
  7
KANJI33
  0
TEXT
  8
0
  6
CONTINUOUS
 62
     2
 10
1598.718584335
 20
488.613333333
 30
2.4
 40
24.0
  1
２３１
 50
0.0
 41
0.9
 51
0.0
  7
KANJI33
  0
TEXT
  8
0
  6
CONTINUOUS
 62
     2
 10
1598.718584335
 20
432.613333333
 30
2.4
 40
24.0
  1
３５０
 50
0.0
 41
0.9
 51
0.0
  7
KANJI33
  0
TEXT
  8
0
  6
CONTINUOUS
 62
     2
 10
1598.718584335
 20
376.613333333
 30
2.4
 40
24.0
  1
４５０
 50
0.0
 41
0.9
 51
0.0
  7
KANJI33
  0
TEXT
  8
0
  6
CONTINUOUS
 62
     2
 10
1596.051917668
 20
655.013333333
 30
2.4
 40
24.0
  1
　５０
 50
0.0
 41
0.9
 51
0.0
  7
KANJI33
  0
TEXT
  8
0
  6
CONTINUOUS
 62
     2
 10
500.985251001
 20
58.146632
 30
2.4
 40
24.0
  1
ＦＤ　Ｎｏ．ＳＣ１６
 50
0.0
 41
1.0
 51
0.0
  7
KANJI48
  0
LINE
  8
2
  6
CONTINUOUS
 62
     2
 10
1568.89
 20
1667.21
 11
1568.89
 21
1592.81
  0
LINE
  8
2
  6
CONTINUOUS
 62
     2
 10
1568.89
 20
1608.81
 11
1588.208516526
 21
1603.633619098
  0
LINE
  8
2
  6
CONTINUOUS
 62
     2
 10
1568.89
 20
1608.81
 11
1588.208516526
 21
1613.986380902
  0
LINE
  8
2
  6
CONTINUOUS
 62
     2
 10
1568.89
 20
1608.81
 11
1688.89
 21
1608.81
  0
LINE
  8
0
  6
LTYPE2
 62
     2
 10
1688.89
 20
1811.01
 11
1688.89
 21
1634.21
  0
LINE
  8
2
  6
CONTINUOUS
 62
     2
 10
1688.89
 20
1644.31
 11
1688.89
 21
1632.21
  0
LINE
  8
2
  6
CONTINUOUS
 62
     2
 10
1688.89
 20
1608.81
 11
1669.571483474
 21
1613.986380902
  0
LINE
  8
2
  6
CONTINUOUS
 62
     2
 10
1688.89
 20
1608.81
 11
1669.571483474
 21
1603.633619098
  0
LINE
  8
2
  6
CONTINUOUS
 62
     2
 10
1688.89
 20
1631.51
 11
1688.89
 21
1592.81
  0
LINE
  8
2
  6
CONTINUOUS
 62
     2
 10
1688.89
 20
1619.11
 11
1688.89
 21
1592.81
  0
LINE
  8
0
  6
CONTINUOUS
 62
     1
 10
1728.89
 20
1670.21
 11
1743.89
 21
1685.21
  0
LINE
  8
0
  6
CONTINUOUS
 62
     1
 10
1728.89
 20
1682.784
 11
1743.89
 21
1705.845
  0
LINE
  8
0
  6
CONTINUOUS
 62
     1
 10
1728.89
 20
1670.21
 11
1728.89
 21
1682.784
  0
LINE
  8
0
  6
CONTINUOUS
 62
     1
 10
1728.89
 20
1767.636
 11
1743.89
 21
1744.575
  0
LINE
  8
0
  6
CONTINUOUS
 62
     1
 10
1728.89
 20
1780.21
 11
1728.89
 21
1767.636
  0
LINE
  8
0
  6
CONTINUOUS
 62
     1
 10
1728.89
 20
1780.21
 11
1743.89
 21
1765.21
  0
LINE
  8
0
  6
CONTINUOUS
 62
     1
 10
1743.89
 20
1685.21
 11
1743.89
 21
1765.21
  0
LINE
  8
0
  6
LTYPE2
 62
     2
 10
1551.49
 20
1725.21
 11
1765.89
 21
1725.21
  0
LINE
  8
0
  6
CONTINUOUS
 62
     1
 10
1558.89
 20
1780.21
 11
1728.89
 21
1780.21
  0
LINE
  8
0
  6
CONTINUOUS
 62
     1
 10
1558.89
 20
1780.21
 11
1558.89
 21
1670.21
  0
LINE
  8
0
  6
CONTINUOUS
 62
     1
 10
1558.89
 20
1670.21
 11
1728.89
 21
1670.21
  0
LINE
  8
0
  6
CONTINUOUS
 62
     1
 10
1568.89
 20
1682.784
 11
1728.89
 21
1682.784
  0
LINE
  8
0
  6
CONTINUOUS
 62
     1
 10
1568.89
 20
1767.636
 11
1568.89
 21
1682.784
  0
LINE
  8
0
  6
CONTINUOUS
 62
     1
 10
1568.89
 20
1767.636
 11
1728.89
 21
1767.636
  0
LINE
  8
0
  6
CONTINUOUS
 62
     2
 10
1688.89
 20
1614.81
 11
1688.89
 21
1596.81
  0
LINE
  8
0
  6
CONTINUOUS
 62
     2
 10
1688.89
 20
1608.81
 11
1708.208516526
 21
1603.633619098
  0
LINE
  8
0
  6
CONTINUOUS
 62
     2
 10
1688.89
 20
1608.81
 11
1708.208516526
 21
1613.986380902
  0
LINE
  8
0
  6
CONTINUOUS
 62
     2
 10
1688.89
 20
1608.81
 11
1743.89
 21
1608.81
  0
LINE
  8
0
  6
CONTINUOUS
 62
     2
 10
1743.89
 20
1608.81
 11
1724.571483474
 21
1613.986380902
  0
LINE
  8
0
  6
CONTINUOUS
 62
     2
 10
1743.89
 20
1608.81
 11
1724.571483474
 21
1603.633619098
  0
LINE
  8
0
  6
CONTINUOUS
 62
     2
 10
1743.89
 20
1677.21
 11
1743.89
 21
1596.81
  0
LINE
  8
0
  6
CONTINUOUS
 62
     2
 10
1736.89
 20
1780.21
 11
1834.89
 21
1780.21
  0
LINE
  8
0
  6
CONTINUOUS
 62
     2
 10
1822.89
 20
1780.21
 11
1817.713619098
 21
1760.891483474
  0
LINE
  8
0
  6
CONTINUOUS
 62
     2
 10
1822.89
 20
1780.21
 11
1828.066380902
 21
1760.891483474
  0
LINE
  8
0
  6
CONTINUOUS
 62
     2
 10
1822.89
 20
1780.21
 11
1822.89
 21
1670.21
  0
LINE
  8
0
  6
CONTINUOUS
 62
     2
 10
1822.89
 20
1670.21
 11
1828.066380902
 21
1689.528516526
  0
LINE
  8
0
  6
CONTINUOUS
 62
     2
 10
1822.89
 20
1670.21
 11
1817.713619098
 21
1689.528516526
  0
LINE
  8
0
  6
CONTINUOUS
 62
     2
 10
1736.89
 20
1670.21
 11
1834.89
 21
1670.21
  0
TEXT
  8
2
  6
CONTINUOUS
 62
     3
 10
1588.09
 20
1616.81
 30
2.4
 40
24.0
  1
１２０
 50
0.0
 41
0.9
 51
0.0
  7
KANJI37
  0
TEXT
  8
0
  6
CONTINUOUS
 62
     3
 10
1694.79
 20
1612.81
 30
2.4
 40
24.0
  1
５５
 50
0.0
 41
0.9
 51
0.0
  7
KANJI37
  0
TEXT
  8
0
  6
CONTINUOUS
 62
     3
 10
1818.89
 20
1682.01
 30
2.4
 40
24.0
  1
φ１１０
 50
90.0
 41
0.9
 51
0.0
  7
KANJI37
  0
CIRCLE
  8
0
  6
CONTINUOUS
 62
     1
 10
1688.89
 20
1725.21
 40
25.0
  0
POLYLINE
  8
0
  6
CONTINUOUS
 62
     2
 66
     1
  0
VERTEX
  8
0
  6
CONTINUOUS
 62
     2
 10
1566.2
 20
1877.52
  0
VERTEX
  8
0
  6
CONTINUOUS
 62
     2
 10
1719.8
 20
1877.52
  0
VERTEX
  8
0
  6
CONTINUOUS
 62
     2
 10
1673.435560338
 20
1889.943314165
  0
SEQEND
  0
LINE
  8
0
  6
CONTINUOUS
 62
     2
 10
1719.8
 20
1877.52
 11
1673.435560338
 21
1865.096685835
  0
LINE
  8
0
  6
LTYPE1
 62
     2
 10
1566.2
 20
1845.52
 11
1719.8
 21
1845.52
  0
LINE
  8
0
  6
LTYPE1
 62
     2
 10
1559.8
 20
1845.52
 11
1606.164439662
 21
1833.096685835
  0
LINE
  8
0
  6
LTYPE1
 62
     2
 10
1559.8
 20
1845.52
 11
1606.164439662
 21
1857.943314165
  0
TEXT
  8
0
  6
CONTINUOUS
 62
     2
 10
1735.8
 20
1869.52
 30
2.88
 40
28.8
  1
出
 50
0.0
 41
0.9
 51
0.0
  7
KANJI49
  0
TEXT
  8
0
  6
CONTINUOUS
 62
     2
 10
1735.8
 20
1832.72
 30
2.88
 40
28.8
  1
入
 50
0.0
 41
0.9
 51
0.0
  7
KANJI49
  0
TEXT
  8
0
  6
CONTINUOUS
 62
     2
 10
1567.8
 20
1911.12
 30
2.88
 40
28.8
  1
ピストンロッド
 50
0.0
 41
0.9
 51
0.0
  7
KANJI49
  0
LINE
  8
0
  6
CONTINUOUS
 62
     2
 10
1953.456666667
 20
2128.669333333
 11
1953.456666667
 21
2088.269333333
  0
LINE
  8
0
  6
CONTINUOUS
 62
     2
 10
2014.256666667
 20
2147.069333333
 11
1994.938150141
 21
2152.245714235
  0
LINE
  8
0
  6
CONTINUOUS
 62
     2
 10
2014.256666667
 20
2147.069333333
 11
1994.938150141
 21
2141.892952431
  0
LINE
  8
0
  6
CONTINUOUS
 62
     2
 10
1633.456666667
 20
2108.269333333
 11
1652.775183192
 21
2103.092952431
  0
LINE
  8
0
  6
CONTINUOUS
 62
     2
 10
1633.456666667
 20
2108.269333333
 11
1652.775183192
 21
2113.445714235
  0
LINE
  8
0
  6
CONTINUOUS
 62
     2
 10
1953.456666667
 20
2108.269333333
 11
1934.138150141
 21
2113.445714235
  0
LINE
  8
0
  6
CONTINUOUS
 62
     2
 10
1953.456666667
 20
2108.269333333
 11
1934.138150141
 21
2103.092952431
  0
LINE
  8
0
  6
CONTINUOUS
 62
     2
 10
1633.456666667
 20
2108.269333333
 11
1614.138150141
 21
2113.445714235
  0
LINE
  8
0
  6
CONTINUOUS
 62
     2
 10
1633.456666667
 20
2108.269333333
 11
1614.138150141
 21
2103.092952431
  0
LINE
  8
0
  6
CONTINUOUS
 62
     2
 10
1953.456666667
 20
2108.269333333
 11
1972.775183192
 21
2103.092952431
  0
LINE
  8
0
  6
CONTINUOUS
 62
     2
 10
1953.456666667
 20
2108.269333333
 11
1972.775183192
 21
2113.445714235
  0
LINE
  8
0
  6
CONTINUOUS
 62
     2
 10
2014.256666667
 20
2108.269333333
 11
1994.938150141
 21
2113.445714235
  0
LINE
  8
0
  6
CONTINUOUS
 62
     2
 10
2014.256666667
 20
2108.269333333
 11
1994.938150141
 21
2103.092952431
  0
LINE
  8
0
  6
CONTINUOUS
 62
     2
 10
1604.256666667
 20
2103.869333333
 11
1618.335365285
 21
2089.664043994
  0
LINE
  8
0
  6
CONTINUOUS
 62
     2
 10
1604.256666667
 20
2103.869333333
 11
1623.551821992
 21
2098.606541206
  0
LINE
  8
0
  6
CONTINUOUS
 62
     2
 10
1604.256666667
 20
2103.869333333
 11
1748.256666667
 21
2019.869333333
  0
LINE
  8
0
  6
CONTINUOUS
 62
     2
 10
1985.856666667
 20
2109.069333333
 11
1965.951343056
 21
2107.125601883
  0
LINE
  8
0
  6
CONTINUOUS
 62
     2
 10
1985.856666667
 20
2109.069333333
 11
1969.590016475
 21
2097.433350713
  0
LINE
  8
0
  6
CONTINUOUS
 62
     2
 10
1985.856666667
 20
2109.069333333
 11
1748.256666667
 21
2019.869333333
  0
LINE
  8
0
  6
CONTINUOUS
 62
     2
 10
2111.856666667
 20
2019.869333333
 11
1748.256666667
 21
2019.869333333
  0
TEXT
  8
0
  6
CONTINUOUS
 62
     2
 10
1849.056666667
 20
2027.869333333
 30
0.0
 40
24.0
  1
惰行距離＋ストローク余裕
 50
0.0
 41
0.9
 51
0.0
  7
KANJI50
  0
LINE
  8
0
  6
CONTINUOUS
 62
     2
 10
1566.656666667
 20
2171.069333333
 11
1566.656666667
 21
2085.069333333
  0
LINE
  8
0
  6
CONTINUOUS
 62
     2
 10
1566.656666667
 20
2147.069333333
 11
1585.975183192
 21
2141.892952431
  0
LINE
  8
0
  6
CONTINUOUS
 62
     2
 10
1566.656666667
 20
2147.069333333
 11
1585.975183192
 21
2152.245714235
  0
LINE
  8
0
  6
CONTINUOUS
 62
     2
 10
1566.656666667
 20
2108.269333333
 11
1585.975183192
 21
2103.092952431
  0
LINE
  8
0
  6
CONTINUOUS
 62
     2
 10
1566.656666667
 20
2108.269333333
 11
1585.975183192
 21
2113.445714235
  0
LINE
  8
0
  6
CONTINUOUS
 62
     2
 10
1566.656666667
 20
2147.069333333
 11
2014.256666667
 21
2147.069333333
  0
LINE
  8
0
  6
CONTINUOUS
 62
     2
 10
1566.656666667
 20
2108.269333333
 11
1547.338150141
 21
2103.092952431
  0
LINE
  8
0
  6
CONTINUOUS
 62
     2
 10
1566.656666667
 20
2108.269333333
 11
1547.338150141
 21
2113.445714235
  0
LINE
  8
0
  6
CONTINUOUS
 62
     2
 10
1633.456666667
 20
2129.469333333
 11
1633.456666667
 21
2041.369333333
  0
LINE
  8
0
  6
CONTINUOUS
 62
     2
 10
1633.456666667
 20
2050.169333333
 11
1377.856666667
 21
2050.169333333
  0
LINE
  8
0
  6
CONTINUOUS
 62
     2
 10
1633.456666667
 20
2050.169333333
 11
1614.138150141
 21
2044.992952431
  0
LINE
  8
0
  6
CONTINUOUS
 62
     2
 10
1633.456666667
 20
2050.169333333
 11
1614.138150141
 21
2055.345714235
  0
LINE
  8
0
  6
CONTINUOUS
 62
     2
 10
2014.256666667
 20
2200.969333333
 11
2014.256666667
 21
2093.069333333
  0
TEXT
  8
0
  6
CONTINUOUS
 62
     2
 10
1434.256666667
 20
2058.969333333
 30
2.4
 40
24.0
  1
取付ｍｉｎ．寸法
 50
0.0
 41
0.9
 51
0.0
  7
KANJI51
  0
LINE
  8
0
  6
CONTINUOUS
 62
     2
 10
1307.056666667
 20
2108.269333333
 11
2014.656666667
 21
2108.269333333
  0
LINE
  8
0
  6
CONTINUOUS
 62
     2
 10
2013.931666667
 20
2188.669333333
 11
1994.613150141
 21
2193.845714235
  0
LINE
  8
0
  6
CONTINUOUS
 62
     2
 10
2013.931666667
 20
2188.669333333
 11
1994.613150141
 21
2183.492952431
  0
LINE
  8
0
  6
CONTINUOUS
 62
     2
 10
2014.256666667
 20
2188.569333333
 11
1559.456666667
 21
2188.569333333
  0
TEXT
  8
0
  6
CONTINUOUS
 62
     2
 10
1437.056666667
 20
2011.369333333
 30
2.4
 40
24.0
  1
（　　　　　）
 50
0.0
 41
0.9
 51
0.0
  7
KANJI51
  0
TEXT
  8
0
  6
CONTINUOUS
 62
     2
 10
1314.656666667
 20
2118.569333333
 30
2.4
 40
24.0
  1
ｍｉｎ．Ｌ（　　　　）
 50
0.0
 41
0.9
 51
0.0
  7
KANJI51
  0
TEXT
  8
0
  6
CONTINUOUS
 62
     2
 10
1645.056666667
 20
2196.969333333
 30
2.4
 40
24.0
  1
ｍａｘ．Ｌ（　　　　）
 50
0.0
 41
0.9
 51
0.0
  7
KANJI51
  0
TEXT
  8
0
  6
CONTINUOUS
 62
     2
 10
1647.456666667
 20
2159.069333333
 30
2.4
 40
24.0
  1
機械的ストローク（　　　　）
 50
0.0
 41
0.9
 51
0.0
  7
KANJI51
  0
TEXT
  8
0
  6
CONTINUOUS
 62
     2
 10
1687.856666667
 20
2115.469333333
 30
2.4
 40
24.0
  1
使用ストローク（　　　　）
 50
0.0
 41
0.9
 51
0.0
  7
KANJI51
  0
TEXT
  8
0
  6
CONTINUOUS
 62
     3
 10
957.39
 20
1061.41
 30
2.4
 40
24.0
  1
Ｃ
 50
0.0
 41
0.9
 51
0.0
  7
KANJI37
  0
TEXT
  8
0
  6
CONTINUOUS
 62
     2
 10
2532.551962201
 20
281.4466544
 30
0.0
 40
24.0
  1
Ｓ
 50
0.0
 41
0.9
 51
0.0
  7
KANJI28
  0
CIRCLE
  8
0
  6
CONTINUOUS
 62
     2
 10
2543.051962201
 20
292.4466544
 40
20.0
  0
TEXT
  8
0
  6
CONTINUOUS
 62
     2
 10
2914.966666667
 20
1931.2
 30
0.0
 40
24.0
  1
ＳＣＤ１０Ｂ－　　Ｊ
 50
0.0
 41
0.833333333
 51
0.0
  7
KANJI40
  0
LINE
  8
0
  6
LTYPE3
 62
     2
 10
339.493066274
 20
1294.006933726
 11
383.493066274
 21
1294.006933726
  0
LINE
  8
0
  6
CONTINUOUS
 62
     1
 10
347.49
 20
1303.806933726
 11
341.875640646
 21
1303.806933726
  0
LINE
  8
0
  6
CONTINUOUS
 62
     1
 10
340.49
 20
1301.406933726
 11
341.875640646
 21
1303.806933726
  0
LINE
  8
0
  6
CONTINUOUS
 62
     1
 10
340.49
 20
1294.006933726
 11
340.49
 21
1301.406933726
  0
LINE
  8
0
  6
CONTINUOUS
 62
     1
 10
347.49
 20
1298.906933726
 11
341.875640646
 21
1298.906933726
  0
LINE
  8
0
  6
CONTINUOUS
 62
     1
 10
347.49
 20
1284.206933726
 11
341.875640646
 21
1284.206933726
  0
LINE
  8
0
  6
CONTINUOUS
 62
     1
 10
340.49
 20
1286.606933726
 11
341.875640646
 21
1284.206933726
  0
LINE
  8
0
  6
CONTINUOUS
 62
     1
 10
340.49
 20
1294.006933726
 11
340.49
 21
1286.606933726
  0
LINE
  8
0
  6
CONTINUOUS
 62
     1
 10
347.49
 20
1289.106933726
 11
341.875640646
 21
1289.106933726
  0
ARC
  8
0
  6
CONTINUOUS
 62
     1
 10
349.8466828
 20
1294.006933726
 40
9.3566828
 50
148.419912243
 51
211.580087757
  0
ARC
  8
0
  6
CONTINUOUS
 62
     1
 10
343.347883832
 20
1301.356933726
 40
2.858321186
 50
177.010501597
 51
238.997686085
  0
LINE
  8
0
  6
CONTINUOUS
 62
     1
 10
340.49
 20
1286.606933726
 11
341.875640646
 21
1284.206933726
  0
ARC
  8
0
  6
CONTINUOUS
 62
     1
 10
343.347883832
 20
1286.656933726
 40
2.858321186
 50
121.002313915
 51
182.989498403
  0
LINE
  8
0
  6
CONTINUOUS
 62
     1
 10
537.49
 20
1251.76
 11
537.49
 21
1367.71
  0
LINE
  8
0
  6
CONTINUOUS
 62
     1
 10
537.49
 20
1380.31
 11
537.49
 21
1496.26
  0
TEXT
  8
0
  6
CONTINUOUS
 62
     3
 10
2193.451962201
 20
171.079992
 30
2.4
 40
28.0
  1
２００４．０２．２０
 50
0.0
 41
0.571428571
 51
0.0
  7
KANJI52
  0
LINE
  8
0
  6
CONTINUOUS
 62
     6
 10
2672.191958421
 20
141.991996576
 11
2653.887959829
 21
141.991996576
  0
LINE
  8
0
  6
CONTINUOUS
 62
     6
 10
2672.191958421
 20
145.31999632
 11
2653.887959829
 21
145.31999632
  0
LINE
  8
0
  6
CONTINUOUS
 62
     6
 10
2672.191958421
 20
141.991996576
 11
2690.495957013
 21
141.991996576
  0
LINE
  8
0
  6
CONTINUOUS
 62
     6
 10
2672.191958421
 20
145.31999632
 11
2690.495957013
 21
145.31999632
  0
LINE
  8
0
  6
CONTINUOUS
 62
     6
 10
2690.495957013
 20
145.31999632
 11
2690.495957013
 21
141.991996576
  0
ARC
  8
0
  6
CONTINUOUS
 62
     6
 10
2694.655956693
 20
143.655996448
 40
16.63999872
 50
185.739170477
 51
90.0
  0
ARC
  8
0
  6
CONTINUOUS
 62
     6
 10
2694.655956693
 20
143.655996448
 40
19.967998464
 50
184.780191847
 51
90.0
  0
LINE
  8
0
  6
CONTINUOUS
 62
     6
 10
2653.887959829
 20
141.991996576
 11
2653.887959829
 21
145.31999632
  0
LINE
  8
0
  6
CONTINUOUS
 62
     6
 10
2669.695958613
 20
163.623994912
 11
2649.727960149
 21
163.623994912
  0
LINE
  8
0
  6
CONTINUOUS
 62
     6
 10
2674.687958229
 20
163.623994912
 11
2694.655956693
 21
163.623994912
  0
ARC
  8
0
  6
CONTINUOUS
 62
     6
 10
2649.727960149
 20
143.655996448
 40
16.63999872
 50
90.0
 51
354.260829523
  0
ARC
  8
0
  6
CONTINUOUS
 62
     6
 10
2649.727960149
 20
143.655996448
 40
19.967998464
 50
90.0
 51
355.219808153
  0
LINE
  8
0
  6
CONTINUOUS
 62
     6
 10
2669.695958613
 20
163.623994912
 11
2669.695958613
 21
160.295995168
  0
LINE
  8
0
  6
CONTINUOUS
 62
     6
 10
2649.727960149
 20
160.295995168
 11
2669.695958613
 21
160.295995168
  0
LINE
  8
0
  6
CONTINUOUS
 62
     6
 10
2674.687958229
 20
163.623994912
 11
2674.687958229
 21
160.295995168
  0
LINE
  8
0
  6
CONTINUOUS
 62
     6
 10
2694.655956693
 20
160.295995168
 11
2674.687958229
 21
160.295995168
  0
CIRCLE
  8
0
  6
CONTINUOUS
 62
     1
 10
1054.6
 20
1374.01
 40
29.25
  0
LINE
  8
0
  6
CONTINUOUS
 62
     1
 10
1024.6
 20
1404.01
 11
1084.6
 21
1404.01
  0
LINE
  8
0
  6
LTYPE3
 62
     2
 10
1054.6
 20
1336.36
 11
1054.6
 21
1411.21
  0
LINE
  8
0
  6
CONTINUOUS
 62
     1
 10
1084.6
 20
1344.01
 11
1084.6
 21
1404.01
  0
LINE
  8
0
  6
CONTINUOUS
 62
     1
 10
1024.6
 20
1344.01
 11
1024.6
 21
1404.01
  0
LINE
  8
2
  6
CONTINUOUS
 62
     2
 10
1063.0
 20
1389.31
 11
1075.590803693
 21
1404.849358493
  0
LINE
  8
2
  6
CONTINUOUS
 62
     2
 10
1063.0
 20
1389.31
 11
1066.134276606
 21
1409.06288106
  0
LINE
  8
2
  6
CONTINUOUS
 62
     2
 10
1063.0
 20
1389.31
 11
1120.3
 21
1517.91
  0
LINE
  8
0
  6
CONTINUOUS
 62
     1
 10
1024.6
 20
1344.01
 11
1084.6
 21
1344.01
  0
LINE
  8
2
  6
CONTINUOUS
 62
     2
 10
1120.3
 20
1517.91
 11
1189.9
 21
1517.91
  0
TEXT
  8
2
  6
CONTINUOUS
 62
     2
 10
1120.3
 20
1525.91
 30
1.8
 40
21.0
  1
給脂口
 50
0.0
 41
0.857142857
 51
0.0
  7
KANJI38
  0
LINE
  8
0
  6
CONTINUOUS
 62
     2
 10
1864.485359001
 20
660.2799944
 11
1874.485359001
 21
650.2799944
  0
LINE
  8
0
  6
CONTINUOUS
 62
     2
 10
1874.485359001
 20
395.2799944
 11
1864.485359001
 21
385.2799944
  0
LINE
  8
0
  6
CONTINUOUS
 62
     2
 10
1874.485359001
 20
531.013333333
 11
1879.485359001
 21
526.013333333
  0
LINE
  8
0
  6
CONTINUOUS
 62
     2
 10
1879.485359001
 20
526.013333333
 11
1874.485359001
 21
521.013333333
  0
LINE
  8
0
  6
CONTINUOUS
 62
     2
 10
1874.485359001
 20
521.013333333
 11
1874.485359001
 21
395.2799944
  0
LINE
  8
0
  6
CONTINUOUS
 62
     2
 10
1874.485359001
 20
650.2799944
 11
1874.485359001
 21
531.013333333
  0
LINE
  8
2
  6
CONTINUOUS
 62
     3
 10
1892.485359001
 20
516.013333333
 11
1906.341765462
 21
540.013333333
  0
LINE
  8
2
  6
CONTINUOUS
 62
     3
 10
1906.341765462
 20
540.013333333
 11
1920.198171922
 21
516.013333333
  0
LINE
  8
2
  6
CONTINUOUS
 62
     3
 10
1920.198171922
 20
516.013333333
 11
1892.485359001
 21
516.013333333
  0
TEXT
  8
2
  6
CONTINUOUS
 62
     3
 10
1900.684911212
 20
518.356479084
 30
0.0
 40
11.313708499
  1
１
 50
0.0
 41
1.0
 51
0.0
  7
KANJI53
  0
POLYLINE
  8
0
  6
CONTINUOUS
 62
     4
 66
     1
  0
VERTEX
  8
0
  6
CONTINUOUS
 62
     4
 10
1609.052040201
 20
204.9466584
  0
VERTEX
  8
0
  6
CONTINUOUS
 62
     4
 10
1586.518708601
 20
170.2799944
  0
VERTEX
  8
0
  6
CONTINUOUS
 62
     4
 10
1631.585371801
 20
170.2799944
  0
SEQEND
  0
LINE
  8
0
  6
CONTINUOUS
 62
     4
 10
1609.052040201
 20
204.9466584
 11
1631.585371801
 21
170.2799944
  0
LINE
  8
0
  6
CONTINUOUS
 62
     6
 10
1579.585375801
 20
215.3466576
 11
2127.318667001
 21
215.3466576
  0
TEXT
  8
0
  6
CONTINUOUS
 62
     2
 10
1601.185375801
 20
168.2799952
 30
2.4
 40
32.0
  1
１
 50
0.0
 41
0.375
 51
0.0
  7
KANJI54
  0
TEXT
  8
0
  6
CONTINUOUS
 62
     2
 10
1644.518704601
 20
170.2799944
 30
2.4
 40
32.0
  1
０６．０４．１０
 50
0.0
 41
0.25
 51
0.0
  7
KANJI55
  0
TEXT
  8
0
  6
CONTINUOUS
 62
     2
 10
1739.985363801
 20
170.2799944
 30
2.4
 40
32.0
  1
カシヤマ
 50
0.0
 41
0.375
 51
0.0
  7
KANJI54
  0
TEXT
  8
0
  6
CONTINUOUS
 62
     2
 10
1807.985359001
 20
170.2799944
 30
2.4
 40
24.0
  1
ストローク部寸法見直しのため
 50
0.0
 41
0.666666667
 51
0.0
  7
KANJI56
  0
LINE
  8
0
  6
CONTINUOUS
 62
     6
 10
1579.585375801
 20
104.4133328
 11
1579.585375801
 21
215.3466576
  0
LINE
  8
0
  6
CONTINUOUS
 62
     4
 10
1638.518704601
 20
104.4133328
 11
1638.518704601
 21
215.3466576
  0
LINE
  8
0
  6
CONTINUOUS
 62
     4
 10
1735.585363801
 20
104.4133328
 11
1735.585363801
 21
215.3466576
  0
LINE
  8
0
  6
CONTINUOUS
 62
     4
 10
1797.985359001
 20
104.4133328
 11
1797.985359001
 21
215.3466576
  0
TEXT
  8
0
  6
CONTINUOUS
 62
     2
 10
3046.4
 20
206.9
 30
2.4
 40
32.0
  1
１
 50
0.0
 41
0.375
 51
0.0
  7
KANJI54
  0
TEXT
  8
0
  6
CONTINUOUS
 62
     2
 10
1101.451917668
 20
652.013333333
 30
2.4
 40
24.0
  1
１２０５
 50
0.0
 41
0.9
 51
0.0
  7
KANJI33
  0
TEXT
  8
0
  6
CONTINUOUS
 62
     2
 10
1101.451917668
 20
596.013333333
 30
2.4
 40
24.0
  1
１４６７
 50
0.0
 41
0.9
 51
0.0
  7
KANJI33
  0
TEXT
  8
0
  6
CONTINUOUS
 62
     2
 10
1100.451917668
 20
540.013333333
 30
2.4
 40
24.0
  1
１７３８
 50
0.0
 41
0.9
 51
0.0
  7
KANJI33
  0
TEXT
  8
0
  6
CONTINUOUS
 62
     2
 10
1101.451917668
 20
484.013333333
 30
2.4
 40
24.0
  1
２１２１
 50
0.0
 41
0.9
 51
0.0
  7
KANJI33
  0
TEXT
  8
0
  6
CONTINUOUS
 62
     2
 10
1101.451917668
 20
372.013333333
 30
2.4
 40
24.0
  1
３３９０
 50
0.0
 41
0.9
 51
0.0
  7
KANJI33
  0
TEXT
  8
0
  6
CONTINUOUS
 62
     2
 10
1262.251917668
 20
653.613333333
 30
2.4
 40
24.0
  1
１１０５
 50
0.0
 41
0.9
 51
0.0
  7
KANJI33
  0
TEXT
  8
0
  6
CONTINUOUS
 62
     2
 10
1262.251917668
 20
597.613333333
 30
2.4
 40
24.0
  1
１３６７
 50
0.0
 41
0.9
 51
0.0
  7
KANJI33
  0
TEXT
  8
0
  6
CONTINUOUS
 62
     2
 10
1262.251917668
 20
541.613333333
 30
2.4
 40
24.0
  1
１６３８
 50
0.0
 41
0.9
 51
0.0
  7
KANJI33
  0
TEXT
  8
0
  6
CONTINUOUS
 62
     2
 10
1262.251917668
 20
485.613333333
 30
2.4
 40
24.0
  1
２０２１
 50
0.0
 41
0.9
 51
0.0
  7
KANJI33
  0
TEXT
  8
0
  6
CONTINUOUS
 62
     2
 10
1262.251917668
 20
373.613333333
 30
2.4
 40
24.0
  1
３２９０
 50
0.0
 41
0.9
 51
0.0
  7
KANJI33
  0
TEXT
  8
0
  6
CONTINUOUS
 62
     2
 10
1421.851917668
 20
655.013333333
 30
2.4
 40
24.0
  1
９２５
 50
0.0
 41
0.9
 51
0.0
  7
KANJI33
  0
TEXT
  8
0
  6
CONTINUOUS
 62
     2
 10
1397.851917668
 20
599.013333333
 30
2.4
 40
24.0
  1
１１２５
 50
0.0
 41
0.9
 51
0.0
  7
KANJI33
  0
TEXT
  8
0
  6
CONTINUOUS
 62
     2
 10
1397.851917668
 20
543.013333333
 30
2.4
 40
24.0
  1
１３６０
 50
0.0
 41
0.9
 51
0.0
  7
KANJI33
  0
TEXT
  8
0
  6
CONTINUOUS
 62
     2
 10
1397.851917668
 20
487.013333333
 30
2.4
 40
24.0
  1
１６６０
 50
0.0
 41
0.9
 51
0.0
  7
KANJI33
  0
TEXT
  8
0
  6
CONTINUOUS
 62
     2
 10
1397.851917668
 20
431.013333333
 30
2.4
 40
24.0
  1
２１８０
 50
0.0
 41
0.9
 51
0.0
  7
KANJI33
  0
TEXT
  8
0
  6
CONTINUOUS
 62
     2
 10
1397.851917668
 20
375.013333333
 30
2.4
 40
24.0
  1
２７１０
 50
0.0
 41
0.9
 51
0.0
  7
KANJI33
  0
TEXT
  8
0
  6
CONTINUOUS
 62
     2
 10
1262.251917668
 20
429.613333333
 30
2.4
 40
24.0
  1
２６６０
 50
0.0
 41
0.9
 51
0.0
  7
KANJI33
  0
TEXT
  8
0
  6
CONTINUOUS
 62
     2
 10
1101.451917668
 20
428.013333333
 30
2.4
 40
24.0
  1
２７６０
 50
0.0
 41
0.9
 51
0.0
  7
KANJI33
  0
ENDSEC
  0
EOF
