  0
SECTION
  2
HEADER
  9
$EXTMIN
 10
0.0
 20
0.0
 30
0.0
  9
$EXTMAX
 10
2520.0
 20
1782.0
 30
0.0
  9
$LIMMIN
 10
0.0
 20
0.0
  9
$LIMMAX
 10
2520.0
 20
1782.0
  9
$LTSCALE
 40
1.0
  9
$PDMODE
 70
     0
  0
ENDSEC
  0
SECTION
  2
TABLES
  0
TABLE
  2
LTYPE
 70
     4
  0
LTYPE
  2
CONTINUOUS
 70
    64
  3
Solid line
 72
    65
 73
     0
 40
0.0
  0
LTYPE
  2
LTYPE1
 70
    64
  3
HIDDEN
 72
    65
 73
     2
 40
18.0
 49
10.8
 49
-7.2
  0
LTYPE
  2
LTYPE2
 70
    64
  3
CENTER
 72
    65
 73
     4
 40
60.0
 49
42.0
 49
-6.0
 49
6.0
 49
-6.0
  0
LTYPE
  2
LTYPE3
 70
    64
  3
CENTER
 72
    65
 73
     4
 40
90.0
 49
63.0
 49
-9.0
 49
9.0
 49
-9.0
  0
ENDTAB
  0
TABLE
  2
LAYER
 70
   128
  0
LAYER
  2
0
 70
     0
 62
     7
  6
CONTINUOUS
  0
LAYER
  2
2
 70
     0
 62
     7
  6
CONTINUOUS
  0
LAYER
  2
3
 70
     0
 62
     7
  6
CONTINUOUS
  0
LAYER
  2
4
 70
     0
 62
     7
  6
CONTINUOUS
  0
LAYER
  2
5
 70
     0
 62
     7
  6
CONTINUOUS
  0
LAYER
  2
6
 70
     0
 62
     7
  6
CONTINUOUS
  0
LAYER
  2
7
 70
     0
 62
     7
  6
CONTINUOUS
  0
LAYER
  2
8
 70
     0
 62
     7
  6
CONTINUOUS
  0
LAYER
  2
9
 70
     0
 62
     7
  6
CONTINUOUS
  0
LAYER
  2
10
 70
     0
 62
     7
  6
CONTINUOUS
  0
LAYER
  2
11
 70
     0
 62
     7
  6
CONTINUOUS
  0
LAYER
  2
12
 70
     0
 62
     7
  6
CONTINUOUS
  0
LAYER
  2
13
 70
     0
 62
     7
  6
CONTINUOUS
  0
LAYER
  2
14
 70
     0
 62
     7
  6
CONTINUOUS
  0
LAYER
  2
15
 70
     0
 62
     7
  6
CONTINUOUS
  0
LAYER
  2
16
 70
     0
 62
     7
  6
CONTINUOUS
  0
LAYER
  2
17
 70
     0
 62
     7
  6
CONTINUOUS
  0
LAYER
  2
18
 70
     0
 62
     7
  6
CONTINUOUS
  0
LAYER
  2
19
 70
     0
 62
     7
  6
CONTINUOUS
  0
LAYER
  2
20
 70
     0
 62
     7
  6
CONTINUOUS
  0
LAYER
  2
21
 70
     0
 62
     7
  6
CONTINUOUS
  0
LAYER
  2
22
 70
     0
 62
     7
  6
CONTINUOUS
  0
LAYER
  2
23
 70
     0
 62
     7
  6
CONTINUOUS
  0
LAYER
  2
24
 70
     0
 62
     7
  6
CONTINUOUS
  0
LAYER
  2
25
 70
     0
 62
     7
  6
CONTINUOUS
  0
LAYER
  2
26
 70
     0
 62
     7
  6
CONTINUOUS
  0
LAYER
  2
27
 70
     0
 62
     7
  6
CONTINUOUS
  0
LAYER
  2
28
 70
     0
 62
     7
  6
CONTINUOUS
  0
LAYER
  2
29
 70
     0
 62
     7
  6
CONTINUOUS
  0
LAYER
  2
30
 70
     0
 62
     7
  6
CONTINUOUS
  0
LAYER
  2
31
 70
     0
 62
     7
  6
CONTINUOUS
  0
LAYER
  2
32
 70
     0
 62
     7
  6
CONTINUOUS
  0
LAYER
  2
33
 70
     0
 62
     7
  6
CONTINUOUS
  0
LAYER
  2
34
 70
     0
 62
     7
  6
CONTINUOUS
  0
LAYER
  2
35
 70
     0
 62
     7
  6
CONTINUOUS
  0
LAYER
  2
36
 70
     0
 62
     7
  6
CONTINUOUS
  0
LAYER
  2
37
 70
     0
 62
     7
  6
CONTINUOUS
  0
LAYER
  2
38
 70
     0
 62
     7
  6
CONTINUOUS
  0
LAYER
  2
39
 70
     0
 62
     7
  6
CONTINUOUS
  0
LAYER
  2
40
 70
     0
 62
     7
  6
CONTINUOUS
  0
LAYER
  2
41
 70
     0
 62
     7
  6
CONTINUOUS
  0
LAYER
  2
42
 70
     0
 62
     7
  6
CONTINUOUS
  0
LAYER
  2
43
 70
     0
 62
     7
  6
CONTINUOUS
  0
LAYER
  2
44
 70
     0
 62
     7
  6
CONTINUOUS
  0
LAYER
  2
45
 70
     0
 62
     7
  6
CONTINUOUS
  0
LAYER
  2
46
 70
     0
 62
     7
  6
CONTINUOUS
  0
LAYER
  2
47
 70
     0
 62
     7
  6
CONTINUOUS
  0
LAYER
  2
48
 70
     0
 62
     7
  6
CONTINUOUS
  0
LAYER
  2
49
 70
     0
 62
     7
  6
CONTINUOUS
  0
LAYER
  2
50
 70
     0
 62
     7
  6
CONTINUOUS
  0
LAYER
  2
51
 70
     0
 62
     7
  6
CONTINUOUS
  0
LAYER
  2
52
 70
     0
 62
     7
  6
CONTINUOUS
  0
LAYER
  2
53
 70
     0
 62
     7
  6
CONTINUOUS
  0
LAYER
  2
54
 70
     0
 62
     7
  6
CONTINUOUS
  0
LAYER
  2
55
 70
     0
 62
     7
  6
CONTINUOUS
  0
LAYER
  2
56
 70
     0
 62
     7
  6
CONTINUOUS
  0
LAYER
  2
57
 70
     0
 62
     7
  6
CONTINUOUS
  0
LAYER
  2
58
 70
     0
 62
     7
  6
CONTINUOUS
  0
LAYER
  2
59
 70
     0
 62
     7
  6
CONTINUOUS
  0
LAYER
  2
60
 70
     0
 62
     7
  6
CONTINUOUS
  0
LAYER
  2
61
 70
     0
 62
     7
  6
CONTINUOUS
  0
LAYER
  2
62
 70
     0
 62
     7
  6
CONTINUOUS
  0
LAYER
  2
63
 70
     0
 62
     7
  6
CONTINUOUS
  0
LAYER
  2
64
 70
     0
 62
     7
  6
CONTINUOUS
  0
LAYER
  2
65
 70
     0
 62
     7
  6
CONTINUOUS
  0
LAYER
  2
66
 70
     0
 62
     7
  6
CONTINUOUS
  0
LAYER
  2
67
 70
     0
 62
     7
  6
CONTINUOUS
  0
LAYER
  2
68
 70
     0
 62
     7
  6
CONTINUOUS
  0
LAYER
  2
69
 70
     0
 62
     7
  6
CONTINUOUS
  0
LAYER
  2
70
 70
     0
 62
     7
  6
CONTINUOUS
  0
LAYER
  2
71
 70
     0
 62
     7
  6
CONTINUOUS
  0
LAYER
  2
72
 70
     0
 62
     7
  6
CONTINUOUS
  0
LAYER
  2
73
 70
     0
 62
     7
  6
CONTINUOUS
  0
LAYER
  2
74
 70
     0
 62
     7
  6
CONTINUOUS
  0
LAYER
  2
75
 70
     0
 62
     7
  6
CONTINUOUS
  0
LAYER
  2
76
 70
     0
 62
     7
  6
CONTINUOUS
  0
LAYER
  2
77
 70
     0
 62
     7
  6
CONTINUOUS
  0
LAYER
  2
78
 70
     0
 62
     7
  6
CONTINUOUS
  0
LAYER
  2
79
 70
     0
 62
     7
  6
CONTINUOUS
  0
LAYER
  2
80
 70
     0
 62
     7
  6
CONTINUOUS
  0
LAYER
  2
81
 70
     0
 62
     7
  6
CONTINUOUS
  0
LAYER
  2
82
 70
     0
 62
     7
  6
CONTINUOUS
  0
LAYER
  2
83
 70
     0
 62
     7
  6
CONTINUOUS
  0
LAYER
  2
84
 70
     0
 62
     7
  6
CONTINUOUS
  0
LAYER
  2
85
 70
     0
 62
     7
  6
CONTINUOUS
  0
LAYER
  2
86
 70
     0
 62
     7
  6
CONTINUOUS
  0
LAYER
  2
87
 70
     0
 62
     7
  6
CONTINUOUS
  0
LAYER
  2
88
 70
     0
 62
     7
  6
CONTINUOUS
  0
LAYER
  2
89
 70
     0
 62
     7
  6
CONTINUOUS
  0
LAYER
  2
90
 70
     0
 62
     7
  6
CONTINUOUS
  0
LAYER
  2
91
 70
     0
 62
     7
  6
CONTINUOUS
  0
LAYER
  2
92
 70
     0
 62
     7
  6
CONTINUOUS
  0
LAYER
  2
93
 70
     0
 62
     7
  6
CONTINUOUS
  0
LAYER
  2
94
 70
     0
 62
     7
  6
CONTINUOUS
  0
LAYER
  2
95
 70
     0
 62
     7
  6
CONTINUOUS
  0
LAYER
  2
96
 70
     0
 62
     7
  6
CONTINUOUS
  0
LAYER
  2
97
 70
     0
 62
     7
  6
CONTINUOUS
  0
LAYER
  2
98
 70
     0
 62
     7
  6
CONTINUOUS
  0
LAYER
  2
99
 70
     0
 62
     7
  6
CONTINUOUS
  0
LAYER
  2
100
 70
     0
 62
     7
  6
CONTINUOUS
  0
LAYER
  2
101
 70
     0
 62
     7
  6
CONTINUOUS
  0
LAYER
  2
102
 70
     0
 62
     7
  6
CONTINUOUS
  0
LAYER
  2
103
 70
     0
 62
     7
  6
CONTINUOUS
  0
LAYER
  2
104
 70
     0
 62
     7
  6
CONTINUOUS
  0
LAYER
  2
105
 70
     0
 62
     7
  6
CONTINUOUS
  0
LAYER
  2
106
 70
     0
 62
     7
  6
CONTINUOUS
  0
LAYER
  2
107
 70
     0
 62
     7
  6
CONTINUOUS
  0
LAYER
  2
108
 70
     0
 62
     7
  6
CONTINUOUS
  0
LAYER
  2
109
 70
     0
 62
     7
  6
CONTINUOUS
  0
LAYER
  2
110
 70
     0
 62
     7
  6
CONTINUOUS
  0
LAYER
  2
111
 70
     0
 62
     7
  6
CONTINUOUS
  0
LAYER
  2
112
 70
     0
 62
     7
  6
CONTINUOUS
  0
LAYER
  2
113
 70
     0
 62
     7
  6
CONTINUOUS
  0
LAYER
  2
114
 70
     0
 62
     7
  6
CONTINUOUS
  0
LAYER
  2
115
 70
     0
 62
     7
  6
CONTINUOUS
  0
LAYER
  2
116
 70
     0
 62
     7
  6
CONTINUOUS
  0
LAYER
  2
117
 70
     0
 62
     7
  6
CONTINUOUS
  0
LAYER
  2
118
 70
     0
 62
     7
  6
CONTINUOUS
  0
LAYER
  2
119
 70
     0
 62
     7
  6
CONTINUOUS
  0
LAYER
  2
120
 70
     0
 62
     7
  6
CONTINUOUS
  0
LAYER
  2
121
 70
     0
 62
     7
  6
CONTINUOUS
  0
LAYER
  2
122
 70
     0
 62
     7
  6
CONTINUOUS
  0
LAYER
  2
123
 70
     0
 62
     7
  6
CONTINUOUS
  0
LAYER
  2
124
 70
     0
 62
     7
  6
CONTINUOUS
  0
LAYER
  2
125
 70
     0
 62
     7
  6
CONTINUOUS
  0
LAYER
  2
126
 70
     0
 62
     7
  6
CONTINUOUS
  0
LAYER
  2
127
 70
     0
 62
     7
  6
CONTINUOUS
  0
LAYER
  2
128
 70
     0
 62
     7
  6
CONTINUOUS
  0
ENDTAB
  0
TABLE
  2
STYLE
 70
    57
  0
STYLE
  2
STANDARD
 70
     0
 40
0.0
 41
1.0
 50
0.0
 71
     0
 42
0.2
  3
txt
  4

  0
STYLE
  2
KANJI0
 70
     0
 40
11.999997477
 41
0.6
 50
0.0
 71
     0
 42
11.999997477
  3

  4
bigfont
  0
STYLE
  2
KANJI1
 70
     0
 40
14.399996972
 41
0.9
 50
0.0
 71
     0
 42
14.399996972
  3

  4
bigfont
  0
STYLE
  2
KANJI2
 70
     0
 40
15.5999988
 41
0.9
 50
0.0
 71
     0
 42
15.5999988
  3

  4
bigfont
  0
STYLE
  2
KANJI3
 70
     0
 40
10.3999992
 41
0.75
 50
0.0
 71
     0
 42
10.3999992
  3

  4
bigfont
  0
STYLE
  2
KANJI4
 70
     0
 40
15.5999988
 41
0.75
 50
0.0
 71
     0
 42
15.5999988
  3

  4
bigfont
  0
STYLE
  2
KANJI5
 70
     0
 40
9.35999928
 41
0.75
 50
0.0
 71
     0
 42
9.35999928
  3

  4
bigfont
  0
STYLE
  2
KANJI6
 70
     0
 40
10.3999992
 41
0.6
 50
0.0
 71
     0
 42
10.3999992
  3

  4
bigfont
  0
STYLE
  2
KANJI7
 70
     0
 40
12.47999904
 41
0.6
 50
0.0
 71
     0
 42
12.47999904
  3

  4
bigfont
  0
STYLE
  2
KANJI8
 70
     0
 40
10.3999992
 41
0.8
 50
0.0
 71
     0
 42
10.3999992
  3

  4
bigfont
  0
STYLE
  2
KANJI9
 70
     0
 40
12.47999904
 41
0.8
 50
0.0
 71
     0
 42
12.47999904
  3

  4
bigfont
  0
STYLE
  2
KANJI10
 70
     0
 40
51.999996
 41
0.9
 50
0.0
 71
     0
 42
51.999996
  3

  4
bigfont
  0
STYLE
  2
KANJI11
 70
     0
 40
17.999996215
 41
0.9
 50
0.0
 71
     0
 42
17.999996215
  3

  4
bigfont
  0
STYLE
  2
KANJI12
 70
     0
 40
18.1999986
 41
0.42031746
 50
0.0
 71
     0
 42
18.1999986
  3

  4
bigfont
  0
STYLE
  2
KANJI13
 70
     0
 40
31.1999976
 41
0.9
 50
0.0
 71
     0
 42
31.1999976
  3

  4
bigfont
  0
STYLE
  2
KANJI14
 70
     0
 40
27.0
 41
0.9
 50
0.0
 71
     0
 42
27.0
  3

  4
bigfont
  0
STYLE
  2
KANJI15
 70
     0
 40
22.8
 41
0.9
 50
0.0
 71
     0
 42
22.8
  3

  4
bigfont
  0
STYLE
  2
KANJI16
 70
     0
 40
22.8
 41
0.9
 50
0.0
 71
     0
 42
22.8
  3

  4
bigfont
  0
STYLE
  2
KANJI17
 70
     0
 40
22.8
 41
0.9
 50
0.0
 71
     0
 42
22.8
  3

  4
bigfont
  0
STYLE
  2
KANJI18
 70
     0
 40
16.8
 41
0.8
 50
0.0
 71
     0
 42
16.8
  3

  4
bigfont
  0
STYLE
  2
KANJI19
 70
     0
 40
22.8
 41
0.9
 50
0.0
 71
     0
 42
22.8
  3

  4
bigfont
  0
STYLE
  2
KANJI20
 70
     0
 40
22.8
 41
0.9
 50
0.0
 71
     0
 42
22.8
  3

  4
bigfont
  0
STYLE
  2
KANJI21
 70
     0
 40
22.8
 41
0.9
 50
0.0
 71
     0
 42
22.8
  3

  4
bigfont
  0
STYLE
  2
KANJI22
 70
     0
 40
22.8
 41
0.9
 50
0.0
 71
     0
 42
22.8
  3

  4
bigfont
  0
STYLE
  2
KANJI23
 70
     0
 40
22.8
 41
0.9
 50
0.0
 71
     0
 42
22.8
  3

  4
bigfont
  0
STYLE
  2
KANJI24
 70
     0
 40
16.8
 41
0.9
 50
0.0
 71
     0
 42
16.8
  3

  4
bigfont
  0
STYLE
  2
KANJI25
 70
     0
 40
22.8
 41
0.9
 50
0.0
 71
     0
 42
22.8
  3

  4
bigfont
  0
STYLE
  2
KANJI26
 70
     0
 40
18.0
 41
0.9
 50
0.0
 71
     0
 42
18.0
  3

  4
bigfont
  0
STYLE
  2
KANJI27
 70
     0
 40
18.0
 41
0.9
 50
0.0
 71
     0
 42
18.0
  3

  4
bigfont
  0
STYLE
  2
KANJI28
 70
     0
 40
24.0
 41
0.875
 50
0.0
 71
     0
 42
24.0
  3

  4
bigfont
  0
STYLE
  2
KANJI29
 70
     0
 40
21.6
 41
0.857142857
 50
0.0
 71
     0
 42
21.6
  3

  4
bigfont
  0
STYLE
  2
KANJI30
 70
     0
 40
19.2
 41
0.875
 50
0.0
 71
     0
 42
19.2
  3

  4
bigfont
  0
STYLE
  2
KANJI31
 70
     0
 40
24.0
 41
0.9
 50
0.0
 71
     0
 42
24.0
  3

  4
bigfont
  0
STYLE
  2
KANJI32
 70
     0
 40
14.4
 41
0.9
 50
0.0
 71
     0
 42
14.4
  3

  4
bigfont
  0
STYLE
  2
KANJI33
 70
     0
 40
8.64
 41
0.9
 50
0.0
 71
     0
 42
8.64
  3

  4
bigfont
  0
STYLE
  2
KANJI34
 70
     0
 40
24.0
 41
0.9
 50
0.0
 71
     0
 42
24.0
  3

  4
bigfont
  0
STYLE
  2
KANJI35
 70
     0
 40
15.0
 41
0.9
 50
0.0
 71
     0
 42
15.0
  3

  4
bigfont
  0
STYLE
  2
KANJI36
 70
     0
 40
27.0
 41
0.888888889
 50
0.0
 71
     0
 42
27.0
  3

  4
bigfont
  0
STYLE
  2
KANJI37
 70
     0
 40
27.0
 41
1.0
 50
0.0
 71
     0
 42
27.0
  3

  4
bigfont
  0
STYLE
  2
KANJI38
 70
     0
 40
21.0
 41
0.9
 50
0.0
 71
     0
 42
21.0
  3

  4
bigfont
  0
STYLE
  2
KANJI39
 70
     0
 40
16.8
 41
0.785714286
 50
0.0
 71
     0
 42
16.8
  3

  4
bigfont
  0
STYLE
  2
KANJI40
 70
     0
 40
21.0
 41
0.914285714
 50
0.0
 71
     0
 42
21.0
  3

  4
bigfont
  0
STYLE
  2
KANJI41
 70
     0
 40
27.0
 41
0.666666667
 50
0.0
 71
     0
 42
27.0
  3

  4
bigfont
  0
STYLE
  2
KANJI42
 70
     0
 40
18.0
 41
0.9
 50
0.0
 71
     0
 42
18.0
  3

  4
bigfont
  0
STYLE
  2
KANJI43
 70
     0
 40
14.4
 41
0.777777778
 50
0.0
 71
     0
 42
14.4
  3

  4
bigfont
  0
STYLE
  2
KANJI44
 70
     0
 40
19.2
 41
0.9
 50
0.0
 71
     0
 42
19.2
  3

  4
bigfont
  0
STYLE
  2
KANJI45
 70
     0
 40
21.0
 41
0.9
 50
0.0
 71
     0
 42
21.0
  3

  4
bigfont
  0
STYLE
  2
KANJI46
 70
     0
 40
18.0
 41
0.9
 50
0.0
 71
     0
 42
18.0
  3

  4
bigfont
  0
STYLE
  2
KANJI47
 70
     0
 40
18.0
 41
0.833333333
 50
0.0
 71
     0
 42
18.0
  3

  4
bigfont
  0
STYLE
  2
KANJI48
 70
     0
 40
24.0
 41
0.75
 50
0.0
 71
     0
 42
24.0
  3

  4
bigfont
  0
STYLE
  2
KANJI49
 70
     0
 40
30.0
 41
0.8
 50
0.0
 71
     0
 42
30.0
  3

  4
bigfont
  0
STYLE
  2
KANJI50
 70
     0
 40
21.0
 41
0.571428571
 50
0.0
 71
     0
 42
21.0
  3

  4
bigfont
  0
STYLE
  2
KANJI51
 70
     0
 40
18.0
 41
0.666666667
 50
0.0
 71
     0
 42
18.0
  3

  4
bigfont
  0
STYLE
  2
KANJI52
 70
     0
 40
18.0
 41
0.666666667
 50
0.0
 71
     0
 42
18.0
  3

  4
bigfont
  0
STYLE
  2
KANJI53
 70
     0
 40
15.5999988
 41
0.75
 50
0.0
 71
     0
 42
15.5999988
  3

  4
bigfont
  0
STYLE
  2
KANJI54
 70
     0
 40
21.6
 41
0.833333333
 50
0.0
 71
     0
 42
21.6
  3

  4
bigfont
  0
STYLE
  2
KANJI55
 70
     0
 40
21.6
 41
0.857222222
 50
0.0
 71
     0
 42
21.6
  3

  4
bigfont
  0
ENDTAB
  0
TABLE
  2
VIEW
 70
     0
  0
ENDTAB
  0
ENDSEC
  0
SECTION
  2
BLOCKS
  0
ENDSEC
  0
SECTION
  2
ENTITIES
  0
LINE
  8
0
  6
CONTINUOUS
 62
     4
 10
2436.0
 20
-42.0
 11
1842.0
 21
-42.0
  0
LINE
  8
0
  6
CONTINUOUS
 62
     4
 10
2436.0
 20
-102.0
 11
1842.0
 21
-102.0
  0
TEXT
  8
0
  6
CONTINUOUS
 62
     4
 10
131.999996215
 20
101.999993692
 30
1.199999748
 40
11.999997477
  1
ＰＡＲＴＳ　ＬＩＳＴ
 50
0.0
 41
0.6
 51
0.0
  7
KANJI0
  0
TEXT
  8
0
  6
CONTINUOUS
 62
     4
 10
401.999939446
 20
101.999993692
 30
1.199999748
 40
11.999997477
  1
Ｎ０．
 50
0.0
 41
0.6
 51
0.0
  7
KANJI0
  0
TEXT
  8
0
  6
CONTINUOUS
 62
     4
 10
131.999996215
 20
83.999997477
 30
1.439999697
 40
14.399996972
  1
部品表
 50
0.0
 41
0.9
 51
0.0
  7
KANJI1
  0
TEXT
  8
0
  6
CONTINUOUS
 62
     4
 10
401.999939446
 20
83.999997477
 30
1.439999697
 40
14.399996972
  1
項番
 50
0.0
 41
0.9
 51
0.0
  7
KANJI1
  0
TEXT
  8
0
  6
CONTINUOUS
 62
     4
 10
1778.2000506
 20
1691.1999996
 30
1.55999988
 40
15.5999988
  1
ＩＳＯ
 50
0.0
 41
0.9
 51
0.0
  7
KANJI2
  0
TEXT
  8
0
  6
CONTINUOUS
 62
     4
 10
1825.000047
 20
1691.1999996
 30
1.03999992
 40
10.3999992
  1
ＭＥＴＲＩＣ　ＳＣＲＥＷ　ＴＨＲＥＡＤ
 50
0.0
 41
0.75
 51
0.0
  7
KANJI3
  0
TEXT
  8
0
  6
CONTINUOUS
 62
     4
 10
2001.54003342
 20
1691.1999996
 30
1.03999992
 40
10.3999992
  1
ＩＳＯ
 50
0.0
 41
0.75
 51
0.0
  7
KANJI3
  0
TEXT
  8
0
  6
CONTINUOUS
 62
     4
 10
2149.74002202
 20
1691.1999996
 30
1.55999988
 40
15.5999988
  1
３
 50
0.0
 41
0.75
 51
0.0
  7
KANJI4
  0
TEXT
  8
0
  6
CONTINUOUS
 62
     4
 10
2162.74002102
 20
1691.1999996
 30
1.03999992
 40
10.3999992
  1
ＲＤ　ＡＮＧＬＥ　ＰＲＯＪＥＣＴＩＯＮ　第３角法
 50
0.0
 41
0.75
 51
0.0
  7
KANJI3
  0
TEXT
  8
0
  6
CONTINUOUS
 62
     4
 10
2030.14003122
 20
1691.1999996
 30
0.935999928
 40
9.35999928
  1
メートルネジ使用
 50
0.0
 41
0.75
 51
0.0
  7
KANJI5
  0
TEXT
  8
0
  6
CONTINUOUS
 62
     4
 10
1640.4000612
 20
183.7999914
 30
1.03999992
 40
10.3999992
  1
ＤＲＡＷＮ
 50
0.0
 41
0.6
 51
0.0
  7
KANJI6
  0
TEXT
  8
0
  6
CONTINUOUS
 62
     4
 10
1640.4000612
 20
225.3999882
 30
1.03999992
 40
10.3999992
  1
ＤＥＳＩＧＮ
 50
0.0
 41
0.6
 51
0.0
  7
KANJI6
  0
TEXT
  8
0
  6
CONTINUOUS
 62
     4
 10
1640.4000612
 20
266.999985
 30
1.03999992
 40
10.3999992
  1
ＣＨＥＣＫ
 50
0.0
 41
0.6
 51
0.0
  7
KANJI6
  0
TEXT
  8
0
  6
CONTINUOUS
 62
     4
 10
1640.4000612
 20
308.5999818
 30
1.03999992
 40
10.3999992
  1
ＣＯＤＥ
 50
0.0
 41
0.6
 51
0.0
  7
KANJI6
  0
LINE
  8
0
  6
CONTINUOUS
 62
     4
 10
1630.000062
 20
243.5999868
 11
1819.8000474
 21
243.5999868
  0
LINE
  8
0
  6
CONTINUOUS
 62
     4
 10
1630.000062
 20
201.99999
 11
1819.8000474
 21
201.99999
  0
LINE
  8
0
  6
CONTINUOUS
 62
     4
 10
1630.000062
 20
285.1999836
 11
1819.8000474
 21
285.1999836
  0
LINE
  8
0
  6
CONTINUOUS
 62
     4
 10
1630.000062
 20
326.7999804
 11
2430.8000004
 21
326.7999804
  0
TEXT
  8
0
  6
CONTINUOUS
 62
     4
 10
1640.4000612
 20
209.7999894
 30
1.247999904
 40
12.47999904
  1
設計
 50
0.0
 41
0.6
 51
0.0
  7
KANJI7
  0
TEXT
  8
0
  6
CONTINUOUS
 62
     4
 10
1640.4000612
 20
251.3999862
 30
1.247999904
 40
12.47999904
  1
検図
 50
0.0
 41
0.6
 51
0.0
  7
KANJI7
  0
TEXT
  8
0
  6
CONTINUOUS
 62
     4
 10
1640.4000612
 20
292.999983
 30
1.247999904
 40
12.47999904
  1
分類
 50
0.0
 41
0.6
 51
0.0
  7
KANJI7
  0
LINE
  8
0
  6
CONTINUOUS
 62
     4
 10
1835.14004622
 20
285.1999836
 11
2430.8000004
 21
285.1999836
  0
LINE
  8
0
  6
CONTINUOUS
 62
     4
 10
1819.8000474
 20
201.99999
 11
2430.8000004
 21
201.99999
  0
TEXT
  8
0
  6
CONTINUOUS
 62
     4
 10
1830.2000466
 20
183.7999914
 30
1.03999992
 40
10.3999992
  1
ＤＲＡＷＩＮＧ　ＮＯ．
 50
0.0
 41
0.8
 51
0.0
  7
KANJI8
  0
TEXT
  8
0
  6
CONTINUOUS
 62
     4
 10
1830.2000466
 20
225.3999882
 30
1.03999992
 40
10.3999992
  1
ＭＦＧ　ＮＯ．
 50
0.0
 41
0.8
 51
0.0
  7
KANJI8
  0
TEXT
  8
0
  6
CONTINUOUS
 62
     4
 10
1830.2000466
 20
266.999985
 30
1.03999992
 40
10.3999992
  1
ＴＹＰＥ
 50
0.0
 41
0.8
 51
0.0
  7
KANJI8
  0
LINE
  8
0
  6
CONTINUOUS
 62
     4
 10
1835.4000462
 20
243.5999868
 11
2074.6000278
 21
243.5999868
  0
TEXT
  8
0
  6
CONTINUOUS
 62
     4
 10
1830.2000466
 20
165.5999928
 30
1.247999904
 40
12.47999904
  1
図　面　番　号
 50
0.0
 41
0.8
 51
0.0
  7
KANJI9
  0
TEXT
  8
0
  6
CONTINUOUS
 62
     4
 10
1830.2000466
 20
207.1999896
 30
1.247999904
 40
12.47999904
  1
製番
 50
0.0
 41
0.8
 51
0.0
  7
KANJI9
  0
TEXT
  8
0
  6
CONTINUOUS
 62
     4
 10
1830.2000466
 20
248.7999864
 30
1.247999904
 40
12.47999904
  1
機種
 50
0.0
 41
0.8
 51
0.0
  7
KANJI9
  0
LINE
  8
0
  6
CONTINUOUS
 62
     4
 10
1630.000062
 20
118.7999964
 11
1819.8000474
 21
118.7999964
  0
LINE
  8
0
  6
CONTINUOUS
 62
     4
 10
1630.000062
 20
160.3999932
 11
1819.8000474
 21
160.3999932
  0
TEXT
  8
0
  6
CONTINUOUS
 62
     4
 10
1640.4000612
 20
100.5999978
 30
1.03999992
 40
10.3999992
  1
ＳＣＡＬＥ
 50
0.0
 41
0.6
 51
0.0
  7
KANJI6
  0
TEXT
  8
0
  6
CONTINUOUS
 62
     4
 10
1640.4000612
 20
142.1999946
 30
1.03999992
 40
10.3999992
  1
ＤＡＴＥ
 50
0.0
 41
0.6
 51
0.0
  7
KANJI6
  0
TEXT
  8
0
  6
CONTINUOUS
 62
     4
 10
1640.4000612
 20
84.999999
 30
1.247999904
 40
12.47999904
  1
尺度
 50
0.0
 41
0.6
 51
0.0
  7
KANJI7
  0
TEXT
  8
0
  6
CONTINUOUS
 62
     4
 10
1640.4000612
 20
126.5999958
 30
1.247999904
 40
12.47999904
  1
日付
 50
0.0
 41
0.6
 51
0.0
  7
KANJI7
  0
TEXT
  8
0
  6
CONTINUOUS
 62
     4
 10
1640.4000612
 20
168.1999926
 30
1.247999904
 40
12.47999904
  1
作図
 50
0.0
 41
0.6
 51
0.0
  7
KANJI7
  0
LINE
  8
0
  6
CONTINUOUS
 62
     4
 10
1336.2000846
 20
77.1999996
 11
1336.2000846
 21
118.7999964
  0
LINE
  8
0
  6
CONTINUOUS
 62
     4
 10
1383.000081
 20
77.1999996
 11
1383.000081
 21
118.7999964
  0
TEXT
  8
0
  6
CONTINUOUS
 62
     4
 10
1351.8000834
 20
100.5999978
 30
1.03999992
 40
10.3999992
  1
ＢＹ
 50
0.0
 41
0.6
 51
0.0
  7
KANJI6
  0
TEXT
  8
0
  6
CONTINUOUS
 62
     4
 10
1466.2000746
 20
100.5999978
 30
1.03999992
 40
10.3999992
  1
ＤＥＳＣＲＩＰＴＩＯＮ
 50
0.0
 41
0.6
 51
0.0
  7
KANJI6
  0
TEXT
  8
0
  6
CONTINUOUS
 62
     4
 10
1351.8000834
 20
84.999999
 30
1.247999904
 40
12.47999904
  1
担当
 50
0.0
 41
0.6
 51
0.0
  7
KANJI7
  0
TEXT
  8
0
  6
CONTINUOUS
 62
     4
 10
1481.8000734
 20
84.999999
 30
1.247999904
 40
12.47999904
  1
記　　　　事
 50
0.0
 41
0.6
 51
0.0
  7
KANJI7
  0
LINE
  8
0
  6
CONTINUOUS
 62
     4
 10
1241.3000919
 20
110.999997
 11
1224.4000932
 21
84.999999
  0
TEXT
  8
0
  6
CONTINUOUS
 62
     4
 10
1284.2000886
 20
100.5999978
 30
1.03999992
 40
10.3999992
  1
ＤＡＴＥ
 50
0.0
 41
0.6
 51
0.0
  7
KANJI6
  0
TEXT
  8
0
  6
CONTINUOUS
 62
     4
 10
1292.000088
 20
84.999999
 30
1.247999904
 40
12.47999904
  1
日付
 50
0.0
 41
0.6
 51
0.0
  7
KANJI7
  0
LINE
  8
0
  6
CONTINUOUS
 62
     4
 10
1224.4000932
 20
84.999999
 11
1258.2000906
 21
84.999999
  0
LINE
  8
0
  6
CONTINUOUS
 62
     4
 10
1263.4000902
 20
77.1999996
 11
1263.4000902
 21
118.7999964
  0
LINE
  8
0
  6
CONTINUOUS
 62
     4
 10
1241.3000919
 20
110.999997
 11
1258.2000906
 21
84.999999
  0
LINE
  8
0
  6
CONTINUOUS
 62
     4
 10
1819.8000474
 20
142.1999946
 11
2430.8000004
 21
142.1999946
  0
LINE
  8
0
  6
CONTINUOUS
 62
     4
 10
1819.8000474
 20
77.1999996
 11
1819.8000474
 21
326.7999804
  0
LINE
  8
0
  6
LTYPE1
 62
     4
 10
2256.6000138
 20
149.999994
 11
2256.6000138
 21
191.5999908
  0
LINE
  8
0
  6
LTYPE1
 62
     4
 10
2220.2000166
 20
149.999994
 11
2220.2000166
 21
191.5999908
  0
LINE
  8
0
  6
LTYPE1
 62
     4
 10
2183.8000194
 20
149.999994
 11
2183.8000194
 21
191.5999908
  0
LINE
  8
0
  6
LTYPE1
 62
     4
 10
2147.4000222
 20
149.999994
 11
2147.4000222
 21
191.5999908
  0
LINE
  8
0
  6
LTYPE1
 62
     4
 10
2111.000025
 20
149.999994
 11
2111.000025
 21
191.5999908
  0
LINE
  8
0
  6
LTYPE1
 62
     4
 10
2074.6000278
 20
149.999994
 11
2074.6000278
 21
191.5999908
  0
LINE
  8
0
  6
LTYPE1
 62
     4
 10
2038.2000306
 20
149.999994
 11
2038.2000306
 21
191.5999908
  0
LINE
  8
0
  6
LTYPE1
 62
     4
 10
2001.8000334
 20
149.999994
 11
2001.8000334
 21
191.5999908
  0
LINE
  8
0
  6
LTYPE1
 62
     4
 10
2001.8000334
 20
191.5999908
 11
2256.6000138
 21
191.5999908
  0
LINE
  8
0
  6
LTYPE1
 62
     4
 10
2001.8000334
 20
149.999994
 11
2256.6000138
 21
149.999994
  0
LINE
  8
0
  6
CONTINUOUS
 62
     4
 10
2277.4000122
 20
172.0999923
 11
2287.8000114
 21
172.0999923
  0
LINE
  8
0
  6
CONTINUOUS
 62
     4
 10
2342.4000072
 20
156.4999935
 11
2306.00001
 21
156.4999935
  0
LINE
  8
0
  6
CONTINUOUS
 62
     4
 10
2306.00001
 20
156.4999935
 11
2324.2000086
 21
187.6999911
  0
LINE
  8
0
  6
CONTINUOUS
 62
     4
 10
2324.2000086
 20
187.6999911
 11
2342.4000072
 21
156.4999935
  0
TEXT
  8
0
  6
CONTINUOUS
 62
     4
 10
2347.6000068
 20
20.000004
 30
5.1999996
 40
51.999996
  1
／
 50
0.0
 41
0.9
 51
0.0
  7
KANJI10
  0
TEXT
  8
0
  6
CONTINUOUS
 62
     4
 10
2090.2000266
 20
266.999985
 30
1.03999992
 40
10.3999992
  1
ＴＩＴＬＥ
 50
0.0
 41
0.8
 51
0.0
  7
KANJI8
  0
TEXT
  8
0
  6
CONTINUOUS
 62
     4
 10
2090.2000266
 20
248.7999864
 30
1.247999904
 40
12.47999904
  1
名称
 50
0.0
 41
0.8
 51
0.0
  7
KANJI9
  0
LINE
  8
0
  6
CONTINUOUS
 62
     6
 10
114.0
 20
72.0
 11
114.0
 21
1686.0
  0
LINE
  8
0
  6
CONTINUOUS
 62
     6
 10
114.0
 20
1686.0
 11
2436.0
 21
1686.0
  0
LINE
  8
0
  6
CONTINUOUS
 62
     6
 10
2436.0
 20
1686.0
 11
2436.0
 21
72.0
  0
LINE
  8
0
  6
CONTINUOUS
 62
     6
 10
2436.0
 20
72.0
 11
114.0
 21
72.0
  0
LINE
  8
0
  6
CONTINUOUS
 62
     6
 10
509.999916738
 20
77.999998738
 11
509.999916738
 21
161.999981077
  0
LINE
  8
0
  6
CONTINUOUS
 62
     6
 10
119.999998738
 20
161.999981077
 11
509.999916738
 21
161.999981077
  0
LINE
  8
0
  6
CONTINUOUS
 62
     6
 10
119.999998738
 20
77.999998738
 11
509.999916738
 21
77.999998738
  0
LINE
  8
0
  6
CONTINUOUS
 62
     6
 10
119.999998738
 20
77.999998738
 11
119.999998738
 21
161.999981077
  0
LINE
  8
0
  6
CONTINUOUS
 62
     6
 10
389.999941969
 20
77.999998738
 11
389.999941969
 21
161.999981077
  0
LINE
  8
0
  6
CONTINUOUS
 62
     6
 10
119.999998738
 20
119.999989908
 11
509.999916738
 21
119.999989908
  0
TEXT
  8
0
  6
CONTINUOUS
 62
     3
 10
131.999996215
 20
131.999987385
 30
1.799999622
 40
17.999996215
  1
ＰＬ
 50
0.0
 41
0.9
 51
0.0
  7
KANJI11
  0
LINE
  8
0
  6
CONTINUOUS
 62
     6
 10
1219.2000936
 20
77.1999996
 11
1219.2000936
 21
118.7999964
  0
LINE
  8
0
  6
CONTINUOUS
 62
     6
 10
1219.2000936
 20
118.7999964
 11
1630.000062
 21
118.7999964
  0
LINE
  8
0
  6
CONTINUOUS
 62
     6
 10
1219.2000936
 20
77.1999996
 11
2430.8000004
 21
77.1999996
  0
LINE
  8
0
  6
CONTINUOUS
 62
     6
 10
2038.655030565
 20
104.75999748
 11
2021.495031885
 21
104.75999748
  0
LINE
  8
0
  6
CONTINUOUS
 62
     6
 10
2038.655030565
 20
107.87999724
 11
2021.495031885
 21
107.87999724
  0
LINE
  8
0
  6
CONTINUOUS
 62
     6
 10
2038.655030565
 20
104.75999748
 11
2055.815029245
 21
104.75999748
  0
LINE
  8
0
  6
CONTINUOUS
 62
     6
 10
2038.655030565
 20
107.87999724
 11
2055.815029245
 21
107.87999724
  0
LINE
  8
0
  6
CONTINUOUS
 62
     6
 10
2055.815029245
 20
107.87999724
 11
2055.815029245
 21
104.75999748
  0
ARC
  8
0
  6
CONTINUOUS
 62
     6
 10
2059.715028945
 20
106.31999736
 40
15.5999988
 50
185.739170477
 51
90.0
  0
ARC
  8
0
  6
CONTINUOUS
 62
     6
 10
2059.715028945
 20
106.31999736
 40
18.71999856
 50
184.780191847
 51
90.0
  0
LINE
  8
0
  6
CONTINUOUS
 62
     6
 10
2021.495031885
 20
104.75999748
 11
2021.495031885
 21
107.87999724
  0
TEXT
  8
0
  6
CONTINUOUS
 62
     6
 10
1825.000047
 20
100.5999978
 30
0.0
 40
18.1999986
  1
ＵＮＩＴＥＣ　ＩＮＤＵＳＴＲＹ　ＣＯ．，ＬＴＤ．
 50
0.0
 41
0.42031746
 51
0.0
  7
KANJI12
  0
LINE
  8
0
  6
CONTINUOUS
 62
     6
 10
2036.315030745
 20
125.03999592
 11
2017.595032185
 21
125.03999592
  0
LINE
  8
0
  6
CONTINUOUS
 62
     6
 10
2040.995030385
 20
125.03999592
 11
2059.715028945
 21
125.03999592
  0
ARC
  8
0
  6
CONTINUOUS
 62
     6
 10
2017.595032185
 20
106.31999736
 40
15.5999988
 50
90.0
 51
354.260829523
  0
ARC
  8
0
  6
CONTINUOUS
 62
     6
 10
2017.595032185
 20
106.31999736
 40
18.71999856
 50
90.0
 51
355.219808153
  0
LINE
  8
0
  6
CONTINUOUS
 62
     6
 10
2036.315030745
 20
125.03999592
 11
2036.315030745
 21
121.91999616
  0
LINE
  8
0
  6
CONTINUOUS
 62
     6
 10
2017.595032185
 20
121.91999616
 11
2036.315030745
 21
121.91999616
  0
LINE
  8
0
  6
CONTINUOUS
 62
     6
 10
2040.995030385
 20
125.03999592
 11
2040.995030385
 21
121.91999616
  0
LINE
  8
0
  6
CONTINUOUS
 62
     6
 10
2059.715028945
 20
121.91999616
 11
2040.995030385
 21
121.91999616
  0
TEXT
  8
0
  6
CONTINUOUS
 62
     6
 10
2080.255027365
 20
93.83999832
 30
3.11999976
 40
31.1999976
  1
ユニテック工業株式会社
 50
0.0
 41
0.9
 51
0.0
  7
KANJI13
  0
LINE
  8
0
  6
CONTINUOUS
 62
     1
 10
298.931625984
 20
948.073335986
 11
372.931625984
 21
948.073335986
  0
LINE
  8
0
  6
CONTINUOUS
 62
     1
 10
298.931625984
 20
968.073335986
 11
298.931625984
 21
948.073335986
  0
LINE
  8
0
  6
CONTINUOUS
 62
     1
 10
447.131625984
 20
948.073335986
 11
373.131625984
 21
948.073335986
  0
LINE
  8
0
  6
CONTINUOUS
 62
     1
 10
447.131625984
 20
968.073335986
 11
447.131625984
 21
948.073335986
  0
LINE
  8
0
  6
CONTINUOUS
 62
     1
 10
327.931625984
 20
1248.073335986
 11
327.931625984
 21
1290.073335986
  0
LINE
  8
0
  6
CONTINUOUS
 62
     1
 10
355.431625984
 20
1290.073335986
 11
355.431625984
 21
1293.073335986
  0
LINE
  8
0
  6
CONTINUOUS
 62
     1
 10
355.931625984
 20
1293.073335986
 11
355.931625984
 21
1353.073335986
  0
LINE
  8
0
  6
CONTINUOUS
 62
     1
 10
355.931625984
 20
1353.073335986
 11
372.931625984
 21
1353.073335986
  0
LINE
  8
0
  6
CONTINUOUS
 62
     1
 10
355.431625984
 20
1293.073335986
 11
372.931625984
 21
1293.073335986
  0
LINE
  8
0
  6
CONTINUOUS
 62
     1
 10
327.931625984
 20
1290.073335986
 11
372.931625984
 21
1290.073335986
  0
LINE
  8
0
  6
CONTINUOUS
 62
     1
 10
298.931625984
 20
1248.073335986
 11
372.931625984
 21
1248.073335986
  0
LINE
  8
0
  6
CONTINUOUS
 62
     1
 10
418.131625984
 20
1248.073335986
 11
418.131625984
 21
1290.073335986
  0
LINE
  8
0
  6
CONTINUOUS
 62
     1
 10
390.631625984
 20
1290.073335986
 11
390.631625984
 21
1293.073335986
  0
LINE
  8
0
  6
CONTINUOUS
 62
     1
 10
390.131625984
 20
1293.073335986
 11
390.131625984
 21
1353.073335986
  0
LINE
  8
0
  6
CONTINUOUS
 62
     1
 10
390.131625984
 20
1353.073335986
 11
373.131625984
 21
1353.073335986
  0
LINE
  8
0
  6
CONTINUOUS
 62
     1
 10
390.631625984
 20
1293.073335986
 11
373.131625984
 21
1293.073335986
  0
LINE
  8
0
  6
CONTINUOUS
 62
     1
 10
418.131625984
 20
1290.073335986
 11
373.131625984
 21
1290.073335986
  0
LINE
  8
0
  6
CONTINUOUS
 62
     1
 10
447.131625984
 20
1248.073335986
 11
373.131625984
 21
1248.073335986
  0
LINE
  8
0
  6
CONTINUOUS
 62
     1
 10
327.931625984
 20
948.073335986
 11
327.931625984
 21
906.073335986
  0
LINE
  8
0
  6
CONTINUOUS
 62
     1
 10
355.431625984
 20
906.073335986
 11
355.431625984
 21
903.073335986
  0
LINE
  8
0
  6
CONTINUOUS
 62
     1
 10
355.931625984
 20
903.073335986
 11
355.931625984
 21
843.073335986
  0
LINE
  8
0
  6
CONTINUOUS
 62
     1
 10
355.931625984
 20
843.073335986
 11
372.931625984
 21
843.073335986
  0
LINE
  8
0
  6
CONTINUOUS
 62
     1
 10
355.431625984
 20
903.073335986
 11
372.931625984
 21
903.073335986
  0
LINE
  8
0
  6
CONTINUOUS
 62
     1
 10
327.931625984
 20
906.073335986
 11
372.931625984
 21
906.073335986
  0
LINE
  8
0
  6
CONTINUOUS
 62
     1
 10
418.131625984
 20
948.073335986
 11
418.131625984
 21
906.073335986
  0
LINE
  8
0
  6
CONTINUOUS
 62
     1
 10
390.631625984
 20
906.073335986
 11
390.631625984
 21
903.073335986
  0
LINE
  8
0
  6
CONTINUOUS
 62
     1
 10
390.131625984
 20
903.073335986
 11
390.131625984
 21
843.073335986
  0
LINE
  8
0
  6
CONTINUOUS
 62
     1
 10
390.131625984
 20
843.073335986
 11
373.131625984
 21
843.073335986
  0
LINE
  8
0
  6
CONTINUOUS
 62
     1
 10
390.631625984
 20
903.073335986
 11
373.131625984
 21
903.073335986
  0
LINE
  8
0
  6
CONTINUOUS
 62
     1
 10
418.131625984
 20
906.073335986
 11
373.131625984
 21
906.073335986
  0
LINE
  8
0
  6
CONTINUOUS
 62
     1
 10
367.931625984
 20
1353.073335986
 11
367.931625984
 21
1298.073335986
  0
LINE
  8
0
  6
CONTINUOUS
 62
     1
 10
377.931625984
 20
1298.073335986
 11
367.931625984
 21
1298.073335986
  0
LINE
  8
0
  6
CONTINUOUS
 62
     1
 10
377.931625984
 20
1353.073335986
 11
377.931625984
 21
1298.073335986
  0
ARC
  8
0
  6
CONTINUOUS
 62
     1
 10
372.931625984
 20
1298.073335986
 40
5.0
 50
180.0
 51
0.0
  0
LINE
  8
0
  6
CONTINUOUS
 62
     1
 10
367.931625984
 20
843.073335986
 11
367.931625984
 21
898.073335986
  0
LINE
  8
0
  6
CONTINUOUS
 62
     1
 10
377.931625984
 20
898.073335986
 11
367.931625984
 21
898.073335986
  0
LINE
  8
0
  6
CONTINUOUS
 62
     1
 10
377.931625984
 20
843.073335986
 11
377.931625984
 21
898.073335986
  0
ARC
  8
0
  6
CONTINUOUS
 62
     1
 10
372.931625984
 20
898.073335986
 40
5.0
 50
0.0
 51
180.0
  0
LINE
  8
0
  6
CONTINUOUS
 62
     2
 10
355.931625984
 20
843.073335986
 11
170.731625984
 21
843.073335986
  0
LINE
  8
0
  6
CONTINUOUS
 62
     2
 10
175.731625984
 20
843.073335986
 11
178.966864047
 21
855.147408815
  0
LINE
  8
0
  6
CONTINUOUS
 62
     2
 10
175.731625984
 20
843.073335986
 11
172.49638792
 21
855.147408815
  0
LINE
  8
0
  6
CONTINUOUS
 62
     2
 10
175.731625984
 20
1353.073335986
 11
172.49638792
 21
1340.999263157
  0
LINE
  8
0
  6
CONTINUOUS
 62
     2
 10
175.731625984
 20
1353.073335986
 11
178.966864047
 21
1340.999263157
  0
LINE
  8
0
  6
CONTINUOUS
 62
     2
 10
355.931625984
 20
1353.073335986
 11
170.731625984
 21
1353.073335986
  0
LINE
  8
0
  6
CONTINUOUS
 62
     2
 10
220.731625984
 20
1248.073335986
 11
217.49638792
 21
1235.999263157
  0
LINE
  8
0
  6
CONTINUOUS
 62
     2
 10
220.731625984
 20
1248.073335986
 11
223.966864047
 21
1235.999263157
  0
LINE
  8
0
  6
CONTINUOUS
 62
     2
 10
298.931625984
 20
1248.073335986
 11
215.731625984
 21
1248.073335986
  0
LINE
  8
0
  6
CONTINUOUS
 62
     2
 10
355.931625984
 20
1353.073335986
 11
355.931625984
 21
1399.698335986
  0
LINE
  8
0
  6
CONTINUOUS
 62
     2
 10
355.931625984
 20
1394.698335986
 11
368.005698812
 21
1391.463097922
  0
LINE
  8
0
  6
CONTINUOUS
 62
     2
 10
355.931625984
 20
1394.698335986
 11
368.005698812
 21
1397.93357405
  0
LINE
  8
0
  6
CONTINUOUS
 62
     2
 10
355.931625984
 20
1394.698335986
 11
390.131625984
 21
1394.698335986
  0
LINE
  8
0
  6
CONTINUOUS
 62
     2
 10
390.131625984
 20
1394.698335986
 11
378.057553155
 21
1397.93357405
  0
LINE
  8
0
  6
CONTINUOUS
 62
     2
 10
390.131625984
 20
1394.698335986
 11
378.057553155
 21
1391.463097922
  0
LINE
  8
0
  6
CONTINUOUS
 62
     2
 10
390.131625984
 20
1353.073335986
 11
390.131625984
 21
1399.698335986
  0
LINE
  8
0
  6
CONTINUOUS
 62
     2
 10
327.931625984
 20
1268.198335986
 11
327.931625984
 21
1278.198335986
  0
LINE
  8
0
  6
CONTINUOUS
 62
     2
 10
327.931625984
 20
1273.198335986
 11
340.005698812
 21
1269.963097922
  0
LINE
  8
0
  6
CONTINUOUS
 62
     2
 10
327.931625984
 20
1273.198335986
 11
340.005698812
 21
1276.43357405
  0
LINE
  8
0
  6
CONTINUOUS
 62
     2
 10
417.931625984
 20
1273.198335986
 11
405.857553155
 21
1276.43357405
  0
LINE
  8
0
  6
CONTINUOUS
 62
     2
 10
417.931625984
 20
1273.198335986
 11
405.857553155
 21
1269.963097922
  0
LINE
  8
0
  6
CONTINUOUS
 62
     2
 10
417.931625984
 20
1268.198335986
 11
417.931625984
 21
1278.198335986
  0
LINE
  8
0
  6
LTYPE2
 62
     2
 10
264.934692258
 20
1178.07640226
 11
308.934692258
 21
1178.07640226
  0
LINE
  8
0
  6
LTYPE2
 62
     2
 10
264.934692258
 20
1018.47640226
 11
308.934692258
 21
1018.47640226
  0
LINE
  8
0
  6
CONTINUOUS
 62
     2
 10
327.931625984
 20
1290.073335986
 11
215.731625984
 21
1290.073335986
  0
LINE
  8
0
  6
CONTINUOUS
 62
     2
 10
220.731625984
 20
1290.073335986
 11
223.966864047
 21
1277.999263157
  0
LINE
  8
0
  6
CONTINUOUS
 62
     2
 10
220.731625984
 20
1290.073335986
 11
217.49638792
 21
1277.999263157
  0
LINE
  8
0
  6
CONTINUOUS
 62
     2
 10
220.731625984
 20
1290.073335986
 11
220.731625984
 21
1248.073335986
  0
LINE
  8
0
  6
CONTINUOUS
 62
     2
 10
220.731625984
 20
1248.073335986
 11
217.49638792
 21
1260.147408815
  0
LINE
  8
0
  6
CONTINUOUS
 62
     2
 10
220.731625984
 20
1248.073335986
 11
223.966864047
 21
1260.147408815
  0
LINE
  8
0
  6
CONTINUOUS
 62
     2
 10
175.731625984
 20
843.073335986
 11
175.731625984
 21
1353.073335986
  0
LINE
  8
0
  6
CONTINUOUS
 62
     2
 10
327.931625984
 20
906.073335986
 11
215.731625984
 21
906.073335986
  0
LINE
  8
0
  6
CONTINUOUS
 62
     2
 10
220.731625984
 20
906.073335986
 11
223.966864047
 21
918.147408815
  0
LINE
  8
0
  6
CONTINUOUS
 62
     2
 10
220.731625984
 20
906.073335986
 11
217.49638792
 21
918.147408815
  0
LINE
  8
0
  6
CONTINUOUS
 62
     2
 10
220.731625984
 20
906.073335986
 11
220.731625984
 21
948.073335986
  0
LINE
  8
0
  6
CONTINUOUS
 62
     2
 10
220.731625984
 20
948.073335986
 11
217.49638792
 21
935.999263157
  0
LINE
  8
0
  6
CONTINUOUS
 62
     2
 10
220.731625984
 20
948.073335986
 11
223.966864047
 21
935.999263157
  0
LINE
  8
0
  6
CONTINUOUS
 62
     2
 10
220.731625984
 20
948.073335986
 11
223.966864047
 21
960.147408815
  0
LINE
  8
0
  6
CONTINUOUS
 62
     2
 10
220.731625984
 20
948.073335986
 11
217.49638792
 21
960.147408815
  0
LINE
  8
0
  6
CONTINUOUS
 62
     2
 10
220.731625984
 20
948.073335986
 11
220.731625984
 21
1248.073335986
  0
LINE
  8
0
  6
CONTINUOUS
 62
     2
 10
297.131625984
 20
948.073335986
 11
215.731625984
 21
948.073335986
  0
LINE
  8
0
  6
CONTINUOUS
 62
     1
 10
447.131625984
 20
1198.815581345
 11
447.131625984
 21
1248.073335986
  0
LINE
  8
0
  6
CONTINUOUS
 62
     1
 10
298.931625984
 20
1198.815581345
 11
298.931625984
 21
1248.073335986
  0
LINE
  8
0
  6
CONTINUOUS
 62
     1
 10
298.931625984
 20
1228.073335986
 11
447.131625984
 21
1228.073335986
  0
POLYLINE
  8
0
  6
CONTINUOUS
 62
     1
 66
     1
 70
     1
  0
VERTEX
  8
0
  6
CONTINUOUS
 62
     1
 10
432.846047083
 20
1161.573335986
 42
0.030828907
  0
VERTEX
  8
0
  6
CONTINUOUS
 62
     1
 10
432.788967554
 20
1162.497762237
 42
0.030425797
  0
VERTEX
  8
0
  6
CONTINUOUS
 62
     1
 10
432.618163378
 20
1163.415153046
 42
0.029607756
  0
VERTEX
  8
0
  6
CONTINUOUS
 62
     1
 10
432.334934477
 20
1164.318526514
 42
0.028462655
  0
VERTEX
  8
0
  6
CONTINUOUS
 62
     1
 10
431.941436395
 20
1165.201007426
 42
0.02709878
  0
VERTEX
  8
0
  6
CONTINUOUS
 62
     1
 10
431.440663888
 20
1166.055879567
 42
0.025623927
  0
VERTEX
  8
0
  6
CONTINUOUS
 62
     1
 10
430.83642814
 20
1166.876636845
 42
0.024130573
  0
VERTEX
  8
0
  6
CONTINUOUS
 62
     1
 10
430.133327747
 20
1167.657032801
 42
0.022689019
  0
VERTEX
  8
0
  6
CONTINUOUS
 62
     1
 10
429.33671373
 20
1168.391128151
 42
0.021347012
  0
VERTEX
  8
0
  6
CONTINUOUS
 62
     1
 10
428.452648801
 20
1169.073335986
 42
0.020133139
  0
VERTEX
  8
0
  6
CONTINUOUS
 62
     1
 10
427.487861228
 20
1169.698464292
 42
0.019061584
  0
VERTEX
  8
0
  6
CONTINUOUS
 62
     1
 10
426.449693628
 20
1170.261755466
 42
0.018136748
  0
VERTEX
  8
0
  6
CONTINUOUS
 62
     1
 10
425.346047083
 20
1170.758922521
 42
0.017357048
  0
VERTEX
  8
0
  6
CONTINUOUS
 62
     1
 10
424.185321009
 20
1171.186181717
 42
0.016717738
  0
VERTEX
  8
0
  6
CONTINUOUS
 62
     1
 10
422.976349233
 20
1171.540281352
 42
0.016212869
  0
VERTEX
  8
0
  6
CONTINUOUS
 62
     1
 10
421.728332759
 20
1171.818526514
 42
0.015836575
  0
VERTEX
  8
0
  6
CONTINUOUS
 62
     1
 10
420.450769748
 20
1172.018799591
 42
0.015583879
  0
VERTEX
  8
0
  6
CONTINUOUS
 62
     1
 10
419.153383224
 20
1172.139576382
 42
0.01545117
  0
VERTEX
  8
0
  6
CONTINUOUS
 62
     1
 10
417.846047083
 20
1172.179937704
 42
0.015436471
  0
VERTEX
  8
0
  6
CONTINUOUS
 62
     1
 10
416.538710942
 20
1172.139576382
 42
0.01553956
  0
VERTEX
  8
0
  6
CONTINUOUS
 62
     1
 10
415.241324418
 20
1172.018799591
 42
0.015761981
  0
VERTEX
  8
0
  6
CONTINUOUS
 62
     1
 10
413.963761406
 20
1171.818526514
 42
0.016106956
  0
VERTEX
  8
0
  6
CONTINUOUS
 62
     1
 10
412.715744933
 20
1171.540281352
 42
0.016579155
  0
VERTEX
  8
0
  6
CONTINUOUS
 62
     1
 10
411.506773157
 20
1171.186181717
 42
0.017184283
  0
VERTEX
  8
0
  6
CONTINUOUS
 62
     1
 10
410.346047083
 20
1170.758922521
 42
0.017928366
  0
VERTEX
  8
0
  6
CONTINUOUS
 62
     1
 10
409.242400538
 20
1170.261755466
 42
0.018816605
  0
VERTEX
  8
0
  6
CONTINUOUS
 62
     1
 10
408.204232938
 20
1169.698464292
 42
0.019851601
  0
VERTEX
  8
0
  6
CONTINUOUS
 62
     1
 10
407.239445365
 20
1169.073335986
 42
0.021030768
  0
VERTEX
  8
0
  6
CONTINUOUS
 62
     1
 10
406.355380436
 20
1168.391128151
 42
0.022342775
  0
VERTEX
  8
0
  6
CONTINUOUS
 62
     1
 10
405.558766419
 20
1167.657032801
 42
0.023763095
  0
VERTEX
  8
0
  6
CONTINUOUS
 62
     1
 10
404.855666026
 20
1166.876636845
 42
0.025249176
  0
VERTEX
  8
0
  6
CONTINUOUS
 62
     1
 10
404.251430277
 20
1166.055879567
 42
0.026736517
  0
VERTEX
  8
0
  6
CONTINUOUS
 62
     1
 10
403.750657771
 20
1165.201007426
 42
0.028137835
  0
VERTEX
  8
0
  6
CONTINUOUS
 62
     1
 10
403.357159689
 20
1164.318526514
 42
0.029348088
  0
VERTEX
  8
0
  6
CONTINUOUS
 62
     1
 10
403.073930788
 20
1163.415153046
 42
0.030257315
  0
VERTEX
  8
0
  6
CONTINUOUS
 62
     1
 10
402.903126611
 20
1162.497762237
 42
0.030770446
  0
VERTEX
  8
0
  6
CONTINUOUS
 62
     1
 10
402.846047083
 20
1161.573335986
 42
0.030828907
  0
VERTEX
  8
0
  6
CONTINUOUS
 62
     1
 10
402.903126611
 20
1160.648909735
 42
0.030425797
  0
VERTEX
  8
0
  6
CONTINUOUS
 62
     1
 10
403.073930788
 20
1159.731518926
 42
0.029607756
  0
VERTEX
  8
0
  6
CONTINUOUS
 62
     1
 10
403.357159689
 20
1158.828145458
 42
0.028462655
  0
VERTEX
  8
0
  6
CONTINUOUS
 62
     1
 10
403.750657771
 20
1157.945664546
 42
0.02709878
  0
VERTEX
  8
0
  6
CONTINUOUS
 62
     1
 10
404.251430277
 20
1157.090792405
 42
0.025623927
  0
VERTEX
  8
0
  6
CONTINUOUS
 62
     1
 10
404.855666026
 20
1156.270035127
 42
0.024130573
  0
VERTEX
  8
0
  6
CONTINUOUS
 62
     1
 10
405.558766419
 20
1155.489639171
 42
0.022689019
  0
VERTEX
  8
0
  6
CONTINUOUS
 62
     1
 10
406.355380436
 20
1154.755543821
 42
0.021347012
  0
VERTEX
  8
0
  6
CONTINUOUS
 62
     1
 10
407.239445365
 20
1154.073335986
 42
0.020133139
  0
VERTEX
  8
0
  6
CONTINUOUS
 62
     1
 10
408.204232938
 20
1153.44820768
 42
0.019061584
  0
VERTEX
  8
0
  6
CONTINUOUS
 62
     1
 10
409.242400538
 20
1152.884916506
 42
0.018136748
  0
VERTEX
  8
0
  6
CONTINUOUS
 62
     1
 10
410.346047083
 20
1152.387749451
 42
0.017357048
  0
VERTEX
  8
0
  6
CONTINUOUS
 62
     1
 10
411.506773157
 20
1151.960490255
 42
0.016717738
  0
VERTEX
  8
0
  6
CONTINUOUS
 62
     1
 10
412.715744933
 20
1151.60639062
 42
0.016212869
  0
VERTEX
  8
0
  6
CONTINUOUS
 62
     1
 10
413.963761406
 20
1151.328145458
 42
0.015836575
  0
VERTEX
  8
0
  6
CONTINUOUS
 62
     1
 10
415.241324418
 20
1151.127872381
 42
0.015583879
  0
VERTEX
  8
0
  6
CONTINUOUS
 62
     1
 10
416.538710942
 20
1151.00709559
 42
0.01545117
  0
VERTEX
  8
0
  6
CONTINUOUS
 62
     1
 10
417.846047083
 20
1150.966734268
 42
0.015436471
  0
VERTEX
  8
0
  6
CONTINUOUS
 62
     1
 10
419.153383224
 20
1151.00709559
 42
0.01553956
  0
VERTEX
  8
0
  6
CONTINUOUS
 62
     1
 10
420.450769748
 20
1151.127872381
 42
0.015761981
  0
VERTEX
  8
0
  6
CONTINUOUS
 62
     1
 10
421.728332759
 20
1151.328145458
 42
0.016106956
  0
VERTEX
  8
0
  6
CONTINUOUS
 62
     1
 10
422.976349233
 20
1151.60639062
 42
0.016579155
  0
VERTEX
  8
0
  6
CONTINUOUS
 62
     1
 10
424.185321009
 20
1151.960490255
 42
0.017184283
  0
VERTEX
  8
0
  6
CONTINUOUS
 62
     1
 10
425.346047083
 20
1152.387749451
 42
0.017928366
  0
VERTEX
  8
0
  6
CONTINUOUS
 62
     1
 10
426.449693628
 20
1152.884916506
 42
0.018816605
  0
VERTEX
  8
0
  6
CONTINUOUS
 62
     1
 10
427.487861228
 20
1153.44820768
 42
0.019851601
  0
VERTEX
  8
0
  6
CONTINUOUS
 62
     1
 10
428.452648801
 20
1154.073335986
 42
0.021030768
  0
VERTEX
  8
0
  6
CONTINUOUS
 62
     1
 10
429.33671373
 20
1154.755543821
 42
0.022342775
  0
VERTEX
  8
0
  6
CONTINUOUS
 62
     1
 10
430.133327747
 20
1155.489639171
 42
0.023763095
  0
VERTEX
  8
0
  6
CONTINUOUS
 62
     1
 10
430.83642814
 20
1156.270035127
 42
0.025249176
  0
VERTEX
  8
0
  6
CONTINUOUS
 62
     1
 10
431.440663888
 20
1157.090792405
 42
0.026736517
  0
VERTEX
  8
0
  6
CONTINUOUS
 62
     1
 10
431.941436395
 20
1157.945664546
 42
0.028137835
  0
VERTEX
  8
0
  6
CONTINUOUS
 62
     1
 10
432.334934477
 20
1158.828145458
 42
0.029348088
  0
VERTEX
  8
0
  6
CONTINUOUS
 62
     1
 10
432.618163378
 20
1159.731518926
 42
0.030257315
  0
VERTEX
  8
0
  6
CONTINUOUS
 62
     1
 10
432.788967554
 20
1160.648909735
 42
0.030770446
  0
SEQEND
  8
0
  6
CONTINUOUS
 62
     1
  0
POLYLINE
  8
0
  6
CONTINUOUS
 62
     1
 66
     1
 70
     1
  0
VERTEX
  8
0
  6
CONTINUOUS
 62
     1
 10
434.346047083
 20
1161.573335986
 42
0.030828907
  0
VERTEX
  8
0
  6
CONTINUOUS
 62
     1
 10
434.283259601
 20
1162.590204862
 42
0.030425797
  0
VERTEX
  8
0
  6
CONTINUOUS
 62
     1
 10
434.095375008
 20
1163.599334751
 42
0.029607756
  0
VERTEX
  8
0
  6
CONTINUOUS
 62
     1
 10
433.783823217
 20
1164.593045567
 42
0.028462655
  0
VERTEX
  8
0
  6
CONTINUOUS
 62
     1
 10
433.350975326
 20
1165.56377457
 42
0.02709878
  0
VERTEX
  8
0
  6
CONTINUOUS
 62
     1
 10
432.800125569
 20
1166.504133925
 42
0.025623927
  0
VERTEX
  8
0
  6
CONTINUOUS
 62
     1
 10
432.135466245
 20
1167.406966931
 42
0.024130573
  0
VERTEX
  8
0
  6
CONTINUOUS
 62
     1
 10
431.362055814
 20
1168.265402483
 42
0.022689019
  0
VERTEX
  8
0
  6
CONTINUOUS
 62
     1
 10
430.485780394
 20
1169.072907368
 42
0.021347012
  0
VERTEX
  8
0
  6
CONTINUOUS
 62
     1
 10
429.513308972
 20
1169.823335986
 42
0.020133139
  0
VERTEX
  8
0
  6
CONTINUOUS
 62
     1
 10
428.452042643
 20
1170.510977123
 42
0.019061584
  0
VERTEX
  8
0
  6
CONTINUOUS
 62
     1
 10
427.310058283
 20
1171.130597414
 42
0.018136748
  0
VERTEX
  8
0
  6
CONTINUOUS
 62
     1
 10
426.096047083
 20
1171.677481175
 42
0.017357048
  0
VERTEX
  8
0
  6
CONTINUOUS
 62
     1
 10
424.819248402
 20
1172.14746629
 42
0.016717738
  0
VERTEX
  8
0
  6
CONTINUOUS
 62
     1
 10
423.489379448
 20
1172.536975888
 42
0.016212869
  0
VERTEX
  8
0
  6
CONTINUOUS
 62
     1
 10
422.116561327
 20
1172.843045567
 42
0.015836575
  0
VERTEX
  8
0
  6
CONTINUOUS
 62
     1
 10
420.711242014
 20
1173.063345951
 42
0.015583879
  0
VERTEX
  8
0
  6
CONTINUOUS
 62
     1
 10
419.284116838
 20
1173.196200422
 42
0.01545117
  0
VERTEX
  8
0
  6
CONTINUOUS
 62
     1
 10
417.846047083
 20
1173.240597876
 42
0.015436471
  0
VERTEX
  8
0
  6
CONTINUOUS
 62
     1
 10
416.407977328
 20
1173.196200422
 42
0.01553956
  0
VERTEX
  8
0
  6
CONTINUOUS
 62
     1
 10
414.980852151
 20
1173.063345951
 42
0.015761981
  0
VERTEX
  8
0
  6
CONTINUOUS
 62
     1
 10
413.575532839
 20
1172.843045567
 42
0.016106956
  0
VERTEX
  8
0
  6
CONTINUOUS
 62
     1
 10
412.202714718
 20
1172.536975888
 42
0.016579155
  0
VERTEX
  8
0
  6
CONTINUOUS
 62
     1
 10
410.872845764
 20
1172.14746629
 42
0.017184283
  0
VERTEX
  8
0
  6
CONTINUOUS
 62
     1
 10
409.596047083
 20
1171.677481175
 42
0.017928366
  0
VERTEX
  8
0
  6
CONTINUOUS
 62
     1
 10
408.382035883
 20
1171.130597414
 42
0.018816605
  0
VERTEX
  8
0
  6
CONTINUOUS
 62
     1
 10
407.240051523
 20
1170.510977123
 42
0.019851601
  0
VERTEX
  8
0
  6
CONTINUOUS
 62
     1
 10
406.178785193
 20
1169.823335986
 42
0.021030768
  0
VERTEX
  8
0
  6
CONTINUOUS
 62
     1
 10
405.206313771
 20
1169.072907368
 42
0.022342775
  0
VERTEX
  8
0
  6
CONTINUOUS
 62
     1
 10
404.330038352
 20
1168.265402483
 42
0.023763095
  0
VERTEX
  8
0
  6
CONTINUOUS
 62
     1
 10
403.55662792
 20
1167.406966931
 42
0.025249176
  0
VERTEX
  8
0
  6
CONTINUOUS
 62
     1
 10
402.891968597
 20
1166.504133925
 42
0.026736517
  0
VERTEX
  8
0
  6
CONTINUOUS
 62
     1
 10
402.34111884
 20
1165.56377457
 42
0.028137835
  0
VERTEX
  8
0
  6
CONTINUOUS
 62
     1
 10
401.908270949
 20
1164.593045567
 42
0.029348088
  0
VERTEX
  8
0
  6
CONTINUOUS
 62
     1
 10
401.596719158
 20
1163.599334751
 42
0.030257315
  0
VERTEX
  8
0
  6
CONTINUOUS
 62
     1
 10
401.408834564
 20
1162.590204862
 42
0.030770446
  0
VERTEX
  8
0
  6
CONTINUOUS
 62
     1
 10
401.346047083
 20
1161.573335986
 42
0.030828907
  0
VERTEX
  8
0
  6
CONTINUOUS
 62
     1
 10
401.408834564
 20
1160.55646711
 42
0.030425797
  0
VERTEX
  8
0
  6
CONTINUOUS
 62
     1
 10
401.596719158
 20
1159.547337221
 42
0.029607756
  0
VERTEX
  8
0
  6
CONTINUOUS
 62
     1
 10
401.908270949
 20
1158.553626405
 42
0.028462655
  0
VERTEX
  8
0
  6
CONTINUOUS
 62
     1
 10
402.34111884
 20
1157.582897402
 42
0.02709878
  0
VERTEX
  8
0
  6
CONTINUOUS
 62
     1
 10
402.891968597
 20
1156.642538047
 42
0.025623927
  0
VERTEX
  8
0
  6
CONTINUOUS
 62
     1
 10
403.55662792
 20
1155.739705041
 42
0.024130573
  0
VERTEX
  8
0
  6
CONTINUOUS
 62
     1
 10
404.330038352
 20
1154.881269489
 42
0.022689019
  0
VERTEX
  8
0
  6
CONTINUOUS
 62
     1
 10
405.206313771
 20
1154.073764604
 42
0.021347012
  0
VERTEX
  8
0
  6
CONTINUOUS
 62
     1
 10
406.178785193
 20
1153.323335986
 42
0.020133139
  0
VERTEX
  8
0
  6
CONTINUOUS
 62
     1
 10
407.240051523
 20
1152.635694849
 42
0.019061584
  0
VERTEX
  8
0
  6
CONTINUOUS
 62
     1
 10
408.382035883
 20
1152.016074558
 42
0.018136748
  0
VERTEX
  8
0
  6
CONTINUOUS
 62
     1
 10
409.596047083
 20
1151.469190797
 42
0.017357048
  0
VERTEX
  8
0
  6
CONTINUOUS
 62
     1
 10
410.872845764
 20
1150.999205682
 42
0.016717738
  0
VERTEX
  8
0
  6
CONTINUOUS
 62
     1
 10
412.202714718
 20
1150.609696084
 42
0.016212869
  0
VERTEX
  8
0
  6
CONTINUOUS
 62
     1
 10
413.575532839
 20
1150.303626405
 42
0.015836575
  0
VERTEX
  8
0
  6
CONTINUOUS
 62
     1
 10
414.980852151
 20
1150.083326021
 42
0.015583879
  0
VERTEX
  8
0
  6
CONTINUOUS
 62
     1
 10
416.407977328
 20
1149.95047155
 42
0.01545117
  0
VERTEX
  8
0
  6
CONTINUOUS
 62
     1
 10
417.846047083
 20
1149.906074096
 42
0.015436471
  0
VERTEX
  8
0
  6
CONTINUOUS
 62
     1
 10
419.284116838
 20
1149.95047155
 42
0.01553956
  0
VERTEX
  8
0
  6
CONTINUOUS
 62
     1
 10
420.711242014
 20
1150.083326021
 42
0.015761981
  0
VERTEX
  8
0
  6
CONTINUOUS
 62
     1
 10
422.116561327
 20
1150.303626405
 42
0.016106956
  0
VERTEX
  8
0
  6
CONTINUOUS
 62
     1
 10
423.489379448
 20
1150.609696084
 42
0.016579155
  0
VERTEX
  8
0
  6
CONTINUOUS
 62
     1
 10
424.819248402
 20
1150.999205682
 42
0.017184283
  0
VERTEX
  8
0
  6
CONTINUOUS
 62
     1
 10
426.096047083
 20
1151.469190797
 42
0.017928366
  0
VERTEX
  8
0
  6
CONTINUOUS
 62
     1
 10
427.310058283
 20
1152.016074558
 42
0.018816605
  0
VERTEX
  8
0
  6
CONTINUOUS
 62
     1
 10
428.452042643
 20
1152.635694849
 42
0.019851601
  0
VERTEX
  8
0
  6
CONTINUOUS
 62
     1
 10
429.513308972
 20
1153.323335986
 42
0.021030768
  0
VERTEX
  8
0
  6
CONTINUOUS
 62
     1
 10
430.485780394
 20
1154.073764604
 42
0.022342775
  0
VERTEX
  8
0
  6
CONTINUOUS
 62
     1
 10
431.362055814
 20
1154.881269489
 42
0.023763095
  0
VERTEX
  8
0
  6
CONTINUOUS
 62
     1
 10
432.135466245
 20
1155.739705041
 42
0.025249176
  0
VERTEX
  8
0
  6
CONTINUOUS
 62
     1
 10
432.800125569
 20
1156.642538047
 42
0.026736517
  0
VERTEX
  8
0
  6
CONTINUOUS
 62
     1
 10
433.350975326
 20
1157.582897402
 42
0.028137835
  0
VERTEX
  8
0
  6
CONTINUOUS
 62
     1
 10
433.783823217
 20
1158.553626405
 42
0.029348088
  0
VERTEX
  8
0
  6
CONTINUOUS
 62
     1
 10
434.095375008
 20
1159.547337221
 42
0.030257315
  0
VERTEX
  8
0
  6
CONTINUOUS
 62
     1
 10
434.283259601
 20
1160.55646711
 42
0.030770446
  0
SEQEND
  8
0
  6
CONTINUOUS
 62
     1
  0
LINE
  8
0
  6
LTYPE3
 62
     2
 10
385.846047083
 20
1161.573335986
 11
448.346047083
 21
1161.573335986
  0
LINE
  8
0
  6
LTYPE3
 62
     2
 10
417.846047083
 20
1134.573335986
 11
417.846047083
 21
1187.073335986
  0
ARC
  8
0
  6
CONTINUOUS
 62
     1
 10
440.846047083
 20
1098.073335986
 40
4.0
 50
90.0
 51
270.0
  0
LINE
  8
0
  6
CONTINUOUS
 62
     1
 10
440.846047083
 20
1102.073335986
 11
473.846047083
 21
1102.073335986
  0
LINE
  8
0
  6
CONTINUOUS
 62
     1
 10
440.846047083
 20
1094.073335986
 11
473.846047083
 21
1094.073335986
  0
ARC
  8
0
  6
CONTINUOUS
 62
     1
 10
473.846047083
 20
1098.073335986
 40
4.0
 50
270.0
 51
90.0
  0
ARC
  8
0
  6
CONTINUOUS
 62
     1
 10
457.346047083
 20
1098.073335986
 40
10.0
 50
23.578178478
 51
156.421821522
  0
ARC
  8
0
  6
CONTINUOUS
 62
     1
 10
457.346047083
 20
1098.073335986
 40
10.0
 50
203.578178478
 51
336.421821522
  0
LINE
  8
0
  6
LTYPE3
 62
     2
 10
457.346047083
 20
1085.473335986
 11
457.346047083
 21
1110.573335986
  0
LINE
  8
0
  6
LTYPE3
 62
     2
 10
433.311198473
 20
1098.073335986
 11
480.811198473
 21
1098.073335986
  0
ARC
  8
0
  6
LTYPE1
 62
     2
 10
440.846047083
 20
1098.073335986
 40
4.0
 50
270.0
 51
90.0
  0
ARC
  8
0
  6
LTYPE1
 62
     2
 10
457.346047083
 20
1098.073335986
 40
10.0
 50
156.421821522
 51
203.578178478
  0
ARC
  8
0
  6
LTYPE1
 62
     2
 10
473.846047083
 20
1098.073335986
 40
4.0
 50
90.0
 51
270.0
  0
ARC
  8
0
  6
LTYPE1
 62
     2
 10
457.346047083
 20
1098.073335986
 40
10.0
 50
0.0
 51
23.578178478
  0
ARC
  8
0
  6
LTYPE1
 62
     2
 10
457.346047083
 20
1098.073335986
 40
10.0
 50
336.421821522
 51
0.0
  0
LINE
  8
0
  6
CONTINUOUS
 62
     1
 10
447.131625984
 20
997.331090627
 11
447.131625984
 21
948.073335986
  0
LINE
  8
0
  6
CONTINUOUS
 62
     1
 10
298.931625984
 20
997.331090627
 11
298.931625984
 21
948.073335986
  0
LINE
  8
0
  6
CONTINUOUS
 62
     1
 10
298.931625984
 20
968.073335986
 11
447.131625984
 21
968.073335986
  0
LINE
  8
0
  6
LTYPE1
 62
     2
 10
334.431625984
 20
1434.993335986
 11
411.231625984
 21
1434.993335986
  0
LINE
  8
0
  6
LTYPE1
 62
     2
 10
331.231625984
 20
1434.993335986
 11
354.413845815
 21
1428.781678904
  0
LINE
  8
0
  6
LTYPE1
 62
     2
 10
331.231625984
 20
1434.993335986
 11
354.413845815
 21
1441.204993068
  0
LINE
  8
7
  6
CONTINUOUS
 62
     2
 10
220.731625984
 20
906.073335986
 11
223.966864047
 21
918.147408815
  0
LINE
  8
7
  6
CONTINUOUS
 62
     2
 10
220.731625984
 20
906.073335986
 11
217.49638792
 21
918.147408815
  0
LINE
  8
7
  6
CONTINUOUS
 62
     2
 10
220.731625984
 20
924.823335986
 11
220.731625984
 21
870.823335986
  0
LINE
  8
7
  6
CONTINUOUS
 62
     2
 10
220.731625984
 20
903.073335986
 11
217.49638792
 21
890.999263157
  0
LINE
  8
7
  6
CONTINUOUS
 62
     2
 10
220.731625984
 20
903.073335986
 11
223.966864047
 21
890.999263157
  0
LINE
  8
7
  6
CONTINUOUS
 62
     2
 10
347.931625984
 20
903.073335986
 11
213.231625984
 21
903.073335986
  0
LINE
  8
7
  6
CONTINUOUS
 62
     2
 10
220.731625984
 20
1271.323335986
 11
220.731625984
 21
1325.323335986
  0
LINE
  8
7
  6
CONTINUOUS
 62
     2
 10
220.731625984
 20
1293.073335986
 11
217.49638792
 21
1305.147408815
  0
LINE
  8
7
  6
CONTINUOUS
 62
     2
 10
220.731625984
 20
1293.073335986
 11
223.966864047
 21
1305.147408815
  0
LINE
  8
7
  6
CONTINUOUS
 62
     2
 10
347.931625984
 20
1293.073335986
 11
213.231625984
 21
1293.073335986
  0
LINE
  8
0
  6
CONTINUOUS
 62
     1
 10
477.931625984
 20
1098.073335986
 11
477.931625984
 21
972.473335986
  0
LINE
  8
0
  6
CONTINUOUS
 62
     1
 10
447.131625984
 20
972.473335986
 11
477.931625984
 21
972.473335986
  0
LINE
  8
0
  6
CONTINUOUS
 62
     1
 10
477.931625984
 20
1098.073335986
 11
477.931625984
 21
1223.673335986
  0
LINE
  8
0
  6
CONTINUOUS
 62
     1
 10
447.131625984
 20
1223.673335986
 11
477.931625984
 21
1223.673335986
  0
LINE
  8
0
  6
CONTINUOUS
 62
     1
 10
698.931625984
 20
1018.073335986
 11
715.931625984
 21
1018.073335986
  0
LINE
  8
0
  6
CONTINUOUS
 62
     1
 10
698.931625984
 20
1018.073335986
 11
715.931625984
 21
1018.073335986
  0
LINE
  8
0
  6
CONTINUOUS
 62
     1
 10
698.931625984
 20
1178.073335986
 11
715.931625984
 21
1178.073335986
  0
LINE
  8
0
  6
CONTINUOUS
 62
     1
 10
715.931625984
 20
1178.073335986
 11
715.931625984
 21
1018.073335986
  0
LINE
  8
0
  6
CONTINUOUS
 62
     1
 10
502.931625984
 20
1098.073335986
 11
502.931625984
 21
973.073335986
  0
LINE
  8
0
  6
CONTINUOUS
 62
     1
 10
477.931625984
 20
973.073335986
 11
502.931625984
 21
973.073335986
  0
LINE
  8
0
  6
CONTINUOUS
 62
     1
 10
502.931625984
 20
1098.673335986
 11
502.931625984
 21
1223.673335986
  0
LINE
  8
0
  6
CONTINUOUS
 62
     1
 10
615.931625984
 20
1098.073335986
 11
615.931625984
 21
1015.573335986
  0
LINE
  8
0
  6
CONTINUOUS
 62
     1
 10
615.931625984
 20
1097.873335986
 11
615.931625984
 21
1180.373335986
  0
ARC
  8
0
  6
CONTINUOUS
 62
     1
 10
508.931625984
 20
1183.873335986
 40
6.0
 50
180.0
 51
270.0
  0
LINE
  8
0
  6
CONTINUOUS
 62
     1
 10
508.931625984
 20
1177.873335986
 11
615.931625984
 21
1177.873335986
  0
ARC
  8
0
  6
CONTINUOUS
 62
     1
 10
508.931625984
 20
1012.073335986
 40
6.0
 50
90.0
 51
180.0
  0
LINE
  8
0
  6
CONTINUOUS
 62
     1
 10
508.631625984
 20
1018.073335986
 11
615.931625984
 21
1018.073335986
  0
LINE
  8
0
  6
CONTINUOUS
 62
     1
 10
615.931625984
 20
1180.373335986
 11
698.931625984
 21
1180.373335986
  0
LINE
  8
0
  6
CONTINUOUS
 62
     1
 10
698.931625984
 20
1180.373335986
 11
698.931625984
 21
1018.073335986
  0
LINE
  8
0
  6
CONTINUOUS
 62
     1
 10
698.931625984
 20
1098.073335986
 11
698.931625984
 21
1015.573335986
  0
LINE
  8
0
  6
CONTINUOUS
 62
     1
 10
615.931625984
 20
1015.573335986
 11
698.931625984
 21
1015.573335986
  0
LINE
  8
0
  6
CONTINUOUS
 62
     1
 10
447.131625984
 20
1223.673335986
 11
502.931625984
 21
1223.673335986
  0
LINE
  8
0
  6
CONTINUOUS
 62
     1
 10
477.931625984
 20
1098.073335986
 11
477.931625984
 21
1223.673335986
  0
LINE
  8
0
  6
CONTINUOUS
 62
     1
 10
440.846047083
 20
1102.073335986
 11
473.846047083
 21
1102.073335986
  0
LINE
  8
0
  6
CONTINUOUS
 62
     1
 10
440.846047083
 20
1094.073335986
 11
473.846047083
 21
1094.073335986
  0
ARC
  8
0
  6
CONTINUOUS
 62
     1
 10
473.846047083
 20
1098.073335986
 40
4.0
 50
270.0
 51
90.0
  0
LINE
  8
0
  6
LTYPE3
 62
     2
 10
433.311198473
 20
1098.073335986
 11
480.811198473
 21
1098.073335986
  0
ARC
  8
0
  6
LTYPE1
 62
     2
 10
473.846047083
 20
1098.073335986
 40
4.0
 50
90.0
 51
270.0
  0
LINE
  8
0
  6
CONTINUOUS
 62
     1
 10
447.131625984
 20
972.473335986
 11
502.931625984
 21
972.473335986
  0
LINE
  8
0
  6
CONTINUOUS
 62
     1
 10
477.931625984
 20
1098.073335986
 11
477.931625984
 21
972.473335986
  0
LINE
  8
0
  6
CONTINUOUS
 62
     1
 10
1911.0
 20
1603.073335986
 11
2436.0
 21
1603.073335986
  0
LINE
  8
0
  6
CONTINUOUS
 62
     1
 10
1911.0
 20
871.073335986
 11
2436.0
 21
871.073335986
  0
LINE
  8
0
  6
CONTINUOUS
 62
     1
 10
1911.0
 20
1603.073335986
 11
1911.0
 21
871.073335986
  0
TEXT
  8
0
  6
CONTINUOUS
 62
     2
 10
1986.0
 20
1559.273335986
 30
17.09964
 40
27.0
  1
マイティシリンダ仕様
 50
0.0
 41
0.9
 51
0.0
  7
KANJI14
  0
LINE
  8
0
  6
CONTINUOUS
 62
     2
 10
1911.0
 20
955.073335986
 11
2436.0
 21
955.073335986
  0
LINE
  8
0
  6
CONTINUOUS
 62
     2
 10
1911.0
 20
1291.073335986
 11
2436.0
 21
1291.073335986
  0
LINE
  8
0
  6
CONTINUOUS
 62
     2
 10
1911.0
 20
1249.073335986
 11
2436.0
 21
1249.073335986
  0
LINE
  8
0
  6
CONTINUOUS
 62
     2
 10
1911.0
 20
1207.073335986
 11
2436.0
 21
1207.073335986
  0
LINE
  8
0
  6
CONTINUOUS
 62
     2
 10
1911.0
 20
1501.073335986
 11
2436.0
 21
1501.073335986
  0
LINE
  8
0
  6
CONTINUOUS
 62
     2
 10
1911.0
 20
1459.073335986
 11
2436.0
 21
1459.073335986
  0
LINE
  8
0
  6
CONTINUOUS
 62
     2
 10
1911.0
 20
1417.073335986
 11
2436.0
 21
1417.073335986
  0
LINE
  8
0
  6
CONTINUOUS
 62
     2
 10
1911.0
 20
1375.073335986
 11
2436.0
 21
1375.073335986
  0
LINE
  8
0
  6
CONTINUOUS
 62
     2
 10
1911.0
 20
1333.073335986
 11
2436.0
 21
1333.073335986
  0
LINE
  8
0
  6
CONTINUOUS
 62
     2
 10
1911.0
 20
1543.073335986
 11
2436.0
 21
1543.073335986
  0
TEXT
  8
0
  6
CONTINUOUS
 62
     2
 10
1956.0
 20
1511.873335986
 30
180.445714286
 40
22.8
  1
形式
 50
0.0
 41
0.9
 51
0.0
  7
KANJI15
  0
TEXT
  8
0
  6
CONTINUOUS
 62
     2
 10
1956.0
 20
1469.873335986
 30
180.445714286
 40
22.8
  1
推力
 50
0.0
 41
0.9
 51
0.0
  7
KANJI15
  0
TEXT
  8
0
  6
CONTINUOUS
 62
     2
 10
1956.0
 20
1427.873335986
 30
29.721428571
 40
22.8
  1
ストローク
 50
0.0
 41
0.9
 51
0.0
  7
KANJI16
  0
TEXT
  8
0
  6
CONTINUOUS
 62
     2
 10
1956.0
 20
1385.873335986
 30
46.468354286
 40
22.8
  1
公称速度
 50
0.0
 41
0.9
 51
0.0
  7
KANJI17
  0
TEXT
  8
0
  6
CONTINUOUS
 62
     2
 10
2399.1
 20
1470.473335986
 30
0.1344
 40
16.8
  1
ｋｇ
 50
0.0
 41
0.8
 51
0.0
  7
KANJI18
  0
TEXT
  8
0
  6
CONTINUOUS
 62
     2
 10
2399.1
 20
1430.273335986
 30
0.1344
 40
16.8
  1
ｍｍ
 50
0.0
 41
0.8
 51
0.0
  7
KANJI18
  0
TEXT
  8
0
  6
CONTINUOUS
 62
     2
 10
2354.1
 20
1390.073335986
 30
0.1344
 40
16.8
  1
ｍｍ／ｓｅｃ
 50
0.0
 41
0.8
 51
0.0
  7
KANJI18
  0
LINE
  8
0
  6
CONTINUOUS
 62
     2
 10
1911.0
 20
1165.073335986
 11
2436.0
 21
1165.073335986
  0
LINE
  8
0
  6
CONTINUOUS
 62
     2
 10
1911.0
 20
1123.073335986
 11
2436.0
 21
1123.073335986
  0
LINE
  8
0
  6
CONTINUOUS
 62
     2
 10
1911.0
 20
1081.073335986
 11
2436.0
 21
1081.073335986
  0
LINE
  8
0
  6
CONTINUOUS
 62
     2
 10
1911.0
 20
1039.073335986
 11
2436.0
 21
1039.073335986
  0
LINE
  8
0
  6
CONTINUOUS
 62
     2
 10
1911.0
 20
997.073335986
 11
2436.0
 21
997.073335986
  0
TEXT
  8
0
  6
CONTINUOUS
 62
     2
 10
1938.0
 20
1175.873335986
 30
1.954285714
 40
22.8
  1
ピストンロッド回転トルク
 50
0.0
 41
0.9
 51
0.0
  7
KANJI19
  0
TEXT
  8
0
  6
CONTINUOUS
 62
     2
 10
1956.0
 20
1133.873335986
 30
180.445714286
 40
22.8
  1
構造
 50
0.0
 41
0.9
 51
0.0
  7
KANJI15
  0
TEXT
  8
0
  6
CONTINUOUS
 62
     2
 10
2389.5
 20
1178.873335986
 30
0.1344
 40
16.8
  1
ｋｇｍ
 50
0.0
 41
0.8
 51
0.0
  7
KANJI18
  0
TEXT
  8
0
  6
CONTINUOUS
 62
     2
 10
1956.0
 20
1343.873335986
 30
79.962857143
 40
22.8
  1
減速比
 50
0.0
 41
0.9
 51
0.0
  7
KANJI20
  0
TEXT
  8
0
  6
CONTINUOUS
 62
     2
 10
1956.0
 20
1301.873335986
 30
5.1
 40
22.8
  1
進み量／入力１回転
 50
0.0
 41
0.9
 51
0.0
  7
KANJI21
  0
TEXT
  8
0
  6
CONTINUOUS
 62
     2
 10
1956.0
 20
1259.273335986
 30
180.445714286
 40
22.8
  1
効率
 50
0.0
 41
0.9
 51
0.0
  7
KANJI15
  0
TEXT
  8
0
  6
CONTINUOUS
 62
     2
 10
1956.0
 20
1218.473335986
 30
8.7
 40
22.8
  1
使用時入力トルク
 50
0.0
 41
0.9
 51
0.0
  7
KANJI22
  0
TEXT
  8
0
  6
CONTINUOUS
 62
     2
 10
1956.0
 20
1091.873335986
 30
46.47
 40
22.8
  1
ギヤ方式
 50
0.0
 41
0.9
 51
0.0
  7
KANJI23
  0
LINE
  8
0
  6
CONTINUOUS
 62
     2
 10
1911.0
 20
913.073335986
 11
2436.0
 21
913.073335986
  0
LINE
  8
0
  6
CONTINUOUS
 62
     2
 10
2211.0
 20
1543.073335986
 11
2211.0
 21
871.073335986
  0
TEXT
  8
0
  6
CONTINUOUS
 62
     2
 10
2221.8
 20
967.673335986
 30
0.6
 40
16.8
  1
マンセル
 50
0.0
 41
0.9
 51
0.0
  7
KANJI24
  0
TEXT
  8
0
  6
CONTINUOUS
 62
     2
 10
1956.0
 20
965.873335986
 30
79.962857143
 40
22.8
  1
塗装色
 50
0.0
 41
0.9
 51
0.0
  7
KANJI20
  0
TEXT
  8
0
  6
CONTINUOUS
 62
     2
 10
1956.0
 20
923.873335986
 30
79.962857143
 40
22.8
  1
付属品
 50
0.0
 41
0.9
 51
0.0
  7
KANJI20
  0
TEXT
  8
0
  6
CONTINUOUS
 62
     2
 10
1956.0
 20
881.873335986
 30
180.445714286
 40
22.8
  1
台数
 50
0.0
 41
0.9
 51
0.0
  7
KANJI15
  0
TEXT
  8
0
  6
CONTINUOUS
 62
     2
 10
1956.0
 20
1007.873335986
 30
180.445714286
 40
22.8
  1
潤滑
 50
0.0
 41
0.9
 51
0.0
  7
KANJI15
  0
TEXT
  8
0
  6
CONTINUOUS
 62
     2
 10
1956.0
 20
1049.873335986
 30
13.0602
 40
22.8
  1
スクリュー方式
 50
0.0
 41
0.9
 51
0.0
  7
KANJI25
  0
TEXT
  8
0
  6
CONTINUOUS
 62
     2
 10
2295.6
 20
1344.473335986
 30
1.8
 40
18.0
  1
２　：　１
 50
0.0
 41
0.9
 51
0.0
  7
KANJI26
  0
TEXT
  8
0
  6
CONTINUOUS
 62
     2
 10
2317.2
 20
1261.073335986
 30
12.0
 40
18.0
  1
８５
 50
0.0
 41
0.9
 51
0.0
  7
KANJI27
  0
TEXT
  8
0
  6
CONTINUOUS
 62
     2
 10
2399.1
 20
1304.273335986
 30
0.1344
 40
16.8
  1
ｍｍ
 50
0.0
 41
0.8
 51
0.0
  7
KANJI18
  0
TEXT
  8
0
  6
CONTINUOUS
 62
     2
 10
2389.5
 20
1220.873335986
 30
0.1344
 40
16.8
  1
ｋｇｍ
 50
0.0
 41
0.8
 51
0.0
  7
KANJI18
  0
TEXT
  8
0
  6
CONTINUOUS
 62
     2
 10
2228.4
 20
1261.073335986
 30
12.0
 40
18.0
  1
約
 50
0.0
 41
0.9
 51
0.0
  7
KANJI27
  0
TEXT
  8
0
  6
CONTINUOUS
 62
     2
 10
2228.4
 20
1219.073335986
 30
12.0
 40
18.0
  1
約
 50
0.0
 41
0.9
 51
0.0
  7
KANJI27
  0
TEXT
  8
0
  6
CONTINUOUS
 62
     2
 10
2228.4
 20
1177.073335986
 30
12.0
 40
18.0
  1
約
 50
0.0
 41
0.9
 51
0.0
  7
KANJI27
  0
TEXT
  8
0
  6
CONTINUOUS
 62
     2
 10
2406.0
 20
1260.473335986
 30
12.0
 40
18.0
  1
％
 50
0.0
 41
0.9
 51
0.0
  7
KANJI27
  0
TEXT
  8
0
  6
CONTINUOUS
 62
     2
 10
2255.4
 20
1094.873335986
 30
12.0
 40
18.0
  1
ベベルギヤ
 50
0.0
 41
0.9
 51
0.0
  7
KANJI27
  0
TEXT
  8
0
  6
CONTINUOUS
 62
     2
 10
2255.4
 20
1051.673335986
 30
12.0
 40
18.0
  1
ボールネジ
 50
0.0
 41
0.9
 51
0.0
  7
KANJI27
  0
TEXT
  8
0
  6
CONTINUOUS
 62
     2
 10
2254.8
 20
1009.673335986
 30
12.0
 40
18.0
  1
グリース方式
 50
0.0
 41
0.9
 51
0.0
  7
KANJI27
  0
TEXT
  8
0
  6
CONTINUOUS
 62
     2
 10
2254.8
 20
925.673335986
 30
1.8
 40
18.0
  1
入力キー
 50
0.0
 41
0.9
 51
0.0
  7
KANJI26
  0
TEXT
  8
0
  6
CONTINUOUS
 62
     2
 10
2268.0
 20
1469.873335986
 30
1.8
 40
18.0
  1
１００００
 50
0.0
 41
0.9
 51
0.0
  7
KANJI26
  0
TEXT
  8
0
  6
CONTINUOUS
 62
     2
 10
2221.05
 20
1385.723335986
 30
1.8
 40
18.0
  1
ＭＡＸ．１２０
 50
0.0
 41
0.9
 51
0.0
  7
KANJI26
  0
TEXT
  8
0
  6
CONTINUOUS
 62
     2
 10
2302.35
 20
1175.723335986
 30
1.8
 40
18.0
  1
　２１
 50
0.0
 41
0.9
 51
0.0
  7
KANJI26
  0
TEXT
  8
0
  6
CONTINUOUS
 62
     2
 10
2299.8
 20
1216.913335986
 30
1.8
 40
18.0
  1
　１１　
 50
0.0
 41
0.9
 51
0.0
  7
KANJI26
  0
LINE
  8
0
  6
LTYPE2
 62
     2
 10
372.931625984
 20
1331.873335986
 11
372.931625984
 21
760.873335986
  0
LINE
  8
0
  6
CONTINUOUS
 62
     2
 10
372.931625984
 20
753.373335986
 11
372.931625984
 21
747.573335986
  0
LINE
  8
0
  6
CONTINUOUS
 62
     2
 10
372.931625984
 20
755.073335986
 11
385.005698812
 21
751.838097922
  0
LINE
  8
0
  6
CONTINUOUS
 62
     2
 10
372.931625984
 20
755.073335986
 11
385.005698812
 21
758.30857405
  0
LINE
  8
0
  6
CONTINUOUS
 62
     2
 10
372.931625984
 20
720.573335986
 11
385.005698812
 21
717.338097922
  0
LINE
  8
0
  6
CONTINUOUS
 62
     2
 10
372.931625984
 20
720.573335986
 11
385.005698812
 21
723.80857405
  0
LINE
  8
0
  6
CONTINUOUS
 62
     2
 10
372.931625984
 20
747.573335986
 11
372.931625984
 21
713.073335986
  0
LINE
  8
0
  6
CONTINUOUS
 62
     2
 10
372.931625984
 20
728.073335986
 11
372.931625984
 21
728.073335986
  0
LINE
  8
0
  6
CONTINUOUS
 62
     2
 10
282.931625984
 20
682.573335986
 11
295.005698812
 21
679.338097922
  0
LINE
  8
0
  6
CONTINUOUS
 62
     2
 10
282.931625984
 20
682.573335986
 11
295.005698812
 21
685.80857405
  0
LINE
  8
0
  6
CONTINUOUS
 62
     2
 10
830.131625984
 20
1028.073335986
 11
833.366864047
 21
1040.147408815
  0
LINE
  8
0
  6
CONTINUOUS
 62
     2
 10
830.131625984
 20
1028.073335986
 11
826.89638792
 21
1040.147408815
  0
LINE
  8
0
  6
CONTINUOUS
 62
     2
 10
830.131625984
 20
1028.073335986
 11
830.131625984
 21
1168.073335986
  0
LINE
  8
0
  6
CONTINUOUS
 62
     2
 10
830.131625984
 20
1168.073335986
 11
826.89638792
 21
1155.999263157
  0
LINE
  8
0
  6
CONTINUOUS
 62
     2
 10
830.131625984
 20
1168.073335986
 11
833.366864047
 21
1155.999263157
  0
LINE
  8
0
  6
CONTINUOUS
 62
     2
 10
832.631625984
 20
1168.073335986
 11
822.631625984
 21
1168.073335986
  0
CIRCLE
  8
0
  6
CONTINUOUS
 62
     1
 10
875.031625984
 20
1098.073335986
 40
29.25
  0
LINE
  8
0
  6
CONTINUOUS
 62
     1
 10
845.031625984
 20
1128.073335986
 11
905.031625984
 21
1128.073335986
  0
LINE
  8
0
  6
CONTINUOUS
 62
     1
 10
905.031625984
 20
1068.073335986
 11
905.031625984
 21
1128.073335986
  0
LINE
  8
0
  6
CONTINUOUS
 62
     1
 10
845.031625984
 20
1068.073335986
 11
905.031625984
 21
1068.073335986
  0
LINE
  8
0
  6
CONTINUOUS
 62
     1
 10
845.031625984
 20
1068.073335986
 11
845.031625984
 21
1128.073335986
  0
LINE
  8
0
  6
LTYPE2
 62
     2
 10
875.031625984
 20
1060.423335986
 11
875.031625984
 21
1135.273335986
  0
LINE
  8
0
  6
CONTINUOUS
 62
     2
 10
881.846047083
 20
1122.573335986
 11
888.216996291
 21
1133.327916693
  0
LINE
  8
0
  6
CONTINUOUS
 62
     2
 10
881.846047083
 20
1122.573335986
 11
881.98616059
 21
1135.07255069
  0
LINE
  8
0
  6
CONTINUOUS
 62
     2
 10
881.846047083
 20
1122.573335986
 11
916.846047083
 21
1247.573335986
  0
LINE
  8
0
  6
CONTINUOUS
 62
     2
 10
916.846047083
 20
1247.573335986
 11
960.346047083
 21
1247.573335986
  0
LINE
  8
0
  6
CONTINUOUS
 62
     2
 10
1261.971625984
 20
1189.373335986
 11
1338.771625984
 21
1189.373335986
  0
LINE
  8
0
  6
CONTINUOUS
 62
     2
 10
1338.771625984
 20
1189.373335986
 11
1315.589406153
 21
1195.584993068
  0
LINE
  8
0
  6
CONTINUOUS
 62
     2
 10
1338.771625984
 20
1189.373335986
 11
1315.589406153
 21
1183.161678904
  0
LINE
  8
0
  6
CONTINUOUS
 62
     1
 10
1375.931625984
 20
1098.073335986
 11
1375.931625984
 21
1073.073335986
  0
LINE
  8
0
  6
CONTINUOUS
 62
     1
 10
1375.931625984
 20
1098.073335986
 11
1375.931625984
 21
1123.073335986
  0
LINE
  8
0
  6
LTYPE2
 62
     2
 10
1325.931625984
 20
1098.073335986
 11
1325.931625984
 21
1048.273335986
  0
LINE
  8
0
  6
CONTINUOUS
 62
     2
 10
1375.931625984
 20
1073.073335986
 11
1433.93576165
 21
1073.073335986
  0
LINE
  8
0
  6
CONTINUOUS
 62
     2
 10
1428.93576165
 20
1073.073335986
 11
1432.170999714
 21
1085.147408815
  0
LINE
  8
0
  6
CONTINUOUS
 62
     2
 10
1428.93576165
 20
1073.073335986
 11
1425.700523586
 21
1085.147408815
  0
LINE
  8
0
  6
CONTINUOUS
 62
     2
 10
1428.93576165
 20
1073.073335986
 11
1428.93576165
 21
1123.073335986
  0
LINE
  8
0
  6
CONTINUOUS
 62
     2
 10
1428.93576165
 20
1123.073335986
 11
1425.700523586
 21
1110.999263157
  0
LINE
  8
0
  6
CONTINUOUS
 62
     2
 10
1428.93576165
 20
1123.073335986
 11
1432.170999714
 21
1110.999263157
  0
LINE
  8
0
  6
CONTINUOUS
 62
     2
 10
1375.931625984
 20
1123.073335986
 11
1433.93576165
 21
1123.073335986
  0
LINE
  8
0
  6
LTYPE1
 62
     2
 10
1300.931625984
 20
1098.073335986
 11
1300.931625984
 21
1073.073335986
  0
LINE
  8
0
  6
LTYPE1
 62
     2
 10
1350.931625984
 20
1098.073335986
 11
1350.931625984
 21
1073.073335986
  0
LINE
  8
0
  6
LTYPE1
 62
     2
 10
1350.931625984
 20
1098.073335986
 11
1350.931625984
 21
1123.073335986
  0
LINE
  8
0
  6
LTYPE1
 62
     2
 10
1300.931625984
 20
1098.073335986
 11
1300.931625984
 21
1123.073335986
  0
LINE
  8
0
  6
CONTINUOUS
 62
     1
 10
1235.931625984
 20
1123.073335986
 11
1235.931625984
 21
1145.573335986
  0
LINE
  8
0
  6
CONTINUOUS
 62
     1
 10
1235.931625984
 20
1123.073335986
 11
1375.931625984
 21
1123.073335986
  0
LINE
  8
0
  6
CONTINUOUS
 62
     1
 10
1235.931625984
 20
1073.073335986
 11
1235.931625984
 21
1050.573335986
  0
LINE
  8
0
  6
CONTINUOUS
 62
     1
 10
1235.931625984
 20
1073.073335986
 11
1375.931625984
 21
1073.073335986
  0
LINE
  8
0
  6
LTYPE3
 62
     2
 10
1397.131625984
 20
1400.373335986
 11
1202.131625984
 21
1400.373335986
  0
LINE
  8
0
  6
LTYPE3
 62
     2
 10
1325.931625984
 20
1336.173335986
 11
1325.931625984
 21
1481.173335986
  0
CIRCLE
  8
0
  6
CONTINUOUS
 62
     1
 10
1325.931625984
 20
1400.373335986
 40
22.5
  0
LINE
  8
0
  6
CONTINUOUS
 62
     1
 10
1235.931625984
 20
1359.988335986
 11
1235.931625984
 21
1440.758335986
  0
LINE
  8
0
  6
CONTINUOUS
 62
     1
 10
1225.931625984
 20
1352.873335986
 11
1225.931625984
 21
1447.873335986
  0
LINE
  8
0
  6
CONTINUOUS
 62
     1
 10
1365.931625984
 20
1352.873335986
 11
1365.931625984
 21
1359.988335986
  0
LINE
  8
0
  6
CONTINUOUS
 62
     1
 10
1365.931625984
 20
1359.988335986
 11
1235.931625984
 21
1359.988335986
  0
LINE
  8
0
  6
CONTINUOUS
 62
     1
 10
1365.931625984
 20
1440.758335986
 11
1365.931625984
 21
1447.873335986
  0
LINE
  8
0
  6
CONTINUOUS
 62
     1
 10
1365.931625984
 20
1440.758335986
 11
1235.931625984
 21
1440.758335986
  0
LINE
  8
0
  6
CONTINUOUS
 62
     1
 10
1365.931625984
 20
1447.873335986
 11
1225.931625984
 21
1447.873335986
  0
LINE
  8
0
  6
CONTINUOUS
 62
     1
 10
1365.931625984
 20
1447.873335986
 11
1375.931625984
 21
1437.873335986
  0
LINE
  8
0
  6
CONTINUOUS
 62
     1
 10
1365.931625984
 20
1352.873335986
 11
1225.931625984
 21
1352.873335986
  0
LINE
  8
0
  6
CONTINUOUS
 62
     1
 10
1375.931625984
 20
1362.873335986
 11
1375.931625984
 21
1437.873335986
  0
LINE
  8
0
  6
CONTINUOUS
 62
     1
 10
1365.931625984
 20
1352.873335986
 11
1375.931625984
 21
1362.873335986
  0
LINE
  8
0
  6
CONTINUOUS
 62
     1
 10
1365.931625984
 20
1359.988335986
 11
1375.931625984
 21
1375.488335986
  0
LINE
  8
0
  6
CONTINUOUS
 62
     1
 10
1365.931625984
 20
1440.758335986
 11
1375.931625984
 21
1425.258335986
  0
LINE
  8
0
  6
CONTINUOUS
 62
     2
 10
1373.431625984
 20
1352.873335986
 11
1443.931625984
 21
1352.873335986
  0
LINE
  8
0
  6
CONTINUOUS
 62
     2
 10
1436.431625984
 20
1352.873335986
 11
1439.666864047
 21
1364.947408815
  0
LINE
  8
0
  6
CONTINUOUS
 62
     2
 10
1436.431625984
 20
1352.873335986
 11
1433.19638792
 21
1364.947408815
  0
LINE
  8
0
  6
CONTINUOUS
 62
     2
 10
1436.431625984
 20
1352.873335986
 11
1436.431625984
 21
1447.873335986
  0
LINE
  8
0
  6
CONTINUOUS
 62
     2
 10
1436.431625984
 20
1447.873335986
 11
1433.19638792
 21
1435.799263157
  0
LINE
  8
0
  6
CONTINUOUS
 62
     2
 10
1436.431625984
 20
1447.873335986
 11
1439.666864047
 21
1435.799263157
  0
LINE
  8
0
  6
CONTINUOUS
 62
     2
 10
1373.431625984
 20
1447.873335986
 11
1443.931625984
 21
1447.873335986
  0
LINE
  8
0
  6
CONTINUOUS
 62
     2
 10
1325.931625984
 20
1328.673335986
 11
1325.931625984
 21
1285.873335986
  0
LINE
  8
0
  6
CONTINUOUS
 62
     2
 10
1325.931625984
 20
1293.373335986
 11
1338.005698812
 21
1290.138097922
  0
LINE
  8
0
  6
CONTINUOUS
 62
     2
 10
1325.931625984
 20
1293.373335986
 11
1338.005698812
 21
1296.60857405
  0
LINE
  8
0
  6
CONTINUOUS
 62
     2
 10
1325.931625984
 20
1293.373335986
 11
1375.931625984
 21
1293.373335986
  0
LINE
  8
0
  6
CONTINUOUS
 62
     2
 10
1375.931625984
 20
1293.373335986
 11
1363.857553155
 21
1296.60857405
  0
LINE
  8
0
  6
CONTINUOUS
 62
     2
 10
1375.931625984
 20
1293.373335986
 11
1363.857553155
 21
1290.138097922
  0
LINE
  8
0
  6
CONTINUOUS
 62
     2
 10
1375.931625984
 20
1355.373335986
 11
1375.931625984
 21
1285.873335986
  0
LINE
  8
0
  6
CONTINUOUS
 62
     2
 10
1325.931625984
 20
1293.373335986
 11
1313.857553155
 21
1296.60857405
  0
LINE
  8
0
  6
CONTINUOUS
 62
     2
 10
1325.931625984
 20
1293.373335986
 11
1313.857553155
 21
1290.138097922
  0
LINE
  8
0
  6
CONTINUOUS
 62
     2
 10
1325.931625984
 20
1293.373335986
 11
1235.931625984
 21
1293.373335986
  0
LINE
  8
0
  6
CONTINUOUS
 62
     2
 10
1235.931625984
 20
1293.373335986
 11
1248.005698812
 21
1290.138097922
  0
LINE
  8
0
  6
CONTINUOUS
 62
     2
 10
1235.931625984
 20
1293.373335986
 11
1248.005698812
 21
1296.60857405
  0
LINE
  8
0
  6
CONTINUOUS
 62
     2
 10
1235.931625984
 20
1352.488335986
 11
1235.931625984
 21
1285.873335986
  0
LINE
  8
0
  6
CONTINUOUS
 62
     2
 10
1315.931625984
 20
1417.373335986
 11
1315.41820195
 21
1429.862787366
  0
LINE
  8
0
  6
CONTINUOUS
 62
     2
 10
1315.931625984
 20
1417.373335986
 11
1309.242262038
 21
1427.932806143
  0
LINE
  8
0
  6
CONTINUOUS
 62
     2
 10
1315.931625984
 20
1417.373335986
 11
1290.931625984
 21
1497.373335986
  0
LINE
  8
0
  6
CONTINUOUS
 62
     2
 10
1290.931625984
 20
1497.373335986
 11
1202.431625984
 21
1497.373335986
  0
LINE
  8
0
  6
LTYPE2
 62
     2
 10
1325.931625984
 20
1098.073335986
 11
1325.931625984
 21
1139.073335986
  0
LINE
  8
0
  6
CONTINUOUS
 62
     2
 10
1325.931625984
 20
720.573335986
 11
1313.857553155
 21
723.80857405
  0
LINE
  8
0
  6
CONTINUOUS
 62
     2
 10
1325.931625984
 20
720.573335986
 11
1313.857553155
 21
717.338097922
  0
LINE
  8
0
  6
CONTINUOUS
 62
     1
 10
1225.931625984
 20
1089.573335986
 11
1225.931625984
 21
1098.073335986
  0
LINE
  8
0
  6
CONTINUOUS
 62
     2
 10
1325.931625984
 20
755.073335986
 11
1313.857553155
 21
758.30857405
  0
LINE
  8
0
  6
CONTINUOUS
 62
     2
 10
1325.931625984
 20
755.073335986
 11
1313.857553155
 21
751.838097922
  0
LINE
  8
0
  6
CONTINUOUS
 62
     2
 10
1325.931625984
 20
747.573335986
 11
1325.931625984
 21
713.073335986
  0
LINE
  8
0
  6
CONTINUOUS
 62
     2
 10
1161.931625984
 20
755.073335986
 11
1211.931625984
 21
755.073335986
  0
LINE
  8
0
  6
CONTINUOUS
 62
     2
 10
1225.931625984
 20
755.073335986
 11
1213.857553155
 21
758.30857405
  0
LINE
  8
0
  6
CONTINUOUS
 62
     2
 10
1225.931625984
 20
755.073335986
 11
1213.857553155
 21
751.838097922
  0
LINE
  8
0
  6
CONTINUOUS
 62
     2
 10
1175.931625984
 20
755.073335986
 11
1163.857553155
 21
758.30857405
  0
LINE
  8
0
  6
CONTINUOUS
 62
     2
 10
1175.931625984
 20
755.073335986
 11
1163.857553155
 21
751.838097922
  0
LINE
  8
0
  6
CONTINUOUS
 62
     2
 10
1175.931625984
 20
755.073335986
 11
1188.005698812
 21
751.838097922
  0
LINE
  8
0
  6
CONTINUOUS
 62
     2
 10
1175.931625984
 20
755.073335986
 11
1188.005698812
 21
758.30857405
  0
TEXT
  8
0
  6
CONTINUOUS
 62
     3
 10
1975.931625984
 20
208.073335986
 30
1.8
 40
24.0
  1
Ｓ
 50
0.0
 41
0.875
 51
0.0
  7
KANJI28
  0
TEXT
  8
0
  6
CONTINUOUS
 62
     2
 10
1722.431625984
 20
738.573335986
 30
6.171428571
 40
21.6
  1
１。運転時は必ずピストンロッドの回転防止を行って下さい。
 50
0.0
 41
0.857142857
 51
0.0
  7
KANJI29
  0
LINE
  8
0
  6
LTYPE2
 62
     2
 10
254.031625984
 20
1098.073335986
 11
803.931625984
 21
1098.073335986
  0
TEXT
  8
0
  6
CONTINUOUS
 62
     2
 10
424.681625984
 20
1278.198335986
 30
1.8
 40
19.2
  1
φ９０ｄ９
 50
0.0
 41
0.875
 51
0.0
  7
KANJI30
  0
TEXT
  8
0
  6
CONTINUOUS
 62
     2
 10
335.031625984
 20
1399.698335986
 30
1.8
 40
19.2
  1
φ３４ｈ７
 50
0.0
 41
0.875
 51
0.0
  7
KANJI30
  0
TEXT
  8
0
  6
CONTINUOUS
 62
     2
 10
825.131625984
 20
1076.323335986
 30
1.8
 40
19.2
  1
１４０
 50
90.0
 41
0.875
 51
0.0
  7
KANJI30
  0
TEXT
  8
0
  6
CONTINUOUS
 62
     2
 10
215.731625984
 20
1075.573335986
 30
1.8
 40
19.2
  1
３００
 50
90.0
 41
0.875
 51
0.0
  7
KANJI30
  0
TEXT
  8
0
  6
CONTINUOUS
 62
     2
 10
215.731625984
 20
912.323335986
 30
1.8
 40
19.2
  1
４２
 50
90.0
 41
0.875
 51
0.0
  7
KANJI30
  0
TEXT
  8
7
  6
CONTINUOUS
 62
     2
 10
215.731625984
 20
870.823335986
 30
1.8
 40
19.2
  1
６
 50
90.0
 41
0.875
 51
0.0
  7
KANJI30
  0
TEXT
  8
0
  6
CONTINUOUS
 62
     2
 10
215.731625984
 20
1259.423335986
 30
1.8
 40
19.2
  1
４２
 50
90.0
 41
0.875
 51
0.0
  7
KANJI30
  0
TEXT
  8
7
  6
CONTINUOUS
 62
     2
 10
215.731625984
 20
1310.323335986
 30
1.8
 40
19.2
  1
６
 50
90.0
 41
0.875
 51
0.0
  7
KANJI30
  0
TEXT
  8
0
  6
CONTINUOUS
 62
     2
 10
170.731625984
 20
1075.573335986
 30
1.8
 40
19.2
  1
５１６
 50
90.0
 41
0.875
 51
0.0
  7
KANJI30
  0
TEXT
  8
0
  6
CONTINUOUS
 62
     2
 10
672.681625984
 20
760.073335986
 30
1.8
 40
19.2
  1
Ｃ
 50
0.0
 41
0.875
 51
0.0
  7
KANJI30
  0
TEXT
  8
0
  6
CONTINUOUS
 62
     2
 10
732.681625984
 20
725.573335986
 30
1.8
 40
19.2
  1
ｍｉｎ．Ｌ
 50
0.0
 41
0.875
 51
0.0
  7
KANJI30
  0
TEXT
  8
0
  6
CONTINUOUS
 62
     2
 10
680.181625984
 20
687.573335986
 30
1.8
 40
19.2
  1
ｍｉｎ．ＡＬ
 50
0.0
 41
0.875
 51
0.0
  7
KANJI30
  0
TEXT
  8
0
  6
CONTINUOUS
 62
     2
 10
1239.181625984
 20
760.073335986
 30
1.8
 40
19.2
  1
１００
 50
0.0
 41
0.875
 51
0.0
  7
KANJI30
  0
TEXT
  8
0
  6
CONTINUOUS
 62
     2
 10
916.846047083
 20
1252.573335986
 30
1.8
 40
19.2
  1
給脂口
 50
0.0
 41
0.875
 51
0.0
  7
KANJI30
  0
TEXT
  8
0
  6
CONTINUOUS
 62
     2
 10
1266.681625984
 20
1298.373335986
 30
1.8
 40
19.2
  1
９０
 50
0.0
 41
0.875
 51
0.0
  7
KANJI30
  0
TEXT
  8
0
  6
CONTINUOUS
 62
     2
 10
1336.681625984
 20
1298.373335986
 30
1.8
 40
19.2
  1
５０
 50
0.0
 41
0.875
 51
0.0
  7
KANJI30
  0
TEXT
  8
0
  6
CONTINUOUS
 62
     2
 10
1431.431625984
 20
1378.623335986
 30
1.8
 40
19.2
  1
φ９５
 50
90.0
 41
0.875
 51
0.0
  7
KANJI30
  0
TEXT
  8
0
  6
CONTINUOUS
 62
     2
 10
1202.431625984
 20
1502.373335986
 30
1.8
 40
19.2
  1
φ４５Ｈ１０
 50
0.0
 41
0.875
 51
0.0
  7
KANJI30
  0
CIRCLE
  8
0
  6
CONTINUOUS
 62
     3
 10
1985.931625984
 20
220.073335986
 40
16.492422502
  0
LINE
  8
0
  6
CONTINUOUS
 62
     2
 10
1325.931625984
 20
1047.073335986
 11
1325.931625984
 21
747.573335986
  0
LINE
  8
0
  6
CONTINUOUS
 62
     2
 10
1325.931625984
 20
720.573335986
 11
372.931625984
 21
720.573335986
  0
LINE
  8
0
  6
CONTINUOUS
 62
     2
 10
372.931625984
 20
755.073335986
 11
1175.931625984
 21
755.073335986
  0
LINE
  8
0
  6
LTYPE2
 62
     2
 10
836.931625984
 20
1098.073335986
 11
934.931625984
 21
1098.073335986
  0
TEXT
  8
0
  6
CONTINUOUS
 62
     2
 10
324.031625984
 20
1470.993335986
 30
1.8
 40
19.2
  1
シャフト回転方向
 50
0.0
 41
0.875
 51
0.0
  7
KANJI30
  0
TEXT
  8
0
  6
CONTINUOUS
 62
     2
 10
1228.371625984
 20
1219.773335986
 30
1.8
 40
19.2
  1
ピストンロッド
 50
0.0
 41
0.875
 51
0.0
  7
KANJI30
  0
TEXT
  8
0
  6
CONTINUOUS
 62
     2
 10
1346.771625984
 20
1185.373335986
 30
1.8
 40
19.2
  1
出
 50
0.0
 41
0.875
 51
0.0
  7
KANJI30
  0
LINE
  8
0
  6
LTYPE1
 62
     2
 10
1261.971625984
 20
1163.373335986
 11
1338.771625984
 21
1163.373335986
  0
LINE
  8
0
  6
LTYPE1
 62
     2
 10
1258.771625984
 20
1163.373335986
 11
1281.953845815
 21
1157.161678904
  0
LINE
  8
0
  6
LTYPE1
 62
     2
 10
1258.771625984
 20
1163.373335986
 11
1281.953845815
 21
1169.584993068
  0
TEXT
  8
0
  6
CONTINUOUS
 62
     2
 10
1346.771625984
 20
1156.973335986
 30
1.8
 40
19.2
  1
入
 50
0.0
 41
0.875
 51
0.0
  7
KANJI30
  0
LINE
  8
0
  6
CONTINUOUS
 62
     2
 10
334.431625984
 20
1455.993335986
 11
411.231625984
 21
1455.993335986
  0
LINE
  8
0
  6
CONTINUOUS
 62
     2
 10
411.231625984
 20
1455.993335986
 11
388.049406153
 21
1462.204993068
  0
LINE
  8
0
  6
CONTINUOUS
 62
     2
 10
411.231625984
 20
1455.993335986
 11
388.049406153
 21
1449.781678904
  0
LINE
  8
0
  6
CONTINUOUS
 62
     2
 10
1211.931625984
 20
755.073335986
 11
1325.931625984
 21
755.073335986
  0
LINE
  8
0
  6
CONTINUOUS
 62
     2
 10
1225.931625984
 20
755.073335986
 11
1238.005698812
 21
751.838097922
  0
LINE
  8
0
  6
CONTINUOUS
 62
     2
 10
1225.931625984
 20
755.073335986
 11
1238.005698812
 21
758.30857405
  0
TEXT
  8
0
  6
CONTINUOUS
 62
     2
 10
1150.931625984
 20
726.073335986
 30
1.8
 40
19.2
  1
ｍｉｎ．Ｐ
 50
0.0
 41
0.875
 51
0.0
  7
KANJI30
  0
LINE
  8
0
  6
LTYPE2
 62
     2
 10
977.431625984
 20
1098.073335986
 11
1443.931625984
 21
1098.073335986
  0
TEXT
  8
0
  6
CONTINUOUS
 62
     2
 10
1423.93576165
 20
1083.323335986
 30
1.8
 40
19.2
  1
５０
 50
90.0
 41
0.875
 51
0.0
  7
KANJI30
  0
LINE
  8
0
  6
CONTINUOUS
 62
     2
 10
327.931625984
 20
1273.198335986
 11
487.848421269
 21
1273.198335986
  0
LINE
  8
0
  6
LTYPE3
 62
     2
 10
777.431625984
 20
1463.373335986
 11
777.431625984
 21
1575.373335986
  0
LINE
  8
0
  6
CONTINUOUS
 62
     1
 10
766.231625984
 20
1560.173335986
 11
788.631625984
 21
1560.173335986
  0
LINE
  8
0
  6
CONTINUOUS
 62
     1
 10
788.631625984
 20
1545.773335986
 11
788.631625984
 21
1560.173335986
  0
LINE
  8
0
  6
CONTINUOUS
 62
     1
 10
766.231625984
 20
1545.773335986
 11
788.631625984
 21
1545.773335986
  0
LINE
  8
0
  6
CONTINUOUS
 62
     1
 10
766.231625984
 20
1545.773335986
 11
766.231625984
 21
1560.173335986
  0
ARC
  8
0
  6
CONTINUOUS
 62
     1
 10
777.431625984
 20
1516.173335986
 40
38.4
 50
106.9577633
 51
73.0422367
  0
ARC
  8
0
  6
CONTINUOUS
 62
     2
 10
777.431625984
 20
1516.173335986
 40
38.4
 50
73.0422367
 51
90.000051715
  0
TEXT
  8
0
  6
CONTINUOUS
 62
     2
 10
723.631625984
 20
1419.973335986
 30
0.0
 40
24.0
  1
入力シャフト
 50
0.0
 41
0.9
 51
0.0
  7
KANJI31
  0
LINE
  8
0
  6
CONTINUOUS
 62
     2
 10
724.631625984
 20
1413.773335986
 11
848.631625984
 21
1413.773335986
  0
TEXT
  8
0
  6
CONTINUOUS
 62
     2
 10
745.031625984
 20
1391.773335986
 30
0.0
 40
14.4
  1
新ＪＩＳキー付
 50
0.0
 41
0.9
 51
0.0
  7
KANJI32
  0
TEXT
  8
0
  6
CONTINUOUS
 62
     2
 10
713.831625984
 20
1546.493335986
 30
1.8
 40
19.2
  1
８
 50
90.0
 41
0.875
 51
0.0
  7
KANJI30
  0
LINE
  8
0
  6
CONTINUOUS
 62
     2
 10
718.631625984
 20
1545.773335986
 11
721.737454525
 21
1534.182226071
  0
LINE
  8
0
  6
CONTINUOUS
 62
     2
 10
718.631625984
 20
1545.773335986
 11
715.525797442
 21
1534.182226071
  0
LINE
  8
0
  6
CONTINUOUS
 62
     2
 10
718.631625984
 20
1560.173335986
 11
715.525797442
 21
1571.764445901
  0
LINE
  8
0
  6
CONTINUOUS
 62
     2
 10
718.631625984
 20
1560.173335986
 11
721.737454525
 21
1571.764445901
  0
LINE
  8
0
  6
CONTINUOUS
 62
     2
 10
718.631625984
 20
1531.373335986
 11
718.631625984
 21
1574.873335986
  0
TEXT
  8
0
  6
CONTINUOUS
 62
     2
 10
763.991625984
 20
1607.173335986
 30
1.8
 40
19.2
  1
１０
 50
0.0
 41
0.875
 51
0.0
  7
KANJI30
  0
LINE
  8
0
  6
CONTINUOUS
 62
     2
 10
766.231625984
 20
1602.373335986
 11
754.640516068
 21
1599.267507445
  0
LINE
  8
0
  6
CONTINUOUS
 62
     2
 10
766.231625984
 20
1602.373335986
 11
754.640516068
 21
1605.479164527
  0
LINE
  8
0
  6
CONTINUOUS
 62
     2
 10
788.631625984
 20
1602.373335986
 11
800.222735899
 21
1605.479164527
  0
LINE
  8
0
  6
CONTINUOUS
 62
     2
 10
788.631625984
 20
1602.373335986
 11
800.222735899
 21
1599.267507445
  0
LINE
  8
0
  6
CONTINUOUS
 62
     2
 10
806.631625984
 20
1602.373335986
 11
743.831625984
 21
1602.373335986
  0
LINE
  8
0
  6
CONTINUOUS
 62
     2
 10
766.231625984
 20
1563.873335986
 11
766.231625984
 21
1609.573335986
  0
LINE
  8
0
  6
CONTINUOUS
 62
     2
 10
788.631625984
 20
1563.873335986
 11
788.631625984
 21
1609.573335986
  0
LINE
  8
0
  6
CONTINUOUS
 62
     2
 10
763.131625984
 20
1560.173335986
 11
711.431625984
 21
1560.173335986
  0
LINE
  8
0
  6
CONTINUOUS
 62
     2
 10
763.631625984
 20
1545.773335986
 11
711.431625984
 21
1545.773335986
  0
LINE
  8
0
  6
CONTINUOUS
 62
     2
 10
851.831625984
 20
1554.573335986
 11
854.937454525
 21
1566.164445901
  0
LINE
  8
0
  6
CONTINUOUS
 62
     2
 10
851.831625984
 20
1554.573335986
 11
848.725797442
 21
1566.164445901
  0
LINE
  8
0
  6
CONTINUOUS
 62
     2
 10
851.831625984
 20
1545.773335986
 11
848.725797442
 21
1534.182226071
  0
LINE
  8
0
  6
CONTINUOUS
 62
     2
 10
851.831625984
 20
1545.773335986
 11
854.937454525
 21
1534.182226071
  0
LINE
  8
0
  6
CONTINUOUS
 62
     2
 10
851.831625984
 20
1601.373335986
 11
851.831625984
 21
1527.773335986
  0
TEXT
  8
0
  6
CONTINUOUS
 62
     2
 10
848.306625984
 20
1575.793335986
 30
0.576
 40
8.64
  1
－０
 50
90.0
 41
0.9
 51
0.0
  7
KANJI33
  0
TEXT
  8
0
  6
CONTINUOUS
 62
     2
 10
839.666625984
 20
1575.793335986
 30
0.576
 40
8.64
  1
＋０．２
 50
90.0
 41
0.9
 51
0.0
  7
KANJI33
  0
TEXT
  8
0
  6
CONTINUOUS
 62
     2
 10
847.031625984
 20
1558.973335986
 30
1.8
 40
19.2
  1
５
 50
90.0
 41
0.875
 51
0.0
  7
KANJI30
  0
LINE
  8
0
  6
CONTINUOUS
 62
     2
 10
777.431625984
 20
1554.573335986
 11
859.031625984
 21
1554.573335986
  0
LINE
  8
0
  6
CONTINUOUS
 62
     2
 10
790.931625984
 20
1545.773335986
 11
859.031625984
 21
1545.773335986
  0
LINE
  8
0
  6
LTYPE3
 62
     2
 10
727.431625984
 20
1516.173335986
 11
829.931625984
 21
1516.173335986
  0
LINE
  8
0
  6
CONTINUOUS
 62
     1
 10
1633.131625984
 20
968.073335986
 11
1781.131625984
 21
968.073335986
  0
LINE
  8
0
  6
CONTINUOUS
 62
     1
 10
1781.131625984
 20
997.355695396
 11
1781.131625984
 21
948.073335986
  0
LINE
  8
0
  6
CONTINUOUS
 62
     1
 10
1633.131625984
 20
948.073335986
 11
1781.131625984
 21
948.073335986
  0
LINE
  8
0
  6
CONTINUOUS
 62
     1
 10
1633.131625984
 20
997.873335986
 11
1633.131625984
 21
948.073335986
  0
LINE
  8
0
  6
CONTINUOUS
 62
     1
 10
1662.131625984
 20
948.073335986
 11
1662.131625984
 21
906.073335986
  0
LINE
  8
0
  6
CONTINUOUS
 62
     1
 10
1689.631625984
 20
906.073335986
 11
1689.631625984
 21
903.073335986
  0
LINE
  8
0
  6
CONTINUOUS
 62
     1
 10
1690.131625984
 20
903.073335986
 11
1690.131625984
 21
843.073335986
  0
LINE
  8
0
  6
CONTINUOUS
 62
     1
 10
1690.131625984
 20
843.073335986
 11
1707.131625984
 21
843.073335986
  0
LINE
  8
0
  6
CONTINUOUS
 62
     1
 10
1689.631625984
 20
903.073335986
 11
1707.131625984
 21
903.073335986
  0
LINE
  8
0
  6
CONTINUOUS
 62
     1
 10
1662.131625984
 20
906.073335986
 11
1707.131625984
 21
906.073335986
  0
LINE
  8
0
  6
CONTINUOUS
 62
     1
 10
1752.331625984
 20
948.073335986
 11
1752.331625984
 21
906.073335986
  0
LINE
  8
0
  6
CONTINUOUS
 62
     1
 10
1724.831625984
 20
906.073335986
 11
1724.831625984
 21
903.073335986
  0
LINE
  8
0
  6
CONTINUOUS
 62
     1
 10
1724.331625984
 20
903.073335986
 11
1724.331625984
 21
843.073335986
  0
LINE
  8
0
  6
CONTINUOUS
 62
     1
 10
1724.331625984
 20
843.073335986
 11
1707.331625984
 21
843.073335986
  0
LINE
  8
0
  6
CONTINUOUS
 62
     1
 10
1724.831625984
 20
903.073335986
 11
1707.331625984
 21
903.073335986
  0
LINE
  8
0
  6
CONTINUOUS
 62
     1
 10
1752.331625984
 20
906.073335986
 11
1707.331625984
 21
906.073335986
  0
LINE
  8
0
  6
CONTINUOUS
 62
     1
 10
1633.131625984
 20
1228.073335986
 11
1781.131625984
 21
1228.073335986
  0
LINE
  8
0
  6
CONTINUOUS
 62
     1
 10
1781.131625984
 20
1198.790976576
 11
1781.131625984
 21
1248.073335986
  0
LINE
  8
0
  6
CONTINUOUS
 62
     1
 10
1633.131625984
 20
1248.073335986
 11
1781.131625984
 21
1248.073335986
  0
LINE
  8
0
  6
CONTINUOUS
 62
     1
 10
1633.131625984
 20
1198.273335986
 11
1633.131625984
 21
1248.073335986
  0
LINE
  8
0
  6
CONTINUOUS
 62
     1
 10
1662.131625984
 20
1248.073335986
 11
1662.131625984
 21
1290.073335986
  0
LINE
  8
0
  6
CONTINUOUS
 62
     1
 10
1689.631625984
 20
1290.073335986
 11
1689.631625984
 21
1293.073335986
  0
LINE
  8
0
  6
CONTINUOUS
 62
     1
 10
1690.131625984
 20
1293.073335986
 11
1690.131625984
 21
1353.073335986
  0
LINE
  8
0
  6
CONTINUOUS
 62
     1
 10
1690.131625984
 20
1353.073335986
 11
1707.131625984
 21
1353.073335986
  0
LINE
  8
0
  6
CONTINUOUS
 62
     1
 10
1689.631625984
 20
1293.073335986
 11
1707.131625984
 21
1293.073335986
  0
LINE
  8
0
  6
CONTINUOUS
 62
     1
 10
1662.131625984
 20
1290.073335986
 11
1707.131625984
 21
1290.073335986
  0
LINE
  8
0
  6
CONTINUOUS
 62
     1
 10
1752.331625984
 20
1248.073335986
 11
1752.331625984
 21
1290.073335986
  0
LINE
  8
0
  6
CONTINUOUS
 62
     1
 10
1724.831625984
 20
1290.073335986
 11
1724.831625984
 21
1293.073335986
  0
LINE
  8
0
  6
CONTINUOUS
 62
     1
 10
1724.331625984
 20
1293.073335986
 11
1724.331625984
 21
1353.073335986
  0
LINE
  8
0
  6
CONTINUOUS
 62
     1
 10
1724.331625984
 20
1353.073335986
 11
1707.331625984
 21
1353.073335986
  0
LINE
  8
0
  6
CONTINUOUS
 62
     1
 10
1724.831625984
 20
1293.073335986
 11
1707.331625984
 21
1293.073335986
  0
LINE
  8
0
  6
CONTINUOUS
 62
     1
 10
1752.331625984
 20
1290.073335986
 11
1707.331625984
 21
1290.073335986
  0
LINE
  8
0
  6
LTYPE2
 62
     2
 10
1707.131625984
 20
1381.873335986
 11
1707.131625984
 21
810.873335986
  0
LINE
  8
0
  6
LTYPE2
 62
     2
 10
1767.131625984
 20
974.260209722
 11
1767.131625984
 21
936.360209722
  0
LINE
  8
0
  6
LTYPE2
 62
     2
 10
1647.131625984
 20
972.260209722
 11
1647.131625984
 21
935.360209722
  0
LINE
  8
0
  6
LTYPE2
 62
     2
 10
1767.131625984
 20
1221.88646225
 11
1767.131625984
 21
1259.78646225
  0
LINE
  8
0
  6
LTYPE2
 62
     2
 10
1647.131625984
 20
1223.88646225
 11
1647.131625984
 21
1260.78646225
  0
LINE
  8
0
  6
CONTINUOUS
 62
     2
 10
1707.131625984
 20
1372.073335986
 11
1707.131625984
 21
1363.073335986
  0
LINE
  8
0
  6
CONTINUOUS
 62
     2
 10
1707.131625984
 20
1370.573335986
 11
1719.205698812
 21
1367.338097922
  0
LINE
  8
0
  6
CONTINUOUS
 62
     2
 10
1707.131625984
 20
1370.573335986
 11
1719.205698812
 21
1373.80857405
  0
LINE
  8
0
  6
CONTINUOUS
 62
     2
 10
1707.131625984
 20
1370.573335986
 11
1832.131625984
 21
1370.573335986
  0
LINE
  8
0
  6
CONTINUOUS
 62
     2
 10
1832.131625984
 20
1370.573335986
 11
1820.057553155
 21
1373.80857405
  0
LINE
  8
0
  6
CONTINUOUS
 62
     2
 10
1832.131625984
 20
1370.573335986
 11
1820.057553155
 21
1367.338097922
  0
LINE
  8
0
  6
CONTINUOUS
 62
     2
 10
1832.131625984
 20
1105.573335986
 11
1832.131625984
 21
1378.073335986
  0
CIRCLE
  8
0
  6
CONTINUOUS
 62
     1
 10
1707.131625984
 20
1098.073335986
 40
47.5
  0
LINE
  8
0
  6
CONTINUOUS
 62
     1
 10
1666.74288993
 20
1123.073335986
 11
1747.520362037
 21
1123.073335986
  0
LINE
  8
0
  6
CONTINUOUS
 62
     1
 10
1666.74288993
 20
1073.073335986
 11
1747.520362037
 21
1073.073335986
  0
ARC
  8
0
  6
CONTINUOUS
 62
     1
 10
1707.131625984
 20
1098.073335986
 40
42.5
 50
143.968120928
 51
216.031879072
  0
ARC
  8
0
  6
CONTINUOUS
 62
     1
 10
1707.131625984
 20
1098.073335986
 40
42.5
 50
323.968120928
 51
36.031879072
  0
LINE
  8
0
  6
LTYPE1
 62
     2
 10
1684.631625984
 20
1123.073335986
 11
1684.631625984
 21
1073.073335986
  0
LINE
  8
0
  6
LTYPE1
 62
     2
 10
1729.631625984
 20
1123.073335986
 11
1729.631625984
 21
1073.073335986
  0
TEXT
  8
0
  6
CONTINUOUS
 62
     2
 10
1747.881625984
 20
1375.573335986
 30
1.8
 40
19.2
  1
１３０
 50
0.0
 41
0.875
 51
0.0
  7
KANJI30
  0
LINE
  8
0
  6
CONTINUOUS
 62
     2
 10
1867.131625984
 20
903.073335986
 11
1867.131625984
 21
1293.073335986
  0
LINE
  8
0
  6
CONTINUOUS
 62
     2
 10
1867.131625984
 20
1293.073335986
 11
1863.89638792
 21
1280.999263157
  0
LINE
  8
0
  6
CONTINUOUS
 62
     2
 10
1867.131625984
 20
1293.073335986
 11
1870.366864047
 21
1280.999263157
  0
LINE
  8
0
  6
CONTINUOUS
 62
     2
 10
1867.131625984
 20
1293.073335986
 11
1870.366864047
 21
1305.147408815
  0
LINE
  8
0
  6
CONTINUOUS
 62
     2
 10
1867.131625984
 20
1293.073335986
 11
1863.89638792
 21
1305.147408815
  0
LINE
  8
0
  6
CONTINUOUS
 62
     2
 10
1867.131625984
 20
1293.073335986
 11
1867.131625984
 21
1353.073335986
  0
LINE
  8
0
  6
CONTINUOUS
 62
     2
 10
1867.131625984
 20
1353.073335986
 11
1863.89638792
 21
1340.999263157
  0
LINE
  8
0
  6
CONTINUOUS
 62
     2
 10
1867.131625984
 20
1353.073335986
 11
1870.366864047
 21
1340.999263157
  0
TEXT
  8
0
  6
CONTINUOUS
 62
     2
 10
1862.131625984
 20
1308.823335986
 30
1.8
 40
19.2
  1
６０
 50
90.0
 41
0.875
 51
0.0
  7
KANJI30
  0
LINE
  8
0
  6
CONTINUOUS
 62
     2
 10
1875.631625984
 20
1353.073335986
 11
1729.631625984
 21
1353.073335986
  0
LINE
  8
0
  6
CONTINUOUS
 62
     2
 10
1875.631625984
 20
1293.073335986
 11
1727.631625984
 21
1293.073335986
  0
LINE
  8
0
  6
CONTINUOUS
 62
     2
 10
1867.131625984
 20
903.073335986
 11
1870.366864047
 21
915.147408815
  0
LINE
  8
0
  6
CONTINUOUS
 62
     2
 10
1867.131625984
 20
903.073335986
 11
1863.89638792
 21
915.147408815
  0
LINE
  8
0
  6
CONTINUOUS
 62
     2
 10
1867.131625984
 20
903.073335986
 11
1863.89638792
 21
890.999263157
  0
LINE
  8
0
  6
CONTINUOUS
 62
     2
 10
1867.131625984
 20
903.073335986
 11
1870.366864047
 21
890.999263157
  0
LINE
  8
0
  6
CONTINUOUS
 62
     2
 10
1867.131625984
 20
903.073335986
 11
1867.131625984
 21
843.073335986
  0
LINE
  8
0
  6
CONTINUOUS
 62
     2
 10
1867.131625984
 20
843.073335986
 11
1870.366864047
 21
855.147408815
  0
LINE
  8
0
  6
CONTINUOUS
 62
     2
 10
1867.131625984
 20
843.073335986
 11
1863.89638792
 21
855.147408815
  0
TEXT
  8
0
  6
CONTINUOUS
 62
     2
 10
1862.131625984
 20
858.823335986
 30
1.8
 40
19.2
  1
６０
 50
90.0
 41
0.875
 51
0.0
  7
KANJI30
  0
LINE
  8
0
  6
CONTINUOUS
 62
     2
 10
1876.131625984
 20
903.073335986
 11
1727.131625984
 21
903.073335986
  0
LINE
  8
0
  6
CONTINUOUS
 62
     2
 10
1877.131625984
 20
843.073335986
 11
1728.631625984
 21
843.073335986
  0
ARC
  8
0
  6
CONTINUOUS
 62
     1
 10
1707.131625984
 20
1098.073335986
 40
125.0
 50
248.00100076
 51
0.0
  0
ARC
  8
0
  6
CONTINUOUS
 62
     1
 10
1707.131625984
 20
1098.073335986
 40
125.0
 50
0.0
 51
171.99899924
  0
TEXT
  8
0
  6
CONTINUOUS
 62
     2
 10
1806.431625984
 20
781.573335986
 30
12.0
 40
24.0
  1
特記事項
 50
0.0
 41
0.9
 51
0.0
  7
KANJI34
  0
LINE
  8
0
  6
CONTINUOUS
 62
     2
 10
433.505461507
 20
1162.073335986
 11
443.465887139
 21
1169.625813807
  0
LINE
  8
0
  6
CONTINUOUS
 62
     2
 10
433.505461507
 20
1162.073335986
 11
438.355204226
 21
1173.594186456
  0
LINE
  8
0
  6
CONTINUOUS
 62
     2
 10
433.505461507
 20
1162.073335986
 11
553.705461507
 21
1316.873335986
  0
TEXT
  8
0
  6
CONTINUOUS
 62
     2
 10
553.991040408
 20
1322.173335986
 30
1.5
 40
15.0
  1
給脂口兼点検口
 50
0.0
 41
0.9
 51
0.0
  7
KANJI35
  0
LINE
  8
0
  6
CONTINUOUS
 62
     2
 10
433.505461507
 20
1162.073335986
 11
553.938407244
 21
1317.173335986
  0
LINE
  8
0
  6
CONTINUOUS
 62
     2
 10
553.938407244
 20
1317.173335986
 11
657.491040408
 21
1317.173335986
  0
TEXT
  8
0
  6
CONTINUOUS
 62
     3
 10
2168.431625984
 20
249.073335986
 30
1.8
 40
27.0
  1
マイティシリンダ
 50
0.0
 41
0.888888889
 51
0.0
  7
KANJI36
  0
TEXT
  8
0
  6
CONTINUOUS
 62
     3
 10
2206.931625984
 20
210.573335986
 30
15.0
 40
27.0
  1
外形寸法図
 50
0.0
 41
1.0
 51
0.0
  7
KANJI37
  0
LINE
  8
0
  6
CONTINUOUS
 62
     1
 10
1225.932435777
 20
1050.573335986
 11
1235.931625984
 21
1050.573335986
  0
LINE
  8
0
  6
CONTINUOUS
 62
     1
 10
1140.932435777
 20
1168.073335986
 11
1140.932435777
 21
1028.073335986
  0
ARC
  8
0
  6
CONTINUOUS
 62
     1
 10
1707.131625984
 20
1098.073335986
 40
125.0
 50
171.99899924
 51
248.00100076
  0
LINE
  8
0
  6
CONTINUOUS
 62
     1
 10
1225.931625984
 20
1089.573335986
 11
1225.931625984
 21
1098.073335986
  0
LINE
  8
0
  6
CONTINUOUS
 62
     2
 10
1175.931625984
 20
1022.573335986
 11
1175.931625984
 21
744.073335986
  0
LINE
  8
2
  6
CONTINUOUS
 62
     2
 10
1449.931625984
 20
1098.073335986
 11
1475.082127363
 21
1098.073335986
  0
TEXT
  8
0
  6
CONTINUOUS
 62
     2
 10
2255.4
 20
1134.473335986
 30
15.375
 40
21.0
  1
全閉屋内形
 50
0.0
 41
0.9
 51
0.0
  7
KANJI38
  0
LINE
  8
0
  6
CONTINUOUS
 62
     1
 10
272.931625984
 20
1178.07640226
 11
272.931625984
 21
1168.27640226
  0
LINE
  8
0
  6
CONTINUOUS
 62
     1
 10
272.931625984
 20
1168.27640226
 11
267.31726663
 21
1168.27640226
  0
LINE
  8
0
  6
CONTINUOUS
 62
     1
 10
265.931625984
 20
1170.67640226
 11
267.31726663
 21
1168.27640226
  0
LINE
  8
0
  6
CONTINUOUS
 62
     1
 10
265.931625984
 20
1178.07640226
 11
265.931625984
 21
1170.67640226
  0
LINE
  8
0
  6
CONTINUOUS
 62
     1
 10
272.931625984
 20
1173.17640226
 11
267.31726663
 21
1173.17640226
  0
LINE
  8
0
  6
CONTINUOUS
 62
     1
 10
272.931625984
 20
1178.07640226
 11
272.931625984
 21
1187.87640226
  0
LINE
  8
0
  6
CONTINUOUS
 62
     1
 10
272.931625984
 20
1187.87640226
 11
267.31726663
 21
1187.87640226
  0
LINE
  8
0
  6
CONTINUOUS
 62
     1
 10
265.931625984
 20
1185.47640226
 11
267.31726663
 21
1187.87640226
  0
LINE
  8
0
  6
CONTINUOUS
 62
     1
 10
265.931625984
 20
1178.07640226
 11
265.931625984
 21
1185.47640226
  0
LINE
  8
0
  6
CONTINUOUS
 62
     1
 10
272.931625984
 20
1182.97640226
 11
267.31726663
 21
1182.97640226
  0
ARC
  8
0
  6
CONTINUOUS
 62
     1
 10
275.288308784
 20
1178.07640226
 40
9.3566828
 50
148.419912243
 51
211.580087757
  0
ARC
  8
0
  6
CONTINUOUS
 62
     1
 10
268.789509816
 20
1170.72640226
 40
2.858321186
 50
121.002313915
 51
182.989498403
  0
LINE
  8
0
  6
CONTINUOUS
 62
     1
 10
265.931625984
 20
1185.47640226
 11
267.31726663
 21
1187.87640226
  0
ARC
  8
0
  6
CONTINUOUS
 62
     1
 10
268.789509816
 20
1185.42640226
 40
2.858321186
 50
177.010501597
 51
238.997686085
  0
LINE
  8
0
  6
CONTINUOUS
 62
     1
 10
272.931625984
 20
1018.47640226
 11
272.931625984
 21
1028.27640226
  0
LINE
  8
0
  6
CONTINUOUS
 62
     1
 10
272.931625984
 20
1028.27640226
 11
267.31726663
 21
1028.27640226
  0
LINE
  8
0
  6
CONTINUOUS
 62
     1
 10
265.931625984
 20
1025.87640226
 11
267.31726663
 21
1028.27640226
  0
LINE
  8
0
  6
CONTINUOUS
 62
     1
 10
265.931625984
 20
1018.47640226
 11
265.931625984
 21
1025.87640226
  0
LINE
  8
0
  6
CONTINUOUS
 62
     1
 10
272.931625984
 20
1023.37640226
 11
267.31726663
 21
1023.37640226
  0
LINE
  8
0
  6
CONTINUOUS
 62
     1
 10
272.931625984
 20
1018.47640226
 11
272.931625984
 21
1008.67640226
  0
LINE
  8
0
  6
CONTINUOUS
 62
     1
 10
272.931625984
 20
1008.67640226
 11
267.31726663
 21
1008.67640226
  0
LINE
  8
0
  6
CONTINUOUS
 62
     1
 10
265.931625984
 20
1011.07640226
 11
267.31726663
 21
1008.67640226
  0
LINE
  8
0
  6
CONTINUOUS
 62
     1
 10
265.931625984
 20
1018.47640226
 11
265.931625984
 21
1011.07640226
  0
LINE
  8
0
  6
CONTINUOUS
 62
     1
 10
272.931625984
 20
1013.57640226
 11
267.31726663
 21
1013.57640226
  0
ARC
  8
0
  6
CONTINUOUS
 62
     1
 10
275.288308784
 20
1018.47640226
 40
9.3566828
 50
148.419912243
 51
211.580087757
  0
ARC
  8
0
  6
CONTINUOUS
 62
     1
 10
268.789509816
 20
1025.82640226
 40
2.858321186
 50
177.010501597
 51
238.997686085
  0
LINE
  8
0
  6
CONTINUOUS
 62
     1
 10
265.931625984
 20
1011.07640226
 11
267.31726663
 21
1008.67640226
  0
ARC
  8
0
  6
CONTINUOUS
 62
     1
 10
268.789509816
 20
1011.12640226
 40
2.858321186
 50
121.002313915
 51
182.989498403
  0
LINE
  8
0
  6
CONTINUOUS
 62
     1
 10
272.931625984
 20
1098.073335986
 11
272.931625984
 21
1223.073335986
  0
LINE
  8
0
  6
CONTINUOUS
 62
     1
 10
272.931625984
 20
1098.073335986
 11
272.931625984
 21
973.073335986
  0
LINE
  8
0
  6
CONTINUOUS
 62
     1
 10
272.931625984
 20
1223.073335986
 11
298.931625984
 21
1223.073335986
  0
LINE
  8
0
  6
CONTINUOUS
 62
     1
 10
272.931625984
 20
973.073335986
 11
298.931625984
 21
973.073335986
  0
TEXT
  8
0
  6
CONTINUOUS
 62
     2
 10
2292.0
 20
968.873335986
 30
0.24
 40
16.8
  1
７．５ＧＹ５／４．５
 50
0.0
 41
0.785714286
 51
0.0
  7
KANJI39
  0
LINE
  8
0
  6
CONTINUOUS
 62
     1
 10
282.931625984
 20
1098.073335986
 11
282.931625984
 21
973.073335986
  0
LINE
  8
2
  6
CONTINUOUS
 62
     2
 10
372.931625984
 20
720.573335986
 11
358.442738589
 21
724.455621663
  0
LINE
  8
2
  6
CONTINUOUS
 62
     2
 10
372.931625984
 20
720.573335986
 11
358.442738589
 21
716.691050309
  0
LINE
  8
2
  6
CONTINUOUS
 62
     2
 10
372.931625984
 20
720.573335986
 11
282.931625984
 21
720.573335986
  0
LINE
  8
2
  6
CONTINUOUS
 62
     2
 10
282.931625984
 20
720.573335986
 11
297.420513378
 21
716.691050309
  0
LINE
  8
2
  6
CONTINUOUS
 62
     2
 10
282.931625984
 20
720.573335986
 11
297.420513378
 21
724.455621663
  0
LINE
  8
2
  6
CONTINUOUS
 62
     2
 10
282.931625984
 20
967.073335986
 11
282.931625984
 21
708.573335986
  0
LINE
  8
2
  6
CONTINUOUS
 62
     2
 10
272.931625984
 20
967.073335986
 11
272.931625984
 21
708.573335986
  0
LINE
  8
2
  6
CONTINUOUS
 62
     2
 10
272.931625984
 20
720.573335986
 11
258.442738589
 21
724.455621663
  0
LINE
  8
2
  6
CONTINUOUS
 62
     2
 10
272.931625984
 20
720.573335986
 11
258.442738589
 21
716.691050309
  0
TEXT
  8
2
  6
CONTINUOUS
 62
     2
 10
307.831625984
 20
726.573335986
 30
1.8
 40
21.0
  1
９０
 50
0.0
 41
0.914285714
 51
0.0
  7
KANJI40
  0
TEXT
  8
2
  6
CONTINUOUS
 62
     2
 10
214.331625984
 20
726.573335986
 30
1.8
 40
21.0
  1
１０
 50
0.0
 41
0.914285714
 51
0.0
  7
KANJI40
  0
LINE
  8
2
  6
CONTINUOUS
 62
     2
 10
282.931625984
 20
720.573335986
 11
213.131625984
 21
720.573335986
  0
LINE
  8
2
  6
CONTINUOUS
 62
     2
 10
1325.931625984
 20
714.573335986
 11
1325.931625984
 21
668.273335986
  0
LINE
  8
2
  6
CONTINUOUS
 62
     2
 10
1325.931625984
 20
680.273335986
 11
1311.442738589
 21
684.155621663
  0
LINE
  8
2
  6
CONTINUOUS
 62
     2
 10
1325.931625984
 20
680.273335986
 11
1311.442738589
 21
676.391050309
  0
LINE
  8
2
  6
CONTINUOUS
 62
     2
 10
1325.931625984
 20
680.273335986
 11
272.931625984
 21
680.273335986
  0
LINE
  8
2
  6
CONTINUOUS
 62
     2
 10
272.931625984
 20
680.273335986
 11
287.420513378
 21
676.391050309
  0
LINE
  8
2
  6
CONTINUOUS
 62
     2
 10
272.931625984
 20
680.273335986
 11
287.420513378
 21
684.155621663
  0
LINE
  8
2
  6
CONTINUOUS
 62
     2
 10
272.931625984
 20
714.573335986
 11
272.931625984
 21
668.273335986
  0
TEXT
  8
0
  6
CONTINUOUS
 62
     2
 10
2322.6
 20
1303.073335986
 30
12.0
 40
18.0
  1
６
 50
0.0
 41
0.9
 51
0.0
  7
KANJI27
  0
TEXT
  8
0
  6
CONTINUOUS
 62
     3
 10
1719.0
 20
84.0
 30
1.8
 40
27.0
  1
１／６
 50
0.0
 41
0.666666667
 51
0.0
  7
KANJI41
  0
LINE
  8
0
  6
CONTINUOUS
 62
     1
 10
282.931625984
 20
1098.073335986
 11
282.931625984
 21
1223.073335986
  0
ARC
  8
0
  6
CONTINUOUS
 62
     1
 10
1569.131625984
 20
1104.073335986
 40
2.0
 50
270.0
 51
0.0
  0
LINE
  8
0
  6
CONTINUOUS
 62
     1
 10
1565.283799897
 20
1102.073335986
 11
1566.131625984
 21
1107.273335986
  0
LINE
  8
0
  6
LTYPE1
 62
     2
 10
1564.631625984
 20
1098.073335986
 11
1565.283799897
 21
1102.073335986
  0
ARC
  8
0
  6
CONTINUOUS
 62
     1
 10
1569.131625984
 20
1092.073335986
 40
2.0
 50
0.0
 51
90.0
  0
LINE
  8
0
  6
CONTINUOUS
 62
     1
 10
1565.283799897
 20
1094.073335986
 11
1566.131625984
 21
1088.873335986
  0
LINE
  8
0
  6
LTYPE1
 62
     2
 10
1564.631625984
 20
1098.073335986
 11
1565.283799897
 21
1094.073335986
  0
LINE
  8
0
  6
CONTINUOUS
 62
     1
 10
1571.036746071
 20
1107.833921139
 11
1566.131625984
 21
1107.273335986
  0
LINE
  8
0
  6
CONTINUOUS
 62
     1
 10
1582.882624888
 20
1109.187735861
 11
1571.036746071
 21
1107.833921139
  0
LINE
  8
0
  6
CONTINUOUS
 62
     1
 10
1582.482624888
 20
1087.004650397
 11
1566.131625984
 21
1088.873335986
  0
LINE
  8
2
  6
CONTINUOUS
 62
     2
 10
1707.131625984
 20
1370.573335986
 11
1721.620513378
 21
1366.691050309
  0
LINE
  8
2
  6
CONTINUOUS
 62
     2
 10
1707.131625984
 20
1370.573335986
 11
1721.620513378
 21
1374.455621663
  0
LINE
  8
2
  6
CONTINUOUS
 62
     2
 10
1729.631625984
 20
1370.573335986
 11
1707.131625984
 21
1370.573335986
  0
ARC
  8
0
  6
CONTINUOUS
 62
     1
 10
1511.131625984
 20
1098.073335986
 40
4.0
 50
90.0
 51
270.0
  0
ARC
  8
0
  6
CONTINUOUS
 62
     1
 10
1511.131625984
 20
1098.073335986
 40
4.0
 50
90.0
 51
270.0
  0
ARC
  8
0
  6
LTYPE1
 62
     2
 10
1511.131625984
 20
1098.073335986
 40
4.0
 50
270.0
 51
90.0
  0
LINE
  8
0
  6
CONTINUOUS
 62
     1
 10
1569.131625984
 20
1102.073335986
 11
1511.431625984
 21
1102.073335986
  0
LINE
  8
0
  6
CONTINUOUS
 62
     1
 10
1569.131625984
 20
1094.073335986
 11
1511.431625984
 21
1094.073335986
  0
LINE
  8
2
  6
CONTINUOUS
 62
     2
 10
1707.131625984
 20
1370.573335986
 11
1721.620513378
 21
1366.691050309
  0
LINE
  8
2
  6
CONTINUOUS
 62
     2
 10
1707.131625984
 20
1370.573335986
 11
1721.620513378
 21
1374.455621663
  0
LINE
  8
2
  6
CONTINUOUS
 62
     2
 10
1729.631625984
 20
1370.573335986
 11
1707.131625984
 21
1370.573335986
  0
LINE
  8
2
  6
CONTINUOUS
 62
     2
 10
1507.131625984
 20
1104.073335986
 11
1507.131625984
 21
1382.573335986
  0
LINE
  8
2
  6
CONTINUOUS
 62
     2
 10
1707.131625984
 20
1370.573335986
 11
1684.631625984
 21
1370.573335986
  0
LINE
  8
2
  6
CONTINUOUS
 62
     2
 10
1707.131625984
 20
1370.573335986
 11
1692.642738589
 21
1374.455621663
  0
LINE
  8
2
  6
CONTINUOUS
 62
     2
 10
1707.131625984
 20
1370.573335986
 11
1692.642738589
 21
1366.691050309
  0
LINE
  8
2
  6
CONTINUOUS
 62
     2
 10
1507.131625984
 20
1370.573335986
 11
1529.631625984
 21
1370.573335986
  0
LINE
  8
2
  6
CONTINUOUS
 62
     2
 10
1507.131625984
 20
1370.573335986
 11
1521.620513378
 21
1374.455621663
  0
LINE
  8
2
  6
CONTINUOUS
 62
     2
 10
1507.131625984
 20
1370.573335986
 11
1521.620513378
 21
1366.691050309
  0
LINE
  8
2
  6
CONTINUOUS
 62
     2
 10
1707.131625984
 20
1370.573335986
 11
1507.131625984
 21
1370.573335986
  0
TEXT
  8
2
  6
CONTINUOUS
 62
     2
 10
1576.531625984
 20
1376.573335986
 30
1.8
 40
21.0
  1
２００
 50
0.0
 41
0.914285714
 51
0.0
  7
KANJI40
  0
TEXT
  8
0
  6
CONTINUOUS
 62
     2
 10
1862.131625984
 20
1075.573335986
 30
1.8
 40
19.2
  1
３９６
 50
90.0
 41
0.875
 51
0.0
  7
KANJI30
  0
LINE
  8
0
  6
LTYPE2
 62
     2
 10
1495.982127363
 20
1098.073335986
 11
1842.131625984
 21
1098.073335986
  0
LINE
  8
0
  6
CONTINUOUS
 62
     1
 10
401.431625984
 20
592.773335986
 11
1331.431625984
 21
592.773335986
  0
LINE
  8
0
  6
CONTINUOUS
 62
     1
 10
401.431625984
 20
550.773335986
 11
1331.431625984
 21
550.773335986
  0
LINE
  8
0
  6
CONTINUOUS
 62
     2
 10
401.431625984
 20
508.773335986
 11
1331.431625984
 21
508.773335986
  0
LINE
  8
0
  6
CONTINUOUS
 62
     2
 10
401.431625984
 20
466.773335986
 11
1331.431625984
 21
466.773335986
  0
LINE
  8
0
  6
CONTINUOUS
 62
     2
 10
401.431625984
 20
424.773335986
 11
1331.431625984
 21
424.773335986
  0
LINE
  8
0
  6
CONTINUOUS
 62
     2
 10
401.431625984
 20
382.773335986
 11
1331.431625984
 21
382.773335986
  0
TEXT
  8
0
  6
CONTINUOUS
 62
     2
 10
627.031625984
 20
562.773335986
 30
1.8
 40
18.0
  1
ストローク
 50
0.0
 41
0.9
 51
0.0
  7
KANJI26
  0
TEXT
  8
0
  6
CONTINUOUS
 62
     2
 10
742.231625984
 20
561.573335986
 30
0.0
 40
18.0
  1
ｍｉｎ　
 50
0.0
 41
0.9
 51
0.0
  7
KANJI42
  0
TEXT
  8
0
  6
CONTINUOUS
 62
     2
 10
862.231625984
 20
561.573335986
 30
0.0
 40
18.0
  1
ｍｉｎ　
 50
0.0
 41
0.9
 51
0.0
  7
KANJI42
  0
TEXT
  8
0
  6
CONTINUOUS
 62
     2
 10
1102.231625984
 20
561.573335986
 30
0.0
 40
18.0
  1
ｍｉｎ　
 50
0.0
 41
0.9
 51
0.0
  7
KANJI42
  0
TEXT
  8
0
  6
CONTINUOUS
 62
     2
 10
1288.681625984
 20
564.123335986
 30
0.0
 40
14.4
  1
（ｋｇ）
 50
0.0
 41
0.777777778
 51
0.0
  7
KANJI43
  0
TEXT
  8
0
  6
CONTINUOUS
 62
     2
 10
1216.681625984
 20
562.023335986
 30
1.92
 40
19.2
  1
概算重量
 50
0.0
 41
0.9
 51
0.0
  7
KANJI44
  0
TEXT
  8
0
  6
CONTINUOUS
 62
     2
 10
443.431625984
 20
562.773335986
 30
1.92
 40
19.2
  1
形
 50
0.0
 41
0.9
 51
0.0
  7
KANJI44
  0
TEXT
  8
0
  6
CONTINUOUS
 62
     2
 10
560.431625984
 20
562.773335986
 30
1.92
 40
19.2
  1
式
 50
0.0
 41
0.9
 51
0.0
  7
KANJI44
  0
TEXT
  8
0
  6
CONTINUOUS
 62
     2
 10
803.431625984
 20
562.773335986
 30
2.1
 40
21.0
  1
ＡＬ
 50
0.0
 41
0.9
 51
0.0
  7
KANJI45
  0
TEXT
  8
0
  6
CONTINUOUS
 62
     2
 10
923.431625984
 20
562.773335986
 30
2.1
 40
21.0
  1
Ｌ
 50
0.0
 41
0.9
 51
0.0
  7
KANJI45
  0
TEXT
  8
0
  6
CONTINUOUS
 62
     2
 10
1025.431625984
 20
562.773335986
 30
2.1
 40
21.0
  1
Ｃ
 50
0.0
 41
0.9
 51
0.0
  7
KANJI45
  0
TEXT
  8
0
  6
CONTINUOUS
 62
     2
 10
1163.431625984
 20
562.773335986
 30
2.1
 40
21.0
  1
Ｐ
 50
0.0
 41
0.9
 51
0.0
  7
KANJI45
  0
TEXT
  8
0
  6
CONTINUOUS
 62
     2
 10
647.431625984
 20
518.823335986
 30
1.8
 40
18.0
  1
３００
 50
0.0
 41
0.9
 51
0.0
  7
KANJI26
  0
TEXT
  8
0
  6
CONTINUOUS
 62
     2
 10
647.431625984
 20
476.823335986
 30
1.8
 40
18.0
  1
５００
 50
0.0
 41
0.9
 51
0.0
  7
KANJI26
  0
TEXT
  8
0
  6
CONTINUOUS
 62
     2
 10
647.431625984
 20
434.823335986
 30
1.8
 40
18.0
  1
７００
 50
0.0
 41
0.9
 51
0.0
  7
KANJI26
  0
TEXT
  8
0
  6
CONTINUOUS
 62
     2
 10
630.031625984
 20
392.823335986
 30
1.8
 40
18.0
  1
１０００
 50
0.0
 41
0.9
 51
0.0
  7
KANJI26
  0
TEXT
  8
0
  6
CONTINUOUS
 62
     2
 10
630.031625984
 20
350.823335986
 30
1.8
 40
18.0
  1
１５００
 50
0.0
 41
0.9
 51
0.0
  7
KANJI26
  0
TEXT
  8
0
  6
CONTINUOUS
 62
     2
 10
630.031625984
 20
308.823335986
 30
1.8
 40
18.0
  1
２０００
 50
0.0
 41
0.9
 51
0.0
  7
KANJI26
  0
TEXT
  8
0
  6
CONTINUOUS
 62
     2
 10
1136.281625984
 20
521.523335986
 30
1.8
 40
18.0
  1
５０
 50
0.0
 41
0.9
 51
0.0
  7
KANJI26
  0
TEXT
  8
0
  6
CONTINUOUS
 62
     2
 10
1136.803554581
 20
478.216242559
 30
1.8
 40
18.0
  1
５０
 50
1.0
 41
0.9
 51
0.0
  7
KANJI26
  0
TEXT
  8
0
  6
CONTINUOUS
 62
     2
 10
1137.348215612
 20
434.918457118
 30
1.8
 40
18.0
  1
５０
 50
2.0
 41
0.9
 51
0.0
  7
KANJI26
  0
TEXT
  8
0
  6
CONTINUOUS
 62
     2
 10
1137.915443167
 20
391.630374983
 30
1.8
 40
18.0
  1
５０
 50
3.0
 41
0.9
 51
0.0
  7
KANJI26
  0
TEXT
  8
0
  6
CONTINUOUS
 62
     2
 10
1138.505064464
 20
348.352388514
 30
1.8
 40
18.0
  1
５０
 50
4.0
 41
0.9
 51
0.0
  7
KANJI26
  0
TEXT
  8
0
  6
CONTINUOUS
 62
     2
 10
1139.116899897
 20
305.084886999
 30
1.8
 40
18.0
  1
５０
 50
5.0
 41
0.9
 51
0.0
  7
KANJI26
  0
TEXT
  8
0
  6
CONTINUOUS
 62
     2
 10
1005.631625984
 20
521.523335986
 30
1.8
 40
18.0
  1
８０４
 50
0.0
 41
0.9
 51
0.0
  7
KANJI26
  0
TEXT
  8
0
  6
CONTINUOUS
 62
     2
 10
987.631625984
 20
479.523335986
 30
1.8
 40
18.0
  1
１００４
 50
0.0
 41
0.9
 51
0.0
  7
KANJI26
  0
TEXT
  8
0
  6
CONTINUOUS
 62
     2
 10
987.631625984
 20
437.523335986
 30
1.8
 40
18.0
  1
１２４４
 50
0.0
 41
0.9
 51
0.0
  7
KANJI26
  0
TEXT
  8
0
  6
CONTINUOUS
 62
     2
 10
987.631625984
 20
395.523335986
 30
1.8
 40
18.0
  1
１５４４
 50
0.0
 41
0.9
 51
0.0
  7
KANJI26
  0
TEXT
  8
0
  6
CONTINUOUS
 62
     2
 10
987.631625984
 20
353.523335986
 30
1.8
 40
18.0
  1
２０６９
 50
0.0
 41
0.9
 51
0.0
  7
KANJI26
  0
TEXT
  8
0
  6
CONTINUOUS
 62
     2
 10
885.931625984
 20
478.473335986
 30
1.8
 40
18.0
  1
１１５４
 50
0.0
 41
0.9
 51
0.0
  7
KANJI26
  0
TEXT
  8
0
  6
CONTINUOUS
 62
     2
 10
885.931625984
 20
436.473335986
 30
1.8
 40
18.0
  1
１３９４
 50
0.0
 41
0.9
 51
0.0
  7
KANJI26
  0
TEXT
  8
0
  6
CONTINUOUS
 62
     2
 10
885.931625984
 20
394.473335986
 30
1.8
 40
18.0
  1
１６９４
 50
0.0
 41
0.9
 51
0.0
  7
KANJI26
  0
TEXT
  8
0
  6
CONTINUOUS
 62
     2
 10
885.931625984
 20
352.473335986
 30
1.8
 40
18.0
  1
２２１９
 50
0.0
 41
0.9
 51
0.0
  7
KANJI26
  0
TEXT
  8
0
  6
CONTINUOUS
 62
     2
 10
765.331625984
 20
519.273335986
 30
1.8
 40
18.0
  1
１０５４
 50
0.0
 41
0.9
 51
0.0
  7
KANJI26
  0
TEXT
  8
0
  6
CONTINUOUS
 62
     2
 10
765.331625984
 20
477.273335986
 30
1.8
 40
18.0
  1
１２５４
 50
0.0
 41
0.9
 51
0.0
  7
KANJI26
  0
TEXT
  8
0
  6
CONTINUOUS
 62
     2
 10
764.581625984
 20
435.273335986
 30
1.8
 40
18.0
  1
１４９４
 50
0.0
 41
0.9
 51
0.0
  7
KANJI26
  0
TEXT
  8
0
  6
CONTINUOUS
 62
     2
 10
765.331625984
 20
393.273335986
 30
1.8
 40
18.0
  1
１７９４
 50
0.0
 41
0.9
 51
0.0
  7
KANJI26
  0
TEXT
  8
0
  6
CONTINUOUS
 62
     2
 10
765.331625984
 20
351.273335986
 30
1.8
 40
18.0
  1
２３１９
 50
0.0
 41
0.9
 51
0.0
  7
KANJI26
  0
TEXT
  8
0
  6
CONTINUOUS
 62
     2
 10
765.331625984
 20
309.273335986
 30
1.8
 40
18.0
  1
２８６９
 50
0.0
 41
0.9
 51
0.0
  7
KANJI26
  0
TEXT
  8
0
  6
CONTINUOUS
 62
     2
 10
903.931625984
 20
520.473335986
 30
1.8
 40
18.0
  1
９５４
 50
0.0
 41
0.9
 51
0.0
  7
KANJI26
  0
TEXT
  8
0
  6
CONTINUOUS
 62
     2
 10
987.631625984
 20
311.523335986
 30
1.8
 40
18.0
  1
２６１９
 50
0.0
 41
0.9
 51
0.0
  7
KANJI26
  0
TEXT
  8
0
  6
CONTINUOUS
 62
     2
 10
885.931625984
 20
310.473335986
 30
1.8
 40
18.0
  1
２７６９
 50
0.0
 41
0.9
 51
0.0
  7
KANJI26
  0
LINE
  8
0
  6
CONTINUOUS
 62
     1
 10
401.431625984
 20
256.773335986
 11
1331.431625984
 21
256.773335986
  0
LINE
  8
0
  6
CONTINUOUS
 62
     2
 10
401.431625984
 20
298.773335986
 11
1331.431625984
 21
298.773335986
  0
LINE
  8
0
  6
CONTINUOUS
 62
     2
 10
401.431625984
 20
340.773335986
 11
1331.431625984
 21
340.773335986
  0
LINE
  8
0
  6
CONTINUOUS
 62
     1
 10
401.431625984
 20
592.773335986
 11
401.431625984
 21
256.773335986
  0
LINE
  8
0
  6
CONTINUOUS
 62
     1
 10
611.431625984
 20
592.773335986
 11
611.431625984
 21
256.773335986
  0
LINE
  8
0
  6
CONTINUOUS
 62
     2
 10
731.431625984
 20
592.773335986
 11
731.431625984
 21
256.773335986
  0
LINE
  8
0
  6
CONTINUOUS
 62
     2
 10
851.431625984
 20
592.773335986
 11
851.431625984
 21
256.773335986
  0
LINE
  8
0
  6
CONTINUOUS
 62
     2
 10
971.431625984
 20
592.773335986
 11
971.431625984
 21
256.773335986
  0
LINE
  8
0
  6
CONTINUOUS
 62
     2
 10
1091.431625984
 20
592.773335986
 11
1091.431625984
 21
256.773335986
  0
LINE
  8
0
  6
CONTINUOUS
 62
     2
 10
1211.431625984
 20
592.773335986
 11
1211.431625984
 21
256.773335986
  0
LINE
  8
0
  6
CONTINUOUS
 62
     1
 10
1331.431625984
 20
592.773335986
 11
1331.431625984
 21
256.773335986
  0
LINE
  8
0
  6
LTYPE3
 62
     2
 10
567.931625984
 20
1086.873335986
 11
567.931625984
 21
1109.873335986
  0
POLYLINE
  8
0
  6
CONTINUOUS
 62
     1
 66
     1
 70
     1
  0
VERTEX
  8
0
  6
CONTINUOUS
 62
     1
 10
570.931625984
 20
1098.073335986
 42
0.030828907
  0
VERTEX
  8
0
  6
CONTINUOUS
 62
     1
 10
570.920210078
 20
1098.258221236
 42
0.030425797
  0
VERTEX
  8
0
  6
CONTINUOUS
 62
     1
 10
570.886049243
 20
1098.441699398
 42
0.029607756
  0
VERTEX
  8
0
  6
CONTINUOUS
 62
     1
 10
570.829403463
 20
1098.622374092
 42
0.028462655
  0
VERTEX
  8
0
  6
CONTINUOUS
 62
     1
 10
570.750703846
 20
1098.798870274
 42
0.02709878
  0
VERTEX
  8
0
  6
CONTINUOUS
 62
     1
 10
570.650549345
 20
1098.969844702
 42
0.025623927
  0
VERTEX
  8
0
  6
CONTINUOUS
 62
     1
 10
570.529702195
 20
1099.133996158
 42
0.024130573
  0
VERTEX
  8
0
  6
CONTINUOUS
 62
     1
 10
570.389082117
 20
1099.290075349
 42
0.022689019
  0
VERTEX
  8
0
  6
CONTINUOUS
 62
     1
 10
570.229759313
 20
1099.436894419
 42
0.021347012
  0
VERTEX
  8
0
  6
CONTINUOUS
 62
     1
 10
570.052946327
 20
1099.573335986
 42
0.020133139
  0
VERTEX
  8
0
  6
CONTINUOUS
 62
     1
 10
569.859988813
 20
1099.698361647
 42
0.019061584
  0
VERTEX
  8
0
  6
CONTINUOUS
 62
     1
 10
569.652355293
 20
1099.811019882
 42
0.018136748
  0
VERTEX
  8
0
  6
CONTINUOUS
 62
     1
 10
569.431625984
 20
1099.910453293
 42
0.017357048
  0
VERTEX
  8
0
  6
CONTINUOUS
 62
     1
 10
569.199480769
 20
1099.995905132
 42
0.016717738
  0
VERTEX
  8
0
  6
CONTINUOUS
 62
     1
 10
568.957686414
 20
1100.066725059
 42
0.016212869
  0
VERTEX
  8
0
  6
CONTINUOUS
 62
     1
 10
568.708083119
 20
1100.122374092
 42
0.015836575
  0
VERTEX
  8
0
  6
CONTINUOUS
 62
     1
 10
568.452570517
 20
1100.162428707
 42
0.015583879
  0
VERTEX
  8
0
  6
CONTINUOUS
 62
     1
 10
568.193093212
 20
1100.186584065
 42
0.01545117
  0
VERTEX
  8
0
  6
CONTINUOUS
 62
     1
 10
567.931625984
 20
1100.19465633
 42
0.015436471
  0
VERTEX
  8
0
  6
CONTINUOUS
 62
     1
 10
567.670158755
 20
1100.186584065
 42
0.01553956
  0
VERTEX
  8
0
  6
CONTINUOUS
 62
     1
 10
567.410681451
 20
1100.162428707
 42
0.015761981
  0
VERTEX
  8
0
  6
CONTINUOUS
 62
     1
 10
567.155168848
 20
1100.122374092
 42
0.016106956
  0
VERTEX
  8
0
  6
CONTINUOUS
 62
     1
 10
566.905565554
 20
1100.066725059
 42
0.016579155
  0
VERTEX
  8
0
  6
CONTINUOUS
 62
     1
 10
566.663771198
 20
1099.995905132
 42
0.017184283
  0
VERTEX
  8
0
  6
CONTINUOUS
 62
     1
 10
566.431625984
 20
1099.910453293
 42
0.017928366
  0
VERTEX
  8
0
  6
CONTINUOUS
 62
     1
 10
566.210896675
 20
1099.811019882
 42
0.018816605
  0
VERTEX
  8
0
  6
CONTINUOUS
 62
     1
 10
566.003263155
 20
1099.698361647
 42
0.019851601
  0
VERTEX
  8
0
  6
CONTINUOUS
 62
     1
 10
565.81030564
 20
1099.573335986
 42
0.021030768
  0
VERTEX
  8
0
  6
CONTINUOUS
 62
     1
 10
565.633492654
 20
1099.436894419
 42
0.022342775
  0
VERTEX
  8
0
  6
CONTINUOUS
 62
     1
 10
565.474169851
 20
1099.290075349
 42
0.023763095
  0
VERTEX
  8
0
  6
CONTINUOUS
 62
     1
 10
565.333549772
 20
1099.133996158
 42
0.025249176
  0
VERTEX
  8
0
  6
CONTINUOUS
 62
     1
 10
565.212702623
 20
1098.969844702
 42
0.026736517
  0
VERTEX
  8
0
  6
CONTINUOUS
 62
     1
 10
565.112548121
 20
1098.798870274
 42
0.028137835
  0
VERTEX
  8
0
  6
CONTINUOUS
 62
     1
 10
565.033848505
 20
1098.622374092
 42
0.029348088
  0
VERTEX
  8
0
  6
CONTINUOUS
 62
     1
 10
564.977202725
 20
1098.441699398
 42
0.030257315
  0
VERTEX
  8
0
  6
CONTINUOUS
 62
     1
 10
564.943041889
 20
1098.258221236
 42
0.030770446
  0
VERTEX
  8
0
  6
CONTINUOUS
 62
     1
 10
564.931625984
 20
1098.073335986
 42
0.030828907
  0
VERTEX
  8
0
  6
CONTINUOUS
 62
     1
 10
564.943041889
 20
1097.888450736
 42
0.030425797
  0
VERTEX
  8
0
  6
CONTINUOUS
 62
     1
 10
564.977202725
 20
1097.704972574
 42
0.029607756
  0
VERTEX
  8
0
  6
CONTINUOUS
 62
     1
 10
565.033848505
 20
1097.52429788
 42
0.028462655
  0
VERTEX
  8
0
  6
CONTINUOUS
 62
     1
 10
565.112548121
 20
1097.347801698
 42
0.02709878
  0
VERTEX
  8
0
  6
CONTINUOUS
 62
     1
 10
565.212702623
 20
1097.17682727
 42
0.025623927
  0
VERTEX
  8
0
  6
CONTINUOUS
 62
     1
 10
565.333549772
 20
1097.012675814
 42
0.024130573
  0
VERTEX
  8
0
  6
CONTINUOUS
 62
     1
 10
565.474169851
 20
1096.856596623
 42
0.022689019
  0
VERTEX
  8
0
  6
CONTINUOUS
 62
     1
 10
565.633492654
 20
1096.709777553
 42
0.021347012
  0
VERTEX
  8
0
  6
CONTINUOUS
 62
     1
 10
565.81030564
 20
1096.573335986
 42
0.020133139
  0
VERTEX
  8
0
  6
CONTINUOUS
 62
     1
 10
566.003263155
 20
1096.448310325
 42
0.019061584
  0
VERTEX
  8
0
  6
CONTINUOUS
 62
     1
 10
566.210896675
 20
1096.33565209
 42
0.018136748
  0
VERTEX
  8
0
  6
CONTINUOUS
 62
     1
 10
566.431625984
 20
1096.236218679
 42
0.017357048
  0
VERTEX
  8
0
  6
CONTINUOUS
 62
     1
 10
566.663771198
 20
1096.15076684
 42
0.016717738
  0
VERTEX
  8
0
  6
CONTINUOUS
 62
     1
 10
566.905565554
 20
1096.079946913
 42
0.016212869
  0
VERTEX
  8
0
  6
CONTINUOUS
 62
     1
 10
567.155168848
 20
1096.02429788
 42
0.015836575
  0
VERTEX
  8
0
  6
CONTINUOUS
 62
     1
 10
567.410681451
 20
1095.984243265
 42
0.015583879
  0
VERTEX
  8
0
  6
CONTINUOUS
 62
     1
 10
567.670158755
 20
1095.960087907
 42
0.01545117
  0
VERTEX
  8
0
  6
CONTINUOUS
 62
     1
 10
567.931625984
 20
1095.952015642
 42
0.015436471
  0
VERTEX
  8
0
  6
CONTINUOUS
 62
     1
 10
568.193093212
 20
1095.960087907
 42
0.01553956
  0
VERTEX
  8
0
  6
CONTINUOUS
 62
     1
 10
568.452570517
 20
1095.984243265
 42
0.015761981
  0
VERTEX
  8
0
  6
CONTINUOUS
 62
     1
 10
568.708083119
 20
1096.02429788
 42
0.016106956
  0
VERTEX
  8
0
  6
CONTINUOUS
 62
     1
 10
568.957686414
 20
1096.079946913
 42
0.016579155
  0
VERTEX
  8
0
  6
CONTINUOUS
 62
     1
 10
569.199480769
 20
1096.15076684
 42
0.017184283
  0
VERTEX
  8
0
  6
CONTINUOUS
 62
     1
 10
569.431625984
 20
1096.236218679
 42
0.017928366
  0
VERTEX
  8
0
  6
CONTINUOUS
 62
     1
 10
569.652355293
 20
1096.33565209
 42
0.018816605
  0
VERTEX
  8
0
  6
CONTINUOUS
 62
     1
 10
569.859988813
 20
1096.448310325
 42
0.019851601
  0
VERTEX
  8
0
  6
CONTINUOUS
 62
     1
 10
570.052946327
 20
1096.573335986
 42
0.021030768
  0
VERTEX
  8
0
  6
CONTINUOUS
 62
     1
 10
570.229759313
 20
1096.709777553
 42
0.022342775
  0
VERTEX
  8
0
  6
CONTINUOUS
 62
     1
 10
570.389082117
 20
1096.856596623
 42
0.023763095
  0
VERTEX
  8
0
  6
CONTINUOUS
 62
     1
 10
570.529702195
 20
1097.012675814
 42
0.025249176
  0
VERTEX
  8
0
  6
CONTINUOUS
 62
     1
 10
570.650549345
 20
1097.17682727
 42
0.026736517
  0
VERTEX
  8
0
  6
CONTINUOUS
 62
     1
 10
570.750703846
 20
1097.347801698
 42
0.028137835
  0
VERTEX
  8
0
  6
CONTINUOUS
 62
     1
 10
570.829403463
 20
1097.52429788
 42
0.029348088
  0
VERTEX
  8
0
  6
CONTINUOUS
 62
     1
 10
570.886049243
 20
1097.704972574
 42
0.030257315
  0
VERTEX
  8
0
  6
CONTINUOUS
 62
     1
 10
570.920210078
 20
1097.888450736
 42
0.030770446
  0
SEQEND
  8
0
  6
CONTINUOUS
 62
     1
  0
POLYLINE
  8
0
  6
CONTINUOUS
 62
     1
 66
     1
 70
     1
  0
VERTEX
  8
0
  6
CONTINUOUS
 62
     1
 10
573.931625984
 20
1098.073335986
 42
0.069980355
  0
VERTEX
  8
0
  6
CONTINUOUS
 62
     1
 10
573.908794172
 20
1098.23493162
 42
0.062232798
  0
VERTEX
  8
0
  6
CONTINUOUS
 62
     1
 10
573.840472502
 20
1098.395297414
 42
0.050434494
  0
VERTEX
  8
0
  6
CONTINUOUS
 62
     1
 10
573.727180941
 20
1098.553212886
 42
0.039288848
  0
VERTEX
  8
0
  6
CONTINUOUS
 62
     1
 10
573.569781708
 20
1098.707476206
 42
0.030513632
  0
VERTEX
  8
0
  6
CONTINUOUS
 62
     1
 10
573.369472706
 20
1098.856913336
 42
0.024059016
  0
VERTEX
  8
0
  6
CONTINUOUS
 62
     1
 10
573.127778406
 20
1099.000386969
 42
0.019394114
  0
VERTEX
  8
0
  6
CONTINUOUS
 62
     1
 10
572.846538249
 20
1099.136805184
 42
0.01600994
  0
VERTEX
  8
0
  6
CONTINUOUS
 62
     1
 10
572.527892642
 20
1099.265129757
 42
0.013526168
  0
VERTEX
  8
0
  6
CONTINUOUS
 62
     1
 10
572.174266671
 20
1099.384384059
 42
0.011679205
  0
VERTEX
  8
0
  6
CONTINUOUS
 62
     1
 10
571.788351642
 20
1099.493660494
 42
0.010290137
  0
VERTEX
  8
0
  6
CONTINUOUS
 62
     1
 10
571.373084602
 20
1099.592127402
 42
0.009237526
  0
VERTEX
  8
0
  6
CONTINUOUS
 62
     1
 10
570.931625984
 20
1099.67903539
 42
0.008438335
  0
VERTEX
  8
0
  6
CONTINUOUS
 62
     1
 10
570.467335554
 20
1099.753723036
 42
0.007835335
  0
VERTEX
  8
0
  6
CONTINUOUS
 62
     1
 10
569.983746844
 20
1099.815621922
 42
0.007388933
  0
VERTEX
  8
0
  6
CONTINUOUS
 62
     1
 10
569.484540254
 20
1099.86426096
 42
0.007071925
  0
VERTEX
  8
0
  6
CONTINUOUS
 62
     1
 10
568.97351505
 20
1099.899269977
 42
0.00686612
  0
VERTEX
  8
0
  6
CONTINUOUS
 62
     1
 10
568.45456044
 20
1099.920382535
 42
0.006760223
  0
VERTEX
  8
0
  6
CONTINUOUS
 62
     1
 10
567.931625984
 20
1099.927437952
 42
0.006748585
  0
VERTEX
  8
0
  6
CONTINUOUS
 62
     1
 10
567.408691527
 20
1099.920382535
 42
0.00683059
  0
VERTEX
  8
0
  6
CONTINUOUS
 62
     1
 10
566.889736918
 20
1099.899269977
 42
0.007010595
  0
VERTEX
  8
0
  6
CONTINUOUS
 62
     1
 10
566.378711713
 20
1099.86426096
 42
0.007298395
  0
VERTEX
  8
0
  6
CONTINUOUS
 62
     1
 10
565.879505124
 20
1099.815621922
 42
0.007710296
  0
VERTEX
  8
0
  6
CONTINUOUS
 62
     1
 10
565.395916413
 20
1099.753723036
 42
0.008270992
  0
VERTEX
  8
0
  6
CONTINUOUS
 62
     1
 10
564.931625984
 20
1099.67903539
 42
0.009016571
  0
VERTEX
  8
0
  6
CONTINUOUS
 62
     1
 10
564.490167366
 20
1099.592127402
 42
0.009999225
  0
VERTEX
  8
0
  6
CONTINUOUS
 62
     1
 10
564.074900326
 20
1099.493660494
 42
0.011294563
  0
VERTEX
  8
0
  6
CONTINUOUS
 62
     1
 10
563.688985297
 20
1099.384384059
 42
0.013012924
  0
VERTEX
  8
0
  6
CONTINUOUS
 62
     1
 10
563.335359325
 20
1099.265129757
 42
0.015316631
  0
VERTEX
  8
0
  6
CONTINUOUS
 62
     1
 10
563.016713718
 20
1099.136805184
 42
0.018445132
  0
VERTEX
  8
0
  6
CONTINUOUS
 62
     1
 10
562.735473561
 20
1099.000386969
 42
0.022746835
  0
VERTEX
  8
0
  6
CONTINUOUS
 62
     1
 10
562.493779261
 20
1098.856913336
 42
0.028701013
  0
VERTEX
  8
0
  6
CONTINUOUS
 62
     1
 10
562.293470259
 20
1098.707476206
 42
0.036857659
  0
VERTEX
  8
0
  6
CONTINUOUS
 62
     1
 10
562.136071026
 20
1098.553212886
 42
0.04747273
  0
VERTEX
  8
0
  6
CONTINUOUS
 62
     1
 10
562.022779466
 20
1098.395297414
 42
0.059430864
  0
VERTEX
  8
0
  6
CONTINUOUS
 62
     1
 10
561.954457795
 20
1098.23493162
 42
0.068752934
  0
VERTEX
  8
0
  6
CONTINUOUS
 62
     1
 10
561.931625984
 20
1098.073335986
 42
0.069980355
  0
VERTEX
  8
0
  6
CONTINUOUS
 62
     1
 10
561.954457795
 20
1097.911740352
 42
0.062232798
  0
VERTEX
  8
0
  6
CONTINUOUS
 62
     1
 10
562.022779466
 20
1097.751374558
 42
0.050434494
  0
VERTEX
  8
0
  6
CONTINUOUS
 62
     1
 10
562.136071026
 20
1097.593459086
 42
0.039288848
  0
VERTEX
  8
0
  6
CONTINUOUS
 62
     1
 10
562.293470259
 20
1097.439195766
 42
0.030513632
  0
VERTEX
  8
0
  6
CONTINUOUS
 62
     1
 10
562.493779261
 20
1097.289758636
 42
0.024059016
  0
VERTEX
  8
0
  6
CONTINUOUS
 62
     1
 10
562.735473561
 20
1097.146285003
 42
0.019394114
  0
VERTEX
  8
0
  6
CONTINUOUS
 62
     1
 10
563.016713718
 20
1097.009866788
 42
0.01600994
  0
VERTEX
  8
0
  6
CONTINUOUS
 62
     1
 10
563.335359325
 20
1096.881542215
 42
0.013526168
  0
VERTEX
  8
0
  6
CONTINUOUS
 62
     1
 10
563.688985297
 20
1096.762287913
 42
0.011679205
  0
VERTEX
  8
0
  6
CONTINUOUS
 62
     1
 10
564.074900326
 20
1096.653011478
 42
0.010290137
  0
VERTEX
  8
0
  6
CONTINUOUS
 62
     1
 10
564.490167366
 20
1096.55454457
 42
0.009237526
  0
VERTEX
  8
0
  6
CONTINUOUS
 62
     1
 10
564.931625984
 20
1096.467636582
 42
0.008438335
  0
VERTEX
  8
0
  6
CONTINUOUS
 62
     1
 10
565.395916413
 20
1096.392948936
 42
0.007835335
  0
VERTEX
  8
0
  6
CONTINUOUS
 62
     1
 10
565.879505124
 20
1096.33105005
 42
0.007388933
  0
VERTEX
  8
0
  6
CONTINUOUS
 62
     1
 10
566.378711713
 20
1096.282411012
 42
0.007071925
  0
VERTEX
  8
0
  6
CONTINUOUS
 62
     1
 10
566.889736918
 20
1096.247401995
 42
0.00686612
  0
VERTEX
  8
0
  6
CONTINUOUS
 62
     1
 10
567.408691527
 20
1096.226289438
 42
0.006760223
  0
VERTEX
  8
0
  6
CONTINUOUS
 62
     1
 10
567.931625984
 20
1096.21923402
 42
0.006748585
  0
VERTEX
  8
0
  6
CONTINUOUS
 62
     1
 10
568.45456044
 20
1096.226289438
 42
0.00683059
  0
VERTEX
  8
0
  6
CONTINUOUS
 62
     1
 10
568.97351505
 20
1096.247401995
 42
0.007010595
  0
VERTEX
  8
0
  6
CONTINUOUS
 62
     1
 10
569.484540254
 20
1096.282411012
 42
0.007298395
  0
VERTEX
  8
0
  6
CONTINUOUS
 62
     1
 10
569.983746844
 20
1096.33105005
 42
0.007710296
  0
VERTEX
  8
0
  6
CONTINUOUS
 62
     1
 10
570.467335554
 20
1096.392948936
 42
0.008270992
  0
VERTEX
  8
0
  6
CONTINUOUS
 62
     1
 10
570.931625984
 20
1096.467636582
 42
0.009016571
  0
VERTEX
  8
0
  6
CONTINUOUS
 62
     1
 10
571.373084602
 20
1096.55454457
 42
0.009999225
  0
VERTEX
  8
0
  6
CONTINUOUS
 62
     1
 10
571.788351642
 20
1096.653011478
 42
0.011294563
  0
VERTEX
  8
0
  6
CONTINUOUS
 62
     1
 10
572.174266671
 20
1096.762287913
 42
0.013012924
  0
VERTEX
  8
0
  6
CONTINUOUS
 62
     1
 10
572.527892642
 20
1096.881542215
 42
0.015316631
  0
VERTEX
  8
0
  6
CONTINUOUS
 62
     1
 10
572.846538249
 20
1097.009866788
 42
0.018445132
  0
VERTEX
  8
0
  6
CONTINUOUS
 62
     1
 10
573.127778406
 20
1097.146285003
 42
0.022746835
  0
VERTEX
  8
0
  6
CONTINUOUS
 62
     1
 10
573.369472706
 20
1097.289758636
 42
0.028701013
  0
VERTEX
  8
0
  6
CONTINUOUS
 62
     1
 10
573.569781708
 20
1097.439195766
 42
0.036857659
  0
VERTEX
  8
0
  6
CONTINUOUS
 62
     1
 10
573.727180941
 20
1097.593459086
 42
0.04747273
  0
VERTEX
  8
0
  6
CONTINUOUS
 62
     1
 10
573.840472502
 20
1097.751374558
 42
0.059430864
  0
VERTEX
  8
0
  6
CONTINUOUS
 62
     1
 10
573.908794172
 20
1097.911740352
 42
0.068752934
  0
SEQEND
  8
0
  6
CONTINUOUS
 62
     1
  0
LINE
  8
2
  6
CONTINUOUS
 62
     2
 10
571.931625984
 20
1105.073335986
 11
581.671912399
 21
1116.48065033
  0
LINE
  8
2
  6
CONTINUOUS
 62
     2
 10
571.931625984
 20
1105.073335986
 11
574.663304287
 21
1119.822503205
  0
LINE
  8
2
  6
CONTINUOUS
 62
     2
 10
571.931625984
 20
1105.073335986
 11
643.931625984
 21
1256.073335986
  0
LINE
  8
2
  6
CONTINUOUS
 62
     2
 10
643.931625984
 20
1256.073335986
 11
858.131625984
 21
1256.073335986
  0
TEXT
  8
2
  6
CONTINUOUS
 62
     3
 10
643.931625984
 20
1262.073335986
 30
1.8
 40
18.0
  1
グリスニップルＰＴ１／８
 50
0.0
 41
0.9
 51
0.0
  7
KANJI46
  0
LINE
  8
0
  6
CONTINUOUS
 62
     1
 10
615.931625984
 20
1148.6304035
 11
502.931625984
 21
1148.6304035
  0
LINE
  8
0
  6
CONTINUOUS
 62
     1
 10
615.931625984
 20
1148.6304035
 11
502.931625984
 21
1181.048755768
  0
LINE
  8
0
  6
CONTINUOUS
 62
     1
 10
615.931625984
 20
1047.516268472
 11
502.931625984
 21
1047.516268472
  0
LINE
  8
0
  6
CONTINUOUS
 62
     1
 10
615.931625984
 20
1047.516268472
 11
502.931625984
 21
1015.097916204
  0
CIRCLE
  8
0
  6
CONTINUOUS
 62
     1
 10
567.931625984
 20
1098.073335986
 40
6.056785451
  0
CIRCLE
  8
0
  6
CONTINUOUS
 62
     1
 10
567.931625984
 20
1098.073335986
 40
4.0
  0
LINE
  8
0
  6
CONTINUOUS
 62
     1
 10
615.931625984
 20
1159.033791249
 11
502.931625984
 21
1191.452143517
  0
LINE
  8
0
  6
CONTINUOUS
 62
     1
 10
615.931625984
 20
1037.112880723
 11
502.931625984
 21
1004.694528455
  0
LINE
  8
0
  6
CONTINUOUS
 62
     1
 10
715.931625984
 20
1168.073335986
 11
1175.932435777
 21
1168.073335986
  0
LINE
  8
0
  6
CONTINUOUS
 62
     1
 10
715.931625984
 20
1028.073335986
 11
1175.932435777
 21
1028.073335986
  0
LINE
  8
0
  6
CONTINUOUS
 62
     1
 10
1175.932435777
 20
1168.073335986
 11
1175.932435777
 21
1028.073335986
  0
LINE
  8
0
  6
CONTINUOUS
 62
     1
 10
1225.932435777
 20
1145.573335986
 11
1225.932435777
 21
1050.573335986
  0
LINE
  8
0
  6
CONTINUOUS
 62
     1
 10
1225.932435777
 20
1145.573335986
 11
1235.931625984
 21
1145.573335986
  0
LINE
  8
0
  6
CONTINUOUS
 62
     1
 10
1175.932435777
 20
1142.573335986
 11
1225.932435777
 21
1142.573335986
  0
LINE
  8
0
  6
CONTINUOUS
 62
     1
 10
1175.932435777
 20
1053.573335986
 11
1225.932435777
 21
1053.573335986
  0
LINE
  8
0
  6
CONTINUOUS
 62
     2
 10
1225.931625984
 20
1050.573335986
 11
1225.931625984
 21
743.073335986
  0
CIRCLE
  8
0
  6
CONTINUOUS
 62
     1
 10
1707.131625984
 20
1098.073335986
 40
82.3
  0
TEXT
  8
0
  6
CONTINUOUS
 62
     2
 10
2239.5
 20
1510.973335986
 30
1.2
 40
18.0
  1
ＳＣＤ１０Ａ－　　　
 50
0.0
 41
0.833333333
 51
0.0
  7
KANJI47
  0
TEXT
  8
0
  6
CONTINUOUS
 62
     2
 10
1241.131625984
 20
521.073335986
 30
1.8
 40
18.0
  1
１６１
 50
0.0
 41
0.9
 51
0.0
  7
KANJI26
  0
TEXT
  8
0
  6
CONTINUOUS
 62
     2
 10
1241.131625984
 20
479.073335986
 30
1.8
 40
18.0
  1
１８０
 50
0.0
 41
0.9
 51
0.0
  7
KANJI26
  0
TEXT
  8
0
  6
CONTINUOUS
 62
     2
 10
1241.131625984
 20
437.073335986
 30
1.8
 40
18.0
  1
２０２
 50
0.0
 41
0.9
 51
0.0
  7
KANJI26
  0
TEXT
  8
0
  6
CONTINUOUS
 62
     2
 10
1241.131625984
 20
395.073335986
 30
1.8
 40
18.0
  1
２１３
 50
0.0
 41
0.9
 51
0.0
  7
KANJI26
  0
TEXT
  8
0
  6
CONTINUOUS
 62
     2
 10
1241.131625984
 20
353.073335986
 30
1.8
 40
18.0
  1
２８４
 50
0.0
 41
0.9
 51
0.0
  7
KANJI26
  0
TEXT
  8
0
  6
CONTINUOUS
 62
     2
 10
1241.131625984
 20
311.073335986
 30
1.8
 40
18.0
  1
３４１
 50
0.0
 41
0.9
 51
0.0
  7
KANJI26
  0
TEXT
  8
0
  6
CONTINUOUS
 62
     2
 10
420.931625984
 20
518.373335986
 30
1.2
 40
18.0
  1
ＳＣＤ１０Ａ－　３
 50
0.0
 41
0.833333333
 51
0.0
  7
KANJI47
  0
TEXT
  8
0
  6
CONTINUOUS
 62
     2
 10
420.931625984
 20
476.373335986
 30
1.2
 40
18.0
  1
ＳＣＤ１０Ａ－　５
 50
0.0
 41
0.833333333
 51
0.0
  7
KANJI47
  0
TEXT
  8
0
  6
CONTINUOUS
 62
     2
 10
420.931625984
 20
434.373335986
 30
1.2
 40
18.0
  1
ＳＣＤ１０Ａ－　７
 50
0.0
 41
0.833333333
 51
0.0
  7
KANJI47
  0
TEXT
  8
0
  6
CONTINUOUS
 62
     2
 10
420.931625984
 20
392.373335986
 30
1.2
 40
18.0
  1
ＳＣＤ１０Ａ－１０
 50
0.0
 41
0.833333333
 51
0.0
  7
KANJI47
  0
TEXT
  8
0
  6
CONTINUOUS
 62
     2
 10
420.931625984
 20
350.373335986
 30
1.2
 40
18.0
  1
ＳＣＤ１０Ａ－１５
 50
0.0
 41
0.833333333
 51
0.0
  7
KANJI47
  0
TEXT
  8
0
  6
CONTINUOUS
 62
     2
 10
420.931625984
 20
308.373335986
 30
1.2
 40
18.0
  1
ＳＣＤ１０Ａ－２０
 50
0.0
 41
0.833333333
 51
0.0
  7
KANJI47
  0
TEXT
  8
0
  6
CONTINUOUS
 62
     3
 10
1885.431625984
 20
248.573335986
 30
1.8
 40
24.0
  1
ＳＣＤ１０Ａ－
 50
0.0
 41
0.75
 51
0.0
  7
KANJI48
  0
TEXT
  8
0
  6
CONTINUOUS
 62
     3
 10
1971.4000362
 20
155.999994
 30
13.0
 40
30.0
  1
Ａ３０００４７２
 50
0.0
 41
0.8
 51
0.0
  7
KANJI49
  0
TEXT
  8
0
  6
CONTINUOUS
 62
     3
 10
1679.6000334
 20
127.199994
 30
1.8
 40
21.0
  1
９５．０６．０７
 50
0.0
 41
0.571428571
 51
0.0
  7
KANJI50
  0
TEXT
  8
0
  6
CONTINUOUS
 62
     3
 10
1699.6000278
 20
206.999994
 30
12.0
 40
18.0
  1
山本
 50
0.0
 41
0.666666667
 51
0.0
  7
KANJI51
  0
TEXT
  8
0
  6
CONTINUOUS
 62
     3
 10
1235.6000278
 20
43.999994
 30
0.0
 40
18.0
  1
２００２．０９．０２　変更書替　岡田
 50
0.0
 41
0.666666667
 51
0.0
  7
KANJI52
  0
LINE
  8
0
  6
CONTINUOUS
 62
     4
 10
48.1999996
 20
77.1999996
 11
110.5999948
 21
77.1999996
  0
LINE
  8
0
  6
CONTINUOUS
 62
     4
 10
48.1999996
 20
108.3999972
 11
110.5999948
 21
108.3999972
  0
LINE
  8
0
  6
CONTINUOUS
 62
     4
 10
48.1999996
 20
139.5999948
 11
110.5999948
 21
139.5999948
  0
LINE
  8
0
  6
CONTINUOUS
 62
     4
 10
48.1999996
 20
170.7999924
 11
110.5999948
 21
170.7999924
  0
LINE
  8
0
  6
CONTINUOUS
 62
     4
 10
48.1999996
 20
201.99999
 11
110.5999948
 21
201.99999
  0
LINE
  8
0
  6
CONTINUOUS
 62
     4
 10
48.1999996
 20
233.1999876
 11
110.5999948
 21
233.1999876
  0
LINE
  8
0
  6
CONTINUOUS
 62
     4
 10
48.1999996
 20
264.3999852
 11
110.5999948
 21
264.3999852
  0
LINE
  8
0
  6
CONTINUOUS
 62
     4
 10
48.1999996
 20
295.5999828
 11
110.5999948
 21
295.5999828
  0
LINE
  8
0
  6
CONTINUOUS
 62
     4
 10
48.1999996
 20
326.7999804
 11
110.5999948
 21
326.7999804
  0
LINE
  8
0
  6
CONTINUOUS
 62
     4
 10
48.1999996
 20
357.999978
 11
110.5999948
 21
357.999978
  0
LINE
  8
0
  6
CONTINUOUS
 62
     4
 10
110.5999948
 20
77.1999996
 11
110.5999948
 21
357.999978
  0
LINE
  8
0
  6
CONTINUOUS
 62
     4
 10
79.3999972
 20
77.1999996
 11
79.3999972
 21
326.7999804
  0
TEXT
  8
0
  6
CONTINUOUS
 62
     4
 10
58.85999878
 20
86.2999989
 30
1.55999988
 40
15.5999988
  1
計
 50
0.0
 41
0.75
 51
0.0
  7
KANJI53
  0
TEXT
  8
0
  6
CONTINUOUS
 62
     4
 10
58.85999878
 20
149.21999406
 30
1.55999988
 40
15.5999988
  1
設
 50
0.0
 41
0.75
 51
0.0
  7
KANJI53
  0
TEXT
  8
0
  6
CONTINUOUS
 62
     4
 10
58.85999878
 20
179.8999917
 30
1.55999988
 40
15.5999988
  1
管
 50
0.0
 41
0.75
 51
0.0
  7
KANJI53
  0
TEXT
  8
0
  6
CONTINUOUS
 62
     4
 10
58.85999878
 20
211.0999893
 30
1.55999988
 40
15.5999988
  1
製
 50
0.0
 41
0.75
 51
0.0
  7
KANJI53
  0
TEXT
  8
0
  6
CONTINUOUS
 62
     4
 10
58.85999878
 20
242.2999869
 30
1.55999988
 40
15.5999988
  1
資
 50
0.0
 41
0.75
 51
0.0
  7
KANJI53
  0
TEXT
  8
0
  6
CONTINUOUS
 62
     4
 10
58.85999878
 20
273.4999845
 30
1.55999988
 40
15.5999988
  1
営
 50
0.0
 41
0.75
 51
0.0
  7
KANJI53
  0
TEXT
  8
0
  6
CONTINUOUS
 62
     4
 10
58.85999878
 20
304.6999821
 30
1.55999988
 40
15.5999988
  1
客
 50
0.0
 41
0.75
 51
0.0
  7
KANJI53
  0
TEXT
  8
0
  6
CONTINUOUS
 62
     4
 10
58.5999988
 20
337.1999796
 30
1.55999988
 40
15.5999988
  1
出　図
 50
0.0
 41
0.75
 51
0.0
  7
KANJI53
  0
LINE
  8
0
  6
CONTINUOUS
 62
     4
 10
48.1999996
 20
77.1999996
 11
48.1999996
 21
357.999978
  0
TEXT
  8
0
  6
CONTINUOUS
 62
     4
 10
1648.5
 20
333.0
 30
0.6
 40
21.6
  1
ご注文主
 50
0.0
 41
0.833333333
 51
0.0
  7
KANJI54
  0
TEXT
  8
0
  6
CONTINUOUS
 62
     4
 10
1648.5
 20
374.5999968
 30
0.6
 40
21.6
  1
ご用途
 50
0.0
 41
0.833333333
 51
0.0
  7
KANJI54
  0
LINE
  8
0
  6
CONTINUOUS
 62
     6
 10
1741.5
 20
326.7999804
 11
1741.5
 21
409.999974
  0
LINE
  8
0
  6
CONTINUOUS
 62
     6
 10
1630.750062
 20
368.3999772
 11
2431.5500004
 21
368.3999772
  0
LINE
  8
0
  6
CONTINUOUS
 62
     6
 10
1630.000062
 20
409.999974
 11
2430.8000004
 21
409.999974
  0
LINE
  8
0
  6
CONTINUOUS
 62
     6
 10
1630.000062
 20
77.1999996
 11
1630.000062
 21
409.999974
  0
LINE
  8
0
  6
CONTINUOUS
 62
     6
 10
2430.8000004
 20
77.1999996
 11
2430.8000004
 21
409.999974
  0
TEXT
  8
0
  6
CONTINUOUS
 62
     2
 10
306.0
 20
30.0
 30
12.0
 40
18.0
  1
ＦＤ　Ｎｏ．ＳＣ８
 50
0.0
 41
0.666666667
 51
0.0
  7
KANJI51
  0
TEXT
  8
0
  6
CONTINUOUS
 62
     2
 10
1722.431625984
 20
695.773335986
 30
6.156
 40
21.6
  1
２。形式表示ストロークは機械的最大ストロークです。
 50
0.0
 41
0.857222222
 51
0.0
  7
KANJI55
  0
TEXT
  8
0
  6
CONTINUOUS
 62
     2
 10
1722.431625984
 20
657.733335986
 30
6.156
 40
21.6
  1
　　実際に使用する場合は惰行距離を含め、両端に十分余裕を
 50
0.0
 41
0.857222222
 51
0.0
  7
KANJI55
  0
TEXT
  8
0
  6
CONTINUOUS
 62
     2
 10
1722.431625984
 20
619.933335986
 30
6.156
 40
21.6
  1
　　みて下さい。
 50
0.0
 41
0.857222222
 51
0.0
  7
KANJI55
  0
ENDSEC
  0
EOF
