  0
SECTION
  2
HEADER
  9
$EXTMIN
 10
0.0
 20
0.0
 30
0.0
  9
$EXTMAX
 10
2520.0
 20
1782.0
 30
0.0
  9
$LIMMIN
 10
0.0
 20
0.0
  9
$LIMMAX
 10
2520.0
 20
1782.0
  9
$LTSCALE
 40
1.0
  9
$PDMODE
 70
     0
  0
ENDSEC
  0
SECTION
  2
TABLES
  0
TABLE
  2
LTYPE
 70
     5
  0
LTYPE
  2
CONTINUOUS
 70
    64
  3
Solid line
 72
    65
 73
     0
 40
0.0
  0
LTYPE
  2
LTYPE1
 70
    64
  3
HIDDEN
 72
    65
 73
     2
 40
18.0
 49
10.8
 49
-7.2
  0
LTYPE
  2
LTYPE2
 70
    64
  3
CENTER
 72
    65
 73
     4
 40
60.0
 49
42.0
 49
-6.0
 49
6.0
 49
-6.0
  0
LTYPE
  2
LTYPE3
 70
    64
  3
CENTER
 72
    65
 73
     4
 40
90.0
 49
63.0
 49
-9.0
 49
9.0
 49
-9.0
  0
LTYPE
  2
LTYPE4
 70
    64
  3
PHANTOM
 72
    65
 73
     6
 40
90.0
 49
67.5
 49
-4.5
 49
4.5
 49
-4.5
 49
4.5
 49
-4.5
  0
ENDTAB
  0
TABLE
  2
LAYER
 70
   128
  0
LAYER
  2
0
 70
     0
 62
     7
  6
CONTINUOUS
  0
LAYER
  2
2
 70
     0
 62
     7
  6
CONTINUOUS
  0
LAYER
  2
3
 70
     0
 62
     7
  6
CONTINUOUS
  0
LAYER
  2
4
 70
     0
 62
     7
  6
CONTINUOUS
  0
LAYER
  2
5
 70
     0
 62
     7
  6
CONTINUOUS
  0
LAYER
  2
6
 70
     0
 62
     7
  6
CONTINUOUS
  0
LAYER
  2
7
 70
     0
 62
     7
  6
CONTINUOUS
  0
LAYER
  2
8
 70
     0
 62
     7
  6
CONTINUOUS
  0
LAYER
  2
9
 70
     0
 62
     7
  6
CONTINUOUS
  0
LAYER
  2
10
 70
     0
 62
     7
  6
CONTINUOUS
  0
LAYER
  2
11
 70
     0
 62
     7
  6
CONTINUOUS
  0
LAYER
  2
12
 70
     0
 62
     7
  6
CONTINUOUS
  0
LAYER
  2
13
 70
     0
 62
     7
  6
CONTINUOUS
  0
LAYER
  2
14
 70
     0
 62
     7
  6
CONTINUOUS
  0
LAYER
  2
15
 70
     0
 62
     7
  6
CONTINUOUS
  0
LAYER
  2
16
 70
     0
 62
     7
  6
CONTINUOUS
  0
LAYER
  2
17
 70
     0
 62
     7
  6
CONTINUOUS
  0
LAYER
  2
18
 70
     0
 62
     7
  6
CONTINUOUS
  0
LAYER
  2
19
 70
     0
 62
     7
  6
CONTINUOUS
  0
LAYER
  2
20
 70
     0
 62
     7
  6
CONTINUOUS
  0
LAYER
  2
21
 70
     0
 62
     7
  6
CONTINUOUS
  0
LAYER
  2
22
 70
     0
 62
     7
  6
CONTINUOUS
  0
LAYER
  2
23
 70
     0
 62
     7
  6
CONTINUOUS
  0
LAYER
  2
24
 70
     0
 62
     7
  6
CONTINUOUS
  0
LAYER
  2
25
 70
     0
 62
     7
  6
CONTINUOUS
  0
LAYER
  2
26
 70
     0
 62
     7
  6
CONTINUOUS
  0
LAYER
  2
27
 70
     0
 62
     7
  6
CONTINUOUS
  0
LAYER
  2
28
 70
     0
 62
     7
  6
CONTINUOUS
  0
LAYER
  2
29
 70
     0
 62
     7
  6
CONTINUOUS
  0
LAYER
  2
30
 70
     0
 62
     7
  6
CONTINUOUS
  0
LAYER
  2
31
 70
     0
 62
     7
  6
CONTINUOUS
  0
LAYER
  2
32
 70
     0
 62
     7
  6
CONTINUOUS
  0
LAYER
  2
33
 70
     0
 62
     7
  6
CONTINUOUS
  0
LAYER
  2
34
 70
     0
 62
     7
  6
CONTINUOUS
  0
LAYER
  2
35
 70
     0
 62
     7
  6
CONTINUOUS
  0
LAYER
  2
36
 70
     0
 62
     7
  6
CONTINUOUS
  0
LAYER
  2
37
 70
     0
 62
     7
  6
CONTINUOUS
  0
LAYER
  2
38
 70
     0
 62
     7
  6
CONTINUOUS
  0
LAYER
  2
39
 70
     0
 62
     7
  6
CONTINUOUS
  0
LAYER
  2
40
 70
     0
 62
     7
  6
CONTINUOUS
  0
LAYER
  2
41
 70
     0
 62
     7
  6
CONTINUOUS
  0
LAYER
  2
42
 70
     0
 62
     7
  6
CONTINUOUS
  0
LAYER
  2
43
 70
     0
 62
     7
  6
CONTINUOUS
  0
LAYER
  2
44
 70
     0
 62
     7
  6
CONTINUOUS
  0
LAYER
  2
45
 70
     0
 62
     7
  6
CONTINUOUS
  0
LAYER
  2
46
 70
     0
 62
     7
  6
CONTINUOUS
  0
LAYER
  2
47
 70
     0
 62
     7
  6
CONTINUOUS
  0
LAYER
  2
48
 70
     0
 62
     7
  6
CONTINUOUS
  0
LAYER
  2
49
 70
     0
 62
     7
  6
CONTINUOUS
  0
LAYER
  2
50
 70
     0
 62
     7
  6
CONTINUOUS
  0
LAYER
  2
51
 70
     0
 62
     7
  6
CONTINUOUS
  0
LAYER
  2
52
 70
     0
 62
     7
  6
CONTINUOUS
  0
LAYER
  2
53
 70
     0
 62
     7
  6
CONTINUOUS
  0
LAYER
  2
54
 70
     0
 62
     7
  6
CONTINUOUS
  0
LAYER
  2
55
 70
     0
 62
     7
  6
CONTINUOUS
  0
LAYER
  2
56
 70
     0
 62
     7
  6
CONTINUOUS
  0
LAYER
  2
57
 70
     0
 62
     7
  6
CONTINUOUS
  0
LAYER
  2
58
 70
     0
 62
     7
  6
CONTINUOUS
  0
LAYER
  2
59
 70
     0
 62
     7
  6
CONTINUOUS
  0
LAYER
  2
60
 70
     0
 62
     7
  6
CONTINUOUS
  0
LAYER
  2
61
 70
     0
 62
     7
  6
CONTINUOUS
  0
LAYER
  2
62
 70
     0
 62
     7
  6
CONTINUOUS
  0
LAYER
  2
63
 70
     0
 62
     7
  6
CONTINUOUS
  0
LAYER
  2
64
 70
     0
 62
     7
  6
CONTINUOUS
  0
LAYER
  2
65
 70
     0
 62
     7
  6
CONTINUOUS
  0
LAYER
  2
66
 70
     0
 62
     7
  6
CONTINUOUS
  0
LAYER
  2
67
 70
     0
 62
     7
  6
CONTINUOUS
  0
LAYER
  2
68
 70
     0
 62
     7
  6
CONTINUOUS
  0
LAYER
  2
69
 70
     0
 62
     7
  6
CONTINUOUS
  0
LAYER
  2
70
 70
     0
 62
     7
  6
CONTINUOUS
  0
LAYER
  2
71
 70
     0
 62
     7
  6
CONTINUOUS
  0
LAYER
  2
72
 70
     0
 62
     7
  6
CONTINUOUS
  0
LAYER
  2
73
 70
     0
 62
     7
  6
CONTINUOUS
  0
LAYER
  2
74
 70
     0
 62
     7
  6
CONTINUOUS
  0
LAYER
  2
75
 70
     0
 62
     7
  6
CONTINUOUS
  0
LAYER
  2
76
 70
     0
 62
     7
  6
CONTINUOUS
  0
LAYER
  2
77
 70
     0
 62
     7
  6
CONTINUOUS
  0
LAYER
  2
78
 70
     0
 62
     7
  6
CONTINUOUS
  0
LAYER
  2
79
 70
     0
 62
     7
  6
CONTINUOUS
  0
LAYER
  2
80
 70
     0
 62
     7
  6
CONTINUOUS
  0
LAYER
  2
81
 70
     0
 62
     7
  6
CONTINUOUS
  0
LAYER
  2
82
 70
     0
 62
     7
  6
CONTINUOUS
  0
LAYER
  2
83
 70
     0
 62
     7
  6
CONTINUOUS
  0
LAYER
  2
84
 70
     0
 62
     7
  6
CONTINUOUS
  0
LAYER
  2
85
 70
     0
 62
     7
  6
CONTINUOUS
  0
LAYER
  2
86
 70
     0
 62
     7
  6
CONTINUOUS
  0
LAYER
  2
87
 70
     0
 62
     7
  6
CONTINUOUS
  0
LAYER
  2
88
 70
     0
 62
     7
  6
CONTINUOUS
  0
LAYER
  2
89
 70
     0
 62
     7
  6
CONTINUOUS
  0
LAYER
  2
90
 70
     0
 62
     7
  6
CONTINUOUS
  0
LAYER
  2
91
 70
     0
 62
     7
  6
CONTINUOUS
  0
LAYER
  2
92
 70
     0
 62
     7
  6
CONTINUOUS
  0
LAYER
  2
93
 70
     0
 62
     7
  6
CONTINUOUS
  0
LAYER
  2
94
 70
     0
 62
     7
  6
CONTINUOUS
  0
LAYER
  2
95
 70
     0
 62
     7
  6
CONTINUOUS
  0
LAYER
  2
96
 70
     0
 62
     7
  6
CONTINUOUS
  0
LAYER
  2
97
 70
     0
 62
     7
  6
CONTINUOUS
  0
LAYER
  2
98
 70
     0
 62
     7
  6
CONTINUOUS
  0
LAYER
  2
99
 70
     0
 62
     7
  6
CONTINUOUS
  0
LAYER
  2
100
 70
     0
 62
     7
  6
CONTINUOUS
  0
LAYER
  2
101
 70
     0
 62
     7
  6
CONTINUOUS
  0
LAYER
  2
102
 70
     0
 62
     7
  6
CONTINUOUS
  0
LAYER
  2
103
 70
     0
 62
     7
  6
CONTINUOUS
  0
LAYER
  2
104
 70
     0
 62
     7
  6
CONTINUOUS
  0
LAYER
  2
105
 70
     0
 62
     7
  6
CONTINUOUS
  0
LAYER
  2
106
 70
     0
 62
     7
  6
CONTINUOUS
  0
LAYER
  2
107
 70
     0
 62
     7
  6
CONTINUOUS
  0
LAYER
  2
108
 70
     0
 62
     7
  6
CONTINUOUS
  0
LAYER
  2
109
 70
     0
 62
     7
  6
CONTINUOUS
  0
LAYER
  2
110
 70
     0
 62
     7
  6
CONTINUOUS
  0
LAYER
  2
111
 70
     0
 62
     7
  6
CONTINUOUS
  0
LAYER
  2
112
 70
     0
 62
     7
  6
CONTINUOUS
  0
LAYER
  2
113
 70
     0
 62
     7
  6
CONTINUOUS
  0
LAYER
  2
114
 70
     0
 62
     7
  6
CONTINUOUS
  0
LAYER
  2
115
 70
     0
 62
     7
  6
CONTINUOUS
  0
LAYER
  2
116
 70
     0
 62
     7
  6
CONTINUOUS
  0
LAYER
  2
117
 70
     0
 62
     7
  6
CONTINUOUS
  0
LAYER
  2
118
 70
     0
 62
     7
  6
CONTINUOUS
  0
LAYER
  2
119
 70
     0
 62
     7
  6
CONTINUOUS
  0
LAYER
  2
120
 70
     0
 62
     7
  6
CONTINUOUS
  0
LAYER
  2
121
 70
     0
 62
     7
  6
CONTINUOUS
  0
LAYER
  2
122
 70
     0
 62
     7
  6
CONTINUOUS
  0
LAYER
  2
123
 70
     0
 62
     7
  6
CONTINUOUS
  0
LAYER
  2
124
 70
     0
 62
     7
  6
CONTINUOUS
  0
LAYER
  2
125
 70
     0
 62
     7
  6
CONTINUOUS
  0
LAYER
  2
126
 70
     0
 62
     7
  6
CONTINUOUS
  0
LAYER
  2
127
 70
     0
 62
     7
  6
CONTINUOUS
  0
LAYER
  2
128
 70
     0
 62
     7
  6
CONTINUOUS
  0
ENDTAB
  0
TABLE
  2
STYLE
 70
    59
  0
STYLE
  2
STANDARD
 70
     0
 40
0.0
 41
1.0
 50
0.0
 71
     0
 42
0.2
  3
txt
  4

  0
STYLE
  2
KANJI0
 70
     0
 40
11.999997477
 41
0.6
 50
0.0
 71
     0
 42
11.999997477
  3

  4
bigfont
  0
STYLE
  2
KANJI1
 70
     0
 40
14.399996972
 41
0.9
 50
0.0
 71
     0
 42
14.399996972
  3

  4
bigfont
  0
STYLE
  2
KANJI2
 70
     0
 40
15.5999988
 41
0.9
 50
0.0
 71
     0
 42
15.5999988
  3

  4
bigfont
  0
STYLE
  2
KANJI3
 70
     0
 40
10.3999992
 41
0.75
 50
0.0
 71
     0
 42
10.3999992
  3

  4
bigfont
  0
STYLE
  2
KANJI4
 70
     0
 40
15.5999988
 41
0.75
 50
0.0
 71
     0
 42
15.5999988
  3

  4
bigfont
  0
STYLE
  2
KANJI5
 70
     0
 40
9.35999928
 41
0.75
 50
0.0
 71
     0
 42
9.35999928
  3

  4
bigfont
  0
STYLE
  2
KANJI6
 70
     0
 40
10.3999992
 41
0.6
 50
0.0
 71
     0
 42
10.3999992
  3

  4
bigfont
  0
STYLE
  2
KANJI7
 70
     0
 40
12.47999904
 41
0.6
 50
0.0
 71
     0
 42
12.47999904
  3

  4
bigfont
  0
STYLE
  2
KANJI8
 70
     0
 40
10.3999992
 41
0.8
 50
0.0
 71
     0
 42
10.3999992
  3

  4
bigfont
  0
STYLE
  2
KANJI9
 70
     0
 40
12.47999904
 41
0.8
 50
0.0
 71
     0
 42
12.47999904
  3

  4
bigfont
  0
STYLE
  2
KANJI10
 70
     0
 40
51.999996
 41
0.9
 50
0.0
 71
     0
 42
51.999996
  3

  4
bigfont
  0
STYLE
  2
KANJI11
 70
     0
 40
18.1999986
 41
0.42031746
 50
0.0
 71
     0
 42
18.1999986
  3

  4
bigfont
  0
STYLE
  2
KANJI12
 70
     0
 40
31.1999976
 41
0.9
 50
0.0
 71
     0
 42
31.1999976
  3

  4
bigfont
  0
STYLE
  2
KANJI13
 70
     0
 40
27.0
 41
0.888888889
 50
0.0
 71
     0
 42
27.0
  3

  4
bigfont
  0
STYLE
  2
KANJI14
 70
     0
 40
27.0
 41
1.0
 50
0.0
 71
     0
 42
27.0
  3

  4
bigfont
  0
STYLE
  2
KANJI15
 70
     0
 40
15.5999988
 41
0.75
 50
0.0
 71
     0
 42
15.5999988
  3

  4
bigfont
  0
STYLE
  2
KANJI16
 70
     0
 40
18.0
 41
0.9
 50
0.0
 71
     0
 42
18.0
  3

  4
bigfont
  0
STYLE
  2
KANJI17
 70
     0
 40
21.0
 41
0.857142857
 50
0.0
 71
     0
 42
21.0
  3

  4
bigfont
  0
STYLE
  2
KANJI18
 70
     0
 40
24.0
 41
1.0
 50
0.0
 71
     0
 42
24.0
  3

  4
bigfont
  0
STYLE
  2
KANJI19
 70
     0
 40
27.0
 41
0.9
 50
0.0
 71
     0
 42
27.0
  3

  4
bigfont
  0
STYLE
  2
KANJI20
 70
     0
 40
22.8
 41
0.9
 50
0.0
 71
     0
 42
22.8
  3

  4
bigfont
  0
STYLE
  2
KANJI21
 70
     0
 40
22.8
 41
0.9
 50
0.0
 71
     0
 42
22.8
  3

  4
bigfont
  0
STYLE
  2
KANJI22
 70
     0
 40
22.8
 41
0.9
 50
0.0
 71
     0
 42
22.8
  3

  4
bigfont
  0
STYLE
  2
KANJI23
 70
     0
 40
16.8
 41
0.8
 50
0.0
 71
     0
 42
16.8
  3

  4
bigfont
  0
STYLE
  2
KANJI24
 70
     0
 40
22.8
 41
0.9
 50
0.0
 71
     0
 42
22.8
  3

  4
bigfont
  0
STYLE
  2
KANJI25
 70
     0
 40
22.8
 41
0.9
 50
0.0
 71
     0
 42
22.8
  3

  4
bigfont
  0
STYLE
  2
KANJI26
 70
     0
 40
22.8
 41
0.9
 50
0.0
 71
     0
 42
22.8
  3

  4
bigfont
  0
STYLE
  2
KANJI27
 70
     0
 40
22.8
 41
0.9
 50
0.0
 71
     0
 42
22.8
  3

  4
bigfont
  0
STYLE
  2
KANJI28
 70
     0
 40
22.8
 41
0.9
 50
0.0
 71
     0
 42
22.8
  3

  4
bigfont
  0
STYLE
  2
KANJI29
 70
     0
 40
22.8
 41
0.9
 50
0.0
 71
     0
 42
22.8
  3

  4
bigfont
  0
STYLE
  2
KANJI30
 70
     0
 40
18.0
 41
0.9
 50
0.0
 71
     0
 42
18.0
  3

  4
bigfont
  0
STYLE
  2
KANJI31
 70
     0
 40
18.0
 41
0.9
 50
0.0
 71
     0
 42
18.0
  3

  4
bigfont
  0
STYLE
  2
KANJI32
 70
     0
 40
21.0
 41
0.9
 50
0.0
 71
     0
 42
21.0
  3

  4
bigfont
  0
STYLE
  2
KANJI33
 70
     0
 40
18.0
 41
0.666666667
 50
0.0
 71
     0
 42
18.0
  3

  4
bigfont
  0
STYLE
  2
KANJI34
 70
     0
 40
18.0
 41
0.9
 50
0.0
 71
     0
 42
18.0
  3

  4
bigfont
  0
STYLE
  2
KANJI35
 70
     0
 40
16.8
 41
0.607142857
 50
0.0
 71
     0
 42
16.8
  3

  4
bigfont
  0
STYLE
  2
KANJI36
 70
     0
 40
21.6
 41
0.857142857
 50
0.0
 71
     0
 42
21.6
  3

  4
bigfont
  0
STYLE
  2
KANJI37
 70
     0
 40
21.6
 41
0.857222222
 50
0.0
 71
     0
 42
21.6
  3

  4
bigfont
  0
STYLE
  2
KANJI38
 70
     0
 40
19.2
 41
0.875
 50
0.0
 71
     0
 42
19.2
  3

  4
bigfont
  0
STYLE
  2
KANJI39
 70
     0
 40
24.0
 41
0.9
 50
0.0
 71
     0
 42
24.0
  3

  4
bigfont
  0
STYLE
  2
KANJI40
 70
     0
 40
14.4
 41
0.9
 50
0.0
 71
     0
 42
14.4
  3

  4
bigfont
  0
STYLE
  2
KANJI41
 70
     0
 40
8.64
 41
0.9
 50
0.0
 71
     0
 42
8.64
  3

  4
bigfont
  0
STYLE
  2
KANJI42
 70
     0
 40
24.0
 41
0.9
 50
0.0
 71
     0
 42
24.0
  3

  4
bigfont
  0
STYLE
  2
KANJI43
 70
     0
 40
15.0
 41
0.9
 50
0.0
 71
     0
 42
15.0
  3

  4
bigfont
  0
STYLE
  2
KANJI44
 70
     0
 40
21.0
 41
0.914285714
 50
0.0
 71
     0
 42
21.0
  3

  4
bigfont
  0
STYLE
  2
KANJI45
 70
     0
 40
18.0
 41
0.9
 50
0.0
 71
     0
 42
18.0
  3

  4
bigfont
  0
STYLE
  2
KANJI46
 70
     0
 40
14.4
 41
0.777777778
 50
0.0
 71
     0
 42
14.4
  3

  4
bigfont
  0
STYLE
  2
KANJI47
 70
     0
 40
19.2
 41
0.9
 50
0.0
 71
     0
 42
19.2
  3

  4
bigfont
  0
STYLE
  2
KANJI48
 70
     0
 40
21.0
 41
0.9
 50
0.0
 71
     0
 42
21.0
  3

  4
bigfont
  0
STYLE
  2
KANJI49
 70
     0
 40
16.8
 41
0.9
 50
0.0
 71
     0
 42
16.8
  3

  4
bigfont
  0
STYLE
  2
KANJI50
 70
     0
 40
16.8
 41
0.785714286
 50
0.0
 71
     0
 42
16.8
  3

  4
bigfont
  0
STYLE
  2
KANJI51
 70
     0
 40
24.0
 41
0.875
 50
0.0
 71
     0
 42
24.0
  3

  4
bigfont
  0
STYLE
  2
KANJI52
 70
     0
 40
24.0
 41
0.675
 50
0.0
 71
     0
 42
24.0
  3

  4
bigfont
  0
STYLE
  2
KANJI53
 70
     0
 40
30.0
 41
0.8
 50
0.0
 71
     0
 42
30.0
  3

  4
bigfont
  0
STYLE
  2
KANJI54
 70
     0
 40
21.0
 41
0.571428571
 50
0.0
 71
     0
 42
21.0
  3

  4
bigfont
  0
STYLE
  2
KANJI55
 70
     0
 40
27.0
 41
0.666666667
 50
0.0
 71
     0
 42
27.0
  3

  4
bigfont
  0
STYLE
  2
KANJI56
 70
     0
 40
24.0
 41
0.875
 50
0.0
 71
     0
 42
24.0
  3

  4
bigfont
  0
STYLE
  2
KANJI57
 70
     0
 40
18.0
 41
0.833333333
 50
0.0
 71
     0
 42
18.0
  3

  4
bigfont
  0
ENDTAB
  0
TABLE
  2
VIEW
 70
     0
  0
ENDTAB
  0
ENDSEC
  0
SECTION
  2
BLOCKS
  0
ENDSEC
  0
SECTION
  2
ENTITIES
  0
LINE
  8
0
  6
CONTINUOUS
 62
     4
 10
2423.0
 20
-61.0
 11
1829.0
 21
-61.0
  0
LINE
  8
0
  6
CONTINUOUS
 62
     4
 10
2423.0
 20
-121.0
 11
1829.0
 21
-121.0
  0
TEXT
  8
0
  6
CONTINUOUS
 62
     4
 10
118.999996215
 20
82.999993692
 30
1.199999748
 40
11.999997477
  1
ＰＡＲＴＳ　ＬＩＳＴ
 50
0.0
 41
0.6
 51
0.0
  7
KANJI0
  0
TEXT
  8
0
  6
CONTINUOUS
 62
     4
 10
388.999939446
 20
82.999993692
 30
1.199999748
 40
11.999997477
  1
Ｎ０．
 50
0.0
 41
0.6
 51
0.0
  7
KANJI0
  0
TEXT
  8
0
  6
CONTINUOUS
 62
     4
 10
118.999996215
 20
64.999997477
 30
1.439999697
 40
14.399996972
  1
部品表
 50
0.0
 41
0.9
 51
0.0
  7
KANJI1
  0
TEXT
  8
0
  6
CONTINUOUS
 62
     4
 10
388.999939446
 20
64.999997477
 30
1.439999697
 40
14.399996972
  1
項番
 50
0.0
 41
0.9
 51
0.0
  7
KANJI1
  0
TEXT
  8
0
  6
CONTINUOUS
 62
     4
 10
1765.2000506
 20
1672.1999996
 30
1.55999988
 40
15.5999988
  1
ＩＳＯ
 50
0.0
 41
0.9
 51
0.0
  7
KANJI2
  0
TEXT
  8
0
  6
CONTINUOUS
 62
     4
 10
1812.000047
 20
1672.1999996
 30
1.03999992
 40
10.3999992
  1
ＭＥＴＲＩＣ　ＳＣＲＥＷ　ＴＨＲＥＡＤ
 50
0.0
 41
0.75
 51
0.0
  7
KANJI3
  0
TEXT
  8
0
  6
CONTINUOUS
 62
     4
 10
1988.54003342
 20
1672.1999996
 30
1.03999992
 40
10.3999992
  1
ＩＳＯ
 50
0.0
 41
0.75
 51
0.0
  7
KANJI3
  0
TEXT
  8
0
  6
CONTINUOUS
 62
     4
 10
2136.74002202
 20
1672.1999996
 30
1.55999988
 40
15.5999988
  1
３
 50
0.0
 41
0.75
 51
0.0
  7
KANJI4
  0
TEXT
  8
0
  6
CONTINUOUS
 62
     4
 10
2149.74002102
 20
1672.1999996
 30
1.03999992
 40
10.3999992
  1
ＲＤ　ＡＮＧＬＥ　ＰＲＯＪＥＣＴＩＯＮ　第３角法
 50
0.0
 41
0.75
 51
0.0
  7
KANJI3
  0
TEXT
  8
0
  6
CONTINUOUS
 62
     4
 10
2017.14003122
 20
1672.1999996
 30
0.935999928
 40
9.35999928
  1
メートルネジ使用
 50
0.0
 41
0.75
 51
0.0
  7
KANJI5
  0
TEXT
  8
0
  6
CONTINUOUS
 62
     4
 10
1627.4000612
 20
164.7999914
 30
1.03999992
 40
10.3999992
  1
ＤＲＡＷＮ
 50
0.0
 41
0.6
 51
0.0
  7
KANJI6
  0
TEXT
  8
0
  6
CONTINUOUS
 62
     4
 10
1627.4000612
 20
206.3999882
 30
1.03999992
 40
10.3999992
  1
ＤＥＳＩＧＮ
 50
0.0
 41
0.6
 51
0.0
  7
KANJI6
  0
TEXT
  8
0
  6
CONTINUOUS
 62
     4
 10
1627.4000612
 20
247.999985
 30
1.03999992
 40
10.3999992
  1
ＣＨＥＣＫ
 50
0.0
 41
0.6
 51
0.0
  7
KANJI6
  0
TEXT
  8
0
  6
CONTINUOUS
 62
     4
 10
1627.4000612
 20
289.5999818
 30
1.03999992
 40
10.3999992
  1
ＣＯＤＥ
 50
0.0
 41
0.6
 51
0.0
  7
KANJI6
  0
LINE
  8
0
  6
CONTINUOUS
 62
     4
 10
1617.000062
 20
224.5999868
 11
1806.8000474
 21
224.5999868
  0
LINE
  8
0
  6
CONTINUOUS
 62
     4
 10
1617.000062
 20
182.99999
 11
1806.8000474
 21
182.99999
  0
LINE
  8
0
  6
CONTINUOUS
 62
     4
 10
1617.000062
 20
266.1999836
 11
1806.8000474
 21
266.1999836
  0
LINE
  8
0
  6
CONTINUOUS
 62
     4
 10
1617.000062
 20
307.7999804
 11
2417.8000004
 21
307.7999804
  0
TEXT
  8
0
  6
CONTINUOUS
 62
     4
 10
1627.4000612
 20
190.7999894
 30
1.247999904
 40
12.47999904
  1
設計
 50
0.0
 41
0.6
 51
0.0
  7
KANJI7
  0
TEXT
  8
0
  6
CONTINUOUS
 62
     4
 10
1627.4000612
 20
232.3999862
 30
1.247999904
 40
12.47999904
  1
検図
 50
0.0
 41
0.6
 51
0.0
  7
KANJI7
  0
TEXT
  8
0
  6
CONTINUOUS
 62
     4
 10
1627.4000612
 20
273.999983
 30
1.247999904
 40
12.47999904
  1
分類
 50
0.0
 41
0.6
 51
0.0
  7
KANJI7
  0
LINE
  8
0
  6
CONTINUOUS
 62
     4
 10
1822.14004622
 20
266.1999836
 11
2417.8000004
 21
266.1999836
  0
LINE
  8
0
  6
CONTINUOUS
 62
     4
 10
1806.8000474
 20
182.99999
 11
2417.8000004
 21
182.99999
  0
TEXT
  8
0
  6
CONTINUOUS
 62
     4
 10
1817.2000466
 20
164.7999914
 30
1.03999992
 40
10.3999992
  1
ＤＲＡＷＩＮＧ　ＮＯ．
 50
0.0
 41
0.8
 51
0.0
  7
KANJI8
  0
TEXT
  8
0
  6
CONTINUOUS
 62
     4
 10
1817.2000466
 20
206.3999882
 30
1.03999992
 40
10.3999992
  1
ＭＦＧ　ＮＯ．
 50
0.0
 41
0.8
 51
0.0
  7
KANJI8
  0
TEXT
  8
0
  6
CONTINUOUS
 62
     4
 10
1817.2000466
 20
247.999985
 30
1.03999992
 40
10.3999992
  1
ＴＹＰＥ
 50
0.0
 41
0.8
 51
0.0
  7
KANJI8
  0
LINE
  8
0
  6
CONTINUOUS
 62
     4
 10
1822.4000462
 20
224.5999868
 11
2061.6000278
 21
224.5999868
  0
TEXT
  8
0
  6
CONTINUOUS
 62
     4
 10
1817.2000466
 20
146.5999928
 30
1.247999904
 40
12.47999904
  1
図　面　番　号
 50
0.0
 41
0.8
 51
0.0
  7
KANJI9
  0
TEXT
  8
0
  6
CONTINUOUS
 62
     4
 10
1817.2000466
 20
188.1999896
 30
1.247999904
 40
12.47999904
  1
製番
 50
0.0
 41
0.8
 51
0.0
  7
KANJI9
  0
TEXT
  8
0
  6
CONTINUOUS
 62
     4
 10
1817.2000466
 20
229.7999864
 30
1.247999904
 40
12.47999904
  1
機種
 50
0.0
 41
0.8
 51
0.0
  7
KANJI9
  0
LINE
  8
0
  6
CONTINUOUS
 62
     4
 10
1617.000062
 20
99.7999964
 11
1806.8000474
 21
99.7999964
  0
LINE
  8
0
  6
CONTINUOUS
 62
     4
 10
1617.000062
 20
141.3999932
 11
1806.8000474
 21
141.3999932
  0
TEXT
  8
0
  6
CONTINUOUS
 62
     4
 10
1627.4000612
 20
81.5999978
 30
1.03999992
 40
10.3999992
  1
ＳＣＡＬＥ
 50
0.0
 41
0.6
 51
0.0
  7
KANJI6
  0
TEXT
  8
0
  6
CONTINUOUS
 62
     4
 10
1627.4000612
 20
123.1999946
 30
1.03999992
 40
10.3999992
  1
ＤＡＴＥ
 50
0.0
 41
0.6
 51
0.0
  7
KANJI6
  0
TEXT
  8
0
  6
CONTINUOUS
 62
     4
 10
1627.4000612
 20
65.999999
 30
1.247999904
 40
12.47999904
  1
尺度
 50
0.0
 41
0.6
 51
0.0
  7
KANJI7
  0
TEXT
  8
0
  6
CONTINUOUS
 62
     4
 10
1627.4000612
 20
107.5999958
 30
1.247999904
 40
12.47999904
  1
日付
 50
0.0
 41
0.6
 51
0.0
  7
KANJI7
  0
TEXT
  8
0
  6
CONTINUOUS
 62
     4
 10
1627.4000612
 20
149.1999926
 30
1.247999904
 40
12.47999904
  1
作図
 50
0.0
 41
0.6
 51
0.0
  7
KANJI7
  0
LINE
  8
0
  6
CONTINUOUS
 62
     4
 10
1323.2000846
 20
58.1999996
 11
1323.2000846
 21
99.7999964
  0
LINE
  8
0
  6
CONTINUOUS
 62
     4
 10
1370.000081
 20
58.1999996
 11
1370.000081
 21
99.7999964
  0
TEXT
  8
0
  6
CONTINUOUS
 62
     4
 10
1338.8000834
 20
81.5999978
 30
1.03999992
 40
10.3999992
  1
ＢＹ
 50
0.0
 41
0.6
 51
0.0
  7
KANJI6
  0
TEXT
  8
0
  6
CONTINUOUS
 62
     4
 10
1453.2000746
 20
81.5999978
 30
1.03999992
 40
10.3999992
  1
ＤＥＳＣＲＩＰＴＩＯＮ
 50
0.0
 41
0.6
 51
0.0
  7
KANJI6
  0
TEXT
  8
0
  6
CONTINUOUS
 62
     4
 10
1338.8000834
 20
65.999999
 30
1.247999904
 40
12.47999904
  1
担当
 50
0.0
 41
0.6
 51
0.0
  7
KANJI7
  0
TEXT
  8
0
  6
CONTINUOUS
 62
     4
 10
1468.8000734
 20
65.999999
 30
1.247999904
 40
12.47999904
  1
記　　　　事
 50
0.0
 41
0.6
 51
0.0
  7
KANJI7
  0
LINE
  8
0
  6
CONTINUOUS
 62
     4
 10
1228.3000919
 20
91.999997
 11
1211.4000932
 21
65.999999
  0
TEXT
  8
0
  6
CONTINUOUS
 62
     4
 10
1271.2000886
 20
81.5999978
 30
1.03999992
 40
10.3999992
  1
ＤＡＴＥ
 50
0.0
 41
0.6
 51
0.0
  7
KANJI6
  0
TEXT
  8
0
  6
CONTINUOUS
 62
     4
 10
1279.000088
 20
65.999999
 30
1.247999904
 40
12.47999904
  1
日付
 50
0.0
 41
0.6
 51
0.0
  7
KANJI7
  0
LINE
  8
0
  6
CONTINUOUS
 62
     4
 10
1211.4000932
 20
65.999999
 11
1245.2000906
 21
65.999999
  0
LINE
  8
0
  6
CONTINUOUS
 62
     4
 10
1250.4000902
 20
58.1999996
 11
1250.4000902
 21
99.7999964
  0
LINE
  8
0
  6
CONTINUOUS
 62
     4
 10
1228.3000919
 20
91.999997
 11
1245.2000906
 21
65.999999
  0
LINE
  8
0
  6
CONTINUOUS
 62
     4
 10
1806.8000474
 20
123.1999946
 11
2417.8000004
 21
123.1999946
  0
LINE
  8
0
  6
LTYPE1
 62
     4
 10
2243.6000138
 20
130.999994
 11
2243.6000138
 21
172.5999908
  0
LINE
  8
0
  6
LTYPE1
 62
     4
 10
2207.2000166
 20
130.999994
 11
2207.2000166
 21
172.5999908
  0
LINE
  8
0
  6
LTYPE1
 62
     4
 10
2170.8000194
 20
130.999994
 11
2170.8000194
 21
172.5999908
  0
LINE
  8
0
  6
LTYPE1
 62
     4
 10
2134.4000222
 20
130.999994
 11
2134.4000222
 21
172.5999908
  0
LINE
  8
0
  6
LTYPE1
 62
     4
 10
2098.000025
 20
130.999994
 11
2098.000025
 21
172.5999908
  0
LINE
  8
0
  6
LTYPE1
 62
     4
 10
2061.6000278
 20
130.999994
 11
2061.6000278
 21
172.5999908
  0
LINE
  8
0
  6
LTYPE1
 62
     4
 10
2025.2000306
 20
130.999994
 11
2025.2000306
 21
172.5999908
  0
LINE
  8
0
  6
LTYPE1
 62
     4
 10
1988.8000334
 20
130.999994
 11
1988.8000334
 21
172.5999908
  0
LINE
  8
0
  6
LTYPE1
 62
     4
 10
1988.8000334
 20
172.5999908
 11
2243.6000138
 21
172.5999908
  0
LINE
  8
0
  6
LTYPE1
 62
     4
 10
1988.8000334
 20
130.999994
 11
2243.6000138
 21
130.999994
  0
LINE
  8
0
  6
CONTINUOUS
 62
     4
 10
2264.4000122
 20
153.0999923
 11
2274.8000114
 21
153.0999923
  0
LINE
  8
0
  6
CONTINUOUS
 62
     4
 10
2329.4000072
 20
137.4999935
 11
2293.00001
 21
137.4999935
  0
LINE
  8
0
  6
CONTINUOUS
 62
     4
 10
2293.00001
 20
137.4999935
 11
2311.2000086
 21
168.6999911
  0
LINE
  8
0
  6
CONTINUOUS
 62
     4
 10
2311.2000086
 20
168.6999911
 11
2329.4000072
 21
137.4999935
  0
TEXT
  8
0
  6
CONTINUOUS
 62
     4
 10
2334.6000068
 20
1.000004
 30
5.1999996
 40
51.999996
  1
／
 50
0.0
 41
0.9
 51
0.0
  7
KANJI10
  0
TEXT
  8
0
  6
CONTINUOUS
 62
     4
 10
2077.2000266
 20
247.999985
 30
1.03999992
 40
10.3999992
  1
ＴＩＴＬＥ
 50
0.0
 41
0.8
 51
0.0
  7
KANJI8
  0
TEXT
  8
0
  6
CONTINUOUS
 62
     4
 10
2077.2000266
 20
229.7999864
 30
1.247999904
 40
12.47999904
  1
名称
 50
0.0
 41
0.8
 51
0.0
  7
KANJI9
  0
LINE
  8
0
  6
CONTINUOUS
 62
     6
 10
101.0
 20
53.0
 11
101.0
 21
1667.0
  0
LINE
  8
0
  6
CONTINUOUS
 62
     6
 10
101.0
 20
1667.0
 11
2423.0
 21
1667.0
  0
LINE
  8
0
  6
CONTINUOUS
 62
     6
 10
2423.0
 20
1667.0
 11
2423.0
 21
53.0
  0
LINE
  8
0
  6
CONTINUOUS
 62
     6
 10
2423.0
 20
53.0
 11
101.0
 21
53.0
  0
LINE
  8
0
  6
CONTINUOUS
 62
     6
 10
106.999998738
 20
58.999998738
 11
496.999916738
 21
58.999998738
  0
LINE
  8
0
  6
CONTINUOUS
 62
     6
 10
106.999998738
 20
100.999989908
 11
496.999916738
 21
100.999989908
  0
LINE
  8
0
  6
CONTINUOUS
 62
     6
 10
1206.2000936
 20
58.1999996
 11
1206.2000936
 21
99.7999964
  0
LINE
  8
0
  6
CONTINUOUS
 62
     6
 10
1206.2000936
 20
99.7999964
 11
1617.000062
 21
99.7999964
  0
LINE
  8
0
  6
CONTINUOUS
 62
     6
 10
1206.2000936
 20
58.1999996
 11
2417.8000004
 21
58.1999996
  0
LINE
  8
0
  6
CONTINUOUS
 62
     6
 10
2025.655030565
 20
85.75999748
 11
2008.495031885
 21
85.75999748
  0
LINE
  8
0
  6
CONTINUOUS
 62
     6
 10
2025.655030565
 20
88.87999724
 11
2008.495031885
 21
88.87999724
  0
LINE
  8
0
  6
CONTINUOUS
 62
     6
 10
2025.655030565
 20
85.75999748
 11
2042.815029245
 21
85.75999748
  0
LINE
  8
0
  6
CONTINUOUS
 62
     6
 10
2025.655030565
 20
88.87999724
 11
2042.815029245
 21
88.87999724
  0
LINE
  8
0
  6
CONTINUOUS
 62
     6
 10
2042.815029245
 20
88.87999724
 11
2042.815029245
 21
85.75999748
  0
ARC
  8
0
  6
CONTINUOUS
 62
     6
 10
2046.715028945
 20
87.31999736
 40
15.5999988
 50
185.739170477
 51
90.0
  0
ARC
  8
0
  6
CONTINUOUS
 62
     6
 10
2046.715028945
 20
87.31999736
 40
18.71999856
 50
184.780191847
 51
90.0
  0
LINE
  8
0
  6
CONTINUOUS
 62
     6
 10
2008.495031885
 20
85.75999748
 11
2008.495031885
 21
88.87999724
  0
TEXT
  8
0
  6
CONTINUOUS
 62
     6
 10
1812.000047
 20
81.5999978
 30
0.0
 40
18.1999986
  1
ＵＮＩＴＥＣ　ＩＮＤＵＳＴＲＹ　ＣＯ．，ＬＴＤ．
 50
0.0
 41
0.42031746
 51
0.0
  7
KANJI11
  0
LINE
  8
0
  6
CONTINUOUS
 62
     6
 10
2023.315030745
 20
106.03999592
 11
2004.595032185
 21
106.03999592
  0
LINE
  8
0
  6
CONTINUOUS
 62
     6
 10
2027.995030385
 20
106.03999592
 11
2046.715028945
 21
106.03999592
  0
ARC
  8
0
  6
CONTINUOUS
 62
     6
 10
2004.595032185
 20
87.31999736
 40
15.5999988
 50
90.0
 51
354.260829523
  0
ARC
  8
0
  6
CONTINUOUS
 62
     6
 10
2004.595032185
 20
87.31999736
 40
18.71999856
 50
90.0
 51
355.219808153
  0
LINE
  8
0
  6
CONTINUOUS
 62
     6
 10
2023.315030745
 20
106.03999592
 11
2023.315030745
 21
102.91999616
  0
LINE
  8
0
  6
CONTINUOUS
 62
     6
 10
2004.595032185
 20
102.91999616
 11
2023.315030745
 21
102.91999616
  0
LINE
  8
0
  6
CONTINUOUS
 62
     6
 10
2027.995030385
 20
106.03999592
 11
2027.995030385
 21
102.91999616
  0
LINE
  8
0
  6
CONTINUOUS
 62
     6
 10
2046.715028945
 20
102.91999616
 11
2027.995030385
 21
102.91999616
  0
TEXT
  8
0
  6
CONTINUOUS
 62
     6
 10
2067.255027365
 20
74.83999832
 30
3.11999976
 40
31.1999976
  1
ユニテック工業株式会社
 50
0.0
 41
0.9
 51
0.0
  7
KANJI12
  0
LINE
  8
0
  6
CONTINUOUS
 62
     1
 10
1898.0
 20
1584.073335986
 11
2423.0
 21
1584.073335986
  0
LINE
  8
0
  6
CONTINUOUS
 62
     1
 10
1898.0
 20
852.073335986
 11
2423.0
 21
852.073335986
  0
LINE
  8
0
  6
CONTINUOUS
 62
     1
 10
1898.0
 20
1584.073335986
 11
1898.0
 21
852.073335986
  0
LINE
  8
0
  6
CONTINUOUS
 62
     2
 10
1898.0
 20
936.073335986
 11
2423.0
 21
936.073335986
  0
LINE
  8
0
  6
CONTINUOUS
 62
     2
 10
1898.0
 20
1272.073335986
 11
2423.0
 21
1272.073335986
  0
LINE
  8
0
  6
CONTINUOUS
 62
     2
 10
1898.0
 20
1230.073335986
 11
2423.0
 21
1230.073335986
  0
LINE
  8
0
  6
CONTINUOUS
 62
     2
 10
1898.0
 20
1188.073335986
 11
2423.0
 21
1188.073335986
  0
LINE
  8
0
  6
CONTINUOUS
 62
     2
 10
1898.0
 20
1482.073335986
 11
2423.0
 21
1482.073335986
  0
LINE
  8
0
  6
CONTINUOUS
 62
     2
 10
1898.0
 20
1440.073335986
 11
2423.0
 21
1440.073335986
  0
LINE
  8
0
  6
CONTINUOUS
 62
     2
 10
1898.0
 20
1398.073335986
 11
2423.0
 21
1398.073335986
  0
LINE
  8
0
  6
CONTINUOUS
 62
     2
 10
1898.0
 20
1356.073335986
 11
2423.0
 21
1356.073335986
  0
LINE
  8
0
  6
CONTINUOUS
 62
     2
 10
1898.0
 20
1314.073335986
 11
2423.0
 21
1314.073335986
  0
LINE
  8
0
  6
CONTINUOUS
 62
     2
 10
1898.0
 20
1524.073335986
 11
2423.0
 21
1524.073335986
  0
LINE
  8
0
  6
CONTINUOUS
 62
     2
 10
1898.0
 20
1146.073335986
 11
2423.0
 21
1146.073335986
  0
LINE
  8
0
  6
CONTINUOUS
 62
     2
 10
1898.0
 20
1104.073335986
 11
2423.0
 21
1104.073335986
  0
LINE
  8
0
  6
CONTINUOUS
 62
     2
 10
1898.0
 20
1062.073335986
 11
2423.0
 21
1062.073335986
  0
LINE
  8
0
  6
CONTINUOUS
 62
     2
 10
1898.0
 20
1020.073335986
 11
2423.0
 21
1020.073335986
  0
LINE
  8
0
  6
CONTINUOUS
 62
     2
 10
1898.0
 20
978.073335986
 11
2423.0
 21
978.073335986
  0
LINE
  8
0
  6
CONTINUOUS
 62
     2
 10
1898.0
 20
894.073335986
 11
2423.0
 21
894.073335986
  0
LINE
  8
0
  6
CONTINUOUS
 62
     2
 10
2198.0
 20
1524.073335986
 11
2198.0
 21
852.073335986
  0
TEXT
  8
0
  6
CONTINUOUS
 62
     3
 10
2155.431625984
 20
230.073335986
 30
1.8
 40
27.0
  1
マイティシリンダ
 50
0.0
 41
0.888888889
 51
0.0
  7
KANJI13
  0
TEXT
  8
0
  6
CONTINUOUS
 62
     3
 10
2193.931625984
 20
191.573335986
 30
15.0
 40
27.0
  1
外形寸法図
 50
0.0
 41
1.0
 51
0.0
  7
KANJI14
  0
LINE
  8
0
  6
CONTINUOUS
 62
     6
 10
496.999916738
 20
58.999998738
 11
496.999916738
 21
100.999989908
  0
LINE
  8
0
  6
CONTINUOUS
 62
     6
 10
376.999941969
 20
58.999998738
 11
376.999941969
 21
100.999989908
  0
LINE
  8
0
  6
CONTINUOUS
 62
     6
 10
106.999998738
 20
58.999998738
 11
106.999998738
 21
100.999989908
  0
LINE
  8
0
  6
CONTINUOUS
 62
     4
 10
30.1999996
 20
58.1999996
 11
92.5999948
 21
58.1999996
  0
LINE
  8
0
  6
CONTINUOUS
 62
     4
 10
30.1999996
 20
89.3999972
 11
92.5999948
 21
89.3999972
  0
LINE
  8
0
  6
CONTINUOUS
 62
     4
 10
30.1999996
 20
120.5999948
 11
92.5999948
 21
120.5999948
  0
LINE
  8
0
  6
CONTINUOUS
 62
     4
 10
30.1999996
 20
151.7999924
 11
92.5999948
 21
151.7999924
  0
LINE
  8
0
  6
CONTINUOUS
 62
     4
 10
30.1999996
 20
182.99999
 11
92.5999948
 21
182.99999
  0
LINE
  8
0
  6
CONTINUOUS
 62
     4
 10
30.1999996
 20
214.1999876
 11
92.5999948
 21
214.1999876
  0
LINE
  8
0
  6
CONTINUOUS
 62
     4
 10
30.1999996
 20
245.3999852
 11
92.5999948
 21
245.3999852
  0
LINE
  8
0
  6
CONTINUOUS
 62
     4
 10
30.1999996
 20
276.5999828
 11
92.5999948
 21
276.5999828
  0
LINE
  8
0
  6
CONTINUOUS
 62
     4
 10
30.1999996
 20
307.7999804
 11
92.5999948
 21
307.7999804
  0
LINE
  8
0
  6
CONTINUOUS
 62
     4
 10
30.1999996
 20
338.999978
 11
92.5999948
 21
338.999978
  0
LINE
  8
0
  6
CONTINUOUS
 62
     4
 10
92.5999948
 20
58.1999996
 11
92.5999948
 21
338.999978
  0
LINE
  8
0
  6
CONTINUOUS
 62
     4
 10
61.3999972
 20
58.1999996
 11
61.3999972
 21
307.7999804
  0
TEXT
  8
0
  6
CONTINUOUS
 62
     4
 10
40.85999878
 20
67.2999989
 30
1.55999988
 40
15.5999988
  1
計
 50
0.0
 41
0.75
 51
0.0
  7
KANJI15
  0
TEXT
  8
0
  6
CONTINUOUS
 62
     4
 10
40.85999878
 20
130.21999406
 30
1.55999988
 40
15.5999988
  1
設
 50
0.0
 41
0.75
 51
0.0
  7
KANJI15
  0
TEXT
  8
0
  6
CONTINUOUS
 62
     4
 10
40.85999878
 20
160.8999917
 30
1.55999988
 40
15.5999988
  1
管
 50
0.0
 41
0.75
 51
0.0
  7
KANJI15
  0
TEXT
  8
0
  6
CONTINUOUS
 62
     4
 10
40.85999878
 20
192.0999893
 30
1.55999988
 40
15.5999988
  1
製
 50
0.0
 41
0.75
 51
0.0
  7
KANJI15
  0
TEXT
  8
0
  6
CONTINUOUS
 62
     4
 10
40.85999878
 20
223.2999869
 30
1.55999988
 40
15.5999988
  1
資
 50
0.0
 41
0.75
 51
0.0
  7
KANJI15
  0
TEXT
  8
0
  6
CONTINUOUS
 62
     4
 10
40.85999878
 20
254.4999845
 30
1.55999988
 40
15.5999988
  1
営
 50
0.0
 41
0.75
 51
0.0
  7
KANJI15
  0
TEXT
  8
0
  6
CONTINUOUS
 62
     4
 10
40.85999878
 20
285.6999821
 30
1.55999988
 40
15.5999988
  1
客
 50
0.0
 41
0.75
 51
0.0
  7
KANJI15
  0
TEXT
  8
0
  6
CONTINUOUS
 62
     4
 10
40.5999988
 20
318.1999796
 30
1.55999988
 40
15.5999988
  1
出　図
 50
0.0
 41
0.75
 51
0.0
  7
KANJI15
  0
LINE
  8
0
  6
CONTINUOUS
 62
     4
 10
30.1999996
 20
58.1999996
 11
30.1999996
 21
338.999978
  0
LINE
  8
0
  6
CONTINUOUS
 62
     6
 10
1617.000062
 20
58.1999996
 11
1617.000062
 21
390.999974
  0
LINE
  8
0
  6
CONTINUOUS
 62
     6
 10
1617.750062
 20
349.3999772
 11
2417.8000004
 21
349.3999772
  0
LINE
  8
0
  6
CONTINUOUS
 62
     6
 10
2417.8000004
 20
58.1999996
 11
2417.8000004
 21
390.999974
  0
LINE
  8
0
  6
CONTINUOUS
 62
     6
 10
1617.000062
 20
390.999974
 11
2417.8000004
 21
390.999974
  0
TEXT
  8
0
  6
CONTINUOUS
 62
     2
 10
232.5999948
 20
24.1999996
 30
0.0
 40
18.0
  1
ＦＤ　Ｎｏ．ＳＣ８
 50
0.0
 41
0.9
 51
0.0
  7
KANJI16
  0
TEXT
  8
0
  6
CONTINUOUS
 62
     3
 10
1684.0000334
 20
151.999994
 30
6.0
 40
21.0
  1
岡田
 50
0.0
 41
0.857142857
 51
0.0
  7
KANJI17
  0
LINE
  8
0
  6
CONTINUOUS
 62
     4
 10
1806.8000474
 20
58.1999996
 11
1806.8000474
 21
390.999974
  0
TEXT
  8
0
  6
CONTINUOUS
 62
     4
 10
1635.5
 20
314.0
 30
12.0
 40
24.0
  1
ご注文主
 50
0.0
 41
1.0
 51
0.0
  7
KANJI18
  0
TEXT
  8
0
  6
CONTINUOUS
 62
     4
 10
1635.5
 20
355.5999968
 30
12.0
 40
24.0
  1
ご用途
 50
0.0
 41
1.0
 51
0.0
  7
KANJI18
  0
TEXT
  8
0
  6
CONTINUOUS
 62
     3
 10
1973.0
 20
1540.273335986
 30
17.09964
 40
27.0
  1
マイティシリンダ仕様
 50
0.0
 41
0.9
 51
0.0
  7
KANJI19
  0
TEXT
  8
0
  6
CONTINUOUS
 62
     3
 10
1943.0
 20
1492.873335986
 30
180.445714286
 40
22.8
  1
形式
 50
0.0
 41
0.9
 51
0.0
  7
KANJI20
  0
TEXT
  8
0
  6
CONTINUOUS
 62
     3
 10
1943.0
 20
1450.873335986
 30
180.445714286
 40
22.8
  1
推力
 50
0.0
 41
0.9
 51
0.0
  7
KANJI20
  0
TEXT
  8
0
  6
CONTINUOUS
 62
     3
 10
1943.0
 20
1408.873335986
 30
29.721428571
 40
22.8
  1
ストローク
 50
0.0
 41
0.9
 51
0.0
  7
KANJI21
  0
TEXT
  8
0
  6
CONTINUOUS
 62
     3
 10
1943.0
 20
1366.873335986
 30
46.468354286
 40
22.8
  1
公称速度
 50
0.0
 41
0.9
 51
0.0
  7
KANJI22
  0
TEXT
  8
0
  6
CONTINUOUS
 62
     3
 10
2386.1
 20
1411.273335986
 30
0.1344
 40
16.8
  1
ｍｍ
 50
0.0
 41
0.8
 51
0.0
  7
KANJI23
  0
TEXT
  8
0
  6
CONTINUOUS
 62
     3
 10
2341.1
 20
1371.073335986
 30
0.1344
 40
16.8
  1
ｍｍ／ｓｅｃ
 50
0.0
 41
0.8
 51
0.0
  7
KANJI23
  0
TEXT
  8
0
  6
CONTINUOUS
 62
     3
 10
1925.0
 20
1156.873335986
 30
1.954285714
 40
22.8
  1
ピストンロッド回転トルク
 50
0.0
 41
0.9
 51
0.0
  7
KANJI24
  0
TEXT
  8
0
  6
CONTINUOUS
 62
     3
 10
1943.0
 20
1114.873335986
 30
180.445714286
 40
22.8
  1
構造
 50
0.0
 41
0.9
 51
0.0
  7
KANJI20
  0
TEXT
  8
0
  6
CONTINUOUS
 62
     3
 10
1943.0
 20
1324.873335986
 30
79.962857143
 40
22.8
  1
減速比
 50
0.0
 41
0.9
 51
0.0
  7
KANJI25
  0
TEXT
  8
0
  6
CONTINUOUS
 62
     3
 10
1943.0
 20
1282.873335986
 30
5.1
 40
22.8
  1
進み量／入力１回転
 50
0.0
 41
0.9
 51
0.0
  7
KANJI26
  0
TEXT
  8
0
  6
CONTINUOUS
 62
     3
 10
1943.0
 20
1240.273335986
 30
180.445714286
 40
22.8
  1
効率
 50
0.0
 41
0.9
 51
0.0
  7
KANJI20
  0
TEXT
  8
0
  6
CONTINUOUS
 62
     3
 10
1943.0
 20
1199.473335986
 30
8.7
 40
22.8
  1
使用時入力トルク
 50
0.0
 41
0.9
 51
0.0
  7
KANJI27
  0
TEXT
  8
0
  6
CONTINUOUS
 62
     3
 10
1943.0
 20
1072.873335986
 30
46.47
 40
22.8
  1
ギヤ方式
 50
0.0
 41
0.9
 51
0.0
  7
KANJI28
  0
TEXT
  8
0
  6
CONTINUOUS
 62
     3
 10
1943.0
 20
946.873335986
 30
79.962857143
 40
22.8
  1
塗装色
 50
0.0
 41
0.9
 51
0.0
  7
KANJI25
  0
TEXT
  8
0
  6
CONTINUOUS
 62
     3
 10
1943.0
 20
904.873335986
 30
79.962857143
 40
22.8
  1
付属品
 50
0.0
 41
0.9
 51
0.0
  7
KANJI25
  0
TEXT
  8
0
  6
CONTINUOUS
 62
     3
 10
1943.0
 20
862.873335986
 30
180.445714286
 40
22.8
  1
台数
 50
0.0
 41
0.9
 51
0.0
  7
KANJI20
  0
TEXT
  8
0
  6
CONTINUOUS
 62
     3
 10
1943.0
 20
988.873335986
 30
180.445714286
 40
22.8
  1
潤滑
 50
0.0
 41
0.9
 51
0.0
  7
KANJI20
  0
TEXT
  8
0
  6
CONTINUOUS
 62
     3
 10
1943.0
 20
1030.873335986
 30
13.0602
 40
22.8
  1
スクリュー方式
 50
0.0
 41
0.9
 51
0.0
  7
KANJI29
  0
TEXT
  8
0
  6
CONTINUOUS
 62
     3
 10
2282.6
 20
1325.473335986
 30
1.8
 40
18.0
  1
２　：　１
 50
0.0
 41
0.9
 51
0.0
  7
KANJI30
  0
TEXT
  8
0
  6
CONTINUOUS
 62
     3
 10
2304.2
 20
1242.073335986
 30
12.0
 40
18.0
  1
８５
 50
0.0
 41
0.9
 51
0.0
  7
KANJI31
  0
TEXT
  8
0
  6
CONTINUOUS
 62
     3
 10
2386.1
 20
1285.273335986
 30
0.1344
 40
16.8
  1
ｍｍ
 50
0.0
 41
0.8
 51
0.0
  7
KANJI23
  0
TEXT
  8
0
  6
CONTINUOUS
 62
     3
 10
2215.4
 20
1242.073335986
 30
12.0
 40
18.0
  1
約
 50
0.0
 41
0.9
 51
0.0
  7
KANJI31
  0
TEXT
  8
0
  6
CONTINUOUS
 62
     3
 10
2393.0
 20
1241.473335986
 30
12.0
 40
18.0
  1
％
 50
0.0
 41
0.9
 51
0.0
  7
KANJI31
  0
TEXT
  8
0
  6
CONTINUOUS
 62
     3
 10
2242.4
 20
1075.873335986
 30
12.0
 40
18.0
  1
ベベルギヤ
 50
0.0
 41
0.9
 51
0.0
  7
KANJI31
  0
TEXT
  8
0
  6
CONTINUOUS
 62
     3
 10
2242.4
 20
1032.673335986
 30
12.0
 40
18.0
  1
ボールネジ
 50
0.0
 41
0.9
 51
0.0
  7
KANJI31
  0
TEXT
  8
0
  6
CONTINUOUS
 62
     3
 10
2241.8
 20
990.673335986
 30
12.0
 40
18.0
  1
グリース方式
 50
0.0
 41
0.9
 51
0.0
  7
KANJI31
  0
TEXT
  8
0
  6
CONTINUOUS
 62
     3
 10
2241.8
 20
906.673335986
 30
1.8
 40
18.0
  1
入力キー
 50
0.0
 41
0.9
 51
0.0
  7
KANJI30
  0
TEXT
  8
0
  6
CONTINUOUS
 62
     3
 10
2242.4
 20
1115.473335986
 30
15.375
 40
21.0
  1
全閉屋外形
 50
0.0
 41
0.9
 51
0.0
  7
KANJI32
  0
TEXT
  8
0
  6
CONTINUOUS
 62
     3
 10
2208.05
 20
1366.723335986
 30
1.8
 40
18.0
  1
ＭＡＸ．１２０
 50
0.0
 41
0.9
 51
0.0
  7
KANJI30
  0
TEXT
  8
0
  6
CONTINUOUS
 62
     3
 10
2309.6
 20
1284.073335986
 30
12.0
 40
18.0
  1
６
 50
0.0
 41
0.9
 51
0.0
  7
KANJI31
  0
TEXT
  8
0
  6
CONTINUOUS
 62
     3
 10
2300.0
 20
1450.873335986
 30
1.8
 40
18.0
  1
（１００００Ｋｇ）
 50
0.0
 41
0.666666667
 51
0.0
  7
KANJI33
  0
TEXT
  8
0
  6
CONTINUOUS
 62
     3
 10
2215.0
 20
1450.873335986
 30
1.8
 40
18.0
  1
９８ＫＮ
 50
0.0
 41
0.9
 51
0.0
  7
KANJI34
  0
TEXT
  8
0
  6
CONTINUOUS
 62
     3
 10
2215.4
 20
1200.073335986
 30
1.8
 40
18.0
  1
約１０８Ｎ．ｍ
 50
0.0
 41
0.9
 51
0.0
  7
KANJI30
  0
TEXT
  8
0
  6
CONTINUOUS
 62
     3
 10
2345.852725984
 20
1202.573335986
 30
1.2
 40
16.8
  1
（１１ｋｇｍ）
 50
0.0
 41
0.607142857
 51
0.0
  7
KANJI35
  0
TEXT
  8
0
  6
CONTINUOUS
 62
     3
 10
2215.4
 20
1158.073335986
 30
1.8
 40
18.0
  1
約２０６Ｎ．ｍ
 50
0.0
 41
0.9
 51
0.0
  7
KANJI30
  0
TEXT
  8
0
  6
CONTINUOUS
 62
     3
 10
2345.852725984
 20
1160.573335986
 30
1.2
 40
16.8
  1
（２１ｋｇｍ）
 50
0.0
 41
0.607142857
 51
0.0
  7
KANJI35
  0
LINE
  8
0
  6
CONTINUOUS
 62
     1
 10
285.931625984
 20
929.073335986
 11
359.931625984
 21
929.073335986
  0
LINE
  8
0
  6
CONTINUOUS
 62
     1
 10
285.931625984
 20
949.073335986
 11
285.931625984
 21
929.073335986
  0
LINE
  8
0
  6
CONTINUOUS
 62
     1
 10
434.131625984
 20
929.073335986
 11
360.131625984
 21
929.073335986
  0
LINE
  8
0
  6
CONTINUOUS
 62
     1
 10
434.131625984
 20
949.073335986
 11
434.131625984
 21
929.073335986
  0
LINE
  8
0
  6
CONTINUOUS
 62
     1
 10
314.931625984
 20
1229.073335986
 11
314.931625984
 21
1271.073335986
  0
LINE
  8
0
  6
CONTINUOUS
 62
     1
 10
342.431625984
 20
1271.073335986
 11
342.431625984
 21
1274.073335986
  0
LINE
  8
0
  6
CONTINUOUS
 62
     1
 10
342.931625984
 20
1274.073335986
 11
342.931625984
 21
1334.073335986
  0
LINE
  8
0
  6
CONTINUOUS
 62
     1
 10
342.931625984
 20
1334.073335986
 11
359.931625984
 21
1334.073335986
  0
LINE
  8
0
  6
CONTINUOUS
 62
     1
 10
342.431625984
 20
1274.073335986
 11
359.931625984
 21
1274.073335986
  0
LINE
  8
0
  6
CONTINUOUS
 62
     1
 10
314.931625984
 20
1271.073335986
 11
359.931625984
 21
1271.073335986
  0
LINE
  8
0
  6
CONTINUOUS
 62
     1
 10
285.931625984
 20
1229.073335986
 11
359.931625984
 21
1229.073335986
  0
LINE
  8
0
  6
CONTINUOUS
 62
     1
 10
405.131625984
 20
1229.073335986
 11
405.131625984
 21
1271.073335986
  0
LINE
  8
0
  6
CONTINUOUS
 62
     1
 10
377.631625984
 20
1271.073335986
 11
377.631625984
 21
1274.073335986
  0
LINE
  8
0
  6
CONTINUOUS
 62
     1
 10
377.131625984
 20
1274.073335986
 11
377.131625984
 21
1334.073335986
  0
LINE
  8
0
  6
CONTINUOUS
 62
     1
 10
377.131625984
 20
1334.073335986
 11
360.131625984
 21
1334.073335986
  0
LINE
  8
0
  6
CONTINUOUS
 62
     1
 10
377.631625984
 20
1274.073335986
 11
360.131625984
 21
1274.073335986
  0
LINE
  8
0
  6
CONTINUOUS
 62
     1
 10
405.131625984
 20
1271.073335986
 11
360.131625984
 21
1271.073335986
  0
LINE
  8
0
  6
CONTINUOUS
 62
     1
 10
434.131625984
 20
1229.073335986
 11
360.131625984
 21
1229.073335986
  0
LINE
  8
0
  6
CONTINUOUS
 62
     1
 10
314.931625984
 20
929.073335986
 11
314.931625984
 21
887.073335986
  0
LINE
  8
0
  6
CONTINUOUS
 62
     1
 10
342.431625984
 20
887.073335986
 11
342.431625984
 21
884.073335986
  0
LINE
  8
0
  6
CONTINUOUS
 62
     1
 10
342.931625984
 20
884.073335986
 11
342.931625984
 21
824.073335986
  0
LINE
  8
0
  6
CONTINUOUS
 62
     1
 10
342.931625984
 20
824.073335986
 11
359.931625984
 21
824.073335986
  0
LINE
  8
0
  6
CONTINUOUS
 62
     1
 10
342.431625984
 20
884.073335986
 11
359.931625984
 21
884.073335986
  0
LINE
  8
0
  6
CONTINUOUS
 62
     1
 10
314.931625984
 20
887.073335986
 11
359.931625984
 21
887.073335986
  0
LINE
  8
0
  6
CONTINUOUS
 62
     1
 10
405.131625984
 20
929.073335986
 11
405.131625984
 21
887.073335986
  0
LINE
  8
0
  6
CONTINUOUS
 62
     1
 10
377.631625984
 20
887.073335986
 11
377.631625984
 21
884.073335986
  0
LINE
  8
0
  6
CONTINUOUS
 62
     1
 10
377.131625984
 20
884.073335986
 11
377.131625984
 21
824.073335986
  0
LINE
  8
0
  6
CONTINUOUS
 62
     1
 10
377.131625984
 20
824.073335986
 11
360.131625984
 21
824.073335986
  0
LINE
  8
0
  6
CONTINUOUS
 62
     1
 10
377.631625984
 20
884.073335986
 11
360.131625984
 21
884.073335986
  0
LINE
  8
0
  6
CONTINUOUS
 62
     1
 10
405.131625984
 20
887.073335986
 11
360.131625984
 21
887.073335986
  0
LINE
  8
0
  6
CONTINUOUS
 62
     1
 10
354.931625984
 20
1334.073335986
 11
354.931625984
 21
1279.073335986
  0
LINE
  8
0
  6
CONTINUOUS
 62
     1
 10
364.931625984
 20
1279.073335986
 11
354.931625984
 21
1279.073335986
  0
LINE
  8
0
  6
CONTINUOUS
 62
     1
 10
364.931625984
 20
1334.073335986
 11
364.931625984
 21
1279.073335986
  0
ARC
  8
0
  6
CONTINUOUS
 62
     1
 10
359.931625984
 20
1279.073335986
 40
5.0
 50
180.0
 51
0.0
  0
LINE
  8
0
  6
CONTINUOUS
 62
     1
 10
354.931625984
 20
824.073335986
 11
354.931625984
 21
879.073335986
  0
LINE
  8
0
  6
CONTINUOUS
 62
     1
 10
364.931625984
 20
879.073335986
 11
354.931625984
 21
879.073335986
  0
LINE
  8
0
  6
CONTINUOUS
 62
     1
 10
364.931625984
 20
824.073335986
 11
364.931625984
 21
879.073335986
  0
ARC
  8
0
  6
CONTINUOUS
 62
     1
 10
359.931625984
 20
879.073335986
 40
5.0
 50
0.0
 51
180.0
  0
LINE
  8
0
  6
CONTINUOUS
 62
     2
 10
342.931625984
 20
824.073335986
 11
157.731625984
 21
824.073335986
  0
LINE
  8
0
  6
CONTINUOUS
 62
     2
 10
162.731625984
 20
824.073335986
 11
165.966864047
 21
836.147408815
  0
LINE
  8
0
  6
CONTINUOUS
 62
     2
 10
162.731625984
 20
824.073335986
 11
159.49638792
 21
836.147408815
  0
LINE
  8
0
  6
CONTINUOUS
 62
     2
 10
162.731625984
 20
1334.073335986
 11
159.49638792
 21
1321.999263157
  0
LINE
  8
0
  6
CONTINUOUS
 62
     2
 10
162.731625984
 20
1334.073335986
 11
165.966864047
 21
1321.999263157
  0
LINE
  8
0
  6
CONTINUOUS
 62
     2
 10
342.931625984
 20
1334.073335986
 11
157.731625984
 21
1334.073335986
  0
LINE
  8
0
  6
CONTINUOUS
 62
     2
 10
207.731625984
 20
1229.073335986
 11
204.49638792
 21
1216.999263157
  0
LINE
  8
0
  6
CONTINUOUS
 62
     2
 10
207.731625984
 20
1229.073335986
 11
210.966864047
 21
1216.999263157
  0
LINE
  8
0
  6
CONTINUOUS
 62
     2
 10
285.931625984
 20
1229.073335986
 11
202.731625984
 21
1229.073335986
  0
LINE
  8
0
  6
CONTINUOUS
 62
     2
 10
342.931625984
 20
1334.073335986
 11
342.931625984
 21
1380.698335986
  0
LINE
  8
0
  6
CONTINUOUS
 62
     2
 10
342.931625984
 20
1375.698335986
 11
355.005698812
 21
1372.463097922
  0
LINE
  8
0
  6
CONTINUOUS
 62
     2
 10
342.931625984
 20
1375.698335986
 11
355.005698812
 21
1378.93357405
  0
LINE
  8
0
  6
CONTINUOUS
 62
     2
 10
342.931625984
 20
1375.698335986
 11
377.131625984
 21
1375.698335986
  0
LINE
  8
0
  6
CONTINUOUS
 62
     2
 10
377.131625984
 20
1375.698335986
 11
365.057553155
 21
1378.93357405
  0
LINE
  8
0
  6
CONTINUOUS
 62
     2
 10
377.131625984
 20
1375.698335986
 11
365.057553155
 21
1372.463097922
  0
LINE
  8
0
  6
CONTINUOUS
 62
     2
 10
377.131625984
 20
1334.073335986
 11
377.131625984
 21
1380.698335986
  0
LINE
  8
0
  6
CONTINUOUS
 62
     2
 10
314.931625984
 20
1249.198335986
 11
314.931625984
 21
1259.198335986
  0
LINE
  8
0
  6
CONTINUOUS
 62
     2
 10
314.931625984
 20
1254.198335986
 11
327.005698812
 21
1250.963097922
  0
LINE
  8
0
  6
CONTINUOUS
 62
     2
 10
314.931625984
 20
1254.198335986
 11
327.005698812
 21
1257.43357405
  0
LINE
  8
0
  6
CONTINUOUS
 62
     2
 10
404.931625984
 20
1254.198335986
 11
392.857553155
 21
1257.43357405
  0
LINE
  8
0
  6
CONTINUOUS
 62
     2
 10
404.931625984
 20
1254.198335986
 11
392.857553155
 21
1250.963097922
  0
LINE
  8
0
  6
CONTINUOUS
 62
     2
 10
404.931625984
 20
1249.198335986
 11
404.931625984
 21
1259.198335986
  0
LINE
  8
0
  6
LTYPE2
 62
     2
 10
251.934692258
 20
1159.07640226
 11
295.934692258
 21
1159.07640226
  0
LINE
  8
0
  6
LTYPE2
 62
     2
 10
251.934692258
 20
999.47640226
 11
295.934692258
 21
999.47640226
  0
LINE
  8
0
  6
CONTINUOUS
 62
     2
 10
314.931625984
 20
1271.073335986
 11
202.731625984
 21
1271.073335986
  0
LINE
  8
0
  6
CONTINUOUS
 62
     2
 10
207.731625984
 20
1271.073335986
 11
210.966864047
 21
1258.999263157
  0
LINE
  8
0
  6
CONTINUOUS
 62
     2
 10
207.731625984
 20
1271.073335986
 11
204.49638792
 21
1258.999263157
  0
LINE
  8
0
  6
CONTINUOUS
 62
     2
 10
207.731625984
 20
1271.073335986
 11
207.731625984
 21
1229.073335986
  0
LINE
  8
0
  6
CONTINUOUS
 62
     2
 10
207.731625984
 20
1229.073335986
 11
204.49638792
 21
1241.147408815
  0
LINE
  8
0
  6
CONTINUOUS
 62
     2
 10
207.731625984
 20
1229.073335986
 11
210.966864047
 21
1241.147408815
  0
LINE
  8
0
  6
CONTINUOUS
 62
     2
 10
162.731625984
 20
824.073335986
 11
162.731625984
 21
1334.073335986
  0
LINE
  8
0
  6
CONTINUOUS
 62
     2
 10
314.931625984
 20
887.073335986
 11
202.731625984
 21
887.073335986
  0
LINE
  8
0
  6
CONTINUOUS
 62
     2
 10
207.731625984
 20
887.073335986
 11
210.966864047
 21
899.147408815
  0
LINE
  8
0
  6
CONTINUOUS
 62
     2
 10
207.731625984
 20
887.073335986
 11
204.49638792
 21
899.147408815
  0
LINE
  8
0
  6
CONTINUOUS
 62
     2
 10
207.731625984
 20
887.073335986
 11
207.731625984
 21
929.073335986
  0
LINE
  8
0
  6
CONTINUOUS
 62
     2
 10
207.731625984
 20
929.073335986
 11
204.49638792
 21
916.999263157
  0
LINE
  8
0
  6
CONTINUOUS
 62
     2
 10
207.731625984
 20
929.073335986
 11
210.966864047
 21
916.999263157
  0
LINE
  8
0
  6
CONTINUOUS
 62
     2
 10
207.731625984
 20
929.073335986
 11
210.966864047
 21
941.147408815
  0
LINE
  8
0
  6
CONTINUOUS
 62
     2
 10
207.731625984
 20
929.073335986
 11
204.49638792
 21
941.147408815
  0
LINE
  8
0
  6
CONTINUOUS
 62
     2
 10
207.731625984
 20
929.073335986
 11
207.731625984
 21
1229.073335986
  0
LINE
  8
0
  6
CONTINUOUS
 62
     2
 10
284.131625984
 20
929.073335986
 11
202.731625984
 21
929.073335986
  0
LINE
  8
0
  6
CONTINUOUS
 62
     1
 10
434.131625984
 20
1179.815581345
 11
434.131625984
 21
1229.073335986
  0
LINE
  8
0
  6
CONTINUOUS
 62
     1
 10
285.931625984
 20
1179.815581345
 11
285.931625984
 21
1229.073335986
  0
LINE
  8
0
  6
CONTINUOUS
 62
     1
 10
285.931625984
 20
1209.073335986
 11
434.131625984
 21
1209.073335986
  0
POLYLINE
  8
0
  6
CONTINUOUS
 62
     1
 66
     1
 70
     1
  0
VERTEX
  8
0
  6
CONTINUOUS
 62
     1
 10
419.846047083
 20
1142.573335986
 42
0.030828907
  0
VERTEX
  8
0
  6
CONTINUOUS
 62
     1
 10
419.788967554
 20
1143.497762237
 42
0.030425797
  0
VERTEX
  8
0
  6
CONTINUOUS
 62
     1
 10
419.618163378
 20
1144.415153046
 42
0.029607756
  0
VERTEX
  8
0
  6
CONTINUOUS
 62
     1
 10
419.334934477
 20
1145.318526514
 42
0.028462655
  0
VERTEX
  8
0
  6
CONTINUOUS
 62
     1
 10
418.941436395
 20
1146.201007426
 42
0.02709878
  0
VERTEX
  8
0
  6
CONTINUOUS
 62
     1
 10
418.440663888
 20
1147.055879567
 42
0.025623927
  0
VERTEX
  8
0
  6
CONTINUOUS
 62
     1
 10
417.83642814
 20
1147.876636845
 42
0.024130573
  0
VERTEX
  8
0
  6
CONTINUOUS
 62
     1
 10
417.133327747
 20
1148.657032801
 42
0.022689019
  0
VERTEX
  8
0
  6
CONTINUOUS
 62
     1
 10
416.33671373
 20
1149.391128151
 42
0.021347012
  0
VERTEX
  8
0
  6
CONTINUOUS
 62
     1
 10
415.452648801
 20
1150.073335986
 42
0.020133139
  0
VERTEX
  8
0
  6
CONTINUOUS
 62
     1
 10
414.487861228
 20
1150.698464292
 42
0.019061584
  0
VERTEX
  8
0
  6
CONTINUOUS
 62
     1
 10
413.449693628
 20
1151.261755466
 42
0.018136748
  0
VERTEX
  8
0
  6
CONTINUOUS
 62
     1
 10
412.346047083
 20
1151.758922521
 42
0.017357048
  0
VERTEX
  8
0
  6
CONTINUOUS
 62
     1
 10
411.185321009
 20
1152.186181717
 42
0.016717738
  0
VERTEX
  8
0
  6
CONTINUOUS
 62
     1
 10
409.976349233
 20
1152.540281352
 42
0.016212869
  0
VERTEX
  8
0
  6
CONTINUOUS
 62
     1
 10
408.728332759
 20
1152.818526514
 42
0.015836575
  0
VERTEX
  8
0
  6
CONTINUOUS
 62
     1
 10
407.450769748
 20
1153.018799591
 42
0.015583879
  0
VERTEX
  8
0
  6
CONTINUOUS
 62
     1
 10
406.153383224
 20
1153.139576382
 42
0.01545117
  0
VERTEX
  8
0
  6
CONTINUOUS
 62
     1
 10
404.846047083
 20
1153.179937704
 42
0.015436471
  0
VERTEX
  8
0
  6
CONTINUOUS
 62
     1
 10
403.538710942
 20
1153.139576382
 42
0.01553956
  0
VERTEX
  8
0
  6
CONTINUOUS
 62
     1
 10
402.241324418
 20
1153.018799591
 42
0.015761981
  0
VERTEX
  8
0
  6
CONTINUOUS
 62
     1
 10
400.963761406
 20
1152.818526514
 42
0.016106956
  0
VERTEX
  8
0
  6
CONTINUOUS
 62
     1
 10
399.715744933
 20
1152.540281352
 42
0.016579155
  0
VERTEX
  8
0
  6
CONTINUOUS
 62
     1
 10
398.506773157
 20
1152.186181717
 42
0.017184283
  0
VERTEX
  8
0
  6
CONTINUOUS
 62
     1
 10
397.346047083
 20
1151.758922521
 42
0.017928366
  0
VERTEX
  8
0
  6
CONTINUOUS
 62
     1
 10
396.242400538
 20
1151.261755466
 42
0.018816605
  0
VERTEX
  8
0
  6
CONTINUOUS
 62
     1
 10
395.204232938
 20
1150.698464292
 42
0.019851601
  0
VERTEX
  8
0
  6
CONTINUOUS
 62
     1
 10
394.239445365
 20
1150.073335986
 42
0.021030768
  0
VERTEX
  8
0
  6
CONTINUOUS
 62
     1
 10
393.355380436
 20
1149.391128151
 42
0.022342775
  0
VERTEX
  8
0
  6
CONTINUOUS
 62
     1
 10
392.558766419
 20
1148.657032801
 42
0.023763095
  0
VERTEX
  8
0
  6
CONTINUOUS
 62
     1
 10
391.855666026
 20
1147.876636845
 42
0.025249176
  0
VERTEX
  8
0
  6
CONTINUOUS
 62
     1
 10
391.251430277
 20
1147.055879567
 42
0.026736517
  0
VERTEX
  8
0
  6
CONTINUOUS
 62
     1
 10
390.750657771
 20
1146.201007426
 42
0.028137835
  0
VERTEX
  8
0
  6
CONTINUOUS
 62
     1
 10
390.357159689
 20
1145.318526514
 42
0.029348088
  0
VERTEX
  8
0
  6
CONTINUOUS
 62
     1
 10
390.073930788
 20
1144.415153046
 42
0.030257315
  0
VERTEX
  8
0
  6
CONTINUOUS
 62
     1
 10
389.903126611
 20
1143.497762237
 42
0.030770446
  0
VERTEX
  8
0
  6
CONTINUOUS
 62
     1
 10
389.846047083
 20
1142.573335986
 42
0.030828907
  0
VERTEX
  8
0
  6
CONTINUOUS
 62
     1
 10
389.903126611
 20
1141.648909735
 42
0.030425797
  0
VERTEX
  8
0
  6
CONTINUOUS
 62
     1
 10
390.073930788
 20
1140.731518926
 42
0.029607756
  0
VERTEX
  8
0
  6
CONTINUOUS
 62
     1
 10
390.357159689
 20
1139.828145458
 42
0.028462655
  0
VERTEX
  8
0
  6
CONTINUOUS
 62
     1
 10
390.750657771
 20
1138.945664546
 42
0.02709878
  0
VERTEX
  8
0
  6
CONTINUOUS
 62
     1
 10
391.251430277
 20
1138.090792405
 42
0.025623927
  0
VERTEX
  8
0
  6
CONTINUOUS
 62
     1
 10
391.855666026
 20
1137.270035127
 42
0.024130573
  0
VERTEX
  8
0
  6
CONTINUOUS
 62
     1
 10
392.558766419
 20
1136.489639171
 42
0.022689019
  0
VERTEX
  8
0
  6
CONTINUOUS
 62
     1
 10
393.355380436
 20
1135.755543821
 42
0.021347012
  0
VERTEX
  8
0
  6
CONTINUOUS
 62
     1
 10
394.239445365
 20
1135.073335986
 42
0.020133139
  0
VERTEX
  8
0
  6
CONTINUOUS
 62
     1
 10
395.204232938
 20
1134.44820768
 42
0.019061584
  0
VERTEX
  8
0
  6
CONTINUOUS
 62
     1
 10
396.242400538
 20
1133.884916506
 42
0.018136748
  0
VERTEX
  8
0
  6
CONTINUOUS
 62
     1
 10
397.346047083
 20
1133.387749451
 42
0.017357048
  0
VERTEX
  8
0
  6
CONTINUOUS
 62
     1
 10
398.506773157
 20
1132.960490255
 42
0.016717738
  0
VERTEX
  8
0
  6
CONTINUOUS
 62
     1
 10
399.715744933
 20
1132.60639062
 42
0.016212869
  0
VERTEX
  8
0
  6
CONTINUOUS
 62
     1
 10
400.963761406
 20
1132.328145458
 42
0.015836575
  0
VERTEX
  8
0
  6
CONTINUOUS
 62
     1
 10
402.241324418
 20
1132.127872381
 42
0.015583879
  0
VERTEX
  8
0
  6
CONTINUOUS
 62
     1
 10
403.538710942
 20
1132.00709559
 42
0.01545117
  0
VERTEX
  8
0
  6
CONTINUOUS
 62
     1
 10
404.846047083
 20
1131.966734268
 42
0.015436471
  0
VERTEX
  8
0
  6
CONTINUOUS
 62
     1
 10
406.153383224
 20
1132.00709559
 42
0.01553956
  0
VERTEX
  8
0
  6
CONTINUOUS
 62
     1
 10
407.450769748
 20
1132.127872381
 42
0.015761981
  0
VERTEX
  8
0
  6
CONTINUOUS
 62
     1
 10
408.728332759
 20
1132.328145458
 42
0.016106956
  0
VERTEX
  8
0
  6
CONTINUOUS
 62
     1
 10
409.976349233
 20
1132.60639062
 42
0.016579155
  0
VERTEX
  8
0
  6
CONTINUOUS
 62
     1
 10
411.185321009
 20
1132.960490255
 42
0.017184283
  0
VERTEX
  8
0
  6
CONTINUOUS
 62
     1
 10
412.346047083
 20
1133.387749451
 42
0.017928366
  0
VERTEX
  8
0
  6
CONTINUOUS
 62
     1
 10
413.449693628
 20
1133.884916506
 42
0.018816605
  0
VERTEX
  8
0
  6
CONTINUOUS
 62
     1
 10
414.487861228
 20
1134.44820768
 42
0.019851601
  0
VERTEX
  8
0
  6
CONTINUOUS
 62
     1
 10
415.452648801
 20
1135.073335986
 42
0.021030768
  0
VERTEX
  8
0
  6
CONTINUOUS
 62
     1
 10
416.33671373
 20
1135.755543821
 42
0.022342775
  0
VERTEX
  8
0
  6
CONTINUOUS
 62
     1
 10
417.133327747
 20
1136.489639171
 42
0.023763095
  0
VERTEX
  8
0
  6
CONTINUOUS
 62
     1
 10
417.83642814
 20
1137.270035127
 42
0.025249176
  0
VERTEX
  8
0
  6
CONTINUOUS
 62
     1
 10
418.440663888
 20
1138.090792405
 42
0.026736517
  0
VERTEX
  8
0
  6
CONTINUOUS
 62
     1
 10
418.941436395
 20
1138.945664546
 42
0.028137835
  0
VERTEX
  8
0
  6
CONTINUOUS
 62
     1
 10
419.334934477
 20
1139.828145458
 42
0.029348088
  0
VERTEX
  8
0
  6
CONTINUOUS
 62
     1
 10
419.618163378
 20
1140.731518926
 42
0.030257315
  0
VERTEX
  8
0
  6
CONTINUOUS
 62
     1
 10
419.788967554
 20
1141.648909735
 42
0.030770446
  0
SEQEND
  8
0
  6
CONTINUOUS
 62
     1
  0
POLYLINE
  8
0
  6
CONTINUOUS
 62
     1
 66
     1
 70
     1
  0
VERTEX
  8
0
  6
CONTINUOUS
 62
     1
 10
421.346047083
 20
1142.573335986
 42
0.030828907
  0
VERTEX
  8
0
  6
CONTINUOUS
 62
     1
 10
421.283259601
 20
1143.590204862
 42
0.030425797
  0
VERTEX
  8
0
  6
CONTINUOUS
 62
     1
 10
421.095375008
 20
1144.599334751
 42
0.029607756
  0
VERTEX
  8
0
  6
CONTINUOUS
 62
     1
 10
420.783823217
 20
1145.593045567
 42
0.028462655
  0
VERTEX
  8
0
  6
CONTINUOUS
 62
     1
 10
420.350975326
 20
1146.56377457
 42
0.02709878
  0
VERTEX
  8
0
  6
CONTINUOUS
 62
     1
 10
419.800125569
 20
1147.504133925
 42
0.025623927
  0
VERTEX
  8
0
  6
CONTINUOUS
 62
     1
 10
419.135466245
 20
1148.406966931
 42
0.024130573
  0
VERTEX
  8
0
  6
CONTINUOUS
 62
     1
 10
418.362055814
 20
1149.265402483
 42
0.022689019
  0
VERTEX
  8
0
  6
CONTINUOUS
 62
     1
 10
417.485780394
 20
1150.072907368
 42
0.021347012
  0
VERTEX
  8
0
  6
CONTINUOUS
 62
     1
 10
416.513308972
 20
1150.823335986
 42
0.020133139
  0
VERTEX
  8
0
  6
CONTINUOUS
 62
     1
 10
415.452042643
 20
1151.510977123
 42
0.019061584
  0
VERTEX
  8
0
  6
CONTINUOUS
 62
     1
 10
414.310058283
 20
1152.130597414
 42
0.018136748
  0
VERTEX
  8
0
  6
CONTINUOUS
 62
     1
 10
413.096047083
 20
1152.677481175
 42
0.017357048
  0
VERTEX
  8
0
  6
CONTINUOUS
 62
     1
 10
411.819248402
 20
1153.14746629
 42
0.016717738
  0
VERTEX
  8
0
  6
CONTINUOUS
 62
     1
 10
410.489379448
 20
1153.536975888
 42
0.016212869
  0
VERTEX
  8
0
  6
CONTINUOUS
 62
     1
 10
409.116561327
 20
1153.843045567
 42
0.015836575
  0
VERTEX
  8
0
  6
CONTINUOUS
 62
     1
 10
407.711242014
 20
1154.063345951
 42
0.015583879
  0
VERTEX
  8
0
  6
CONTINUOUS
 62
     1
 10
406.284116838
 20
1154.196200422
 42
0.01545117
  0
VERTEX
  8
0
  6
CONTINUOUS
 62
     1
 10
404.846047083
 20
1154.240597876
 42
0.015436471
  0
VERTEX
  8
0
  6
CONTINUOUS
 62
     1
 10
403.407977328
 20
1154.196200422
 42
0.01553956
  0
VERTEX
  8
0
  6
CONTINUOUS
 62
     1
 10
401.980852151
 20
1154.063345951
 42
0.015761981
  0
VERTEX
  8
0
  6
CONTINUOUS
 62
     1
 10
400.575532839
 20
1153.843045567
 42
0.016106956
  0
VERTEX
  8
0
  6
CONTINUOUS
 62
     1
 10
399.202714718
 20
1153.536975888
 42
0.016579155
  0
VERTEX
  8
0
  6
CONTINUOUS
 62
     1
 10
397.872845764
 20
1153.14746629
 42
0.017184283
  0
VERTEX
  8
0
  6
CONTINUOUS
 62
     1
 10
396.596047083
 20
1152.677481175
 42
0.017928366
  0
VERTEX
  8
0
  6
CONTINUOUS
 62
     1
 10
395.382035883
 20
1152.130597414
 42
0.018816605
  0
VERTEX
  8
0
  6
CONTINUOUS
 62
     1
 10
394.240051523
 20
1151.510977123
 42
0.019851601
  0
VERTEX
  8
0
  6
CONTINUOUS
 62
     1
 10
393.178785193
 20
1150.823335986
 42
0.021030768
  0
VERTEX
  8
0
  6
CONTINUOUS
 62
     1
 10
392.206313771
 20
1150.072907368
 42
0.022342775
  0
VERTEX
  8
0
  6
CONTINUOUS
 62
     1
 10
391.330038352
 20
1149.265402483
 42
0.023763095
  0
VERTEX
  8
0
  6
CONTINUOUS
 62
     1
 10
390.55662792
 20
1148.406966931
 42
0.025249176
  0
VERTEX
  8
0
  6
CONTINUOUS
 62
     1
 10
389.891968597
 20
1147.504133925
 42
0.026736517
  0
VERTEX
  8
0
  6
CONTINUOUS
 62
     1
 10
389.34111884
 20
1146.56377457
 42
0.028137835
  0
VERTEX
  8
0
  6
CONTINUOUS
 62
     1
 10
388.908270949
 20
1145.593045567
 42
0.029348088
  0
VERTEX
  8
0
  6
CONTINUOUS
 62
     1
 10
388.596719158
 20
1144.599334751
 42
0.030257315
  0
VERTEX
  8
0
  6
CONTINUOUS
 62
     1
 10
388.408834564
 20
1143.590204862
 42
0.030770446
  0
VERTEX
  8
0
  6
CONTINUOUS
 62
     1
 10
388.346047083
 20
1142.573335986
 42
0.030828907
  0
VERTEX
  8
0
  6
CONTINUOUS
 62
     1
 10
388.408834564
 20
1141.55646711
 42
0.030425797
  0
VERTEX
  8
0
  6
CONTINUOUS
 62
     1
 10
388.596719158
 20
1140.547337221
 42
0.029607756
  0
VERTEX
  8
0
  6
CONTINUOUS
 62
     1
 10
388.908270949
 20
1139.553626405
 42
0.028462655
  0
VERTEX
  8
0
  6
CONTINUOUS
 62
     1
 10
389.34111884
 20
1138.582897402
 42
0.02709878
  0
VERTEX
  8
0
  6
CONTINUOUS
 62
     1
 10
389.891968597
 20
1137.642538047
 42
0.025623927
  0
VERTEX
  8
0
  6
CONTINUOUS
 62
     1
 10
390.55662792
 20
1136.739705041
 42
0.024130573
  0
VERTEX
  8
0
  6
CONTINUOUS
 62
     1
 10
391.330038352
 20
1135.881269489
 42
0.022689019
  0
VERTEX
  8
0
  6
CONTINUOUS
 62
     1
 10
392.206313771
 20
1135.073764604
 42
0.021347012
  0
VERTEX
  8
0
  6
CONTINUOUS
 62
     1
 10
393.178785193
 20
1134.323335986
 42
0.020133139
  0
VERTEX
  8
0
  6
CONTINUOUS
 62
     1
 10
394.240051523
 20
1133.635694849
 42
0.019061584
  0
VERTEX
  8
0
  6
CONTINUOUS
 62
     1
 10
395.382035883
 20
1133.016074558
 42
0.018136748
  0
VERTEX
  8
0
  6
CONTINUOUS
 62
     1
 10
396.596047083
 20
1132.469190797
 42
0.017357048
  0
VERTEX
  8
0
  6
CONTINUOUS
 62
     1
 10
397.872845764
 20
1131.999205682
 42
0.016717738
  0
VERTEX
  8
0
  6
CONTINUOUS
 62
     1
 10
399.202714718
 20
1131.609696084
 42
0.016212869
  0
VERTEX
  8
0
  6
CONTINUOUS
 62
     1
 10
400.575532839
 20
1131.303626405
 42
0.015836575
  0
VERTEX
  8
0
  6
CONTINUOUS
 62
     1
 10
401.980852151
 20
1131.083326021
 42
0.015583879
  0
VERTEX
  8
0
  6
CONTINUOUS
 62
     1
 10
403.407977328
 20
1130.95047155
 42
0.01545117
  0
VERTEX
  8
0
  6
CONTINUOUS
 62
     1
 10
404.846047083
 20
1130.906074096
 42
0.015436471
  0
VERTEX
  8
0
  6
CONTINUOUS
 62
     1
 10
406.284116838
 20
1130.95047155
 42
0.01553956
  0
VERTEX
  8
0
  6
CONTINUOUS
 62
     1
 10
407.711242014
 20
1131.083326021
 42
0.015761981
  0
VERTEX
  8
0
  6
CONTINUOUS
 62
     1
 10
409.116561327
 20
1131.303626405
 42
0.016106956
  0
VERTEX
  8
0
  6
CONTINUOUS
 62
     1
 10
410.489379448
 20
1131.609696084
 42
0.016579155
  0
VERTEX
  8
0
  6
CONTINUOUS
 62
     1
 10
411.819248402
 20
1131.999205682
 42
0.017184283
  0
VERTEX
  8
0
  6
CONTINUOUS
 62
     1
 10
413.096047083
 20
1132.469190797
 42
0.017928366
  0
VERTEX
  8
0
  6
CONTINUOUS
 62
     1
 10
414.310058283
 20
1133.016074558
 42
0.018816605
  0
VERTEX
  8
0
  6
CONTINUOUS
 62
     1
 10
415.452042643
 20
1133.635694849
 42
0.019851601
  0
VERTEX
  8
0
  6
CONTINUOUS
 62
     1
 10
416.513308972
 20
1134.323335986
 42
0.021030768
  0
VERTEX
  8
0
  6
CONTINUOUS
 62
     1
 10
417.485780394
 20
1135.073764604
 42
0.022342775
  0
VERTEX
  8
0
  6
CONTINUOUS
 62
     1
 10
418.362055814
 20
1135.881269489
 42
0.023763095
  0
VERTEX
  8
0
  6
CONTINUOUS
 62
     1
 10
419.135466245
 20
1136.739705041
 42
0.025249176
  0
VERTEX
  8
0
  6
CONTINUOUS
 62
     1
 10
419.800125569
 20
1137.642538047
 42
0.026736517
  0
VERTEX
  8
0
  6
CONTINUOUS
 62
     1
 10
420.350975326
 20
1138.582897402
 42
0.028137835
  0
VERTEX
  8
0
  6
CONTINUOUS
 62
     1
 10
420.783823217
 20
1139.553626405
 42
0.029348088
  0
VERTEX
  8
0
  6
CONTINUOUS
 62
     1
 10
421.095375008
 20
1140.547337221
 42
0.030257315
  0
VERTEX
  8
0
  6
CONTINUOUS
 62
     1
 10
421.283259601
 20
1141.55646711
 42
0.030770446
  0
SEQEND
  8
0
  6
CONTINUOUS
 62
     1
  0
LINE
  8
0
  6
LTYPE3
 62
     2
 10
372.846047083
 20
1142.573335986
 11
435.346047083
 21
1142.573335986
  0
LINE
  8
0
  6
LTYPE3
 62
     2
 10
404.846047083
 20
1115.573335986
 11
404.846047083
 21
1168.073335986
  0
ARC
  8
0
  6
CONTINUOUS
 62
     1
 10
427.846047083
 20
1079.073335986
 40
4.0
 50
90.0
 51
270.0
  0
LINE
  8
0
  6
CONTINUOUS
 62
     1
 10
427.846047083
 20
1083.073335986
 11
460.846047083
 21
1083.073335986
  0
LINE
  8
0
  6
CONTINUOUS
 62
     1
 10
427.846047083
 20
1075.073335986
 11
460.846047083
 21
1075.073335986
  0
ARC
  8
0
  6
CONTINUOUS
 62
     1
 10
460.846047083
 20
1079.073335986
 40
4.0
 50
270.0
 51
90.0
  0
ARC
  8
0
  6
CONTINUOUS
 62
     1
 10
444.346047083
 20
1079.073335986
 40
10.0
 50
23.578178478
 51
156.421821522
  0
ARC
  8
0
  6
CONTINUOUS
 62
     1
 10
444.346047083
 20
1079.073335986
 40
10.0
 50
203.578178478
 51
336.421821522
  0
LINE
  8
0
  6
LTYPE3
 62
     2
 10
444.346047083
 20
1066.473335986
 11
444.346047083
 21
1091.573335986
  0
LINE
  8
0
  6
LTYPE3
 62
     2
 10
420.311198473
 20
1079.073335986
 11
467.811198473
 21
1079.073335986
  0
ARC
  8
0
  6
LTYPE1
 62
     2
 10
427.846047083
 20
1079.073335986
 40
4.0
 50
270.0
 51
90.0
  0
ARC
  8
0
  6
LTYPE1
 62
     2
 10
444.346047083
 20
1079.073335986
 40
10.0
 50
156.421821522
 51
203.578178478
  0
ARC
  8
0
  6
LTYPE1
 62
     2
 10
460.846047083
 20
1079.073335986
 40
4.0
 50
90.0
 51
270.0
  0
ARC
  8
0
  6
LTYPE1
 62
     2
 10
444.346047083
 20
1079.073335986
 40
10.0
 50
0.0
 51
23.578178478
  0
ARC
  8
0
  6
LTYPE1
 62
     2
 10
444.346047083
 20
1079.073335986
 40
10.0
 50
336.421821522
 51
0.0
  0
LINE
  8
0
  6
CONTINUOUS
 62
     1
 10
434.131625984
 20
978.331090627
 11
434.131625984
 21
929.073335986
  0
LINE
  8
0
  6
CONTINUOUS
 62
     1
 10
285.931625984
 20
978.331090627
 11
285.931625984
 21
929.073335986
  0
LINE
  8
0
  6
CONTINUOUS
 62
     1
 10
285.931625984
 20
949.073335986
 11
434.131625984
 21
949.073335986
  0
LINE
  8
0
  6
LTYPE1
 62
     2
 10
321.431625984
 20
1415.993335986
 11
398.231625984
 21
1415.993335986
  0
LINE
  8
0
  6
LTYPE1
 62
     2
 10
318.231625984
 20
1415.993335986
 11
341.413845815
 21
1409.781678904
  0
LINE
  8
0
  6
LTYPE1
 62
     2
 10
318.231625984
 20
1415.993335986
 11
341.413845815
 21
1422.204993068
  0
LINE
  8
7
  6
CONTINUOUS
 62
     2
 10
207.731625984
 20
887.073335986
 11
210.966864047
 21
899.147408815
  0
LINE
  8
7
  6
CONTINUOUS
 62
     2
 10
207.731625984
 20
887.073335986
 11
204.49638792
 21
899.147408815
  0
LINE
  8
7
  6
CONTINUOUS
 62
     2
 10
207.731625984
 20
905.823335986
 11
207.731625984
 21
851.823335986
  0
LINE
  8
7
  6
CONTINUOUS
 62
     2
 10
207.731625984
 20
884.073335986
 11
204.49638792
 21
871.999263157
  0
LINE
  8
7
  6
CONTINUOUS
 62
     2
 10
207.731625984
 20
884.073335986
 11
210.966864047
 21
871.999263157
  0
LINE
  8
7
  6
CONTINUOUS
 62
     2
 10
334.931625984
 20
884.073335986
 11
200.231625984
 21
884.073335986
  0
LINE
  8
7
  6
CONTINUOUS
 62
     2
 10
207.731625984
 20
1252.323335986
 11
207.731625984
 21
1306.323335986
  0
LINE
  8
7
  6
CONTINUOUS
 62
     2
 10
207.731625984
 20
1274.073335986
 11
204.49638792
 21
1286.147408815
  0
LINE
  8
7
  6
CONTINUOUS
 62
     2
 10
207.731625984
 20
1274.073335986
 11
210.966864047
 21
1286.147408815
  0
LINE
  8
7
  6
CONTINUOUS
 62
     2
 10
334.931625984
 20
1274.073335986
 11
200.231625984
 21
1274.073335986
  0
LINE
  8
0
  6
CONTINUOUS
 62
     1
 10
464.931625984
 20
1079.073335986
 11
464.931625984
 21
953.473335986
  0
LINE
  8
0
  6
CONTINUOUS
 62
     1
 10
434.131625984
 20
953.473335986
 11
464.931625984
 21
953.473335986
  0
LINE
  8
0
  6
CONTINUOUS
 62
     1
 10
464.931625984
 20
1079.073335986
 11
464.931625984
 21
1204.673335986
  0
LINE
  8
0
  6
CONTINUOUS
 62
     1
 10
434.131625984
 20
1204.673335986
 11
464.931625984
 21
1204.673335986
  0
LINE
  8
0
  6
CONTINUOUS
 62
     1
 10
685.931625984
 20
999.073335986
 11
702.931625984
 21
999.073335986
  0
LINE
  8
0
  6
CONTINUOUS
 62
     1
 10
685.931625984
 20
999.073335986
 11
702.931625984
 21
999.073335986
  0
LINE
  8
0
  6
CONTINUOUS
 62
     1
 10
685.931625984
 20
1159.073335986
 11
702.931625984
 21
1159.073335986
  0
LINE
  8
0
  6
CONTINUOUS
 62
     1
 10
702.931625984
 20
1159.073335986
 11
702.931625984
 21
999.073335986
  0
LINE
  8
0
  6
CONTINUOUS
 62
     1
 10
489.931625984
 20
1079.073335986
 11
489.931625984
 21
954.073335986
  0
LINE
  8
0
  6
CONTINUOUS
 62
     1
 10
464.931625984
 20
954.073335986
 11
489.931625984
 21
954.073335986
  0
LINE
  8
0
  6
CONTINUOUS
 62
     1
 10
489.931625984
 20
1079.673335986
 11
489.931625984
 21
1204.673335986
  0
LINE
  8
0
  6
CONTINUOUS
 62
     1
 10
602.931625984
 20
1079.073335986
 11
602.931625984
 21
996.573335986
  0
LINE
  8
0
  6
CONTINUOUS
 62
     1
 10
602.931625984
 20
1078.873335986
 11
602.931625984
 21
1161.373335986
  0
ARC
  8
0
  6
CONTINUOUS
 62
     1
 10
495.931625984
 20
1164.873335986
 40
6.0
 50
180.0
 51
270.0
  0
LINE
  8
0
  6
CONTINUOUS
 62
     1
 10
495.931625984
 20
1158.873335986
 11
602.931625984
 21
1158.873335986
  0
ARC
  8
0
  6
CONTINUOUS
 62
     1
 10
495.931625984
 20
993.073335986
 40
6.0
 50
90.0
 51
180.0
  0
LINE
  8
0
  6
CONTINUOUS
 62
     1
 10
495.631625984
 20
999.073335986
 11
602.931625984
 21
999.073335986
  0
LINE
  8
0
  6
CONTINUOUS
 62
     1
 10
602.931625984
 20
1161.373335986
 11
685.931625984
 21
1161.373335986
  0
LINE
  8
0
  6
CONTINUOUS
 62
     1
 10
685.931625984
 20
1161.373335986
 11
685.931625984
 21
999.073335986
  0
LINE
  8
0
  6
CONTINUOUS
 62
     1
 10
685.931625984
 20
1079.073335986
 11
685.931625984
 21
996.573335986
  0
LINE
  8
0
  6
CONTINUOUS
 62
     1
 10
602.931625984
 20
996.573335986
 11
685.931625984
 21
996.573335986
  0
LINE
  8
0
  6
CONTINUOUS
 62
     1
 10
434.131625984
 20
1204.673335986
 11
489.931625984
 21
1204.673335986
  0
LINE
  8
0
  6
CONTINUOUS
 62
     1
 10
464.931625984
 20
1079.073335986
 11
464.931625984
 21
1204.673335986
  0
LINE
  8
0
  6
CONTINUOUS
 62
     1
 10
427.846047083
 20
1083.073335986
 11
460.846047083
 21
1083.073335986
  0
LINE
  8
0
  6
CONTINUOUS
 62
     1
 10
427.846047083
 20
1075.073335986
 11
460.846047083
 21
1075.073335986
  0
ARC
  8
0
  6
CONTINUOUS
 62
     1
 10
460.846047083
 20
1079.073335986
 40
4.0
 50
270.0
 51
90.0
  0
LINE
  8
0
  6
LTYPE3
 62
     2
 10
420.311198473
 20
1079.073335986
 11
467.811198473
 21
1079.073335986
  0
ARC
  8
0
  6
LTYPE1
 62
     2
 10
460.846047083
 20
1079.073335986
 40
4.0
 50
90.0
 51
270.0
  0
LINE
  8
0
  6
CONTINUOUS
 62
     1
 10
434.131625984
 20
953.473335986
 11
489.931625984
 21
953.473335986
  0
LINE
  8
0
  6
CONTINUOUS
 62
     1
 10
464.931625984
 20
1079.073335986
 11
464.931625984
 21
953.473335986
  0
LINE
  8
0
  6
LTYPE2
 62
     2
 10
359.931625984
 20
1312.873335986
 11
359.931625984
 21
741.873335986
  0
LINE
  8
0
  6
CONTINUOUS
 62
     2
 10
359.931625984
 20
734.373335986
 11
359.931625984
 21
728.573335986
  0
LINE
  8
0
  6
CONTINUOUS
 62
     2
 10
359.931625984
 20
736.073335986
 11
372.005698812
 21
732.838097922
  0
LINE
  8
0
  6
CONTINUOUS
 62
     2
 10
359.931625984
 20
736.073335986
 11
372.005698812
 21
739.30857405
  0
LINE
  8
0
  6
CONTINUOUS
 62
     2
 10
359.931625984
 20
701.573335986
 11
372.005698812
 21
698.338097922
  0
LINE
  8
0
  6
CONTINUOUS
 62
     2
 10
359.931625984
 20
701.573335986
 11
372.005698812
 21
704.80857405
  0
LINE
  8
0
  6
CONTINUOUS
 62
     2
 10
359.931625984
 20
728.573335986
 11
359.931625984
 21
694.073335986
  0
LINE
  8
0
  6
CONTINUOUS
 62
     2
 10
359.931625984
 20
709.073335986
 11
359.931625984
 21
709.073335986
  0
LINE
  8
0
  6
CONTINUOUS
 62
     2
 10
817.131625984
 20
1009.073335986
 11
820.366864047
 21
1021.147408815
  0
LINE
  8
0
  6
CONTINUOUS
 62
     2
 10
817.131625984
 20
1009.073335986
 11
813.89638792
 21
1021.147408815
  0
LINE
  8
0
  6
CONTINUOUS
 62
     2
 10
817.131625984
 20
1009.073335986
 11
817.131625984
 21
1149.073335986
  0
LINE
  8
0
  6
CONTINUOUS
 62
     2
 10
817.131625984
 20
1149.073335986
 11
813.89638792
 21
1136.999263157
  0
LINE
  8
0
  6
CONTINUOUS
 62
     2
 10
817.131625984
 20
1149.073335986
 11
820.366864047
 21
1136.999263157
  0
LINE
  8
0
  6
CONTINUOUS
 62
     2
 10
819.631625984
 20
1149.073335986
 11
809.631625984
 21
1149.073335986
  0
CIRCLE
  8
0
  6
CONTINUOUS
 62
     1
 10
862.031625984
 20
1079.073335986
 40
29.25
  0
LINE
  8
0
  6
CONTINUOUS
 62
     1
 10
832.031625984
 20
1109.073335986
 11
892.031625984
 21
1109.073335986
  0
LINE
  8
0
  6
CONTINUOUS
 62
     1
 10
892.031625984
 20
1049.073335986
 11
892.031625984
 21
1109.073335986
  0
LINE
  8
0
  6
CONTINUOUS
 62
     1
 10
832.031625984
 20
1049.073335986
 11
892.031625984
 21
1049.073335986
  0
LINE
  8
0
  6
CONTINUOUS
 62
     1
 10
832.031625984
 20
1049.073335986
 11
832.031625984
 21
1109.073335986
  0
LINE
  8
0
  6
LTYPE2
 62
     2
 10
862.031625984
 20
1041.423335986
 11
862.031625984
 21
1116.273335986
  0
LINE
  8
0
  6
CONTINUOUS
 62
     2
 10
868.846047083
 20
1103.573335986
 11
875.216996291
 21
1114.327916693
  0
LINE
  8
0
  6
CONTINUOUS
 62
     2
 10
868.846047083
 20
1103.573335986
 11
868.98616059
 21
1116.07255069
  0
LINE
  8
0
  6
CONTINUOUS
 62
     2
 10
868.846047083
 20
1103.573335986
 11
903.846047083
 21
1228.573335986
  0
LINE
  8
0
  6
CONTINUOUS
 62
     2
 10
903.846047083
 20
1228.573335986
 11
947.346047083
 21
1228.573335986
  0
LINE
  8
0
  6
CONTINUOUS
 62
     2
 10
1248.971625984
 20
1170.373335986
 11
1325.771625984
 21
1170.373335986
  0
LINE
  8
0
  6
CONTINUOUS
 62
     2
 10
1325.771625984
 20
1170.373335986
 11
1302.589406153
 21
1176.584993068
  0
LINE
  8
0
  6
CONTINUOUS
 62
     2
 10
1325.771625984
 20
1170.373335986
 11
1302.589406153
 21
1164.161678904
  0
LINE
  8
0
  6
LTYPE3
 62
     2
 10
1384.131625984
 20
1381.373335986
 11
1189.131625984
 21
1381.373335986
  0
LINE
  8
0
  6
LTYPE3
 62
     2
 10
1312.931625984
 20
1317.173335986
 11
1312.931625984
 21
1462.173335986
  0
CIRCLE
  8
0
  6
CONTINUOUS
 62
     1
 10
1312.931625984
 20
1381.373335986
 40
22.5
  0
LINE
  8
0
  6
CONTINUOUS
 62
     1
 10
1222.931625984
 20
1340.988335986
 11
1222.931625984
 21
1421.758335986
  0
LINE
  8
0
  6
CONTINUOUS
 62
     1
 10
1212.931625984
 20
1333.873335986
 11
1212.931625984
 21
1428.873335986
  0
LINE
  8
0
  6
CONTINUOUS
 62
     1
 10
1352.931625984
 20
1333.873335986
 11
1352.931625984
 21
1340.988335986
  0
LINE
  8
0
  6
CONTINUOUS
 62
     1
 10
1352.931625984
 20
1340.988335986
 11
1222.931625984
 21
1340.988335986
  0
LINE
  8
0
  6
CONTINUOUS
 62
     1
 10
1352.931625984
 20
1421.758335986
 11
1352.931625984
 21
1428.873335986
  0
LINE
  8
0
  6
CONTINUOUS
 62
     1
 10
1352.931625984
 20
1421.758335986
 11
1222.931625984
 21
1421.758335986
  0
LINE
  8
0
  6
CONTINUOUS
 62
     1
 10
1352.931625984
 20
1428.873335986
 11
1212.931625984
 21
1428.873335986
  0
LINE
  8
0
  6
CONTINUOUS
 62
     1
 10
1352.931625984
 20
1428.873335986
 11
1362.931625984
 21
1418.873335986
  0
LINE
  8
0
  6
CONTINUOUS
 62
     1
 10
1352.931625984
 20
1333.873335986
 11
1212.931625984
 21
1333.873335986
  0
LINE
  8
0
  6
CONTINUOUS
 62
     1
 10
1362.931625984
 20
1343.873335986
 11
1362.931625984
 21
1418.873335986
  0
LINE
  8
0
  6
CONTINUOUS
 62
     1
 10
1352.931625984
 20
1333.873335986
 11
1362.931625984
 21
1343.873335986
  0
LINE
  8
0
  6
CONTINUOUS
 62
     1
 10
1352.931625984
 20
1340.988335986
 11
1362.931625984
 21
1356.488335986
  0
LINE
  8
0
  6
CONTINUOUS
 62
     1
 10
1352.931625984
 20
1421.758335986
 11
1362.931625984
 21
1406.258335986
  0
LINE
  8
0
  6
CONTINUOUS
 62
     2
 10
1360.431625984
 20
1333.873335986
 11
1430.931625984
 21
1333.873335986
  0
LINE
  8
0
  6
CONTINUOUS
 62
     2
 10
1423.431625984
 20
1333.873335986
 11
1426.666864047
 21
1345.947408815
  0
LINE
  8
0
  6
CONTINUOUS
 62
     2
 10
1423.431625984
 20
1333.873335986
 11
1420.19638792
 21
1345.947408815
  0
LINE
  8
0
  6
CONTINUOUS
 62
     2
 10
1423.431625984
 20
1333.873335986
 11
1423.431625984
 21
1428.873335986
  0
LINE
  8
0
  6
CONTINUOUS
 62
     2
 10
1423.431625984
 20
1428.873335986
 11
1420.19638792
 21
1416.799263157
  0
LINE
  8
0
  6
CONTINUOUS
 62
     2
 10
1423.431625984
 20
1428.873335986
 11
1426.666864047
 21
1416.799263157
  0
LINE
  8
0
  6
CONTINUOUS
 62
     2
 10
1360.431625984
 20
1428.873335986
 11
1430.931625984
 21
1428.873335986
  0
LINE
  8
0
  6
CONTINUOUS
 62
     2
 10
1312.931625984
 20
1309.673335986
 11
1312.931625984
 21
1266.873335986
  0
LINE
  8
0
  6
CONTINUOUS
 62
     2
 10
1312.931625984
 20
1274.373335986
 11
1325.005698812
 21
1271.138097922
  0
LINE
  8
0
  6
CONTINUOUS
 62
     2
 10
1312.931625984
 20
1274.373335986
 11
1325.005698812
 21
1277.60857405
  0
LINE
  8
0
  6
CONTINUOUS
 62
     2
 10
1312.931625984
 20
1274.373335986
 11
1362.931625984
 21
1274.373335986
  0
LINE
  8
0
  6
CONTINUOUS
 62
     2
 10
1362.931625984
 20
1274.373335986
 11
1350.857553155
 21
1277.60857405
  0
LINE
  8
0
  6
CONTINUOUS
 62
     2
 10
1362.931625984
 20
1274.373335986
 11
1350.857553155
 21
1271.138097922
  0
LINE
  8
0
  6
CONTINUOUS
 62
     2
 10
1362.931625984
 20
1336.373335986
 11
1362.931625984
 21
1266.873335986
  0
LINE
  8
0
  6
CONTINUOUS
 62
     2
 10
1312.931625984
 20
1274.373335986
 11
1300.857553155
 21
1277.60857405
  0
LINE
  8
0
  6
CONTINUOUS
 62
     2
 10
1312.931625984
 20
1274.373335986
 11
1300.857553155
 21
1271.138097922
  0
LINE
  8
0
  6
CONTINUOUS
 62
     2
 10
1312.931625984
 20
1274.373335986
 11
1222.931625984
 21
1274.373335986
  0
LINE
  8
0
  6
CONTINUOUS
 62
     2
 10
1222.931625984
 20
1274.373335986
 11
1235.005698812
 21
1271.138097922
  0
LINE
  8
0
  6
CONTINUOUS
 62
     2
 10
1222.931625984
 20
1274.373335986
 11
1235.005698812
 21
1277.60857405
  0
LINE
  8
0
  6
CONTINUOUS
 62
     2
 10
1222.931625984
 20
1333.488335986
 11
1222.931625984
 21
1266.873335986
  0
LINE
  8
0
  6
CONTINUOUS
 62
     2
 10
1302.931625984
 20
1398.373335986
 11
1302.41820195
 21
1410.862787366
  0
LINE
  8
0
  6
CONTINUOUS
 62
     2
 10
1302.931625984
 20
1398.373335986
 11
1296.242262038
 21
1408.932806143
  0
LINE
  8
0
  6
CONTINUOUS
 62
     2
 10
1302.931625984
 20
1398.373335986
 11
1277.931625984
 21
1478.373335986
  0
LINE
  8
0
  6
CONTINUOUS
 62
     2
 10
1277.931625984
 20
1478.373335986
 11
1189.431625984
 21
1478.373335986
  0
LINE
  8
0
  6
CONTINUOUS
 62
     1
 10
1084.082127363
 20
1150.764484461
 11
1089.657842324
 21
1171.573335986
  0
LINE
  8
0
  6
CONTINUOUS
 62
     1
 10
1089.657842324
 20
1171.573335986
 11
1095.016826173
 21
1151.573335986
  0
LINE
  8
0
  6
CONTINUOUS
 62
     1
 10
1069.082127363
 20
1150.664484461
 11
1084.082127363
 21
1150.664484461
  0
LINE
  8
0
  6
CONTINUOUS
 62
     1
 10
1072.890304153
 20
1150.752449668
 11
1072.890304153
 21
1151.952449668
  0
POINT
  8
0
  6
CONTINUOUS
 62
     1
 10
1072.890304153
 20
1151.952449668
  0
LINE
  8
0
  6
CONTINUOUS
 62
     1
 10
1072.890304153
 20
1151.952449668
 11
1080.790304153
 21
1151.952449668
  0
POINT
  8
0
  6
CONTINUOUS
 62
     1
 10
1080.790304153
 20
1151.952449668
  0
LINE
  8
0
  6
CONTINUOUS
 62
     1
 10
1080.790304153
 20
1151.952449668
 11
1080.790304153
 21
1151.052449668
  0
LINE
  8
0
  6
CONTINUOUS
 62
     1
 10
1162.932435777
 20
1079.073335986
 11
1162.932435777
 21
1009.073335986
  0
LINE
  8
0
  6
CONTINUOUS
 62
     1
 10
1084.082127363
 20
1007.382187511
 11
1089.657842324
 21
986.573335986
  0
LINE
  8
0
  6
CONTINUOUS
 62
     1
 10
1089.657842324
 20
986.573335986
 11
1095.016826173
 21
1006.573335986
  0
LINE
  8
0
  6
CONTINUOUS
 62
     1
 10
1069.082127363
 20
1007.482187511
 11
1084.082127363
 21
1007.482187511
  0
LINE
  8
0
  6
CONTINUOUS
 62
     1
 10
1072.890304153
 20
1007.394222304
 11
1072.890304153
 21
1006.194222304
  0
POINT
  8
0
  6
CONTINUOUS
 62
     1
 10
1072.890304153
 20
1006.194222304
  0
LINE
  8
0
  6
CONTINUOUS
 62
     1
 10
1072.890304153
 20
1006.194222304
 11
1080.790304153
 21
1006.194222304
  0
POINT
  8
0
  6
CONTINUOUS
 62
     1
 10
1080.790304153
 20
1006.194222304
  0
LINE
  8
0
  6
CONTINUOUS
 62
     1
 10
1080.790304153
 20
1006.194222304
 11
1080.790304153
 21
1007.094222304
  0
LINE
  8
0
  6
CONTINUOUS
 62
     1
 10
1072.890304153
 20
1149.073335986
 11
1072.890304153
 21
1079.073335986
  0
LINE
  8
0
  6
CONTINUOUS
 62
     1
 10
1084.082127363
 20
1150.764484461
 11
1084.082127363
 21
1079.073335986
  0
LINE
  8
0
  6
CONTINUOUS
 62
     1
 10
1080.790304153
 20
1151.052449668
 11
1080.790304153
 21
1079.073335986
  0
LINE
  8
0
  6
CONTINUOUS
 62
     1
 10
1089.657842324
 20
1171.573335986
 11
1089.657842324
 21
1079.073335986
  0
LINE
  8
0
  6
CONTINUOUS
 62
     1
 10
1095.686699154
 20
1149.073335986
 11
1095.686699154
 21
1079.073335986
  0
LINE
  8
0
  6
CONTINUOUS
 62
     1
 10
1127.932435777
 20
1079.073335986
 11
1127.932435777
 21
1009.073335986
  0
LINE
  8
7
  6
CONTINUOUS
 62
     2
 10
1129.932435777
 20
1171.573335986
 11
1129.432435777
 21
1171.573335986
  0
LINE
  8
7
  6
CONTINUOUS
 62
     2
 10
1077.657842324
 20
1171.573335986
 11
944.932435777
 21
1171.573335986
  0
LINE
  8
7
  6
CONTINUOUS
 62
     2
 10
956.932435777
 20
1171.573335986
 11
951.756054875
 21
1152.25481946
  0
LINE
  8
7
  6
CONTINUOUS
 62
     2
 10
956.932435777
 20
1171.573335986
 11
962.108816679
 21
1152.25481946
  0
LINE
  8
7
  6
CONTINUOUS
 62
     2
 10
956.932435777
 20
1171.573335986
 11
956.932435777
 21
986.573335986
  0
LINE
  8
7
  6
CONTINUOUS
 62
     2
 10
956.932435777
 20
986.573335986
 11
962.108816679
 21
1005.891852512
  0
LINE
  8
7
  6
CONTINUOUS
 62
     2
 10
956.932435777
 20
986.573335986
 11
951.756054875
 21
1005.891852512
  0
LINE
  8
7
  6
CONTINUOUS
 62
     2
 10
1077.657842324
 20
986.573335986
 11
944.932435777
 21
986.573335986
  0
LINE
  8
0
  6
CONTINUOUS
 62
     1
 10
1069.082127363
 20
1091.073335986
 11
1069.082127363
 21
1079.073335986
  0
LINE
  8
0
  6
CONTINUOUS
 62
     1
 10
1069.082127363
 20
1150.664484461
 11
1069.082127363
 21
1079.073335986
  0
LINE
  8
0
  6
CONTINUOUS
 62
     1
 10
1167.267835516
 20
1171.573335986
 11
1161.908851668
 21
1151.573335986
  0
LINE
  8
0
  6
CONTINUOUS
 62
     1
 10
1161.908851668
 20
1151.573335986
 11
1161.908851668
 21
1079.073335986
  0
LINE
  8
0
  6
CONTINUOUS
 62
     1
 10
1167.267835516
 20
1171.573335986
 11
1167.267835516
 21
1079.073335986
  0
LINE
  8
0
  6
CONTINUOUS
 62
     1
 10
1184.990304153
 20
1127.452449668
 11
1184.990304153
 21
1129.352449668
  0
POINT
  8
0
  6
CONTINUOUS
 62
     1
 10
1184.990304153
 20
1129.352449668
  0
LINE
  8
0
  6
CONTINUOUS
 62
     1
 10
1184.990304153
 20
1129.352449668
 11
1193.190304153
 21
1129.352449668
  0
POINT
  8
0
  6
CONTINUOUS
 62
     1
 10
1193.190304153
 20
1129.352449668
  0
LINE
  8
0
  6
CONTINUOUS
 62
     1
 10
1193.190304153
 20
1129.352449668
 11
1193.190304153
 21
1127.652449668
  0
LINE
  8
0
  6
CONTINUOUS
 62
     1
 10
1185.290304153
 20
1127.590712901
 11
1181.832435777
 21
1127.590712901
  0
LINE
  8
0
  6
CONTINUOUS
 62
     1
 10
1181.732435777
 20
1127.590712901
 11
1167.267835516
 21
1171.573335986
  0
LINE
  8
0
  6
CONTINUOUS
 62
     1
 10
1181.732435777
 20
1127.590712901
 11
1181.732435777
 21
1079.073335986
  0
LINE
  8
0
  6
CONTINUOUS
 62
     1
 10
1193.190304153
 20
1129.352449668
 11
1193.190304153
 21
1079.073335986
  0
LINE
  8
0
  6
CONTINUOUS
 62
     1
 10
1184.990304153
 20
1127.590712901
 11
1184.990304153
 21
1079.073335986
  0
LINE
  8
0
  6
CONTINUOUS
 62
     1
 10
1167.267835516
 20
986.573335986
 11
1161.908851668
 21
1006.573335986
  0
LINE
  8
0
  6
CONTINUOUS
 62
     1
 10
1196.832435777
 20
1033.555959071
 11
1181.832435777
 21
1033.555959071
  0
LINE
  8
0
  6
CONTINUOUS
 62
     1
 10
1184.990304153
 20
1033.694222304
 11
1184.990304153
 21
1031.794222304
  0
POINT
  8
0
  6
CONTINUOUS
 62
     1
 10
1184.990304153
 20
1031.794222304
  0
LINE
  8
0
  6
CONTINUOUS
 62
     1
 10
1184.990304153
 20
1031.794222304
 11
1193.190304153
 21
1031.794222304
  0
POINT
  8
0
  6
CONTINUOUS
 62
     1
 10
1193.190304153
 20
1031.794222304
  0
LINE
  8
0
  6
CONTINUOUS
 62
     1
 10
1193.190304153
 20
1031.794222304
 11
1193.190304153
 21
1033.494222304
  0
LINE
  8
0
  6
CONTINUOUS
 62
     1
 10
1181.732435777
 20
1033.555959071
 11
1167.267835516
 21
986.573335986
  0
LINE
  8
0
  6
LTYPE4
 62
     2
 10
1089.657842324
 20
1171.573335986
 11
1167.267835516
 21
1171.573335986
  0
LINE
  8
0
  6
LTYPE4
 62
     2
 10
1089.657842324
 20
986.573335986
 11
1167.267835516
 21
986.573335986
  0
LINE
  8
0
  6
LTYPE4
 62
     2
 10
1095.016826173
 20
1151.573335986
 11
1161.908851668
 21
1151.573335986
  0
LINE
  8
0
  6
LTYPE4
 62
     2
 10
1095.016826173
 20
1006.573335986
 11
1161.908851668
 21
1006.573335986
  0
LINE
  8
0
  6
CONTINUOUS
 62
     1
 10
1196.931625984
 20
1079.073335986
 11
1212.931625984
 21
1079.073335986
  0
LINE
  8
0
  6
CONTINUOUS
 62
     1
 10
1069.082127363
 20
1009.073335986
 11
1162.932435777
 21
1009.073335986
  0
LINE
  8
0
  6
CONTINUOUS
 62
     2
 10
1162.931625984
 20
736.073335986
 11
1150.857553155
 21
739.30857405
  0
LINE
  8
0
  6
CONTINUOUS
 62
     2
 10
1162.931625984
 20
736.073335986
 11
1150.857553155
 21
732.838097922
  0
TEXT
  8
0
  6
CONTINUOUS
 62
     2
 10
1709.431625984
 20
719.573335986
 30
6.171428571
 40
21.6
  1
１。運転時は必ずピストンロッドの回転防止を行って下さい。
 50
0.0
 41
0.857142857
 51
0.0
  7
KANJI36
  0
TEXT
  8
0
  6
CONTINUOUS
 62
     2
 10
1709.431625984
 20
682.773335986
 30
6.156
 40
21.6
  1
２。形式表示ストロークは機械的最大ストロークです。
 50
0.0
 41
0.857222222
 51
0.0
  7
KANJI37
  0
TEXT
  8
0
  6
CONTINUOUS
 62
     2
 10
1709.431625984
 20
650.733335986
 30
6.156
 40
21.6
  1
　　実際に使用する場合は惰行距離を含め、両端に十分余裕を
 50
0.0
 41
0.857222222
 51
0.0
  7
KANJI37
  0
TEXT
  8
0
  6
CONTINUOUS
 62
     2
 10
1709.431625984
 20
618.933335986
 30
6.156
 40
21.6
  1
　　みて下さい。
 50
0.0
 41
0.857222222
 51
0.0
  7
KANJI37
  0
LINE
  8
0
  6
LTYPE2
 62
     2
 10
241.031625984
 20
1079.073335986
 11
790.931625984
 21
1079.073335986
  0
TEXT
  8
0
  6
CONTINUOUS
 62
     2
 10
411.681625984
 20
1259.198335986
 30
1.8
 40
19.2
  1
φ９０ｄ９
 50
0.0
 41
0.875
 51
0.0
  7
KANJI38
  0
TEXT
  8
0
  6
CONTINUOUS
 62
     2
 10
322.031625984
 20
1380.698335986
 30
1.8
 40
19.2
  1
φ３４ｈ７
 50
0.0
 41
0.875
 51
0.0
  7
KANJI38
  0
TEXT
  8
0
  6
CONTINUOUS
 62
     2
 10
812.131625984
 20
1057.323335986
 30
1.8
 40
19.2
  1
１４０
 50
90.0
 41
0.875
 51
0.0
  7
KANJI38
  0
TEXT
  8
7
  6
CONTINUOUS
 62
     2
 10
948.932435777
 20
1032.273335986
 30
1.8
 40
19.2
  1
φ１８５
 50
90.0
 41
0.875
 51
0.0
  7
KANJI38
  0
TEXT
  8
0
  6
CONTINUOUS
 62
     2
 10
202.731625984
 20
1056.573335986
 30
1.8
 40
19.2
  1
３００
 50
90.0
 41
0.875
 51
0.0
  7
KANJI38
  0
TEXT
  8
0
  6
CONTINUOUS
 62
     2
 10
202.731625984
 20
893.323335986
 30
1.8
 40
19.2
  1
４２
 50
90.0
 41
0.875
 51
0.0
  7
KANJI38
  0
TEXT
  8
7
  6
CONTINUOUS
 62
     2
 10
202.731625984
 20
851.823335986
 30
1.8
 40
19.2
  1
６
 50
90.0
 41
0.875
 51
0.0
  7
KANJI38
  0
TEXT
  8
0
  6
CONTINUOUS
 62
     2
 10
202.731625984
 20
1240.423335986
 30
1.8
 40
19.2
  1
４２
 50
90.0
 41
0.875
 51
0.0
  7
KANJI38
  0
TEXT
  8
7
  6
CONTINUOUS
 62
     2
 10
202.731625984
 20
1291.323335986
 30
1.8
 40
19.2
  1
６
 50
90.0
 41
0.875
 51
0.0
  7
KANJI38
  0
TEXT
  8
0
  6
CONTINUOUS
 62
     2
 10
157.731625984
 20
1056.573335986
 30
1.8
 40
19.2
  1
５１６
 50
90.0
 41
0.875
 51
0.0
  7
KANJI38
  0
TEXT
  8
0
  6
CONTINUOUS
 62
     2
 10
659.681625984
 20
741.073335986
 30
1.8
 40
19.2
  1
Ｃ
 50
0.0
 41
0.875
 51
0.0
  7
KANJI38
  0
TEXT
  8
0
  6
CONTINUOUS
 62
     2
 10
719.681625984
 20
706.573335986
 30
1.8
 40
19.2
  1
ｍｉｎ．Ｌ
 50
0.0
 41
0.875
 51
0.0
  7
KANJI38
  0
TEXT
  8
0
  6
CONTINUOUS
 62
     2
 10
903.846047083
 20
1233.573335986
 30
1.8
 40
19.2
  1
給脂口
 50
0.0
 41
0.875
 51
0.0
  7
KANJI38
  0
TEXT
  8
0
  6
CONTINUOUS
 62
     2
 10
1253.681625984
 20
1279.373335986
 30
1.8
 40
19.2
  1
９０
 50
0.0
 41
0.875
 51
0.0
  7
KANJI38
  0
TEXT
  8
0
  6
CONTINUOUS
 62
     2
 10
1323.681625984
 20
1279.373335986
 30
1.8
 40
19.2
  1
５０
 50
0.0
 41
0.875
 51
0.0
  7
KANJI38
  0
TEXT
  8
0
  6
CONTINUOUS
 62
     2
 10
1418.431625984
 20
1359.623335986
 30
1.8
 40
19.2
  1
φ９５
 50
90.0
 41
0.875
 51
0.0
  7
KANJI38
  0
TEXT
  8
0
  6
CONTINUOUS
 62
     2
 10
1189.431625984
 20
1483.373335986
 30
1.8
 40
19.2
  1
φ４５Ｈ１０
 50
0.0
 41
0.875
 51
0.0
  7
KANJI38
  0
LINE
  8
0
  6
CONTINUOUS
 62
     2
 10
359.931625984
 20
736.073335986
 11
1162.931625984
 21
736.073335986
  0
LINE
  8
0
  6
CONTINUOUS
 62
     2
 10
1162.931625984
 20
1004.073335986
 11
1162.931625984
 21
725.573335986
  0
LINE
  8
0
  6
LTYPE2
 62
     2
 10
823.931625984
 20
1079.073335986
 11
921.931625984
 21
1079.073335986
  0
TEXT
  8
0
  6
CONTINUOUS
 62
     2
 10
311.031625984
 20
1451.993335986
 30
1.8
 40
19.2
  1
シャフト回転方向
 50
0.0
 41
0.875
 51
0.0
  7
KANJI38
  0
TEXT
  8
0
  6
CONTINUOUS
 62
     2
 10
1215.371625984
 20
1200.773335986
 30
1.8
 40
19.2
  1
ピストンロッド
 50
0.0
 41
0.875
 51
0.0
  7
KANJI38
  0
TEXT
  8
0
  6
CONTINUOUS
 62
     2
 10
1333.771625984
 20
1166.373335986
 30
1.8
 40
19.2
  1
出
 50
0.0
 41
0.875
 51
0.0
  7
KANJI38
  0
LINE
  8
0
  6
LTYPE1
 62
     2
 10
1248.971625984
 20
1144.373335986
 11
1325.771625984
 21
1144.373335986
  0
LINE
  8
0
  6
LTYPE1
 62
     2
 10
1245.771625984
 20
1144.373335986
 11
1268.953845815
 21
1138.161678904
  0
LINE
  8
0
  6
LTYPE1
 62
     2
 10
1245.771625984
 20
1144.373335986
 11
1268.953845815
 21
1150.584993068
  0
TEXT
  8
0
  6
CONTINUOUS
 62
     2
 10
1333.771625984
 20
1137.973335986
 30
1.8
 40
19.2
  1
入
 50
0.0
 41
0.875
 51
0.0
  7
KANJI38
  0
LINE
  8
0
  6
CONTINUOUS
 62
     2
 10
321.431625984
 20
1436.993335986
 11
398.231625984
 21
1436.993335986
  0
LINE
  8
0
  6
CONTINUOUS
 62
     2
 10
398.231625984
 20
1436.993335986
 11
375.049406153
 21
1443.204993068
  0
LINE
  8
0
  6
CONTINUOUS
 62
     2
 10
398.231625984
 20
1436.993335986
 11
375.049406153
 21
1430.781678904
  0
TEXT
  8
0
  6
CONTINUOUS
 62
     2
 10
1137.931625984
 20
707.073335986
 30
1.8
 40
19.2
  1
ｍｉｎ．Ｐ
 50
0.0
 41
0.875
 51
0.0
  7
KANJI38
  0
LINE
  8
0
  6
LTYPE2
 62
     2
 10
964.431625984
 20
1079.073335986
 11
1430.931625984
 21
1079.073335986
  0
LINE
  8
0
  6
CONTINUOUS
 62
     2
 10
314.931625984
 20
1254.198335986
 11
474.848421269
 21
1254.198335986
  0
LINE
  8
0
  6
LTYPE3
 62
     2
 10
764.431625984
 20
1444.373335986
 11
764.431625984
 21
1556.373335986
  0
LINE
  8
0
  6
CONTINUOUS
 62
     1
 10
753.231625984
 20
1541.173335986
 11
775.631625984
 21
1541.173335986
  0
LINE
  8
0
  6
CONTINUOUS
 62
     1
 10
775.631625984
 20
1526.773335986
 11
775.631625984
 21
1541.173335986
  0
LINE
  8
0
  6
CONTINUOUS
 62
     1
 10
753.231625984
 20
1526.773335986
 11
775.631625984
 21
1526.773335986
  0
LINE
  8
0
  6
CONTINUOUS
 62
     1
 10
753.231625984
 20
1526.773335986
 11
753.231625984
 21
1541.173335986
  0
ARC
  8
0
  6
CONTINUOUS
 62
     1
 10
764.431625984
 20
1497.173335986
 40
38.4
 50
106.9577633
 51
73.0422367
  0
ARC
  8
0
  6
CONTINUOUS
 62
     2
 10
764.431625984
 20
1497.173335986
 40
38.4
 50
73.0422367
 51
90.000051715
  0
TEXT
  8
0
  6
CONTINUOUS
 62
     2
 10
710.631625984
 20
1400.973335986
 30
0.0
 40
24.0
  1
入力シャフト
 50
0.0
 41
0.9
 51
0.0
  7
KANJI39
  0
LINE
  8
0
  6
CONTINUOUS
 62
     2
 10
711.631625984
 20
1394.773335986
 11
835.631625984
 21
1394.773335986
  0
TEXT
  8
0
  6
CONTINUOUS
 62
     2
 10
732.031625984
 20
1372.773335986
 30
0.0
 40
14.4
  1
新ＪＩＳキー付
 50
0.0
 41
0.9
 51
0.0
  7
KANJI40
  0
TEXT
  8
0
  6
CONTINUOUS
 62
     2
 10
700.831625984
 20
1527.493335986
 30
1.8
 40
19.2
  1
８
 50
90.0
 41
0.875
 51
0.0
  7
KANJI38
  0
LINE
  8
0
  6
CONTINUOUS
 62
     2
 10
705.631625984
 20
1526.773335986
 11
708.737454525
 21
1515.182226071
  0
LINE
  8
0
  6
CONTINUOUS
 62
     2
 10
705.631625984
 20
1526.773335986
 11
702.525797442
 21
1515.182226071
  0
LINE
  8
0
  6
CONTINUOUS
 62
     2
 10
705.631625984
 20
1541.173335986
 11
702.525797442
 21
1552.764445901
  0
LINE
  8
0
  6
CONTINUOUS
 62
     2
 10
705.631625984
 20
1541.173335986
 11
708.737454525
 21
1552.764445901
  0
LINE
  8
0
  6
CONTINUOUS
 62
     2
 10
705.631625984
 20
1512.373335986
 11
705.631625984
 21
1555.873335986
  0
TEXT
  8
0
  6
CONTINUOUS
 62
     2
 10
750.991625984
 20
1588.173335986
 30
1.8
 40
19.2
  1
１０
 50
0.0
 41
0.875
 51
0.0
  7
KANJI38
  0
LINE
  8
0
  6
CONTINUOUS
 62
     2
 10
753.231625984
 20
1583.373335986
 11
741.640516068
 21
1580.267507445
  0
LINE
  8
0
  6
CONTINUOUS
 62
     2
 10
753.231625984
 20
1583.373335986
 11
741.640516068
 21
1586.479164527
  0
LINE
  8
0
  6
CONTINUOUS
 62
     2
 10
775.631625984
 20
1583.373335986
 11
787.222735899
 21
1586.479164527
  0
LINE
  8
0
  6
CONTINUOUS
 62
     2
 10
775.631625984
 20
1583.373335986
 11
787.222735899
 21
1580.267507445
  0
LINE
  8
0
  6
CONTINUOUS
 62
     2
 10
793.631625984
 20
1583.373335986
 11
730.831625984
 21
1583.373335986
  0
LINE
  8
0
  6
CONTINUOUS
 62
     2
 10
753.231625984
 20
1544.873335986
 11
753.231625984
 21
1590.573335986
  0
LINE
  8
0
  6
CONTINUOUS
 62
     2
 10
775.631625984
 20
1544.873335986
 11
775.631625984
 21
1590.573335986
  0
LINE
  8
0
  6
CONTINUOUS
 62
     2
 10
750.131625984
 20
1541.173335986
 11
698.431625984
 21
1541.173335986
  0
LINE
  8
0
  6
CONTINUOUS
 62
     2
 10
750.631625984
 20
1526.773335986
 11
698.431625984
 21
1526.773335986
  0
LINE
  8
0
  6
CONTINUOUS
 62
     2
 10
838.831625984
 20
1535.573335986
 11
841.937454525
 21
1547.164445901
  0
LINE
  8
0
  6
CONTINUOUS
 62
     2
 10
838.831625984
 20
1535.573335986
 11
835.725797442
 21
1547.164445901
  0
LINE
  8
0
  6
CONTINUOUS
 62
     2
 10
838.831625984
 20
1526.773335986
 11
835.725797442
 21
1515.182226071
  0
LINE
  8
0
  6
CONTINUOUS
 62
     2
 10
838.831625984
 20
1526.773335986
 11
841.937454525
 21
1515.182226071
  0
LINE
  8
0
  6
CONTINUOUS
 62
     2
 10
838.831625984
 20
1582.373335986
 11
838.831625984
 21
1508.773335986
  0
TEXT
  8
0
  6
CONTINUOUS
 62
     2
 10
835.306625984
 20
1556.793335986
 30
0.576
 40
8.64
  1
－０
 50
90.0
 41
0.9
 51
0.0
  7
KANJI41
  0
TEXT
  8
0
  6
CONTINUOUS
 62
     2
 10
826.666625984
 20
1556.793335986
 30
0.576
 40
8.64
  1
＋０．２
 50
90.0
 41
0.9
 51
0.0
  7
KANJI41
  0
TEXT
  8
0
  6
CONTINUOUS
 62
     2
 10
834.031625984
 20
1539.973335986
 30
1.8
 40
19.2
  1
５
 50
90.0
 41
0.875
 51
0.0
  7
KANJI38
  0
LINE
  8
0
  6
CONTINUOUS
 62
     2
 10
764.431625984
 20
1535.573335986
 11
846.031625984
 21
1535.573335986
  0
LINE
  8
0
  6
CONTINUOUS
 62
     2
 10
777.931625984
 20
1526.773335986
 11
846.031625984
 21
1526.773335986
  0
LINE
  8
0
  6
LTYPE3
 62
     2
 10
714.431625984
 20
1497.173335986
 11
816.931625984
 21
1497.173335986
  0
LINE
  8
0
  6
CONTINUOUS
 62
     1
 10
1620.131625984
 20
949.073335986
 11
1768.131625984
 21
949.073335986
  0
LINE
  8
0
  6
CONTINUOUS
 62
     1
 10
1768.131625984
 20
978.355695396
 11
1768.131625984
 21
929.073335986
  0
LINE
  8
0
  6
CONTINUOUS
 62
     1
 10
1620.131625984
 20
929.073335986
 11
1768.131625984
 21
929.073335986
  0
LINE
  8
0
  6
CONTINUOUS
 62
     1
 10
1620.131625984
 20
978.873335986
 11
1620.131625984
 21
929.073335986
  0
LINE
  8
0
  6
CONTINUOUS
 62
     1
 10
1649.131625984
 20
929.073335986
 11
1649.131625984
 21
887.073335986
  0
LINE
  8
0
  6
CONTINUOUS
 62
     1
 10
1676.631625984
 20
887.073335986
 11
1676.631625984
 21
884.073335986
  0
LINE
  8
0
  6
CONTINUOUS
 62
     1
 10
1677.131625984
 20
884.073335986
 11
1677.131625984
 21
824.073335986
  0
LINE
  8
0
  6
CONTINUOUS
 62
     1
 10
1677.131625984
 20
824.073335986
 11
1694.131625984
 21
824.073335986
  0
LINE
  8
0
  6
CONTINUOUS
 62
     1
 10
1676.631625984
 20
884.073335986
 11
1694.131625984
 21
884.073335986
  0
LINE
  8
0
  6
CONTINUOUS
 62
     1
 10
1649.131625984
 20
887.073335986
 11
1694.131625984
 21
887.073335986
  0
LINE
  8
0
  6
CONTINUOUS
 62
     1
 10
1739.331625984
 20
929.073335986
 11
1739.331625984
 21
887.073335986
  0
LINE
  8
0
  6
CONTINUOUS
 62
     1
 10
1711.831625984
 20
887.073335986
 11
1711.831625984
 21
884.073335986
  0
LINE
  8
0
  6
CONTINUOUS
 62
     1
 10
1711.331625984
 20
884.073335986
 11
1711.331625984
 21
824.073335986
  0
LINE
  8
0
  6
CONTINUOUS
 62
     1
 10
1711.331625984
 20
824.073335986
 11
1694.331625984
 21
824.073335986
  0
LINE
  8
0
  6
CONTINUOUS
 62
     1
 10
1711.831625984
 20
884.073335986
 11
1694.331625984
 21
884.073335986
  0
LINE
  8
0
  6
CONTINUOUS
 62
     1
 10
1739.331625984
 20
887.073335986
 11
1694.331625984
 21
887.073335986
  0
LINE
  8
0
  6
CONTINUOUS
 62
     1
 10
1620.131625984
 20
1209.073335986
 11
1768.131625984
 21
1209.073335986
  0
LINE
  8
0
  6
CONTINUOUS
 62
     1
 10
1768.131625984
 20
1179.790976576
 11
1768.131625984
 21
1229.073335986
  0
LINE
  8
0
  6
CONTINUOUS
 62
     1
 10
1620.131625984
 20
1229.073335986
 11
1768.131625984
 21
1229.073335986
  0
LINE
  8
0
  6
CONTINUOUS
 62
     1
 10
1620.131625984
 20
1179.273335986
 11
1620.131625984
 21
1229.073335986
  0
LINE
  8
0
  6
CONTINUOUS
 62
     1
 10
1649.131625984
 20
1229.073335986
 11
1649.131625984
 21
1271.073335986
  0
LINE
  8
0
  6
CONTINUOUS
 62
     1
 10
1676.631625984
 20
1271.073335986
 11
1676.631625984
 21
1274.073335986
  0
LINE
  8
0
  6
CONTINUOUS
 62
     1
 10
1677.131625984
 20
1274.073335986
 11
1677.131625984
 21
1334.073335986
  0
LINE
  8
0
  6
CONTINUOUS
 62
     1
 10
1677.131625984
 20
1334.073335986
 11
1694.131625984
 21
1334.073335986
  0
LINE
  8
0
  6
CONTINUOUS
 62
     1
 10
1676.631625984
 20
1274.073335986
 11
1694.131625984
 21
1274.073335986
  0
LINE
  8
0
  6
CONTINUOUS
 62
     1
 10
1649.131625984
 20
1271.073335986
 11
1694.131625984
 21
1271.073335986
  0
LINE
  8
0
  6
CONTINUOUS
 62
     1
 10
1739.331625984
 20
1229.073335986
 11
1739.331625984
 21
1271.073335986
  0
LINE
  8
0
  6
CONTINUOUS
 62
     1
 10
1711.831625984
 20
1271.073335986
 11
1711.831625984
 21
1274.073335986
  0
LINE
  8
0
  6
CONTINUOUS
 62
     1
 10
1711.331625984
 20
1274.073335986
 11
1711.331625984
 21
1334.073335986
  0
LINE
  8
0
  6
CONTINUOUS
 62
     1
 10
1711.331625984
 20
1334.073335986
 11
1694.331625984
 21
1334.073335986
  0
LINE
  8
0
  6
CONTINUOUS
 62
     1
 10
1711.831625984
 20
1274.073335986
 11
1694.331625984
 21
1274.073335986
  0
LINE
  8
0
  6
CONTINUOUS
 62
     1
 10
1739.331625984
 20
1271.073335986
 11
1694.331625984
 21
1271.073335986
  0
LINE
  8
0
  6
LTYPE2
 62
     2
 10
1694.131625984
 20
1362.873335986
 11
1694.131625984
 21
791.873335986
  0
LINE
  8
0
  6
LTYPE2
 62
     2
 10
1754.131625984
 20
955.260209722
 11
1754.131625984
 21
917.360209722
  0
LINE
  8
0
  6
LTYPE2
 62
     2
 10
1634.131625984
 20
953.260209722
 11
1634.131625984
 21
916.360209722
  0
LINE
  8
0
  6
LTYPE2
 62
     2
 10
1754.131625984
 20
1202.88646225
 11
1754.131625984
 21
1240.78646225
  0
LINE
  8
0
  6
LTYPE2
 62
     2
 10
1634.131625984
 20
1204.88646225
 11
1634.131625984
 21
1241.78646225
  0
LINE
  8
0
  6
CONTINUOUS
 62
     2
 10
1694.131625984
 20
1353.073335986
 11
1694.131625984
 21
1344.073335986
  0
LINE
  8
0
  6
CONTINUOUS
 62
     2
 10
1694.131625984
 20
1351.573335986
 11
1706.205698812
 21
1348.338097922
  0
LINE
  8
0
  6
CONTINUOUS
 62
     2
 10
1694.131625984
 20
1351.573335986
 11
1706.205698812
 21
1354.80857405
  0
LINE
  8
0
  6
CONTINUOUS
 62
     2
 10
1694.131625984
 20
1351.573335986
 11
1819.131625984
 21
1351.573335986
  0
LINE
  8
0
  6
CONTINUOUS
 62
     2
 10
1819.131625984
 20
1351.573335986
 11
1807.057553155
 21
1354.80857405
  0
LINE
  8
0
  6
CONTINUOUS
 62
     2
 10
1819.131625984
 20
1351.573335986
 11
1807.057553155
 21
1348.338097922
  0
LINE
  8
0
  6
CONTINUOUS
 62
     2
 10
1819.131625984
 20
1086.573335986
 11
1819.131625984
 21
1359.073335986
  0
CIRCLE
  8
0
  6
CONTINUOUS
 62
     1
 10
1694.131625984
 20
1079.073335986
 40
47.5
  0
LINE
  8
0
  6
CONTINUOUS
 62
     1
 10
1653.74288993
 20
1104.073335986
 11
1734.520362037
 21
1104.073335986
  0
LINE
  8
0
  6
CONTINUOUS
 62
     1
 10
1653.74288993
 20
1054.073335986
 11
1734.520362037
 21
1054.073335986
  0
ARC
  8
0
  6
CONTINUOUS
 62
     1
 10
1694.131625984
 20
1079.073335986
 40
42.5
 50
143.968120928
 51
216.031879072
  0
ARC
  8
0
  6
CONTINUOUS
 62
     1
 10
1694.131625984
 20
1079.073335986
 40
42.5
 50
323.968120928
 51
36.031879072
  0
LINE
  8
0
  6
LTYPE1
 62
     2
 10
1671.631625984
 20
1104.073335986
 11
1671.631625984
 21
1054.073335986
  0
LINE
  8
0
  6
LTYPE1
 62
     2
 10
1716.631625984
 20
1104.073335986
 11
1716.631625984
 21
1054.073335986
  0
LINE
  8
0
  6
CONTINUOUS
 62
     1
 10
1529.990955137
 20
1074.373317481
 11
1530.856980541
 21
1074.873317481
  0
LINE
  8
0
  6
CONTINUOUS
 62
     1
 10
1622.631971288
 20
993.914370642
 11
1622.718573829
 21
993.964370642
  0
TEXT
  8
0
  6
CONTINUOUS
 62
     2
 10
1734.881625984
 20
1356.573335986
 30
1.8
 40
19.2
  1
１３０
 50
0.0
 41
0.875
 51
0.0
  7
KANJI38
  0
LINE
  8
0
  6
CONTINUOUS
 62
     2
 10
1854.131625984
 20
884.073335986
 11
1854.131625984
 21
1274.073335986
  0
LINE
  8
0
  6
CONTINUOUS
 62
     2
 10
1854.131625984
 20
1274.073335986
 11
1850.89638792
 21
1261.999263157
  0
LINE
  8
0
  6
CONTINUOUS
 62
     2
 10
1854.131625984
 20
1274.073335986
 11
1857.366864047
 21
1261.999263157
  0
LINE
  8
0
  6
CONTINUOUS
 62
     2
 10
1854.131625984
 20
1274.073335986
 11
1857.366864047
 21
1286.147408815
  0
LINE
  8
0
  6
CONTINUOUS
 62
     2
 10
1854.131625984
 20
1274.073335986
 11
1850.89638792
 21
1286.147408815
  0
LINE
  8
0
  6
CONTINUOUS
 62
     2
 10
1854.131625984
 20
1274.073335986
 11
1854.131625984
 21
1334.073335986
  0
LINE
  8
0
  6
CONTINUOUS
 62
     2
 10
1854.131625984
 20
1334.073335986
 11
1850.89638792
 21
1321.999263157
  0
LINE
  8
0
  6
CONTINUOUS
 62
     2
 10
1854.131625984
 20
1334.073335986
 11
1857.366864047
 21
1321.999263157
  0
TEXT
  8
0
  6
CONTINUOUS
 62
     2
 10
1849.131625984
 20
1289.823335986
 30
1.8
 40
19.2
  1
６０
 50
90.0
 41
0.875
 51
0.0
  7
KANJI38
  0
LINE
  8
0
  6
CONTINUOUS
 62
     2
 10
1862.631625984
 20
1334.073335986
 11
1716.631625984
 21
1334.073335986
  0
LINE
  8
0
  6
CONTINUOUS
 62
     2
 10
1862.631625984
 20
1274.073335986
 11
1714.631625984
 21
1274.073335986
  0
LINE
  8
0
  6
CONTINUOUS
 62
     2
 10
1854.131625984
 20
884.073335986
 11
1857.366864047
 21
896.147408815
  0
LINE
  8
0
  6
CONTINUOUS
 62
     2
 10
1854.131625984
 20
884.073335986
 11
1850.89638792
 21
896.147408815
  0
LINE
  8
0
  6
CONTINUOUS
 62
     2
 10
1854.131625984
 20
884.073335986
 11
1850.89638792
 21
871.999263157
  0
LINE
  8
0
  6
CONTINUOUS
 62
     2
 10
1854.131625984
 20
884.073335986
 11
1857.366864047
 21
871.999263157
  0
LINE
  8
0
  6
CONTINUOUS
 62
     2
 10
1854.131625984
 20
884.073335986
 11
1854.131625984
 21
824.073335986
  0
LINE
  8
0
  6
CONTINUOUS
 62
     2
 10
1854.131625984
 20
824.073335986
 11
1857.366864047
 21
836.147408815
  0
LINE
  8
0
  6
CONTINUOUS
 62
     2
 10
1854.131625984
 20
824.073335986
 11
1850.89638792
 21
836.147408815
  0
TEXT
  8
0
  6
CONTINUOUS
 62
     2
 10
1849.131625984
 20
839.823335986
 30
1.8
 40
19.2
  1
６０
 50
90.0
 41
0.875
 51
0.0
  7
KANJI38
  0
LINE
  8
0
  6
CONTINUOUS
 62
     2
 10
1863.131625984
 20
884.073335986
 11
1714.131625984
 21
884.073335986
  0
LINE
  8
0
  6
CONTINUOUS
 62
     2
 10
1864.131625984
 20
824.073335986
 11
1715.631625984
 21
824.073335986
  0
ARC
  8
0
  6
CONTINUOUS
 62
     1
 10
1694.131625984
 20
1079.073335986
 40
92.5
 50
0.0
 51
179.201417976
  0
ARC
  8
0
  6
CONTINUOUS
 62
     1
 10
1694.131625984
 20
1079.073335986
 40
92.5
 50
240.798582024
 51
0.0
  0
ARC
  8
0
  6
CONTINUOUS
 62
     1
 10
1694.131625984
 20
1079.073335986
 40
125.0
 50
248.00100076
 51
0.0
  0
ARC
  8
0
  6
CONTINUOUS
 62
     1
 10
1694.131625984
 20
1079.073335986
 40
125.0
 50
0.0
 51
171.99899924
  0
TEXT
  8
0
  6
CONTINUOUS
 62
     2
 10
1793.431625984
 20
762.573335986
 30
12.0
 40
24.0
  1
特記事項
 50
0.0
 41
0.9
 51
0.0
  7
KANJI42
  0
LINE
  8
0
  6
CONTINUOUS
 62
     2
 10
420.505461507
 20
1143.073335986
 11
430.465887139
 21
1150.625813807
  0
LINE
  8
0
  6
CONTINUOUS
 62
     2
 10
420.505461507
 20
1143.073335986
 11
425.355204226
 21
1154.594186456
  0
LINE
  8
0
  6
CONTINUOUS
 62
     2
 10
420.505461507
 20
1143.073335986
 11
540.705461507
 21
1297.873335986
  0
TEXT
  8
0
  6
CONTINUOUS
 62
     2
 10
540.991040408
 20
1303.173335986
 30
1.5
 40
15.0
  1
給脂口兼点検口
 50
0.0
 41
0.9
 51
0.0
  7
KANJI43
  0
LINE
  8
0
  6
CONTINUOUS
 62
     2
 10
420.505461507
 20
1143.073335986
 11
540.938407244
 21
1298.173335986
  0
LINE
  8
0
  6
CONTINUOUS
 62
     2
 10
540.938407244
 20
1298.173335986
 11
644.491040408
 21
1298.173335986
  0
LINE
  8
0
  6
CONTINUOUS
 62
     1
 10
259.931625984
 20
1159.07640226
 11
259.931625984
 21
1149.27640226
  0
LINE
  8
0
  6
CONTINUOUS
 62
     1
 10
259.931625984
 20
1149.27640226
 11
254.31726663
 21
1149.27640226
  0
LINE
  8
0
  6
CONTINUOUS
 62
     1
 10
252.931625984
 20
1151.67640226
 11
254.31726663
 21
1149.27640226
  0
LINE
  8
0
  6
CONTINUOUS
 62
     1
 10
252.931625984
 20
1159.07640226
 11
252.931625984
 21
1151.67640226
  0
LINE
  8
0
  6
CONTINUOUS
 62
     1
 10
259.931625984
 20
1154.17640226
 11
254.31726663
 21
1154.17640226
  0
LINE
  8
0
  6
CONTINUOUS
 62
     1
 10
259.931625984
 20
1159.07640226
 11
259.931625984
 21
1168.87640226
  0
LINE
  8
0
  6
CONTINUOUS
 62
     1
 10
259.931625984
 20
1168.87640226
 11
254.31726663
 21
1168.87640226
  0
LINE
  8
0
  6
CONTINUOUS
 62
     1
 10
252.931625984
 20
1166.47640226
 11
254.31726663
 21
1168.87640226
  0
LINE
  8
0
  6
CONTINUOUS
 62
     1
 10
252.931625984
 20
1159.07640226
 11
252.931625984
 21
1166.47640226
  0
LINE
  8
0
  6
CONTINUOUS
 62
     1
 10
259.931625984
 20
1163.97640226
 11
254.31726663
 21
1163.97640226
  0
ARC
  8
0
  6
CONTINUOUS
 62
     1
 10
262.288308784
 20
1159.07640226
 40
9.3566828
 50
148.419912243
 51
211.580087757
  0
ARC
  8
0
  6
CONTINUOUS
 62
     1
 10
255.789509816
 20
1151.72640226
 40
2.858321186
 50
121.002313915
 51
182.989498403
  0
LINE
  8
0
  6
CONTINUOUS
 62
     1
 10
252.931625984
 20
1166.47640226
 11
254.31726663
 21
1168.87640226
  0
ARC
  8
0
  6
CONTINUOUS
 62
     1
 10
255.789509816
 20
1166.42640226
 40
2.858321186
 50
177.010501597
 51
238.997686085
  0
LINE
  8
0
  6
CONTINUOUS
 62
     1
 10
259.931625984
 20
999.47640226
 11
259.931625984
 21
1009.27640226
  0
LINE
  8
0
  6
CONTINUOUS
 62
     1
 10
259.931625984
 20
1009.27640226
 11
254.31726663
 21
1009.27640226
  0
LINE
  8
0
  6
CONTINUOUS
 62
     1
 10
252.931625984
 20
1006.87640226
 11
254.31726663
 21
1009.27640226
  0
LINE
  8
0
  6
CONTINUOUS
 62
     1
 10
252.931625984
 20
999.47640226
 11
252.931625984
 21
1006.87640226
  0
LINE
  8
0
  6
CONTINUOUS
 62
     1
 10
259.931625984
 20
1004.37640226
 11
254.31726663
 21
1004.37640226
  0
LINE
  8
0
  6
CONTINUOUS
 62
     1
 10
259.931625984
 20
999.47640226
 11
259.931625984
 21
989.67640226
  0
LINE
  8
0
  6
CONTINUOUS
 62
     1
 10
252.931625984
 20
992.07640226
 11
254.31726663
 21
989.67640226
  0
LINE
  8
0
  6
CONTINUOUS
 62
     1
 10
252.931625984
 20
999.47640226
 11
252.931625984
 21
992.07640226
  0
LINE
  8
0
  6
CONTINUOUS
 62
     1
 10
259.931625984
 20
994.57640226
 11
254.31726663
 21
994.57640226
  0
ARC
  8
0
  6
CONTINUOUS
 62
     1
 10
262.288308784
 20
999.47640226
 40
9.3566828
 50
148.419912243
 51
211.580087757
  0
ARC
  8
0
  6
CONTINUOUS
 62
     1
 10
255.789509816
 20
1006.82640226
 40
2.858321186
 50
177.010501597
 51
238.997686085
  0
LINE
  8
0
  6
CONTINUOUS
 62
     1
 10
252.931625984
 20
992.07640226
 11
254.31726663
 21
989.67640226
  0
ARC
  8
0
  6
CONTINUOUS
 62
     1
 10
255.789509816
 20
992.12640226
 40
2.858321186
 50
121.002313915
 51
182.989498403
  0
LINE
  8
0
  6
CONTINUOUS
 62
     1
 10
259.931625984
 20
1079.073335986
 11
259.931625984
 21
1204.073335986
  0
LINE
  8
0
  6
CONTINUOUS
 62
     1
 10
259.931625984
 20
1079.073335986
 11
259.931625984
 21
954.073335986
  0
LINE
  8
0
  6
CONTINUOUS
 62
     1
 10
259.931625984
 20
989.67640226
 11
254.31726663
 21
989.67640226
  0
LINE
  8
0
  6
CONTINUOUS
 62
     1
 10
259.931625984
 20
1204.073335986
 11
285.931625984
 21
1204.073335986
  0
LINE
  8
0
  6
CONTINUOUS
 62
     1
 10
259.931625984
 20
954.073335986
 11
285.931625984
 21
954.073335986
  0
LINE
  8
0
  6
CONTINUOUS
 62
     1
 10
269.931625984
 20
1079.073335986
 11
269.931625984
 21
954.073335986
  0
LINE
  8
2
  6
CONTINUOUS
 62
     2
 10
359.931625984
 20
701.573335986
 11
345.442738589
 21
705.455621663
  0
LINE
  8
2
  6
CONTINUOUS
 62
     2
 10
359.931625984
 20
701.573335986
 11
345.442738589
 21
697.691050309
  0
LINE
  8
2
  6
CONTINUOUS
 62
     2
 10
359.931625984
 20
701.573335986
 11
269.931625984
 21
701.573335986
  0
LINE
  8
2
  6
CONTINUOUS
 62
     2
 10
269.931625984
 20
701.573335986
 11
284.420513378
 21
697.691050309
  0
LINE
  8
2
  6
CONTINUOUS
 62
     2
 10
269.931625984
 20
701.573335986
 11
284.420513378
 21
705.455621663
  0
LINE
  8
2
  6
CONTINUOUS
 62
     2
 10
269.931625984
 20
948.073335986
 11
269.931625984
 21
689.573335986
  0
TEXT
  8
2
  6
CONTINUOUS
 62
     2
 10
294.831625984
 20
707.573335986
 30
1.8
 40
21.0
  1
９０
 50
0.0
 41
0.914285714
 51
0.0
  7
KANJI44
  0
LINE
  8
2
  6
CONTINUOUS
 62
     2
 10
259.931625984
 20
948.073335986
 11
259.931625984
 21
689.573335986
  0
LINE
  8
2
  6
CONTINUOUS
 62
     2
 10
259.931625984
 20
701.573335986
 11
245.442738589
 21
705.455621663
  0
LINE
  8
2
  6
CONTINUOUS
 62
     2
 10
259.931625984
 20
701.573335986
 11
245.442738589
 21
697.691050309
  0
TEXT
  8
2
  6
CONTINUOUS
 62
     2
 10
200.331625984
 20
707.573335986
 30
1.8
 40
21.0
  1
１０
 50
0.0
 41
0.914285714
 51
0.0
  7
KANJI44
  0
LINE
  8
2
  6
CONTINUOUS
 62
     2
 10
269.931625984
 20
701.573335986
 11
200.731625984
 21
701.573335986
  0
LINE
  8
2
  6
CONTINUOUS
 62
     2
 10
259.931625984
 20
653.873335986
 11
274.420513378
 21
649.991050309
  0
LINE
  8
2
  6
CONTINUOUS
 62
     2
 10
259.931625984
 20
653.873335986
 11
274.420513378
 21
657.755621663
  0
LINE
  8
2
  6
CONTINUOUS
 62
     2
 10
259.931625984
 20
695.573335986
 11
259.931625984
 21
641.873335986
  0
TEXT
  8
0
  6
CONTINUOUS
 62
     2
 10
657.181625984
 20
668.573335986
 30
1.8
 40
19.2
  1
ｍｉｎ．ＡＬ
 50
0.0
 41
0.875
 51
0.0
  7
KANJI38
  0
LINE
  8
0
  6
CONTINUOUS
 62
     1
 10
269.931625984
 20
1079.073335986
 11
269.931625984
 21
1204.073335986
  0
ARC
  8
0
  6
CONTINUOUS
 62
     1
 10
1556.131625984
 20
1085.073335986
 40
2.0
 50
270.0
 51
0.0
  0
LINE
  8
0
  6
CONTINUOUS
 62
     1
 10
1552.283799897
 20
1083.073335986
 11
1553.131625984
 21
1088.273335986
  0
LINE
  8
0
  6
LTYPE1
 62
     2
 10
1551.631625984
 20
1079.073335986
 11
1552.283799897
 21
1083.073335986
  0
LINE
  8
0
  6
LTYPE1
 62
     2
 10
1551.631625984
 20
1079.073335986
 11
1552.283799897
 21
1075.073335986
  0
LINE
  8
0
  6
CONTINUOUS
 62
     1
 10
1552.283799897
 20
1075.073335986
 11
1553.131625984
 21
1069.873335986
  0
ARC
  8
0
  6
CONTINUOUS
 62
     1
 10
1556.131625984
 20
1073.073335986
 40
2.0
 50
0.0
 51
90.0
  0
LINE
  8
0
  6
CONTINUOUS
 62
     1
 10
1558.036746071
 20
1069.312750833
 11
1553.131625984
 21
1069.873335986
  0
LINE
  8
0
  6
CONTINUOUS
 62
     1
 10
1569.9
 20
1090.189721588
 11
1553.131625984
 21
1088.273335986
  0
LINE
  8
0
  6
CONTINUOUS
 62
     1
 10
1569.5
 20
1068.00266467
 11
1558.036746071
 21
1069.312750833
  0
ARC
  8
0
  6
CONTINUOUS
 62
     1
 10
1498.131625984
 20
1079.073335986
 40
4.0
 50
90.0
 51
270.0
  0
ARC
  8
0
  6
LTYPE1
 62
     2
 10
1498.131625984
 20
1079.073335986
 40
4.0
 50
270.0
 51
90.0
  0
ARC
  8
0
  6
CONTINUOUS
 62
     1
 10
1498.131625984
 20
1079.073335986
 40
4.0
 50
90.0
 51
270.0
  0
LINE
  8
0
  6
CONTINUOUS
 62
     1
 10
1556.131625984
 20
1083.073335986
 11
1498.731625984
 21
1083.073335986
  0
LINE
  8
0
  6
CONTINUOUS
 62
     1
 10
1556.131625984
 20
1075.073335986
 11
1497.931625984
 21
1075.073335986
  0
LINE
  8
0
  6
LTYPE2
 62
     2
 10
1471.231625984
 20
1079.073335986
 11
1834.131625984
 21
1079.073335986
  0
LINE
  8
2
  6
CONTINUOUS
 62
     2
 10
1694.131625984
 20
1351.573335986
 11
1708.620513378
 21
1347.691050309
  0
LINE
  8
2
  6
CONTINUOUS
 62
     2
 10
1694.131625984
 20
1351.573335986
 11
1708.620513378
 21
1355.455621663
  0
LINE
  8
2
  6
CONTINUOUS
 62
     2
 10
1716.631625984
 20
1351.573335986
 11
1694.131625984
 21
1351.573335986
  0
LINE
  8
2
  6
CONTINUOUS
 62
     2
 10
1694.131625984
 20
1351.573335986
 11
1494.131625984
 21
1351.573335986
  0
LINE
  8
2
  6
CONTINUOUS
 62
     2
 10
1494.131625984
 20
1085.073335986
 11
1494.131625984
 21
1363.573335986
  0
LINE
  8
2
  6
CONTINUOUS
 62
     2
 10
1694.131625984
 20
1351.573335986
 11
1671.631625984
 21
1351.573335986
  0
LINE
  8
2
  6
CONTINUOUS
 62
     2
 10
1694.131625984
 20
1351.573335986
 11
1679.642738589
 21
1355.455621663
  0
LINE
  8
2
  6
CONTINUOUS
 62
     2
 10
1694.131625984
 20
1351.573335986
 11
1679.642738589
 21
1347.691050309
  0
LINE
  8
2
  6
CONTINUOUS
 62
     2
 10
1494.131625984
 20
1351.573335986
 11
1516.631625984
 21
1351.573335986
  0
LINE
  8
2
  6
CONTINUOUS
 62
     2
 10
1494.131625984
 20
1351.573335986
 11
1508.620513378
 21
1355.455621663
  0
LINE
  8
2
  6
CONTINUOUS
 62
     2
 10
1494.131625984
 20
1351.573335986
 11
1508.620513378
 21
1347.691050309
  0
TEXT
  8
2
  6
CONTINUOUS
 62
     2
 10
1563.531625984
 20
1357.573335986
 30
1.8
 40
21.0
  1
２００
 50
0.0
 41
0.914285714
 51
0.0
  7
KANJI44
  0
LINE
  8
0
  6
CONTINUOUS
 62
     1
 10
1162.931625984
 20
1031.573335986
 11
1162.932435777
 21
1031.573335986
  0
TEXT
  8
0
  6
CONTINUOUS
 62
     2
 10
1849.131625984
 20
1056.573335986
 30
1.8
 40
19.2
  1
３９６
 50
90.0
 41
0.875
 51
0.0
  7
KANJI38
  0
LINE
  8
0
  6
CONTINUOUS
 62
     1
 10
388.431625984
 20
563.773335986
 11
1318.431625984
 21
563.773335986
  0
LINE
  8
0
  6
CONTINUOUS
 62
     1
 10
388.431625984
 20
521.773335986
 11
1318.431625984
 21
521.773335986
  0
LINE
  8
0
  6
CONTINUOUS
 62
     2
 10
388.431625984
 20
479.773335986
 11
1318.431625984
 21
479.773335986
  0
TEXT
  8
0
  6
CONTINUOUS
 62
     2
 10
614.031625984
 20
533.773335986
 30
1.8
 40
18.0
  1
ストローク
 50
0.0
 41
0.9
 51
0.0
  7
KANJI30
  0
TEXT
  8
0
  6
CONTINUOUS
 62
     2
 10
729.231625984
 20
532.573335986
 30
0.0
 40
18.0
  1
ｍｉｎ　
 50
0.0
 41
0.9
 51
0.0
  7
KANJI45
  0
TEXT
  8
0
  6
CONTINUOUS
 62
     2
 10
849.231625984
 20
532.573335986
 30
0.0
 40
18.0
  1
ｍｉｎ　
 50
0.0
 41
0.9
 51
0.0
  7
KANJI45
  0
TEXT
  8
0
  6
CONTINUOUS
 62
     2
 10
1089.231625984
 20
532.573335986
 30
0.0
 40
18.0
  1
ｍｉｎ　
 50
0.0
 41
0.9
 51
0.0
  7
KANJI45
  0
TEXT
  8
0
  6
CONTINUOUS
 62
     2
 10
1275.681625984
 20
535.123335986
 30
0.0
 40
14.4
  1
（ｋｇ）
 50
0.0
 41
0.777777778
 51
0.0
  7
KANJI46
  0
TEXT
  8
0
  6
CONTINUOUS
 62
     2
 10
1203.681625984
 20
533.023335986
 30
1.92
 40
19.2
  1
概算重量
 50
0.0
 41
0.9
 51
0.0
  7
KANJI47
  0
TEXT
  8
0
  6
CONTINUOUS
 62
     2
 10
430.431625984
 20
533.773335986
 30
1.92
 40
19.2
  1
形
 50
0.0
 41
0.9
 51
0.0
  7
KANJI47
  0
TEXT
  8
0
  6
CONTINUOUS
 62
     2
 10
547.431625984
 20
533.773335986
 30
1.92
 40
19.2
  1
式
 50
0.0
 41
0.9
 51
0.0
  7
KANJI47
  0
TEXT
  8
0
  6
CONTINUOUS
 62
     2
 10
790.431625984
 20
533.773335986
 30
2.1
 40
21.0
  1
ＡＬ
 50
0.0
 41
0.9
 51
0.0
  7
KANJI48
  0
TEXT
  8
0
  6
CONTINUOUS
 62
     2
 10
910.431625984
 20
533.773335986
 30
2.1
 40
21.0
  1
Ｌ
 50
0.0
 41
0.9
 51
0.0
  7
KANJI48
  0
TEXT
  8
0
  6
CONTINUOUS
 62
     2
 10
1012.431625984
 20
533.773335986
 30
2.1
 40
21.0
  1
Ｃ
 50
0.0
 41
0.9
 51
0.0
  7
KANJI48
  0
TEXT
  8
0
  6
CONTINUOUS
 62
     2
 10
1150.431625984
 20
533.773335986
 30
2.1
 40
21.0
  1
Ｐ
 50
0.0
 41
0.9
 51
0.0
  7
KANJI48
  0
TEXT
  8
0
  6
CONTINUOUS
 62
     2
 10
634.431625984
 20
489.823335986
 30
1.8
 40
18.0
  1
３００
 50
0.0
 41
0.9
 51
0.0
  7
KANJI30
  0
TEXT
  8
0
  6
CONTINUOUS
 62
     2
 10
634.431625984
 20
447.823335986
 30
1.8
 40
18.0
  1
５００
 50
0.0
 41
0.9
 51
0.0
  7
KANJI30
  0
TEXT
  8
0
  6
CONTINUOUS
 62
     2
 10
1123.281625984
 20
492.523335986
 30
1.8
 40
18.0
  1
５０
 50
0.0
 41
0.9
 51
0.0
  7
KANJI30
  0
TEXT
  8
0
  6
CONTINUOUS
 62
     2
 10
1105.281625984
 20
451.723335986
 30
1.8
 40
18.0
  1
１１２
 50
0.0
 41
0.9
 51
0.0
  7
KANJI30
  0
TEXT
  8
0
  6
CONTINUOUS
 62
     2
 10
872.931625984
 20
491.473335986
 30
1.8
 40
18.0
  1
　９５４
 50
0.0
 41
0.9
 51
0.0
  7
KANJI30
  0
TEXT
  8
0
  6
CONTINUOUS
 62
     2
 10
872.931625984
 20
449.473335986
 30
1.8
 40
18.0
  1
１２１６
 50
0.0
 41
0.9
 51
0.0
  7
KANJI30
  0
TEXT
  8
0
  6
CONTINUOUS
 62
     2
 10
992.631625984
 20
492.523335986
 30
1.8
 40
18.0
  1
８０４
 50
0.0
 41
0.9
 51
0.0
  7
KANJI30
  0
TEXT
  8
0
  6
CONTINUOUS
 62
     2
 10
974.631625984
 20
450.523335986
 30
1.8
 40
18.0
  1
１００４
 50
0.0
 41
0.9
 51
0.0
  7
KANJI30
  0
TEXT
  8
0
  6
CONTINUOUS
 62
     2
 10
752.331625984
 20
490.273335986
 30
1.8
 40
18.0
  1
１０５４
 50
0.0
 41
0.9
 51
0.0
  7
KANJI30
  0
TEXT
  8
0
  6
CONTINUOUS
 62
     2
 10
752.331625984
 20
448.273335986
 30
1.8
 40
18.0
  1
１３１６
 50
0.0
 41
0.9
 51
0.0
  7
KANJI30
  0
LINE
  8
0
  6
CONTINUOUS
 62
     1
 10
388.431625984
 20
563.773335986
 11
388.431625984
 21
227.773335986
  0
LINE
  8
0
  6
CONTINUOUS
 62
     1
 10
598.431625984
 20
563.773335986
 11
598.431625984
 21
227.773335986
  0
LINE
  8
0
  6
CONTINUOUS
 62
     2
 10
718.431625984
 20
563.773335986
 11
718.431625984
 21
227.773335986
  0
LINE
  8
0
  6
CONTINUOUS
 62
     2
 10
838.431625984
 20
563.773335986
 11
838.431625984
 21
227.773335986
  0
LINE
  8
0
  6
CONTINUOUS
 62
     2
 10
958.431625984
 20
563.773335986
 11
958.431625984
 21
227.773335986
  0
LINE
  8
0
  6
CONTINUOUS
 62
     2
 10
1078.431625984
 20
563.773335986
 11
1078.431625984
 21
227.773335986
  0
LINE
  8
0
  6
CONTINUOUS
 62
     2
 10
1198.431625984
 20
563.773335986
 11
1198.431625984
 21
227.773335986
  0
LINE
  8
0
  6
CONTINUOUS
 62
     1
 10
1318.431625984
 20
563.773335986
 11
1318.431625984
 21
227.773335986
  0
LINE
  8
0
  6
LTYPE3
 62
     2
 10
530.646047083
 20
1079.073335986
 11
576.146047083
 21
1079.073335986
  0
LINE
  8
0
  6
LTYPE3
 62
     2
 10
554.931625984
 20
1067.873335986
 11
554.931625984
 21
1090.873335986
  0
POLYLINE
  8
0
  6
CONTINUOUS
 62
     1
 66
     1
 70
     1
  0
VERTEX
  8
0
  6
CONTINUOUS
 62
     1
 10
557.931625984
 20
1079.073335986
 42
0.030828907
  0
VERTEX
  8
0
  6
CONTINUOUS
 62
     1
 10
557.920210078
 20
1079.258221236
 42
0.030425797
  0
VERTEX
  8
0
  6
CONTINUOUS
 62
     1
 10
557.886049243
 20
1079.441699398
 42
0.029607756
  0
VERTEX
  8
0
  6
CONTINUOUS
 62
     1
 10
557.829403463
 20
1079.622374092
 42
0.028462655
  0
VERTEX
  8
0
  6
CONTINUOUS
 62
     1
 10
557.750703846
 20
1079.798870274
 42
0.02709878
  0
VERTEX
  8
0
  6
CONTINUOUS
 62
     1
 10
557.650549345
 20
1079.969844702
 42
0.025623927
  0
VERTEX
  8
0
  6
CONTINUOUS
 62
     1
 10
557.529702195
 20
1080.133996158
 42
0.024130573
  0
VERTEX
  8
0
  6
CONTINUOUS
 62
     1
 10
557.389082117
 20
1080.290075349
 42
0.022689019
  0
VERTEX
  8
0
  6
CONTINUOUS
 62
     1
 10
557.229759313
 20
1080.436894419
 42
0.021347012
  0
VERTEX
  8
0
  6
CONTINUOUS
 62
     1
 10
557.052946327
 20
1080.573335986
 42
0.020133139
  0
VERTEX
  8
0
  6
CONTINUOUS
 62
     1
 10
556.859988813
 20
1080.698361647
 42
0.019061584
  0
VERTEX
  8
0
  6
CONTINUOUS
 62
     1
 10
556.652355293
 20
1080.811019882
 42
0.018136748
  0
VERTEX
  8
0
  6
CONTINUOUS
 62
     1
 10
556.431625984
 20
1080.910453293
 42
0.017357048
  0
VERTEX
  8
0
  6
CONTINUOUS
 62
     1
 10
556.199480769
 20
1080.995905132
 42
0.016717738
  0
VERTEX
  8
0
  6
CONTINUOUS
 62
     1
 10
555.957686414
 20
1081.066725059
 42
0.016212869
  0
VERTEX
  8
0
  6
CONTINUOUS
 62
     1
 10
555.708083119
 20
1081.122374092
 42
0.015836575
  0
VERTEX
  8
0
  6
CONTINUOUS
 62
     1
 10
555.452570517
 20
1081.162428707
 42
0.015583879
  0
VERTEX
  8
0
  6
CONTINUOUS
 62
     1
 10
555.193093212
 20
1081.186584065
 42
0.01545117
  0
VERTEX
  8
0
  6
CONTINUOUS
 62
     1
 10
554.931625984
 20
1081.19465633
 42
0.015436471
  0
VERTEX
  8
0
  6
CONTINUOUS
 62
     1
 10
554.670158755
 20
1081.186584065
 42
0.01553956
  0
VERTEX
  8
0
  6
CONTINUOUS
 62
     1
 10
554.410681451
 20
1081.162428707
 42
0.015761981
  0
VERTEX
  8
0
  6
CONTINUOUS
 62
     1
 10
554.155168848
 20
1081.122374092
 42
0.016106956
  0
VERTEX
  8
0
  6
CONTINUOUS
 62
     1
 10
553.905565554
 20
1081.066725059
 42
0.016579155
  0
VERTEX
  8
0
  6
CONTINUOUS
 62
     1
 10
553.663771198
 20
1080.995905132
 42
0.017184283
  0
VERTEX
  8
0
  6
CONTINUOUS
 62
     1
 10
553.431625984
 20
1080.910453293
 42
0.017928366
  0
VERTEX
  8
0
  6
CONTINUOUS
 62
     1
 10
553.210896675
 20
1080.811019882
 42
0.018816605
  0
VERTEX
  8
0
  6
CONTINUOUS
 62
     1
 10
553.003263155
 20
1080.698361647
 42
0.019851601
  0
VERTEX
  8
0
  6
CONTINUOUS
 62
     1
 10
552.81030564
 20
1080.573335986
 42
0.021030768
  0
VERTEX
  8
0
  6
CONTINUOUS
 62
     1
 10
552.633492654
 20
1080.436894419
 42
0.022342775
  0
VERTEX
  8
0
  6
CONTINUOUS
 62
     1
 10
552.474169851
 20
1080.290075349
 42
0.023763095
  0
VERTEX
  8
0
  6
CONTINUOUS
 62
     1
 10
552.333549772
 20
1080.133996158
 42
0.025249176
  0
VERTEX
  8
0
  6
CONTINUOUS
 62
     1
 10
552.212702623
 20
1079.969844702
 42
0.026736517
  0
VERTEX
  8
0
  6
CONTINUOUS
 62
     1
 10
552.112548121
 20
1079.798870274
 42
0.028137835
  0
VERTEX
  8
0
  6
CONTINUOUS
 62
     1
 10
552.033848505
 20
1079.622374092
 42
0.029348088
  0
VERTEX
  8
0
  6
CONTINUOUS
 62
     1
 10
551.977202725
 20
1079.441699398
 42
0.030257315
  0
VERTEX
  8
0
  6
CONTINUOUS
 62
     1
 10
551.943041889
 20
1079.258221236
 42
0.030770446
  0
VERTEX
  8
0
  6
CONTINUOUS
 62
     1
 10
551.931625984
 20
1079.073335986
 42
0.030828907
  0
VERTEX
  8
0
  6
CONTINUOUS
 62
     1
 10
551.943041889
 20
1078.888450736
 42
0.030425797
  0
VERTEX
  8
0
  6
CONTINUOUS
 62
     1
 10
551.977202725
 20
1078.704972574
 42
0.029607756
  0
VERTEX
  8
0
  6
CONTINUOUS
 62
     1
 10
552.033848505
 20
1078.52429788
 42
0.028462655
  0
VERTEX
  8
0
  6
CONTINUOUS
 62
     1
 10
552.112548121
 20
1078.347801698
 42
0.02709878
  0
VERTEX
  8
0
  6
CONTINUOUS
 62
     1
 10
552.212702623
 20
1078.17682727
 42
0.025623927
  0
VERTEX
  8
0
  6
CONTINUOUS
 62
     1
 10
552.333549772
 20
1078.012675814
 42
0.024130573
  0
VERTEX
  8
0
  6
CONTINUOUS
 62
     1
 10
552.474169851
 20
1077.856596623
 42
0.022689019
  0
VERTEX
  8
0
  6
CONTINUOUS
 62
     1
 10
552.633492654
 20
1077.709777553
 42
0.021347012
  0
VERTEX
  8
0
  6
CONTINUOUS
 62
     1
 10
552.81030564
 20
1077.573335986
 42
0.020133139
  0
VERTEX
  8
0
  6
CONTINUOUS
 62
     1
 10
553.003263155
 20
1077.448310325
 42
0.019061584
  0
VERTEX
  8
0
  6
CONTINUOUS
 62
     1
 10
553.210896675
 20
1077.33565209
 42
0.018136748
  0
VERTEX
  8
0
  6
CONTINUOUS
 62
     1
 10
553.431625984
 20
1077.236218679
 42
0.017357048
  0
VERTEX
  8
0
  6
CONTINUOUS
 62
     1
 10
553.663771198
 20
1077.15076684
 42
0.016717738
  0
VERTEX
  8
0
  6
CONTINUOUS
 62
     1
 10
553.905565554
 20
1077.079946913
 42
0.016212869
  0
VERTEX
  8
0
  6
CONTINUOUS
 62
     1
 10
554.155168848
 20
1077.02429788
 42
0.015836575
  0
VERTEX
  8
0
  6
CONTINUOUS
 62
     1
 10
554.410681451
 20
1076.984243265
 42
0.015583879
  0
VERTEX
  8
0
  6
CONTINUOUS
 62
     1
 10
554.670158755
 20
1076.960087907
 42
0.01545117
  0
VERTEX
  8
0
  6
CONTINUOUS
 62
     1
 10
554.931625984
 20
1076.952015642
 42
0.015436471
  0
VERTEX
  8
0
  6
CONTINUOUS
 62
     1
 10
555.193093212
 20
1076.960087907
 42
0.01553956
  0
VERTEX
  8
0
  6
CONTINUOUS
 62
     1
 10
555.452570517
 20
1076.984243265
 42
0.015761981
  0
VERTEX
  8
0
  6
CONTINUOUS
 62
     1
 10
555.708083119
 20
1077.02429788
 42
0.016106956
  0
VERTEX
  8
0
  6
CONTINUOUS
 62
     1
 10
555.957686414
 20
1077.079946913
 42
0.016579155
  0
VERTEX
  8
0
  6
CONTINUOUS
 62
     1
 10
556.199480769
 20
1077.15076684
 42
0.017184283
  0
VERTEX
  8
0
  6
CONTINUOUS
 62
     1
 10
556.431625984
 20
1077.236218679
 42
0.017928366
  0
VERTEX
  8
0
  6
CONTINUOUS
 62
     1
 10
556.652355293
 20
1077.33565209
 42
0.018816605
  0
VERTEX
  8
0
  6
CONTINUOUS
 62
     1
 10
556.859988813
 20
1077.448310325
 42
0.019851601
  0
VERTEX
  8
0
  6
CONTINUOUS
 62
     1
 10
557.052946327
 20
1077.573335986
 42
0.021030768
  0
VERTEX
  8
0
  6
CONTINUOUS
 62
     1
 10
557.229759313
 20
1077.709777553
 42
0.022342775
  0
VERTEX
  8
0
  6
CONTINUOUS
 62
     1
 10
557.389082117
 20
1077.856596623
 42
0.023763095
  0
VERTEX
  8
0
  6
CONTINUOUS
 62
     1
 10
557.529702195
 20
1078.012675814
 42
0.025249176
  0
VERTEX
  8
0
  6
CONTINUOUS
 62
     1
 10
557.650549345
 20
1078.17682727
 42
0.026736517
  0
VERTEX
  8
0
  6
CONTINUOUS
 62
     1
 10
557.750703846
 20
1078.347801698
 42
0.028137835
  0
VERTEX
  8
0
  6
CONTINUOUS
 62
     1
 10
557.829403463
 20
1078.52429788
 42
0.029348088
  0
VERTEX
  8
0
  6
CONTINUOUS
 62
     1
 10
557.886049243
 20
1078.704972574
 42
0.030257315
  0
VERTEX
  8
0
  6
CONTINUOUS
 62
     1
 10
557.920210078
 20
1078.888450736
 42
0.030770446
  0
SEQEND
  8
0
  6
CONTINUOUS
 62
     1
  0
POLYLINE
  8
0
  6
CONTINUOUS
 62
     1
 66
     1
 70
     1
  0
VERTEX
  8
0
  6
CONTINUOUS
 62
     1
 10
560.931625984
 20
1079.073335986
 42
0.069980355
  0
VERTEX
  8
0
  6
CONTINUOUS
 62
     1
 10
560.908794172
 20
1079.23493162
 42
0.062232798
  0
VERTEX
  8
0
  6
CONTINUOUS
 62
     1
 10
560.840472502
 20
1079.395297414
 42
0.050434494
  0
VERTEX
  8
0
  6
CONTINUOUS
 62
     1
 10
560.727180941
 20
1079.553212886
 42
0.039288848
  0
VERTEX
  8
0
  6
CONTINUOUS
 62
     1
 10
560.569781708
 20
1079.707476206
 42
0.030513632
  0
VERTEX
  8
0
  6
CONTINUOUS
 62
     1
 10
560.369472706
 20
1079.856913336
 42
0.024059016
  0
VERTEX
  8
0
  6
CONTINUOUS
 62
     1
 10
560.127778406
 20
1080.000386969
 42
0.019394114
  0
VERTEX
  8
0
  6
CONTINUOUS
 62
     1
 10
559.846538249
 20
1080.136805184
 42
0.01600994
  0
VERTEX
  8
0
  6
CONTINUOUS
 62
     1
 10
559.527892642
 20
1080.265129757
 42
0.013526168
  0
VERTEX
  8
0
  6
CONTINUOUS
 62
     1
 10
559.174266671
 20
1080.384384059
 42
0.011679205
  0
VERTEX
  8
0
  6
CONTINUOUS
 62
     1
 10
558.788351642
 20
1080.493660494
 42
0.010290137
  0
VERTEX
  8
0
  6
CONTINUOUS
 62
     1
 10
558.373084602
 20
1080.592127402
 42
0.009237526
  0
VERTEX
  8
0
  6
CONTINUOUS
 62
     1
 10
557.931625984
 20
1080.67903539
 42
0.008438335
  0
VERTEX
  8
0
  6
CONTINUOUS
 62
     1
 10
557.467335554
 20
1080.753723036
 42
0.007835335
  0
VERTEX
  8
0
  6
CONTINUOUS
 62
     1
 10
556.983746844
 20
1080.815621922
 42
0.007388933
  0
VERTEX
  8
0
  6
CONTINUOUS
 62
     1
 10
556.484540254
 20
1080.86426096
 42
0.007071925
  0
VERTEX
  8
0
  6
CONTINUOUS
 62
     1
 10
555.97351505
 20
1080.899269977
 42
0.00686612
  0
VERTEX
  8
0
  6
CONTINUOUS
 62
     1
 10
555.45456044
 20
1080.920382535
 42
0.006760223
  0
VERTEX
  8
0
  6
CONTINUOUS
 62
     1
 10
554.931625984
 20
1080.927437952
 42
0.006748585
  0
VERTEX
  8
0
  6
CONTINUOUS
 62
     1
 10
554.408691527
 20
1080.920382535
 42
0.00683059
  0
VERTEX
  8
0
  6
CONTINUOUS
 62
     1
 10
553.889736918
 20
1080.899269977
 42
0.007010595
  0
VERTEX
  8
0
  6
CONTINUOUS
 62
     1
 10
553.378711713
 20
1080.86426096
 42
0.007298395
  0
VERTEX
  8
0
  6
CONTINUOUS
 62
     1
 10
552.879505124
 20
1080.815621922
 42
0.007710296
  0
VERTEX
  8
0
  6
CONTINUOUS
 62
     1
 10
552.395916413
 20
1080.753723036
 42
0.008270992
  0
VERTEX
  8
0
  6
CONTINUOUS
 62
     1
 10
551.931625984
 20
1080.67903539
 42
0.009016571
  0
VERTEX
  8
0
  6
CONTINUOUS
 62
     1
 10
551.490167366
 20
1080.592127402
 42
0.009999225
  0
VERTEX
  8
0
  6
CONTINUOUS
 62
     1
 10
551.074900326
 20
1080.493660494
 42
0.011294563
  0
VERTEX
  8
0
  6
CONTINUOUS
 62
     1
 10
550.688985297
 20
1080.384384059
 42
0.013012924
  0
VERTEX
  8
0
  6
CONTINUOUS
 62
     1
 10
550.335359325
 20
1080.265129757
 42
0.015316631
  0
VERTEX
  8
0
  6
CONTINUOUS
 62
     1
 10
550.016713718
 20
1080.136805184
 42
0.018445132
  0
VERTEX
  8
0
  6
CONTINUOUS
 62
     1
 10
549.735473561
 20
1080.000386969
 42
0.022746835
  0
VERTEX
  8
0
  6
CONTINUOUS
 62
     1
 10
549.493779261
 20
1079.856913336
 42
0.028701013
  0
VERTEX
  8
0
  6
CONTINUOUS
 62
     1
 10
549.293470259
 20
1079.707476206
 42
0.036857659
  0
VERTEX
  8
0
  6
CONTINUOUS
 62
     1
 10
549.136071026
 20
1079.553212886
 42
0.04747273
  0
VERTEX
  8
0
  6
CONTINUOUS
 62
     1
 10
549.022779466
 20
1079.395297414
 42
0.059430864
  0
VERTEX
  8
0
  6
CONTINUOUS
 62
     1
 10
548.954457795
 20
1079.23493162
 42
0.068752934
  0
VERTEX
  8
0
  6
CONTINUOUS
 62
     1
 10
548.931625984
 20
1079.073335986
 42
0.069980355
  0
VERTEX
  8
0
  6
CONTINUOUS
 62
     1
 10
548.954457795
 20
1078.911740352
 42
0.062232798
  0
VERTEX
  8
0
  6
CONTINUOUS
 62
     1
 10
549.022779466
 20
1078.751374558
 42
0.050434494
  0
VERTEX
  8
0
  6
CONTINUOUS
 62
     1
 10
549.136071026
 20
1078.593459086
 42
0.039288848
  0
VERTEX
  8
0
  6
CONTINUOUS
 62
     1
 10
549.293470259
 20
1078.439195766
 42
0.030513632
  0
VERTEX
  8
0
  6
CONTINUOUS
 62
     1
 10
549.493779261
 20
1078.289758636
 42
0.024059016
  0
VERTEX
  8
0
  6
CONTINUOUS
 62
     1
 10
549.735473561
 20
1078.146285003
 42
0.019394114
  0
VERTEX
  8
0
  6
CONTINUOUS
 62
     1
 10
550.016713718
 20
1078.009866788
 42
0.01600994
  0
VERTEX
  8
0
  6
CONTINUOUS
 62
     1
 10
550.335359325
 20
1077.881542215
 42
0.013526168
  0
VERTEX
  8
0
  6
CONTINUOUS
 62
     1
 10
550.688985297
 20
1077.762287913
 42
0.011679205
  0
VERTEX
  8
0
  6
CONTINUOUS
 62
     1
 10
551.074900326
 20
1077.653011478
 42
0.010290137
  0
VERTEX
  8
0
  6
CONTINUOUS
 62
     1
 10
551.490167366
 20
1077.55454457
 42
0.009237526
  0
VERTEX
  8
0
  6
CONTINUOUS
 62
     1
 10
551.931625984
 20
1077.467636582
 42
0.008438335
  0
VERTEX
  8
0
  6
CONTINUOUS
 62
     1
 10
552.395916413
 20
1077.392948936
 42
0.007835335
  0
VERTEX
  8
0
  6
CONTINUOUS
 62
     1
 10
552.879505124
 20
1077.33105005
 42
0.007388933
  0
VERTEX
  8
0
  6
CONTINUOUS
 62
     1
 10
553.378711713
 20
1077.282411012
 42
0.007071925
  0
VERTEX
  8
0
  6
CONTINUOUS
 62
     1
 10
553.889736918
 20
1077.247401995
 42
0.00686612
  0
VERTEX
  8
0
  6
CONTINUOUS
 62
     1
 10
554.408691527
 20
1077.226289438
 42
0.006760223
  0
VERTEX
  8
0
  6
CONTINUOUS
 62
     1
 10
554.931625984
 20
1077.21923402
 42
0.006748585
  0
VERTEX
  8
0
  6
CONTINUOUS
 62
     1
 10
555.45456044
 20
1077.226289438
 42
0.00683059
  0
VERTEX
  8
0
  6
CONTINUOUS
 62
     1
 10
555.97351505
 20
1077.247401995
 42
0.007010595
  0
VERTEX
  8
0
  6
CONTINUOUS
 62
     1
 10
556.484540254
 20
1077.282411012
 42
0.007298395
  0
VERTEX
  8
0
  6
CONTINUOUS
 62
     1
 10
556.983746844
 20
1077.33105005
 42
0.007710296
  0
VERTEX
  8
0
  6
CONTINUOUS
 62
     1
 10
557.467335554
 20
1077.392948936
 42
0.008270992
  0
VERTEX
  8
0
  6
CONTINUOUS
 62
     1
 10
557.931625984
 20
1077.467636582
 42
0.009016571
  0
VERTEX
  8
0
  6
CONTINUOUS
 62
     1
 10
558.373084602
 20
1077.55454457
 42
0.009999225
  0
VERTEX
  8
0
  6
CONTINUOUS
 62
     1
 10
558.788351642
 20
1077.653011478
 42
0.011294563
  0
VERTEX
  8
0
  6
CONTINUOUS
 62
     1
 10
559.174266671
 20
1077.762287913
 42
0.013012924
  0
VERTEX
  8
0
  6
CONTINUOUS
 62
     1
 10
559.527892642
 20
1077.881542215
 42
0.015316631
  0
VERTEX
  8
0
  6
CONTINUOUS
 62
     1
 10
559.846538249
 20
1078.009866788
 42
0.018445132
  0
VERTEX
  8
0
  6
CONTINUOUS
 62
     1
 10
560.127778406
 20
1078.146285003
 42
0.022746835
  0
VERTEX
  8
0
  6
CONTINUOUS
 62
     1
 10
560.369472706
 20
1078.289758636
 42
0.028701013
  0
VERTEX
  8
0
  6
CONTINUOUS
 62
     1
 10
560.569781708
 20
1078.439195766
 42
0.036857659
  0
VERTEX
  8
0
  6
CONTINUOUS
 62
     1
 10
560.727180941
 20
1078.593459086
 42
0.04747273
  0
VERTEX
  8
0
  6
CONTINUOUS
 62
     1
 10
560.840472502
 20
1078.751374558
 42
0.059430864
  0
VERTEX
  8
0
  6
CONTINUOUS
 62
     1
 10
560.908794172
 20
1078.911740352
 42
0.068752934
  0
SEQEND
  8
0
  6
CONTINUOUS
 62
     1
  0
LINE
  8
0
  6
CONTINUOUS
 62
     1
 10
602.931625984
 20
1129.077839855
 11
489.931625984
 21
1158.873335986
  0
LINE
  8
0
  6
CONTINUOUS
 62
     1
 10
602.931625984
 20
1129.077839855
 11
489.931625984
 21
1129.077839855
  0
LINE
  8
0
  6
CONTINUOUS
 62
     1
 10
602.931625984
 20
1029.068832117
 11
489.931625984
 21
999.273335986
  0
LINE
  8
0
  6
CONTINUOUS
 62
     1
 10
602.931625984
 20
1029.068832117
 11
489.931625984
 21
1029.068832117
  0
LINE
  8
2
  6
CONTINUOUS
 62
     2
 10
560.0
 20
1088.0
 11
570.039422955
 21
1099.14495342
  0
LINE
  8
2
  6
CONTINUOUS
 62
     2
 10
560.0
 20
1088.0
 11
563.121918609
 21
1102.671524263
  0
LINE
  8
2
  6
CONTINUOUS
 62
     2
 10
560.0
 20
1088.0
 11
638.0
 21
1241.0
  0
LINE
  8
2
  6
CONTINUOUS
 62
     2
 10
638.0
 20
1241.0
 11
852.2
 21
1241.0
  0
TEXT
  8
2
  6
CONTINUOUS
 62
     3
 10
638.0
 20
1247.0
 30
1.8
 40
18.0
  1
グリスニップルＰＴ１／８
 50
0.0
 41
0.9
 51
0.0
  7
KANJI34
  0
CIRCLE
  8
0
  6
CONTINUOUS
 62
     1
 10
554.931625984
 20
1079.073335986
 40
6.08276253
  0
CIRCLE
  8
0
  6
CONTINUOUS
 62
     1
 10
554.931625984
 20
1079.073335986
 40
4.0
  0
LINE
  8
0
  6
CONTINUOUS
 62
     1
 10
602.931625984
 20
1139.419626633
 11
489.931625984
 21
1169.215122764
  0
LINE
  8
0
  6
CONTINUOUS
 62
     1
 10
602.931625984
 20
1018.727045339
 11
489.931625984
 21
988.931549208
  0
LINE
  8
0
  6
CONTINUOUS
 62
     1
 10
1690.596092078
 20
1082.608869892
 11
1690.28433969
 21
1082.297117504
  0
LINE
  8
0
  6
CONTINUOUS
 62
     2
 10
388.431625984
 20
437.773335986
 11
1318.431625984
 21
437.773335986
  0
LINE
  8
0
  6
CONTINUOUS
 62
     2
 10
388.431625984
 20
395.773335986
 11
1318.431625984
 21
395.773335986
  0
LINE
  8
0
  6
CONTINUOUS
 62
     2
 10
388.431625984
 20
353.773335986
 11
1318.431625984
 21
353.773335986
  0
TEXT
  8
0
  6
CONTINUOUS
 62
     2
 10
634.431625984
 20
405.823335986
 30
1.8
 40
18.0
  1
７００
 50
0.0
 41
0.9
 51
0.0
  7
KANJI30
  0
TEXT
  8
0
  6
CONTINUOUS
 62
     2
 10
617.031625984
 20
363.823335986
 30
1.8
 40
18.0
  1
１０００
 50
0.0
 41
0.9
 51
0.0
  7
KANJI30
  0
TEXT
  8
0
  6
CONTINUOUS
 62
     2
 10
617.031625984
 20
321.823335986
 30
1.8
 40
18.0
  1
１５００
 50
0.0
 41
0.9
 51
0.0
  7
KANJI30
  0
TEXT
  8
0
  6
CONTINUOUS
 62
     2
 10
617.031625984
 20
279.823335986
 30
1.8
 40
18.0
  1
２０００
 50
0.0
 41
0.9
 51
0.0
  7
KANJI30
  0
TEXT
  8
0
  6
CONTINUOUS
 62
     2
 10
1105.281625984
 20
409.723335986
 30
1.8
 40
18.0
  1
１４８
 50
0.0
 41
0.9
 51
0.0
  7
KANJI30
  0
TEXT
  8
0
  6
CONTINUOUS
 62
     2
 10
1105.281625984
 20
367.723335986
 30
1.8
 40
18.0
  1
２３１
 50
0.0
 41
0.9
 51
0.0
  7
KANJI30
  0
TEXT
  8
0
  6
CONTINUOUS
 62
     2
 10
1105.281625984
 20
325.723335986
 30
1.8
 40
18.0
  1
３５０
 50
0.0
 41
0.9
 51
0.0
  7
KANJI30
  0
TEXT
  8
0
  6
CONTINUOUS
 62
     2
 10
872.931625984
 20
407.473335986
 30
1.8
 40
18.0
  1
１４９２
 50
0.0
 41
0.9
 51
0.0
  7
KANJI30
  0
TEXT
  8
0
  6
CONTINUOUS
 62
     2
 10
872.931625984
 20
365.473335986
 30
1.8
 40
18.0
  1
１８７５
 50
0.0
 41
0.9
 51
0.0
  7
KANJI30
  0
TEXT
  8
0
  6
CONTINUOUS
 62
     2
 10
872.931625984
 20
323.473335986
 30
1.8
 40
18.0
  1
２５１９
 50
0.0
 41
0.9
 51
0.0
  7
KANJI30
  0
TEXT
  8
0
  6
CONTINUOUS
 62
     2
 10
872.931625984
 20
281.473335986
 30
1.8
 40
18.0
  1
３１６９
 50
0.0
 41
0.9
 51
0.0
  7
KANJI30
  0
TEXT
  8
0
  6
CONTINUOUS
 62
     2
 10
974.631625984
 20
408.523335986
 30
1.8
 40
18.0
  1
１２４４
 50
0.0
 41
0.9
 51
0.0
  7
KANJI30
  0
TEXT
  8
0
  6
CONTINUOUS
 62
     2
 10
974.631625984
 20
366.523335986
 30
1.8
 40
18.0
  1
１５４４
 50
0.0
 41
0.9
 51
0.0
  7
KANJI30
  0
TEXT
  8
0
  6
CONTINUOUS
 62
     2
 10
974.631625984
 20
324.523335986
 30
1.8
 40
18.0
  1
２０６９
 50
0.0
 41
0.9
 51
0.0
  7
KANJI30
  0
TEXT
  8
0
  6
CONTINUOUS
 62
     2
 10
1105.281625984
 20
283.723335986
 30
1.8
 40
18.0
  1
４５０
 50
0.0
 41
0.9
 51
0.0
  7
KANJI30
  0
TEXT
  8
0
  6
CONTINUOUS
 62
     2
 10
974.631625984
 20
282.523335986
 30
1.8
 40
18.0
  1
２６１９
 50
0.0
 41
0.9
 51
0.0
  7
KANJI30
  0
TEXT
  8
0
  6
CONTINUOUS
 62
     2
 10
751.581625984
 20
406.273335986
 30
1.8
 40
18.0
  1
１５９２
 50
0.0
 41
0.9
 51
0.0
  7
KANJI30
  0
TEXT
  8
0
  6
CONTINUOUS
 62
     2
 10
752.331625984
 20
364.273335986
 30
1.8
 40
18.0
  1
１９７５
 50
0.0
 41
0.9
 51
0.0
  7
KANJI30
  0
TEXT
  8
0
  6
CONTINUOUS
 62
     2
 10
752.331625984
 20
322.273335986
 30
1.8
 40
18.0
  1
２６１９
 50
0.0
 41
0.9
 51
0.0
  7
KANJI30
  0
TEXT
  8
0
  6
CONTINUOUS
 62
     2
 10
752.331625984
 20
280.273335986
 30
1.8
 40
18.0
  1
３２６９
 50
0.0
 41
0.9
 51
0.0
  7
KANJI30
  0
LINE
  8
0
  6
CONTINUOUS
 62
     1
 10
388.431625984
 20
227.773335986
 11
1318.431625984
 21
227.773335986
  0
LINE
  8
0
  6
CONTINUOUS
 62
     2
 10
388.431625984
 20
269.773335986
 11
1318.431625984
 21
269.773335986
  0
LINE
  8
0
  6
CONTINUOUS
 62
     2
 10
388.431625984
 20
311.773335986
 11
1318.431625984
 21
311.773335986
  0
TEXT
  8
0
  6
CONTINUOUS
 62
     2
 10
2208.8
 20
948.673335986
 30
0.6
 40
16.8
  1
マンセル
 50
0.0
 41
0.9
 51
0.0
  7
KANJI49
  0
TEXT
  8
0
  6
CONTINUOUS
 62
     2
 10
2279.0
 20
949.873335986
 30
0.24
 40
16.8
  1
７．５ＧＹ５／４．５
 50
0.0
 41
0.785714286
 51
0.0
  7
KANJI50
  0
TEXT
  8
0
  6
CONTINUOUS
 62
     3
 10
1914.331625984
 20
311.573335986
 30
1.8
 40
24.0
  1
　　　　　　　　　　　　　　　　　　　　　　　　　　　　　　　　　　殿　
 50
0.0
 41
0.875
 51
0.0
  7
KANJI51
  0
TEXT
  8
0
  6
CONTINUOUS
 62
     3
 10
1864.931625984
 20
229.573335986
 30
0.0
 40
24.0
  1
ＳＣＤ１０Ａ－　　Ｊ
 50
0.0
 41
0.675
 51
0.0
  7
KANJI52
  0
TEXT
  8
0
  6
CONTINUOUS
 62
     3
 10
1958.4000362
 20
136.999994
 30
13.0
 40
30.0
  1
Ａ３００１７０６
 50
0.0
 41
0.8
 51
0.0
  7
KANJI53
  0
TEXT
  8
0
  6
CONTINUOUS
 62
     3
 10
1666.6000334
 20
108.199994
 30
1.8
 40
21.0
  1
２００２．０９．０２
 50
0.0
 41
0.571428571
 51
0.0
  7
KANJI54
  0
TEXT
  8
0
  6
CONTINUOUS
 62
     3
 10
1706.0
 20
65.0
 30
1.8
 40
27.0
  1
１／６
 50
0.0
 41
0.666666667
 51
0.0
  7
KANJI55
  0
TEXT
  8
0
  6
CONTINUOUS
 62
     3
 10
1962.931625984
 20
189.073335986
 30
1.8
 40
24.0
  1
Ｓ
 50
0.0
 41
0.875
 51
0.0
  7
KANJI56
  0
CIRCLE
  8
0
  6
CONTINUOUS
 62
     3
 10
1972.931625984
 20
201.073335986
 40
16.492422502
  0
LINE
  8
0
  6
CONTINUOUS
 62
     1
 10
702.931625984
 20
1149.073335986
 11
1069.082127363
 21
1149.073335986
  0
LINE
  8
0
  6
CONTINUOUS
 62
     1
 10
702.931625984
 20
1009.073335986
 11
1069.082127363
 21
1009.073335986
  0
LINE
  8
0
  6
CONTINUOUS
 62
     1
 10
1206.932435777
 20
1104.073335986
 11
1206.932435777
 21
1126.573335986
  0
LINE
  8
0
  6
CONTINUOUS
 62
     1
 10
1206.932435777
 20
1104.073335986
 11
1346.932435777
 21
1104.073335986
  0
LINE
  8
0
  6
CONTINUOUS
 62
     1
 10
1346.932435777
 20
1079.073335986
 11
1346.932435777
 21
1104.073335986
  0
LINE
  8
0
  6
CONTINUOUS
 62
     2
 10
1399.936571444
 20
1054.073335986
 11
1399.936571444
 21
1104.073335986
  0
LINE
  8
0
  6
CONTINUOUS
 62
     2
 10
1399.936571444
 20
1104.073335986
 11
1396.70133338
 21
1091.999263157
  0
LINE
  8
0
  6
CONTINUOUS
 62
     2
 10
1399.936571444
 20
1104.073335986
 11
1403.171809508
 21
1091.999263157
  0
LINE
  8
0
  6
CONTINUOUS
 62
     2
 10
1346.932435777
 20
1104.073335986
 11
1404.936571444
 21
1104.073335986
  0
LINE
  8
0
  6
LTYPE1
 62
     2
 10
1321.932435777
 20
1079.073335986
 11
1321.932435777
 21
1104.073335986
  0
LINE
  8
0
  6
LTYPE1
 62
     2
 10
1271.932435777
 20
1079.073335986
 11
1271.932435777
 21
1104.073335986
  0
LINE
  8
0
  6
LTYPE2
 62
     2
 10
1296.932435777
 20
1079.073335986
 11
1296.932435777
 21
1120.073335986
  0
TEXT
  8
0
  6
CONTINUOUS
 62
     2
 10
1394.936571444
 20
1064.323335986
 30
1.8
 40
19.2
  1
５０
 50
90.0
 41
0.875
 51
0.0
  7
KANJI38
  0
LINE
  8
0
  6
CONTINUOUS
 62
     1
 10
1346.932435777
 20
1079.073335986
 11
1346.932435777
 21
1054.073335986
  0
LINE
  8
0
  6
CONTINUOUS
 62
     2
 10
1346.932435777
 20
1054.073335986
 11
1404.936571444
 21
1054.073335986
  0
LINE
  8
0
  6
CONTINUOUS
 62
     2
 10
1399.936571444
 20
1054.073335986
 11
1403.171809508
 21
1066.147408815
  0
LINE
  8
0
  6
CONTINUOUS
 62
     2
 10
1399.936571444
 20
1054.073335986
 11
1396.70133338
 21
1066.147408815
  0
LINE
  8
0
  6
LTYPE1
 62
     2
 10
1321.932435777
 20
1079.073335986
 11
1321.932435777
 21
1054.073335986
  0
LINE
  8
0
  6
CONTINUOUS
 62
     1
 10
1206.932435777
 20
1054.073335986
 11
1346.932435777
 21
1054.073335986
  0
LINE
  8
0
  6
LTYPE2
 62
     2
 10
1296.932435777
 20
1079.073335986
 11
1296.932435777
 21
1029.273335986
  0
LINE
  8
0
  6
LTYPE1
 62
     2
 10
1271.932435777
 20
1079.073335986
 11
1271.932435777
 21
1054.073335986
  0
LINE
  8
0
  6
CONTINUOUS
 62
     1
 10
1206.932435777
 20
1054.073335986
 11
1206.932435777
 21
1031.573335986
  0
LINE
  8
0
  6
CONTINUOUS
 62
     1
 10
1196.933245571
 20
1031.573335986
 11
1206.932435777
 21
1031.573335986
  0
LINE
  8
0
  6
CONTINUOUS
 62
     1
 10
1196.933245571
 20
1126.573335986
 11
1206.932435777
 21
1126.573335986
  0
LINE
  8
0
  6
CONTINUOUS
 62
     1
 10
1196.933245571
 20
1127.590712901
 11
1196.933245571
 21
1031.573335986
  0
LINE
  8
0
  6
CONTINUOUS
 62
     1
 10
1196.933245571
 20
1127.590712901
 11
1192.990304153
 21
1127.590712901
  0
LINE
  8
0
  6
CONTINUOUS
 62
     1
 10
1162.932435777
 20
1034.573335986
 11
1196.933245571
 21
1034.573335986
  0
LINE
  8
0
  6
CONTINUOUS
 62
     2
 10
1162.931625984
 20
747.073335986
 11
1162.931625984
 21
727.073335986
  0
LINE
  8
0
  6
CONTINUOUS
 62
     2
 10
1162.931625984
 20
736.073335986
 11
1177.420513378
 21
732.191050309
  0
LINE
  8
0
  6
CONTINUOUS
 62
     2
 10
1162.931625984
 20
736.073335986
 11
1177.420513378
 21
739.955621663
  0
LINE
  8
0
  6
CONTINUOUS
 62
     2
 10
1162.931625984
 20
736.073335986
 11
1196.933245571
 21
736.073335986
  0
LINE
  8
0
  6
CONTINUOUS
 62
     2
 10
1196.933245571
 20
736.073335986
 11
1182.444358177
 21
739.955621663
  0
LINE
  8
0
  6
CONTINUOUS
 62
     2
 10
1196.933245571
 20
736.073335986
 11
1182.444358177
 21
732.191050309
  0
LINE
  8
0
  6
CONTINUOUS
 62
     2
 10
1196.933245571
 20
1025.573335986
 11
1196.933245571
 21
727.073335986
  0
LINE
  8
0
  6
CONTINUOUS
 62
     2
 10
1196.933245571
 20
751.073335986
 11
1196.933245571
 21
727.073335986
  0
LINE
  8
0
  6
CONTINUOUS
 62
     2
 10
1196.933245571
 20
736.073335986
 11
1211.422132966
 21
732.191050309
  0
LINE
  8
0
  6
CONTINUOUS
 62
     2
 10
1196.933245571
 20
736.073335986
 11
1211.422132966
 21
739.955621663
  0
LINE
  8
0
  6
CONTINUOUS
 62
     2
 10
1196.933245571
 20
736.073335986
 11
1296.932435777
 21
736.073335986
  0
LINE
  8
0
  6
CONTINUOUS
 62
     2
 10
1296.932435777
 20
736.073335986
 11
1282.443548383
 21
739.955621663
  0
LINE
  8
0
  6
CONTINUOUS
 62
     2
 10
1296.932435777
 20
736.073335986
 11
1282.443548383
 21
732.191050309
  0
TEXT
  8
0
  6
CONTINUOUS
 62
     3
 10
1222.632840674
 20
739.073335986
 30
0.0
 40
18.0
  1
１００
 50
0.0
 41
0.9
 51
0.0
  7
KANJI16
  0
LINE
  8
0
  6
CONTINUOUS
 62
     2
 10
1296.932435777
 20
1048.073335986
 11
1296.932435777
 21
641.573335986
  0
LINE
  8
0
  6
CONTINUOUS
 62
     2
 10
1296.932435777
 20
701.573335986
 11
1284.858362949
 21
704.80857405
  0
LINE
  8
0
  6
CONTINUOUS
 62
     2
 10
1296.932435777
 20
701.573335986
 11
1284.858362949
 21
698.338097922
  0
LINE
  8
2
  6
CONTINUOUS
 62
     2
 10
1296.932435777
 20
653.873335986
 11
1282.443548383
 21
657.755621663
  0
LINE
  8
2
  6
CONTINUOUS
 62
     2
 10
1296.932435777
 20
653.873335986
 11
1282.443548383
 21
649.991050309
  0
LINE
  8
2
  6
CONTINUOUS
 62
     2
 10
1296.932435777
 20
653.873335986
 11
259.931625984
 21
653.873335986
  0
LINE
  8
0
  6
CONTINUOUS
 62
     2
 10
1296.932435777
 20
701.573335986
 11
359.931625984
 21
701.573335986
  0
TEXT
  8
0
  6
CONTINUOUS
 62
     3
 10
2208.5
 20
1491.973335986
 30
1.2
 40
18.0
  1
ＳＣＤ１０Ａ－　　　Ｊ
 50
0.0
 41
0.833333333
 51
0.0
  7
KANJI57
  0
TEXT
  8
0
  6
CONTINUOUS
 62
     2
 10
407.931625984
 20
489.373335986
 30
1.2
 40
18.0
  1
ＳＣＤ１０Ａ－　３Ｊ
 50
0.0
 41
0.833333333
 51
0.0
  7
KANJI57
  0
TEXT
  8
0
  6
CONTINUOUS
 62
     2
 10
407.931625984
 20
447.373335986
 30
1.2
 40
18.0
  1
ＳＣＤ１０Ａ－　５Ｊ
 50
0.0
 41
0.833333333
 51
0.0
  7
KANJI57
  0
TEXT
  8
0
  6
CONTINUOUS
 62
     2
 10
407.931625984
 20
405.373335986
 30
1.2
 40
18.0
  1
ＳＣＤ１０Ａ－　７Ｊ
 50
0.0
 41
0.833333333
 51
0.0
  7
KANJI57
  0
TEXT
  8
0
  6
CONTINUOUS
 62
     2
 10
407.931625984
 20
363.373335986
 30
1.2
 40
18.0
  1
ＳＣＤ１０Ａ－１０Ｊ
 50
0.0
 41
0.833333333
 51
0.0
  7
KANJI57
  0
TEXT
  8
0
  6
CONTINUOUS
 62
     2
 10
407.931625984
 20
321.373335986
 30
1.2
 40
18.0
  1
ＳＣＤ１０Ａ－１５Ｊ
 50
0.0
 41
0.833333333
 51
0.0
  7
KANJI57
  0
TEXT
  8
0
  6
CONTINUOUS
 62
     2
 10
407.931625984
 20
279.373335986
 30
1.2
 40
18.0
  1
ＳＣＤ１０Ａ－２０Ｊ
 50
0.0
 41
0.833333333
 51
0.0
  7
KANJI57
  0
TEXT
  8
0
  6
CONTINUOUS
 62
     2
 10
1228.131625984
 20
492.073335986
 30
1.8
 40
18.0
  1
１６１
 50
0.0
 41
0.9
 51
0.0
  7
KANJI30
  0
TEXT
  8
0
  6
CONTINUOUS
 62
     2
 10
1228.131625984
 20
450.073335986
 30
1.8
 40
18.0
  1
１８０
 50
0.0
 41
0.9
 51
0.0
  7
KANJI30
  0
TEXT
  8
0
  6
CONTINUOUS
 62
     2
 10
1228.131625984
 20
408.073335986
 30
1.8
 40
18.0
  1
２０２
 50
0.0
 41
0.9
 51
0.0
  7
KANJI30
  0
TEXT
  8
0
  6
CONTINUOUS
 62
     2
 10
1228.131625984
 20
366.073335986
 30
1.8
 40
18.0
  1
２１３
 50
0.0
 41
0.9
 51
0.0
  7
KANJI30
  0
TEXT
  8
0
  6
CONTINUOUS
 62
     2
 10
1228.131625984
 20
324.073335986
 30
1.8
 40
18.0
  1
２８４
 50
0.0
 41
0.9
 51
0.0
  7
KANJI30
  0
TEXT
  8
0
  6
CONTINUOUS
 62
     2
 10
1228.131625984
 20
282.073335986
 30
1.8
 40
18.0
  1
３４１
 50
0.0
 41
0.9
 51
0.0
  7
KANJI30
  0
ARC
  8
0
  6
CONTINUOUS
 62
     1
 10
1694.131625984
 20
1079.073335986
 40
92.5
 50
179.201417976
 51
240.798582024
  0
ARC
  8
0
  6
CONTINUOUS
 62
     1
 10
1694.131625984
 20
1079.073335986
 40
125.0
 50
171.99899924
 51
248.00100076
  0
ENDSEC
  0
EOF
