  0
SECTION
  2
HEADER
  9
$ACADVER
  1
AC1009
  9
$DWGCODEPAGE
  3
dos932
  9
$EXTMIN
 10
0.0
 20
0.0
 30
0.0
  9
$EXTMAX
 10
2100.0
 20
1485.0
 30
0.0
  9
$LIMMIN
 10
0.0
 20
0.0
  9
$LIMMAX
 10
2100.0
 20
1485.0
  9
$LTSCALE
 40
1.0
  9
$PDMODE
 70
     0
  0
ENDSEC
  0
SECTION
  2
TABLES
  0
TABLE
  2
VPORT
 70
     1
  0
VPORT
  2
*ACTIVE
 70
     0
 10
0.0
 20
0.0
 11
1.0
 21
1.0
 12
1050.0
 22
742.5
 13
0.0
 23
0.0
 14
10.0
 24
10.0
 15
10.0
 25
10.0
 16
0.0
 26
0.0
 36
1.0
 17
0.0
 27
0.0
 37
0.0
 40
2100.0
 41
1.414141414
 42
50.0
 43
0.0
 44
0.0
 50
0.0
 51
0.0
 71
     0
 72
  1000
 73
     1
 74
     3
 75
     0
 76
     0
 77
     0
 78
     0
  0
ENDTAB
  0
TABLE
  2
LTYPE
 70
     6
  0
LTYPE
  2
CONTINUOUS
 70
    64
  3
Solid line
 72
    65
 73
     0
 40
0.0
  0
LTYPE
  2
LTYPE1
 70
    64
  3
HIDDEN
 72
    65
 73
     2
 40
15.0
 49
9.0
 49
-6.0
  0
LTYPE
  2
LTYPE2
 70
    64
  3
CENTER
 72
    65
 73
     4
 40
50.0
 49
35.0
 49
-5.0
 49
5.0
 49
-5.0
  0
LTYPE
  2
LTYPE3
 70
    64
  3
PHANTOM
 72
    65
 73
     6
 40
50.0
 49
37.5
 49
-2.5
 49
2.5
 49
-2.5
 49
2.5
 49
-2.5
  0
LTYPE
  2
LTYPE4
 70
    64
  3
CENTER
 72
    65
 73
     4
 40
75.0
 49
52.5
 49
-7.5
 49
7.5
 49
-7.5
  0
LTYPE
  2
LTYPE5
 70
    64
  3
CENTER
 72
    65
 73
     4
 40
45.0
 49
31.5
 49
-4.5
 49
4.5
 49
-4.5
  0
ENDTAB
  0
TABLE
  2
LAYER
 70
   128
  0
LAYER
  2
0
 70
     0
 62
     7
  6
CONTINUOUS
  0
LAYER
  2
2
 70
     0
 62
     7
  6
CONTINUOUS
  0
LAYER
  2
3
 70
     0
 62
     7
  6
CONTINUOUS
  0
LAYER
  2
4
 70
     0
 62
     7
  6
CONTINUOUS
  0
LAYER
  2
5
 70
     0
 62
     7
  6
CONTINUOUS
  0
LAYER
  2
6
 70
     0
 62
     7
  6
CONTINUOUS
  0
LAYER
  2
7
 70
     0
 62
     7
  6
CONTINUOUS
  0
LAYER
  2
8
 70
     0
 62
     7
  6
CONTINUOUS
  0
LAYER
  2
9
 70
     0
 62
     7
  6
CONTINUOUS
  0
LAYER
  2
10
 70
     0
 62
     7
  6
CONTINUOUS
  0
LAYER
  2
11
 70
     0
 62
     7
  6
CONTINUOUS
  0
LAYER
  2
12
 70
     0
 62
     7
  6
CONTINUOUS
  0
LAYER
  2
13
 70
     0
 62
     7
  6
CONTINUOUS
  0
LAYER
  2
14
 70
     0
 62
     7
  6
CONTINUOUS
  0
LAYER
  2
15
 70
     0
 62
     7
  6
CONTINUOUS
  0
LAYER
  2
16
 70
     0
 62
     7
  6
CONTINUOUS
  0
LAYER
  2
17
 70
     0
 62
     7
  6
CONTINUOUS
  0
LAYER
  2
18
 70
     0
 62
     7
  6
CONTINUOUS
  0
LAYER
  2
19
 70
     0
 62
     7
  6
CONTINUOUS
  0
LAYER
  2
20
 70
     0
 62
     7
  6
CONTINUOUS
  0
LAYER
  2
21
 70
     0
 62
     7
  6
CONTINUOUS
  0
LAYER
  2
22
 70
     0
 62
     7
  6
CONTINUOUS
  0
LAYER
  2
23
 70
     0
 62
     7
  6
CONTINUOUS
  0
LAYER
  2
24
 70
     0
 62
     7
  6
CONTINUOUS
  0
LAYER
  2
25
 70
     0
 62
     7
  6
CONTINUOUS
  0
LAYER
  2
26
 70
     0
 62
     7
  6
CONTINUOUS
  0
LAYER
  2
27
 70
     0
 62
     7
  6
CONTINUOUS
  0
LAYER
  2
28
 70
     0
 62
     7
  6
CONTINUOUS
  0
LAYER
  2
29
 70
     0
 62
     7
  6
CONTINUOUS
  0
LAYER
  2
30
 70
     0
 62
     7
  6
CONTINUOUS
  0
LAYER
  2
31
 70
     0
 62
     7
  6
CONTINUOUS
  0
LAYER
  2
32
 70
     0
 62
     7
  6
CONTINUOUS
  0
LAYER
  2
33
 70
     0
 62
     7
  6
CONTINUOUS
  0
LAYER
  2
34
 70
     0
 62
     7
  6
CONTINUOUS
  0
LAYER
  2
35
 70
     0
 62
     7
  6
CONTINUOUS
  0
LAYER
  2
36
 70
     0
 62
     7
  6
CONTINUOUS
  0
LAYER
  2
37
 70
     0
 62
     7
  6
CONTINUOUS
  0
LAYER
  2
38
 70
     0
 62
     7
  6
CONTINUOUS
  0
LAYER
  2
39
 70
     0
 62
     7
  6
CONTINUOUS
  0
LAYER
  2
40
 70
     0
 62
     7
  6
CONTINUOUS
  0
LAYER
  2
41
 70
     0
 62
     7
  6
CONTINUOUS
  0
LAYER
  2
42
 70
     0
 62
     7
  6
CONTINUOUS
  0
LAYER
  2
43
 70
     0
 62
     7
  6
CONTINUOUS
  0
LAYER
  2
44
 70
     0
 62
     7
  6
CONTINUOUS
  0
LAYER
  2
45
 70
     0
 62
     7
  6
CONTINUOUS
  0
LAYER
  2
46
 70
     0
 62
     7
  6
CONTINUOUS
  0
LAYER
  2
47
 70
     0
 62
     7
  6
CONTINUOUS
  0
LAYER
  2
48
 70
     0
 62
     7
  6
CONTINUOUS
  0
LAYER
  2
49
 70
     0
 62
     7
  6
CONTINUOUS
  0
LAYER
  2
50
 70
     0
 62
     7
  6
CONTINUOUS
  0
LAYER
  2
51
 70
     0
 62
     7
  6
CONTINUOUS
  0
LAYER
  2
52
 70
     0
 62
     7
  6
CONTINUOUS
  0
LAYER
  2
53
 70
     0
 62
     7
  6
CONTINUOUS
  0
LAYER
  2
54
 70
     0
 62
     7
  6
CONTINUOUS
  0
LAYER
  2
55
 70
     0
 62
     7
  6
CONTINUOUS
  0
LAYER
  2
56
 70
     0
 62
     7
  6
CONTINUOUS
  0
LAYER
  2
57
 70
     0
 62
     7
  6
CONTINUOUS
  0
LAYER
  2
58
 70
     0
 62
     7
  6
CONTINUOUS
  0
LAYER
  2
59
 70
     0
 62
     7
  6
CONTINUOUS
  0
LAYER
  2
60
 70
     0
 62
     7
  6
CONTINUOUS
  0
LAYER
  2
61
 70
     0
 62
     7
  6
CONTINUOUS
  0
LAYER
  2
62
 70
     0
 62
     7
  6
CONTINUOUS
  0
LAYER
  2
63
 70
     0
 62
     7
  6
CONTINUOUS
  0
LAYER
  2
64
 70
     0
 62
     7
  6
CONTINUOUS
  0
LAYER
  2
65
 70
     0
 62
     7
  6
CONTINUOUS
  0
LAYER
  2
66
 70
     0
 62
     7
  6
CONTINUOUS
  0
LAYER
  2
67
 70
     0
 62
     7
  6
CONTINUOUS
  0
LAYER
  2
68
 70
     0
 62
     7
  6
CONTINUOUS
  0
LAYER
  2
69
 70
     0
 62
     7
  6
CONTINUOUS
  0
LAYER
  2
70
 70
     0
 62
     7
  6
CONTINUOUS
  0
LAYER
  2
71
 70
     0
 62
     7
  6
CONTINUOUS
  0
LAYER
  2
72
 70
     0
 62
     7
  6
CONTINUOUS
  0
LAYER
  2
73
 70
     0
 62
     7
  6
CONTINUOUS
  0
LAYER
  2
74
 70
     0
 62
     7
  6
CONTINUOUS
  0
LAYER
  2
75
 70
     0
 62
     7
  6
CONTINUOUS
  0
LAYER
  2
76
 70
     0
 62
     7
  6
CONTINUOUS
  0
LAYER
  2
77
 70
     0
 62
     7
  6
CONTINUOUS
  0
LAYER
  2
78
 70
     0
 62
     7
  6
CONTINUOUS
  0
LAYER
  2
79
 70
     0
 62
     7
  6
CONTINUOUS
  0
LAYER
  2
80
 70
     0
 62
     7
  6
CONTINUOUS
  0
LAYER
  2
81
 70
     0
 62
     7
  6
CONTINUOUS
  0
LAYER
  2
82
 70
     0
 62
     7
  6
CONTINUOUS
  0
LAYER
  2
83
 70
     0
 62
     7
  6
CONTINUOUS
  0
LAYER
  2
84
 70
     0
 62
     7
  6
CONTINUOUS
  0
LAYER
  2
85
 70
     0
 62
     7
  6
CONTINUOUS
  0
LAYER
  2
86
 70
     0
 62
     7
  6
CONTINUOUS
  0
LAYER
  2
87
 70
     0
 62
     7
  6
CONTINUOUS
  0
LAYER
  2
88
 70
     0
 62
     7
  6
CONTINUOUS
  0
LAYER
  2
89
 70
     0
 62
     7
  6
CONTINUOUS
  0
LAYER
  2
90
 70
     0
 62
     7
  6
CONTINUOUS
  0
LAYER
  2
91
 70
     0
 62
     7
  6
CONTINUOUS
  0
LAYER
  2
92
 70
     0
 62
     7
  6
CONTINUOUS
  0
LAYER
  2
93
 70
     0
 62
     7
  6
CONTINUOUS
  0
LAYER
  2
94
 70
     0
 62
     7
  6
CONTINUOUS
  0
LAYER
  2
95
 70
     0
 62
     7
  6
CONTINUOUS
  0
LAYER
  2
96
 70
     0
 62
     7
  6
CONTINUOUS
  0
LAYER
  2
97
 70
     0
 62
     7
  6
CONTINUOUS
  0
LAYER
  2
98
 70
     0
 62
     7
  6
CONTINUOUS
  0
LAYER
  2
99
 70
     0
 62
     7
  6
CONTINUOUS
  0
LAYER
  2
100
 70
     0
 62
     7
  6
CONTINUOUS
  0
LAYER
  2
101
 70
     0
 62
     7
  6
CONTINUOUS
  0
LAYER
  2
102
 70
     0
 62
     7
  6
CONTINUOUS
  0
LAYER
  2
103
 70
     0
 62
     7
  6
CONTINUOUS
  0
LAYER
  2
104
 70
     0
 62
     7
  6
CONTINUOUS
  0
LAYER
  2
105
 70
     0
 62
     7
  6
CONTINUOUS
  0
LAYER
  2
106
 70
     0
 62
     7
  6
CONTINUOUS
  0
LAYER
  2
107
 70
     0
 62
     7
  6
CONTINUOUS
  0
LAYER
  2
108
 70
     0
 62
     7
  6
CONTINUOUS
  0
LAYER
  2
109
 70
     0
 62
     7
  6
CONTINUOUS
  0
LAYER
  2
110
 70
     0
 62
     7
  6
CONTINUOUS
  0
LAYER
  2
111
 70
     0
 62
     7
  6
CONTINUOUS
  0
LAYER
  2
112
 70
     0
 62
     7
  6
CONTINUOUS
  0
LAYER
  2
113
 70
     0
 62
     7
  6
CONTINUOUS
  0
LAYER
  2
114
 70
     0
 62
     7
  6
CONTINUOUS
  0
LAYER
  2
115
 70
     0
 62
     7
  6
CONTINUOUS
  0
LAYER
  2
116
 70
     0
 62
     7
  6
CONTINUOUS
  0
LAYER
  2
117
 70
     0
 62
     7
  6
CONTINUOUS
  0
LAYER
  2
118
 70
     0
 62
     7
  6
CONTINUOUS
  0
LAYER
  2
119
 70
     0
 62
     7
  6
CONTINUOUS
  0
LAYER
  2
120
 70
     0
 62
     7
  6
CONTINUOUS
  0
LAYER
  2
121
 70
     0
 62
     7
  6
CONTINUOUS
  0
LAYER
  2
122
 70
     0
 62
     7
  6
CONTINUOUS
  0
LAYER
  2
123
 70
     0
 62
     7
  6
CONTINUOUS
  0
LAYER
  2
124
 70
     0
 62
     7
  6
CONTINUOUS
  0
LAYER
  2
125
 70
     0
 62
     7
  6
CONTINUOUS
  0
LAYER
  2
126
 70
     0
 62
     7
  6
CONTINUOUS
  0
LAYER
  2
127
 70
     0
 62
     7
  6
CONTINUOUS
  0
LAYER
  2
128
 70
     0
 62
     7
  6
CONTINUOUS
  0
ENDTAB
  0
TABLE
  2
STYLE
 70
    81
  0
STYLE
  2
STANDARD
 70
     0
 40
0.0
 41
1.0
 50
0.0
 71
     0
 42
0.2
  3
txt.shx
  4
extfont.shx
  0
STYLE
  2
KANJI0
 70
     0
 40
14.0
 41
0.857142857
 50
0.0
 71
     0
 42
14.0
  3
txt.shx
  4
extfont.shx
  0
STYLE
  2
KANJI1
 70
     0
 40
8.4
 41
0.9
 50
0.0
 71
     0
 42
8.4
  3
txt.shx
  4
extfont.shx
  0
STYLE
  2
KANJI2
 70
     0
 40
15.0
 41
0.9
 50
0.0
 71
     0
 42
15.0
  3
txt.shx
  4
extfont.shx
  0
STYLE
  2
KANJI3
 70
     0
 40
9.999997897
 41
0.6
 50
0.0
 71
     0
 42
9.999997897
  3
txt.shx
  4
extfont.shx
  0
STYLE
  2
KANJI4
 70
     0
 40
11.999997477
 41
0.9
 50
0.0
 71
     0
 42
11.999997477
  3
txt.shx
  4
extfont.shx
  0
STYLE
  2
KANJI5
 70
     0
 40
14.999996846
 41
0.9
 50
0.0
 71
     0
 42
14.999996846
  3
txt.shx
  4
extfont.shx
  0
STYLE
  2
KANJI6
 70
     0
 40
12.999999
 41
0.75
 50
0.0
 71
     0
 42
12.999999
  3
txt.shx
  4
extfont.shx
  0
STYLE
  2
KANJI7
 70
     0
 40
8.666666
 41
0.6
 50
0.0
 71
     0
 42
8.666666
  3
txt.shx
  4
extfont.shx
  0
STYLE
  2
KANJI8
 70
     0
 40
10.3999992
 41
0.6
 50
0.0
 71
     0
 42
10.3999992
  3
txt.shx
  4
extfont.shx
  0
STYLE
  2
KANJI9
 70
     0
 40
15.1666655
 41
0.42031746
 50
0.0
 71
     0
 42
15.1666655
  3
txt.shx
  4
extfont.shx
  0
STYLE
  2
KANJI10
 70
     0
 40
25.999998
 41
0.9
 50
0.0
 71
     0
 42
25.999998
  3
txt.shx
  4
extfont.shx
  0
STYLE
  2
KANJI11
 70
     0
 40
8.666666
 41
0.8
 50
0.0
 71
     0
 42
8.666666
  3
txt.shx
  4
extfont.shx
  0
STYLE
  2
KANJI12
 70
     0
 40
10.3999992
 41
0.8
 50
0.0
 71
     0
 42
10.3999992
  3
txt.shx
  4
extfont.shx
  0
STYLE
  2
KANJI13
 70
     0
 40
25.0
 41
1.0
 50
0.0
 71
     0
 42
25.0
  3
txt.shx
  4
extfont.shx
  0
STYLE
  2
KANJI14
 70
     0
 40
25.0
 41
1.0
 50
0.0
 71
     0
 42
25.0
  3
txt.shx
  4
extfont.shx
  0
STYLE
  2
KANJI15
 70
     0
 40
25.0
 41
0.8
 50
0.0
 71
     0
 42
25.0
  3
txt.shx
  4
extfont.shx
  0
STYLE
  2
KANJI16
 70
     0
 40
20.0
 41
1.0
 50
0.0
 71
     0
 42
20.0
  3
txt.shx
  4
extfont.shx
  0
STYLE
  2
KANJI17
 70
     0
 40
17.5
 41
0.793650794
 50
0.0
 71
     0
 42
17.5
  3
txt.shx
  4
extfont.shx
  0
STYLE
  2
KANJI18
 70
     0
 40
18.0
 41
1.111111111
 50
0.0
 71
     0
 42
18.0
  3
txt.shx
  4
extfont.shx
  0
STYLE
  2
KANJI19
 70
     0
 40
17.5
 41
0.857142857
 50
0.0
 71
     0
 42
17.5
  3
txt.shx
  4
extfont.shx
  0
STYLE
  2
KANJI20
 70
     0
 40
22.5
 41
0.666666667
 50
0.0
 71
     0
 42
22.5
  3
txt.shx
  4
extfont.shx
  0
STYLE
  2
KANJI21
 70
     0
 40
25.0
 41
0.8
 50
0.0
 71
     0
 42
25.0
  3
txt.shx
  4
extfont.shx
  0
STYLE
  2
KANJI22
 70
     0
 40
15.0
 41
1.0
 50
0.0
 71
     0
 42
15.0
  3
txt.shx
  4
extfont.shx
  0
STYLE
  2
KANJI23
 70
     0
 40
12.8
 41
0.9
 50
0.0
 71
     0
 42
12.8
  3
txt.shx
  4
extfont.shx
  0
STYLE
  2
KANJI24
 70
     0
 40
12.0
 41
0.9
 50
0.0
 71
     0
 42
12.0
  3
txt.shx
  4
extfont.shx
  0
STYLE
  2
KANJI25
 70
     0
 40
12.0
 41
0.9
 50
0.0
 71
     0
 42
12.0
  3
txt.shx
  4
extfont.shx
  0
STYLE
  2
KANJI26
 70
     0
 40
14.0
 41
0.9
 50
0.0
 71
     0
 42
14.0
  3
txt.shx
  4
extfont.shx
  0
STYLE
  2
KANJI27
 70
     0
 40
10.8
 41
0.740740741
 50
0.0
 71
     0
 42
10.8
  3
txt.shx
  4
extfont.shx
  0
STYLE
  2
KANJI28
 70
     0
 40
14.0
 41
0.857142857
 50
0.0
 71
     0
 42
14.0
  3
txt.shx
  4
extfont.shx
  0
STYLE
  2
KANJI29
 70
     0
 40
12.0
 41
0.833333333
 50
0.0
 71
     0
 42
12.0
  3
txt.shx
  4
extfont.shx
  0
STYLE
  2
KANJI30
 70
     0
 40
11.55
 41
0.9
 50
0.0
 71
     0
 42
11.55
  3
txt.shx
  4
extfont.shx
  0
STYLE
  2
KANJI31
 70
     0
 40
13.182
 41
0.85
 50
0.0
 71
     0
 42
13.182
  3
txt.shx
  4
extfont.shx
  0
STYLE
  2
KANJI32
 70
     0
 40
11.661
 41
0.822608696
 50
0.0
 71
     0
 42
11.661
  3
txt.shx
  4
extfont.shx
  0
STYLE
  2
KANJI33
 70
     0
 40
11.8638
 41
0.726495726
 50
0.0
 71
     0
 42
11.8638
  3
txt.shx
  4
extfont.shx
  0
STYLE
  2
KANJI34
 70
     4
 40
45.0
 41
0.538166667
 50
0.0
 71
     0
 42
45.0
  3
txt.shx
  4
extfont.shx
  0
STYLE
  2
KANJI35
 70
     0
 40
17.740702234
 41
0.880962996
 50
0.0
 71
     0
 42
17.740702234
  3
txt.shx
  4
extfont.shx
  0
STYLE
  2
KANJI36
 70
     0
 40
11.7
 41
0.8
 50
0.0
 71
     0
 42
11.7
  3
txt.shx
  4
extfont.shx
  0
STYLE
  2
KANJI37
 70
     0
 40
15.0
 41
0.911
 50
0.0
 71
     0
 42
15.0
  3
txt.shx
  4
extfont.shx
  0
STYLE
  2
KANJI38
 70
     0
 40
20.0
 41
0.9
 50
0.0
 71
     0
 42
20.0
  3
txt.shx
  4
extfont.shx
  0
STYLE
  2
KANJI39
 70
     0
 40
18.0
 41
0.857142857
 50
0.0
 71
     0
 42
18.0
  3
txt.shx
  4
extfont.shx
  0
STYLE
  2
KANJI40
 70
     0
 40
18.0
 41
0.857222222
 50
0.0
 71
     0
 42
18.0
  3
txt.shx
  4
extfont.shx
  0
STYLE
  2
KANJI41
 70
     0
 40
13.475
 41
0.9
 50
0.0
 71
     0
 42
13.475
  3
txt.shx
  4
extfont.shx
  0
STYLE
  2
KANJI42
 70
     0
 40
20.0
 41
0.925
 50
0.0
 71
     0
 42
20.0
  3
txt.shx
  4
extfont.shx
  0
STYLE
  2
KANJI43
 70
     0
 40
15.0
 41
0.9
 50
0.0
 71
     0
 42
15.0
  3
txt.shx
  4
extfont.shx
  0
STYLE
  2
KANJI44
 70
     0
 40
20.0
 41
0.925
 50
0.0
 71
     0
 42
20.0
  3
txt.shx
  4
extfont.shx
  0
STYLE
  2
KANJI45
 70
     0
 40
10.933904043
 41
0.9
 50
0.0
 71
     0
 42
10.933904043
  3
txt.shx
  4
extfont.shx
  0
STYLE
  2
KANJI46
 70
     0
 40
15.185977837
 41
0.66671875
 50
0.0
 71
     0
 42
15.185977837
  3
txt.shx
  4
extfont.shx
  0
STYLE
  2
KANJI47
 70
     0
 40
18.223173404
 41
0.9
 50
0.0
 71
     0
 42
18.223173404
  3
txt.shx
  4
extfont.shx
  0
STYLE
  2
KANJI48
 70
     0
 40
15.6
 41
0.925
 50
0.0
 71
     0
 42
15.6
  3
txt.shx
  4
extfont.shx
  0
STYLE
  2
KANJI49
 70
     0
 40
14.578538724
 41
0.9
 50
0.0
 71
     0
 42
14.578538724
  3
txt.shx
  4
extfont.shx
  0
STYLE
  2
KANJI50
 70
     0
 40
15.0
 41
0.9
 50
0.0
 71
     0
 42
15.0
  3
txt.shx
  4
extfont.shx
  0
STYLE
  2
KANJI51
 70
     0
 40
16.0
 41
0.925
 50
0.0
 71
     0
 42
16.0
  3
txt.shx
  4
extfont.shx
  0
STYLE
  2
KANJI52
 70
     0
 40
17.5
 41
0.9
 50
0.0
 71
     0
 42
17.5
  3
txt.shx
  4
extfont.shx
  0
STYLE
  2
KANJI53
 70
     0
 40
17.5
 41
0.9
 50
0.0
 71
     0
 42
17.5
  3
txt.shx
  4
extfont.shx
  0
STYLE
  2
KANJI54
 70
     0
 40
17.5
 41
0.9
 50
0.0
 71
     0
 42
17.5
  3
txt.shx
  4
extfont.shx
  0
STYLE
  2
KANJI55
 70
     0
 40
17.5
 41
0.9
 50
0.0
 71
     0
 42
17.5
  3
txt.shx
  4
extfont.shx
  0
STYLE
  2
KANJI56
 70
     0
 40
22.5
 41
0.9
 50
0.0
 71
     0
 42
22.5
  3
txt.shx
  4
extfont.shx
  0
STYLE
  2
KANJI57
 70
     0
 40
17.5
 41
0.9
 50
0.0
 71
     0
 42
17.5
  3
txt.shx
  4
extfont.shx
  0
STYLE
  2
KANJI58
 70
     0
 40
17.5
 41
0.9
 50
0.0
 71
     0
 42
17.5
  3
txt.shx
  4
extfont.shx
  0
STYLE
  2
KANJI59
 70
     0
 40
17.5
 41
0.9
 50
0.0
 71
     0
 42
17.5
  3
txt.shx
  4
extfont.shx
  0
STYLE
  2
KANJI60
 70
     0
 40
17.5
 41
0.9
 50
0.0
 71
     0
 42
17.5
  3
txt.shx
  4
extfont.shx
  0
STYLE
  2
KANJI61
 70
     0
 40
17.5
 41
0.9
 50
0.0
 71
     0
 42
17.5
  3
txt.shx
  4
extfont.shx
  0
STYLE
  2
KANJI62
 70
     4
 40
17.5
 41
0.9
 50
0.0
 71
     0
 42
17.5
  3
txt.shx
  4
extfont.shx
  0
STYLE
  2
KANJI63
 70
     4
 40
15.0
 41
0.9
 50
0.0
 71
     0
 42
15.0
  3
txt.shx
  4
extfont.shx
  0
STYLE
  2
KANJI64
 70
     0
 40
12.5
 41
0.8
 50
0.0
 71
     0
 42
12.5
  3
txt.shx
  4
extfont.shx
  0
STYLE
  2
KANJI65
 70
     0
 40
17.5
 41
0.9
 50
0.0
 71
     0
 42
17.5
  3
txt.shx
  4
extfont.shx
  0
STYLE
  2
KANJI66
 70
     0
 40
15.0
 41
0.9
 50
0.0
 71
     0
 42
15.0
  3
txt.shx
  4
extfont.shx
  0
STYLE
  2
KANJI67
 70
     0
 40
15.0
 41
0.857142857
 50
0.0
 71
     0
 42
15.0
  3
txt.shx
  4
extfont.shx
  0
STYLE
  2
KANJI68
 70
     0
 40
17.5
 41
0.9
 50
0.0
 71
     0
 42
17.5
  3
txt.shx
  4
extfont.shx
  0
STYLE
  2
KANJI69
 70
     0
 40
14.0
 41
0.9
 50
0.0
 71
     0
 42
14.0
  3
txt.shx
  4
extfont.shx
  0
STYLE
  2
KANJI70
 70
     0
 40
14.0
 41
0.785714286
 50
0.0
 71
     0
 42
14.0
  3
txt.shx
  4
extfont.shx
  0
STYLE
  2
KANJI71
 70
     0
 40
14.0
 41
0.8
 50
0.0
 71
     0
 42
14.0
  3
txt.shx
  4
extfont.shx
  0
STYLE
  2
KANJI72
 70
     0
 40
17.5
 41
0.9
 50
0.0
 71
     0
 42
17.5
  3
txt.shx
  4
extfont.shx
  0
STYLE
  2
KANJI73
 70
     0
 40
15.0
 41
0.8
 50
0.0
 71
     0
 42
15.0
  3
txt.shx
  4
extfont.shx
  0
STYLE
  2
KANJI74
 70
     0
 40
15.0
 41
0.9
 50
0.0
 71
     0
 42
15.0
  3
txt.shx
  4
extfont.shx
  0
STYLE
  2
KANJI75
 70
     0
 40
15.0
 41
0.833333333
 50
0.0
 71
     0
 42
15.0
  3
txt.shx
  4
extfont.shx
  0
STYLE
  2
KANJI76
 70
     0
 40
17.5
 41
0.9
 50
0.0
 71
     0
 42
17.5
  3
txt.shx
  4
extfont.shx
  0
STYLE
  2
KANJI77
 70
     0
 40
15.0
 41
0.833333333
 50
0.0
 71
     0
 42
15.0
  3
txt.shx
  4
extfont.shx
  0
STYLE
  2
KANJI78
 70
     0
 40
17.5
 41
0.9
 50
0.0
 71
     0
 42
17.5
  3
txt.shx
  4
extfont.shx
  0
STYLE
  2
KANJI79
 70
     0
 40
17.5
 41
0.571428571
 50
0.0
 71
     0
 42
17.5
  3
txt.shx
  4
extfont.shx
  0
ENDTAB
  0
TABLE
  2
VIEW
 70
     0
  0
ENDTAB
  0
ENDSEC
  0
SECTION
  2
BLOCKS
  0
ENDSEC
  0
SECTION
  2
ENTITIES
  0
LINE
  8
0
  6
CONTINUOUS
 62
     1
 10
893.0
 20
534.75
 30
0.0
 11
893.0
 21
566.5
 31
0.0
  0
LINE
  8
0
  6
CONTINUOUS
 62
     1
 10
1036.0
 20
549.5
 30
0.0
 11
1036.0
 21
566.5
 31
0.0
  0
LINE
  8
0
  6
CONTINUOUS
 62
     1
 10
1033.0
 20
546.5
 30
0.0
 11
1036.0
 21
549.5
 31
0.0
  0
LINE
  8
0
  6
CONTINUOUS
 62
     1
 10
1036.0
 20
583.5
 30
0.0
 11
1036.0
 21
566.5
 31
0.0
  0
LINE
  8
0
  6
CONTINUOUS
 62
     1
 10
1033.0
 20
586.5
 30
0.0
 11
1036.0
 21
583.5
 31
0.0
  0
CIRCLE
  8
0
  6
CONTINUOUS
 62
     1
 10
1018.0
 20
566.5
 30
0.0
 40
8.0
  0
LINE
  8
0
  6
LTYPE1
 62
     1
 10
993.0
 20
546.5
 30
0.0
 11
993.0
 21
566.5
 31
0.0
  0
LINE
  8
0
  6
LTYPE1
 62
     1
 10
993.0
 20
586.5
 30
0.0
 11
993.0
 21
566.5
 31
0.0
  0
LINE
  8
0
  6
CONTINUOUS
 62
     1
 10
743.0
 20
526.5
 30
0.0
 11
743.0
 21
606.5
 31
0.0
  0
POINT
  8
0
  6
CONTINUOUS
 62
     1
 10
849.639501379
 20
566.5
 30
0.0
  0
LINE
  8
0
  6
CONTINUOUS
 62
     2
 10
1018.0
 20
406.85
 30
0.0
 11
1018.0
 21
415.35
 31
0.0
  0
LINE
  8
0
  6
CONTINUOUS
 62
     2
 10
1065.8
 20
546.5
 30
0.0
 11
1068.388190451
 21
556.159258263
 31
0.0
  0
LINE
  8
0
  6
CONTINUOUS
 62
     2
 10
1065.8
 20
546.5
 30
0.0
 11
1063.211809549
 21
556.159258263
 31
0.0
  0
LINE
  8
0
  6
CONTINUOUS
 62
     2
 10
1065.8
 20
546.5
 30
0.0
 11
1065.8
 21
586.5
 31
0.0
  0
LINE
  8
0
  6
CONTINUOUS
 62
     2
 10
1065.8
 20
586.5
 30
0.0
 11
1063.211809549
 21
576.840741737
 31
0.0
  0
LINE
  8
0
  6
CONTINUOUS
 62
     2
 10
1065.8
 20
586.5
 30
0.0
 11
1068.388190451
 21
576.840741737
 31
0.0
  0
LINE
  8
0
  6
CONTINUOUS
 62
     1
 10
872.999501379
 20
598.25
 30
0.0
 11
923.0
 21
598.25
 31
0.0
  0
CIRCLE
  8
0
  6
CONTINUOUS
 62
     1
 10
637.0
 20
566.5
 30
0.0
 40
20.0
  0
CIRCLE
  8
0
  6
CONTINUOUS
 62
     1
 10
637.0
 20
566.5
 30
0.0
 40
8.0
  0
CIRCLE
  8
0
  6
CONTINUOUS
 62
     1
 10
637.0
 20
566.5
 30
0.0
 40
27.0
  0
LINE
  8
0
  6
CONTINUOUS
 62
     1
 10
661.0
 20
579.0
 30
0.0
 11
661.0
 21
609.5
 31
0.0
  0
LINE
  8
0
  6
CONTINUOUS
 62
     1
 10
661.0
 20
609.5
 30
0.0
 11
735.0
 21
609.5
 31
0.0
  0
LINE
  8
0
  6
CONTINUOUS
 62
     1
 10
575.0
 20
515.5
 30
0.0
 11
575.0
 21
617.5
 31
0.0
  0
LINE
  8
0
  6
CONTINUOUS
 62
     1
 10
578.0
 20
529.5
 30
0.0
 11
735.0
 21
529.5
 31
0.0
  0
LINE
  8
0
  6
CONTINUOUS
 62
     1
 10
578.0
 20
603.5
 30
0.0
 11
661.0
 21
603.5
 31
0.0
  0
ARC
  8
0
  6
CONTINUOUS
 62
     1
 10
578.0
 20
606.5
 30
0.0
 40
3.0
 50
183.814074834
 51
272.952201748
  0
ARC
  8
0
  6
CONTINUOUS
 62
     1
 10
577.8
 20
526.5
 30
0.0
 40
3.0
 50
86.177446273
 51
182.106627847
  0
LINE
  8
0
  6
CONTINUOUS
 62
     1
 10
743.0
 20
526.5
 30
0.0
 11
743.0
 21
606.5
 31
0.0
  0
LINE
  8
0
  6
CONTINUOUS
 62
     1
 10
735.0
 20
526.5
 30
0.0
 11
743.0
 21
526.5
 31
0.0
  0
LINE
  8
0
  6
CONTINUOUS
 62
     1
 10
735.0
 20
606.5
 30
0.0
 11
743.0
 21
606.5
 31
0.0
  0
LINE
  8
0
  6
CONTINUOUS
 62
     1
 10
735.0
 20
603.5
 30
0.0
 11
743.0
 21
603.5
 31
0.0
  0
LINE
  8
0
  6
CONTINUOUS
 62
     1
 10
735.0
 20
529.5
 30
0.0
 11
743.0
 21
529.5
 31
0.0
  0
LINE
  8
0
  6
CONTINUOUS
 62
     1
 10
735.0
 20
565.0
 30
0.0
 11
743.0
 21
565.0
 31
0.0
  0
LINE
  8
0
  6
CONTINUOUS
 62
     1
 10
735.0
 20
568.0
 30
0.0
 11
743.0
 21
568.0
 31
0.0
  0
LINE
  8
0
  6
CONTINUOUS
 62
     1
 10
618.0
 20
655.5
 30
0.0
 11
743.0
 21
655.5
 31
0.0
  0
LINE
  8
0
  6
CONTINUOUS
 62
     1
 10
735.0
 20
526.5
 30
0.0
 11
735.0
 21
611.0
 31
0.0
  0
LINE
  8
0
  6
CONTINUOUS
 62
     1
 10
613.0
 20
654.0
 30
0.0
 11
743.0
 21
654.0
 31
0.0
  0
LINE
  8
0
  6
CONTINUOUS
 62
     1
 10
613.0
 20
611.0
 30
0.0
 11
613.0
 21
654.0
 31
0.0
  0
LINE
  8
0
  6
CONTINUOUS
 62
     1
 10
618.0
 20
611.0
 30
0.0
 11
618.0
 21
660.5
 31
0.0
  0
ARC
  8
0
  6
CONTINUOUS
 62
     1
 10
620.0
 20
660.5
 30
0.0
 40
2.0
 50
90.0
 51
180.0
  0
LINE
  8
0
  6
CONTINUOUS
 62
     1
 10
620.0
 20
662.5
 30
0.0
 11
741.0
 21
662.5
 31
0.0
  0
ARC
  8
0
  6
CONTINUOUS
 62
     1
 10
741.0
 20
660.5
 30
0.0
 40
2.0
 50
0.0
 51
90.0
  0
LINE
  8
0
  6
CONTINUOUS
 62
     1
 10
613.0
 20
611.0
 30
0.0
 11
741.0
 21
611.0
 31
0.0
  0
LINE
  8
0
  6
CONTINUOUS
 62
     1
 10
743.0
 20
613.0
 30
0.0
 11
743.0
 21
660.5
 31
0.0
  0
ARC
  8
0
  6
CONTINUOUS
 62
     1
 10
741.0
 20
613.0
 30
0.0
 40
2.0
 50
270.0
 51
360.0
  0
LINE
  8
0
  6
CONTINUOUS
 62
     1
 10
661.0
 20
589.5
 30
0.0
 11
735.0
 21
589.5
 31
0.0
  0
LINE
  8
0
  6
LTYPE2
 62
     2
 10
637.0
 20
513.5
 30
0.0
 11
637.0
 21
619.5
 31
0.0
  0
LINE
  8
0
  6
LTYPE2
 62
     2
 10
698.0
 20
597.143325909
 30
0.0
 11
698.0
 21
613.5
 31
0.0
  0
LINE
  8
0
  6
LTYPE2
 62
     2
 10
606.0
 20
637.0
 30
0.0
 11
629.0
 21
637.0
 31
0.0
  0
LINE
  8
0
  6
CONTINUOUS
 62
     2
 10
639.7
 20
559.5
 30
0.0
 11
639.669254685
 21
549.500047264
 31
0.0
  0
LINE
  8
0
  6
CONTINUOUS
 62
     2
 10
639.7
 20
559.5
 30
0.0
 11
644.673350144
 21
550.824414236
 31
0.0
  0
LINE
  8
0
  6
CONTINUOUS
 62
     2
 10
613.0
 20
637.0
 30
0.0
 11
610.34257427
 21
646.640440264
 31
0.0
  0
LINE
  8
0
  6
CONTINUOUS
 62
     2
 10
613.0
 20
637.0
 30
0.0
 11
605.878381677
 21
644.020153308
 31
0.0
  0
LINE
  8
0
  6
CONTINUOUS
 62
     2
 10
639.7
 20
559.5
 30
0.0
 11
687.1
 21
380.4
 31
0.0
  0
LINE
  8
0
  6
CONTINUOUS
 62
     2
 10
613.0
 20
637.0
 30
0.0
 11
586.0
 21
683.0
 31
0.0
  0
LINE
  8
0
  6
LTYPE1
 62
     2
 10
613.0
 20
646.3
 30
0.0
 11
623.891504854
 21
646.3
 31
0.0
  0
LINE
  8
0
  6
LTYPE1
 62
     2
 10
613.0
 20
647.5
 30
0.0
 11
623.894417476
 21
647.5
 31
0.0
  0
LINE
  8
0
  6
LTYPE1
 62
     2
 10
613.0
 20
626.5
 30
0.0
 11
623.843446602
 21
626.5
 31
0.0
  0
LINE
  8
0
  6
LTYPE1
 62
     2
 10
613.0
 20
627.7
 30
0.0
 11
623.846359223
 21
627.7
 31
0.0
  0
LINE
  8
0
  6
CONTINUOUS
 62
     2
 10
700.0
 20
654.4
 30
0.0
 11
707.340707918
 21
661.190729509
 31
0.0
  0
LINE
  8
0
  6
CONTINUOUS
 62
     2
 10
700.0
 20
654.4
 30
0.0
 11
702.961874784
 21
663.951298224
 31
0.0
  0
LINE
  8
0
  6
CONTINUOUS
 62
     2
 10
700.0
 20
654.4
 30
0.0
 11
729.0
 21
700.4
 31
0.0
  0
LINE
  8
0
  6
CONTINUOUS
 62
     1
 10
778.5
 20
579.0
 30
0.0
 11
803.5
 21
579.0
 31
0.0
  0
LINE
  8
0
  6
CONTINUOUS
 62
     1
 10
803.5
 20
554.0
 30
0.0
 11
803.5
 21
579.0
 31
0.0
  0
LINE
  8
0
  6
CONTINUOUS
 62
     1
 10
778.5
 20
554.0
 30
0.0
 11
803.5
 21
554.0
 31
0.0
  0
LINE
  8
0
  6
CONTINUOUS
 62
     1
 10
778.5
 20
554.0
 30
0.0
 11
778.5
 21
579.0
 31
0.0
  0
CIRCLE
  8
0
  6
CONTINUOUS
 62
     1
 10
791.0
 20
566.5
 30
0.0
 40
12.5
  0
LINE
  8
0
  6
LTYPE2
 62
     2
 10
791.0
 20
585.2
 30
0.0
 11
791.0
 21
545.5
 31
0.0
  0
LINE
  8
0
  6
CONTINUOUS
 62
     2
 10
786.450185255
 20
558.35
 30
0.0
 11
786.260119959
 21
548.351806404
 31
0.0
  0
LINE
  8
0
  6
CONTINUOUS
 62
     2
 10
786.450185255
 20
558.35
 30
0.0
 11
781.286487082
 21
549.786343002
 31
0.0
  0
LINE
  8
0
  6
LTYPE3
 62
     2
 10
776.349814745
 20
529.5
 30
0.0
 11
776.349814745
 21
600.95
 31
0.0
  0
LINE
  8
0
  6
CONTINUOUS
 62
     2
 10
786.450185255
 20
558.35
 30
0.0
 11
765.897884886
 21
487.093820875
 31
0.0
  0
LINE
  8
0
  6
CONTINUOUS
 62
     2
 10
822.2
 20
598.25
 30
0.0
 11
819.611809549
 21
588.590741737
 31
0.0
  0
LINE
  8
0
  6
CONTINUOUS
 62
     2
 10
822.2
 20
598.25
 30
0.0
 11
824.788190451
 21
588.590741737
 31
0.0
  0
LINE
  8
0
  6
CONTINUOUS
 62
     2
 10
822.2
 20
534.75
 30
0.0
 11
822.2
 21
639.3
 31
0.0
  0
LINE
  8
0
  6
CONTINUOUS
 62
     2
 10
822.2
 20
534.75
 30
0.0
 11
824.788190451
 21
544.409258263
 31
0.0
  0
LINE
  8
0
  6
CONTINUOUS
 62
     2
 10
822.2
 20
534.75
 30
0.0
 11
819.611809549
 21
544.409258263
 31
0.0
  0
LINE
  8
0
  6
CONTINUOUS
 62
     1
 10
776.349814745
 20
598.25
 30
0.0
 11
872.999501379
 21
598.25
 31
0.0
  0
LINE
  8
0
  6
LTYPE3
 62
     2
 10
770.349814745
 20
529.5
 30
0.0
 11
770.349814745
 21
600.95
 31
0.0
  0
LINE
  8
0
  6
CONTINUOUS
 62
     1
 10
743.0
 20
598.25
 30
0.0
 11
770.349814745
 21
598.25
 31
0.0
  0
LINE
  8
0
  6
CONTINUOUS
 62
     1
 10
743.0
 20
534.75
 30
0.0
 11
770.349814745
 21
534.75
 31
0.0
  0
LINE
  8
0
  6
CONTINUOUS
 62
     1
 10
923.0
 20
585.5
 30
0.0
 11
983.0
 21
585.5
 31
0.0
  0
LINE
  8
0
  6
CONTINUOUS
 62
     1
 10
923.0
 20
598.25
 30
0.0
 11
923.0
 21
534.75
 31
0.0
  0
LINE
  8
0
  6
CONTINUOUS
 62
     1
 10
776.349814745
 20
534.75
 30
0.0
 11
923.0
 21
534.75
 31
0.0
  0
LINE
  8
0
  6
CONTINUOUS
 62
     1
 10
893.0
 20
598.25
 30
0.0
 11
893.0
 21
534.75
 31
0.0
  0
LINE
  8
0
  6
CONTINUOUS
 62
     1
 10
983.0
 20
586.5
 30
0.0
 11
1033.0
 21
586.5
 31
0.0
  0
LINE
  8
0
  6
CONTINUOUS
 62
     1
 10
983.0
 20
546.5
 30
0.0
 11
983.0
 21
586.5
 31
0.0
  0
LINE
  8
0
  6
CONTINUOUS
 62
     1
 10
983.0
 20
546.5
 30
0.0
 11
1033.0
 21
546.5
 31
0.0
  0
LINE
  8
0
  6
CONTINUOUS
 62
     1
 10
923.0
 20
547.5
 30
0.0
 11
983.0
 21
547.5
 31
0.0
  0
LINE
  8
2
  6
CONTINUOUS
 62
     2
 10
959.0
 20
585.5
 30
0.0
 11
964.0
 21
585.5
 31
0.0
  0
LINE
  8
2
  6
CONTINUOUS
 62
     2
 10
956.0
 20
585.5
 30
0.0
 11
953.411809549
 21
575.840741737
 31
0.0
  0
LINE
  8
2
  6
CONTINUOUS
 62
     2
 10
956.0
 20
585.5
 30
0.0
 11
958.588190451
 21
575.840741737
 31
0.0
  0
LINE
  8
2
  6
CONTINUOUS
 62
     2
 10
956.0
 20
636.3
 30
0.0
 11
956.0
 21
547.5
 31
0.0
  0
LINE
  8
2
  6
CONTINUOUS
 62
     2
 10
956.0
 20
547.5
 30
0.0
 11
958.588190451
 21
557.159258263
 31
0.0
  0
LINE
  8
2
  6
CONTINUOUS
 62
     2
 10
956.0
 20
547.5
 30
0.0
 11
953.411809549
 21
557.159258263
 31
0.0
  0
LINE
  8
2
  6
CONTINUOUS
 62
     2
 10
958.0
 20
547.5
 30
0.0
 11
964.0
 21
547.5
 31
0.0
  0
LINE
  8
0
  6
CONTINUOUS
 62
     1
 10
507.0
 20
573.5
 30
0.0
 11
507.0
 21
453.5
 31
0.0
  0
LINE
  8
0
  6
CONTINUOUS
 62
     1
 10
493.0
 20
513.5
 30
0.0
 11
493.0
 21
570.5
 31
0.0
  0
ARC
  8
0
  6
CONTINUOUS
 62
     1
 10
497.5
 20
572.0
 30
0.0
 40
1.5
 50
270.0
 51
0.0
  0
LINE
  8
0
  6
CONTINUOUS
 62
     1
 10
499.0
 20
572.0
 30
0.0
 11
499.0
 21
573.0
 31
0.0
  0
ARC
  8
0
  6
CONTINUOUS
 62
     1
 10
500.5
 20
573.0
 30
0.0
 40
1.5
 50
90.0
 51
180.0
  0
LINE
  8
0
  6
CONTINUOUS
 62
     1
 10
344.0
 20
513.5
 30
0.0
 11
344.0
 21
570.5
 31
0.0
  0
ARC
  8
0
  6
CONTINUOUS
 62
     1
 10
340.5
 20
569.0
 30
0.0
 40
1.5
 50
90.0
 51
180.0
  0
LINE
  8
0
  6
CONTINUOUS
 62
     1
 10
499.0
 20
513.5
 30
0.0
 11
499.0
 21
572.6
 31
0.0
  0
LINE
  8
0
  6
CONTINUOUS
 62
     1
 10
339.0
 20
556.570524155
 30
0.0
 11
339.0
 21
569.0
 31
0.0
  0
ARC
  8
0
  6
CONTINUOUS
 62
     1
 10
337.5
 20
556.570524155
 30
0.0
 40
1.5
 50
288.970407808
 51
0.0
  0
LINE
  8
0
  6
CONTINUOUS
 62
     1
 10
323.0
 20
513.5
 30
0.0
 11
323.0
 21
548.929475845
 31
0.0
  0
LINE
  8
0
  6
CONTINUOUS
 62
     1
 10
324.012380347
 20
550.348005744
 30
0.0
 11
337.987619653
 21
555.151994256
 31
0.0
  0
ARC
  8
0
  6
CONTINUOUS
 62
     1
 10
324.5
 20
548.929475845
 30
0.0
 40
1.5
 50
108.970407808
 51
180.0
  0
LINE
  8
0
  6
CONTINUOUS
 62
     1
 10
339.0
 20
513.5
 30
0.0
 11
339.0
 21
556.570524155
 31
0.0
  0
ARC
  8
0
  6
CONTINUOUS
 62
     1
 10
311.0
 20
530.0
 30
0.0
 40
1.0
 50
90.0
 51
180.0
  0
LINE
  8
0
  6
CONTINUOUS
 62
     1
 10
311.0
 20
531.0
 30
0.0
 11
323.0
 21
531.0
 31
0.0
  0
LINE
  8
0
  6
CONTINUOUS
 62
     1
 10
310.0
 20
513.5
 30
0.0
 11
310.0
 21
530.0
 31
0.0
  0
LINE
  8
0
  6
CONTINUOUS
 62
     1
 10
493.0
 20
513.5
 30
0.0
 11
493.0
 21
456.5
 31
0.0
  0
ARC
  8
0
  6
CONTINUOUS
 62
     1
 10
497.5
 20
455.0
 30
0.0
 40
1.5
 50
0.0
 51
90.0
  0
LINE
  8
0
  6
CONTINUOUS
 62
     1
 10
499.0
 20
455.0
 30
0.0
 11
499.0
 21
454.0
 31
0.0
  0
ARC
  8
0
  6
CONTINUOUS
 62
     1
 10
500.5
 20
454.0
 30
0.0
 40
1.5
 50
180.0
 51
270.0
  0
LINE
  8
0
  6
CONTINUOUS
 62
     1
 10
344.0
 20
513.5
 30
0.0
 11
344.0
 21
456.5
 31
0.0
  0
LINE
  8
0
  6
CONTINUOUS
 62
     1
 10
340.5
 20
456.5
 30
0.0
 11
497.5
 21
456.5
 31
0.0
  0
ARC
  8
0
  6
CONTINUOUS
 62
     1
 10
340.5
 20
458.0
 30
0.0
 40
1.5
 50
180.0
 51
270.0
  0
LINE
  8
0
  6
CONTINUOUS
 62
     1
 10
499.0
 20
513.5
 30
0.0
 11
499.0
 21
454.4
 31
0.0
  0
LINE
  8
0
  6
CONTINUOUS
 62
     1
 10
323.0
 20
513.5
 30
0.0
 11
323.0
 21
478.070524155
 31
0.0
  0
ARC
  8
0
  6
CONTINUOUS
 62
     1
 10
324.5
 20
478.070524155
 30
0.0
 40
1.5
 50
180.0
 51
251.029592192
  0
ARC
  8
0
  6
CONTINUOUS
 62
     1
 10
311.0
 20
497.0
 30
0.0
 40
1.0
 50
180.0
 51
270.0
  0
LINE
  8
0
  6
CONTINUOUS
 62
     1
 10
311.0
 20
496.0
 30
0.0
 11
323.0
 21
496.0
 31
0.0
  0
LINE
  8
0
  6
CONTINUOUS
 62
     1
 10
310.0
 20
513.5
 30
0.0
 11
310.0
 21
497.0
 31
0.0
  0
LINE
  8
0
  6
LTYPE4
 62
     2
 10
331.0
 20
549.562445841
 30
0.0
 11
342.0
 21
549.562445841
 31
0.0
  0
LINE
  8
0
  6
CONTINUOUS
 62
     1
 10
339.0
 20
470.429475845
 30
0.0
 11
339.0
 21
458.0
 31
0.0
  0
LINE
  8
0
  6
CONTINUOUS
 62
     1
 10
324.012380347
 20
476.651994256
 30
0.0
 11
337.987619653
 21
471.848005744
 31
0.0
  0
LINE
  8
0
  6
CONTINUOUS
 62
     1
 10
339.0
 20
513.5
 30
0.0
 11
339.0
 21
470.429475845
 31
0.0
  0
LINE
  8
0
  6
LTYPE4
 62
     2
 10
331.0
 20
477.437554159
 30
0.0
 11
342.0
 21
477.437554159
 31
0.0
  0
ARC
  8
0
  6
CONTINUOUS
 62
     1
 10
480.0
 20
573.5
 30
0.0
 40
3.0
 50
270.0
 51
0.0
  0
LINE
  8
0
  6
CONTINUOUS
 62
     1
 10
340.5
 20
570.5
 30
0.0
 11
497.5
 21
570.5
 31
0.0
  0
ARC
  8
0
  6
CONTINUOUS
 62
     1
 10
440.0
 20
573.5
 30
0.0
 40
3.0
 50
180.0
 51
270.0
  0
LINE
  8
0
  6
LTYPE4
 62
     2
 10
460.0
 20
558.5
 30
0.0
 11
460.0
 21
646.4321338
 31
0.0
  0
LINE
  8
0
  6
CONTINUOUS
 62
     1
 10
295.5
 20
529.0
 30
0.0
 11
310.0
 21
529.0
 31
0.0
  0
ARC
  8
0
  6
CONTINUOUS
 62
     1
 10
295.5
 20
527.5
 30
0.0
 40
1.5
 50
90.0
 51
180.0
  0
LINE
  8
0
  6
CONTINUOUS
 62
     1
 10
295.5
 20
498.0
 30
0.0
 11
310.0
 21
498.0
 31
0.0
  0
LINE
  8
0
  6
CONTINUOUS
 62
     1
 10
294.0
 20
499.5
 30
0.0
 11
294.0
 21
527.5
 31
0.0
  0
ARC
  8
0
  6
CONTINUOUS
 62
     1
 10
295.5
 20
499.5
 30
0.0
 40
1.5
 50
180.0
 51
270.0
  0
LINE
  8
2
  6
CONTINUOUS
 62
     2
 10
299.6
 20
531.0
 30
0.0
 11
300.280459689
 21
540.976821869
 31
0.0
  0
LINE
  8
2
  6
CONTINUOUS
 62
     2
 10
299.6
 20
531.0
 30
0.0
 11
295.200884442
 21
539.980411032
 31
0.0
  0
LINE
  8
2
  6
CONTINUOUS
 62
     2
 10
236.0
 20
452.5
 30
0.0
 11
238.588190451
 21
462.159258263
 31
0.0
  0
LINE
  8
2
  6
CONTINUOUS
 62
     2
 10
236.0
 20
452.5
 30
0.0
 11
233.411809549
 21
462.159258263
 31
0.0
  0
LINE
  8
2
  6
CONTINUOUS
 62
     2
 10
236.0
 20
452.5
 30
0.0
 11
236.0
 21
574.5
 31
0.0
  0
LINE
  8
2
  6
CONTINUOUS
 62
     2
 10
236.0
 20
574.5
 30
0.0
 11
233.411809549
 21
564.840741737
 31
0.0
  0
LINE
  8
2
  6
CONTINUOUS
 62
     2
 10
236.0
 20
574.5
 30
0.0
 11
238.588190451
 21
564.840741737
 31
0.0
  0
LINE
  8
2
  6
CONTINUOUS
 62
     2
 10
271.0
 20
570.5
 30
0.0
 11
268.411809549
 21
560.840741737
 31
0.0
  0
LINE
  8
2
  6
CONTINUOUS
 62
     2
 10
271.0
 20
570.5
 30
0.0
 11
273.588190451
 21
560.840741737
 31
0.0
  0
LINE
  8
2
  6
CONTINUOUS
 62
     2
 10
271.0
 20
570.5
 30
0.0
 11
271.0
 21
456.5
 31
0.0
  0
LINE
  8
2
  6
CONTINUOUS
 62
     2
 10
271.0
 20
456.5
 30
0.0
 11
273.588190451
 21
466.159258263
 31
0.0
  0
LINE
  8
2
  6
CONTINUOUS
 62
     2
 10
271.0
 20
456.5
 30
0.0
 11
268.411809549
 21
466.159258263
 31
0.0
  0
LINE
  8
2
  6
CONTINUOUS
 62
     2
 10
335.0
 20
570.5
 30
0.0
 11
266.5
 21
570.5
 31
0.0
  0
LINE
  8
2
  6
CONTINUOUS
 62
     2
 10
496.500009344
 20
574.5
 30
0.0
 11
231.5
 21
574.5
 31
0.0
  0
LINE
  8
2
  6
CONTINUOUS
 62
     2
 10
496.500012063
 20
452.5
 30
0.0
 11
231.5
 21
452.5
 31
0.0
  0
LINE
  8
2
  6
CONTINUOUS
 62
     2
 10
335.0
 20
456.5
 30
0.0
 11
266.5
 21
456.5
 31
0.0
  0
LINE
  8
0
  6
CONTINUOUS
 62
     1
 10
394.0
 20
591.5
 30
0.0
 11
394.0
 21
625.5
 31
0.0
  0
LINE
  8
0
  6
CONTINUOUS
 62
     1
 10
394.0
 20
591.5
 30
0.0
 11
420.0
 21
591.5
 31
0.0
  0
LINE
  8
0
  6
CONTINUOUS
 62
     1
 10
394.0
 20
625.5
 30
0.0
 11
420.0
 21
625.5
 31
0.0
  0
LINE
  8
0
  6
LTYPE4
 62
     2
 10
387.070524155
 20
608.5
 30
0.0
 11
427.070524155
 21
608.5
 31
0.0
  0
LINE
  8
0
  6
CONTINUOUS
 62
     1
 10
490.0
 20
583.5
 30
0.0
 11
490.0
 21
586.5
 31
0.0
  0
ARC
  8
0
  6
CONTINUOUS
 62
     1
 10
486.0
 20
580.5
 30
0.0
 40
3.0
 50
90.0
 51
180.0
  0
LINE
  8
0
  6
CONTINUOUS
 62
     1
 10
483.0
 20
573.5
 30
0.0
 11
483.0
 21
580.5
 31
0.0
  0
LINE
  8
0
  6
CONTINUOUS
 62
     1
 10
430.0
 20
583.5
 30
0.0
 11
430.0
 21
586.5
 31
0.0
  0
ARC
  8
0
  6
CONTINUOUS
 62
     1
 10
434.0
 20
580.5
 30
0.0
 40
3.0
 50
0.0
 51
90.0
  0
LINE
  8
0
  6
CONTINUOUS
 62
     1
 10
437.0
 20
573.5
 30
0.0
 11
437.0
 21
580.5
 31
0.0
  0
LINE
  8
0
  6
CONTINUOUS
 62
     1
 10
430.0
 20
583.5
 30
0.0
 11
490.0
 21
583.5
 31
0.0
  0
LINE
  8
0
  6
CONTINUOUS
 62
     1
 10
505.087912088
 20
588.5
 30
0.0
 11
413.0
 21
632.520045888
 31
0.0
  0
LINE
  8
0
  6
CONTINUOUS
 62
     1
 10
507.0
 20
592.5
 30
0.0
 11
505.087912088
 21
588.5
 31
0.0
  0
LINE
  8
0
  6
CONTINUOUS
 62
     1
 10
507.0
 20
592.5
 30
0.0
 11
414.912087912
 21
636.520045888
 31
0.0
  0
LINE
  8
0
  6
CONTINUOUS
 62
     1
 10
414.912087912
 20
636.520045888
 30
0.0
 11
413.0
 21
632.520045888
 31
0.0
  0
LINE
  8
0
  6
CONTINUOUS
 62
     1
 10
500.0
 20
595.846153846
 30
0.0
 11
500.0
 21
635.5
 31
0.0
  0
ARC
  8
0
  6
CONTINUOUS
 62
     1
 10
497.0
 20
635.5
 30
0.0
 40
3.0
 50
0.0
 51
90.0
  0
LINE
  8
0
  6
CONTINUOUS
 62
     1
 10
500.0
 20
589.5
 30
0.0
 11
500.0
 21
590.9321338
 31
0.0
  0
ARC
  8
0
  6
CONTINUOUS
 62
     1
 10
497.0
 20
589.5
 30
0.0
 40
3.0
 50
270.0
 51
0.0
  0
LINE
  8
0
  6
CONTINUOUS
 62
     1
 10
420.0
 20
589.5
 30
0.0
 11
420.0
 21
629.173892042
 31
0.0
  0
LINE
  8
0
  6
CONTINUOUS
 62
     1
 10
423.0
 20
586.5
 30
0.0
 11
497.0
 21
586.5
 31
0.0
  0
ARC
  8
0
  6
CONTINUOUS
 62
     1
 10
423.0
 20
589.5
 30
0.0
 40
3.0
 50
180.0
 51
270.0
  0
LINE
  8
0
  6
CONTINUOUS
 62
     1
 10
420.0
 20
634.087912088
 30
0.0
 11
420.0
 21
635.5
 31
0.0
  0
LINE
  8
0
  6
CONTINUOUS
 62
     1
 10
423.0
 20
638.5
 30
0.0
 11
497.0
 21
638.5
 31
0.0
  0
ARC
  8
0
  6
CONTINUOUS
 62
     1
 10
423.0
 20
635.5
 30
0.0
 40
3.0
 50
90.0
 51
180.0
  0
LINE
  8
0
  6
CONTINUOUS
 62
     2
 10
394.0
 20
608.5
 30
0.0
 11
394.619310852
 21
618.48080428
 31
0.0
  0
LINE
  8
0
  6
CONTINUOUS
 62
     2
 10
394.0
 20
608.5
 30
0.0
 11
389.545936791
 21
617.453285482
 31
0.0
  0
LINE
  8
2
  6
CONTINUOUS
 62
     2
 10
299.6
 20
531.0
 30
0.0
 11
295.137353923
 21
553.75
 31
0.0
  0
LINE
  8
0
  6
CONTINUOUS
 62
     1
 10
337.7
 20
549.562445841
 30
0.0
 11
337.7
 21
544.950565841
 31
0.0
  0
LINE
  8
0
  6
CONTINUOUS
 62
     1
 10
337.7
 20
549.562445841
 30
0.0
 11
337.7
 21
554.174325841
 31
0.0
  0
LINE
  8
0
  6
CONTINUOUS
 62
     1
 10
334.1998
 20
546.080005841
 30
0.0
 11
334.851882488
 21
544.950565841
 31
0.0
  0
LINE
  8
0
  6
CONTINUOUS
 62
     1
 10
334.1998
 20
549.562445841
 30
0.0
 11
334.1998
 21
546.080005841
 31
0.0
  0
LINE
  8
0
  6
CONTINUOUS
 62
     1
 10
334.1998
 20
553.044885841
 30
0.0
 11
334.851882488
 21
554.174325841
 31
0.0
  0
LINE
  8
0
  6
CONTINUOUS
 62
     1
 10
334.1998
 20
549.562445841
 30
0.0
 11
334.1998
 21
553.044885841
 31
0.0
  0
ARC
  8
0
  6
CONTINUOUS
 62
     1
 10
338.603054926
 20
549.562445841
 30
0.0
 40
4.403254926
 50
148.419912243
 51
211.580087757
  0
ARC
  8
0
  6
CONTINUOUS
 62
     1
 10
335.544720132
 20
546.103535841
 30
0.0
 40
1.34512595
 50
121.002313915
 51
182.989498403
  0
LINE
  8
0
  6
CONTINUOUS
 62
     1
 10
334.1998
 20
553.044885841
 30
0.0
 11
334.851882488
 21
554.174325841
 31
0.0
  0
ARC
  8
0
  6
CONTINUOUS
 62
     1
 10
335.544720132
 20
553.021355841
 30
0.0
 40
1.34512595
 50
177.010501597
 51
238.997686085
  0
LINE
  8
0
  6
CONTINUOUS
 62
     1
 10
337.7
 20
544.950565841
 30
0.0
 11
334.851882488
 21
544.950565841
 31
0.0
  0
LINE
  8
0
  6
CONTINUOUS
 62
     1
 10
337.7
 20
547.256505841
 30
0.0
 11
334.851882488
 21
547.256505841
 31
0.0
  0
LINE
  8
0
  6
CONTINUOUS
 62
     1
 10
337.7
 20
551.868385841
 30
0.0
 11
334.851882488
 21
551.868385841
 31
0.0
  0
LINE
  8
0
  6
CONTINUOUS
 62
     1
 10
337.7
 20
554.174325841
 30
0.0
 11
334.851882488
 21
554.174325841
 31
0.0
  0
LINE
  8
0
  6
CONTINUOUS
 62
     1
 10
339.0
 20
544.962445841
 30
0.0
 11
337.7
 21
544.962445841
 31
0.0
  0
LINE
  8
0
  6
CONTINUOUS
 62
     1
 10
339.0
 20
549.562445841
 30
0.0
 11
337.700000446
 21
548.262446287
 31
0.0
  0
LINE
  8
0
  6
CONTINUOUS
 62
     1
 10
337.700000446
 20
549.562445841
 30
0.0
 11
339.0
 21
550.862445394
 31
0.0
  0
LINE
  8
0
  6
CONTINUOUS
 62
     1
 10
339.0
 20
554.162445841
 30
0.0
 11
337.7
 21
554.162445841
 31
0.0
  0
LINE
  8
0
  6
CONTINUOUS
 62
     1
 10
309.0
 20
509.7
 30
0.0
 11
310.0
 21
509.7
 31
0.0
  0
LINE
  8
0
  6
CONTINUOUS
 62
     1
 10
306.2
 20
510.0
 30
0.0
 11
306.517542648
 21
509.45
 31
0.0
  0
LINE
  8
0
  6
CONTINUOUS
 62
     1
 10
306.517542648
 20
509.45
 30
0.0
 11
309.0
 21
509.45
 31
0.0
  0
ARC
  8
0
  6
CONTINUOUS
 62
     1
 10
307.972973788
 20
510.4625
 30
0.0
 40
1.772973788
 50
145.174816769
 51
214.825183231
  0
LINE
  8
0
  6
CONTINUOUS
 62
     1
 10
309.0
 20
517.55
 30
0.0
 11
309.0
 21
509.45
 31
0.0
  0
LINE
  8
0
  6
CONTINUOUS
 62
     1
 10
309.0
 20
517.3
 30
0.0
 11
310.0
 21
517.3
 31
0.0
  0
LINE
  8
0
  6
CONTINUOUS
 62
     1
 10
309.0
 20
513.5
 30
0.0
 11
310.0
 21
514.5
 31
0.0
  0
LINE
  8
0
  6
CONTINUOUS
 62
     1
 10
306.517542648
 20
517.55
 30
0.0
 11
309.0
 21
517.55
 31
0.0
  0
LINE
  8
0
  6
CONTINUOUS
 62
     1
 10
306.2
 20
517.0
 30
0.0
 11
306.517542648
 21
517.55
 31
0.0
  0
LINE
  8
0
  6
CONTINUOUS
 62
     1
 10
306.517542648
 20
515.525
 30
0.0
 11
309.0
 21
515.525
 31
0.0
  0
ARC
  8
0
  6
CONTINUOUS
 62
     1
 10
307.972973788
 20
516.5375
 30
0.0
 40
1.772973788
 50
145.174816769
 51
214.825183231
  0
LINE
  8
0
  6
CONTINUOUS
 62
     1
 10
309.0
 20
512.5
 30
0.0
 11
310.0
 21
513.5
 31
0.0
  0
LINE
  8
0
  6
CONTINUOUS
 62
     1
 10
306.517542648
 20
511.475
 30
0.0
 11
309.0
 21
511.475
 31
0.0
  0
LINE
  8
0
  6
CONTINUOUS
 62
     1
 10
306.2
 20
517.0
 30
0.0
 11
306.2
 21
510.0
 31
0.0
  0
ARC
  8
0
  6
CONTINUOUS
 62
     1
 10
312.815581181
 20
513.5
 30
0.0
 40
6.615581181
 50
162.175912681
 51
197.824087319
  0
ARC
  8
0
  6
CONTINUOUS
 62
     1
 10
337.5
 20
470.429475845
 30
0.0
 40
1.5
 50
0.0
 51
71.029592192
  0
LINE
  8
0
  6
CONTINUOUS
 62
     1
 10
337.7
 20
477.437554159
 30
0.0
 11
337.7
 21
482.049434159
 31
0.0
  0
LINE
  8
0
  6
CONTINUOUS
 62
     1
 10
334.1998
 20
480.919994159
 30
0.0
 11
334.851882488
 21
482.049434159
 31
0.0
  0
LINE
  8
0
  6
CONTINUOUS
 62
     1
 10
334.1998
 20
477.437554159
 30
0.0
 11
334.1998
 21
480.919994159
 31
0.0
  0
ARC
  8
0
  6
CONTINUOUS
 62
     1
 10
335.544720132
 20
480.896464159
 30
0.0
 40
1.34512595
 50
177.010501597
 51
238.997686085
  0
LINE
  8
0
  6
CONTINUOUS
 62
     1
 10
337.7
 20
482.049434159
 30
0.0
 11
334.851882488
 21
482.049434159
 31
0.0
  0
LINE
  8
0
  6
CONTINUOUS
 62
     1
 10
339.0
 20
482.037554159
 30
0.0
 11
337.7
 21
482.037554159
 31
0.0
  0
LINE
  8
0
  6
CONTINUOUS
 62
     1
 10
337.7
 20
477.437554159
 30
0.0
 11
337.7
 21
472.825674159
 31
0.0
  0
LINE
  8
0
  6
CONTINUOUS
 62
     1
 10
334.1998
 20
473.955114159
 30
0.0
 11
334.851882488
 21
472.825674159
 31
0.0
  0
LINE
  8
0
  6
CONTINUOUS
 62
     1
 10
334.1998
 20
477.437554159
 30
0.0
 11
334.1998
 21
473.955114159
 31
0.0
  0
ARC
  8
0
  6
CONTINUOUS
 62
     1
 10
338.603054926
 20
477.437554159
 30
0.0
 40
4.403254926
 50
148.419912243
 51
211.580087757
  0
LINE
  8
0
  6
CONTINUOUS
 62
     1
 10
334.1998
 20
473.955114159
 30
0.0
 11
334.851882488
 21
472.825674159
 31
0.0
  0
ARC
  8
0
  6
CONTINUOUS
 62
     1
 10
335.544720132
 20
473.978644159
 30
0.0
 40
1.34512595
 50
121.002313915
 51
182.989498403
  0
LINE
  8
0
  6
CONTINUOUS
 62
     1
 10
337.7
 20
475.131614159
 30
0.0
 11
334.851882488
 21
475.131614159
 31
0.0
  0
LINE
  8
0
  6
CONTINUOUS
 62
     1
 10
337.7
 20
472.825674159
 30
0.0
 11
334.851882488
 21
472.825674159
 31
0.0
  0
LINE
  8
0
  6
CONTINUOUS
 62
     1
 10
339.0
 20
472.837554159
 30
0.0
 11
337.7
 21
472.837554159
 31
0.0
  0
LINE
  8
0
  6
CONTINUOUS
 62
     1
 10
337.7
 20
479.743494159
 30
0.0
 11
334.851882488
 21
479.743494159
 31
0.0
  0
LINE
  8
0
  6
CONTINUOUS
 62
     1
 10
339.0
 20
477.437554159
 30
0.0
 11
337.700000446
 21
478.737553713
 31
0.0
  0
LINE
  8
0
  6
CONTINUOUS
 62
     1
 10
337.700000446
 20
477.437554159
 30
0.0
 11
339.0
 21
476.137554606
 31
0.0
  0
LINE
  8
0
  6
CONTINUOUS
 62
     1
 10
500.5
 20
574.5
 30
0.0
 11
507.0
 21
574.5
 31
0.0
  0
LINE
  8
0
  6
CONTINUOUS
 62
     1
 10
507.0
 20
452.5
 30
0.0
 11
507.0
 21
513.5
 31
0.0
  0
LINE
  8
0
  6
CONTINUOUS
 62
     1
 10
500.499990656
 20
452.5
 30
0.0
 11
507.0
 21
452.5
 31
0.0
  0
LINE
  8
0
  6
CONTINUOUS
 62
     1
 10
507.0
 20
574.5
 30
0.0
 11
507.0
 21
452.5
 31
0.0
  0
LINE
  8
2
  6
CONTINUOUS
 62
     2
 10
368.495317777
 20
513.5
 30
0.0
 11
371.083508228
 21
523.159258263
 31
0.0
  0
LINE
  8
2
  6
CONTINUOUS
 62
     2
 10
368.495317777
 20
513.5
 30
0.0
 11
365.907127326
 21
523.159258263
 31
0.0
  0
LINE
  8
2
  6
CONTINUOUS
 62
     2
 10
368.495317777
 20
513.5
 30
0.0
 11
368.495317777
 21
638.5
 31
0.0
  0
LINE
  8
2
  6
CONTINUOUS
 62
     2
 10
368.495317777
 20
638.5
 30
0.0
 11
365.907127326
 21
628.840741737
 31
0.0
  0
LINE
  8
2
  6
CONTINUOUS
 62
     2
 10
368.495317777
 20
638.5
 30
0.0
 11
371.083508228
 21
628.840741737
 31
0.0
  0
LINE
  8
2
  6
CONTINUOUS
 62
     2
 10
419.0
 20
638.5
 30
0.0
 11
364.495317777
 21
638.5
 31
0.0
  0
LINE
  8
0
  6
LTYPE2
 62
     2
 10
559.9
 20
513.5
 30
0.0
 11
288.0
 21
513.5
 31
0.0
  0
ARC
  8
0
  6
CONTINUOUS
 62
     1
 10
525.0
 20
606.0
 30
0.0
 40
15.0
 50
90.0
 51
180.0
  0
LINE
  8
0
  6
CONTINUOUS
 62
     1
 10
525.0
 20
621.0
 30
0.0
 11
573.000007629
 21
621.0
 31
0.0
  0
LINE
  8
0
  6
CONTINUOUS
 62
     1
 10
507.0
 20
571.0
 30
0.0
 11
508.00001079
 21
571.0
 31
0.0
  0
LINE
  8
0
  6
CONTINUOUS
 62
     1
 10
510.0
 20
606.0
 30
0.0
 11
510.0
 21
573.000007629
 31
0.0
  0
ARC
  8
0
  6
CONTINUOUS
 62
     1
 10
508.0
 20
573.0
 30
0.0
 40
2.0
 50
270.000309099
 51
0.000218566
  0
LINE
  8
0
  6
CONTINUOUS
 62
     1
 10
567.0
 20
513.5
 30
0.0
 11
573.0
 21
513.5
 31
0.0
  0
LINE
  8
2
  6
CONTINUOUS
 62
     2
 10
541.5
 20
566.5
 30
0.0
 11
535.5
 21
566.5
 31
0.0
  0
LINE
  8
2
  6
CONTINUOUS
 62
     2
 10
543.5
 20
566.5
 30
0.0
 11
540.911809549
 21
556.840741737
 31
0.0
  0
LINE
  8
2
  6
CONTINUOUS
 62
     2
 10
543.5
 20
566.5
 30
0.0
 11
546.088190451
 21
556.840741737
 31
0.0
  0
LINE
  8
2
  6
CONTINUOUS
 62
     2
 10
543.5
 20
566.5
 30
0.0
 11
543.5
 21
513.5
 31
0.0
  0
LINE
  8
2
  6
CONTINUOUS
 62
     2
 10
543.5
 20
513.5
 30
0.0
 11
546.088190451
 21
523.159258263
 31
0.0
  0
LINE
  8
2
  6
CONTINUOUS
 62
     2
 10
543.5
 20
513.5
 30
0.0
 11
540.911809549
 21
523.159258263
 31
0.0
  0
LINE
  8
2
  6
CONTINUOUS
 62
     2
 10
540.5
 20
513.5
 30
0.0
 11
535.5
 21
513.5
 31
0.0
  0
LINE
  8
0
  6
CONTINUOUS
 62
     1
 10
522.0
 20
478.5
 30
0.0
 11
564.000007629
 21
478.5
 31
0.0
  0
ARC
  8
0
  6
CONTINUOUS
 62
     1
 10
522.0
 20
475.5
 30
0.0
 40
3.0
 50
90.0
 51
180.0
  0
ARC
  8
0
  6
CONTINUOUS
 62
     1
 10
516.0
 20
456.5
 30
0.0
 40
3.0
 50
270.0
 51
0.0
  0
LINE
  8
0
  6
CONTINUOUS
 62
     1
 10
519.0
 20
475.5
 30
0.0
 11
519.0
 21
456.5
 31
0.0
  0
LINE
  8
0
  6
CONTINUOUS
 62
     1
 10
507.0
 20
453.5
 30
0.0
 11
540.000007629
 21
453.5
 31
0.0
  0
ARC
  8
0
  6
CONTINUOUS
 62
     1
 10
540.0
 20
456.5
 30
0.0
 40
3.0
 50
270.000145711
 51
0.00014571
  0
LINE
  8
0
  6
CONTINUOUS
 62
     1
 10
543.0
 20
475.500007629
 30
0.0
 11
543.0
 21
456.500007629
 31
0.0
  0
ARC
  8
0
  6
CONTINUOUS
 62
     1
 10
546.0
 20
475.5
 30
0.0
 40
3.0
 50
90.0
 51
179.99985429
  0
ARC
  8
0
  6
CONTINUOUS
 62
     1
 10
564.0
 20
481.5
 30
0.0
 40
3.0
 50
270.000145711
 51
0.0
  0
LINE
  8
0
  6
CONTINUOUS
 62
     1
 10
567.0
 20
481.5
 30
0.0
 11
567.0
 21
621.0
 31
0.0
  0
LINE
  8
0
  6
CONTINUOUS
 62
     2
 10
394.0
 20
608.5
 30
0.0
 11
380.930224855
 21
673.032014776
 31
0.0
  0
LINE
  8
0
  6
CONTINUOUS
 62
     2
 10
380.930224855
 20
673.032014776
 30
0.0
 11
326.558072957
 21
673.032014776
 31
0.0
  0
LINE
  8
0
  6
LTYPE2
 62
     2
 10
537.0
 20
566.5
 30
0.0
 11
1042.3
 21
566.5
 31
0.0
  0
ARC
  8
0
  6
CONTINUOUS
 62
     1
 10
573.0
 20
619.0
 30
0.0
 40
2.0
 50
0.000309099
 51
89.999781434
  0
LINE
  8
0
  6
CONTINUOUS
 62
     1
 10
525.0
 20
621.0
 30
0.0
 11
573.000007629
 21
621.0
 31
0.0
  0
ARC
  8
0
  6
CONTINUOUS
 62
     1
 10
573.0
 20
515.5
 30
0.0
 40
2.0
 50
270.0
 51
0.0
  0
LINE
  8
0
  6
CONTINUOUS
 62
     1
 10
567.0
 20
513.5
 30
0.0
 11
573.0
 21
513.5
 31
0.0
  0
LINE
  8
0
  6
CONTINUOUS
 62
     2
 10
586.0
 20
683.0
 30
0.0
 11
524.0
 21
683.0
 31
0.0
  0
TEXT
  8
0
  6
CONTINUOUS
 62
     2
 10
729.0
 20
704.4
 30
1.2
 40
14.0
  1
推力リミッタ
 50
0.0
 41
0.857142857
 51
0.0
  7
KANJI0
  0
LINE
  8
0
  6
CONTINUOUS
 62
     2
 10
720.0
 20
487.093820875
 30
0.0
 11
765.897884886
 21
487.093820875
 31
0.0
  0
LINE
  8
0
  6
CONTINUOUS
 62
     2
 10
729.0
 20
700.4
 30
0.0
 11
805.0
 21
700.4
 31
0.0
  0
LINE
  8
0
  6
CONTINUOUS
 62
     2
 10
586.0
 20
683.0
 30
0.0
 11
521.0
 21
683.0
 31
0.0
  0
LINE
  8
0
  6
CONTINUOUS
 62
     2
 10
1018.0
 20
791.5
 30
0.0
 11
1008.340741737
 21
794.088190451
 31
0.0
  0
LINE
  8
0
  6
CONTINUOUS
 62
     2
 10
1018.0
 20
791.5
 30
0.0
 11
1008.340741737
 21
788.911809549
 31
0.0
  0
LINE
  8
0
  6
CONTINUOUS
 62
     2
 10
998.0
 20
791.5
 30
0.0
 11
1056.0
 21
791.5
 31
0.0
  0
LINE
  8
0
  6
CONTINUOUS
 62
     2
 10
1036.0
 20
791.5
 30
0.0
 11
1045.659258263
 21
788.911809549
 31
0.0
  0
LINE
  8
0
  6
CONTINUOUS
 62
     2
 10
1036.0
 20
791.5
 30
0.0
 11
1045.659258263
 21
794.088190451
 31
0.0
  0
LINE
  8
0
  6
CONTINUOUS
 62
     2
 10
1018.0
 20
791.5
 30
0.0
 11
1018.0
 21
783.5
 31
0.0
  0
LINE
  8
0
  6
CONTINUOUS
 62
     2
 10
1018.0
 20
791.5
 30
0.0
 11
1008.340741737
 21
794.088190451
 31
0.0
  0
LINE
  8
0
  6
CONTINUOUS
 62
     2
 10
1018.0
 20
791.5
 30
0.0
 11
1008.340741737
 21
788.911809549
 31
0.0
  0
LINE
  8
0
  6
CONTINUOUS
 62
     2
 10
923.0
 20
731.5
 30
0.0
 11
932.659258263
 21
728.911809549
 31
0.0
  0
LINE
  8
0
  6
CONTINUOUS
 62
     2
 10
923.0
 20
731.5
 30
0.0
 11
932.659258263
 21
734.088190451
 31
0.0
  0
LINE
  8
0
  6
CONTINUOUS
 62
     2
 10
923.0
 20
731.5
 30
0.0
 11
983.0
 21
731.5
 31
0.0
  0
LINE
  8
0
  6
CONTINUOUS
 62
     2
 10
983.0
 20
731.5
 30
0.0
 11
973.340741737
 21
734.088190451
 31
0.0
  0
LINE
  8
0
  6
CONTINUOUS
 62
     2
 10
983.0
 20
731.5
 30
0.0
 11
973.340741737
 21
728.911809549
 31
0.0
  0
LINE
  8
0
  6
CONTINUOUS
 62
     2
 10
983.0
 20
731.5
 30
0.0
 11
992.659258263
 21
728.911809549
 31
0.0
  0
LINE
  8
0
  6
CONTINUOUS
 62
     2
 10
983.0
 20
731.5
 30
0.0
 11
992.659258263
 21
734.088190451
 31
0.0
  0
LINE
  8
0
  6
CONTINUOUS
 62
     2
 10
983.0
 20
731.5
 30
0.0
 11
1018.0
 21
731.5
 31
0.0
  0
LINE
  8
0
  6
CONTINUOUS
 62
     2
 10
1018.0
 20
731.5
 30
0.0
 11
1008.340741737
 21
734.088190451
 31
0.0
  0
LINE
  8
0
  6
CONTINUOUS
 62
     2
 10
1018.0
 20
731.5
 30
0.0
 11
1008.340741737
 21
728.911809549
 31
0.0
  0
LINE
  8
0
  6
CONTINUOUS
 62
     2
 10
1018.0
 20
762.0
 30
0.0
 11
1008.340741737
 21
764.588190451
 31
0.0
  0
LINE
  8
0
  6
CONTINUOUS
 62
     2
 10
1018.0
 20
762.0
 30
0.0
 11
1008.340741737
 21
759.411809549
 31
0.0
  0
LINE
  8
0
  6
CONTINUOUS
 62
     2
 10
1018.0
 20
762.0
 30
0.0
 11
637.0
 21
762.0
 31
0.0
  0
LINE
  8
0
  6
CONTINUOUS
 62
     2
 10
637.0
 20
762.0
 30
0.0
 11
646.659258263
 21
759.411809549
 31
0.0
  0
LINE
  8
0
  6
CONTINUOUS
 62
     2
 10
637.0
 20
762.0
 30
0.0
 11
646.659258263
 21
764.588190451
 31
0.0
  0
LINE
  8
0
  6
CONTINUOUS
 62
     2
 10
637.0
 20
595.5
 30
0.0
 11
637.0
 21
768.0
 31
0.0
  0
LINE
  8
0
  6
CONTINUOUS
 62
     2
 10
923.0
 20
731.5
 30
0.0
 11
913.340741737
 21
734.088190451
 31
0.0
  0
LINE
  8
0
  6
CONTINUOUS
 62
     2
 10
923.0
 20
731.5
 30
0.0
 11
913.340741737
 21
728.911809549
 31
0.0
  0
LINE
  8
0
  6
CONTINUOUS
 62
     2
 10
923.0
 20
731.5
 30
0.0
 11
637.0
 21
731.5
 31
0.0
  0
LINE
  8
0
  6
CONTINUOUS
 62
     2
 10
637.0
 20
731.5
 30
0.0
 11
646.659258263
 21
728.911809549
 31
0.0
  0
LINE
  8
0
  6
CONTINUOUS
 62
     2
 10
637.0
 20
731.5
 30
0.0
 11
646.659258263
 21
734.088190451
 31
0.0
  0
LINE
  8
0
  6
CONTINUOUS
 62
     2
 10
1018.0
 20
791.5
 30
0.0
 11
1008.340741737
 21
794.088190451
 31
0.0
  0
LINE
  8
0
  6
CONTINUOUS
 62
     2
 10
1018.0
 20
791.5
 30
0.0
 11
1008.340741737
 21
788.911809549
 31
0.0
  0
LINE
  8
2
  6
CONTINUOUS
 62
     2
 10
637.0
 20
752.0
 30
0.0
 11
637.0
 21
770.0
 31
0.0
  0
LINE
  8
2
  6
CONTINUOUS
 62
     2
 10
637.0
 20
762.0
 30
0.0
 11
627.340741737
 21
764.588190451
 31
0.0
  0
LINE
  8
2
  6
CONTINUOUS
 62
     2
 10
637.0
 20
762.0
 30
0.0
 11
627.340741737
 21
759.411809549
 31
0.0
  0
LINE
  8
2
  6
CONTINUOUS
 62
     2
 10
637.0
 20
762.0
 30
0.0
 11
294.0
 21
762.0
 31
0.0
  0
LINE
  8
2
  6
CONTINUOUS
 62
     2
 10
294.0
 20
762.0
 30
0.0
 11
303.659258263
 21
759.411809549
 31
0.0
  0
LINE
  8
2
  6
CONTINUOUS
 62
     2
 10
294.0
 20
762.0
 30
0.0
 11
303.659258263
 21
764.588190451
 31
0.0
  0
LINE
  8
2
  6
CONTINUOUS
 62
     2
 10
1018.0
 20
791.5
 30
0.0
 11
1008.340741737
 21
794.088190451
 31
0.0
  0
LINE
  8
2
  6
CONTINUOUS
 62
     2
 10
1018.0
 20
791.5
 30
0.0
 11
1008.340741737
 21
788.911809549
 31
0.0
  0
LINE
  8
2
  6
CONTINUOUS
 62
     2
 10
1018.0
 20
791.5
 30
0.0
 11
294.0
 21
791.5
 31
0.0
  0
LINE
  8
2
  6
CONTINUOUS
 62
     2
 10
294.0
 20
791.5
 30
0.0
 11
303.659258263
 21
788.911809549
 31
0.0
  0
LINE
  8
2
  6
CONTINUOUS
 62
     2
 10
294.0
 20
791.5
 30
0.0
 11
303.659258263
 21
794.088190451
 31
0.0
  0
LINE
  8
2
  6
CONTINUOUS
 62
     2
 10
294.0
 20
753.5
 30
0.0
 11
294.0
 21
799.5
 31
0.0
  0
LINE
  8
2
  6
CONTINUOUS
 62
     2
 10
294.0
 20
529.0
 30
0.0
 11
294.0
 21
770.0
 31
0.0
  0
LINE
  8
0
  6
CONTINUOUS
 62
     1
 10
1010.0
 20
398.5
 30
0.0
 11
1010.0
 21
406.5
 31
0.0
  0
LINE
  8
0
  6
CONTINUOUS
 62
     1
 10
993.0
 20
406.5
 30
0.0
 11
993.0
 21
398.5
 31
0.0
  0
LINE
  8
0
  6
CONTINUOUS
 62
     1
 10
993.0
 20
398.5
 30
0.0
 11
1036.0
 21
398.5
 31
0.0
  0
LINE
  8
0
  6
CONTINUOUS
 62
     1
 10
1010.0
 20
414.5
 30
0.0
 11
1010.0
 21
406.5
 31
0.0
  0
LINE
  8
0
  6
CONTINUOUS
 62
     1
 10
993.0
 20
406.5
 30
0.0
 11
993.0
 21
414.5
 31
0.0
  0
LINE
  8
0
  6
CONTINUOUS
 62
     1
 10
993.0
 20
414.5
 30
0.0
 11
1036.0
 21
414.5
 31
0.0
  0
LINE
  8
0
  6
CONTINUOUS
 62
     1
 10
1010.0
 20
437.5
 30
0.0
 11
1010.0
 21
429.5
 31
0.0
  0
LINE
  8
0
  6
LTYPE2
 62
     2
 10
906.0
 20
406.5
 30
0.0
 11
1046.9
 21
406.5
 31
0.0
  0
LINE
  8
0
  6
CONTINUOUS
 62
     2
 10
1010.0
 20
464.6
 30
0.0
 11
1000.340741737
 21
467.188190451
 31
0.0
  0
LINE
  8
0
  6
CONTINUOUS
 62
     2
 10
1010.0
 20
464.6
 30
0.0
 11
1000.340741737
 21
462.011809549
 31
0.0
  0
LINE
  8
0
  6
CONTINUOUS
 62
     2
 10
990.0
 20
464.6
 30
0.0
 11
1082.0
 21
464.6
 31
0.0
  0
LINE
  8
0
  6
CONTINUOUS
 62
     2
 10
1018.0
 20
477.35
 30
0.0
 11
1008.340741737
 21
479.938190451
 31
0.0
  0
LINE
  8
0
  6
CONTINUOUS
 62
     2
 10
1018.0
 20
477.35
 30
0.0
 11
1008.340741737
 21
474.761809549
 31
0.0
  0
LINE
  8
0
  6
CONTINUOUS
 62
     2
 10
1018.0
 20
477.35
 30
0.0
 11
993.0
 21
477.35
 31
0.0
  0
LINE
  8
0
  6
CONTINUOUS
 62
     2
 10
993.0
 20
477.35
 30
0.0
 11
1002.659258263
 21
474.761809549
 31
0.0
  0
LINE
  8
0
  6
CONTINUOUS
 62
     2
 10
993.0
 20
477.35
 30
0.0
 11
1002.659258263
 21
479.938190451
 31
0.0
  0
LINE
  8
0
  6
CONTINUOUS
 62
     1
 10
983.0
 20
386.5
 30
0.0
 11
983.0
 21
426.5
 31
0.0
  0
LINE
  8
0
  6
CONTINUOUS
 62
     1
 10
983.0
 20
386.5
 30
0.0
 11
1036.0
 21
386.5
 31
0.0
  0
LINE
  8
0
  6
CONTINUOUS
 62
     1
 10
934.0
 20
425.5
 30
0.0
 11
983.0
 21
425.5
 31
0.0
  0
LINE
  8
0
  6
CONTINUOUS
 62
     1
 10
934.0
 20
387.5
 30
0.0
 11
983.0
 21
387.5
 31
0.0
  0
LINE
  8
0
  6
CONTINUOUS
 62
     1
 10
1026.0
 20
406.5
 30
0.0
 11
1026.0
 21
398.5
 31
0.0
  0
LINE
  8
0
  6
CONTINUOUS
 62
     1
 10
1036.0
 20
398.5
 30
0.0
 11
1036.0
 21
386.5
 31
0.0
  0
LINE
  8
0
  6
CONTINUOUS
 62
     1
 10
1026.0
 20
406.5
 30
0.0
 11
1026.0
 21
414.5
 31
0.0
  0
LINE
  8
0
  6
CONTINUOUS
 62
     1
 10
1036.0
 20
414.5
 30
0.0
 11
1036.0
 21
426.5
 31
0.0
  0
LINE
  8
0
  6
CONTINUOUS
 62
     2
 10
1073.833854631
 20
414.5
 30
0.0
 11
1071.24566418
 21
404.840741737
 31
0.0
  0
LINE
  8
0
  6
CONTINUOUS
 62
     2
 10
1073.833854631
 20
414.5
 30
0.0
 11
1076.422045082
 21
404.840741737
 31
0.0
  0
LINE
  8
0
  6
CONTINUOUS
 62
     2
 10
1120.2
 20
386.5
 30
0.0
 11
1122.788190451
 21
396.159258263
 31
0.0
  0
LINE
  8
0
  6
CONTINUOUS
 62
     2
 10
1120.2
 20
386.5
 30
0.0
 11
1117.611809549
 21
396.159258263
 31
0.0
  0
LINE
  8
0
  6
CONTINUOUS
 62
     2
 10
1120.2
 20
386.5
 30
0.0
 11
1120.2
 21
426.5
 31
0.0
  0
LINE
  8
0
  6
CONTINUOUS
 62
     2
 10
1120.2
 20
426.5
 30
0.0
 11
1117.611809549
 21
416.840741737
 31
0.0
  0
LINE
  8
0
  6
CONTINUOUS
 62
     2
 10
1120.2
 20
426.5
 30
0.0
 11
1122.788190451
 21
416.840741737
 31
0.0
  0
LINE
  8
0
  6
CONTINUOUS
 62
     2
 10
1081.833854631
 20
426.5
 30
0.0
 11
1127.0
 21
426.5
 31
0.0
  0
LINE
  8
0
  6
CONTINUOUS
 62
     2
 10
1073.833854631
 20
426.5
 30
0.0
 11
1076.422045082
 21
436.159258263
 31
0.0
  0
LINE
  8
0
  6
CONTINUOUS
 62
     2
 10
1073.833854631
 20
426.5
 30
0.0
 11
1071.24566418
 21
436.159258263
 31
0.0
  0
LINE
  8
0
  6
CONTINUOUS
 62
     2
 10
1073.833854631
 20
418.5
 30
0.0
 11
1073.833854631
 21
342.9
 31
0.0
  0
LINE
  8
0
  6
CONTINUOUS
 62
     2
 10
1073.833854631
 20
386.5
 30
0.0
 11
1076.422045082
 21
376.840741737
 31
0.0
  0
LINE
  8
0
  6
CONTINUOUS
 62
     2
 10
1073.833854631
 20
386.5
 30
0.0
 11
1071.24566418
 21
376.840741737
 31
0.0
  0
LINE
  8
0
  6
CONTINUOUS
 62
     2
 10
1081.833854631
 20
386.5
 30
0.0
 11
1128.0
 21
386.5
 31
0.0
  0
LINE
  8
0
  6
CONTINUOUS
 62
     2
 10
1073.833854631
 20
394.5
 30
0.0
 11
1073.833854631
 21
455.7
 31
0.0
  0
LINE
  8
0
  6
CONTINUOUS
 62
     2
 10
1026.0
 20
464.6
 30
0.0
 11
1035.659258263
 21
462.011809549
 31
0.0
  0
LINE
  8
0
  6
CONTINUOUS
 62
     2
 10
1026.0
 20
464.6
 30
0.0
 11
1035.659258263
 21
467.188190451
 31
0.0
  0
TEXT
  8
0
  6
CONTINUOUS
 62
     2
 10
1073.75
 20
477.26
 30
0.84
 40
8.4
  1
Ｈ１０
 50
0.0
 41
0.9
 51
0.0
  7
KANJI1
  0
TEXT
  8
0
  6
CONTINUOUS
 62
     2
 10
1073.75
 20
468.86
 30
0.84
 40
8.4
  1
ｈ９
 50
0.0
 41
0.9
 51
0.0
  7
KANJI1
  0
LINE
  8
0
  6
LTYPE2
 62
     2
 10
1018.0
 20
359.6
 30
0.0
 11
1018.0
 21
581.5
 31
0.0
  0
TEXT
  8
2
  6
CONTINUOUS
 62
     3
 10
445.1
 20
766.0
 30
0.0
 40
15.0
  1
３４３
 50
0.0
 41
0.9
 51
0.0
  7
KANJI2
  0
TEXT
  8
0
  6
CONTINUOUS
 62
     2
 10
774.6
 20
735.5
 30
0.0
 40
15.0
  1
Ｃ
 50
0.0
 41
0.9
 51
0.0
  7
KANJI2
  0
TEXT
  8
0
  6
CONTINUOUS
 62
     2
 10
793.1
 20
766.0
 30
0.0
 40
15.0
  1
ｍｉｎ．Ｌ
 50
0.0
 41
0.9
 51
0.0
  7
KANJI2
  0
TEXT
  8
0
  6
CONTINUOUS
 62
     2
 10
628.6
 20
795.5
 30
0.0
 40
15.0
  1
ｍｉｎ．ＡＬ
 50
0.0
 41
0.9
 51
0.0
  7
KANJI2
  0
TEXT
  8
0
  6
CONTINUOUS
 62
     2
 10
1015.2
 20
795.5
 30
0.0
 40
15.0
  1
１８
 50
0.0
 41
0.9
 51
0.0
  7
KANJI2
  0
TEXT
  8
0
  6
CONTINUOUS
 62
     2
 10
988.7
 20
735.5
 30
0.0
 40
15.0
  1
３５
 50
0.0
 41
0.9
 51
0.0
  7
KANJI2
  0
TEXT
  8
0
  6
CONTINUOUS
 62
     2
 10
913.4
 20
735.5
 30
0.0
 40
15.0
  1
ｍｉｎ．Ｐ
 50
0.0
 41
0.9
 51
0.0
  7
KANJI2
  0
TEXT
  8
0
  6
CONTINUOUS
 62
     2
 10
821.7
 20
604.5
 30
0.0
 40
15.0
  1
φ６４
 50
90.0
 41
0.9
 51
0.0
  7
KANJI2
  0
TEXT
  8
0
  6
CONTINUOUS
 62
     2
 10
1061.8
 20
555.1
 30
0.0
 40
15.0
  1
４０
 50
90.0
 41
0.9
 51
0.0
  7
KANJI2
  0
TEXT
  8
2
  6
CONTINUOUS
 62
     3
 10
952.0
 20
595.5
 30
0.0
 40
15.0
  1
φ３８
 50
90.0
 41
0.9
 51
0.0
  7
KANJI2
  0
TEXT
  8
0
  6
CONTINUOUS
 62
     2
 10
523.4
 20
687.0
 30
0.0
 40
15.0
  1
ＰＦ１／２
 50
0.0
 41
0.9
 51
0.0
  7
KANJI2
  0
TEXT
  8
2
  6
CONTINUOUS
 62
     2
 10
364.658072957
 20
584.532014776
 30
0.0
 40
15.0
  1
１２５
 50
90.0
 41
0.9
 51
0.0
  7
KANJI2
  0
TEXT
  8
0
  6
CONTINUOUS
 62
     2
 10
326.558072957
 20
677.032014776
 30
0.0
 40
15.0
  1
ＰＦ３／４
 50
0.0
 41
0.9
 51
0.0
  7
KANJI2
  0
TEXT
  8
2
  6
CONTINUOUS
 62
     2
 10
232.0
 20
487.7
 30
0.0
 40
15.0
  1
ロ１２２
 50
90.0
 41
0.9
 51
0.0
  7
KANJI2
  0
TEXT
  8
2
  6
CONTINUOUS
 62
     2
 10
267.0
 20
487.7
 30
0.0
 40
15.0
  1
φ１１４
 50
90.0
 41
0.9
 51
0.0
  7
KANJI2
  0
TEXT
  8
2
  6
CONTINUOUS
 62
     3
 10
539.5
 20
526.6
 30
0.0
 40
15.0
  1
５３
 50
90.0
 41
0.9
 51
0.0
  7
KANJI2
  0
TEXT
  8
0
  6
CONTINUOUS
 62
     2
 10
724.297884886
 20
491.093820875
 30
0.0
 40
15.0
  1
給脂口
 50
0.0
 41
0.9
 51
0.0
  7
KANJI2
  0
TEXT
  8
0
  6
CONTINUOUS
 62
     2
 10
1035.0
 20
469.6
 30
0.0
 40
15.0
  1
φ１６
 50
0.0
 41
0.9
 51
0.0
  7
KANJI2
  0
TEXT
  8
0
  6
CONTINUOUS
 62
     2
 10
1069.333854631
 20
434.0
 30
0.0
 40
15.0
  1
１２
 50
90.0
 41
0.9
 51
0.0
  7
KANJI2
  0
TEXT
  8
0
  6
CONTINUOUS
 62
     2
 10
1069.833854631
 20
355.0
 30
0.0
 40
15.0
  1
１２
 50
90.0
 41
0.9
 51
0.0
  7
KANJI2
  0
TEXT
  8
0
  6
CONTINUOUS
 62
     2
 10
1097.733854631
 20
393.7
 30
0.0
 40
15.0
  1
１６
 50
90.0
 41
0.9
 51
0.0
  7
KANJI2
  0
TEXT
  8
0
  6
CONTINUOUS
 62
     2
 10
1116.2
 20
394.7
 30
0.0
 40
15.0
  1
４０
 50
90.0
 41
0.9
 51
0.0
  7
KANJI2
  0
LINE
  8
0
  6
CONTINUOUS
 62
     6
 10
72.25
 20
52.0
 30
0.0
 11
72.25
 21
1397.0
 31
0.0
  0
LINE
  8
0
  6
CONTINUOUS
 62
     6
 10
72.25
 20
1397.0
 30
0.0
 11
2007.25
 21
1397.0
 31
0.0
  0
TEXT
  8
0
  6
CONTINUOUS
 62
     4
 10
87.249996846
 20
76.999994744
 30
0.99999979
 40
9.999997897
  1
ＰＡＲＴＳ　ＬＩＳＴ
 50
0.0
 41
0.6
 51
0.0
  7
KANJI3
  0
TEXT
  8
0
  6
CONTINUOUS
 62
     4
 10
87.249996846
 20
61.999997897
 30
1.199999748
 40
11.999997477
  1
部品表
 50
0.0
 41
0.9
 51
0.0
  7
KANJI4
  0
LINE
  8
0
  6
CONTINUOUS
 62
     6
 10
2007.25
 20
52.0
 30
0.0
 11
72.25
 21
52.0
 31
0.0
  0
LINE
  8
0
  6
CONTINUOUS
 62
     6
 10
77.249998949
 20
126.999984231
 30
0.0
 11
402.249930615
 21
126.999984231
 31
0.0
  0
LINE
  8
0
  6
CONTINUOUS
 62
     6
 10
77.249998949
 20
56.999998949
 30
0.0
 11
402.249930615
 21
56.999998949
 31
0.0
  0
LINE
  8
0
  6
CONTINUOUS
 62
     6
 10
77.249998949
 20
56.999998949
 30
0.0
 11
77.249998949
 21
126.999984231
 31
0.0
  0
LINE
  8
0
  6
CONTINUOUS
 62
     6
 10
77.249998949
 20
91.99999159
 30
0.0
 11
402.249930615
 21
91.99999159
 31
0.0
  0
TEXT
  8
0
  6
CONTINUOUS
 62
     2
 10
87.249996846
 20
101.999989487
 30
1.499999685
 40
14.999996846
  1
ＰＬ
 50
0.0
 41
0.9
 51
0.0
  7
KANJI5
  0
LINE
  8
0
  6
CONTINUOUS
 62
     4
 10
15.333333
 20
56.333333
 30
0.0
 11
67.333329
 21
56.333333
 31
0.0
  0
LINE
  8
0
  6
CONTINUOUS
 62
     4
 10
15.333333
 20
82.333331
 30
0.0
 11
67.333329
 21
82.333331
 31
0.0
  0
LINE
  8
0
  6
CONTINUOUS
 62
     4
 10
15.333333
 20
108.333329
 30
0.0
 11
67.333329
 21
108.333329
 31
0.0
  0
LINE
  8
0
  6
CONTINUOUS
 62
     4
 10
15.333333
 20
134.333327
 30
0.0
 11
67.333329
 21
134.333327
 31
0.0
  0
LINE
  8
0
  6
CONTINUOUS
 62
     4
 10
15.333333
 20
160.333325
 30
0.0
 11
67.333329
 21
160.333325
 31
0.0
  0
LINE
  8
0
  6
CONTINUOUS
 62
     4
 10
15.333333
 20
186.333323
 30
0.0
 11
67.333329
 21
186.333323
 31
0.0
  0
LINE
  8
0
  6
CONTINUOUS
 62
     4
 10
15.333333
 20
212.333321
 30
0.0
 11
67.333329
 21
212.333321
 31
0.0
  0
LINE
  8
0
  6
CONTINUOUS
 62
     4
 10
15.333333
 20
238.333319
 30
0.0
 11
67.333329
 21
238.333319
 31
0.0
  0
LINE
  8
0
  6
CONTINUOUS
 62
     4
 10
15.333333
 20
264.333317
 30
0.0
 11
67.333329
 21
264.333317
 31
0.0
  0
LINE
  8
0
  6
CONTINUOUS
 62
     4
 10
15.333333
 20
290.333315
 30
0.0
 11
67.333329
 21
290.333315
 31
0.0
  0
LINE
  8
0
  6
CONTINUOUS
 62
     4
 10
67.333329
 20
56.333333
 30
0.0
 11
67.333329
 21
290.333315
 31
0.0
  0
LINE
  8
0
  6
CONTINUOUS
 62
     4
 10
41.333331
 20
56.333333
 30
0.0
 11
41.333331
 21
264.333317
 31
0.0
  0
TEXT
  8
0
  6
CONTINUOUS
 62
     4
 10
24.21666565
 20
63.91666575
 30
1.2999999
 40
12.999999
  1
計
 50
0.0
 41
0.75
 51
0.0
  7
KANJI6
  0
TEXT
  8
0
  6
CONTINUOUS
 62
     4
 10
24.21666565
 20
116.34999505
 30
1.2999999
 40
12.999999
  1
設
 50
0.0
 41
0.75
 51
0.0
  7
KANJI6
  0
TEXT
  8
0
  6
CONTINUOUS
 62
     4
 10
24.21666565
 20
141.91665975
 30
1.2999999
 40
12.999999
  1
管
 50
0.0
 41
0.75
 51
0.0
  7
KANJI6
  0
TEXT
  8
0
  6
CONTINUOUS
 62
     4
 10
24.21666565
 20
167.91665775
 30
1.2999999
 40
12.999999
  1
製
 50
0.0
 41
0.75
 51
0.0
  7
KANJI6
  0
TEXT
  8
0
  6
CONTINUOUS
 62
     4
 10
24.21666565
 20
193.91665575
 30
1.2999999
 40
12.999999
  1
資
 50
0.0
 41
0.75
 51
0.0
  7
KANJI6
  0
TEXT
  8
0
  6
CONTINUOUS
 62
     4
 10
24.21666565
 20
219.91665375
 30
1.2999999
 40
12.999999
  1
営
 50
0.0
 41
0.75
 51
0.0
  7
KANJI6
  0
TEXT
  8
0
  6
CONTINUOUS
 62
     4
 10
24.21666565
 20
245.91665175
 30
1.2999999
 40
12.999999
  1
客
 50
0.0
 41
0.75
 51
0.0
  7
KANJI6
  0
TEXT
  8
0
  6
CONTINUOUS
 62
     4
 10
23.999999
 20
272.999983
 30
1.2999999
 40
12.999999
  1
出　図
 50
0.0
 41
0.75
 51
0.0
  7
KANJI6
  0
LINE
  8
0
  6
CONTINUOUS
 62
     4
 10
15.333333
 20
56.333333
 30
0.0
 11
15.333333
 21
290.333315
 31
0.0
  0
TEXT
  8
0
  6
CONTINUOUS
 62
     4
 10
312.249949538
 20
76.999994744
 30
0.99999979
 40
9.999997897
  1
Ｎ０．
 50
0.0
 41
0.6
 51
0.0
  7
KANJI3
  0
TEXT
  8
0
  6
CONTINUOUS
 62
     4
 10
312.249949538
 20
61.999997897
 30
1.199999748
 40
11.999997477
  1
項番
 50
0.0
 41
0.9
 51
0.0
  7
KANJI4
  0
LINE
  8
0
  6
CONTINUOUS
 62
     6
 10
402.249930615
 20
56.999998949
 30
0.0
 11
402.249930615
 21
126.999984231
 31
0.0
  0
LINE
  8
0
  6
CONTINUOUS
 62
     6
 10
302.249951641
 20
56.999998949
 30
0.0
 11
302.249951641
 21
126.999984231
 31
0.0
  0
LINE
  8
0
  6
CONTINUOUS
 62
     4
 10
1335.583385
 20
90.999997
 30
0.0
 11
1493.7500395
 21
90.999997
 31
0.0
  0
TEXT
  8
0
  6
CONTINUOUS
 62
     4
 10
1344.250051
 20
75.8333315
 30
0.8666666
 40
8.666666
  1
ＳＣＡＬＥ
 50
0.0
 41
0.6
 51
0.0
  7
KANJI7
  0
TEXT
  8
0
  6
CONTINUOUS
 62
     4
 10
1344.250051
 20
110.4999955
 30
0.8666666
 40
8.666666
  1
ＤＡＴＥ
 50
0.0
 41
0.6
 51
0.0
  7
KANJI7
  0
TEXT
  8
0
  6
CONTINUOUS
 62
     4
 10
1344.250051
 20
62.8333325
 30
1.03999992
 40
10.3999992
  1
尺度
 50
0.0
 41
0.6
 51
0.0
  7
KANJI8
  0
TEXT
  8
0
  6
CONTINUOUS
 62
     4
 10
1344.250051
 20
97.4999965
 30
1.03999992
 40
10.3999992
  1
日付
 50
0.0
 41
0.6
 51
0.0
  7
KANJI8
  0
TEXT
  8
0
  6
CONTINUOUS
 62
     4
 10
1103.7500695
 20
75.8333315
 30
0.8666666
 40
8.666666
  1
ＢＹ
 50
0.0
 41
0.6
 51
0.0
  7
KANJI7
  0
TEXT
  8
0
  6
CONTINUOUS
 62
     4
 10
1199.0833955
 20
75.8333315
 30
0.8666666
 40
8.666666
  1
ＤＥＳＣＲＩＰＴＩＯＮ
 50
0.0
 41
0.6
 51
0.0
  7
KANJI7
  0
TEXT
  8
0
  6
CONTINUOUS
 62
     4
 10
1103.7500695
 20
62.8333325
 30
1.03999992
 40
10.3999992
  1
担当
 50
0.0
 41
0.6
 51
0.0
  7
KANJI8
  0
TEXT
  8
0
  6
CONTINUOUS
 62
     4
 10
1212.0833945
 20
62.8333325
 30
1.03999992
 40
10.3999992
  1
記　　　　事
 50
0.0
 41
0.6
 51
0.0
  7
KANJI8
  0
LINE
  8
0
  6
CONTINUOUS
 62
     4
 10
1011.66674325
 20
84.4999975
 30
0.0
 11
997.583411
 21
62.8333325
 31
0.0
  0
TEXT
  8
0
  6
CONTINUOUS
 62
     4
 10
1047.4167405
 20
75.8333315
 30
0.8666666
 40
8.666666
  1
ＤＡＴＥ
 50
0.0
 41
0.6
 51
0.0
  7
KANJI7
  0
TEXT
  8
0
  6
CONTINUOUS
 62
     4
 10
1053.91674
 20
62.8333325
 30
1.03999992
 40
10.3999992
  1
日付
 50
0.0
 41
0.6
 51
0.0
  7
KANJI8
  0
LINE
  8
0
  6
CONTINUOUS
 62
     4
 10
997.583411
 20
62.8333325
 30
0.0
 11
1025.7500755
 21
62.8333325
 31
0.0
  0
LINE
  8
0
  6
CONTINUOUS
 62
     4
 10
1011.66674325
 20
84.4999975
 30
0.0
 11
1025.7500755
 21
62.8333325
 31
0.0
  0
LINE
  8
0
  6
CONTINUOUS
 62
     4
 10
1493.7500395
 20
110.4999955
 30
0.0
 11
2002.916667
 21
110.4999955
 31
0.0
  0
LINE
  8
0
  6
LTYPE1
 62
     4
 10
1857.7500115
 20
116.999995
 30
0.0
 11
1857.7500115
 21
151.666659
 31
0.0
  0
LINE
  8
0
  6
LTYPE1
 62
     4
 10
1827.4166805
 20
116.999995
 30
0.0
 11
1827.4166805
 21
151.666659
 31
0.0
  0
LINE
  8
0
  6
LTYPE1
 62
     4
 10
1797.0833495
 20
116.999995
 30
0.0
 11
1797.0833495
 21
151.666659
 31
0.0
  0
LINE
  8
0
  6
LTYPE1
 62
     4
 10
1766.7500185
 20
116.999995
 30
0.0
 11
1766.7500185
 21
151.666659
 31
0.0
  0
LINE
  8
0
  6
LTYPE1
 62
     4
 10
1736.4166875
 20
116.999995
 30
0.0
 11
1736.4166875
 21
151.666659
 31
0.0
  0
LINE
  8
0
  6
LTYPE1
 62
     4
 10
1706.0833565
 20
116.999995
 30
0.0
 11
1706.0833565
 21
151.666659
 31
0.0
  0
LINE
  8
0
  6
LTYPE1
 62
     4
 10
1675.7500255
 20
116.999995
 30
0.0
 11
1675.7500255
 21
151.666659
 31
0.0
  0
LINE
  8
0
  6
LTYPE1
 62
     4
 10
1645.4166945
 20
116.999995
 30
0.0
 11
1645.4166945
 21
151.666659
 31
0.0
  0
LINE
  8
0
  6
LTYPE1
 62
     4
 10
1645.4166945
 20
116.999995
 30
0.0
 11
1857.7500115
 21
116.999995
 31
0.0
  0
LINE
  8
0
  6
CONTINUOUS
 62
     6
 10
2007.25
 20
1397.0
 30
0.0
 11
2007.25
 21
52.0
 31
0.0
  0
LINE
  8
0
  6
CONTINUOUS
 62
     6
 10
993.250078
 20
90.999997
 30
0.0
 11
1335.583385
 21
90.999997
 31
0.0
  0
LINE
  8
0
  6
CONTINUOUS
 62
     6
 10
993.250078
 20
56.333333
 30
0.0
 11
2002.916667
 21
56.333333
 31
0.0
  0
TEXT
  8
0
  6
CONTINUOUS
 62
     6
 10
1498.0833725
 20
75.8333315
 30
0.0
 40
15.1666655
  1
ＵＮＩＴＥＣ　ＩＮＤＵＳＴＲＹ　ＣＯ．，ＬＴＤ．
 50
0.0
 41
0.42031746
 51
0.0
  7
KANJI9
  0
TEXT
  8
0
  6
CONTINUOUS
 62
     6
 10
1710.795856138
 20
70.1999986
 30
2.5999998
 40
25.999998
  1
ユニテック工業株式会社
 50
0.0
 41
0.9
 51
0.0
  7
KANJI10
  0
LINE
  8
0
  6
CONTINUOUS
 62
     6
 10
993.250078
 20
56.333333
 30
0.0
 11
993.250078
 21
90.999997
 31
0.0
  0
LINE
  8
0
  6
CONTINUOUS
 62
     4
 10
1030.0834085
 20
56.333333
 30
0.0
 11
1030.0834085
 21
90.999997
 31
0.0
  0
LINE
  8
0
  6
CONTINUOUS
 62
     4
 10
1090.7500705
 20
56.333333
 30
0.0
 11
1090.7500705
 21
90.999997
 31
0.0
  0
LINE
  8
0
  6
CONTINUOUS
 62
     4
 10
1129.7500675
 20
56.333333
 30
0.0
 11
1129.7500675
 21
90.999997
 31
0.0
  0
LINE
  8
0
  6
CONTINUOUS
 62
     6
 10
1335.583385
 20
56.333333
 30
0.0
 11
1335.583385
 21
333.666645
 31
0.0
  0
LINE
  8
0
  6
CONTINUOUS
 62
     6
 10
2002.916667
 20
56.333333
 30
0.0
 11
2002.916667
 21
333.666645
 31
0.0
  0
LINE
  8
0
  6
CONTINUOUS
 62
     4
 10
1493.7500395
 20
56.333333
 30
0.0
 11
1493.7500395
 21
333.666645
 31
0.0
  0
LINE
  8
0
  6
CONTINUOUS
 62
     6
 10
1676.129192138
 20
79.2999979
 30
0.0
 11
1664.689193018
 21
79.2999979
 31
0.0
  0
LINE
  8
0
  6
CONTINUOUS
 62
     6
 10
1676.129192138
 20
81.37999774
 30
0.0
 11
1664.689193018
 21
81.37999774
 31
0.0
  0
LINE
  8
0
  6
CONTINUOUS
 62
     6
 10
1676.129192138
 20
79.2999979
 30
0.0
 11
1687.569191258
 21
79.2999979
 31
0.0
  0
LINE
  8
0
  6
CONTINUOUS
 62
     6
 10
1676.129192138
 20
81.37999774
 30
0.0
 11
1687.569191258
 21
81.37999774
 31
0.0
  0
LINE
  8
0
  6
CONTINUOUS
 62
     6
 10
1687.569191258
 20
81.37999774
 30
0.0
 11
1687.569191258
 21
79.2999979
 31
0.0
  0
ARC
  8
0
  6
CONTINUOUS
 62
     6
 10
1690.169191058
 20
80.33999782
 30
0.0
 40
10.3999992
 50
185.739170477
 51
90.0
  0
ARC
  8
0
  6
CONTINUOUS
 62
     6
 10
1690.169191058
 20
80.33999782
 30
0.0
 40
12.47999904
 50
184.780191847
 51
90.0
  0
LINE
  8
0
  6
CONTINUOUS
 62
     6
 10
1664.689193018
 20
79.2999979
 30
0.0
 11
1664.689193018
 21
81.37999774
 31
0.0
  0
LINE
  8
0
  6
CONTINUOUS
 62
     6
 10
1674.569192258
 20
92.81999686
 30
0.0
 11
1662.089193218
 21
92.81999686
 31
0.0
  0
LINE
  8
0
  6
CONTINUOUS
 62
     6
 10
1677.689192018
 20
92.81999686
 30
0.0
 11
1690.169191058
 21
92.81999686
 31
0.0
  0
ARC
  8
0
  6
CONTINUOUS
 62
     6
 10
1662.089193218
 20
80.33999782
 30
0.0
 40
10.3999992
 50
90.0
 51
354.260829523
  0
ARC
  8
0
  6
CONTINUOUS
 62
     6
 10
1662.089193218
 20
80.33999782
 30
0.0
 40
12.47999904
 50
90.0
 51
355.219808153
  0
LINE
  8
0
  6
CONTINUOUS
 62
     6
 10
1674.569192258
 20
92.81999686
 30
0.0
 11
1674.569192258
 21
90.73999702
 31
0.0
  0
LINE
  8
0
  6
CONTINUOUS
 62
     6
 10
1662.089193218
 20
90.73999702
 30
0.0
 11
1674.569192258
 21
90.73999702
 31
0.0
  0
LINE
  8
0
  6
CONTINUOUS
 62
     6
 10
1677.689192018
 20
92.81999686
 30
0.0
 11
1677.689192018
 21
90.73999702
 31
0.0
  0
LINE
  8
0
  6
CONTINUOUS
 62
     6
 10
1690.169191058
 20
90.73999702
 30
0.0
 11
1677.689192018
 21
90.73999702
 31
0.0
  0
TEXT
  8
0
  6
CONTINUOUS
 62
     4
 10
1344.250051
 20
145.1666595
 30
0.8666666
 40
8.666666
  1
ＤＲＡＷＮ
 50
0.0
 41
0.6
 51
0.0
  7
KANJI7
  0
TEXT
  8
0
  6
CONTINUOUS
 62
     4
 10
1344.250051
 20
179.8333235
 30
0.8666666
 40
8.666666
  1
ＤＥＳＩＧＮ
 50
0.0
 41
0.6
 51
0.0
  7
KANJI7
  0
TEXT
  8
0
  6
CONTINUOUS
 62
     4
 10
1344.250051
 20
214.4999875
 30
0.8666666
 40
8.666666
  1
ＣＨＥＣＫ
 50
0.0
 41
0.6
 51
0.0
  7
KANJI7
  0
TEXT
  8
0
  6
CONTINUOUS
 62
     4
 10
1344.250051
 20
249.1666515
 30
0.8666666
 40
8.666666
  1
ＣＯＤＥ
 50
0.0
 41
0.6
 51
0.0
  7
KANJI7
  0
LINE
  8
0
  6
CONTINUOUS
 62
     4
 10
1335.583385
 20
194.999989
 30
0.0
 11
1493.7500395
 21
194.999989
 31
0.0
  0
LINE
  8
0
  6
CONTINUOUS
 62
     4
 10
1335.583385
 20
160.333325
 30
0.0
 11
1493.7500395
 21
160.333325
 31
0.0
  0
LINE
  8
0
  6
CONTINUOUS
 62
     4
 10
1335.583385
 20
229.666653
 30
0.0
 11
1493.7500395
 21
229.666653
 31
0.0
  0
LINE
  8
0
  6
CONTINUOUS
 62
     4
 10
1335.583385
 20
264.333317
 30
0.0
 11
2002.916667
 21
264.333317
 31
0.0
  0
TEXT
  8
0
  6
CONTINUOUS
 62
     4
 10
1344.250051
 20
166.8333245
 30
1.03999992
 40
10.3999992
  1
設計
 50
0.0
 41
0.6
 51
0.0
  7
KANJI8
  0
TEXT
  8
0
  6
CONTINUOUS
 62
     4
 10
1344.250051
 20
201.4999885
 30
1.03999992
 40
10.3999992
  1
検図
 50
0.0
 41
0.6
 51
0.0
  7
KANJI8
  0
TEXT
  8
0
  6
CONTINUOUS
 62
     4
 10
1344.250051
 20
236.1666525
 30
1.03999992
 40
10.3999992
  1
分類
 50
0.0
 41
0.6
 51
0.0
  7
KANJI8
  0
LINE
  8
0
  6
CONTINUOUS
 62
     4
 10
1506.53337185
 20
229.666653
 30
0.0
 11
2002.916667
 21
229.666653
 31
0.0
  0
LINE
  8
0
  6
CONTINUOUS
 62
     4
 10
1493.7500395
 20
160.333325
 30
0.0
 11
2002.916667
 21
160.333325
 31
0.0
  0
TEXT
  8
0
  6
CONTINUOUS
 62
     4
 10
1502.4167055
 20
145.1666595
 30
0.8666666
 40
8.666666
  1
ＤＲＡＷＩＮＧ　ＮＯ．
 50
0.0
 41
0.8
 51
0.0
  7
KANJI11
  0
TEXT
  8
0
  6
CONTINUOUS
 62
     4
 10
1502.4167055
 20
179.8333235
 30
0.8666666
 40
8.666666
  1
ＭＦＧ　ＮＯ．
 50
0.0
 41
0.8
 51
0.0
  7
KANJI11
  0
TEXT
  8
0
  6
CONTINUOUS
 62
     4
 10
1502.4167055
 20
214.4999875
 30
0.8666666
 40
8.666666
  1
ＴＹＰＥ
 50
0.0
 41
0.8
 51
0.0
  7
KANJI11
  0
LINE
  8
0
  6
CONTINUOUS
 62
     4
 10
1506.7500385
 20
194.999989
 30
0.0
 11
1706.0833565
 21
194.999989
 31
0.0
  0
TEXT
  8
0
  6
CONTINUOUS
 62
     4
 10
1502.4167055
 20
129.999994
 30
1.03999992
 40
10.3999992
  1
図　面　番　号
 50
0.0
 41
0.8
 51
0.0
  7
KANJI12
  0
TEXT
  8
0
  6
CONTINUOUS
 62
     4
 10
1502.4167055
 20
164.666658
 30
1.03999992
 40
10.3999992
  1
製番
 50
0.0
 41
0.8
 51
0.0
  7
KANJI12
  0
TEXT
  8
0
  6
CONTINUOUS
 62
     4
 10
1502.4167055
 20
199.333322
 30
1.03999992
 40
10.3999992
  1
機種
 50
0.0
 41
0.8
 51
0.0
  7
KANJI12
  0
LINE
  8
0
  6
CONTINUOUS
 62
     4
 10
1335.583385
 20
125.666661
 30
0.0
 11
1493.7500395
 21
125.666661
 31
0.0
  0
TEXT
  8
0
  6
CONTINUOUS
 62
     4
 10
1344.250051
 20
132.1666605
 30
1.03999992
 40
10.3999992
  1
作図
 50
0.0
 41
0.6
 51
0.0
  7
KANJI8
  0
LINE
  8
0
  6
LTYPE1
 62
     4
 10
1645.4166945
 20
151.666659
 30
0.0
 11
1857.7500115
 21
151.666659
 31
0.0
  0
LINE
  8
0
  6
CONTINUOUS
 62
     4
 10
1875.0833435
 20
135.41666025
 30
0.0
 11
1883.7500095
 21
135.41666025
 31
0.0
  0
LINE
  8
0
  6
CONTINUOUS
 62
     4
 10
1929.250006
 20
122.41666125
 30
0.0
 11
1898.916675
 21
122.41666125
 31
0.0
  0
LINE
  8
0
  6
CONTINUOUS
 62
     4
 10
1898.916675
 20
122.41666125
 30
0.0
 11
1914.0833405
 21
148.41665925
 31
0.0
  0
LINE
  8
0
  6
CONTINUOUS
 62
     4
 10
1914.0833405
 20
148.41665925
 30
0.0
 11
1929.250006
 21
122.41666125
 31
0.0
  0
LINE
  8
0
  6
CONTINUOUS
 62
     4
 10
2002.916667
 20
298.999981
 30
0.0
 11
2002.916667
 21
333.666645
 31
0.0
  0
TEXT
  8
0
  6
CONTINUOUS
 62
     4
 10
1719.0833555
 20
214.4999875
 30
0.8666666
 40
8.666666
  1
ＴＩＴＬＥ
 50
0.0
 41
0.8
 51
0.0
  7
KANJI11
  0
TEXT
  8
0
  6
CONTINUOUS
 62
     4
 10
1719.0833555
 20
199.333322
 30
1.03999992
 40
10.3999992
  1
名称
 50
0.0
 41
0.8
 51
0.0
  7
KANJI12
  0
TEXT
  8
0
  6
CONTINUOUS
 62
     2
 10
1789.75
 20
167.0
 30
12.5
 40
25.0
  1
外形寸法図
 50
0.0
 41
1.0
 51
0.0
  7
KANJI13
  0
TEXT
  8
0
  6
CONTINUOUS
 62
     2
 10
1759.75
 20
197.0
 30
3.571428571
 40
25.0
  1
マイティシリンダ
 50
0.0
 41
1.0
 51
0.0
  7
KANJI14
  0
TEXT
  8
0
  6
CONTINUOUS
 62
     2
 10
1619.1666945
 20
121.999995
 30
1.5
 40
25.0
  1
Ａ
 50
0.0
 41
0.8
 51
0.0
  7
KANJI15
  0
CIRCLE
  8
0
  6
CONTINUOUS
 62
     2
 10
1586.6666945
 20
175.749995
 30
0.0
 40
12.5
  0
TEXT
  8
0
  6
CONTINUOUS
 62
     2
 10
1577.2916945
 20
166.374995
 30
1.5
 40
20.0
  1
Ｓ
 50
0.0
 41
1.0
 51
0.0
  7
KANJI16
  0
TEXT
  8
0
  6
CONTINUOUS
 62
     2
 10
1554.75
 20
202.0
 30
0.0
 40
17.5
  1
ＭＣＳＬＢＢ０１
 50
0.0
 41
0.793650794
 51
0.0
  7
KANJI17
  0
LINE
  8
0
  6
CONTINUOUS
 62
     6
 10
1336.208385
 20
298.999981
 30
0.0
 11
2003.541667
 21
298.999981
 31
0.0
  0
LINE
  8
0
  6
CONTINUOUS
 62
     6
 10
1335.583385
 20
333.666645
 30
0.0
 11
2002.916667
 21
333.666645
 31
0.0
  0
TEXT
  8
0
  6
CONTINUOUS
 62
     4
 10
1351.0
 20
304.166664
 30
5.0
 40
18.0
  1
ご用途
 50
0.0
 41
1.111111111
 51
0.0
  7
KANJI18
  0
TEXT
  8
0
  6
CONTINUOUS
 62
     4
 10
1351.0
 20
269.5
 30
5.0
 40
18.0
  1
ご注文主
 50
0.0
 41
1.111111111
 51
0.0
  7
KANJI18
  0
TEXT
  8
0
  6
CONTINUOUS
 62
     2
 10
1391.4166945
 20
134.499995
 30
5.0
 40
17.5
  1
岡田
 50
0.0
 41
0.857142857
 51
0.0
  7
KANJI19
  0
TEXT
  8
0
  6
CONTINUOUS
 62
     2
 10
1427.25
 20
62.0
 30
1.5
 40
22.5
  1
１／５
 50
0.0
 41
0.666666667
 51
0.0
  7
KANJI20
  0
TEXT
  8
0
  6
CONTINUOUS
 62
     2
 10
1650.4166945
 20
121.999995
 30
10.833333333
 40
25.0
  1
３００２３５１
 50
0.0
 41
0.8
 51
0.0
  7
KANJI21
  0
TEXT
  8
0
  6
CONTINUOUS
 62
     2
 10
129.75
 20
19.5
 30
1.5
 40
15.0
  1
ＦＤ　Ｎｏ．ＭＣ１８５
 50
0.0
 41
1.0
 51
0.0
  7
KANJI22
  0
LINE
  8
0
  6
CONTINUOUS
 62
     1
 10
853.25
 20
1234.95
 30
0.0
 11
1501.25
 21
1234.95
 31
0.0
  0
LINE
  8
0
  6
CONTINUOUS
 62
     1
 10
853.25
 20
1206.95
 30
0.0
 11
1501.25
 21
1206.95
 31
0.0
  0
LINE
  8
0
  6
CONTINUOUS
 62
     2
 10
853.25
 20
1178.95
 30
0.0
 11
1501.25
 21
1178.95
 31
0.0
  0
LINE
  8
0
  6
CONTINUOUS
 62
     2
 10
853.25
 20
1150.95
 30
0.0
 11
1501.25
 21
1150.95
 31
0.0
  0
LINE
  8
0
  6
CONTINUOUS
 62
     2
 10
853.25
 20
1122.95
 30
0.0
 11
1501.25
 21
1122.95
 31
0.0
  0
TEXT
  8
0
  6
CONTINUOUS
 62
     2
 10
893.25
 20
1214.95
 30
1.28
 40
12.8
  1
形
 50
0.0
 41
0.9
 51
0.0
  7
KANJI23
  0
TEXT
  8
0
  6
CONTINUOUS
 62
     2
 10
971.25
 20
1214.95
 30
1.28
 40
12.8
  1
式
 50
0.0
 41
0.9
 51
0.0
  7
KANJI23
  0
TEXT
  8
0
  6
CONTINUOUS
 62
     2
 10
1031.65
 20
1214.15
 30
1.2
 40
12.0
  1
ストローク
 50
0.0
 41
0.9
 51
0.0
  7
KANJI24
  0
TEXT
  8
0
  6
CONTINUOUS
 62
     2
 10
1108.45
 20
1213.35
 30
0.0
 40
12.0
  1
ｍｉｎ　
 50
0.0
 41
0.9
 51
0.0
  7
KANJI25
  0
TEXT
  8
0
  6
CONTINUOUS
 62
     2
 10
1188.45
 20
1213.35
 30
0.0
 40
12.0
  1
ｍｉｎ　
 50
0.0
 41
0.9
 51
0.0
  7
KANJI25
  0
TEXT
  8
0
  6
CONTINUOUS
 62
     2
 10
1348.45
 20
1213.35
 30
0.0
 40
12.0
  1
ｍｉｎ　
 50
0.0
 41
0.9
 51
0.0
  7
KANJI25
  0
TEXT
  8
0
  6
CONTINUOUS
 62
     2
 10
1149.25
 20
1214.15
 30
1.4
 40
14.0
  1
ＡＬ
 50
0.0
 41
0.9
 51
0.0
  7
KANJI26
  0
TEXT
  8
0
  6
CONTINUOUS
 62
     2
 10
1229.25
 20
1214.15
 30
1.4
 40
14.0
  1
Ｌ
 50
0.0
 41
0.9
 51
0.0
  7
KANJI26
  0
TEXT
  8
0
  6
CONTINUOUS
 62
     2
 10
1297.25
 20
1214.15
 30
1.4
 40
14.0
  1
Ｃ
 50
0.0
 41
0.9
 51
0.0
  7
KANJI26
  0
TEXT
  8
0
  6
CONTINUOUS
 62
     2
 10
1389.25
 20
1214.15
 30
1.4
 40
14.0
  1
Ｐ
 50
0.0
 41
0.9
 51
0.0
  7
KANJI26
  0
TEXT
  8
0
  6
CONTINUOUS
 62
     2
 10
1471.55
 20
1213.85
 30
0.0
 40
10.8
  1
（ｋｇ）
 50
0.0
 41
0.740740741
 51
0.0
  7
KANJI27
  0
TEXT
  8
0
  6
CONTINUOUS
 62
     2
 10
1423.55
 20
1213.65
 30
1.2
 40
14.0
  1
概算重量
 50
0.0
 41
0.857142857
 51
0.0
  7
KANJI28
  0
TEXT
  8
0
  6
CONTINUOUS
 62
     2
 10
1039.25
 20
1185.65
 30
1.2
 40
12.0
  1
　１００
 50
0.0
 41
0.9
 51
0.0
  7
KANJI24
  0
TEXT
  8
0
  6
CONTINUOUS
 62
     2
 10
1039.25
 20
1157.65
 30
1.2
 40
12.0
  1
　２００
 50
0.0
 41
0.9
 51
0.0
  7
KANJI24
  0
TEXT
  8
0
  6
CONTINUOUS
 62
     2
 10
1039.25
 20
1129.65
 30
1.2
 40
12.0
  1
　３００
 50
0.0
 41
0.9
 51
0.0
  7
KANJI24
  0
TEXT
  8
0
  6
CONTINUOUS
 62
     2
 10
1199.25
 20
1129.65
 30
1.2
 40
12.0
  1
　５０８
 50
0.0
 41
0.9
 51
0.0
  7
KANJI24
  0
TEXT
  8
0
  6
CONTINUOUS
 62
     2
 10
1199.25
 20
1157.65
 30
1.2
 40
12.0
  1
　４０８
 50
0.0
 41
0.9
 51
0.0
  7
KANJI24
  0
TEXT
  8
0
  6
CONTINUOUS
 62
     2
 10
1279.25
 20
1185.65
 30
1.2
 40
12.0
  1
　２３８
 50
0.0
 41
0.9
 51
0.0
  7
KANJI24
  0
TEXT
  8
0
  6
CONTINUOUS
 62
     2
 10
1279.25
 20
1157.65
 30
1.2
 40
12.0
  1
　３３８
 50
0.0
 41
0.9
 51
0.0
  7
KANJI24
  0
TEXT
  8
0
  6
CONTINUOUS
 62
     2
 10
1279.25
 20
1129.65
 30
1.2
 40
12.0
  1
　４３８
 50
0.0
 41
0.9
 51
0.0
  7
KANJI24
  0
TEXT
  8
0
  6
CONTINUOUS
 62
     2
 10
1359.25
 20
1129.65
 30
1.2
 40
12.0
  1
　　３５
 50
0.0
 41
0.9
 51
0.0
  7
KANJI24
  0
TEXT
  8
0
  6
CONTINUOUS
 62
     2
 10
1359.25
 20
1157.65
 30
1.2
 40
12.0
  1
　　３５
 50
0.0
 41
0.9
 51
0.0
  7
KANJI24
  0
TEXT
  8
0
  6
CONTINUOUS
 62
     2
 10
1359.25
 20
1185.65
 30
1.2
 40
12.0
  1
　　３５
 50
0.0
 41
0.9
 51
0.0
  7
KANJI24
  0
TEXT
  8
0
  6
CONTINUOUS
 62
     2
 10
1039.25
 20
1017.65
 30
1.2
 40
12.0
  1
　７００
 50
0.0
 41
0.9
 51
0.0
  7
KANJI24
  0
TEXT
  8
0
  6
CONTINUOUS
 62
     2
 10
1279.25
 20
1017.65
 30
1.2
 40
12.0
  1
　８７８
 50
0.0
 41
0.9
 51
0.0
  7
KANJI24
  0
LINE
  8
0
  6
CONTINUOUS
 62
     2
 10
853.25
 20
1066.95
 30
0.0
 11
1501.25
 21
1066.95
 31
0.0
  0
LINE
  8
0
  6
CONTINUOUS
 62
     2
 10
853.25
 20
1094.95
 30
0.0
 11
1501.25
 21
1094.95
 31
0.0
  0
LINE
  8
0
  6
CONTINUOUS
 62
     2
 10
853.25
 20
1010.95
 30
0.0
 11
1501.25
 21
1010.95
 31
0.0
  0
LINE
  8
0
  6
CONTINUOUS
 62
     2
 10
853.25
 20
1038.95
 30
0.0
 11
1501.25
 21
1038.95
 31
0.0
  0
TEXT
  8
0
  6
CONTINUOUS
 62
     2
 10
1039.25
 20
1073.65
 30
1.2
 40
12.0
  1
　５００
 50
0.0
 41
0.9
 51
0.0
  7
KANJI24
  0
TEXT
  8
0
  6
CONTINUOUS
 62
     2
 10
1279.25
 20
1073.65
 30
1.2
 40
12.0
  1
　６３８
 50
0.0
 41
0.9
 51
0.0
  7
KANJI24
  0
TEXT
  8
0
  6
CONTINUOUS
 62
     2
 10
1039.25
 20
1101.65
 30
1.2
 40
12.0
  1
　４００
 50
0.0
 41
0.9
 51
0.0
  7
KANJI24
  0
TEXT
  8
0
  6
CONTINUOUS
 62
     2
 10
1039.25
 20
1045.65
 30
1.2
 40
12.0
  1
　６００
 50
0.0
 41
0.9
 51
0.0
  7
KANJI24
  0
TEXT
  8
0
  6
CONTINUOUS
 62
     2
 10
1279.25
 20
1101.65
 30
1.2
 40
12.0
  1
　５３８
 50
0.0
 41
0.9
 51
0.0
  7
KANJI24
  0
TEXT
  8
0
  6
CONTINUOUS
 62
     2
 10
1279.25
 20
1045.65
 30
1.2
 40
12.0
  1
　７７８
 50
0.0
 41
0.9
 51
0.0
  7
KANJI24
  0
TEXT
  8
0
  6
CONTINUOUS
 62
     2
 10
1199.25
 20
1185.65
 30
1.2
 40
12.0
  1
　３０８
 50
0.0
 41
0.9
 51
0.0
  7
KANJI24
  0
TEXT
  8
0
  6
CONTINUOUS
 62
     2
 10
1359.25
 20
1101.65
 30
1.2
 40
12.0
  1
　　３５
 50
0.0
 41
0.9
 51
0.0
  7
KANJI24
  0
TEXT
  8
0
  6
CONTINUOUS
 62
     2
 10
1359.25
 20
1073.65
 30
1.2
 40
12.0
  1
　　３５
 50
0.0
 41
0.9
 51
0.0
  7
KANJI24
  0
TEXT
  8
0
  6
CONTINUOUS
 62
     2
 10
1359.25
 20
1045.65
 30
1.2
 40
12.0
  1
　　３５
 50
0.0
 41
0.9
 51
0.0
  7
KANJI24
  0
TEXT
  8
0
  6
CONTINUOUS
 62
     2
 10
1359.25
 20
1017.65
 30
1.2
 40
12.0
  1
　　３５
 50
0.0
 41
0.9
 51
0.0
  7
KANJI24
  0
TEXT
  8
0
  6
CONTINUOUS
 62
     2
 10
1199.25
 20
1017.65
 30
1.2
 40
12.0
  1
　９４８
 50
0.0
 41
0.9
 51
0.0
  7
KANJI24
  0
TEXT
  8
0
  6
CONTINUOUS
 62
     2
 10
1199.25
 20
1045.65
 30
1.2
 40
12.0
  1
　８４８
 50
0.0
 41
0.9
 51
0.0
  7
KANJI24
  0
TEXT
  8
0
  6
CONTINUOUS
 62
     2
 10
1199.25
 20
1073.65
 30
1.2
 40
12.0
  1
　７０８
 50
0.0
 41
0.9
 51
0.0
  7
KANJI24
  0
TEXT
  8
0
  6
CONTINUOUS
 62
     2
 10
1199.25
 20
1101.65
 30
1.2
 40
12.0
  1
　６０８
 50
0.0
 41
0.9
 51
0.0
  7
KANJI24
  0
TEXT
  8
0
  6
CONTINUOUS
 62
     2
 10
866.25
 20
1185.35
 30
0.8
 40
12.0
  1
ＭＣＳＬＢＢ０１－　　１
 50
0.0
 41
0.833333333
 51
0.0
  7
KANJI29
  0
TEXT
  8
0
  6
CONTINUOUS
 62
     2
 10
866.25
 20
1157.35
 30
0.8
 40
12.0
  1
ＭＣＳＬＢＢ０１－　　２
 50
0.0
 41
0.833333333
 51
0.0
  7
KANJI29
  0
TEXT
  8
0
  6
CONTINUOUS
 62
     2
 10
866.25
 20
1129.35
 30
0.8
 40
12.0
  1
ＭＣＳＬＢＢ０１－　　３
 50
0.0
 41
0.833333333
 51
0.0
  7
KANJI29
  0
TEXT
  8
0
  6
CONTINUOUS
 62
     2
 10
866.25
 20
1101.35
 30
0.8
 40
12.0
  1
ＭＣＳＬＢＢ０１－　　４
 50
0.0
 41
0.833333333
 51
0.0
  7
KANJI29
  0
TEXT
  8
0
  6
CONTINUOUS
 62
     2
 10
866.25
 20
1073.35
 30
0.8
 40
12.0
  1
ＭＣＳＬＢＢ０１－　　５
 50
0.0
 41
0.833333333
 51
0.0
  7
KANJI29
  0
TEXT
  8
0
  6
CONTINUOUS
 62
     2
 10
866.25
 20
1045.35
 30
0.8
 40
12.0
  1
ＭＣＳＬＢＢ０１－　　６
 50
0.0
 41
0.833333333
 51
0.0
  7
KANJI29
  0
TEXT
  8
0
  6
CONTINUOUS
 62
     2
 10
866.25
 20
1017.35
 30
0.8
 40
12.0
  1
ＭＣＳＬＢＢ０１－　　７
 50
0.0
 41
0.833333333
 51
0.0
  7
KANJI29
  0
TEXT
  8
0
  6
CONTINUOUS
 62
     2
 10
1119.25
 20
1185.65
 30
1.2
 40
12.0
  1
　６５１
 50
0.0
 41
0.9
 51
0.0
  7
KANJI24
  0
TEXT
  8
0
  6
CONTINUOUS
 62
     2
 10
1119.25
 20
1157.65
 30
1.2
 40
12.0
  1
　７５１
 50
0.0
 41
0.9
 51
0.0
  7
KANJI24
  0
TEXT
  8
0
  6
CONTINUOUS
 62
     2
 10
1119.25
 20
1129.65
 30
1.2
 40
12.0
  1
　８５１
 50
0.0
 41
0.9
 51
0.0
  7
KANJI24
  0
TEXT
  8
0
  6
CONTINUOUS
 62
     2
 10
1119.25
 20
1101.65
 30
1.2
 40
12.0
  1
　９５１
 50
0.0
 41
0.9
 51
0.0
  7
KANJI24
  0
TEXT
  8
0
  6
CONTINUOUS
 62
     2
 10
1119.25
 20
1073.65
 30
1.2
 40
12.0
  1
１０５１
 50
0.0
 41
0.9
 51
0.0
  7
KANJI24
  0
TEXT
  8
0
  6
CONTINUOUS
 62
     2
 10
1119.25
 20
1045.65
 30
1.2
 40
12.0
  1
１１９１
 50
0.0
 41
0.9
 51
0.0
  7
KANJI24
  0
TEXT
  8
0
  6
CONTINUOUS
 62
     2
 10
1119.25
 20
1017.65
 30
1.2
 40
12.0
  1
１２９１
 50
0.0
 41
0.9
 51
0.0
  7
KANJI24
  0
TEXT
  8
0
  6
CONTINUOUS
 62
     2
 10
1439.25
 20
1185.65
 30
1.2
 40
12.0
  1
　　２６
 50
0.0
 41
0.9
 51
0.0
  7
KANJI24
  0
TEXT
  8
0
  6
CONTINUOUS
 62
     2
 10
1439.25
 20
1157.65
 30
1.2
 40
12.0
  1
　　２７
 50
0.0
 41
0.9
 51
0.0
  7
KANJI24
  0
TEXT
  8
0
  6
CONTINUOUS
 62
     2
 10
1439.25
 20
1129.65
 30
1.2
 40
12.0
  1
　　２８
 50
0.0
 41
0.9
 51
0.0
  7
KANJI24
  0
TEXT
  8
0
  6
CONTINUOUS
 62
     2
 10
1439.25
 20
1101.65
 30
1.2
 40
12.0
  1
　　２９
 50
0.0
 41
0.9
 51
0.0
  7
KANJI24
  0
TEXT
  8
0
  6
CONTINUOUS
 62
     2
 10
1439.25
 20
1073.65
 30
1.2
 40
12.0
  1
　　３０
 50
0.0
 41
0.9
 51
0.0
  7
KANJI24
  0
TEXT
  8
0
  6
CONTINUOUS
 62
     2
 10
1439.25
 20
1045.65
 30
1.2
 40
12.0
  1
　　３１
 50
0.0
 41
0.9
 51
0.0
  7
KANJI24
  0
TEXT
  8
0
  6
CONTINUOUS
 62
     2
 10
1439.25
 20
1017.65
 30
1.2
 40
12.0
  1
　　３２
 50
0.0
 41
0.9
 51
0.0
  7
KANJI24
  0
LINE
  8
0
  6
CONTINUOUS
 62
     1
 10
1277.625
 20
1388.0
 30
0.0
 11
1277.625
 21
1287.9
 31
0.0
  0
LINE
  8
0
  6
CONTINUOUS
 62
     2
 10
1219.875
 20
1388.0
 30
0.0
 11
1219.875
 21
1287.9
 31
0.0
  0
LINE
  8
0
  6
CONTINUOUS
 62
     2
 10
1162.125
 20
1388.0
 30
0.0
 11
1162.125
 21
1287.9
 31
0.0
  0
LINE
  8
0
  6
CONTINUOUS
 62
     1
 10
1085.125
 20
1388.0
 30
0.0
 11
1085.125
 21
1287.9
 31
0.0
  0
LINE
  8
0
  6
CONTINUOUS
 62
     1
 10
1085.125
 20
1388.0
 30
0.0
 11
1277.625
 21
1388.0
 31
0.0
  0
LINE
  8
0
  6
CONTINUOUS
 62
     1
 10
1085.125
 20
1357.2
 30
0.0
 11
1277.625
 21
1357.2
 31
0.0
  0
LINE
  8
0
  6
CONTINUOUS
 62
     2
 10
1085.125
 20
1334.1
 30
0.0
 11
1277.625
 21
1334.1
 31
0.0
  0
LINE
  8
0
  6
CONTINUOUS
 62
     2
 10
1085.125
 20
1311.0
 30
0.0
 11
1277.625
 21
1311.0
 31
0.0
  0
LINE
  8
0
  6
CONTINUOUS
 62
     1
 10
1085.125
 20
1287.9
 30
0.0
 11
1277.625
 21
1287.9
 31
0.0
  0
TEXT
  8
0
  6
CONTINUOUS
 62
     2
 10
1227.575
 20
1374.525
 30
1.155
 40
11.55
  1
起動電流
 50
0.0
 41
0.9
 51
0.0
  7
KANJI30
  0
TEXT
  8
0
  6
CONTINUOUS
 62
     2
 10
1227.575
 20
1361.05
 30
1.155
 40
11.55
  1
　　　Ａ
 50
0.0
 41
0.9
 51
0.0
  7
KANJI30
  0
TEXT
  8
0
  6
CONTINUOUS
 62
     2
 10
1169.825
 20
1374.525
 30
1.155
 40
11.55
  1
定格電流
 50
0.0
 41
0.9
 51
0.0
  7
KANJI30
  0
TEXT
  8
0
  6
CONTINUOUS
 62
     2
 10
1169.825
 20
1361.05
 30
1.155
 40
11.55
  1
　　　Ａ
 50
0.0
 41
0.9
 51
0.0
  7
KANJI30
  0
TEXT
  8
0
  6
CONTINUOUS
 62
     2
 10
1091.67
 20
1316.775
 30
1.155
 40
11.55
  1
２００／６０
 50
0.0
 41
0.9
 51
0.0
  7
KANJI30
  0
TEXT
  8
0
  6
CONTINUOUS
 62
     2
 10
1091.67
 20
1374.525
 30
1.155
 40
11.55
  1
電圧／周波数
 50
0.0
 41
0.9
 51
0.0
  7
KANJI30
  0
TEXT
  8
0
  6
CONTINUOUS
 62
     2
 10
1091.67
 20
1361.05
 30
1.155
 40
11.55
  1
　Ｖ／Ｈｚ
 50
0.0
 41
0.9
 51
0.0
  7
KANJI30
  0
TEXT
  8
0
  6
CONTINUOUS
 62
     2
 10
1091.67
 20
1339.875
 30
1.155
 40
11.55
  1
２００／５０
 50
0.0
 41
0.9
 51
0.0
  7
KANJI30
  0
TEXT
  8
0
  6
CONTINUOUS
 62
     2
 10
1091.67
 20
1293.675
 30
1.155
 40
11.55
  1
２２０／６０
 50
0.0
 41
0.9
 51
0.0
  7
KANJI30
  0
LINE
  8
0
  6
CONTINUOUS
 62
     1
 10
1046.625
 20
1388.0
 30
0.0
 11
1046.625
 21
1287.9
 31
0.0
  0
LINE
  8
0
  6
CONTINUOUS
 62
     2
 10
988.875
 20
1388.0
 30
0.0
 11
988.875
 21
1287.9
 31
0.0
  0
LINE
  8
0
  6
CONTINUOUS
 62
     2
 10
931.125
 20
1388.0
 30
0.0
 11
931.125
 21
1287.9
 31
0.0
  0
LINE
  8
0
  6
CONTINUOUS
 62
     1
 10
854.125
 20
1388.0
 30
0.0
 11
854.125
 21
1287.9
 31
0.0
  0
LINE
  8
0
  6
CONTINUOUS
 62
     1
 10
854.125
 20
1388.0
 30
0.0
 11
1046.625
 21
1388.0
 31
0.0
  0
LINE
  8
0
  6
CONTINUOUS
 62
     1
 10
854.125
 20
1357.2
 30
0.0
 11
1046.625
 21
1357.2
 31
0.0
  0
LINE
  8
0
  6
CONTINUOUS
 62
     2
 10
854.125
 20
1334.1
 30
0.0
 11
1046.625
 21
1334.1
 31
0.0
  0
LINE
  8
0
  6
CONTINUOUS
 62
     2
 10
854.125
 20
1311.0
 30
0.0
 11
1046.625
 21
1311.0
 31
0.0
  0
LINE
  8
0
  6
CONTINUOUS
 62
     1
 10
854.125
 20
1287.9
 30
0.0
 11
1046.625
 21
1287.9
 31
0.0
  0
TEXT
  8
0
  6
CONTINUOUS
 62
     2
 10
996.575
 20
1374.525
 30
1.155
 40
11.55
  1
起動電流
 50
0.0
 41
0.9
 51
0.0
  7
KANJI30
  0
TEXT
  8
0
  6
CONTINUOUS
 62
     2
 10
996.575
 20
1361.05
 30
1.155
 40
11.55
  1
　　　Ａ
 50
0.0
 41
0.9
 51
0.0
  7
KANJI30
  0
TEXT
  8
0
  6
CONTINUOUS
 62
     2
 10
938.825
 20
1374.525
 30
1.155
 40
11.55
  1
定格電流
 50
0.0
 41
0.9
 51
0.0
  7
KANJI30
  0
TEXT
  8
0
  6
CONTINUOUS
 62
     2
 10
938.825
 20
1361.05
 30
1.155
 40
11.55
  1
　　　Ａ
 50
0.0
 41
0.9
 51
0.0
  7
KANJI30
  0
TEXT
  8
0
  6
CONTINUOUS
 62
     2
 10
860.67
 20
1374.525
 30
1.155
 40
11.55
  1
電圧／周波数
 50
0.0
 41
0.9
 51
0.0
  7
KANJI30
  0
TEXT
  8
0
  6
CONTINUOUS
 62
     2
 10
860.67
 20
1361.05
 30
1.155
 40
11.55
  1
　Ｖ／Ｈｚ
 50
0.0
 41
0.9
 51
0.0
  7
KANJI30
  0
TEXT
  8
0
  6
CONTINUOUS
 62
     2
 10
860.67
 20
1339.875
 30
1.155
 40
11.55
  1
４００／５０
 50
0.0
 41
0.9
 51
0.0
  7
KANJI30
  0
TEXT
  8
0
  6
CONTINUOUS
 62
     2
 10
860.67
 20
1316.775
 30
1.155
 40
11.55
  1
４００／６０
 50
0.0
 41
0.9
 51
0.0
  7
KANJI30
  0
TEXT
  8
0
  6
CONTINUOUS
 62
     2
 10
860.67
 20
1293.675
 30
1.155
 40
11.55
  1
４４０／６０
 50
0.0
 41
0.9
 51
0.0
  7
KANJI30
  0
TEXT
  8
0
  6
CONTINUOUS
 62
     2
 10
938.825
 20
1339.875
 30
1.155
 40
11.55
  1
　２．０
 50
0.0
 41
0.9
 51
0.0
  7
KANJI30
  0
TEXT
  8
0
  6
CONTINUOUS
 62
     2
 10
938.825
 20
1316.775
 30
1.155
 40
11.55
  1
　１．４
 50
0.0
 41
0.9
 51
0.0
  7
KANJI30
  0
TEXT
  8
0
  6
CONTINUOUS
 62
     2
 10
938.825
 20
1293.675
 30
1.155
 40
11.55
  1
　１．７
 50
0.0
 41
0.9
 51
0.0
  7
KANJI30
  0
TEXT
  8
0
  6
CONTINUOUS
 62
     2
 10
1169.825
 20
1339.875
 30
1.155
 40
11.55
  1
　４．０
 50
0.0
 41
0.9
 51
0.0
  7
KANJI30
  0
TEXT
  8
0
  6
CONTINUOUS
 62
     2
 10
1169.825
 20
1316.775
 30
1.155
 40
11.55
  1
　２．８
 50
0.0
 41
0.9
 51
0.0
  7
KANJI30
  0
TEXT
  8
0
  6
CONTINUOUS
 62
     2
 10
1169.825
 20
1293.675
 30
1.155
 40
11.55
  1
　３．３
 50
0.0
 41
0.9
 51
0.0
  7
KANJI30
  0
TEXT
  8
0
  6
CONTINUOUS
 62
     2
 10
1227.575
 20
1339.875
 30
1.155
 40
11.55
  1
　９．２
 50
0.0
 41
0.9
 51
0.0
  7
KANJI30
  0
TEXT
  8
0
  6
CONTINUOUS
 62
     2
 10
1227.575
 20
1316.775
 30
1.155
 40
11.55
  1
　８
 50
0.0
 41
0.9
 51
0.0
  7
KANJI30
  0
TEXT
  8
0
  6
CONTINUOUS
 62
     2
 10
1227.575
 20
1293.675
 30
1.155
 40
11.55
  1
　８．８
 50
0.0
 41
0.9
 51
0.0
  7
KANJI30
  0
TEXT
  8
0
  6
CONTINUOUS
 62
     2
 10
996.575
 20
1339.875
 30
1.155
 40
11.55
  1
　４．６
 50
0.0
 41
0.9
 51
0.0
  7
KANJI30
  0
TEXT
  8
0
  6
CONTINUOUS
 62
     2
 10
996.575
 20
1316.775
 30
1.155
 40
11.55
  1
　４
 50
0.0
 41
0.9
 51
0.0
  7
KANJI30
  0
TEXT
  8
0
  6
CONTINUOUS
 62
     2
 10
996.575
 20
1293.675
 30
1.155
 40
11.55
  1
　４．４
 50
0.0
 41
0.9
 51
0.0
  7
KANJI30
  0
LINE
  8
0
  6
CONTINUOUS
 62
     2
 10
923.0
 20
602.0
 30
0.0
 11
923.0
 21
736.25
 31
0.0
  0
LINE
  8
0
  6
CONTINUOUS
 62
     2
 10
983.0
 20
736.25
 30
0.0
 11
983.0
 21
590.2
 31
0.0
  0
LINE
  8
0
  6
CONTINUOUS
 62
     2
 10
1036.0
 20
586.5
 30
0.0
 11
1069.9
 21
586.5
 31
0.0
  0
LINE
  8
0
  6
CONTINUOUS
 62
     2
 10
1036.0
 20
546.5
 30
0.0
 11
1070.3
 21
546.5
 31
0.0
  0
LINE
  8
0
  6
CONTINUOUS
 62
     2
 10
993.0
 20
415.6
 30
0.0
 11
993.0
 21
484.45
 31
0.0
  0
LINE
  8
0
  6
CONTINUOUS
 62
     2
 10
1010.0
 20
438.5
 30
0.0
 11
1010.0
 21
469.7
 31
0.0
  0
LINE
  8
0
  6
CONTINUOUS
 62
     2
 10
1026.0
 20
438.4
 30
0.0
 11
1026.0
 21
470.7
 31
0.0
  0
LINE
  8
0
  6
CONTINUOUS
 62
     2
 10
1037.3
 20
426.5
 30
0.0
 11
1081.833854631
 21
426.5
 31
0.0
  0
LINE
  8
0
  6
CONTINUOUS
 62
     2
 10
1037.4
 20
414.5
 30
0.0
 11
1081.733854631
 21
414.5
 31
0.0
  0
LINE
  8
0
  6
CONTINUOUS
 62
     2
 10
1037.3
 20
398.5
 30
0.0
 11
1081.733854631
 21
398.5
 31
0.0
  0
LINE
  8
0
  6
CONTINUOUS
 62
     2
 10
1037.2
 20
386.5
 30
0.0
 11
1081.833854631
 21
386.5
 31
0.0
  0
LINE
  8
0
  6
CONTINUOUS
 62
     2
 10
1073.833854631
 20
398.5
 30
0.0
 11
1071.24566418
 21
408.159258263
 31
0.0
  0
LINE
  8
0
  6
CONTINUOUS
 62
     2
 10
1073.833854631
 20
398.5
 30
0.0
 11
1076.422045082
 21
408.159258263
 31
0.0
  0
LINE
  8
0
  6
CONTINUOUS
 62
     6
 10
345.959425053
 20
1342.747759827
 30
0.0
 11
113.914646507
 21
1342.747759827
 31
0.0
  0
LINE
  8
0
  6
CONTINUOUS
 62
     3
 10
345.959425053
 20
1315.285259827
 30
0.0
 11
113.914646507
 21
1315.285259827
 31
0.0
  0
LINE
  8
0
  6
CONTINUOUS
 62
     6
 10
345.959425053
 20
1315.285259827
 30
0.0
 11
113.914646507
 21
1315.285259827
 31
0.0
  0
TEXT
  8
0
  6
CONTINUOUS
 62
     6
 10
371.542228
 20
1340.200410728
 30
1.232517
 40
13.182
  1
電気定格　　　
 50
0.0
 41
0.85
 51
0.0
  7
KANJI31
  0
TEXT
  8
0
  6
CONTINUOUS
 62
     6
 10
117.823517202
 20
1345.94592676
 30
1.0647
 40
11.661
  1
ＬＳ０１　　　：推力リミッタ（前進時過負荷用）
 50
0.0
 41
0.822608696
 51
0.0
  7
KANJI32
  0
TEXT
  8
0
  6
CONTINUOUS
 62
     6
 10
117.823517202
 20
1318.48342676
 30
1.0647
 40
11.661
  1
ＬＳ０２　　　：推力リミッタ（後進時過負荷用）
 50
0.0
 41
0.822608696
 51
0.0
  7
KANJI32
  0
TEXT
  8
0
  6
CONTINUOUS
 62
     6
 10
384.343715102
 20
1309.626958599
 30
0.0
 40
11.8638
  1
ＤＣ１２５Ｖ　０．６Ａ　，ＤＣ２５０Ｖ　０．３Ａ　
 50
0.0
 41
0.726495726
 51
0.0
  7
KANJI33
  0
LINE
  8
0
  6
LTYPE4
 62
     6
 10
644.35
 20
1370.2
 30
0.0
 11
95.95
 21
1370.2
 31
0.0
  0
TEXT
  8
0
  6
CONTINUOUS
 62
     6
 10
379.087132178
 20
1357.961726126
 30
0.0
 40
45.0
  1
｝
 50
0.0
 41
0.538166667
 51
0.0
  7
KANJI34
  0
LINE
  8
0
  6
LTYPE4
 62
     6
 10
644.35
 20
1111.2
 30
0.0
 11
644.35
 21
1370.2
 31
0.0
  0
LINE
  8
0
  6
LTYPE4
 62
     6
 10
95.95
 20
1111.2
 30
0.0
 11
644.35
 21
1111.2
 31
0.0
  0
LINE
  8
0
  6
LTYPE4
 62
     6
 10
95.95
 20
1370.2
 30
0.0
 11
95.95
 21
1111.2
 31
0.0
  0
TEXT
  8
0
  6
CONTINUOUS
 62
     6
 10
308.962791539
 20
1129.22382165
 30
0.0
 40
17.740702234
  1
端子台　接続図
 50
0.0
 41
0.880962996
 51
0.0
  7
KANJI35
  0
LINE
  8
0
  6
CONTINUOUS
 62
     2
 10
343.927373465
 20
1180.228121884
 30
0.0
 11
343.927373465
 21
1157.449155128
 31
0.0
  0
LINE
  8
0
  6
CONTINUOUS
 62
     2
 10
370.50283468
 20
1180.228121884
 30
0.0
 11
370.50283468
 21
1157.449155128
 31
0.0
  0
LINE
  8
0
  6
CONTINUOUS
 62
     2
 10
397.078295894
 20
1180.228121884
 30
0.0
 11
397.078295894
 21
1157.449155128
 31
0.0
  0
LINE
  8
0
  6
CONTINUOUS
 62
     2
 10
423.653757109
 20
1180.228121884
 30
0.0
 11
423.653757109
 21
1157.449155128
 31
0.0
  0
CIRCLE
  8
0
  6
CONTINUOUS
 62
     6
 10
415.734269667
 20
1203.707921517
 30
0.0
 40
4.100214016
  0
LINE
  8
0
  6
CONTINUOUS
 62
     6
 10
411.634055651
 20
1203.707921517
 30
0.0
 11
410.366026502
 21
1203.707921517
 31
0.0
  0
LINE
  8
0
  6
CONTINUOUS
 62
     6
 10
436.688027433
 20
1217.394562742
 30
0.0
 11
432.773558096
 21
1195.059507138
 31
0.0
  0
LINE
  8
0
  6
CONTINUOUS
 62
     6
 10
431.961699663
 20
1218.182284037
 30
0.0
 11
428.046922494
 21
1195.847279739
 31
0.0
  0
LINE
  8
0
  6
CONTINUOUS
 62
     6
 10
432.773558096
 20
1195.059507138
 30
0.0
 11
428.046922494
 21
1195.847279739
 31
0.0
  0
CIRCLE
  8
0
  6
CONTINUOUS
 62
     6
 10
436.941487717
 20
1194.239464335
 30
0.0
 40
4.100214016
  0
LINE
  8
0
  6
CONTINUOUS
 62
     6
 10
436.941487717
 20
1190.139250319
 30
0.0
 11
436.941487717
 21
1180.228121884
 31
0.0
  0
LINE
  8
0
  6
CONTINUOUS
 62
     6
 10
410.366026502
 20
1203.707921517
 30
0.0
 11
410.366026502
 21
1180.228121884
 31
0.0
  0
LINE
  8
0
  6
CONTINUOUS
 62
     6
 10
383.790565287
 20
1180.228121884
 30
0.0
 11
383.790565287
 21
1233.933332504
 31
0.0
  0
LINE
  8
0
  6
CONTINUOUS
 62
     6
 10
304.317641926
 20
1217.394562742
 30
0.0
 11
308.232111263
 21
1195.059507138
 31
0.0
  0
LINE
  8
0
  6
CONTINUOUS
 62
     6
 10
309.043969696
 20
1218.182284037
 30
0.0
 11
312.958746865
 21
1195.847279739
 31
0.0
  0
LINE
  8
0
  6
CONTINUOUS
 62
     6
 10
308.232111263
 20
1195.059507138
 30
0.0
 11
312.958746865
 21
1195.847279739
 31
0.0
  0
CIRCLE
  8
0
  6
CONTINUOUS
 62
     6
 10
304.064181642
 20
1194.239464335
 30
0.0
 40
4.100214016
  0
CIRCLE
  8
0
  6
CONTINUOUS
 62
     6
 10
325.271399692
 20
1203.707921517
 30
0.0
 40
4.100214016
  0
LINE
  8
0
  6
CONTINUOUS
 62
     6
 10
329.371613708
 20
1203.707921517
 30
0.0
 11
330.639642857
 21
1203.707921517
 31
0.0
  0
LINE
  8
0
  6
CONTINUOUS
 62
     6
 10
304.064181642
 20
1190.139250319
 30
0.0
 11
304.064181642
 21
1180.228121884
 31
0.0
  0
LINE
  8
0
  6
CONTINUOUS
 62
     6
 10
330.639642857
 20
1203.707921517
 30
0.0
 11
330.639642857
 21
1180.228121884
 31
0.0
  0
LINE
  8
0
  6
CONTINUOUS
 62
     6
 10
357.215104072
 20
1180.228121884
 30
0.0
 11
357.215104072
 21
1233.933332504
 31
0.0
  0
LINE
  8
0
  6
CONTINUOUS
 62
     2
 10
450.229218324
 20
1180.228121884
 30
0.0
 11
450.229218324
 21
1157.449155128
 31
0.0
  0
LINE
  8
0
  6
CONTINUOUS
 62
     2
 10
290.776451035
 20
1180.228121884
 30
0.0
 11
290.776451035
 21
1157.449155128
 31
0.0
  0
LINE
  8
0
  6
CONTINUOUS
 62
     2
 10
317.35191225
 20
1180.228121884
 30
0.0
 11
317.35191225
 21
1157.449155128
 31
0.0
  0
LINE
  8
0
  6
CONTINUOUS
 62
     6
 10
436.941487717
 20
1233.933332504
 30
0.0
 11
383.790565287
 21
1233.933332504
 31
0.0
  0
CIRCLE
  8
0
  6
CONTINUOUS
 62
     6
 10
436.941487717
 20
1221.58941042
 30
0.0
 40
4.100214016
  0
LINE
  8
0
  6
CONTINUOUS
 62
     6
 10
436.688027433
 20
1217.394562742
 30
0.0
 11
431.961699663
 21
1218.182284037
 31
0.0
  0
LINE
  8
0
  6
CONTINUOUS
 62
     6
 10
436.941487717
 20
1225.689624436
 30
0.0
 11
436.941487717
 21
1233.933332504
 31
0.0
  0
CIRCLE
  8
0
  6
CONTINUOUS
 62
     6
 10
304.064181642
 20
1221.58941042
 30
0.0
 40
4.100214016
  0
LINE
  8
0
  6
CONTINUOUS
 62
     6
 10
304.317641926
 20
1217.394562742
 30
0.0
 11
309.043969696
 21
1218.182284037
 31
0.0
  0
LINE
  8
0
  6
CONTINUOUS
 62
     6
 10
304.064181642
 20
1225.689624436
 30
0.0
 11
304.064181642
 21
1233.933332504
 31
0.0
  0
LINE
  8
0
  6
CONTINUOUS
 62
     6
 10
357.215104072
 20
1233.933332504
 30
0.0
 11
304.064181642
 21
1233.933332504
 31
0.0
  0
TEXT
  8
0
  6
CONTINUOUS
 62
     6
 10
308.8272152
 20
1238.452473273
 30
0.819
 40
11.7
  1
ＬＳ０１
 50
0.0
 41
0.8
 51
0.0
  7
KANJI36
  0
TEXT
  8
0
  6
CONTINUOUS
 62
     6
 10
391.447398844
 20
1238.452473273
 30
0.819
 40
11.7
  1
ＬＳ０２
 50
0.0
 41
0.8
 51
0.0
  7
KANJI36
  0
TEXT
  8
0
  6
CONTINUOUS
 62
     3
 10
136.638775989
 20
1161.245649587
 30
0.0
 40
15.0
  1
　　　　　　　　　　　　　　　　　　１　　２　　　３　　　４　　　５　　　６
 50
0.0
 41
0.911
 51
0.0
  7
KANJI37
  0
LINE
  8
0
  6
CONTINUOUS
 62
     2
 10
290.776451035
 20
1180.228121884
 30
0.0
 11
450.229218324
 21
1180.228121884
 31
0.0
  0
LINE
  8
0
  6
CONTINUOUS
 62
     2
 10
290.776451035
 20
1157.449155128
 30
0.0
 11
450.229218324
 21
1157.449155128
 31
0.0
  0
TEXT
  8
0
  6
CONTINUOUS
 62
     6
 10
282.462791539
 20
1268.22382165
 30
0.0
 40
17.740702234
  1
推力リミッタ端子台配列
 50
0.0
 41
0.880962996
 51
0.0
  7
KANJI35
  0
TEXT
  8
0
  6
CONTINUOUS
 62
     2
 10
1497.25
 20
555.5
 30
10.0
 40
20.0
  1
特記事項
 50
0.0
 41
0.9
 51
0.0
  7
KANJI38
  0
TEXT
  8
0
  6
CONTINUOUS
 62
     2
 10
1427.25
 20
515.5
 30
5.142857143
 40
18.0
  1
１。運転時は必ずピストンロッドの回転防止を行って下さい。
 50
0.0
 41
0.857142857
 51
0.0
  7
KANJI39
  0
TEXT
  8
0
  6
CONTINUOUS
 62
     2
 10
1427.25
 20
481.5
 30
5.13
 40
18.0
  1
２。モートル：全閉自冷かご形３０分定格
 50
0.0
 41
0.857222222
 51
0.0
  7
KANJI40
  0
TEXT
  8
0
  6
CONTINUOUS
 62
     2
 10
1426.9165915
 20
447.500003
 30
5.13
 40
18.0
  1
３。呼称ストロークは、機械的ストロークです。
 50
0.0
 41
0.857222222
 51
0.0
  7
KANJI40
  0
TEXT
  8
0
  6
CONTINUOUS
 62
     2
 10
1426.9165915
 20
418.750003
 30
5.13
 40
18.0
  1
　　必ず、常用はストローク両端に余裕を取って下さい。
 50
0.0
 41
0.857222222
 51
0.0
  7
KANJI40
  0
LINE
  8
0
  6
CONTINUOUS
 62
     2
 10
879.7275
 20
1266.725
 30
0.0
 11
1266.0375
 21
1266.725
 31
0.0
  0
TEXT
  8
0
  6
CONTINUOUS
 62
     2
 10
1427.6765915
 20
385.710003
 30
5.13
 40
18.0
  1
　　前後の推奨余裕寸法は、各々１５ｍｍです。
 50
0.0
 41
0.857222222
 51
0.0
  7
KANJI40
  0
LINE
  8
0
  6
CONTINUOUS
 62
     1
 10
620.049814745
 20
662.95
 30
0.0
 11
630.649814745
 21
662.95
 31
0.0
  0
ARC
  8
0
  6
CONTINUOUS
 62
     1
 10
624.949814745
 20
661.95
 30
0.0
 40
5.0
 50
92.3
 51
168.5
  0
ARC
  8
0
  6
CONTINUOUS
 62
     1
 10
625.749814745
 20
661.95
 30
0.0
 40
5.0
 50
11.5
 51
87.7
  0
LINE
  8
0
  6
CONTINUOUS
 62
     1
 10
624.749814745
 20
666.95
 30
0.0
 11
625.949814745
 21
666.95
 31
0.0
  0
LINE
  8
0
  6
LTYPE5
 62
     2
 10
625.349814745
 20
670.35
 30
0.0
 11
625.349814745
 21
656.95
 31
0.0
  0
LINE
  8
0
  6
CONTINUOUS
 62
     1
 10
731.049814745
 20
662.5
 30
0.0
 11
741.649814745
 21
662.5
 31
0.0
  0
ARC
  8
0
  6
CONTINUOUS
 62
     1
 10
735.949814745
 20
661.5
 30
0.0
 40
5.0
 50
92.3
 51
168.5
  0
ARC
  8
0
  6
CONTINUOUS
 62
     1
 10
736.749814745
 20
661.5
 30
0.0
 40
5.0
 50
11.5
 51
87.7
  0
LINE
  8
0
  6
CONTINUOUS
 62
     1
 10
735.749814745
 20
666.5
 30
0.0
 11
736.949814745
 21
666.5
 31
0.0
  0
LINE
  8
0
  6
LTYPE5
 62
     2
 10
736.349814745
 20
669.9
 30
0.0
 11
736.349814745
 21
656.5
 31
0.0
  0
TEXT
  8
0
  6
CONTINUOUS
 62
     2
 10
991.7
 20
481.35
 30
0.0
 40
15.0
  1
２５
 50
0.0
 41
0.9
 51
0.0
  7
KANJI2
  0
TEXT
  8
0
  6
CONTINUOUS
 62
     2
 10
887.4275
 20
1270.575
 30
1.3475
 40
13.475
  1
注意：サーマルリレー等の選定は、上記の値で選定して下さい。
 50
0.0
 41
0.9
 51
0.0
  7
KANJI41
  0
LINE
  8
0
  6
LTYPE4
 62
     2
 10
531.0
 20
485.02
 30
0.0
 11
531.0
 21
446.7
 31
0.0
  0
LINE
  8
0
  6
CONTINUOUS
 62
     2
 10
637.4
 20
824.7
 30
0.0
 11
1059.4
 21
824.7
 31
0.0
  0
TEXT
  8
0
  6
CONTINUOUS
 62
     2
 10
646.4
 20
830.7
 30
0.0
 40
20.0
  1
推力リミッタの作動値は、約１１０ｋｇ（設計値）
 50
0.0
 41
0.925
 51
0.0
  7
KANJI42
  0
LINE
  8
0
  6
CONTINUOUS
 62
     1
 10
1026.0
 20
437.5
 30
0.0
 11
1010.0
 21
437.5
 31
0.0
  0
LINE
  8
0
  6
CONTINUOUS
 62
     1
 10
1003.0
 20
429.5
 30
0.0
 11
1033.0
 21
429.5
 31
0.0
  0
LINE
  8
0
  6
LTYPE4
 62
     2
 10
1013.6
 20
432.15
 30
0.0
 11
1022.0
 21
432.15
 31
0.0
  0
LINE
  8
0
  6
CONTINUOUS
 62
     1
 10
983.0
 20
426.5
 30
0.0
 11
1036.0
 21
426.5
 31
0.0
  0
CIRCLE
  8
0
  6
CONTINUOUS
 62
     1
 10
1018.0
 20
432.15
 30
0.0
 40
2.0
  0
LINE
  8
0
  6
CONTINUOUS
 62
     1
 10
1003.0
 20
426.5
 30
0.0
 11
1003.0
 21
429.5
 31
0.0
  0
LINE
  8
0
  6
LTYPE1
 62
     2
 10
1010.0
 20
429.5
 30
0.0
 11
1010.0
 21
414.5
 31
0.0
  0
LINE
  8
0
  6
CONTINUOUS
 62
     1
 10
1033.0
 20
426.5
 30
0.0
 11
1033.0
 21
429.5
 31
0.0
  0
LINE
  8
0
  6
CONTINUOUS
 62
     1
 10
1026.0
 20
429.5
 30
0.0
 11
1026.0
 21
437.5
 31
0.0
  0
LINE
  8
0
  6
LTYPE1
 62
     2
 10
1026.0
 20
414.5
 30
0.0
 11
1026.0
 21
429.5
 31
0.0
  0
LINE
  8
0
  6
CONTINUOUS
 62
     1
 10
1026.0
 20
375.5
 30
0.0
 11
1010.0
 21
375.5
 31
0.0
  0
LINE
  8
0
  6
CONTINUOUS
 62
     1
 10
1026.0
 20
375.5
 30
0.0
 11
1010.0
 21
375.5
 31
0.0
  0
LINE
  8
0
  6
CONTINUOUS
 62
     1
 10
1003.0
 20
383.5
 30
0.0
 11
1033.0
 21
383.5
 31
0.0
  0
LINE
  8
0
  6
LTYPE4
 62
     2
 10
1013.6
 20
380.85
 30
0.0
 11
1022.0
 21
380.85
 31
0.0
  0
LINE
  8
0
  6
CONTINUOUS
 62
     1
 10
1033.0
 20
386.5
 30
0.0
 11
1033.0
 21
383.5
 31
0.0
  0
LINE
  8
0
  6
CONTINUOUS
 62
     1
 10
1026.0
 20
383.5
 30
0.0
 11
1026.0
 21
375.5
 31
0.0
  0
LINE
  8
0
  6
CONTINUOUS
 62
     1
 10
1026.0
 20
383.5
 30
0.0
 11
1026.0
 21
375.5
 31
0.0
  0
LINE
  8
0
  6
LTYPE1
 62
     2
 10
1026.0
 20
398.5
 30
0.0
 11
1026.0
 21
383.5
 31
0.0
  0
LINE
  8
0
  6
CONTINUOUS
 62
     1
 10
1003.0
 20
386.5
 30
0.0
 11
1003.0
 21
383.5
 31
0.0
  0
LINE
  8
0
  6
CONTINUOUS
 62
     1
 10
1010.0
 20
375.5
 30
0.0
 11
1010.0
 21
383.5
 31
0.0
  0
LINE
  8
0
  6
CONTINUOUS
 62
     1
 10
1010.0
 20
375.5
 30
0.0
 11
1010.0
 21
383.5
 31
0.0
  0
LINE
  8
0
  6
LTYPE1
 62
     2
 10
1010.0
 20
383.5
 30
0.0
 11
1010.0
 21
398.5
 31
0.0
  0
CIRCLE
  8
0
  6
CONTINUOUS
 62
     1
 10
1018.0
 20
380.85
 30
0.0
 40
2.0
  0
LINE
  8
0
  6
CONTINUOUS
 62
     2
 10
1484.75
 20
547.5
 30
0.0
 11
1603.75
 21
547.5
 31
0.0
  0
LINE
  8
0
  6
CONTINUOUS
 62
     1
 10
1202.0
 20
574.5
 30
0.0
 11
1202.0
 21
558.5
 31
0.0
  0
LINE
  8
0
  6
CONTINUOUS
 62
     1
 10
1225.0
 20
586.5
 30
0.0
 11
1225.0
 21
546.5
 31
0.0
  0
LINE
  8
0
  6
CONTINUOUS
 62
     1
 10
1213.0
 20
586.5
 30
0.0
 11
1213.0
 21
546.5
 31
0.0
  0
LINE
  8
0
  6
CONTINUOUS
 62
     1
 10
1213.0
 20
586.5
 30
0.0
 11
1233.0
 21
586.5
 31
0.0
  0
LINE
  8
0
  6
CONTINUOUS
 62
     1
 10
1213.0
 20
546.5
 30
0.0
 11
1233.0
 21
546.5
 31
0.0
  0
LINE
  8
0
  6
CONTINUOUS
 62
     1
 10
1225.0
 20
574.5
 30
0.0
 11
1233.0
 21
574.5
 31
0.0
  0
LINE
  8
0
  6
CONTINUOUS
 62
     1
 10
1225.0
 20
558.5
 30
0.0
 11
1233.0
 21
558.5
 31
0.0
  0
LINE
  8
0
  6
CONTINUOUS
 62
     1
 10
1264.0
 20
574.5
 30
0.0
 11
1264.0
 21
558.5
 31
0.0
  0
LINE
  8
0
  6
CONTINUOUS
 62
     1
 10
1241.0
 20
586.5
 30
0.0
 11
1241.0
 21
546.5
 31
0.0
  0
LINE
  8
0
  6
CONTINUOUS
 62
     1
 10
1253.0
 20
586.5
 30
0.0
 11
1253.0
 21
546.5
 31
0.0
  0
LINE
  8
0
  6
CONTINUOUS
 62
     1
 10
1253.0
 20
586.5
 30
0.0
 11
1233.0
 21
586.5
 31
0.0
  0
LINE
  8
0
  6
CONTINUOUS
 62
     1
 10
1253.0
 20
546.5
 30
0.0
 11
1233.0
 21
546.5
 31
0.0
  0
LINE
  8
0
  6
CONTINUOUS
 62
     1
 10
1241.0
 20
574.5
 30
0.0
 11
1233.0
 21
574.5
 31
0.0
  0
LINE
  8
0
  6
CONTINUOUS
 62
     1
 10
1241.0
 20
558.5
 30
0.0
 11
1233.0
 21
558.5
 31
0.0
  0
LINE
  8
0
  6
LTYPE2
 62
     2
 10
1170.6
 20
566.5
 30
0.0
 11
1293.8
 21
566.5
 31
0.0
  0
LINE
  8
0
  6
CONTINUOUS
 62
     1
 10
1210.0
 20
551.5
 30
0.0
 11
1210.0
 21
581.5
 31
0.0
  0
LINE
  8
0
  6
CONTINUOUS
 62
     1
 10
1213.0
 20
551.5
 30
0.0
 11
1210.0
 21
551.5
 31
0.0
  0
LINE
  8
0
  6
CONTINUOUS
 62
     1
 10
1213.0
 20
581.5
 30
0.0
 11
1210.0
 21
581.5
 31
0.0
  0
LINE
  8
0
  6
LTYPE4
 62
     2
 10
1207.35
 20
562.1
 30
0.0
 11
1207.35
 21
570.5
 31
0.0
  0
CIRCLE
  8
0
  6
CONTINUOUS
 62
     1
 10
1207.35
 20
566.5
 30
0.0
 40
2.0
  0
LINE
  8
0
  6
CONTINUOUS
 62
     1
 10
1256.0
 20
581.5
 30
0.0
 11
1256.0
 21
551.5
 31
0.0
  0
LINE
  8
0
  6
CONTINUOUS
 62
     1
 10
1253.0
 20
581.5
 30
0.0
 11
1256.0
 21
581.5
 31
0.0
  0
LINE
  8
0
  6
CONTINUOUS
 62
     1
 10
1253.0
 20
551.5
 30
0.0
 11
1256.0
 21
551.5
 31
0.0
  0
LINE
  8
0
  6
LTYPE4
 62
     2
 10
1258.65
 20
570.9
 30
0.0
 11
1258.65
 21
562.5
 31
0.0
  0
CIRCLE
  8
0
  6
CONTINUOUS
 62
     1
 10
1258.65
 20
566.5
 30
0.0
 40
2.0
  0
LINE
  8
0
  6
CONTINUOUS
 62
     1
 10
1202.0
 20
574.5
 30
0.0
 11
1210.0
 21
574.5
 31
0.0
  0
LINE
  8
0
  6
LTYPE1
 62
     2
 10
1225.0
 20
574.5
 30
0.0
 11
1210.0
 21
574.5
 31
0.0
  0
LINE
  8
0
  6
CONTINUOUS
 62
     1
 10
1202.0
 20
558.5
 30
0.0
 11
1210.0
 21
558.5
 31
0.0
  0
LINE
  8
0
  6
LTYPE1
 62
     2
 10
1225.0
 20
558.5
 30
0.0
 11
1210.0
 21
558.5
 31
0.0
  0
LINE
  8
0
  6
CONTINUOUS
 62
     1
 10
1264.0
 20
574.5
 30
0.0
 11
1256.0
 21
574.5
 31
0.0
  0
LINE
  8
0
  6
CONTINUOUS
 62
     1
 10
1264.0
 20
558.5
 30
0.0
 11
1256.0
 21
558.5
 31
0.0
  0
LINE
  8
0
  6
LTYPE1
 62
     2
 10
1241.0
 20
558.5
 30
0.0
 11
1256.0
 21
558.5
 31
0.0
  0
LINE
  8
0
  6
LTYPE1
 62
     2
 10
1241.0
 20
574.5
 30
0.0
 11
1256.0
 21
574.5
 31
0.0
  0
LINE
  8
0
  6
CONTINUOUS
 62
     1
 10
1278.0
 20
589.5
 30
0.0
 11
1278.0
 21
611.5
 31
0.0
  0
LINE
  8
0
  6
LTYPE1
 62
     2
 10
1271.0
 20
558.5
 30
0.0
 11
1293.0
 21
558.5
 31
0.0
  0
LINE
  8
0
  6
LTYPE1
 62
     2
 10
1271.0
 20
574.5
 30
0.0
 11
1293.0
 21
574.5
 31
0.0
  0
LINE
  8
0
  6
LTYPE1
 62
     2
 10
1271.0
 20
558.5
 30
0.0
 11
1271.0
 21
574.5
 31
0.0
  0
LINE
  8
0
  6
LTYPE1
 62
     2
 10
1195.0
 20
558.5
 30
0.0
 11
1173.0
 21
558.5
 31
0.0
  0
LINE
  8
0
  6
LTYPE1
 62
     2
 10
1195.0
 20
574.5
 30
0.0
 11
1173.0
 21
574.5
 31
0.0
  0
LINE
  8
0
  6
LTYPE1
 62
     2
 10
1195.0
 20
558.5
 30
0.0
 11
1195.0
 21
574.5
 31
0.0
  0
CIRCLE
  8
0
  6
CONTINUOUS
 62
     1
 10
1272.0
 20
527.5
 30
0.0
 40
5.0
  0
LINE
  8
0
  6
CONTINUOUS
 62
     1
 10
1275.008220679
 20
518.435092126
 30
0.0
 11
1239.715102543
 21
513.927122983
 31
0.0
  0
ARC
  8
0
  6
CONTINUOUS
 62
     1
 10
1274.121320344
 20
525.378679656
 30
0.0
 40
7.0
 50
352.721057981
 51
0.0
  0
ARC
  8
0
  6
CONTINUOUS
 62
     1
 10
1274.121320344
 20
525.378679656
 30
0.0
 40
7.0
 50
285.275864075
 51
352.721057981
  0
LINE
  8
0
  6
CONTINUOUS
 62
     1
 10
1281.064907874
 20
524.491779321
 30
0.0
 11
1283.677546324
 21
544.946257721
 31
0.0
  0
LINE
  8
0
  6
LTYPE1
 62
     2
 10
1263.915102543
 20
527.5
 30
0.0
 11
1280.415102543
 21
527.5
 31
0.0
  0
LINE
  8
0
  6
LTYPE1
 62
     2
 10
1272.0
 20
519.827122983
 30
0.0
 11
1272.0
 21
536.127122983
 31
0.0
  0
ARC
  8
0
  6
CONTINUOUS
 62
     1
 10
1233.0
 20
566.5
 30
0.0
 40
53.0
 50
270.0
 51
277.278942019
  0
CIRCLE
  8
0
  6
CONTINUOUS
 62
     1
 10
1194.0
 20
527.5
 30
0.0
 40
5.0
  0
LINE
  8
0
  6
CONTINUOUS
 62
     1
 10
1190.991779321
 20
518.435092126
 30
0.0
 11
1226.284897457
 21
513.927122983
 31
0.0
  0
ARC
  8
0
  6
CONTINUOUS
 62
     1
 10
1191.878679656
 20
525.378679656
 30
0.0
 40
7.0
 50
180.0
 51
187.278942019
  0
ARC
  8
0
  6
CONTINUOUS
 62
     1
 10
1191.878679656
 20
525.378679656
 30
0.0
 40
7.0
 50
187.278942019
 51
254.724135925
  0
LINE
  8
0
  6
CONTINUOUS
 62
     1
 10
1184.935092126
 20
524.491779321
 30
0.0
 11
1182.322453676
 21
544.946257721
 31
0.0
  0
LINE
  8
0
  6
LTYPE1
 62
     2
 10
1202.084897457
 20
527.5
 30
0.0
 11
1185.584897457
 21
527.5
 31
0.0
  0
LINE
  8
0
  6
LTYPE1
 62
     2
 10
1194.0
 20
519.827122983
 30
0.0
 11
1194.0
 21
536.127122983
 31
0.0
  0
ARC
  8
0
  6
CONTINUOUS
 62
     1
 10
1233.0
 20
566.5
 30
0.0
 40
53.0
 50
262.721057981
 51
270.0
  0
ARC
  8
0
  6
CONTINUOUS
 62
     1
 10
1274.121320344
 20
607.621320344
 30
0.0
 40
7.0
 50
0.0
 51
7.278942019
  0
LINE
  8
0
  6
CONTINUOUS
 62
     1
 10
1281.064907874
 20
608.508220679
 30
0.0
 11
1283.677546324
 21
588.053742279
 31
0.0
  0
LINE
  8
0
  6
LTYPE1
 62
     2
 10
1263.915102543
 20
605.5
 30
0.0
 11
1280.415102543
 21
605.5
 31
0.0
  0
LINE
  8
0
  6
LTYPE1
 62
     2
 10
1272.0
 20
613.172877017
 30
0.0
 11
1272.0
 21
596.872877017
 31
0.0
  0
ARC
  8
0
  6
CONTINUOUS
 62
     1
 10
1191.878679656
 20
607.621320344
 30
0.0
 40
7.0
 50
172.721057981
 51
180.0
  0
LINE
  8
0
  6
LTYPE1
 62
     2
 10
1202.084897457
 20
605.5
 30
0.0
 11
1185.584897457
 21
605.5
 31
0.0
  0
LINE
  8
0
  6
LTYPE1
 62
     2
 10
1194.0
 20
613.172877017
 30
0.0
 11
1194.0
 21
596.872877017
 31
0.0
  0
CIRCLE
  8
0
  6
LTYPE1
 62
     2
 10
1272.0
 20
605.5
 30
0.0
 40
5.0
  0
CIRCLE
  8
0
  6
LTYPE1
 62
     2
 10
1194.0
 20
605.5
 30
0.0
 40
5.0
  0
LINE
  8
0
  6
CONTINUOUS
 62
     1
 10
1278.0
 20
589.5
 30
0.0
 11
1276.820823288
 21
584.829905793
 31
0.0
  0
LINE
  8
0
  6
CONTINUOUS
 62
     1
 10
1184.935092126
 20
608.508220679
 30
0.0
 11
1182.322453676
 21
588.053742279
 31
0.0
  0
LINE
  8
0
  6
CONTINUOUS
 62
     1
 10
1188.0
 20
589.5
 30
0.0
 11
1188.0
 21
611.5
 31
0.0
  0
LINE
  8
0
  6
CONTINUOUS
 62
     1
 10
1188.0
 20
589.5
 30
0.0
 11
1189.179176712
 21
584.829905793
 31
0.0
  0
LINE
  8
0
  6
CONTINUOUS
 62
     1
 10
1230.0
 20
603.690341615
 30
0.0
 11
1236.0
 21
603.690341615
 31
0.0
  0
LINE
  8
0
  6
CONTINUOUS
 62
     1
 10
1230.0
 20
606.38734135
 30
0.0
 11
1230.0
 21
603.690341615
 31
0.0
  0
LINE
  8
0
  6
CONTINUOUS
 62
     1
 10
1236.0
 20
606.38734135
 30
0.0
 11
1236.0
 21
603.690341615
 31
0.0
  0
LINE
  8
0
  6
CONTINUOUS
 62
     1
 10
1195.809658385
 20
563.5
 30
0.0
 11
1195.809658385
 21
569.5
 31
0.0
  0
LINE
  8
0
  6
CONTINUOUS
 62
     1
 10
1193.11265865
 20
563.5
 30
0.0
 11
1195.809658385
 21
563.5
 31
0.0
  0
LINE
  8
0
  6
CONTINUOUS
 62
     1
 10
1193.11265865
 20
569.5
 30
0.0
 11
1195.809658385
 21
569.5
 31
0.0
  0
LINE
  8
0
  6
CONTINUOUS
 62
     1
 10
1236.0
 20
529.309658385
 30
0.0
 11
1230.0
 21
529.309658385
 31
0.0
  0
LINE
  8
0
  6
CONTINUOUS
 62
     1
 10
1236.0
 20
526.61265865
 30
0.0
 11
1236.0
 21
529.309658385
 31
0.0
  0
LINE
  8
0
  6
CONTINUOUS
 62
     1
 10
1230.0
 20
526.61265865
 30
0.0
 11
1230.0
 21
529.309658385
 31
0.0
  0
LINE
  8
0
  6
CONTINUOUS
 62
     1
 10
1270.190341615
 20
569.5
 30
0.0
 11
1270.190341615
 21
563.5
 31
0.0
  0
LINE
  8
0
  6
CONTINUOUS
 62
     1
 10
1272.88734135
 20
569.5
 30
0.0
 11
1270.190341615
 21
569.5
 31
0.0
  0
LINE
  8
0
  6
CONTINUOUS
 62
     1
 10
1272.88734135
 20
563.5
 30
0.0
 11
1270.190341615
 21
563.5
 31
0.0
  0
ARC
  8
0
  6
CONTINUOUS
 62
     1
 10
1233.0
 20
566.5
 30
0.0
 40
40.0
 50
94.301222305
 51
175.549184938
  0
ARC
  8
0
  6
CONTINUOUS
 62
     1
 10
1233.0
 20
566.5
 30
0.0
 40
40.0
 50
184.175157191
 51
265.679883141
  0
ARC
  8
0
  6
CONTINUOUS
 62
     1
 10
1233.0
 20
566.5
 30
0.0
 40
40.0
 50
4.29986282
 51
85.677509646
  0
ARC
  8
0
  6
CONTINUOUS
 62
     1
 10
1233.0
 20
566.5
 30
0.0
 40
40.0
 50
274.309306555
 51
355.689374175
  0
LINE
  8
0
  6
LTYPE2
 62
     2
 10
1233.0
 20
665.7
 30
0.0
 11
1233.0
 21
450.0
 31
0.0
  0
LINE
  8
0
  6
LTYPE4
 62
     2
 10
1164.9
 20
513.5
 30
0.0
 11
1304.9
 21
513.5
 31
0.0
  0
LINE
  8
0
  6
LTYPE1
 62
     2
 10
1272.0
 20
613.172877017
 30
0.0
 11
1272.0
 21
596.872877017
 31
0.0
  0
LINE
  8
0
  6
LTYPE1
 62
     2
 10
1194.0
 20
613.172877017
 30
0.0
 11
1194.0
 21
596.872877017
 31
0.0
  0
LINE
  8
0
  6
LTYPE1
 62
     2
 10
1272.0
 20
613.172877017
 30
0.0
 11
1272.0
 21
596.872877017
 31
0.0
  0
LINE
  8
0
  6
LTYPE1
 62
     2
 10
1194.0
 20
613.172877017
 30
0.0
 11
1194.0
 21
596.872877017
 31
0.0
  0
ARC
  8
0
  6
CONTINUOUS
 62
     1
 10
1185.0
 20
613.5
 30
0.0
 40
3.0
 50
180.0
 51
270.0
  0
LINE
  8
0
  6
CONTINUOUS
 62
     1
 10
1284.0
 20
660.0
 30
0.0
 11
1284.0
 21
613.5
 31
0.0
  0
ARC
  8
0
  6
CONTINUOUS
 62
     1
 10
1283.0
 20
660.0
 30
0.0
 40
1.0
 50
360.0
 51
90.0
  0
ARC
  8
0
  6
CONTINUOUS
 62
     1
 10
1280.0
 20
661.0
 30
0.0
 40
1.0
 50
360.0
 51
90.0
  0
LINE
  8
0
  6
CONTINUOUS
 62
     1
 10
1182.0
 20
660.0
 30
0.0
 11
1182.0
 21
613.5
 31
0.0
  0
ARC
  8
0
  6
CONTINUOUS
 62
     1
 10
1183.0
 20
660.0
 30
0.0
 40
1.0
 50
90.0
 51
180.0
  0
ARC
  8
0
  6
CONTINUOUS
 62
     1
 10
1186.0
 20
661.0
 30
0.0
 40
1.0
 50
90.0
 51
180.0
  0
LINE
  8
0
  6
CONTINUOUS
 62
     1
 10
1182.0
 20
655.0
 30
0.0
 11
1284.0
 21
655.0
 31
0.0
  0
LINE
  8
0
  6
CONTINUOUS
 62
     1
 10
1182.0
 20
653.5
 30
0.0
 11
1284.0
 21
653.5
 31
0.0
  0
LINE
  8
0
  6
CONTINUOUS
 62
     1
 10
1186.0
 20
662.0
 30
0.0
 11
1280.0
 21
662.0
 31
0.0
  0
LINE
  8
0
  6
CONTINUOUS
 62
     1
 10
1183.0
 20
661.0
 30
0.0
 11
1283.0
 21
661.0
 31
0.0
  0
LINE
  8
0
  6
LTYPE2
 62
     3
 10
1213.1
 20
636.5
 30
0.0
 11
1253.8
 21
636.5
 31
0.0
  0
CIRCLE
  8
0
  6
LTYPE1
 62
     2
 10
1233.0
 20
636.5
 30
0.0
 40
10.4775
  0
CIRCLE
  8
0
  6
LTYPE1
 62
     2
 10
1233.0
 20
636.5
 30
0.0
 40
9.3155
  0
ARC
  8
0
  6
CONTINUOUS
 62
     1
 10
1191.878679656
 20
607.621320344
 30
0.0
 40
7.0
 50
151.513525439
 51
172.721057981
  0
ARC
  8
0
  6
CONTINUOUS
 62
     1
 10
1274.121320344
 20
607.621320344
 30
0.0
 40
7.0
 50
7.278942019
 51
24.68888814
  0
LINE
  8
0
  6
CONTINUOUS
 62
     1
 10
1281.0
 20
610.5
 30
0.0
 11
1185.0
 21
610.5
 31
0.0
  0
ARC
  8
0
  6
CONTINUOUS
 62
     1
 10
1281.0
 20
613.5
 30
0.0
 40
3.0
 50
270.0
 51
0.0
  0
LINE
  8
2
  6
CONTINUOUS
 62
     2
 10
1306.0
 20
513.5
 30
0.0
 11
1329.0
 21
513.5
 31
0.0
  0
LINE
  8
2
  6
CONTINUOUS
 62
     2
 10
1321.0
 20
513.5
 30
0.0
 11
1318.411809549
 21
503.840741737
 31
0.0
  0
LINE
  8
2
  6
CONTINUOUS
 62
     2
 10
1321.0
 20
513.5
 30
0.0
 11
1323.588190451
 21
503.840741737
 31
0.0
  0
LINE
  8
2
  6
CONTINUOUS
 62
     2
 10
1321.0
 20
513.5
 30
0.0
 11
1321.0
 21
452.5
 31
0.0
  0
LINE
  8
2
  6
CONTINUOUS
 62
     2
 10
1321.0
 20
452.5
 30
0.0
 11
1323.588190451
 21
462.159258263
 31
0.0
  0
LINE
  8
2
  6
CONTINUOUS
 62
     2
 10
1321.0
 20
452.5
 30
0.0
 11
1318.411809549
 21
462.159258263
 31
0.0
  0
LINE
  8
2
  6
CONTINUOUS
 62
     2
 10
1288.000015259
 20
452.5
 30
0.0
 11
1329.0
 21
452.5
 31
0.0
  0
LINE
  8
2
  6
CONTINUOUS
 62
     2
 10
1317.0
 20
513.5
 30
0.0
 11
1329.0
 21
513.5
 31
0.0
  0
LINE
  8
2
  6
CONTINUOUS
 62
     2
 10
1321.0
 20
513.5
 30
0.0
 11
1323.588190451
 21
523.159258263
 31
0.0
  0
LINE
  8
2
  6
CONTINUOUS
 62
     2
 10
1321.0
 20
513.5
 30
0.0
 11
1318.411809549
 21
523.159258263
 31
0.0
  0
LINE
  8
2
  6
CONTINUOUS
 62
     2
 10
1321.0
 20
513.5
 30
0.0
 11
1321.0
 21
662.0
 31
0.0
  0
LINE
  8
2
  6
CONTINUOUS
 62
     2
 10
1321.0
 20
662.0
 30
0.0
 11
1318.411809549
 21
652.340741737
 31
0.0
  0
LINE
  8
2
  6
CONTINUOUS
 62
     2
 10
1321.0
 20
662.0
 30
0.0
 11
1323.588190451
 21
652.340741737
 31
0.0
  0
LINE
  8
2
  6
CONTINUOUS
 62
     2
 10
1284.0
 20
662.0
 30
0.0
 11
1329.0
 21
662.0
 31
0.0
  0
TEXT
  8
2
  6
CONTINUOUS
 62
     3
 10
1317.0
 20
469.6
 30
0.0
 40
15.0
  1
６１
 50
90.0
 41
0.9
 51
0.0
  7
KANJI2
  0
TEXT
  8
2
  6
CONTINUOUS
 62
     3
 10
1317.0
 20
553.35
 30
0.0
 40
15.0
  1
１４８．５
 50
90.0
 41
0.9
 51
0.0
  7
KANJI2
  0
LINE
  8
0
  6
CONTINUOUS
 62
     1
 10
1182.7
 20
662.0
 30
0.0
 11
1193.3
 21
662.0
 31
0.0
  0
ARC
  8
0
  6
CONTINUOUS
 62
     1
 10
1187.6
 20
661.0
 30
0.0
 40
5.0
 50
92.3
 51
168.5
  0
ARC
  8
0
  6
CONTINUOUS
 62
     1
 10
1188.4
 20
661.0
 30
0.0
 40
5.0
 50
11.5
 51
87.7
  0
LINE
  8
0
  6
CONTINUOUS
 62
     1
 10
1187.4
 20
666.0
 30
0.0
 11
1188.6
 21
666.0
 31
0.0
  0
LINE
  8
0
  6
LTYPE5
 62
     2
 10
1188.0
 20
669.4
 30
0.0
 11
1188.0
 21
656.0
 31
0.0
  0
LINE
  8
0
  6
CONTINUOUS
 62
     1
 10
1272.7
 20
662.0
 30
0.0
 11
1283.3
 21
662.0
 31
0.0
  0
ARC
  8
0
  6
CONTINUOUS
 62
     1
 10
1277.6
 20
661.0
 30
0.0
 40
5.0
 50
92.3
 51
168.5
  0
ARC
  8
0
  6
CONTINUOUS
 62
     1
 10
1278.4
 20
661.0
 30
0.0
 40
5.0
 50
11.5
 51
87.7
  0
LINE
  8
0
  6
CONTINUOUS
 62
     1
 10
1277.4
 20
666.0
 30
0.0
 11
1278.6
 21
666.0
 31
0.0
  0
LINE
  8
0
  6
LTYPE5
 62
     2
 10
1278.0
 20
669.4
 30
0.0
 11
1278.0
 21
656.0
 31
0.0
  0
CIRCLE
  8
0
  6
CONTINUOUS
 62
     1
 10
1233.0
 20
566.5
 30
0.0
 40
32.0
  0
LINE
  8
0
  6
CONTINUOUS
 62
     2
 10
1173.0
 20
686.97
 30
0.0
 11
1185.074072829
 21
683.734761936
 31
0.0
  0
LINE
  8
0
  6
CONTINUOUS
 62
     2
 10
1173.0
 20
686.97
 30
0.0
 11
1185.074072829
 21
690.205238064
 31
0.0
  0
LINE
  8
0
  6
CONTINUOUS
 62
     2
 10
1173.0
 20
686.97
 30
0.0
 11
1293.0
 21
686.97
 31
0.0
  0
LINE
  8
0
  6
CONTINUOUS
 62
     2
 10
1293.0
 20
686.97
 30
0.0
 11
1280.925927171
 21
690.205238064
 31
0.0
  0
LINE
  8
0
  6
CONTINUOUS
 62
     2
 10
1293.0
 20
686.97
 30
0.0
 11
1280.925927171
 21
683.734761936
 31
0.0
  0
LINE
  8
0
  6
CONTINUOUS
 62
     2
 10
1173.0
 20
591.5
 30
0.0
 11
1173.0
 21
691.498748346
 31
0.0
  0
LINE
  8
0
  6
CONTINUOUS
 62
     2
 10
1293.0
 20
591.5
 30
0.0
 11
1293.0
 21
690.798748346
 31
0.0
  0
LINE
  8
2
  6
CONTINUOUS
 62
     2
 10
1294.0
 20
458.5
 30
0.0
 11
1294.0
 21
368.0
 31
0.0
  0
LINE
  8
2
  6
CONTINUOUS
 62
     2
 10
1172.0
 20
458.5
 30
0.0
 11
1172.0
 21
368.0
 31
0.0
  0
LINE
  8
2
  6
CONTINUOUS
 62
     2
 10
1294.0
 20
459.0
 30
0.0
 11
1294.0
 21
368.5
 31
0.0
  0
LINE
  8
2
  6
CONTINUOUS
 62
     2
 10
1172.0
 20
459.0
 30
0.0
 11
1172.0
 21
368.5
 31
0.0
  0
TEXT
  8
2
  6
CONTINUOUS
 62
     2
 10
1173.6
 20
380.0
 30
0.0
 40
15.0
  1
１２２（モータ幅）
 50
0.0
 41
0.9
 51
0.0
  7
KANJI2
  0
LINE
  8
0
  6
CONTINUOUS
 62
     2
 10
1174.5
 20
458.0
 30
0.0
 11
1174.5
 21
399.89
 31
0.0
  0
LINE
  8
0
  6
CONTINUOUS
 62
     2
 10
1174.5
 20
409.89
 30
0.0
 11
1186.574072829
 21
406.654761936
 31
0.0
  0
LINE
  8
0
  6
CONTINUOUS
 62
     2
 10
1174.5
 20
409.89
 30
0.0
 11
1186.574072829
 21
413.125238064
 31
0.0
  0
LINE
  8
0
  6
CONTINUOUS
 62
     2
 10
1174.5
 20
409.89
 30
0.0
 11
1291.5
 21
409.89
 31
0.0
  0
LINE
  8
0
  6
CONTINUOUS
 62
     2
 10
1291.5
 20
409.89
 30
0.0
 11
1279.425927171
 21
413.125238064
 31
0.0
  0
LINE
  8
0
  6
CONTINUOUS
 62
     2
 10
1291.5
 20
409.89
 30
0.0
 11
1279.425927171
 21
406.654761936
 31
0.0
  0
LINE
  8
0
  6
CONTINUOUS
 62
     2
 10
1291.5
 20
458.0
 30
0.0
 11
1291.5
 21
399.89
 31
0.0
  0
LINE
  8
2
  6
CONTINUOUS
 62
     2
 10
1294.0
 20
376.0
 30
0.0
 11
1284.340741737
 21
378.588190451
 31
0.0
  0
LINE
  8
2
  6
CONTINUOUS
 62
     2
 10
1294.0
 20
376.0
 30
0.0
 11
1284.340741737
 21
373.411809549
 31
0.0
  0
LINE
  8
2
  6
CONTINUOUS
 62
     2
 10
1294.0
 20
376.0
 30
0.0
 11
1172.0
 21
376.0
 31
0.0
  0
LINE
  8
2
  6
CONTINUOUS
 62
     2
 10
1172.0
 20
376.0
 30
0.0
 11
1181.659258263
 21
373.411809549
 31
0.0
  0
LINE
  8
2
  6
CONTINUOUS
 62
     2
 10
1172.0
 20
376.0
 30
0.0
 11
1181.659258263
 21
378.588190451
 31
0.0
  0
ARC
  8
0
  6
CONTINUOUS
 62
     1
 10
1182.0
 20
564.5
 30
0.0
 40
10.0
 50
154.158067237
 51
180.0
  0
ARC
  8
0
  6
CONTINUOUS
 62
     1
 10
1284.0
 20
564.5
 30
0.0
 40
10.0
 50
0.0
 51
25.841932763
  0
TEXT
  8
0
  6
CONTINUOUS
 62
     3
 10
1175.42
 20
412.86
 30
-2.5
 40
15.0
  1
１１７（ギヤケース幅）
 50
0.0
 41
0.9
 51
0.0
  7
KANJI43
  0
ARC
  8
0
  6
CONTINUOUS
 62
     1
 10
1179.5
 20
616.0
 30
0.0
 40
5.0
 50
90.0
 51
179.999969099
  0
LINE
  8
0
  6
CONTINUOUS
 62
     1
 10
1182.0
 20
621.0
 30
0.0
 11
1179.5
 21
621.0
 31
0.0
  0
LINE
  8
0
  6
CONTINUOUS
 62
     1
 10
1174.5
 20
616.000002697
 30
0.0
 11
1174.5
 21
586.778748346
 31
0.0
  0
LINE
  8
0
  6
CONTINUOUS
 62
     1
 10
1182.0
 20
452.5
 30
0.0
 11
1284.0
 21
452.5
 31
0.0
  0
ARC
  8
0
  6
CONTINUOUS
 62
     1
 10
1182.0
 20
462.5
 30
0.0
 40
10.0
 50
180.0
 51
270.0
  0
LINE
  8
0
  6
CONTINUOUS
 62
     1
 10
1182.0
 20
452.5
 30
0.0
 11
1284.0
 21
452.5
 31
0.0
  0
CIRCLE
  8
0
  6
CONTINUOUS
 62
     1
 10
1182.0
 20
462.0
 30
0.0
 40
4.0
  0
CIRCLE
  8
0
  6
CONTINUOUS
 62
     1
 10
1182.0
 20
462.0
 30
0.0
 40
3.0
  0
LINE
  8
0
  6
CONTINUOUS
 62
     1
 10
1282.5
 20
454.0
 30
0.0
 11
1183.5
 21
454.0
 31
0.0
  0
ARC
  8
0
  6
CONTINUOUS
 62
     1
 10
1183.5
 20
463.0
 30
0.0
 40
9.0
 50
180.0
 51
270.0
  0
LINE
  8
0
  6
CONTINUOUS
 62
     1
 10
1174.5
 20
546.25
 30
0.0
 11
1174.5
 21
463.0
 31
0.0
  0
LINE
  8
0
  6
CONTINUOUS
 62
     1
 10
1172.0
 20
564.5
 30
0.0
 11
1172.0
 21
463.0
 31
0.0
  0
ARC
  8
0
  6
CONTINUOUS
 62
     1
 10
1226.0
 20
459.0
 30
0.0
 40
5.0
 50
179.999984538
 51
270.0
  0
LINE
  8
0
  6
CONTINUOUS
 62
     1
 10
1221.0
 20
474.000001349
 30
0.0
 11
1221.0
 21
459.000001349
 31
0.0
  0
ARC
  8
0
  6
CONTINUOUS
 62
     1
 10
1179.5
 20
484.0
 30
0.0
 40
5.0
 50
180.0
 51
270.000026769
  0
LINE
  8
0
  6
CONTINUOUS
 62
     1
 10
1286.500002697
 20
479.0
 30
0.0
 11
1179.500002336
 21
479.0
 31
0.0
  0
ARC
  8
0
  6
CONTINUOUS
 62
     1
 10
1216.0
 20
474.0
 30
0.0
 40
5.0
 50
0.000015462
 51
90.0
  0
ARC
  8
0
  6
CONTINUOUS
 62
     1
 10
1284.0
 20
462.5
 30
0.0
 40
10.0
 50
270.0
 51
0.0
  0
CIRCLE
  8
0
  6
CONTINUOUS
 62
     1
 10
1284.0
 20
462.0
 30
0.0
 40
4.0
  0
CIRCLE
  8
0
  6
CONTINUOUS
 62
     1
 10
1284.0
 20
462.0
 30
0.0
 40
3.0
  0
ARC
  8
0
  6
CONTINUOUS
 62
     1
 10
1282.5
 20
463.0
 30
0.0
 40
9.0
 50
270.0
 51
0.0
  0
LINE
  8
0
  6
CONTINUOUS
 62
     1
 10
1245.0
 20
474.000001349
 30
0.0
 11
1245.0
 21
459.000001349
 31
0.0
  0
ARC
  8
0
  6
CONTINUOUS
 62
     1
 10
1240.0
 20
459.0
 30
0.0
 40
5.0
 50
270.0
 51
0.000015462
  0
ARC
  8
0
  6
CONTINUOUS
 62
     1
 10
1250.0
 20
474.0
 30
0.0
 40
5.0
 50
90.0
 51
179.999984538
  0
ARC
  8
0
  6
CONTINUOUS
 62
     1
 10
1286.5
 20
484.0
 30
0.0
 40
5.0
 50
270.00003091
 51
0.0
  0
LINE
  8
0
  6
CONTINUOUS
 62
     1
 10
1291.5
 20
546.25
 30
0.0
 11
1291.5
 21
463.0
 31
0.0
  0
LINE
  8
0
  6
CONTINUOUS
 62
     1
 10
1294.0
 20
564.5
 30
0.0
 11
1294.0
 21
463.0
 31
0.0
  0
ARC
  8
0
  6
CONTINUOUS
 62
     1
 10
1286.5
 20
616.0
 30
0.0
 40
5.0
 50
0.000030901
 51
90.0
  0
LINE
  8
0
  6
CONTINUOUS
 62
     1
 10
1291.5
 20
616.000002697
 30
0.0
 11
1291.5
 21
586.778748346
 31
0.0
  0
LINE
  8
0
  6
CONTINUOUS
 62
     1
 10
1286.5
 20
621.0
 30
0.0
 11
1284.0
 21
621.0
 31
0.0
  0
LINE
  8
0
  6
CONTINUOUS
 62
     1
 10
1293.0
 20
546.5
 30
0.0
 11
1293.0
 21
586.5
 31
0.0
  0
LINE
  8
0
  6
CONTINUOUS
 62
     1
 10
1173.0
 20
546.5
 30
0.0
 11
1173.0
 21
586.5
 31
0.0
  0
LINE
  8
0
  6
CONTINUOUS
 62
     1
 10
1188.0
 20
589.287483461
 30
0.0
 11
1173.0
 21
586.5
 31
0.0
  0
LINE
  8
0
  6
CONTINUOUS
 62
     1
 10
1186.0
 20
544.333333333
 30
0.0
 11
1173.0
 21
546.5
 31
0.0
  0
LINE
  8
0
  6
CONTINUOUS
 62
     1
 10
1274.515396986
 20
543.419232831
 30
0.0
 11
1293.0
 21
546.5
 31
0.0
  0
LINE
  8
0
  6
CONTINUOUS
 62
     1
 10
1278.0
 20
589.287483461
 30
0.0
 11
1293.0
 21
586.5
 31
0.0
  0
LINE
  8
0
  6
CONTINUOUS
 62
     2
 10
1176.0
 20
462.0
 30
0.0
 11
1188.0
 21
462.0
 31
0.0
  0
LINE
  8
0
  6
CONTINUOUS
 62
     2
 10
1182.0
 20
456.0
 30
0.0
 11
1182.0
 21
468.0
 31
0.0
  0
LINE
  8
0
  6
CONTINUOUS
 62
     2
 10
1290.0
 20
462.0
 30
0.0
 11
1278.0
 21
462.0
 31
0.0
  0
LINE
  8
0
  6
CONTINUOUS
 62
     2
 10
1284.0
 20
456.0
 30
0.0
 11
1284.0
 21
468.0
 31
0.0
  0
CIRCLE
  8
0
  6
CONTINUOUS
 62
     1
 10
1018.0
 20
566.5
 30
0.0
 40
15.0
  0
CIRCLE
  8
0
  6
CONTINUOUS
 62
     1
 10
1017.999984741
 20
577.5
 30
0.0
 40
3.0
  0
LINE
  8
0
  6
CONTINUOUS
 62
     1
 10
1013.8
 20
554.2
 30
0.0
 11
1015.8
 21
553.9
 31
0.0
  0
LINE
  8
0
  6
CONTINUOUS
 62
     1
 10
1016.064615385
 20
557.030769231
 30
0.0
 11
1013.8
 21
554.2
 31
0.0
  0
LINE
  8
0
  6
CONTINUOUS
 62
     1
 10
1018.0
 20
556.6
 30
0.0
 11
1015.8
 21
553.9
 31
0.0
  0
LINE
  8
0
  6
CONTINUOUS
 62
     1
 10
1016.3
 20
558.6
 30
0.0
 11
1016.064615385
 21
557.030769231
 31
0.0
  0
LINE
  8
0
  6
CONTINUOUS
 62
     1
 10
1022.2
 20
554.2
 30
0.0
 11
1020.2
 21
553.9
 31
0.0
  0
LINE
  8
0
  6
CONTINUOUS
 62
     1
 10
1019.935384615
 20
557.030769231
 30
0.0
 11
1022.2
 21
554.2
 31
0.0
  0
LINE
  8
0
  6
CONTINUOUS
 62
     1
 10
1018.0
 20
556.6
 30
0.0
 11
1020.2
 21
553.9
 31
0.0
  0
LINE
  8
0
  6
CONTINUOUS
 62
     1
 10
1019.7
 20
558.6
 30
0.0
 11
1019.935384615
 21
557.030769231
 31
0.0
  0
LINE
  8
0
  6
CONTINUOUS
 62
     2
 10
1108.35
 20
626.2
 30
0.0
 11
1096.275927171
 21
629.435238064
 31
0.0
  0
LINE
  8
0
  6
CONTINUOUS
 62
     2
 10
1108.35
 20
626.2
 30
0.0
 11
1096.275927171
 21
622.964761936
 31
0.0
  0
LINE
  8
0
  6
CONTINUOUS
 62
     2
 10
1108.35
 20
626.2
 30
0.0
 11
1067.35
 21
626.2
 31
0.0
  0
TEXT
  8
0
  6
CONTINUOUS
 62
     3
 10
1074.35
 20
636.2
 30
0.0
 40
20.0
  1
前進
 50
0.0
 41
0.925
 51
0.0
  7
KANJI42
  0
LINE
  8
0
  6
CONTINUOUS
 62
     1
 10
411.0
 20
563.0
 30
0.0
 11
411.0
 21
520.0
 31
0.0
  0
TEXT
  8
0
  6
CONTINUOUS
 62
     2
 10
422.0
 20
525.0
 30
5.0
 40
20.0
  1
銘板
 50
0.0
 41
0.925
 51
0.0
  7
KANJI44
  0
LINE
  8
0
  6
CONTINUOUS
 62
     1
 10
481.0
 20
563.0
 30
0.0
 11
481.0
 21
520.0
 31
0.0
  0
LINE
  8
0
  6
CONTINUOUS
 62
     1
 10
411.0
 20
520.0
 30
0.0
 11
481.0
 21
520.0
 31
0.0
  0
LINE
  8
0
  6
CONTINUOUS
 62
     1
 10
411.0
 20
563.0
 30
0.0
 11
481.0
 21
563.0
 31
0.0
  0
TEXT
  8
0
  6
CONTINUOUS
 62
     2
 10
348.9
 20
468.5
 30
0.0
 40
15.0
  1
エコノストップモータ
 50
0.0
 41
0.9
 51
0.0
  7
KANJI2
  0
TEXT
  8
0
  6
CONTINUOUS
 62
     2
 10
351.8
 20
485.5
 30
0.0
 40
15.0
  1
日本電産
 50
0.0
 41
0.9
 51
0.0
  7
KANJI2
  0
TEXT
  8
0
  6
CONTINUOUS
 62
     2
 10
272.4
 20
374.7
 30
0.0
 40
20.0
  1
ブレーキ解放装置はありません。
 50
0.0
 41
0.925
 51
0.0
  7
KANJI42
  0
TEXT
  8
0
  6
CONTINUOUS
 62
     2
 10
273.4
 20
349.7
 30
0.0
 40
20.0
  1
そのまま手動操作をして下さい．
 50
0.0
 41
0.925
 51
0.0
  7
KANJI42
  0
TEXT
  8
0
  6
CONTINUOUS
 62
     2
 10
85.6170994
 20
506.878385972
 30
0.0
 40
15.0
  1
前進方向
 50
0.0
 41
0.9
 51
0.0
  7
KANJI2
  0
ARC
  8
0
  6
CONTINUOUS
 62
     2
 10
166.0
 20
511.0
 30
0.0
 40
20.0
 50
203.198590514
 51
128.047042532
  0
LINE
  8
0
  6
CONTINUOUS
 62
     2
 10
147.6170994
 20
503.121614028
 30
0.0
 11
149.91179211
 21
493.284175251
 31
0.0
  0
LINE
  8
0
  6
CONTINUOUS
 62
     2
 10
147.6170994
 20
503.121614028
 30
0.0
 11
155.885260778
 21
498.214277493
 31
0.0
  0
LINE
  8
0
  6
LTYPE4
 62
     6
 10
120.408333
 20
843.633317
 30
0.0
 11
120.408333
 21
827.232460936
 31
0.0
  0
LINE
  8
0
  6
LTYPE4
 62
     6
 10
250.805262694
 20
843.633317
 30
0.0
 11
120.408333
 21
843.633317
 31
0.0
  0
TEXT
  8
0
  6
CONTINUOUS
 62
     6
 10
102.873590591
 20
830.148168681
 30
1.093390404
 40
10.933904043
  1
Ｕ
 50
0.0
 41
0.9
 51
0.0
  7
KANJI45
  0
CIRCLE
  8
0
  6
CONTINUOUS
 62
     6
 10
120.408333
 20
823.952289723
 30
0.0
 40
4.373561617
  0
LINE
  8
0
  6
CONTINUOUS
 62
     6
 10
115.38354931
 20
818.927506033
 30
0.0
 11
125.588526417
 21
829.13248314
 31
0.0
  0
TEXT
  8
0
  6
CONTINUOUS
 62
     6
 10
130.653806047
 20
852.299448352
 30
1.518597784
 40
15.185977837
  1
エコノストップモータ
 50
0.0
 41
0.66671875
 51
0.0
  7
KANJI46
  0
LINE
  8
0
  6
LTYPE4
 62
     6
 10
250.805262694
 20
748.221584891
 30
0.0
 11
250.805262694
 21
843.633317
 31
0.0
  0
CIRCLE
  8
0
  6
CONTINUOUS
 62
     6
 10
165.237339575
 20
798.439846957
 30
0.0
 40
18.223173404
  0
TEXT
  8
0
  6
CONTINUOUS
 62
     6
 10
157.583606745
 20
789.692723723
 30
1.82231734
 40
18.223173404
  1
Ｍ
 50
0.0
 41
0.9
 51
0.0
  7
KANJI47
  0
LINE
  8
0
  6
CONTINUOUS
 62
     6
 10
141.182750681
 20
772.927404191
 30
0.0
 11
152.481118192
 21
786.048089042
 31
0.0
  0
LINE
  8
0
  6
CONTINUOUS
 62
     6
 10
141.182750681
 20
823.952289723
 30
0.0
 11
152.481118192
 21
810.831604872
 31
0.0
  0
LINE
  8
0
  6
CONTINUOUS
 62
     6
 10
141.182750681
 20
823.952289723
 30
0.0
 11
124.781894617
 21
823.952289723
 31
0.0
  0
LINE
  8
0
  6
CONTINUOUS
 62
     6
 10
147.378629639
 20
798.439846957
 30
0.0
 11
124.781894617
 21
798.439846957
 31
0.0
  0
LINE
  8
0
  6
CONTINUOUS
 62
     6
 10
141.182750681
 20
772.927404191
 30
0.0
 11
124.781894617
 21
772.927404191
 31
0.0
  0
TEXT
  8
0
  6
CONTINUOUS
 62
     6
 10
103.966980995
 20
804.271262446
 30
1.093390404
 40
10.933904043
  1
Ｖ
 50
0.0
 41
0.9
 51
0.0
  7
KANJI45
  0
TEXT
  8
0
  6
CONTINUOUS
 62
     6
 10
105.060371399
 20
778.394356212
 30
1.093390404
 40
10.933904043
  1
Ｗ
 50
0.0
 41
0.9
 51
0.0
  7
KANJI45
  0
CIRCLE
  8
0
  6
CONTINUOUS
 62
     6
 10
120.408333
 20
798.439846957
 30
0.0
 40
4.373561617
  0
LINE
  8
0
  6
CONTINUOUS
 62
     6
 10
115.38354931
 20
793.415063267
 30
0.0
 11
125.588526417
 21
803.620040374
 31
0.0
  0
LINE
  8
0
  6
LTYPE4
 62
     6
 10
120.408333
 20
819.943191574
 30
0.0
 11
120.408333
 21
801.72001817
 31
0.0
  0
CIRCLE
  8
0
  6
CONTINUOUS
 62
     6
 10
120.408333
 20
772.927404191
 30
0.0
 40
4.373561617
  0
LINE
  8
0
  6
CONTINUOUS
 62
     6
 10
115.38354931
 20
767.902620501
 30
0.0
 11
125.588526417
 21
778.107597607
 31
0.0
  0
LINE
  8
0
  6
LTYPE4
 62
     6
 10
120.408333
 20
794.430748808
 30
0.0
 11
120.408333
 21
777.300965808
 31
0.0
  0
LINE
  8
0
  6
LTYPE4
 62
     6
 10
250.805262694
 20
748.221584891
 30
0.0
 11
120.408333
 21
748.221584891
 31
0.0
  0
LINE
  8
0
  6
LTYPE4
 62
     6
 10
120.408333
 20
768.553842574
 30
0.0
 11
120.408333
 21
748.221584891
 31
0.0
  0
TEXT
  8
0
  6
CONTINUOUS
 62
     2
 10
125.503726364
 20
723.012221811
 30
0.0
 40
15.6
  1
モーター結線図
 50
0.0
 41
0.925
 51
0.0
  7
KANJI48
  0
TEXT
  8
0
  6
CONTINUOUS
 62
     6
 10
191.478709277
 20
790.184749405
 30
1.457853872
 40
14.578538724
  1
Ｂ
 50
0.0
 41
0.9
 51
0.0
  7
KANJI49
  0
CIRCLE
  8
0
  6
CONTINUOUS
 62
     6
 10
198.039051703
 20
798.439846957
 30
0.0
 40
14.578538724
  0
TEXT
  8
0
  6
CONTINUOUS
 62
     6
 10
384.343715102
 20
1325.371931782
 30
0.0
 40
11.8638
  1
ＡＣ１００Ｖ　１２５Ｖ　２５０Ｖ　－１０Ａ
 50
0.0
 41
0.726495726
 51
0.0
  7
KANJI33
  0
LINE
  8
0
  6
CONTINUOUS
 62
     2
 10
481.0
 20
203.0
 30
0.0
 11
488.72740661
 21
200.929447639
 31
0.0
  0
LINE
  8
0
  6
CONTINUOUS
 62
     2
 10
481.0
 20
203.0
 30
0.0
 11
488.72740661
 21
205.070552361
 31
0.0
  0
LINE
  8
0
  6
CONTINUOUS
 62
     2
 10
481.0
 20
203.0
 30
0.0
 11
618.6
 21
203.0
 31
0.0
  0
LINE
  8
0
  6
CONTINUOUS
 62
     2
 10
618.6
 20
203.0
 30
0.0
 11
610.87259339
 21
205.070552361
 31
0.0
  0
LINE
  8
0
  6
CONTINUOUS
 62
     2
 10
618.6
 20
203.0
 30
0.0
 11
610.87259339
 21
200.929447639
 31
0.0
  0
LINE
  8
0
  6
CONTINUOUS
 62
     2
 10
618.6
 20
201.8
 30
0.0
 11
618.6
 21
199.0
 31
0.0
  0
LINE
  8
0
  6
CONTINUOUS
 62
     2
 10
618.6
 20
203.0
 30
0.0
 11
626.32740661
 21
200.929447639
 31
0.0
  0
LINE
  8
0
  6
CONTINUOUS
 62
     2
 10
618.6
 20
203.0
 30
0.0
 11
626.32740661
 21
205.070552361
 31
0.0
  0
LINE
  8
0
  6
CONTINUOUS
 62
     2
 10
618.6
 20
203.0
 30
0.0
 11
821.0
 21
203.0
 31
0.0
  0
LINE
  8
0
  6
CONTINUOUS
 62
     2
 10
821.0
 20
203.0
 30
0.0
 11
813.27259339
 21
205.070552361
 31
0.0
  0
LINE
  8
0
  6
CONTINUOUS
 62
     2
 10
821.0
 20
203.0
 30
0.0
 11
813.27259339
 21
200.929447639
 31
0.0
  0
LINE
  8
0
  6
CONTINUOUS
 62
     2
 10
618.6
 20
176.670552361
 30
0.0
 11
610.87259339
 21
178.741104722
 31
0.0
  0
LINE
  8
0
  6
CONTINUOUS
 62
     2
 10
618.6
 20
176.670552361
 30
0.0
 11
610.87259339
 21
174.6
 31
0.0
  0
LINE
  8
0
  6
CONTINUOUS
 62
     2
 10
606.6
 20
176.670552361
 30
0.0
 11
618.6
 21
176.670552361
 31
0.0
  0
LINE
  8
0
  6
CONTINUOUS
 62
     2
 10
618.6
 20
176.670552361
 30
0.0
 11
639.4
 21
176.670552361
 31
0.0
  0
LINE
  8
0
  6
CONTINUOUS
 62
     2
 10
639.4
 20
176.670552361
 30
0.0
 11
647.12740661
 21
174.6
 31
0.0
  0
LINE
  8
0
  6
CONTINUOUS
 62
     2
 10
639.4
 20
176.670552361
 30
0.0
 11
647.12740661
 21
178.741104722
 31
0.0
  0
LINE
  8
0
  6
CONTINUOUS
 62
     2
 10
481.0
 20
151.4
 30
0.0
 11
481.0
 21
145.4
 31
0.0
  0
LINE
  8
0
  6
CONTINUOUS
 62
     2
 10
481.0
 20
149.4
 30
0.0
 11
488.72740661
 21
147.329447639
 31
0.0
  0
LINE
  8
0
  6
CONTINUOUS
 62
     2
 10
481.0
 20
149.4
 30
0.0
 11
488.72740661
 21
151.470552361
 31
0.0
  0
LINE
  8
0
  6
CONTINUOUS
 62
     2
 10
481.0
 20
149.4
 30
0.0
 11
639.4
 21
149.4
 31
0.0
  0
LINE
  8
0
  6
CONTINUOUS
 62
     2
 10
639.4
 20
149.4
 30
0.0
 11
631.67259339
 21
151.470552361
 31
0.0
  0
LINE
  8
0
  6
CONTINUOUS
 62
     2
 10
639.4
 20
149.4
 30
0.0
 11
631.67259339
 21
147.329447639
 31
0.0
  0
LINE
  8
0
  6
CONTINUOUS
 62
     2
 10
639.4
 20
150.6
 30
0.0
 11
639.4
 21
145.4
 31
0.0
  0
LINE
  8
0
  6
CONTINUOUS
 62
     2
 10
639.4
 20
149.4
 30
0.0
 11
647.12740661
 21
147.329447639
 31
0.0
  0
LINE
  8
0
  6
CONTINUOUS
 62
     2
 10
639.4
 20
149.4
 30
0.0
 11
647.12740661
 21
151.470552361
 31
0.0
  0
LINE
  8
0
  6
CONTINUOUS
 62
     2
 10
821.0
 20
145.8
 30
0.0
 11
821.0
 21
145.4
 31
0.0
  0
LINE
  8
0
  6
CONTINUOUS
 62
     2
 10
481.0
 20
120.2
 30
0.0
 11
488.72740661
 21
118.129447639
 31
0.0
  0
LINE
  8
0
  6
CONTINUOUS
 62
     2
 10
481.0
 20
120.2
 30
0.0
 11
488.72740661
 21
122.270552361
 31
0.0
  0
LINE
  8
0
  6
CONTINUOUS
 62
     2
 10
481.0
 20
120.2
 30
0.0
 11
798.6
 21
120.2
 31
0.0
  0
LINE
  8
0
  6
CONTINUOUS
 62
     2
 10
798.6
 20
120.2
 30
0.0
 11
790.87259339
 21
122.270552361
 31
0.0
  0
LINE
  8
0
  6
CONTINUOUS
 62
     2
 10
798.6
 20
120.2
 30
0.0
 11
790.87259339
 21
118.129447639
 31
0.0
  0
LINE
  8
0
  6
CONTINUOUS
 62
     2
 10
798.6
 20
121.0
 30
0.0
 11
798.6
 21
116.2
 31
0.0
  0
LINE
  8
0
  6
CONTINUOUS
 62
     2
 10
798.6
 20
120.2
 30
0.0
 11
790.87259339
 21
122.270552361
 31
0.0
  0
LINE
  8
0
  6
CONTINUOUS
 62
     2
 10
798.6
 20
120.2
 30
0.0
 11
790.87259339
 21
118.129447639
 31
0.0
  0
LINE
  8
0
  6
CONTINUOUS
 62
     2
 10
786.6
 20
120.2
 30
0.0
 11
798.6
 21
120.2
 31
0.0
  0
LINE
  8
0
  6
CONTINUOUS
 62
     2
 10
798.6
 20
120.2
 30
0.0
 11
821.0
 21
120.2
 31
0.0
  0
LINE
  8
0
  6
CONTINUOUS
 62
     2
 10
821.0
 20
120.2
 30
0.0
 11
828.72740661
 21
118.129447639
 31
0.0
  0
LINE
  8
0
  6
CONTINUOUS
 62
     2
 10
821.0
 20
120.2
 30
0.0
 11
828.72740661
 21
122.270552361
 31
0.0
  0
LINE
  8
0
  6
CONTINUOUS
 62
     2
 10
481.0
 20
213.8
 30
0.0
 11
481.0
 21
199.0
 31
0.0
  0
LINE
  8
0
  6
CONTINUOUS
 62
     2
 10
821.0
 20
213.8
 30
0.0
 11
821.0
 21
199.0
 31
0.0
  0
LINE
  8
0
  6
CONTINUOUS
 62
     2
 10
618.6
 20
202.6
 30
0.0
 11
618.6
 21
213.8
 31
0.0
  0
LINE
  8
0
  6
CONTINUOUS
 62
     2
 10
639.4
 20
189.470552361
 30
0.0
 11
639.4
 21
172.670552361
 31
0.0
  0
LINE
  8
0
  6
CONTINUOUS
 62
     2
 10
481.0
 20
199.0
 30
0.0
 11
481.0
 21
107.0
 31
0.0
  0
LINE
  8
0
  6
CONTINUOUS
 62
     2
 10
821.0
 20
203.0
 30
0.0
 11
821.0
 21
108.2
 31
0.0
  0
LINE
  8
0
  6
CONTINUOUS
 62
     2
 10
639.4
 20
176.670552361
 30
0.0
 11
639.4
 21
140.2
 31
0.0
  0
LINE
  8
0
  6
CONTINUOUS
 62
     2
 10
618.6
 20
203.0
 30
0.0
 11
618.6
 21
167.4
 31
0.0
  0
TEXT
  8
0
  6
CONTINUOUS
 62
     3
 10
522.8
 20
205.0
 30
0.0
 40
15.0
  1
ｍｉｎ．Ｌ
 50
0.0
 41
0.9
 51
0.0
  7
KANJI2
  0
TEXT
  8
0
  6
CONTINUOUS
 62
     3
 10
676.6
 20
205.0
 30
0.0
 40
15.0
  1
機械的ストローク
 50
0.0
 41
0.9
 51
0.0
  7
KANJI2
  0
TEXT
  8
0
  6
CONTINUOUS
 62
     3
 10
651.4
 20
178.670552361
 30
0.0
 40
15.0
  1
余裕
 50
0.0
 41
0.9
 51
0.0
  7
KANJI2
  0
TEXT
  8
0
  6
CONTINUOUS
 62
     3
 10
533.2
 20
151.4
 30
0.0
 40
15.0
  1
常用ｍｉｎ
 50
0.0
 41
0.9
 51
0.0
  7
KANJI2
  0
TEXT
  8
0
  6
CONTINUOUS
 62
     3
 10
692.4
 20
151.4
 30
0.0
 40
15.0
  1
常用ストローク
 50
0.0
 41
0.9
 51
0.0
  7
KANJI2
  0
TEXT
  8
0
  6
CONTINUOUS
 62
     3
 10
612.8
 20
122.2
 30
0.0
 40
15.0
  1
常用ｍａｘ
 50
0.0
 41
0.9
 51
0.0
  7
KANJI2
  0
TEXT
  8
0
  6
CONTINUOUS
 62
     3
 10
833.0
 20
122.2
 30
0.0
 40
15.0
  1
余裕
 50
0.0
 41
0.9
 51
0.0
  7
KANJI2
  0
LINE
  8
0
  6
CONTINUOUS
 62
     2
 10
639.4
 20
176.670552361
 30
0.0
 11
679.5
 21
176.670552361
 31
0.0
  0
LINE
  8
0
  6
CONTINUOUS
 62
     2
 10
821.0
 20
120.2
 30
0.0
 11
863.5
 21
120.2
 31
0.0
  0
TEXT
  8
0
  6
CONTINUOUS
 62
     3
 10
1167.45
 20
695.16
 30
-1.5
 40
15.0
  1
１２０（トラ二オン幅）
 50
0.0
 41
0.9
 51
0.0
  7
KANJI50
  0
LINE
  8
0
  6
CONTINUOUS
 62
     1
 10
853.25
 20
982.95
 30
0.0
 11
1501.25
 21
982.95
 31
0.0
  0
LINE
  8
0
  6
CONTINUOUS
 62
     1
 10
853.25
 20
1234.95
 30
0.0
 11
853.25
 21
982.95
 31
0.0
  0
LINE
  8
0
  6
CONTINUOUS
 62
     1
 10
1021.25
 20
1234.95
 30
0.0
 11
1021.25
 21
982.95
 31
0.0
  0
LINE
  8
0
  6
CONTINUOUS
 62
     2
 10
1101.25
 20
1234.95
 30
0.0
 11
1101.25
 21
982.95
 31
0.0
  0
LINE
  8
0
  6
CONTINUOUS
 62
     2
 10
1181.25
 20
1234.95
 30
0.0
 11
1181.25
 21
982.95
 31
0.0
  0
LINE
  8
0
  6
CONTINUOUS
 62
     2
 10
1261.25
 20
1234.95
 30
0.0
 11
1261.25
 21
982.95
 31
0.0
  0
LINE
  8
0
  6
CONTINUOUS
 62
     2
 10
1341.25
 20
1234.95
 30
0.0
 11
1341.25
 21
982.95
 31
0.0
  0
LINE
  8
0
  6
CONTINUOUS
 62
     2
 10
1421.25
 20
1234.95
 30
0.0
 11
1421.25
 21
982.95
 31
0.0
  0
LINE
  8
0
  6
CONTINUOUS
 62
     1
 10
1501.25
 20
1234.95
 30
0.0
 11
1501.25
 21
982.95
 31
0.0
  0
TEXT
  8
0
  6
CONTINUOUS
 62
     2
 10
866.25
 20
989.35
 30
0.8
 40
12.0
  1
ＭＣＳＬＢＢ０１－　
 50
0.0
 41
0.833333333
 51
0.0
  7
KANJI29
  0
LINE
  8
0
  6
CONTINUOUS
 62
     2
 10
798.6
 20
162.0
 30
0.0
 11
798.6
 21
107.4
 31
0.0
  0
LINE
  8
0
  6
CONTINUOUS
 62
     2
 10
639.4
 20
149.4
 30
0.0
 11
798.6
 21
149.4
 31
0.0
  0
LINE
  8
0
  6
CONTINUOUS
 62
     2
 10
798.6
 20
149.4
 30
0.0
 11
790.87259339
 21
151.470552361
 31
0.0
  0
LINE
  8
0
  6
CONTINUOUS
 62
     2
 10
798.6
 20
149.4
 30
0.0
 11
790.87259339
 21
147.329447639
 31
0.0
  0
TEXT
  8
2
  6
CONTINUOUS
 62
     2
 10
178.3
 20
654.8
 30
0.0
 40
15.0
  1
手動軸カバー
 50
0.0
 41
0.9
 51
0.0
  7
KANJI2
  0
TEXT
  8
2
  6
CONTINUOUS
 62
     2
 10
178.3
 20
630.8
 30
1.2
 40
16.0
  1
手動軸□１０
 50
0.0
 41
0.925
 51
0.0
  7
KANJI51
  0
POLYLINE
  8
2
  6
CONTINUOUS
 62
     2
 66
     1
  0
VERTEX
  8
2
  6
CONTINUOUS
 62
     2
 10
292.685350584
 20
566.25
 30
0.0
  0
VERTEX
  8
2
  6
CONTINUOUS
 62
     2
 10
276.1
 20
650.8
 30
0.0
  0
VERTEX
  8
2
  6
CONTINUOUS
 62
     2
 10
173.3
 20
650.8
 30
0.0
  0
SEQEND
  0
LINE
  8
0
  6
CONTINUOUS
 62
     2
 10
1018.0
 20
586.5
 30
0.0
 11
1018.0
 21
794.0
 31
0.0
  0
LINE
  8
0
  6
CONTINUOUS
 62
     2
 10
1036.0
 20
590.7
 30
0.0
 11
1036.0
 21
794.088190451
 31
0.0
  0
TEXT
  8
0
  6
CONTINUOUS
 62
     2
 10
1607.25
 20
1273.5
 30
138.5
 40
17.5
  1
形式
 50
0.0
 41
0.9
 51
0.0
  7
KANJI52
  0
TEXT
  8
0
  6
CONTINUOUS
 62
     2
 10
1607.25
 20
1238.5
 30
138.5
 40
17.5
  1
推力
 50
0.0
 41
0.9
 51
0.0
  7
KANJI52
  0
TEXT
  8
0
  6
CONTINUOUS
 62
     2
 10
1607.25
 20
1098.5
 30
138.5
 40
17.5
  1
構造
 50
0.0
 41
0.9
 51
0.0
  7
KANJI52
  0
TEXT
  8
0
  6
CONTINUOUS
 62
     2
 10
1607.25
 20
713.5
 30
61.375
 40
17.5
  1
付属品
 50
0.0
 41
0.9
 51
0.0
  7
KANJI53
  0
TEXT
  8
0
  6
CONTINUOUS
 62
     2
 10
1607.25
 20
1028.5
 30
61.375
 40
17.5
  1
塗装色
 50
0.0
 41
0.9
 51
0.0
  7
KANJI53
  0
TEXT
  8
0
  6
CONTINUOUS
 62
     2
 10
1607.25
 20
1203.5
 30
22.8125
 40
17.5
  1
ストローク
 50
0.0
 41
0.9
 51
0.0
  7
KANJI54
  0
TEXT
  8
0
  6
CONTINUOUS
 62
     2
 10
1607.25
 20
1063.5
 30
9.958
 40
17.5
  1
過負荷安全装置
 50
0.0
 41
0.9
 51
0.0
  7
KANJI55
  0
TEXT
  8
0
  6
CONTINUOUS
 62
     2
 10
1632.25
 20
1313.0
 30
14.2497
 40
22.5
  1
マイティシリンダ仕様
 50
0.0
 41
0.9
 51
0.0
  7
KANJI56
  0
TEXT
  8
0
  6
CONTINUOUS
 62
     2
 10
1632.25
 20
993.5
 30
15.3125
 40
17.5
  1
出力　極数
 50
0.0
 41
0.9
 51
0.0
  7
KANJI57
  0
TEXT
  8
0
  6
CONTINUOUS
 62
     2
 10
1632.25
 20
958.5
 30
25.6665
 40
17.5
  1
電源電圧
 50
0.0
 41
0.9
 51
0.0
  7
KANJI58
  0
TEXT
  8
0
  6
CONTINUOUS
 62
     2
 10
1632.25
 20
923.5
 30
46.375
 40
17.5
  1
周波数
 50
0.0
 41
0.9
 51
0.0
  7
KANJI59
  0
TEXT
  8
0
  6
CONTINUOUS
 62
     2
 10
1632.25
 20
853.5
 30
46.375
 40
17.5
  1
絶縁級
 50
0.0
 41
0.9
 51
0.0
  7
KANJI59
  0
TEXT
  8
0
  6
CONTINUOUS
 62
     2
 10
1632.25
 20
888.5
 30
108.5
 40
17.5
  1
電流
 50
0.0
 41
0.9
 51
0.0
  7
KANJI60
  0
TEXT
  8
0
  6
CONTINUOUS
 62
     2
 10
1632.25
 20
783.5
 30
108.5
 40
17.5
  1
形式
 50
0.0
 41
0.9
 51
0.0
  7
KANJI60
  0
TEXT
  8
0
  6
CONTINUOUS
 62
     2
 10
1632.25
 20
748.5
 30
25.6665
 40
17.5
  1
操作方式
 50
0.0
 41
0.9
 51
0.0
  7
KANJI58
  0
TEXT
  8
0
  6
CONTINUOUS
 62
     2
 10
1592.25
 20
1133.5
 30
1.5
 40
17.5
  1
ピストンロッド回転トルク
 50
0.0
 41
0.9
 51
0.0
  7
KANJI61
  0
TEXT
  8
0
  6
CONTINUOUS
 62
     2
 10
1590.125
 20
997.0
 30
11.0
 40
17.5
  1
モ　トル仕様
 50
0.0
 41
0.9
 51
0.0
  7
KANJI62
  0
TEXT
  8
0
  6
CONTINUOUS
 62
     2
 10
1589.0
 20
807.0
 30
0.857142857
 40
15.0
  1
ブレ　キ
 50
0.0
 41
0.9
 51
0.0
  7
KANJI63
  0
LINE
  8
0
  6
CONTINUOUS
 62
     2
 10
1588.75
 20
772.5
 30
0.0
 11
1588.75
 21
762.0
 31
0.0
  0
LINE
  8
0
  6
CONTINUOUS
 62
     2
 10
1588.75
 20
969.0
 30
0.0
 11
1588.75
 21
957.5
 31
0.0
  0
TEXT
  8
0
  6
CONTINUOUS
 62
     2
 10
1944.75
 20
1172.0
 30
0.1
 40
12.5
  1
ｍｍ／ｓｅｃ
 50
0.0
 41
0.8
 51
0.0
  7
KANJI64
  0
TEXT
  8
0
  6
CONTINUOUS
 62
     2
 10
1982.25
 20
1205.5
 30
0.1
 40
12.5
  1
ｍｍ
 50
0.0
 41
0.8
 51
0.0
  7
KANJI64
  0
TEXT
  8
0
  6
CONTINUOUS
 62
     2
 10
1856.75
 20
1063.5
 30
7.1
 40
17.5
  1
推力リミッタ
 50
0.0
 41
0.9
 51
0.0
  7
KANJI65
  0
TEXT
  8
0
  6
CONTINUOUS
 62
     2
 10
1989.25
 20
993.5
 30
10.982142857
 40
15.0
  1
Ｐ
 50
0.0
 41
0.9
 51
0.0
  7
KANJI66
  0
TEXT
  8
0
  6
CONTINUOUS
 62
     2
 10
1906.25
 20
993.5
 30
1.0
 40
15.0
  1
ＫＷ
 50
0.0
 41
0.857142857
 51
0.0
  7
KANJI67
  0
TEXT
  8
0
  6
CONTINUOUS
 62
     2
 10
1964.25
 20
993.5
 30
12.8125
 40
17.5
  1
４
 50
0.0
 41
0.9
 51
0.0
  7
KANJI68
  0
TEXT
  8
0
  6
CONTINUOUS
 62
     2
 10
1828.75
 20
1030.0
 30
0.5
 40
14.0
  1
マンセル
 50
0.0
 41
0.9
 51
0.0
  7
KANJI69
  0
TEXT
  8
0
  6
CONTINUOUS
 62
     2
 10
1887.25
 20
1031.0
 30
0.2
 40
14.0
  1
７．５ＧＹ５／４．５
 50
0.0
 41
0.785714286
 51
0.0
  7
KANJI70
  0
TEXT
  8
0
  6
CONTINUOUS
 62
     2
 10
1824.75
 20
784.0
 30
1.5
 40
14.0
  1
スプリング制動式電磁ブレーキ
 50
0.0
 41
0.8
 51
0.0
  7
KANJI71
  0
TEXT
  8
0
  6
CONTINUOUS
 62
     2
 10
1859.75
 20
748.5
 30
10.0
 40
17.5
  1
同時切り
 50
0.0
 41
0.9
 51
0.0
  7
KANJI72
  0
TEXT
  8
0
  6
CONTINUOUS
 62
     2
 10
1989.75
 20
958.5
 30
0.18
 40
15.0
  1
Ｖ
 50
0.0
 41
0.8
 51
0.0
  7
KANJI73
  0
TEXT
  8
0
  6
CONTINUOUS
 62
     2
 10
1980.75
 20
923.5
 30
0.18
 40
15.0
  1
Ｈｚ
 50
0.0
 41
0.8
 51
0.0
  7
KANJI73
  0
TEXT
  8
0
  6
CONTINUOUS
 62
     2
 10
1990.875
 20
889.625
 30
1.5
 40
15.0
  1
Ａ
 50
0.0
 41
0.9
 51
0.0
  7
KANJI74
  0
TEXT
  8
0
  6
CONTINUOUS
 62
     2
 10
1912.125
 20
855.875
 30
1.5
 40
15.0
  1
Ｅ
 50
0.0
 41
0.9
 51
0.0
  7
KANJI74
  0
LINE
  8
0
  6
CONTINUOUS
 62
     2
 10
1569.75
 20
739.5
 30
0.0
 11
2007.25
 21
739.5
 31
0.0
  0
LINE
  8
0
  6
CONTINUOUS
 62
     2
 10
1569.75
 20
1019.5
 30
0.0
 11
2007.25
 21
1019.5
 31
0.0
  0
LINE
  8
0
  6
CONTINUOUS
 62
     2
 10
1569.75
 20
809.5
 30
0.0
 11
2007.25
 21
809.5
 31
0.0
  0
LINE
  8
0
  6
CONTINUOUS
 62
     2
 10
1609.75
 20
774.5
 30
0.0
 11
2007.25
 21
774.5
 31
0.0
  0
LINE
  8
0
  6
CONTINUOUS
 62
     2
 10
1609.75
 20
844.5
 30
0.0
 11
2007.25
 21
844.5
 31
0.0
  0
LINE
  8
0
  6
CONTINUOUS
 62
     2
 10
1609.75
 20
879.5
 30
0.0
 11
2007.25
 21
879.5
 31
0.0
  0
LINE
  8
0
  6
CONTINUOUS
 62
     2
 10
1609.75
 20
949.5
 30
0.0
 11
2007.25
 21
949.5
 31
0.0
  0
LINE
  8
0
  6
CONTINUOUS
 62
     2
 10
1609.75
 20
914.5
 30
0.0
 11
2007.25
 21
914.5
 31
0.0
  0
LINE
  8
0
  6
CONTINUOUS
 62
     2
 10
1609.75
 20
984.5
 30
0.0
 11
2007.25
 21
984.5
 31
0.0
  0
LINE
  8
0
  6
CONTINUOUS
 62
     2
 10
1569.75
 20
1299.5
 30
0.0
 11
2007.25
 21
1299.5
 31
0.0
  0
LINE
  8
0
  6
CONTINUOUS
 62
     2
 10
1569.75
 20
1264.5
 30
0.0
 11
2007.25
 21
1264.5
 31
0.0
  0
LINE
  8
0
  6
CONTINUOUS
 62
     2
 10
1569.75
 20
1229.5
 30
0.0
 11
2007.25
 21
1229.5
 31
0.0
  0
LINE
  8
0
  6
CONTINUOUS
 62
     2
 10
1569.75
 20
1194.5
 30
0.0
 11
2007.25
 21
1194.5
 31
0.0
  0
LINE
  8
0
  6
CONTINUOUS
 62
     2
 10
1569.75
 20
1159.5
 30
0.0
 11
2007.25
 21
1159.5
 31
0.0
  0
LINE
  8
0
  6
CONTINUOUS
 62
     2
 10
1569.75
 20
1124.5
 30
0.0
 11
2007.25
 21
1124.5
 31
0.0
  0
LINE
  8
0
  6
CONTINUOUS
 62
     2
 10
1569.75
 20
1089.5
 30
0.0
 11
2007.25
 21
1089.5
 31
0.0
  0
LINE
  8
0
  6
CONTINUOUS
 62
     2
 10
1569.75
 20
1054.5
 30
0.0
 11
2007.25
 21
1054.5
 31
0.0
  0
LINE
  8
0
  6
CONTINUOUS
 62
     2
 10
1609.75
 20
1019.5
 30
0.0
 11
1609.75
 21
739.5
 31
0.0
  0
LINE
  8
0
  6
CONTINUOUS
 62
     1
 10
1569.75
 20
1349.5
 30
0.0
 11
2007.25
 21
1349.5
 31
0.0
  0
LINE
  8
0
  6
CONTINUOUS
 62
     2
 10
1569.75
 20
704.5
 30
0.0
 11
2007.25
 21
704.5
 31
0.0
  0
TEXT
  8
0
  6
CONTINUOUS
 62
     2
 10
1837.125
 20
1168.375
 30
1.5
 40
15.0
  1
　２５／３０
 50
0.0
 41
0.9
 51
0.0
  7
KANJI74
  0
TEXT
  8
0
  6
CONTINUOUS
 62
     2
 10
1867.75
 20
959.0
 30
1.5
 40
15.0
  1
　　　／　
 50
0.0
 41
0.9
 51
0.0
  7
KANJI74
  0
TEXT
  8
0
  6
CONTINUOUS
 62
     2
 10
1882.125
 20
923.375
 30
1.5
 40
15.0
  1
　５０／６０
 50
0.0
 41
0.9
 51
0.0
  7
KANJI74
  0
TEXT
  8
0
  6
CONTINUOUS
 62
     2
 10
1825.75
 20
1272.625
 30
1.0
 40
15.0
  1
ＭＣＳＬＢＢ０１－　　
 50
0.0
 41
0.833333333
 51
0.0
  7
KANJI75
  0
TEXT
  8
0
  6
CONTINUOUS
 62
     2
 10
1848.375
 20
994.625
 30
1.5
 40
15.0
  1
０．３
 50
0.0
 41
0.9
 51
0.0
  7
KANJI74
  0
TEXT
  8
0
  6
CONTINUOUS
 62
     2
 10
1849.25
 20
1238.5
 30
1.5
 40
15.0
  1
９８０Ｎ（１００ｋｇ）
 50
0.0
 41
0.9
 51
0.0
  7
KANJI74
  0
TEXT
  8
0
  6
CONTINUOUS
 62
     2
 10
1607.25
 20
1168.5
 30
5.0
 40
17.5
  1
公称速度（５０／６０Ｈｚ）
 50
0.0
 41
0.9
 51
0.0
  7
KANJI76
  0
TEXT
  8
0
  6
CONTINUOUS
 62
     2
 10
1856.75
 20
1099.0
 30
12.8125
 40
17.5
  1
全閉屋内形
 50
0.0
 41
0.9
 51
0.0
  7
KANJI68
  0
TEXT
  8
0
  6
CONTINUOUS
 62
     2
 10
1827.875
 20
1133.375
 30
0.0
 40
15.0
  1
２．９Ｎ・ｍ（０．３ｋｇ・ｍ）
 50
0.0
 41
0.833333333
 51
0.0
  7
KANJI77
  0
TEXT
  8
0
  6
CONTINUOUS
 62
     2
 10
1607.25
 20
678.5
 30
138.5
 40
17.5
  1
台数
 50
0.0
 41
0.9
 51
0.0
  7
KANJI52
  0
LINE
  8
0
  6
CONTINUOUS
 62
     1
 10
1569.75
 20
634.5
 30
0.0
 11
2007.25
 21
634.5
 31
0.0
  0
LINE
  8
0
  6
CONTINUOUS
 62
     2
 10
1569.75
 20
669.5
 30
0.0
 11
2007.25
 21
669.5
 31
0.0
  0
TEXT
  8
0
  6
CONTINUOUS
 62
     2
 10
1607.25
 20
643.5
 30
5.0
 40
17.5
  1
概算重量（１台当り）
 50
0.0
 41
0.857142857
 51
0.0
  7
KANJI19
  0
TEXT
  8
0
  6
CONTINUOUS
 62
     2
 10
1961.25
 20
644.65
 30
0.0
 40
17.5
  1
ｋｇ
 50
0.0
 41
0.9
 51
0.0
  7
KANJI78
  0
LINE
  8
0
  6
CONTINUOUS
 62
     2
 10
1819.75
 20
1299.5
 30
0.0
 11
1819.75
 21
634.5
 31
0.0
  0
LINE
  8
0
  6
CONTINUOUS
 62
     1
 10
1569.75
 20
1349.5
 30
0.0
 11
1569.75
 21
634.5
 31
0.0
  0
TEXT
  8
0
  6
CONTINUOUS
 62
     2
 10
687.1
 20
384.4
 30
0.0
 40
15.0
  1
φ１６Ｈ１０深さ２２
 50
0.0
 41
0.9
 51
0.0
  7
KANJI2
  0
LINE
  8
0
  6
CONTINUOUS
 62
     2
 10
687.1
 20
380.4
 30
0.0
 11
826.0
 21
380.4
 31
0.0
  0
TEXT
  8
0
  6
CONTINUOUS
 62
     2
 10
1376.9166945
 20
97.999995
 30
1.5
 40
17.5
  1
０７．１１．０７
 50
0.0
 41
0.571428571
 51
0.0
  7
KANJI79
  0
ENDSEC
  0
EOF
