  0
SECTION
  2
HEADER
  9
$ACADVER
  1
AC1009
  9
$DWGCODEPAGE
  3
dos932
  9
$EXTMIN
 10
0.0
 20
0.0
 30
0.0
  9
$EXTMAX
 10
2100.0
 20
1485.0
 30
0.0
  9
$LIMMIN
 10
0.0
 20
0.0
  9
$LIMMAX
 10
2100.0
 20
1485.0
  9
$LTSCALE
 40
1.0
  9
$PDMODE
 70
     0
  0
ENDSEC
  0
SECTION
  2
TABLES
  0
TABLE
  2
VPORT
 70
     1
  0
VPORT
  2
*ACTIVE
 70
     0
 10
0.0
 20
0.0
 11
1.0
 21
1.0
 12
1050.0
 22
742.5
 13
0.0
 23
0.0
 14
10.0
 24
10.0
 15
10.0
 25
10.0
 16
0.0
 26
0.0
 36
1.0
 17
0.0
 27
0.0
 37
0.0
 40
2100.0
 41
1.414141414
 42
50.0
 43
0.0
 44
0.0
 50
0.0
 51
0.0
 71
     0
 72
  1000
 73
     1
 74
     3
 75
     0
 76
     0
 77
     0
 78
     0
  0
ENDTAB
  0
TABLE
  2
LTYPE
 70
     7
  0
LTYPE
  2
CONTINUOUS
 70
    64
  3
Solid line
 72
    65
 73
     0
 40
0.0
  0
LTYPE
  2
LTYPE1
 70
    64
  3
HIDDEN
 72
    65
 73
     2
 40
15.0
 49
9.0
 49
-6.0
  0
LTYPE
  2
LTYPE2
 70
    64
  3
CENTER
 72
    65
 73
     4
 40
75.0
 49
52.5
 49
-7.5
 49
7.5
 49
-7.5
  0
LTYPE
  2
LTYPE3
 70
    64
  3
CENTER
 72
    65
 73
     4
 40
50.0
 49
35.0
 49
-5.0
 49
5.0
 49
-5.0
  0
LTYPE
  2
LTYPE4
 70
    64
  3
CENTER
 72
    65
 73
     4
 40
45.0
 49
31.5
 49
-4.5
 49
4.5
 49
-4.5
  0
LTYPE
  2
LTYPE5
 70
    64
  3
CENTER
 72
    65
 73
     4
 40
100.0
 49
70.0
 49
-10.0
 49
10.0
 49
-10.0
  0
LTYPE
  2
LTYPE6
 70
    64
  3
PHANTOM
 72
    65
 73
     6
 40
50.0
 49
37.5
 49
-2.5
 49
2.5
 49
-2.5
 49
2.5
 49
-2.5
  0
ENDTAB
  0
TABLE
  2
LAYER
 70
   128
  0
LAYER
  2
0
 70
     0
 62
     7
  6
CONTINUOUS
  0
LAYER
  2
2
 70
     0
 62
     7
  6
CONTINUOUS
  0
LAYER
  2
3
 70
     0
 62
     7
  6
CONTINUOUS
  0
LAYER
  2
4
 70
     0
 62
     7
  6
CONTINUOUS
  0
LAYER
  2
5
 70
     0
 62
     7
  6
CONTINUOUS
  0
LAYER
  2
6
 70
     0
 62
     7
  6
CONTINUOUS
  0
LAYER
  2
7
 70
     0
 62
     7
  6
CONTINUOUS
  0
LAYER
  2
8
 70
     0
 62
     7
  6
CONTINUOUS
  0
LAYER
  2
9
 70
     0
 62
     7
  6
CONTINUOUS
  0
LAYER
  2
10
 70
     0
 62
     7
  6
CONTINUOUS
  0
LAYER
  2
11
 70
     0
 62
     7
  6
CONTINUOUS
  0
LAYER
  2
12
 70
     0
 62
     7
  6
CONTINUOUS
  0
LAYER
  2
13
 70
     0
 62
     7
  6
CONTINUOUS
  0
LAYER
  2
14
 70
     0
 62
     7
  6
CONTINUOUS
  0
LAYER
  2
15
 70
     0
 62
     7
  6
CONTINUOUS
  0
LAYER
  2
16
 70
     0
 62
     7
  6
CONTINUOUS
  0
LAYER
  2
17
 70
     0
 62
     7
  6
CONTINUOUS
  0
LAYER
  2
18
 70
     0
 62
     7
  6
CONTINUOUS
  0
LAYER
  2
19
 70
     0
 62
     7
  6
CONTINUOUS
  0
LAYER
  2
20
 70
     0
 62
     7
  6
CONTINUOUS
  0
LAYER
  2
21
 70
     0
 62
     7
  6
CONTINUOUS
  0
LAYER
  2
22
 70
     0
 62
     7
  6
CONTINUOUS
  0
LAYER
  2
23
 70
     0
 62
     7
  6
CONTINUOUS
  0
LAYER
  2
24
 70
     0
 62
     7
  6
CONTINUOUS
  0
LAYER
  2
25
 70
     0
 62
     7
  6
CONTINUOUS
  0
LAYER
  2
26
 70
     0
 62
     7
  6
CONTINUOUS
  0
LAYER
  2
27
 70
     0
 62
     7
  6
CONTINUOUS
  0
LAYER
  2
28
 70
     0
 62
     7
  6
CONTINUOUS
  0
LAYER
  2
29
 70
     0
 62
     7
  6
CONTINUOUS
  0
LAYER
  2
30
 70
     0
 62
     7
  6
CONTINUOUS
  0
LAYER
  2
31
 70
     0
 62
     7
  6
CONTINUOUS
  0
LAYER
  2
32
 70
     0
 62
     7
  6
CONTINUOUS
  0
LAYER
  2
33
 70
     0
 62
     7
  6
CONTINUOUS
  0
LAYER
  2
34
 70
     0
 62
     7
  6
CONTINUOUS
  0
LAYER
  2
35
 70
     0
 62
     7
  6
CONTINUOUS
  0
LAYER
  2
36
 70
     0
 62
     7
  6
CONTINUOUS
  0
LAYER
  2
37
 70
     0
 62
     7
  6
CONTINUOUS
  0
LAYER
  2
38
 70
     0
 62
     7
  6
CONTINUOUS
  0
LAYER
  2
39
 70
     0
 62
     7
  6
CONTINUOUS
  0
LAYER
  2
40
 70
     0
 62
     7
  6
CONTINUOUS
  0
LAYER
  2
41
 70
     0
 62
     7
  6
CONTINUOUS
  0
LAYER
  2
42
 70
     0
 62
     7
  6
CONTINUOUS
  0
LAYER
  2
43
 70
     0
 62
     7
  6
CONTINUOUS
  0
LAYER
  2
44
 70
     0
 62
     7
  6
CONTINUOUS
  0
LAYER
  2
45
 70
     0
 62
     7
  6
CONTINUOUS
  0
LAYER
  2
46
 70
     0
 62
     7
  6
CONTINUOUS
  0
LAYER
  2
47
 70
     0
 62
     7
  6
CONTINUOUS
  0
LAYER
  2
48
 70
     0
 62
     7
  6
CONTINUOUS
  0
LAYER
  2
49
 70
     0
 62
     7
  6
CONTINUOUS
  0
LAYER
  2
50
 70
     0
 62
     7
  6
CONTINUOUS
  0
LAYER
  2
51
 70
     0
 62
     7
  6
CONTINUOUS
  0
LAYER
  2
52
 70
     0
 62
     7
  6
CONTINUOUS
  0
LAYER
  2
53
 70
     0
 62
     7
  6
CONTINUOUS
  0
LAYER
  2
54
 70
     0
 62
     7
  6
CONTINUOUS
  0
LAYER
  2
55
 70
     0
 62
     7
  6
CONTINUOUS
  0
LAYER
  2
56
 70
     0
 62
     7
  6
CONTINUOUS
  0
LAYER
  2
57
 70
     0
 62
     7
  6
CONTINUOUS
  0
LAYER
  2
58
 70
     0
 62
     7
  6
CONTINUOUS
  0
LAYER
  2
59
 70
     0
 62
     7
  6
CONTINUOUS
  0
LAYER
  2
60
 70
     0
 62
     7
  6
CONTINUOUS
  0
LAYER
  2
61
 70
     0
 62
     7
  6
CONTINUOUS
  0
LAYER
  2
62
 70
     0
 62
     7
  6
CONTINUOUS
  0
LAYER
  2
63
 70
     0
 62
     7
  6
CONTINUOUS
  0
LAYER
  2
64
 70
     0
 62
     7
  6
CONTINUOUS
  0
LAYER
  2
65
 70
     0
 62
     7
  6
CONTINUOUS
  0
LAYER
  2
66
 70
     0
 62
     7
  6
CONTINUOUS
  0
LAYER
  2
67
 70
     0
 62
     7
  6
CONTINUOUS
  0
LAYER
  2
68
 70
     0
 62
     7
  6
CONTINUOUS
  0
LAYER
  2
69
 70
     0
 62
     7
  6
CONTINUOUS
  0
LAYER
  2
70
 70
     0
 62
     7
  6
CONTINUOUS
  0
LAYER
  2
71
 70
     0
 62
     7
  6
CONTINUOUS
  0
LAYER
  2
72
 70
     0
 62
     7
  6
CONTINUOUS
  0
LAYER
  2
73
 70
     0
 62
     7
  6
CONTINUOUS
  0
LAYER
  2
74
 70
     0
 62
     7
  6
CONTINUOUS
  0
LAYER
  2
75
 70
     0
 62
     7
  6
CONTINUOUS
  0
LAYER
  2
76
 70
     0
 62
     7
  6
CONTINUOUS
  0
LAYER
  2
77
 70
     0
 62
     7
  6
CONTINUOUS
  0
LAYER
  2
78
 70
     0
 62
     7
  6
CONTINUOUS
  0
LAYER
  2
79
 70
     0
 62
     7
  6
CONTINUOUS
  0
LAYER
  2
80
 70
     0
 62
     7
  6
CONTINUOUS
  0
LAYER
  2
81
 70
     0
 62
     7
  6
CONTINUOUS
  0
LAYER
  2
82
 70
     0
 62
     7
  6
CONTINUOUS
  0
LAYER
  2
83
 70
     0
 62
     7
  6
CONTINUOUS
  0
LAYER
  2
84
 70
     0
 62
     7
  6
CONTINUOUS
  0
LAYER
  2
85
 70
     0
 62
     7
  6
CONTINUOUS
  0
LAYER
  2
86
 70
     0
 62
     7
  6
CONTINUOUS
  0
LAYER
  2
87
 70
     0
 62
     7
  6
CONTINUOUS
  0
LAYER
  2
88
 70
     0
 62
     7
  6
CONTINUOUS
  0
LAYER
  2
89
 70
     0
 62
     7
  6
CONTINUOUS
  0
LAYER
  2
90
 70
     0
 62
     7
  6
CONTINUOUS
  0
LAYER
  2
91
 70
     0
 62
     7
  6
CONTINUOUS
  0
LAYER
  2
92
 70
     0
 62
     7
  6
CONTINUOUS
  0
LAYER
  2
93
 70
     0
 62
     7
  6
CONTINUOUS
  0
LAYER
  2
94
 70
     0
 62
     7
  6
CONTINUOUS
  0
LAYER
  2
95
 70
     0
 62
     7
  6
CONTINUOUS
  0
LAYER
  2
96
 70
     0
 62
     7
  6
CONTINUOUS
  0
LAYER
  2
97
 70
     0
 62
     7
  6
CONTINUOUS
  0
LAYER
  2
98
 70
     0
 62
     7
  6
CONTINUOUS
  0
LAYER
  2
99
 70
     0
 62
     7
  6
CONTINUOUS
  0
LAYER
  2
100
 70
     0
 62
     7
  6
CONTINUOUS
  0
LAYER
  2
101
 70
     0
 62
     7
  6
CONTINUOUS
  0
LAYER
  2
102
 70
     0
 62
     7
  6
CONTINUOUS
  0
LAYER
  2
103
 70
     0
 62
     7
  6
CONTINUOUS
  0
LAYER
  2
104
 70
     0
 62
     7
  6
CONTINUOUS
  0
LAYER
  2
105
 70
     0
 62
     7
  6
CONTINUOUS
  0
LAYER
  2
106
 70
     0
 62
     7
  6
CONTINUOUS
  0
LAYER
  2
107
 70
     0
 62
     7
  6
CONTINUOUS
  0
LAYER
  2
108
 70
     0
 62
     7
  6
CONTINUOUS
  0
LAYER
  2
109
 70
     0
 62
     7
  6
CONTINUOUS
  0
LAYER
  2
110
 70
     0
 62
     7
  6
CONTINUOUS
  0
LAYER
  2
111
 70
     0
 62
     7
  6
CONTINUOUS
  0
LAYER
  2
112
 70
     0
 62
     7
  6
CONTINUOUS
  0
LAYER
  2
113
 70
     0
 62
     7
  6
CONTINUOUS
  0
LAYER
  2
114
 70
     0
 62
     7
  6
CONTINUOUS
  0
LAYER
  2
115
 70
     0
 62
     7
  6
CONTINUOUS
  0
LAYER
  2
116
 70
     0
 62
     7
  6
CONTINUOUS
  0
LAYER
  2
117
 70
     0
 62
     7
  6
CONTINUOUS
  0
LAYER
  2
118
 70
     0
 62
     7
  6
CONTINUOUS
  0
LAYER
  2
119
 70
     0
 62
     7
  6
CONTINUOUS
  0
LAYER
  2
120
 70
     0
 62
     7
  6
CONTINUOUS
  0
LAYER
  2
121
 70
     0
 62
     7
  6
CONTINUOUS
  0
LAYER
  2
122
 70
     0
 62
     7
  6
CONTINUOUS
  0
LAYER
  2
123
 70
     0
 62
     7
  6
CONTINUOUS
  0
LAYER
  2
124
 70
     0
 62
     7
  6
CONTINUOUS
  0
LAYER
  2
125
 70
     0
 62
     7
  6
CONTINUOUS
  0
LAYER
  2
126
 70
     0
 62
     7
  6
CONTINUOUS
  0
LAYER
  2
127
 70
     0
 62
     7
  6
CONTINUOUS
  0
LAYER
  2
128
 70
     0
 62
     7
  6
CONTINUOUS
  0
ENDTAB
  0
TABLE
  2
STYLE
 70
    82
  0
STYLE
  2
STANDARD
 70
     0
 40
0.0
 41
1.0
 50
0.0
 71
     0
 42
0.2
  3
txt.shx
  4
extfont.shx
  0
STYLE
  2
KANJI0
 70
     0
 40
9.999997897
 41
0.6
 50
0.0
 71
     0
 42
9.999997897
  3
txt.shx
  4
extfont.shx
  0
STYLE
  2
KANJI1
 70
     0
 40
11.999997477
 41
0.9
 50
0.0
 71
     0
 42
11.999997477
  3
txt.shx
  4
extfont.shx
  0
STYLE
  2
KANJI2
 70
     0
 40
14.999996846
 41
0.9
 50
0.0
 71
     0
 42
14.999996846
  3
txt.shx
  4
extfont.shx
  0
STYLE
  2
KANJI3
 70
     0
 40
12.999999
 41
0.75
 50
0.0
 71
     0
 42
12.999999
  3
txt.shx
  4
extfont.shx
  0
STYLE
  2
KANJI4
 70
     0
 40
8.666666
 41
0.6
 50
0.0
 71
     0
 42
8.666666
  3
txt.shx
  4
extfont.shx
  0
STYLE
  2
KANJI5
 70
     0
 40
10.3999992
 41
0.6
 50
0.0
 71
     0
 42
10.3999992
  3
txt.shx
  4
extfont.shx
  0
STYLE
  2
KANJI6
 70
     0
 40
15.1666655
 41
0.42031746
 50
0.0
 71
     0
 42
15.1666655
  3
txt.shx
  4
extfont.shx
  0
STYLE
  2
KANJI7
 70
     0
 40
25.999998
 41
0.9
 50
0.0
 71
     0
 42
25.999998
  3
txt.shx
  4
extfont.shx
  0
STYLE
  2
KANJI8
 70
     0
 40
8.666666
 41
0.8
 50
0.0
 71
     0
 42
8.666666
  3
txt.shx
  4
extfont.shx
  0
STYLE
  2
KANJI9
 70
     0
 40
10.3999992
 41
0.8
 50
0.0
 71
     0
 42
10.3999992
  3
txt.shx
  4
extfont.shx
  0
STYLE
  2
KANJI10
 70
     0
 40
25.0
 41
1.0
 50
0.0
 71
     0
 42
25.0
  3
txt.shx
  4
extfont.shx
  0
STYLE
  2
KANJI11
 70
     0
 40
25.0
 41
1.0
 50
0.0
 71
     0
 42
25.0
  3
txt.shx
  4
extfont.shx
  0
STYLE
  2
KANJI12
 70
     0
 40
25.0
 41
0.8
 50
0.0
 71
     0
 42
25.0
  3
txt.shx
  4
extfont.shx
  0
STYLE
  2
KANJI13
 70
     0
 40
20.0
 41
1.0
 50
0.0
 71
     0
 42
20.0
  3
txt.shx
  4
extfont.shx
  0
STYLE
  2
KANJI14
 70
     0
 40
18.0
 41
1.111111111
 50
0.0
 71
     0
 42
18.0
  3
txt.shx
  4
extfont.shx
  0
STYLE
  2
KANJI15
 70
     0
 40
17.5
 41
0.857142857
 50
0.0
 71
     0
 42
17.5
  3
txt.shx
  4
extfont.shx
  0
STYLE
  2
KANJI16
 70
     0
 40
22.5
 41
0.666666667
 50
0.0
 71
     0
 42
22.5
  3
txt.shx
  4
extfont.shx
  0
STYLE
  2
KANJI17
 70
     0
 40
15.0
 41
1.0
 50
0.0
 71
     0
 42
15.0
  3
txt.shx
  4
extfont.shx
  0
STYLE
  2
KANJI18
 70
     0
 40
12.8
 41
0.9
 50
0.0
 71
     0
 42
12.8
  3
txt.shx
  4
extfont.shx
  0
STYLE
  2
KANJI19
 70
     0
 40
12.0
 41
0.9
 50
0.0
 71
     0
 42
12.0
  3
txt.shx
  4
extfont.shx
  0
STYLE
  2
KANJI20
 70
     0
 40
12.0
 41
0.9
 50
0.0
 71
     0
 42
12.0
  3
txt.shx
  4
extfont.shx
  0
STYLE
  2
KANJI21
 70
     0
 40
14.0
 41
0.9
 50
0.0
 71
     0
 42
14.0
  3
txt.shx
  4
extfont.shx
  0
STYLE
  2
KANJI22
 70
     0
 40
10.8
 41
0.740740741
 50
0.0
 71
     0
 42
10.8
  3
txt.shx
  4
extfont.shx
  0
STYLE
  2
KANJI23
 70
     0
 40
14.0
 41
0.857142857
 50
0.0
 71
     0
 42
14.0
  3
txt.shx
  4
extfont.shx
  0
STYLE
  2
KANJI24
 70
     0
 40
13.182
 41
0.85
 50
0.0
 71
     0
 42
13.182
  3
txt.shx
  4
extfont.shx
  0
STYLE
  2
KANJI25
 70
     0
 40
11.661
 41
0.822608696
 50
0.0
 71
     0
 42
11.661
  3
txt.shx
  4
extfont.shx
  0
STYLE
  2
KANJI26
 70
     0
 40
11.8638
 41
0.726495726
 50
0.0
 71
     0
 42
11.8638
  3
txt.shx
  4
extfont.shx
  0
STYLE
  2
KANJI27
 70
     4
 40
45.0
 41
0.538166667
 50
0.0
 71
     0
 42
45.0
  3
txt.shx
  4
extfont.shx
  0
STYLE
  2
KANJI28
 70
     0
 40
25.0
 41
0.8
 50
0.0
 71
     0
 42
25.0
  3
txt.shx
  4
extfont.shx
  0
STYLE
  2
KANJI29
 70
     0
 40
17.5
 41
0.793650794
 50
0.0
 71
     0
 42
17.5
  3
txt.shx
  4
extfont.shx
  0
STYLE
  2
KANJI30
 70
     0
 40
12.0
 41
0.833333333
 50
0.0
 71
     0
 42
12.0
  3
txt.shx
  4
extfont.shx
  0
STYLE
  2
KANJI31
 70
     0
 40
11.55
 41
0.9
 50
0.0
 71
     0
 42
11.55
  3
txt.shx
  4
extfont.shx
  0
STYLE
  2
KANJI32
 70
     0
 40
17.740702234
 41
0.880962996
 50
0.0
 71
     0
 42
17.740702234
  3
txt.shx
  4
extfont.shx
  0
STYLE
  2
KANJI33
 70
     0
 40
11.7
 41
0.8
 50
0.0
 71
     0
 42
11.7
  3
txt.shx
  4
extfont.shx
  0
STYLE
  2
KANJI34
 70
     0
 40
15.0
 41
0.911
 50
0.0
 71
     0
 42
15.0
  3
txt.shx
  4
extfont.shx
  0
STYLE
  2
KANJI35
 70
     0
 40
13.475
 41
0.9
 50
0.0
 71
     0
 42
13.475
  3
txt.shx
  4
extfont.shx
  0
STYLE
  2
KANJI36
 70
     0
 40
10.933904043
 41
0.9
 50
0.0
 71
     0
 42
10.933904043
  3
txt.shx
  4
extfont.shx
  0
STYLE
  2
KANJI37
 70
     0
 40
15.185977837
 41
0.66671875
 50
0.0
 71
     0
 42
15.185977837
  3
txt.shx
  4
extfont.shx
  0
STYLE
  2
KANJI38
 70
     0
 40
18.223173404
 41
0.9
 50
0.0
 71
     0
 42
18.223173404
  3
txt.shx
  4
extfont.shx
  0
STYLE
  2
KANJI39
 70
     0
 40
15.6
 41
0.925
 50
0.0
 71
     0
 42
15.6
  3
txt.shx
  4
extfont.shx
  0
STYLE
  2
KANJI40
 70
     0
 40
14.578538724
 41
0.9
 50
0.0
 71
     0
 42
14.578538724
  3
txt.shx
  4
extfont.shx
  0
STYLE
  2
KANJI41
 70
     0
 40
14.0
 41
0.771428571
 50
0.0
 71
     0
 42
14.0
  3
txt.shx
  4
extfont.shx
  0
STYLE
  2
KANJI42
 70
     0
 40
15.0
 41
0.9
 50
0.0
 71
     0
 42
15.0
  3
txt.shx
  4
extfont.shx
  0
STYLE
  2
KANJI43
 70
     0
 40
20.0
 41
0.925
 50
0.0
 71
     0
 42
20.0
  3
txt.shx
  4
extfont.shx
  0
STYLE
  2
KANJI44
 70
     0
 40
20.0
 41
0.925
 50
0.0
 71
     0
 42
20.0
  3
txt.shx
  4
extfont.shx
  0
STYLE
  2
KANJI45
 70
     0
 40
8.333333333
 41
0.85
 50
0.0
 71
     0
 42
8.333333333
  3
txt.shx
  4
extfont.shx
  0
STYLE
  2
KANJI46
 70
     0
 40
8.333333333
 41
0.75
 50
0.0
 71
     0
 42
8.333333333
  3
txt.shx
  4
extfont.shx
  0
STYLE
  2
KANJI47
 70
     0
 40
12.5
 41
0.9
 50
0.0
 71
     0
 42
12.5
  3
txt.shx
  4
extfont.shx
  0
STYLE
  2
KANJI48
 70
     0
 40
15.0
 41
0.9
 50
0.0
 71
     0
 42
15.0
  3
txt.shx
  4
extfont.shx
  0
STYLE
  2
KANJI49
 70
     0
 40
8.4
 41
0.9
 50
0.0
 71
     0
 42
8.4
  3
txt.shx
  4
extfont.shx
  0
STYLE
  2
KANJI50
 70
     0
 40
16.0
 41
0.925
 50
0.0
 71
     0
 42
16.0
  3
txt.shx
  4
extfont.shx
  0
STYLE
  2
KANJI51
 70
     0
 40
17.5
 41
0.9
 50
0.0
 71
     0
 42
17.5
  3
txt.shx
  4
extfont.shx
  0
STYLE
  2
KANJI52
 70
     0
 40
17.5
 41
0.9
 50
0.0
 71
     0
 42
17.5
  3
txt.shx
  4
extfont.shx
  0
STYLE
  2
KANJI53
 70
     0
 40
17.5
 41
0.9
 50
0.0
 71
     0
 42
17.5
  3
txt.shx
  4
extfont.shx
  0
STYLE
  2
KANJI54
 70
     0
 40
17.5
 41
0.9
 50
0.0
 71
     0
 42
17.5
  3
txt.shx
  4
extfont.shx
  0
STYLE
  2
KANJI55
 70
     0
 40
22.5
 41
0.9
 50
0.0
 71
     0
 42
22.5
  3
txt.shx
  4
extfont.shx
  0
STYLE
  2
KANJI56
 70
     0
 40
17.5
 41
0.9
 50
0.0
 71
     0
 42
17.5
  3
txt.shx
  4
extfont.shx
  0
STYLE
  2
KANJI57
 70
     0
 40
17.5
 41
0.9
 50
0.0
 71
     0
 42
17.5
  3
txt.shx
  4
extfont.shx
  0
STYLE
  2
KANJI58
 70
     0
 40
17.5
 41
0.9
 50
0.0
 71
     0
 42
17.5
  3
txt.shx
  4
extfont.shx
  0
STYLE
  2
KANJI59
 70
     0
 40
17.5
 41
0.9
 50
0.0
 71
     0
 42
17.5
  3
txt.shx
  4
extfont.shx
  0
STYLE
  2
KANJI60
 70
     0
 40
17.5
 41
0.9
 50
0.0
 71
     0
 42
17.5
  3
txt.shx
  4
extfont.shx
  0
STYLE
  2
KANJI61
 70
     4
 40
17.5
 41
0.9
 50
0.0
 71
     0
 42
17.5
  3
txt.shx
  4
extfont.shx
  0
STYLE
  2
KANJI62
 70
     4
 40
15.0
 41
0.9
 50
0.0
 71
     0
 42
15.0
  3
txt.shx
  4
extfont.shx
  0
STYLE
  2
KANJI63
 70
     0
 40
12.5
 41
0.8
 50
0.0
 71
     0
 42
12.5
  3
txt.shx
  4
extfont.shx
  0
STYLE
  2
KANJI64
 70
     0
 40
17.5
 41
0.9
 50
0.0
 71
     0
 42
17.5
  3
txt.shx
  4
extfont.shx
  0
STYLE
  2
KANJI65
 70
     0
 40
15.0
 41
0.9
 50
0.0
 71
     0
 42
15.0
  3
txt.shx
  4
extfont.shx
  0
STYLE
  2
KANJI66
 70
     0
 40
15.0
 41
0.857142857
 50
0.0
 71
     0
 42
15.0
  3
txt.shx
  4
extfont.shx
  0
STYLE
  2
KANJI67
 70
     0
 40
17.5
 41
0.9
 50
0.0
 71
     0
 42
17.5
  3
txt.shx
  4
extfont.shx
  0
STYLE
  2
KANJI68
 70
     0
 40
14.0
 41
0.9
 50
0.0
 71
     0
 42
14.0
  3
txt.shx
  4
extfont.shx
  0
STYLE
  2
KANJI69
 70
     0
 40
14.0
 41
0.785714286
 50
0.0
 71
     0
 42
14.0
  3
txt.shx
  4
extfont.shx
  0
STYLE
  2
KANJI70
 70
     0
 40
14.0
 41
0.8
 50
0.0
 71
     0
 42
14.0
  3
txt.shx
  4
extfont.shx
  0
STYLE
  2
KANJI71
 70
     0
 40
17.5
 41
0.9
 50
0.0
 71
     0
 42
17.5
  3
txt.shx
  4
extfont.shx
  0
STYLE
  2
KANJI72
 70
     0
 40
15.0
 41
0.8
 50
0.0
 71
     0
 42
15.0
  3
txt.shx
  4
extfont.shx
  0
STYLE
  2
KANJI73
 70
     0
 40
15.0
 41
0.9
 50
0.0
 71
     0
 42
15.0
  3
txt.shx
  4
extfont.shx
  0
STYLE
  2
KANJI74
 70
     0
 40
17.5
 41
0.9
 50
0.0
 71
     0
 42
17.5
  3
txt.shx
  4
extfont.shx
  0
STYLE
  2
KANJI75
 70
     0
 40
15.0
 41
0.833333333
 50
0.0
 71
     0
 42
15.0
  3
txt.shx
  4
extfont.shx
  0
STYLE
  2
KANJI76
 70
     0
 40
15.0
 41
0.833333333
 50
0.0
 71
     0
 42
15.0
  3
txt.shx
  4
extfont.shx
  0
STYLE
  2
KANJI77
 70
     0
 40
17.5
 41
0.9
 50
0.0
 71
     0
 42
17.5
  3
txt.shx
  4
extfont.shx
  0
STYLE
  2
KANJI78
 70
     0
 40
20.0
 41
0.9
 50
0.0
 71
     0
 42
20.0
  3
txt.shx
  4
extfont.shx
  0
STYLE
  2
KANJI79
 70
     0
 40
17.5
 41
0.857142857
 50
0.0
 71
     0
 42
17.5
  3
txt.shx
  4
extfont.shx
  0
STYLE
  2
KANJI80
 70
     0
 40
17.5
 41
0.571428571
 50
0.0
 71
     0
 42
17.5
  3
txt.shx
  4
extfont.shx
  0
ENDTAB
  0
TABLE
  2
VIEW
 70
     0
  0
ENDTAB
  0
ENDSEC
  0
SECTION
  2
BLOCKS
  0
ENDSEC
  0
SECTION
  2
ENTITIES
  0
LINE
  8
0
  6
CONTINUOUS
 62
     6
 10
77.25
 20
57.0
 30
0.0
 11
77.25
 21
1402.0
 31
0.0
  0
LINE
  8
0
  6
CONTINUOUS
 62
     6
 10
77.25
 20
1402.0
 30
0.0
 11
2012.25
 21
1402.0
 31
0.0
  0
TEXT
  8
0
  6
CONTINUOUS
 62
     4
 10
92.249996846
 20
81.999994744
 30
0.99999979
 40
9.999997897
  1
ＰＡＲＴＳ　ＬＩＳＴ
 50
0.0
 41
0.6
 51
0.0
  7
KANJI0
  0
TEXT
  8
0
  6
CONTINUOUS
 62
     4
 10
92.249996846
 20
66.999997897
 30
1.199999748
 40
11.999997477
  1
部品表
 50
0.0
 41
0.9
 51
0.0
  7
KANJI1
  0
LINE
  8
0
  6
CONTINUOUS
 62
     6
 10
2012.25
 20
57.0
 30
0.0
 11
77.25
 21
57.0
 31
0.0
  0
LINE
  8
0
  6
CONTINUOUS
 62
     6
 10
82.249998949
 20
131.999984231
 30
0.0
 11
407.249930615
 21
131.999984231
 31
0.0
  0
LINE
  8
0
  6
CONTINUOUS
 62
     6
 10
82.249998949
 20
61.999998949
 30
0.0
 11
407.249930615
 21
61.999998949
 31
0.0
  0
LINE
  8
0
  6
CONTINUOUS
 62
     6
 10
82.249998949
 20
61.999998949
 30
0.0
 11
82.249998949
 21
131.999984231
 31
0.0
  0
LINE
  8
0
  6
CONTINUOUS
 62
     6
 10
82.249998949
 20
96.99999159
 30
0.0
 11
407.249930615
 21
96.99999159
 31
0.0
  0
TEXT
  8
0
  6
CONTINUOUS
 62
     2
 10
92.249996846
 20
106.999989487
 30
1.499999685
 40
14.999996846
  1
ＰＬ
 50
0.0
 41
0.9
 51
0.0
  7
KANJI2
  0
LINE
  8
0
  6
CONTINUOUS
 62
     4
 10
20.333333
 20
61.333333
 30
0.0
 11
72.333329
 21
61.333333
 31
0.0
  0
LINE
  8
0
  6
CONTINUOUS
 62
     4
 10
20.333333
 20
87.333331
 30
0.0
 11
72.333329
 21
87.333331
 31
0.0
  0
LINE
  8
0
  6
CONTINUOUS
 62
     4
 10
20.333333
 20
113.333329
 30
0.0
 11
72.333329
 21
113.333329
 31
0.0
  0
LINE
  8
0
  6
CONTINUOUS
 62
     4
 10
20.333333
 20
139.333327
 30
0.0
 11
72.333329
 21
139.333327
 31
0.0
  0
LINE
  8
0
  6
CONTINUOUS
 62
     4
 10
20.333333
 20
165.333325
 30
0.0
 11
72.333329
 21
165.333325
 31
0.0
  0
LINE
  8
0
  6
CONTINUOUS
 62
     4
 10
20.333333
 20
191.333323
 30
0.0
 11
72.333329
 21
191.333323
 31
0.0
  0
LINE
  8
0
  6
CONTINUOUS
 62
     4
 10
20.333333
 20
217.333321
 30
0.0
 11
72.333329
 21
217.333321
 31
0.0
  0
LINE
  8
0
  6
CONTINUOUS
 62
     4
 10
20.333333
 20
243.333319
 30
0.0
 11
72.333329
 21
243.333319
 31
0.0
  0
LINE
  8
0
  6
CONTINUOUS
 62
     4
 10
20.333333
 20
269.333317
 30
0.0
 11
72.333329
 21
269.333317
 31
0.0
  0
LINE
  8
0
  6
CONTINUOUS
 62
     4
 10
20.333333
 20
295.333315
 30
0.0
 11
72.333329
 21
295.333315
 31
0.0
  0
LINE
  8
0
  6
CONTINUOUS
 62
     4
 10
72.333329
 20
61.333333
 30
0.0
 11
72.333329
 21
295.333315
 31
0.0
  0
LINE
  8
0
  6
CONTINUOUS
 62
     4
 10
46.333331
 20
61.333333
 30
0.0
 11
46.333331
 21
269.333317
 31
0.0
  0
TEXT
  8
0
  6
CONTINUOUS
 62
     4
 10
29.21666565
 20
68.91666575
 30
1.2999999
 40
12.999999
  1
計
 50
0.0
 41
0.75
 51
0.0
  7
KANJI3
  0
TEXT
  8
0
  6
CONTINUOUS
 62
     4
 10
29.21666565
 20
121.34999505
 30
1.2999999
 40
12.999999
  1
設
 50
0.0
 41
0.75
 51
0.0
  7
KANJI3
  0
TEXT
  8
0
  6
CONTINUOUS
 62
     4
 10
29.21666565
 20
146.91665975
 30
1.2999999
 40
12.999999
  1
管
 50
0.0
 41
0.75
 51
0.0
  7
KANJI3
  0
TEXT
  8
0
  6
CONTINUOUS
 62
     4
 10
29.21666565
 20
172.91665775
 30
1.2999999
 40
12.999999
  1
製
 50
0.0
 41
0.75
 51
0.0
  7
KANJI3
  0
TEXT
  8
0
  6
CONTINUOUS
 62
     4
 10
29.21666565
 20
198.91665575
 30
1.2999999
 40
12.999999
  1
資
 50
0.0
 41
0.75
 51
0.0
  7
KANJI3
  0
TEXT
  8
0
  6
CONTINUOUS
 62
     4
 10
29.21666565
 20
224.91665375
 30
1.2999999
 40
12.999999
  1
営
 50
0.0
 41
0.75
 51
0.0
  7
KANJI3
  0
TEXT
  8
0
  6
CONTINUOUS
 62
     4
 10
29.21666565
 20
250.91665175
 30
1.2999999
 40
12.999999
  1
客
 50
0.0
 41
0.75
 51
0.0
  7
KANJI3
  0
TEXT
  8
0
  6
CONTINUOUS
 62
     4
 10
28.999999
 20
277.999983
 30
1.2999999
 40
12.999999
  1
出　図
 50
0.0
 41
0.75
 51
0.0
  7
KANJI3
  0
LINE
  8
0
  6
CONTINUOUS
 62
     4
 10
20.333333
 20
61.333333
 30
0.0
 11
20.333333
 21
295.333315
 31
0.0
  0
TEXT
  8
0
  6
CONTINUOUS
 62
     4
 10
317.249949538
 20
81.999994744
 30
0.99999979
 40
9.999997897
  1
Ｎ０．
 50
0.0
 41
0.6
 51
0.0
  7
KANJI0
  0
TEXT
  8
0
  6
CONTINUOUS
 62
     4
 10
317.249949538
 20
66.999997897
 30
1.199999748
 40
11.999997477
  1
項番
 50
0.0
 41
0.9
 51
0.0
  7
KANJI1
  0
LINE
  8
0
  6
CONTINUOUS
 62
     6
 10
407.249930615
 20
61.999998949
 30
0.0
 11
407.249930615
 21
131.999984231
 31
0.0
  0
LINE
  8
0
  6
CONTINUOUS
 62
     6
 10
307.249951641
 20
61.999998949
 30
0.0
 11
307.249951641
 21
131.999984231
 31
0.0
  0
LINE
  8
0
  6
CONTINUOUS
 62
     4
 10
1340.583385
 20
95.999997
 30
0.0
 11
1498.7500395
 21
95.999997
 31
0.0
  0
TEXT
  8
0
  6
CONTINUOUS
 62
     4
 10
1349.250051
 20
80.8333315
 30
0.8666666
 40
8.666666
  1
ＳＣＡＬＥ
 50
0.0
 41
0.6
 51
0.0
  7
KANJI4
  0
TEXT
  8
0
  6
CONTINUOUS
 62
     4
 10
1349.250051
 20
115.4999955
 30
0.8666666
 40
8.666666
  1
ＤＡＴＥ
 50
0.0
 41
0.6
 51
0.0
  7
KANJI4
  0
TEXT
  8
0
  6
CONTINUOUS
 62
     4
 10
1349.250051
 20
67.8333325
 30
1.03999992
 40
10.3999992
  1
尺度
 50
0.0
 41
0.6
 51
0.0
  7
KANJI5
  0
TEXT
  8
0
  6
CONTINUOUS
 62
     4
 10
1349.250051
 20
102.4999965
 30
1.03999992
 40
10.3999992
  1
日付
 50
0.0
 41
0.6
 51
0.0
  7
KANJI5
  0
TEXT
  8
0
  6
CONTINUOUS
 62
     4
 10
1108.7500695
 20
80.8333315
 30
0.8666666
 40
8.666666
  1
ＢＹ
 50
0.0
 41
0.6
 51
0.0
  7
KANJI4
  0
TEXT
  8
0
  6
CONTINUOUS
 62
     4
 10
1204.0833955
 20
80.8333315
 30
0.8666666
 40
8.666666
  1
ＤＥＳＣＲＩＰＴＩＯＮ
 50
0.0
 41
0.6
 51
0.0
  7
KANJI4
  0
TEXT
  8
0
  6
CONTINUOUS
 62
     4
 10
1108.7500695
 20
67.8333325
 30
1.03999992
 40
10.3999992
  1
担当
 50
0.0
 41
0.6
 51
0.0
  7
KANJI5
  0
TEXT
  8
0
  6
CONTINUOUS
 62
     4
 10
1217.0833945
 20
67.8333325
 30
1.03999992
 40
10.3999992
  1
記　　　　事
 50
0.0
 41
0.6
 51
0.0
  7
KANJI5
  0
LINE
  8
0
  6
CONTINUOUS
 62
     4
 10
1016.66674325
 20
89.4999975
 30
0.0
 11
1002.583411
 21
67.8333325
 31
0.0
  0
TEXT
  8
0
  6
CONTINUOUS
 62
     4
 10
1052.4167405
 20
80.8333315
 30
0.8666666
 40
8.666666
  1
ＤＡＴＥ
 50
0.0
 41
0.6
 51
0.0
  7
KANJI4
  0
TEXT
  8
0
  6
CONTINUOUS
 62
     4
 10
1058.91674
 20
67.8333325
 30
1.03999992
 40
10.3999992
  1
日付
 50
0.0
 41
0.6
 51
0.0
  7
KANJI5
  0
LINE
  8
0
  6
CONTINUOUS
 62
     4
 10
1002.583411
 20
67.8333325
 30
0.0
 11
1030.7500755
 21
67.8333325
 31
0.0
  0
LINE
  8
0
  6
CONTINUOUS
 62
     4
 10
1016.66674325
 20
89.4999975
 30
0.0
 11
1030.7500755
 21
67.8333325
 31
0.0
  0
LINE
  8
0
  6
CONTINUOUS
 62
     4
 10
1498.7500395
 20
115.4999955
 30
0.0
 11
2007.916667
 21
115.4999955
 31
0.0
  0
LINE
  8
0
  6
LTYPE1
 62
     4
 10
1862.7500115
 20
121.999995
 30
0.0
 11
1862.7500115
 21
156.666659
 31
0.0
  0
LINE
  8
0
  6
LTYPE1
 62
     4
 10
1832.4166805
 20
121.999995
 30
0.0
 11
1832.4166805
 21
156.666659
 31
0.0
  0
LINE
  8
0
  6
LTYPE1
 62
     4
 10
1802.0833495
 20
121.999995
 30
0.0
 11
1802.0833495
 21
156.666659
 31
0.0
  0
LINE
  8
0
  6
LTYPE1
 62
     4
 10
1771.7500185
 20
121.999995
 30
0.0
 11
1771.7500185
 21
156.666659
 31
0.0
  0
LINE
  8
0
  6
LTYPE1
 62
     4
 10
1741.4166875
 20
121.999995
 30
0.0
 11
1741.4166875
 21
156.666659
 31
0.0
  0
LINE
  8
0
  6
LTYPE1
 62
     4
 10
1711.0833565
 20
121.999995
 30
0.0
 11
1711.0833565
 21
156.666659
 31
0.0
  0
LINE
  8
0
  6
LTYPE1
 62
     4
 10
1680.7500255
 20
121.999995
 30
0.0
 11
1680.7500255
 21
156.666659
 31
0.0
  0
LINE
  8
0
  6
LTYPE1
 62
     4
 10
1650.4166945
 20
121.999995
 30
0.0
 11
1650.4166945
 21
156.666659
 31
0.0
  0
LINE
  8
0
  6
LTYPE1
 62
     4
 10
1650.4166945
 20
121.999995
 30
0.0
 11
1862.7500115
 21
121.999995
 31
0.0
  0
LINE
  8
0
  6
CONTINUOUS
 62
     6
 10
2012.25
 20
1402.0
 30
0.0
 11
2012.25
 21
57.0
 31
0.0
  0
LINE
  8
0
  6
CONTINUOUS
 62
     6
 10
998.250078
 20
95.999997
 30
0.0
 11
1340.583385
 21
95.999997
 31
0.0
  0
LINE
  8
0
  6
CONTINUOUS
 62
     6
 10
998.250078
 20
61.333333
 30
0.0
 11
2007.916667
 21
61.333333
 31
0.0
  0
TEXT
  8
0
  6
CONTINUOUS
 62
     6
 10
1503.0833725
 20
80.8333315
 30
0.0
 40
15.1666655
  1
ＵＮＩＴＥＣ　ＩＮＤＵＳＴＲＹ　ＣＯ．，ＬＴＤ．
 50
0.0
 41
0.42031746
 51
0.0
  7
KANJI6
  0
TEXT
  8
0
  6
CONTINUOUS
 62
     6
 10
1715.795856138
 20
75.1999986
 30
2.5999998
 40
25.999998
  1
ユニテック工業株式会社
 50
0.0
 41
0.9
 51
0.0
  7
KANJI7
  0
LINE
  8
0
  6
CONTINUOUS
 62
     6
 10
998.250078
 20
61.333333
 30
0.0
 11
998.250078
 21
95.999997
 31
0.0
  0
LINE
  8
0
  6
CONTINUOUS
 62
     4
 10
1035.0834085
 20
61.333333
 30
0.0
 11
1035.0834085
 21
95.999997
 31
0.0
  0
LINE
  8
0
  6
CONTINUOUS
 62
     4
 10
1095.7500705
 20
61.333333
 30
0.0
 11
1095.7500705
 21
95.999997
 31
0.0
  0
LINE
  8
0
  6
CONTINUOUS
 62
     4
 10
1134.7500675
 20
61.333333
 30
0.0
 11
1134.7500675
 21
95.999997
 31
0.0
  0
LINE
  8
0
  6
CONTINUOUS
 62
     6
 10
1340.583385
 20
61.333333
 30
0.0
 11
1340.583385
 21
338.666645
 31
0.0
  0
LINE
  8
0
  6
CONTINUOUS
 62
     6
 10
2007.916667
 20
61.333333
 30
0.0
 11
2007.916667
 21
338.666645
 31
0.0
  0
LINE
  8
0
  6
CONTINUOUS
 62
     4
 10
1498.7500395
 20
61.333333
 30
0.0
 11
1498.7500395
 21
338.666645
 31
0.0
  0
LINE
  8
0
  6
CONTINUOUS
 62
     6
 10
1681.129192138
 20
84.2999979
 30
0.0
 11
1669.689193018
 21
84.2999979
 31
0.0
  0
LINE
  8
0
  6
CONTINUOUS
 62
     6
 10
1681.129192138
 20
86.37999774
 30
0.0
 11
1669.689193018
 21
86.37999774
 31
0.0
  0
LINE
  8
0
  6
CONTINUOUS
 62
     6
 10
1681.129192138
 20
84.2999979
 30
0.0
 11
1692.569191258
 21
84.2999979
 31
0.0
  0
LINE
  8
0
  6
CONTINUOUS
 62
     6
 10
1681.129192138
 20
86.37999774
 30
0.0
 11
1692.569191258
 21
86.37999774
 31
0.0
  0
LINE
  8
0
  6
CONTINUOUS
 62
     6
 10
1692.569191258
 20
86.37999774
 30
0.0
 11
1692.569191258
 21
84.2999979
 31
0.0
  0
ARC
  8
0
  6
CONTINUOUS
 62
     6
 10
1695.169191058
 20
85.33999782
 30
0.0
 40
10.3999992
 50
185.739170477
 51
90.0
  0
ARC
  8
0
  6
CONTINUOUS
 62
     6
 10
1695.169191058
 20
85.33999782
 30
0.0
 40
12.47999904
 50
184.780191847
 51
90.0
  0
LINE
  8
0
  6
CONTINUOUS
 62
     6
 10
1669.689193018
 20
84.2999979
 30
0.0
 11
1669.689193018
 21
86.37999774
 31
0.0
  0
LINE
  8
0
  6
CONTINUOUS
 62
     6
 10
1679.569192258
 20
97.81999686
 30
0.0
 11
1667.089193218
 21
97.81999686
 31
0.0
  0
LINE
  8
0
  6
CONTINUOUS
 62
     6
 10
1682.689192018
 20
97.81999686
 30
0.0
 11
1695.169191058
 21
97.81999686
 31
0.0
  0
ARC
  8
0
  6
CONTINUOUS
 62
     6
 10
1667.089193218
 20
85.33999782
 30
0.0
 40
10.3999992
 50
90.0
 51
354.260829523
  0
ARC
  8
0
  6
CONTINUOUS
 62
     6
 10
1667.089193218
 20
85.33999782
 30
0.0
 40
12.47999904
 50
90.0
 51
355.219808153
  0
LINE
  8
0
  6
CONTINUOUS
 62
     6
 10
1679.569192258
 20
97.81999686
 30
0.0
 11
1679.569192258
 21
95.73999702
 31
0.0
  0
LINE
  8
0
  6
CONTINUOUS
 62
     6
 10
1667.089193218
 20
95.73999702
 30
0.0
 11
1679.569192258
 21
95.73999702
 31
0.0
  0
LINE
  8
0
  6
CONTINUOUS
 62
     6
 10
1682.689192018
 20
97.81999686
 30
0.0
 11
1682.689192018
 21
95.73999702
 31
0.0
  0
LINE
  8
0
  6
CONTINUOUS
 62
     6
 10
1695.169191058
 20
95.73999702
 30
0.0
 11
1682.689192018
 21
95.73999702
 31
0.0
  0
TEXT
  8
0
  6
CONTINUOUS
 62
     4
 10
1349.250051
 20
150.1666595
 30
0.8666666
 40
8.666666
  1
ＤＲＡＷＮ
 50
0.0
 41
0.6
 51
0.0
  7
KANJI4
  0
TEXT
  8
0
  6
CONTINUOUS
 62
     4
 10
1349.250051
 20
184.8333235
 30
0.8666666
 40
8.666666
  1
ＤＥＳＩＧＮ
 50
0.0
 41
0.6
 51
0.0
  7
KANJI4
  0
TEXT
  8
0
  6
CONTINUOUS
 62
     4
 10
1349.250051
 20
219.4999875
 30
0.8666666
 40
8.666666
  1
ＣＨＥＣＫ
 50
0.0
 41
0.6
 51
0.0
  7
KANJI4
  0
TEXT
  8
0
  6
CONTINUOUS
 62
     4
 10
1349.250051
 20
254.1666515
 30
0.8666666
 40
8.666666
  1
ＣＯＤＥ
 50
0.0
 41
0.6
 51
0.0
  7
KANJI4
  0
LINE
  8
0
  6
CONTINUOUS
 62
     4
 10
1340.583385
 20
199.999989
 30
0.0
 11
1498.7500395
 21
199.999989
 31
0.0
  0
LINE
  8
0
  6
CONTINUOUS
 62
     4
 10
1340.583385
 20
165.333325
 30
0.0
 11
1498.7500395
 21
165.333325
 31
0.0
  0
LINE
  8
0
  6
CONTINUOUS
 62
     4
 10
1340.583385
 20
234.666653
 30
0.0
 11
1498.7500395
 21
234.666653
 31
0.0
  0
LINE
  8
0
  6
CONTINUOUS
 62
     4
 10
1340.583385
 20
269.333317
 30
0.0
 11
2007.916667
 21
269.333317
 31
0.0
  0
TEXT
  8
0
  6
CONTINUOUS
 62
     4
 10
1349.250051
 20
171.8333245
 30
1.03999992
 40
10.3999992
  1
設計
 50
0.0
 41
0.6
 51
0.0
  7
KANJI5
  0
TEXT
  8
0
  6
CONTINUOUS
 62
     4
 10
1349.250051
 20
206.4999885
 30
1.03999992
 40
10.3999992
  1
検図
 50
0.0
 41
0.6
 51
0.0
  7
KANJI5
  0
TEXT
  8
0
  6
CONTINUOUS
 62
     4
 10
1349.250051
 20
241.1666525
 30
1.03999992
 40
10.3999992
  1
分類
 50
0.0
 41
0.6
 51
0.0
  7
KANJI5
  0
LINE
  8
0
  6
CONTINUOUS
 62
     4
 10
1511.53337185
 20
234.666653
 30
0.0
 11
2007.916667
 21
234.666653
 31
0.0
  0
LINE
  8
0
  6
CONTINUOUS
 62
     4
 10
1498.7500395
 20
165.333325
 30
0.0
 11
2007.916667
 21
165.333325
 31
0.0
  0
TEXT
  8
0
  6
CONTINUOUS
 62
     4
 10
1507.4167055
 20
150.1666595
 30
0.8666666
 40
8.666666
  1
ＤＲＡＷＩＮＧ　ＮＯ．
 50
0.0
 41
0.8
 51
0.0
  7
KANJI8
  0
TEXT
  8
0
  6
CONTINUOUS
 62
     4
 10
1507.4167055
 20
184.8333235
 30
0.8666666
 40
8.666666
  1
ＭＦＧ　ＮＯ．
 50
0.0
 41
0.8
 51
0.0
  7
KANJI8
  0
TEXT
  8
0
  6
CONTINUOUS
 62
     4
 10
1507.4167055
 20
219.4999875
 30
0.8666666
 40
8.666666
  1
ＴＹＰＥ
 50
0.0
 41
0.8
 51
0.0
  7
KANJI8
  0
LINE
  8
0
  6
CONTINUOUS
 62
     4
 10
1511.7500385
 20
199.999989
 30
0.0
 11
1711.0833565
 21
199.999989
 31
0.0
  0
TEXT
  8
0
  6
CONTINUOUS
 62
     4
 10
1507.4167055
 20
134.999994
 30
1.03999992
 40
10.3999992
  1
図　面　番　号
 50
0.0
 41
0.8
 51
0.0
  7
KANJI9
  0
TEXT
  8
0
  6
CONTINUOUS
 62
     4
 10
1507.4167055
 20
169.666658
 30
1.03999992
 40
10.3999992
  1
製番
 50
0.0
 41
0.8
 51
0.0
  7
KANJI9
  0
TEXT
  8
0
  6
CONTINUOUS
 62
     4
 10
1507.4167055
 20
204.333322
 30
1.03999992
 40
10.3999992
  1
機種
 50
0.0
 41
0.8
 51
0.0
  7
KANJI9
  0
LINE
  8
0
  6
CONTINUOUS
 62
     4
 10
1340.583385
 20
130.666661
 30
0.0
 11
1498.7500395
 21
130.666661
 31
0.0
  0
TEXT
  8
0
  6
CONTINUOUS
 62
     4
 10
1349.250051
 20
137.1666605
 30
1.03999992
 40
10.3999992
  1
作図
 50
0.0
 41
0.6
 51
0.0
  7
KANJI5
  0
LINE
  8
0
  6
LTYPE1
 62
     4
 10
1650.4166945
 20
156.666659
 30
0.0
 11
1862.7500115
 21
156.666659
 31
0.0
  0
LINE
  8
0
  6
CONTINUOUS
 62
     4
 10
1880.0833435
 20
140.41666025
 30
0.0
 11
1888.7500095
 21
140.41666025
 31
0.0
  0
LINE
  8
0
  6
CONTINUOUS
 62
     4
 10
1934.250006
 20
127.41666125
 30
0.0
 11
1903.916675
 21
127.41666125
 31
0.0
  0
LINE
  8
0
  6
CONTINUOUS
 62
     4
 10
1903.916675
 20
127.41666125
 30
0.0
 11
1919.0833405
 21
153.41665925
 31
0.0
  0
LINE
  8
0
  6
CONTINUOUS
 62
     4
 10
1919.0833405
 20
153.41665925
 30
0.0
 11
1934.250006
 21
127.41666125
 31
0.0
  0
LINE
  8
0
  6
CONTINUOUS
 62
     4
 10
2007.916667
 20
303.999981
 30
0.0
 11
2007.916667
 21
338.666645
 31
0.0
  0
TEXT
  8
0
  6
CONTINUOUS
 62
     4
 10
1724.0833555
 20
219.4999875
 30
0.8666666
 40
8.666666
  1
ＴＩＴＬＥ
 50
0.0
 41
0.8
 51
0.0
  7
KANJI8
  0
TEXT
  8
0
  6
CONTINUOUS
 62
     4
 10
1724.0833555
 20
204.333322
 30
1.03999992
 40
10.3999992
  1
名称
 50
0.0
 41
0.8
 51
0.0
  7
KANJI9
  0
TEXT
  8
0
  6
CONTINUOUS
 62
     2
 10
1794.75
 20
172.0
 30
12.5
 40
25.0
  1
外形寸法図
 50
0.0
 41
1.0
 51
0.0
  7
KANJI10
  0
TEXT
  8
0
  6
CONTINUOUS
 62
     2
 10
1764.75
 20
202.0
 30
3.571428571
 40
25.0
  1
マイティシリンダ
 50
0.0
 41
1.0
 51
0.0
  7
KANJI11
  0
TEXT
  8
0
  6
CONTINUOUS
 62
     2
 10
1624.1666945
 20
126.999995
 30
1.5
 40
25.0
  1
Ａ
 50
0.0
 41
0.8
 51
0.0
  7
KANJI12
  0
CIRCLE
  8
0
  6
CONTINUOUS
 62
     2
 10
1591.6666945
 20
180.749995
 30
0.0
 40
12.5
  0
TEXT
  8
0
  6
CONTINUOUS
 62
     2
 10
1582.2916945
 20
171.374995
 30
1.5
 40
20.0
  1
Ｓ
 50
0.0
 41
1.0
 51
0.0
  7
KANJI13
  0
LINE
  8
0
  6
CONTINUOUS
 62
     6
 10
1341.208385
 20
303.999981
 30
0.0
 11
2008.541667
 21
303.999981
 31
0.0
  0
LINE
  8
0
  6
CONTINUOUS
 62
     6
 10
1340.583385
 20
338.666645
 30
0.0
 11
2007.916667
 21
338.666645
 31
0.0
  0
TEXT
  8
0
  6
CONTINUOUS
 62
     4
 10
1356.0
 20
309.166664
 30
5.0
 40
18.0
  1
ご用途
 50
0.0
 41
1.111111111
 51
0.0
  7
KANJI14
  0
TEXT
  8
0
  6
CONTINUOUS
 62
     4
 10
1356.0
 20
274.5
 30
5.0
 40
18.0
  1
ご注文主
 50
0.0
 41
1.111111111
 51
0.0
  7
KANJI14
  0
TEXT
  8
0
  6
CONTINUOUS
 62
     2
 10
1396.4166945
 20
139.499995
 30
5.0
 40
17.5
  1
岡田
 50
0.0
 41
0.857142857
 51
0.0
  7
KANJI15
  0
TEXT
  8
0
  6
CONTINUOUS
 62
     2
 10
1432.25
 20
67.0
 30
1.5
 40
22.5
  1
１／５
 50
0.0
 41
0.666666667
 51
0.0
  7
KANJI16
  0
TEXT
  8
0
  6
CONTINUOUS
 62
     2
 10
134.75
 20
24.5
 30
1.5
 40
15.0
  1
ＦＤ　Ｎｏ．ＭＣ１８５
 50
0.0
 41
1.0
 51
0.0
  7
KANJI17
  0
LINE
  8
0
  6
CONTINUOUS
 62
     1
 10
858.25
 20
1239.95
 30
0.0
 11
1506.25
 21
1239.95
 31
0.0
  0
LINE
  8
0
  6
CONTINUOUS
 62
     1
 10
858.25
 20
1211.95
 30
0.0
 11
1506.25
 21
1211.95
 31
0.0
  0
TEXT
  8
0
  6
CONTINUOUS
 62
     2
 10
898.25
 20
1219.95
 30
1.28
 40
12.8
  1
形
 50
0.0
 41
0.9
 51
0.0
  7
KANJI18
  0
TEXT
  8
0
  6
CONTINUOUS
 62
     2
 10
976.25
 20
1219.95
 30
1.28
 40
12.8
  1
式
 50
0.0
 41
0.9
 51
0.0
  7
KANJI18
  0
TEXT
  8
0
  6
CONTINUOUS
 62
     2
 10
1036.65
 20
1219.15
 30
1.2
 40
12.0
  1
ストローク
 50
0.0
 41
0.9
 51
0.0
  7
KANJI19
  0
TEXT
  8
0
  6
CONTINUOUS
 62
     2
 10
1113.45
 20
1218.35
 30
0.0
 40
12.0
  1
ｍｉｎ　
 50
0.0
 41
0.9
 51
0.0
  7
KANJI20
  0
TEXT
  8
0
  6
CONTINUOUS
 62
     2
 10
1193.45
 20
1218.35
 30
0.0
 40
12.0
  1
ｍｉｎ　
 50
0.0
 41
0.9
 51
0.0
  7
KANJI20
  0
TEXT
  8
0
  6
CONTINUOUS
 62
     2
 10
1353.45
 20
1218.35
 30
0.0
 40
12.0
  1
ｍｉｎ　
 50
0.0
 41
0.9
 51
0.0
  7
KANJI20
  0
TEXT
  8
0
  6
CONTINUOUS
 62
     2
 10
1154.25
 20
1219.15
 30
1.4
 40
14.0
  1
ＡＬ
 50
0.0
 41
0.9
 51
0.0
  7
KANJI21
  0
TEXT
  8
0
  6
CONTINUOUS
 62
     2
 10
1234.25
 20
1219.15
 30
1.4
 40
14.0
  1
Ｌ
 50
0.0
 41
0.9
 51
0.0
  7
KANJI21
  0
TEXT
  8
0
  6
CONTINUOUS
 62
     2
 10
1302.25
 20
1219.15
 30
1.4
 40
14.0
  1
Ｃ
 50
0.0
 41
0.9
 51
0.0
  7
KANJI21
  0
TEXT
  8
0
  6
CONTINUOUS
 62
     2
 10
1394.25
 20
1219.15
 30
1.4
 40
14.0
  1
Ｐ
 50
0.0
 41
0.9
 51
0.0
  7
KANJI21
  0
TEXT
  8
0
  6
CONTINUOUS
 62
     2
 10
1476.55
 20
1218.85
 30
0.0
 40
10.8
  1
（ｋｇ）
 50
0.0
 41
0.740740741
 51
0.0
  7
KANJI22
  0
TEXT
  8
0
  6
CONTINUOUS
 62
     2
 10
1428.55
 20
1218.65
 30
1.2
 40
14.0
  1
概算重量
 50
0.0
 41
0.857142857
 51
0.0
  7
KANJI23
  0
TEXT
  8
0
  6
CONTINUOUS
 62
     2
 10
1044.25
 20
1190.65
 30
1.2
 40
12.0
  1
　１００
 50
0.0
 41
0.9
 51
0.0
  7
KANJI19
  0
TEXT
  8
0
  6
CONTINUOUS
 62
     2
 10
1044.25
 20
1162.65
 30
1.2
 40
12.0
  1
　２００
 50
0.0
 41
0.9
 51
0.0
  7
KANJI19
  0
TEXT
  8
0
  6
CONTINUOUS
 62
     2
 10
1044.25
 20
1134.65
 30
1.2
 40
12.0
  1
　３００
 50
0.0
 41
0.9
 51
0.0
  7
KANJI19
  0
TEXT
  8
0
  6
CONTINUOUS
 62
     2
 10
1204.25
 20
1134.65
 30
1.2
 40
12.0
  1
　５０８
 50
0.0
 41
0.9
 51
0.0
  7
KANJI19
  0
TEXT
  8
0
  6
CONTINUOUS
 62
     2
 10
1204.25
 20
1162.65
 30
1.2
 40
12.0
  1
　４０８
 50
0.0
 41
0.9
 51
0.0
  7
KANJI19
  0
TEXT
  8
0
  6
CONTINUOUS
 62
     2
 10
1284.25
 20
1190.65
 30
1.2
 40
12.0
  1
　２３８
 50
0.0
 41
0.9
 51
0.0
  7
KANJI19
  0
TEXT
  8
0
  6
CONTINUOUS
 62
     2
 10
1284.25
 20
1162.65
 30
1.2
 40
12.0
  1
　３３８
 50
0.0
 41
0.9
 51
0.0
  7
KANJI19
  0
TEXT
  8
0
  6
CONTINUOUS
 62
     2
 10
1284.25
 20
1134.65
 30
1.2
 40
12.0
  1
　４３８
 50
0.0
 41
0.9
 51
0.0
  7
KANJI19
  0
TEXT
  8
0
  6
CONTINUOUS
 62
     2
 10
1364.25
 20
1134.65
 30
1.2
 40
12.0
  1
　　３５
 50
0.0
 41
0.9
 51
0.0
  7
KANJI19
  0
TEXT
  8
0
  6
CONTINUOUS
 62
     2
 10
1364.25
 20
1162.65
 30
1.2
 40
12.0
  1
　　３５
 50
0.0
 41
0.9
 51
0.0
  7
KANJI19
  0
TEXT
  8
0
  6
CONTINUOUS
 62
     2
 10
1364.25
 20
1190.65
 30
1.2
 40
12.0
  1
　　３５
 50
0.0
 41
0.9
 51
0.0
  7
KANJI19
  0
TEXT
  8
0
  6
CONTINUOUS
 62
     2
 10
1044.25
 20
1022.65
 30
1.2
 40
12.0
  1
　７００
 50
0.0
 41
0.9
 51
0.0
  7
KANJI19
  0
TEXT
  8
0
  6
CONTINUOUS
 62
     2
 10
1284.25
 20
1022.65
 30
1.2
 40
12.0
  1
　８７８
 50
0.0
 41
0.9
 51
0.0
  7
KANJI19
  0
TEXT
  8
0
  6
CONTINUOUS
 62
     2
 10
1044.25
 20
1078.65
 30
1.2
 40
12.0
  1
　５００
 50
0.0
 41
0.9
 51
0.0
  7
KANJI19
  0
TEXT
  8
0
  6
CONTINUOUS
 62
     2
 10
1284.25
 20
1078.65
 30
1.2
 40
12.0
  1
　６３８
 50
0.0
 41
0.9
 51
0.0
  7
KANJI19
  0
TEXT
  8
0
  6
CONTINUOUS
 62
     2
 10
1044.25
 20
1106.65
 30
1.2
 40
12.0
  1
　４００
 50
0.0
 41
0.9
 51
0.0
  7
KANJI19
  0
TEXT
  8
0
  6
CONTINUOUS
 62
     2
 10
1044.25
 20
1050.65
 30
1.2
 40
12.0
  1
　６００
 50
0.0
 41
0.9
 51
0.0
  7
KANJI19
  0
TEXT
  8
0
  6
CONTINUOUS
 62
     2
 10
1284.25
 20
1106.65
 30
1.2
 40
12.0
  1
　５３８
 50
0.0
 41
0.9
 51
0.0
  7
KANJI19
  0
TEXT
  8
0
  6
CONTINUOUS
 62
     2
 10
1284.25
 20
1050.65
 30
1.2
 40
12.0
  1
　７７８
 50
0.0
 41
0.9
 51
0.0
  7
KANJI19
  0
TEXT
  8
0
  6
CONTINUOUS
 62
     2
 10
1204.25
 20
1190.65
 30
1.2
 40
12.0
  1
　３０８
 50
0.0
 41
0.9
 51
0.0
  7
KANJI19
  0
TEXT
  8
0
  6
CONTINUOUS
 62
     2
 10
1364.25
 20
1106.65
 30
1.2
 40
12.0
  1
　　３５
 50
0.0
 41
0.9
 51
0.0
  7
KANJI19
  0
TEXT
  8
0
  6
CONTINUOUS
 62
     2
 10
1364.25
 20
1078.65
 30
1.2
 40
12.0
  1
　　３５
 50
0.0
 41
0.9
 51
0.0
  7
KANJI19
  0
TEXT
  8
0
  6
CONTINUOUS
 62
     2
 10
1364.25
 20
1050.65
 30
1.2
 40
12.0
  1
　　３５
 50
0.0
 41
0.9
 51
0.0
  7
KANJI19
  0
TEXT
  8
0
  6
CONTINUOUS
 62
     2
 10
1364.25
 20
1022.65
 30
1.2
 40
12.0
  1
　　３５
 50
0.0
 41
0.9
 51
0.0
  7
KANJI19
  0
TEXT
  8
0
  6
CONTINUOUS
 62
     2
 10
1204.25
 20
1022.65
 30
1.2
 40
12.0
  1
　９４８
 50
0.0
 41
0.9
 51
0.0
  7
KANJI19
  0
TEXT
  8
0
  6
CONTINUOUS
 62
     2
 10
1204.25
 20
1050.65
 30
1.2
 40
12.0
  1
　８４８
 50
0.0
 41
0.9
 51
0.0
  7
KANJI19
  0
TEXT
  8
0
  6
CONTINUOUS
 62
     2
 10
1204.25
 20
1078.65
 30
1.2
 40
12.0
  1
　７０８
 50
0.0
 41
0.9
 51
0.0
  7
KANJI19
  0
TEXT
  8
0
  6
CONTINUOUS
 62
     2
 10
1204.25
 20
1106.65
 30
1.2
 40
12.0
  1
　６０８
 50
0.0
 41
0.9
 51
0.0
  7
KANJI19
  0
TEXT
  8
0
  6
CONTINUOUS
 62
     2
 10
1124.25
 20
1190.65
 30
1.2
 40
12.0
  1
　６５１
 50
0.0
 41
0.9
 51
0.0
  7
KANJI19
  0
TEXT
  8
0
  6
CONTINUOUS
 62
     2
 10
1124.25
 20
1162.65
 30
1.2
 40
12.0
  1
　７５１
 50
0.0
 41
0.9
 51
0.0
  7
KANJI19
  0
TEXT
  8
0
  6
CONTINUOUS
 62
     2
 10
1124.25
 20
1134.65
 30
1.2
 40
12.0
  1
　８５１
 50
0.0
 41
0.9
 51
0.0
  7
KANJI19
  0
TEXT
  8
0
  6
CONTINUOUS
 62
     2
 10
1124.25
 20
1106.65
 30
1.2
 40
12.0
  1
　９５１
 50
0.0
 41
0.9
 51
0.0
  7
KANJI19
  0
TEXT
  8
0
  6
CONTINUOUS
 62
     2
 10
1124.25
 20
1078.65
 30
1.2
 40
12.0
  1
１０５１
 50
0.0
 41
0.9
 51
0.0
  7
KANJI19
  0
TEXT
  8
0
  6
CONTINUOUS
 62
     2
 10
1124.25
 20
1050.65
 30
1.2
 40
12.0
  1
１１９１
 50
0.0
 41
0.9
 51
0.0
  7
KANJI19
  0
TEXT
  8
0
  6
CONTINUOUS
 62
     2
 10
1124.25
 20
1022.65
 30
1.2
 40
12.0
  1
１２９１
 50
0.0
 41
0.9
 51
0.0
  7
KANJI19
  0
LINE
  8
0
  6
CONTINUOUS
 62
     6
 10
350.959425053
 20
1347.747759827
 30
0.0
 11
118.914646507
 21
1347.747759827
 31
0.0
  0
LINE
  8
0
  6
CONTINUOUS
 62
     3
 10
350.959425053
 20
1320.285259827
 30
0.0
 11
118.914646507
 21
1320.285259827
 31
0.0
  0
LINE
  8
0
  6
CONTINUOUS
 62
     6
 10
350.959425053
 20
1320.285259827
 30
0.0
 11
118.914646507
 21
1320.285259827
 31
0.0
  0
TEXT
  8
0
  6
CONTINUOUS
 62
     6
 10
376.542228
 20
1345.200410728
 30
1.232517
 40
13.182
  1
電気定格　　　
 50
0.0
 41
0.85
 51
0.0
  7
KANJI24
  0
TEXT
  8
0
  6
CONTINUOUS
 62
     6
 10
122.823517202
 20
1350.94592676
 30
1.0647
 40
11.661
  1
ＬＳ０１　　　：推力リミッタ（前進時過負荷用）
 50
0.0
 41
0.822608696
 51
0.0
  7
KANJI25
  0
TEXT
  8
0
  6
CONTINUOUS
 62
     6
 10
122.823517202
 20
1323.48342676
 30
1.0647
 40
11.661
  1
ＬＳ０２　　　：推力リミッタ（後進時過負荷用）
 50
0.0
 41
0.822608696
 51
0.0
  7
KANJI25
  0
TEXT
  8
0
  6
CONTINUOUS
 62
     6
 10
389.343715102
 20
1314.626958599
 30
0.0
 40
11.8638
  1
ＤＣ１２５Ｖ　０．６Ａ　，ＤＣ２５０Ｖ　０．３Ａ　
 50
0.0
 41
0.726495726
 51
0.0
  7
KANJI26
  0
LINE
  8
0
  6
LTYPE2
 62
     6
 10
649.35
 20
1375.2
 30
0.0
 11
100.95
 21
1375.2
 31
0.0
  0
TEXT
  8
0
  6
CONTINUOUS
 62
     6
 10
384.087132178
 20
1362.961726126
 30
0.0
 40
45.0
  1
｝
 50
0.0
 41
0.538166667
 51
0.0
  7
KANJI27
  0
LINE
  8
0
  6
LTYPE2
 62
     6
 10
649.35
 20
1116.2
 30
0.0
 11
649.35
 21
1375.2
 31
0.0
  0
LINE
  8
0
  6
LTYPE2
 62
     6
 10
100.95
 20
1116.2
 30
0.0
 11
649.35
 21
1116.2
 31
0.0
  0
LINE
  8
0
  6
LTYPE2
 62
     6
 10
100.95
 20
1375.2
 30
0.0
 11
100.95
 21
1116.2
 31
0.0
  0
TEXT
  8
0
  6
CONTINUOUS
 62
     2
 10
1655.4166945
 20
126.999995
 30
10.833333333
 40
25.0
  1
３００２３５３
 50
0.0
 41
0.8
 51
0.0
  7
KANJI28
  0
TEXT
  8
0
  6
CONTINUOUS
 62
     2
 10
1559.75
 20
207.0
 30
0.0
 40
17.5
  1
ＭＣＳＬＢＢ０１－Ｌ
 50
0.0
 41
0.793650794
 51
0.0
  7
KANJI29
  0
TEXT
  8
0
  6
CONTINUOUS
 62
     2
 10
871.25
 20
1190.35
 30
0.8
 40
12.0
  1
ＭＣＳＬＢＢ０１－　　１Ｌ
 50
0.0
 41
0.833333333
 51
0.0
  7
KANJI30
  0
TEXT
  8
0
  6
CONTINUOUS
 62
     2
 10
871.25
 20
1162.35
 30
0.8
 40
12.0
  1
ＭＣＳＬＢＢ０１－　　２Ｌ
 50
0.0
 41
0.833333333
 51
0.0
  7
KANJI30
  0
TEXT
  8
0
  6
CONTINUOUS
 62
     2
 10
871.25
 20
1134.35
 30
0.8
 40
12.0
  1
ＭＣＳＬＢＢ０１－　　３Ｌ
 50
0.0
 41
0.833333333
 51
0.0
  7
KANJI30
  0
TEXT
  8
0
  6
CONTINUOUS
 62
     2
 10
871.25
 20
1106.35
 30
0.8
 40
12.0
  1
ＭＣＳＬＢＢ０１－　　４Ｌ
 50
0.0
 41
0.833333333
 51
0.0
  7
KANJI30
  0
TEXT
  8
0
  6
CONTINUOUS
 62
     2
 10
871.25
 20
1078.35
 30
0.8
 40
12.0
  1
ＭＣＳＬＢＢ０１－　　５Ｌ
 50
0.0
 41
0.833333333
 51
0.0
  7
KANJI30
  0
TEXT
  8
0
  6
CONTINUOUS
 62
     2
 10
871.25
 20
1050.35
 30
0.8
 40
12.0
  1
ＭＣＳＬＢＢ０１－　　６Ｌ
 50
0.0
 41
0.833333333
 51
0.0
  7
KANJI30
  0
TEXT
  8
0
  6
CONTINUOUS
 62
     2
 10
871.25
 20
1022.35
 30
0.8
 40
12.0
  1
ＭＣＳＬＢＢ０１－　　７Ｌ
 50
0.0
 41
0.833333333
 51
0.0
  7
KANJI30
  0
LINE
  8
0
  6
CONTINUOUS
 62
     1
 10
1282.625
 20
1393.0
 30
0.0
 11
1282.625
 21
1292.9
 31
0.0
  0
LINE
  8
0
  6
CONTINUOUS
 62
     2
 10
1224.875
 20
1393.0
 30
0.0
 11
1224.875
 21
1292.9
 31
0.0
  0
LINE
  8
0
  6
CONTINUOUS
 62
     2
 10
1167.125
 20
1393.0
 30
0.0
 11
1167.125
 21
1292.9
 31
0.0
  0
LINE
  8
0
  6
CONTINUOUS
 62
     1
 10
1090.125
 20
1393.0
 30
0.0
 11
1090.125
 21
1292.9
 31
0.0
  0
LINE
  8
0
  6
CONTINUOUS
 62
     1
 10
1090.125
 20
1393.0
 30
0.0
 11
1282.625
 21
1393.0
 31
0.0
  0
LINE
  8
0
  6
CONTINUOUS
 62
     1
 10
1090.125
 20
1362.2
 30
0.0
 11
1282.625
 21
1362.2
 31
0.0
  0
LINE
  8
0
  6
CONTINUOUS
 62
     2
 10
1090.125
 20
1339.1
 30
0.0
 11
1282.625
 21
1339.1
 31
0.0
  0
LINE
  8
0
  6
CONTINUOUS
 62
     2
 10
1090.125
 20
1316.0
 30
0.0
 11
1282.625
 21
1316.0
 31
0.0
  0
LINE
  8
0
  6
CONTINUOUS
 62
     1
 10
1090.125
 20
1292.9
 30
0.0
 11
1282.625
 21
1292.9
 31
0.0
  0
TEXT
  8
0
  6
CONTINUOUS
 62
     2
 10
1232.575
 20
1379.525
 30
1.155
 40
11.55
  1
起動電流
 50
0.0
 41
0.9
 51
0.0
  7
KANJI31
  0
TEXT
  8
0
  6
CONTINUOUS
 62
     2
 10
1232.575
 20
1366.05
 30
1.155
 40
11.55
  1
　　　Ａ
 50
0.0
 41
0.9
 51
0.0
  7
KANJI31
  0
TEXT
  8
0
  6
CONTINUOUS
 62
     2
 10
1174.825
 20
1379.525
 30
1.155
 40
11.55
  1
定格電流
 50
0.0
 41
0.9
 51
0.0
  7
KANJI31
  0
TEXT
  8
0
  6
CONTINUOUS
 62
     2
 10
1174.825
 20
1366.05
 30
1.155
 40
11.55
  1
　　　Ａ
 50
0.0
 41
0.9
 51
0.0
  7
KANJI31
  0
TEXT
  8
0
  6
CONTINUOUS
 62
     2
 10
1096.67
 20
1321.775
 30
1.155
 40
11.55
  1
２００／６０
 50
0.0
 41
0.9
 51
0.0
  7
KANJI31
  0
TEXT
  8
0
  6
CONTINUOUS
 62
     2
 10
1096.67
 20
1379.525
 30
1.155
 40
11.55
  1
電圧／周波数
 50
0.0
 41
0.9
 51
0.0
  7
KANJI31
  0
TEXT
  8
0
  6
CONTINUOUS
 62
     2
 10
1096.67
 20
1366.05
 30
1.155
 40
11.55
  1
　Ｖ／Ｈｚ
 50
0.0
 41
0.9
 51
0.0
  7
KANJI31
  0
TEXT
  8
0
  6
CONTINUOUS
 62
     2
 10
1096.67
 20
1344.875
 30
1.155
 40
11.55
  1
２００／５０
 50
0.0
 41
0.9
 51
0.0
  7
KANJI31
  0
TEXT
  8
0
  6
CONTINUOUS
 62
     2
 10
1096.67
 20
1298.675
 30
1.155
 40
11.55
  1
２２０／６０
 50
0.0
 41
0.9
 51
0.0
  7
KANJI31
  0
LINE
  8
0
  6
CONTINUOUS
 62
     1
 10
1051.625
 20
1393.0
 30
0.0
 11
1051.625
 21
1292.9
 31
0.0
  0
LINE
  8
0
  6
CONTINUOUS
 62
     2
 10
993.875
 20
1393.0
 30
0.0
 11
993.875
 21
1292.9
 31
0.0
  0
LINE
  8
0
  6
CONTINUOUS
 62
     2
 10
936.125
 20
1393.0
 30
0.0
 11
936.125
 21
1292.9
 31
0.0
  0
LINE
  8
0
  6
CONTINUOUS
 62
     1
 10
859.125
 20
1393.0
 30
0.0
 11
859.125
 21
1292.9
 31
0.0
  0
LINE
  8
0
  6
CONTINUOUS
 62
     1
 10
859.125
 20
1393.0
 30
0.0
 11
1051.625
 21
1393.0
 31
0.0
  0
LINE
  8
0
  6
CONTINUOUS
 62
     1
 10
859.125
 20
1362.2
 30
0.0
 11
1051.625
 21
1362.2
 31
0.0
  0
LINE
  8
0
  6
CONTINUOUS
 62
     2
 10
859.125
 20
1339.1
 30
0.0
 11
1051.625
 21
1339.1
 31
0.0
  0
LINE
  8
0
  6
CONTINUOUS
 62
     2
 10
859.125
 20
1316.0
 30
0.0
 11
1051.625
 21
1316.0
 31
0.0
  0
LINE
  8
0
  6
CONTINUOUS
 62
     1
 10
859.125
 20
1292.9
 30
0.0
 11
1051.625
 21
1292.9
 31
0.0
  0
TEXT
  8
0
  6
CONTINUOUS
 62
     2
 10
1001.575
 20
1379.525
 30
1.155
 40
11.55
  1
起動電流
 50
0.0
 41
0.9
 51
0.0
  7
KANJI31
  0
TEXT
  8
0
  6
CONTINUOUS
 62
     2
 10
1001.575
 20
1366.05
 30
1.155
 40
11.55
  1
　　　Ａ
 50
0.0
 41
0.9
 51
0.0
  7
KANJI31
  0
TEXT
  8
0
  6
CONTINUOUS
 62
     2
 10
943.825
 20
1379.525
 30
1.155
 40
11.55
  1
定格電流
 50
0.0
 41
0.9
 51
0.0
  7
KANJI31
  0
TEXT
  8
0
  6
CONTINUOUS
 62
     2
 10
943.825
 20
1366.05
 30
1.155
 40
11.55
  1
　　　Ａ
 50
0.0
 41
0.9
 51
0.0
  7
KANJI31
  0
TEXT
  8
0
  6
CONTINUOUS
 62
     2
 10
865.67
 20
1379.525
 30
1.155
 40
11.55
  1
電圧／周波数
 50
0.0
 41
0.9
 51
0.0
  7
KANJI31
  0
TEXT
  8
0
  6
CONTINUOUS
 62
     2
 10
865.67
 20
1366.05
 30
1.155
 40
11.55
  1
　Ｖ／Ｈｚ
 50
0.0
 41
0.9
 51
0.0
  7
KANJI31
  0
TEXT
  8
0
  6
CONTINUOUS
 62
     2
 10
865.67
 20
1344.875
 30
1.155
 40
11.55
  1
４００／５０
 50
0.0
 41
0.9
 51
0.0
  7
KANJI31
  0
TEXT
  8
0
  6
CONTINUOUS
 62
     2
 10
865.67
 20
1321.775
 30
1.155
 40
11.55
  1
４００／６０
 50
0.0
 41
0.9
 51
0.0
  7
KANJI31
  0
TEXT
  8
0
  6
CONTINUOUS
 62
     2
 10
865.67
 20
1298.675
 30
1.155
 40
11.55
  1
４４０／６０
 50
0.0
 41
0.9
 51
0.0
  7
KANJI31
  0
TEXT
  8
0
  6
CONTINUOUS
 62
     2
 10
943.825
 20
1344.875
 30
1.155
 40
11.55
  1
　２．０
 50
0.0
 41
0.9
 51
0.0
  7
KANJI31
  0
TEXT
  8
0
  6
CONTINUOUS
 62
     2
 10
943.825
 20
1321.775
 30
1.155
 40
11.55
  1
　１．４
 50
0.0
 41
0.9
 51
0.0
  7
KANJI31
  0
TEXT
  8
0
  6
CONTINUOUS
 62
     2
 10
943.825
 20
1298.675
 30
1.155
 40
11.55
  1
　１．７
 50
0.0
 41
0.9
 51
0.0
  7
KANJI31
  0
TEXT
  8
0
  6
CONTINUOUS
 62
     2
 10
1174.825
 20
1344.875
 30
1.155
 40
11.55
  1
　４．０
 50
0.0
 41
0.9
 51
0.0
  7
KANJI31
  0
TEXT
  8
0
  6
CONTINUOUS
 62
     2
 10
1174.825
 20
1321.775
 30
1.155
 40
11.55
  1
　２．８
 50
0.0
 41
0.9
 51
0.0
  7
KANJI31
  0
TEXT
  8
0
  6
CONTINUOUS
 62
     2
 10
1174.825
 20
1298.675
 30
1.155
 40
11.55
  1
　３．３
 50
0.0
 41
0.9
 51
0.0
  7
KANJI31
  0
TEXT
  8
0
  6
CONTINUOUS
 62
     2
 10
1232.575
 20
1344.875
 30
1.155
 40
11.55
  1
　９．２
 50
0.0
 41
0.9
 51
0.0
  7
KANJI31
  0
TEXT
  8
0
  6
CONTINUOUS
 62
     2
 10
1232.575
 20
1321.775
 30
1.155
 40
11.55
  1
　８
 50
0.0
 41
0.9
 51
0.0
  7
KANJI31
  0
TEXT
  8
0
  6
CONTINUOUS
 62
     2
 10
1232.575
 20
1298.675
 30
1.155
 40
11.55
  1
　８．８
 50
0.0
 41
0.9
 51
0.0
  7
KANJI31
  0
TEXT
  8
0
  6
CONTINUOUS
 62
     2
 10
1001.575
 20
1344.875
 30
1.155
 40
11.55
  1
　４．６
 50
0.0
 41
0.9
 51
0.0
  7
KANJI31
  0
TEXT
  8
0
  6
CONTINUOUS
 62
     2
 10
1001.575
 20
1321.775
 30
1.155
 40
11.55
  1
　４
 50
0.0
 41
0.9
 51
0.0
  7
KANJI31
  0
TEXT
  8
0
  6
CONTINUOUS
 62
     2
 10
1001.575
 20
1298.675
 30
1.155
 40
11.55
  1
　４．４
 50
0.0
 41
0.9
 51
0.0
  7
KANJI31
  0
LINE
  8
0
  6
CONTINUOUS
 62
     2
 10
858.25
 20
1183.95
 30
0.0
 11
1506.25
 21
1183.95
 31
0.0
  0
LINE
  8
0
  6
CONTINUOUS
 62
     2
 10
858.25
 20
1155.95
 30
0.0
 11
1506.25
 21
1155.95
 31
0.0
  0
LINE
  8
0
  6
CONTINUOUS
 62
     2
 10
858.25
 20
1127.95
 30
0.0
 11
1506.25
 21
1127.95
 31
0.0
  0
LINE
  8
0
  6
CONTINUOUS
 62
     2
 10
858.25
 20
1071.95
 30
0.0
 11
1506.25
 21
1071.95
 31
0.0
  0
LINE
  8
0
  6
CONTINUOUS
 62
     2
 10
858.25
 20
1099.95
 30
0.0
 11
1506.25
 21
1099.95
 31
0.0
  0
LINE
  8
0
  6
CONTINUOUS
 62
     2
 10
858.25
 20
1015.95
 30
0.0
 11
1506.25
 21
1015.95
 31
0.0
  0
LINE
  8
0
  6
CONTINUOUS
 62
     2
 10
858.25
 20
1043.95
 30
0.0
 11
1506.25
 21
1043.95
 31
0.0
  0
TEXT
  8
0
  6
CONTINUOUS
 62
     2
 10
1444.25
 20
1190.65
 30
1.2
 40
12.0
  1
　　２９
 50
0.0
 41
0.9
 51
0.0
  7
KANJI19
  0
TEXT
  8
0
  6
CONTINUOUS
 62
     2
 10
1444.25
 20
1162.65
 30
1.2
 40
12.0
  1
　　３０
 50
0.0
 41
0.9
 51
0.0
  7
KANJI19
  0
TEXT
  8
0
  6
CONTINUOUS
 62
     2
 10
1444.25
 20
1134.65
 30
1.2
 40
12.0
  1
　　３１
 50
0.0
 41
0.9
 51
0.0
  7
KANJI19
  0
TEXT
  8
0
  6
CONTINUOUS
 62
     2
 10
1444.25
 20
1106.65
 30
1.2
 40
12.0
  1
　　３２
 50
0.0
 41
0.9
 51
0.0
  7
KANJI19
  0
TEXT
  8
0
  6
CONTINUOUS
 62
     2
 10
1444.25
 20
1078.65
 30
1.2
 40
12.0
  1
　　３３
 50
0.0
 41
0.9
 51
0.0
  7
KANJI19
  0
TEXT
  8
0
  6
CONTINUOUS
 62
     2
 10
1444.25
 20
1050.65
 30
1.2
 40
12.0
  1
　　３４
 50
0.0
 41
0.9
 51
0.0
  7
KANJI19
  0
TEXT
  8
0
  6
CONTINUOUS
 62
     2
 10
1444.25
 20
1022.65
 30
1.2
 40
12.0
  1
　　３５
 50
0.0
 41
0.9
 51
0.0
  7
KANJI19
  0
TEXT
  8
0
  6
CONTINUOUS
 62
     6
 10
313.962791539
 20
1134.22382165
 30
0.0
 40
17.740702234
  1
端子台　接続図
 50
0.0
 41
0.880962996
 51
0.0
  7
KANJI32
  0
LINE
  8
0
  6
CONTINUOUS
 62
     2
 10
348.927373465
 20
1185.228121884
 30
0.0
 11
348.927373465
 21
1162.449155128
 31
0.0
  0
LINE
  8
0
  6
CONTINUOUS
 62
     2
 10
375.50283468
 20
1185.228121884
 30
0.0
 11
375.50283468
 21
1162.449155128
 31
0.0
  0
LINE
  8
0
  6
CONTINUOUS
 62
     2
 10
402.078295894
 20
1185.228121884
 30
0.0
 11
402.078295894
 21
1162.449155128
 31
0.0
  0
LINE
  8
0
  6
CONTINUOUS
 62
     2
 10
428.653757109
 20
1185.228121884
 30
0.0
 11
428.653757109
 21
1162.449155128
 31
0.0
  0
CIRCLE
  8
0
  6
CONTINUOUS
 62
     6
 10
420.734269667
 20
1208.707921517
 30
0.0
 40
4.100214016
  0
LINE
  8
0
  6
CONTINUOUS
 62
     6
 10
416.634055651
 20
1208.707921517
 30
0.0
 11
415.366026502
 21
1208.707921517
 31
0.0
  0
LINE
  8
0
  6
CONTINUOUS
 62
     6
 10
441.688027433
 20
1222.394562742
 30
0.0
 11
437.773558096
 21
1200.059507138
 31
0.0
  0
LINE
  8
0
  6
CONTINUOUS
 62
     6
 10
436.961699663
 20
1223.182284037
 30
0.0
 11
433.046922494
 21
1200.847279739
 31
0.0
  0
LINE
  8
0
  6
CONTINUOUS
 62
     6
 10
437.773558096
 20
1200.059507138
 30
0.0
 11
433.046922494
 21
1200.847279739
 31
0.0
  0
CIRCLE
  8
0
  6
CONTINUOUS
 62
     6
 10
441.941487717
 20
1199.239464335
 30
0.0
 40
4.100214016
  0
LINE
  8
0
  6
CONTINUOUS
 62
     6
 10
441.941487717
 20
1195.139250319
 30
0.0
 11
441.941487717
 21
1185.228121884
 31
0.0
  0
LINE
  8
0
  6
CONTINUOUS
 62
     6
 10
415.366026502
 20
1208.707921517
 30
0.0
 11
415.366026502
 21
1185.228121884
 31
0.0
  0
LINE
  8
0
  6
CONTINUOUS
 62
     6
 10
388.790565287
 20
1185.228121884
 30
0.0
 11
388.790565287
 21
1238.933332504
 31
0.0
  0
LINE
  8
0
  6
CONTINUOUS
 62
     6
 10
309.317641926
 20
1222.394562742
 30
0.0
 11
313.232111263
 21
1200.059507138
 31
0.0
  0
LINE
  8
0
  6
CONTINUOUS
 62
     6
 10
314.043969696
 20
1223.182284037
 30
0.0
 11
317.958746865
 21
1200.847279739
 31
0.0
  0
LINE
  8
0
  6
CONTINUOUS
 62
     6
 10
313.232111263
 20
1200.059507138
 30
0.0
 11
317.958746865
 21
1200.847279739
 31
0.0
  0
CIRCLE
  8
0
  6
CONTINUOUS
 62
     6
 10
309.064181642
 20
1199.239464335
 30
0.0
 40
4.100214016
  0
CIRCLE
  8
0
  6
CONTINUOUS
 62
     6
 10
330.271399692
 20
1208.707921517
 30
0.0
 40
4.100214016
  0
LINE
  8
0
  6
CONTINUOUS
 62
     6
 10
334.371613708
 20
1208.707921517
 30
0.0
 11
335.639642857
 21
1208.707921517
 31
0.0
  0
LINE
  8
0
  6
CONTINUOUS
 62
     6
 10
309.064181642
 20
1195.139250319
 30
0.0
 11
309.064181642
 21
1185.228121884
 31
0.0
  0
LINE
  8
0
  6
CONTINUOUS
 62
     6
 10
335.639642857
 20
1208.707921517
 30
0.0
 11
335.639642857
 21
1185.228121884
 31
0.0
  0
LINE
  8
0
  6
CONTINUOUS
 62
     6
 10
362.215104072
 20
1185.228121884
 30
0.0
 11
362.215104072
 21
1238.933332504
 31
0.0
  0
LINE
  8
0
  6
CONTINUOUS
 62
     2
 10
455.229218324
 20
1185.228121884
 30
0.0
 11
455.229218324
 21
1162.449155128
 31
0.0
  0
LINE
  8
0
  6
CONTINUOUS
 62
     2
 10
295.776451035
 20
1185.228121884
 30
0.0
 11
295.776451035
 21
1162.449155128
 31
0.0
  0
LINE
  8
0
  6
CONTINUOUS
 62
     2
 10
322.35191225
 20
1185.228121884
 30
0.0
 11
322.35191225
 21
1162.449155128
 31
0.0
  0
LINE
  8
0
  6
CONTINUOUS
 62
     6
 10
441.941487717
 20
1238.933332504
 30
0.0
 11
388.790565287
 21
1238.933332504
 31
0.0
  0
CIRCLE
  8
0
  6
CONTINUOUS
 62
     6
 10
441.941487717
 20
1226.58941042
 30
0.0
 40
4.100214016
  0
LINE
  8
0
  6
CONTINUOUS
 62
     6
 10
441.688027433
 20
1222.394562742
 30
0.0
 11
436.961699663
 21
1223.182284037
 31
0.0
  0
LINE
  8
0
  6
CONTINUOUS
 62
     6
 10
441.941487717
 20
1230.689624436
 30
0.0
 11
441.941487717
 21
1238.933332504
 31
0.0
  0
CIRCLE
  8
0
  6
CONTINUOUS
 62
     6
 10
309.064181642
 20
1226.58941042
 30
0.0
 40
4.100214016
  0
LINE
  8
0
  6
CONTINUOUS
 62
     6
 10
309.317641926
 20
1222.394562742
 30
0.0
 11
314.043969696
 21
1223.182284037
 31
0.0
  0
LINE
  8
0
  6
CONTINUOUS
 62
     6
 10
309.064181642
 20
1230.689624436
 30
0.0
 11
309.064181642
 21
1238.933332504
 31
0.0
  0
LINE
  8
0
  6
CONTINUOUS
 62
     6
 10
362.215104072
 20
1238.933332504
 30
0.0
 11
309.064181642
 21
1238.933332504
 31
0.0
  0
TEXT
  8
0
  6
CONTINUOUS
 62
     6
 10
313.8272152
 20
1243.452473273
 30
0.819
 40
11.7
  1
ＬＳ０１
 50
0.0
 41
0.8
 51
0.0
  7
KANJI33
  0
TEXT
  8
0
  6
CONTINUOUS
 62
     6
 10
396.447398844
 20
1243.452473273
 30
0.819
 40
11.7
  1
ＬＳ０２
 50
0.0
 41
0.8
 51
0.0
  7
KANJI33
  0
TEXT
  8
0
  6
CONTINUOUS
 62
     3
 10
141.638775989
 20
1166.245649587
 30
0.0
 40
15.0
  1
　　　　　　　　　　　　　　　　　　１　　２　　　３　　　４　　　５　　　６
 50
0.0
 41
0.911
 51
0.0
  7
KANJI34
  0
LINE
  8
0
  6
CONTINUOUS
 62
     2
 10
295.776451035
 20
1185.228121884
 30
0.0
 11
455.229218324
 21
1185.228121884
 31
0.0
  0
LINE
  8
0
  6
CONTINUOUS
 62
     2
 10
295.776451035
 20
1162.449155128
 30
0.0
 11
455.229218324
 21
1162.449155128
 31
0.0
  0
TEXT
  8
0
  6
CONTINUOUS
 62
     6
 10
287.462791539
 20
1273.22382165
 30
0.0
 40
17.740702234
  1
推力リミッタ端子台配列
 50
0.0
 41
0.880962996
 51
0.0
  7
KANJI32
  0
LINE
  8
0
  6
CONTINUOUS
 62
     2
 10
884.7275
 20
1271.725
 30
0.0
 11
1271.02
 21
1271.725
 31
0.0
  0
TEXT
  8
0
  6
CONTINUOUS
 62
     2
 10
892.4275
 20
1275.575
 30
1.3475
 40
13.475
  1
注意：サーマルリレー等の選定は、上記の値で選定して下さい。
 50
0.0
 41
0.9
 51
0.0
  7
KANJI35
  0
LINE
  8
0
  6
LTYPE2
 62
     6
 10
113.408333
 20
997.633317
 30
0.0
 11
113.408333
 21
981.232460936
 31
0.0
  0
LINE
  8
0
  6
LTYPE2
 62
     6
 10
243.805262694
 20
997.633317
 30
0.0
 11
113.408333
 21
997.633317
 31
0.0
  0
TEXT
  8
0
  6
CONTINUOUS
 62
     6
 10
95.873590591
 20
984.148168681
 30
1.093390404
 40
10.933904043
  1
Ｕ
 50
0.0
 41
0.9
 51
0.0
  7
KANJI36
  0
CIRCLE
  8
0
  6
CONTINUOUS
 62
     6
 10
113.408333
 20
977.952289723
 30
0.0
 40
4.373561617
  0
LINE
  8
0
  6
CONTINUOUS
 62
     6
 10
108.38354931
 20
972.927506033
 30
0.0
 11
118.588526417
 21
983.13248314
 31
0.0
  0
TEXT
  8
0
  6
CONTINUOUS
 62
     6
 10
123.653806047
 20
1006.299448352
 30
1.518597784
 40
15.185977837
  1
エコノストップモータ
 50
0.0
 41
0.66671875
 51
0.0
  7
KANJI37
  0
LINE
  8
0
  6
LTYPE2
 62
     6
 10
243.805262694
 20
902.221584891
 30
0.0
 11
243.805262694
 21
997.633317
 31
0.0
  0
CIRCLE
  8
0
  6
CONTINUOUS
 62
     6
 10
158.237339575
 20
952.439846957
 30
0.0
 40
18.223173404
  0
TEXT
  8
0
  6
CONTINUOUS
 62
     6
 10
150.583606745
 20
943.692723723
 30
1.82231734
 40
18.223173404
  1
Ｍ
 50
0.0
 41
0.9
 51
0.0
  7
KANJI38
  0
LINE
  8
0
  6
CONTINUOUS
 62
     6
 10
134.182750681
 20
926.927404191
 30
0.0
 11
145.481118192
 21
940.048089042
 31
0.0
  0
LINE
  8
0
  6
CONTINUOUS
 62
     6
 10
134.182750681
 20
977.952289723
 30
0.0
 11
145.481118192
 21
964.831604872
 31
0.0
  0
LINE
  8
0
  6
CONTINUOUS
 62
     6
 10
134.182750681
 20
977.952289723
 30
0.0
 11
117.781894617
 21
977.952289723
 31
0.0
  0
LINE
  8
0
  6
CONTINUOUS
 62
     6
 10
140.378629639
 20
952.439846957
 30
0.0
 11
117.781894617
 21
952.439846957
 31
0.0
  0
LINE
  8
0
  6
CONTINUOUS
 62
     6
 10
134.182750681
 20
926.927404191
 30
0.0
 11
117.781894617
 21
926.927404191
 31
0.0
  0
TEXT
  8
0
  6
CONTINUOUS
 62
     6
 10
96.966980995
 20
958.271262446
 30
1.093390404
 40
10.933904043
  1
Ｖ
 50
0.0
 41
0.9
 51
0.0
  7
KANJI36
  0
TEXT
  8
0
  6
CONTINUOUS
 62
     6
 10
98.060371399
 20
932.394356212
 30
1.093390404
 40
10.933904043
  1
Ｗ
 50
0.0
 41
0.9
 51
0.0
  7
KANJI36
  0
CIRCLE
  8
0
  6
CONTINUOUS
 62
     6
 10
113.408333
 20
952.439846957
 30
0.0
 40
4.373561617
  0
LINE
  8
0
  6
CONTINUOUS
 62
     6
 10
108.38354931
 20
947.415063267
 30
0.0
 11
118.588526417
 21
957.620040374
 31
0.0
  0
LINE
  8
0
  6
LTYPE2
 62
     6
 10
113.408333
 20
973.943191574
 30
0.0
 11
113.408333
 21
955.72001817
 31
0.0
  0
CIRCLE
  8
0
  6
CONTINUOUS
 62
     6
 10
113.408333
 20
926.927404191
 30
0.0
 40
4.373561617
  0
LINE
  8
0
  6
CONTINUOUS
 62
     6
 10
108.38354931
 20
921.902620501
 30
0.0
 11
118.588526417
 21
932.107597607
 31
0.0
  0
LINE
  8
0
  6
LTYPE2
 62
     6
 10
113.408333
 20
948.430748808
 30
0.0
 11
113.408333
 21
931.300965808
 31
0.0
  0
LINE
  8
0
  6
LTYPE2
 62
     6
 10
243.805262694
 20
902.221584891
 30
0.0
 11
113.408333
 21
902.221584891
 31
0.0
  0
LINE
  8
0
  6
LTYPE2
 62
     6
 10
113.408333
 20
922.553842574
 30
0.0
 11
113.408333
 21
902.221584891
 31
0.0
  0
TEXT
  8
0
  6
CONTINUOUS
 62
     2
 10
118.503726364
 20
877.012221811
 30
0.0
 40
15.6
  1
モーター結線図
 50
0.0
 41
0.925
 51
0.0
  7
KANJI39
  0
TEXT
  8
0
  6
CONTINUOUS
 62
     6
 10
184.478709277
 20
944.184749405
 30
1.457853872
 40
14.578538724
  1
Ｂ
 50
0.0
 41
0.9
 51
0.0
  7
KANJI40
  0
CIRCLE
  8
0
  6
CONTINUOUS
 62
     6
 10
191.039051703
 20
952.439846957
 30
0.0
 40
14.578538724
  0
LINE
  8
2
  6
CONTINUOUS
 62
     2
 10
1101.0
 20
831.5
 30
0.0
 11
277.0
 21
831.5
 31
0.0
  0
ARC
  8
0
  6
CONTINUOUS
 62
     1
 10
556.0
 20
659.0
 30
0.0
 40
2.0
 50
0.000309099
 51
89.999781434
  0
LINE
  8
0
  6
CONTINUOUS
 62
     1
 10
508.0
 20
661.0
 30
0.0
 11
556.000007629
 21
661.0
 31
0.0
  0
LINE
  8
0
  6
CONTINUOUS
 62
     1
 10
550.0
 20
521.5
 30
0.0
 11
550.0
 21
661.0
 31
0.0
  0
LINE
  8
0
  6
CONTINUOUS
 62
     1
 10
490.0
 20
613.5
 30
0.0
 11
490.0
 21
493.5
 31
0.0
  0
LINE
  8
0
  6
CONTINUOUS
 62
     1
 10
476.0
 20
553.5
 30
0.0
 11
476.0
 21
610.5
 31
0.0
  0
LINE
  8
0
  6
CONTINUOUS
 62
     1
 10
482.0
 20
553.5
 30
0.0
 11
482.0
 21
612.6
 31
0.0
  0
LINE
  8
0
  6
CONTINUOUS
 62
     1
 10
476.0
 20
553.5
 30
0.0
 11
476.0
 21
496.5
 31
0.0
  0
ARC
  8
0
  6
CONTINUOUS
 62
     1
 10
480.5
 20
495.0
 30
0.0
 40
1.5
 50
0.0
 51
90.0
  0
LINE
  8
0
  6
CONTINUOUS
 62
     1
 10
482.0
 20
495.0
 30
0.0
 11
482.0
 21
494.0
 31
0.0
  0
ARC
  8
0
  6
CONTINUOUS
 62
     1
 10
483.5
 20
494.0
 30
0.0
 40
1.5
 50
180.0
 51
270.0
  0
LINE
  8
0
  6
CONTINUOUS
 62
     1
 10
323.5
 20
496.5
 30
0.0
 11
480.5
 21
496.5
 31
0.0
  0
LINE
  8
0
  6
CONTINUOUS
 62
     1
 10
482.0
 20
553.5
 30
0.0
 11
482.0
 21
494.4
 31
0.0
  0
TEXT
  8
0
  6
CONTINUOUS
 62
     2
 10
360.9
 20
508.5
 30
0.4
 40
14.0
  1
エコノストップモータ
 50
0.0
 41
0.771428571
 51
0.0
  7
KANJI41
  0
LINE
  8
2
  6
CONTINUOUS
 62
     2
 10
479.500012063
 20
492.5
 30
0.0
 11
214.5
 21
492.5
 31
0.0
  0
LINE
  8
0
  6
CONTINUOUS
 62
     1
 10
490.0
 20
492.5
 30
0.0
 11
490.0
 21
553.5
 31
0.0
  0
LINE
  8
0
  6
CONTINUOUS
 62
     1
 10
483.499990656
 20
492.5
 30
0.0
 11
490.0
 21
492.5
 31
0.0
  0
LINE
  8
0
  6
CONTINUOUS
 62
     1
 10
490.0
 20
614.5
 30
0.0
 11
490.0
 21
492.5
 31
0.0
  0
LINE
  8
0
  6
LTYPE3
 62
     2
 10
542.9
 20
553.5
 30
0.0
 11
271.0
 21
553.5
 31
0.0
  0
LINE
  8
2
  6
CONTINUOUS
 62
     2
 10
526.5
 20
606.5
 30
0.0
 11
526.5
 21
553.5
 31
0.0
  0
LINE
  8
2
  6
CONTINUOUS
 62
     2
 10
526.5
 20
553.5
 30
0.0
 11
529.088190451
 21
563.159258263
 31
0.0
  0
LINE
  8
2
  6
CONTINUOUS
 62
     2
 10
526.5
 20
553.5
 30
0.0
 11
523.911809549
 21
563.159258263
 31
0.0
  0
LINE
  8
2
  6
CONTINUOUS
 62
     2
 10
523.5
 20
553.5
 30
0.0
 11
518.5
 21
553.5
 31
0.0
  0
LINE
  8
0
  6
CONTINUOUS
 62
     1
 10
505.0
 20
518.5
 30
0.0
 11
547.000007629
 21
518.5
 31
0.0
  0
ARC
  8
0
  6
CONTINUOUS
 62
     1
 10
505.0
 20
515.5
 30
0.0
 40
3.0
 50
90.0
 51
180.0
  0
ARC
  8
0
  6
CONTINUOUS
 62
     1
 10
499.0
 20
496.5
 30
0.0
 40
3.0
 50
270.0
 51
0.0
  0
LINE
  8
0
  6
CONTINUOUS
 62
     1
 10
502.0
 20
515.5
 30
0.0
 11
502.0
 21
496.5
 31
0.0
  0
LINE
  8
0
  6
CONTINUOUS
 62
     1
 10
490.0
 20
493.5
 30
0.0
 11
523.000007629
 21
493.5
 31
0.0
  0
ARC
  8
0
  6
CONTINUOUS
 62
     1
 10
523.0
 20
496.5
 30
0.0
 40
3.0
 50
270.000145711
 51
0.00014571
  0
LINE
  8
0
  6
CONTINUOUS
 62
     1
 10
526.0
 20
515.500007629
 30
0.0
 11
526.0
 21
496.500007629
 31
0.0
  0
ARC
  8
0
  6
CONTINUOUS
 62
     1
 10
529.0
 20
515.5
 30
0.0
 40
3.0
 50
90.0
 51
179.99985429
  0
ARC
  8
0
  6
CONTINUOUS
 62
     1
 10
547.0
 20
521.5
 30
0.0
 40
3.0
 50
270.000145711
 51
0.0
  0
TEXT
  8
2
  6
CONTINUOUS
 62
     3
 10
522.5
 20
566.6
 30
0.0
 40
15.0
  1
５３
 50
90.0
 41
0.9
 51
0.0
  7
KANJI42
  0
LINE
  8
2
  6
CONTINUOUS
 62
     2
 10
526.5
 20
606.5
 30
0.0
 11
523.911809549
 21
596.840741737
 31
0.0
  0
LINE
  8
2
  6
CONTINUOUS
 62
     2
 10
526.5
 20
606.5
 30
0.0
 11
529.088190451
 21
596.840741737
 31
0.0
  0
ARC
  8
0
  6
CONTINUOUS
 62
     1
 10
480.5
 20
612.0
 30
0.0
 40
1.5
 50
270.0
 51
0.0
  0
LINE
  8
0
  6
CONTINUOUS
 62
     1
 10
482.0
 20
612.0
 30
0.0
 11
482.0
 21
613.0
 31
0.0
  0
ARC
  8
0
  6
CONTINUOUS
 62
     1
 10
483.5
 20
613.0
 30
0.0
 40
1.5
 50
90.0
 51
180.0
  0
ARC
  8
0
  6
CONTINUOUS
 62
     1
 10
463.0
 20
613.5
 30
0.0
 40
3.0
 50
270.0
 51
0.0
  0
LINE
  8
0
  6
CONTINUOUS
 62
     1
 10
323.5
 20
610.5
 30
0.0
 11
480.5
 21
610.5
 31
0.0
  0
LINE
  8
0
  6
LTYPE2
 62
     2
 10
443.0
 20
598.5
 30
0.0
 11
443.0
 21
686.4321338
 31
0.0
  0
LINE
  8
2
  6
CONTINUOUS
 62
     2
 10
479.500009344
 20
614.5
 30
0.0
 11
214.5
 21
614.5
 31
0.0
  0
LINE
  8
0
  6
CONTINUOUS
 62
     1
 10
473.0
 20
623.5
 30
0.0
 11
473.0
 21
626.5
 31
0.0
  0
ARC
  8
0
  6
CONTINUOUS
 62
     1
 10
469.0
 20
620.5
 30
0.0
 40
3.0
 50
90.0
 51
180.0
  0
LINE
  8
0
  6
CONTINUOUS
 62
     1
 10
466.0
 20
613.5
 30
0.0
 11
466.0
 21
620.5
 31
0.0
  0
LINE
  8
0
  6
CONTINUOUS
 62
     1
 10
413.0
 20
623.5
 30
0.0
 11
473.0
 21
623.5
 31
0.0
  0
LINE
  8
0
  6
CONTINUOUS
 62
     1
 10
488.087912088
 20
628.5
 30
0.0
 11
396.0
 21
672.520045888
 31
0.0
  0
LINE
  8
0
  6
CONTINUOUS
 62
     1
 10
490.0
 20
632.5
 30
0.0
 11
488.087912088
 21
628.5
 31
0.0
  0
LINE
  8
0
  6
CONTINUOUS
 62
     1
 10
490.0
 20
632.5
 30
0.0
 11
397.912087912
 21
676.520045888
 31
0.0
  0
LINE
  8
0
  6
CONTINUOUS
 62
     1
 10
483.0
 20
635.846153846
 30
0.0
 11
483.0
 21
675.5
 31
0.0
  0
LINE
  8
0
  6
CONTINUOUS
 62
     1
 10
483.0
 20
629.5
 30
0.0
 11
483.0
 21
630.9321338
 31
0.0
  0
ARC
  8
0
  6
CONTINUOUS
 62
     1
 10
480.0
 20
629.5
 30
0.0
 40
3.0
 50
270.0
 51
0.0
  0
LINE
  8
0
  6
CONTINUOUS
 62
     1
 10
406.0
 20
626.5
 30
0.0
 11
480.0
 21
626.5
 31
0.0
  0
LINE
  8
0
  6
CONTINUOUS
 62
     1
 10
483.5
 20
614.5
 30
0.0
 11
490.0
 21
614.5
 31
0.0
  0
ARC
  8
0
  6
CONTINUOUS
 62
     1
 10
508.0
 20
646.0
 30
0.0
 40
15.0
 50
90.0
 51
180.0
  0
LINE
  8
0
  6
CONTINUOUS
 62
     1
 10
490.0
 20
611.0
 30
0.0
 11
491.00001079
 21
611.0
 31
0.0
  0
LINE
  8
0
  6
CONTINUOUS
 62
     1
 10
493.0
 20
646.0
 30
0.0
 11
493.0
 21
613.000007629
 31
0.0
  0
ARC
  8
0
  6
CONTINUOUS
 62
     1
 10
491.0
 20
613.0
 30
0.0
 40
2.0
 50
270.000309099
 51
0.000218566
  0
LINE
  8
0
  6
CONTINUOUS
 62
     2
 10
569.0
 20
723.0
 30
0.0
 11
523.4
 21
723.0
 31
0.0
  0
TEXT
  8
0
  6
CONTINUOUS
 62
     2
 10
523.4
 20
727.0
 30
0.0
 40
15.0
  1
ＰＦ１／２
 50
0.0
 41
0.9
 51
0.0
  7
KANJI42
  0
LINE
  8
0
  6
CONTINUOUS
 62
     1
 10
327.0
 20
553.5
 30
0.0
 11
327.0
 21
610.5
 31
0.0
  0
ARC
  8
0
  6
CONTINUOUS
 62
     1
 10
323.5
 20
609.0
 30
0.0
 40
1.5
 50
90.0
 51
180.0
  0
LINE
  8
0
  6
CONTINUOUS
 62
     1
 10
322.0
 20
596.570524155
 30
0.0
 11
322.0
 21
609.0
 31
0.0
  0
ARC
  8
0
  6
CONTINUOUS
 62
     1
 10
320.5
 20
596.570524155
 30
0.0
 40
1.5
 50
288.970407808
 51
0.0
  0
LINE
  8
0
  6
CONTINUOUS
 62
     1
 10
306.0
 20
553.5
 30
0.0
 11
306.0
 21
588.929475845
 31
0.0
  0
LINE
  8
0
  6
CONTINUOUS
 62
     1
 10
307.012380347
 20
590.348005744
 30
0.0
 11
320.987619653
 21
595.151994256
 31
0.0
  0
ARC
  8
0
  6
CONTINUOUS
 62
     1
 10
307.5
 20
588.929475845
 30
0.0
 40
1.5
 50
108.970407808
 51
180.0
  0
LINE
  8
0
  6
CONTINUOUS
 62
     1
 10
322.0
 20
553.5
 30
0.0
 11
322.0
 21
596.570524155
 31
0.0
  0
ARC
  8
0
  6
CONTINUOUS
 62
     1
 10
294.0
 20
570.0
 30
0.0
 40
1.0
 50
90.0
 51
180.0
  0
LINE
  8
0
  6
CONTINUOUS
 62
     1
 10
294.0
 20
571.0
 30
0.0
 11
306.0
 21
571.0
 31
0.0
  0
LINE
  8
0
  6
CONTINUOUS
 62
     1
 10
293.0
 20
553.5
 30
0.0
 11
293.0
 21
570.0
 31
0.0
  0
LINE
  8
0
  6
CONTINUOUS
 62
     1
 10
327.0
 20
553.5
 30
0.0
 11
327.0
 21
496.5
 31
0.0
  0
ARC
  8
0
  6
CONTINUOUS
 62
     1
 10
323.5
 20
498.0
 30
0.0
 40
1.5
 50
180.0
 51
270.0
  0
LINE
  8
0
  6
CONTINUOUS
 62
     1
 10
306.0
 20
553.5
 30
0.0
 11
306.0
 21
518.070524155
 31
0.0
  0
ARC
  8
0
  6
CONTINUOUS
 62
     1
 10
307.5
 20
518.070524155
 30
0.0
 40
1.5
 50
180.0
 51
251.029592192
  0
ARC
  8
0
  6
CONTINUOUS
 62
     1
 10
294.0
 20
537.0
 30
0.0
 40
1.0
 50
180.0
 51
270.0
  0
LINE
  8
0
  6
CONTINUOUS
 62
     1
 10
294.0
 20
536.0
 30
0.0
 11
306.0
 21
536.0
 31
0.0
  0
LINE
  8
0
  6
CONTINUOUS
 62
     1
 10
293.0
 20
553.5
 30
0.0
 11
293.0
 21
537.0
 31
0.0
  0
LINE
  8
0
  6
LTYPE2
 62
     2
 10
314.0
 20
589.562445841
 30
0.0
 11
325.0
 21
589.562445841
 31
0.0
  0
LINE
  8
0
  6
CONTINUOUS
 62
     1
 10
322.0
 20
510.429475845
 30
0.0
 11
322.0
 21
498.0
 31
0.0
  0
LINE
  8
0
  6
CONTINUOUS
 62
     1
 10
307.012380347
 20
516.651994256
 30
0.0
 11
320.987619653
 21
511.848005744
 31
0.0
  0
LINE
  8
0
  6
CONTINUOUS
 62
     1
 10
322.0
 20
553.5
 30
0.0
 11
322.0
 21
510.429475845
 31
0.0
  0
LINE
  8
0
  6
LTYPE2
 62
     2
 10
314.0
 20
517.437554159
 30
0.0
 11
325.0
 21
517.437554159
 31
0.0
  0
ARC
  8
0
  6
CONTINUOUS
 62
     1
 10
423.0
 20
613.5
 30
0.0
 40
3.0
 50
180.0
 51
270.0
  0
LINE
  8
0
  6
CONTINUOUS
 62
     1
 10
278.5
 20
569.0
 30
0.0
 11
293.0
 21
569.0
 31
0.0
  0
ARC
  8
0
  6
CONTINUOUS
 62
     1
 10
278.5
 20
567.5
 30
0.0
 40
1.5
 50
90.0
 51
180.0
  0
LINE
  8
0
  6
CONTINUOUS
 62
     1
 10
278.5
 20
538.0
 30
0.0
 11
293.0
 21
538.0
 31
0.0
  0
LINE
  8
0
  6
CONTINUOUS
 62
     1
 10
277.0
 20
539.5
 30
0.0
 11
277.0
 21
567.5
 31
0.0
  0
ARC
  8
0
  6
CONTINUOUS
 62
     1
 10
278.5
 20
539.5
 30
0.0
 40
1.5
 50
180.0
 51
270.0
  0
LINE
  8
2
  6
CONTINUOUS
 62
     2
 10
282.6
 20
571.0
 30
0.0
 11
283.280459689
 21
580.976821869
 31
0.0
  0
LINE
  8
2
  6
CONTINUOUS
 62
     2
 10
282.6
 20
571.0
 30
0.0
 11
278.200884442
 21
579.980411032
 31
0.0
  0
LINE
  8
2
  6
CONTINUOUS
 62
     2
 10
219.0
 20
492.5
 30
0.0
 11
221.588190451
 21
502.159258263
 31
0.0
  0
LINE
  8
2
  6
CONTINUOUS
 62
     2
 10
219.0
 20
492.5
 30
0.0
 11
216.411809549
 21
502.159258263
 31
0.0
  0
LINE
  8
2
  6
CONTINUOUS
 62
     2
 10
219.0
 20
492.5
 30
0.0
 11
219.0
 21
614.5
 31
0.0
  0
LINE
  8
2
  6
CONTINUOUS
 62
     2
 10
219.0
 20
614.5
 30
0.0
 11
216.411809549
 21
604.840741737
 31
0.0
  0
LINE
  8
2
  6
CONTINUOUS
 62
     2
 10
219.0
 20
614.5
 30
0.0
 11
221.588190451
 21
604.840741737
 31
0.0
  0
LINE
  8
2
  6
CONTINUOUS
 62
     2
 10
254.0
 20
610.5
 30
0.0
 11
251.411809549
 21
600.840741737
 31
0.0
  0
LINE
  8
2
  6
CONTINUOUS
 62
     2
 10
254.0
 20
610.5
 30
0.0
 11
256.588190451
 21
600.840741737
 31
0.0
  0
LINE
  8
2
  6
CONTINUOUS
 62
     2
 10
254.0
 20
610.5
 30
0.0
 11
254.0
 21
496.5
 31
0.0
  0
LINE
  8
2
  6
CONTINUOUS
 62
     2
 10
254.0
 20
496.5
 30
0.0
 11
256.588190451
 21
506.159258263
 31
0.0
  0
LINE
  8
2
  6
CONTINUOUS
 62
     2
 10
254.0
 20
496.5
 30
0.0
 11
251.411809549
 21
506.159258263
 31
0.0
  0
LINE
  8
2
  6
CONTINUOUS
 62
     2
 10
318.0
 20
610.5
 30
0.0
 11
249.5
 21
610.5
 31
0.0
  0
LINE
  8
2
  6
CONTINUOUS
 62
     2
 10
318.0
 20
496.5
 30
0.0
 11
249.5
 21
496.5
 31
0.0
  0
LINE
  8
0
  6
CONTINUOUS
 62
     1
 10
377.0
 20
631.5
 30
0.0
 11
377.0
 21
665.5
 31
0.0
  0
LINE
  8
0
  6
CONTINUOUS
 62
     1
 10
377.0
 20
631.5
 30
0.0
 11
403.0
 21
631.5
 31
0.0
  0
LINE
  8
0
  6
CONTINUOUS
 62
     1
 10
377.0
 20
665.5
 30
0.0
 11
403.0
 21
665.5
 31
0.0
  0
LINE
  8
0
  6
LTYPE2
 62
     2
 10
370.070524155
 20
648.5
 30
0.0
 11
410.070524155
 21
648.5
 31
0.0
  0
LINE
  8
0
  6
CONTINUOUS
 62
     1
 10
413.0
 20
623.5
 30
0.0
 11
413.0
 21
626.5
 31
0.0
  0
ARC
  8
0
  6
CONTINUOUS
 62
     1
 10
417.0
 20
620.5
 30
0.0
 40
3.0
 50
0.0
 51
90.0
  0
LINE
  8
0
  6
CONTINUOUS
 62
     1
 10
420.0
 20
613.5
 30
0.0
 11
420.0
 21
620.5
 31
0.0
  0
LINE
  8
0
  6
CONTINUOUS
 62
     1
 10
397.912087912
 20
676.520045888
 30
0.0
 11
396.0
 21
672.520045888
 31
0.0
  0
ARC
  8
0
  6
CONTINUOUS
 62
     1
 10
480.0
 20
675.5
 30
0.0
 40
3.0
 50
0.0
 51
90.0
  0
LINE
  8
0
  6
CONTINUOUS
 62
     1
 10
403.0
 20
629.5
 30
0.0
 11
403.0
 21
669.173892042
 31
0.0
  0
ARC
  8
0
  6
CONTINUOUS
 62
     1
 10
406.0
 20
629.5
 30
0.0
 40
3.0
 50
180.0
 51
270.0
  0
LINE
  8
0
  6
CONTINUOUS
 62
     1
 10
403.0
 20
674.087912088
 30
0.0
 11
403.0
 21
675.5
 31
0.0
  0
LINE
  8
0
  6
CONTINUOUS
 62
     1
 10
406.0
 20
678.5
 30
0.0
 11
480.0
 21
678.5
 31
0.0
  0
ARC
  8
0
  6
CONTINUOUS
 62
     1
 10
406.0
 20
675.5
 30
0.0
 40
3.0
 50
90.0
 51
180.0
  0
LINE
  8
0
  6
CONTINUOUS
 62
     2
 10
377.0
 20
648.5
 30
0.0
 11
377.619310852
 21
658.48080428
 31
0.0
  0
LINE
  8
0
  6
CONTINUOUS
 62
     2
 10
377.0
 20
648.5
 30
0.0
 11
372.545936791
 21
657.453285482
 31
0.0
  0
LINE
  8
2
  6
CONTINUOUS
 62
     2
 10
282.6
 20
571.0
 30
0.0
 11
278.137353923
 21
593.75
 31
0.0
  0
LINE
  8
0
  6
CONTINUOUS
 62
     1
 10
320.7
 20
589.562445841
 30
0.0
 11
320.7
 21
584.950565841
 31
0.0
  0
LINE
  8
0
  6
CONTINUOUS
 62
     1
 10
320.7
 20
589.562445841
 30
0.0
 11
320.7
 21
594.174325841
 31
0.0
  0
LINE
  8
0
  6
CONTINUOUS
 62
     1
 10
317.1998
 20
586.080005841
 30
0.0
 11
317.851882488
 21
584.950565841
 31
0.0
  0
LINE
  8
0
  6
CONTINUOUS
 62
     1
 10
317.1998
 20
589.562445841
 30
0.0
 11
317.1998
 21
586.080005841
 31
0.0
  0
LINE
  8
0
  6
CONTINUOUS
 62
     1
 10
317.1998
 20
593.044885841
 30
0.0
 11
317.851882488
 21
594.174325841
 31
0.0
  0
LINE
  8
0
  6
CONTINUOUS
 62
     1
 10
317.1998
 20
589.562445841
 30
0.0
 11
317.1998
 21
593.044885841
 31
0.0
  0
ARC
  8
0
  6
CONTINUOUS
 62
     1
 10
321.603054926
 20
589.562445841
 30
0.0
 40
4.403254926
 50
148.419912243
 51
211.580087757
  0
ARC
  8
0
  6
CONTINUOUS
 62
     1
 10
318.544720132
 20
586.103535841
 30
0.0
 40
1.34512595
 50
121.002313915
 51
182.989498403
  0
LINE
  8
0
  6
CONTINUOUS
 62
     1
 10
317.1998
 20
593.044885841
 30
0.0
 11
317.851882488
 21
594.174325841
 31
0.0
  0
ARC
  8
0
  6
CONTINUOUS
 62
     1
 10
318.544720132
 20
593.021355841
 30
0.0
 40
1.34512595
 50
177.010501597
 51
238.997686085
  0
LINE
  8
0
  6
CONTINUOUS
 62
     1
 10
320.7
 20
584.950565841
 30
0.0
 11
317.851882488
 21
584.950565841
 31
0.0
  0
LINE
  8
0
  6
CONTINUOUS
 62
     1
 10
320.7
 20
587.256505841
 30
0.0
 11
317.851882488
 21
587.256505841
 31
0.0
  0
LINE
  8
0
  6
CONTINUOUS
 62
     1
 10
320.7
 20
591.868385841
 30
0.0
 11
317.851882488
 21
591.868385841
 31
0.0
  0
LINE
  8
0
  6
CONTINUOUS
 62
     1
 10
320.7
 20
594.174325841
 30
0.0
 11
317.851882488
 21
594.174325841
 31
0.0
  0
LINE
  8
0
  6
CONTINUOUS
 62
     1
 10
322.0
 20
584.962445841
 30
0.0
 11
320.7
 21
584.962445841
 31
0.0
  0
LINE
  8
0
  6
CONTINUOUS
 62
     1
 10
322.0
 20
589.562445841
 30
0.0
 11
320.700000446
 21
588.262446287
 31
0.0
  0
LINE
  8
0
  6
CONTINUOUS
 62
     1
 10
320.700000446
 20
589.562445841
 30
0.0
 11
322.0
 21
590.862445394
 31
0.0
  0
LINE
  8
0
  6
CONTINUOUS
 62
     1
 10
322.0
 20
594.162445841
 30
0.0
 11
320.7
 21
594.162445841
 31
0.0
  0
LINE
  8
0
  6
CONTINUOUS
 62
     1
 10
292.0
 20
549.7
 30
0.0
 11
293.0
 21
549.7
 31
0.0
  0
LINE
  8
0
  6
CONTINUOUS
 62
     1
 10
289.2
 20
550.0
 30
0.0
 11
289.517542648
 21
549.45
 31
0.0
  0
LINE
  8
0
  6
CONTINUOUS
 62
     1
 10
289.517542648
 20
549.45
 30
0.0
 11
292.0
 21
549.45
 31
0.0
  0
ARC
  8
0
  6
CONTINUOUS
 62
     1
 10
290.972973788
 20
550.4625
 30
0.0
 40
1.772973788
 50
145.174816769
 51
214.825183231
  0
LINE
  8
0
  6
CONTINUOUS
 62
     1
 10
292.0
 20
557.55
 30
0.0
 11
292.0
 21
549.45
 31
0.0
  0
LINE
  8
0
  6
CONTINUOUS
 62
     1
 10
292.0
 20
557.3
 30
0.0
 11
293.0
 21
557.3
 31
0.0
  0
LINE
  8
0
  6
CONTINUOUS
 62
     1
 10
292.0
 20
553.5
 30
0.0
 11
293.0
 21
554.5
 31
0.0
  0
LINE
  8
0
  6
CONTINUOUS
 62
     1
 10
289.517542648
 20
557.55
 30
0.0
 11
292.0
 21
557.55
 31
0.0
  0
LINE
  8
0
  6
CONTINUOUS
 62
     1
 10
289.2
 20
557.0
 30
0.0
 11
289.517542648
 21
557.55
 31
0.0
  0
LINE
  8
0
  6
CONTINUOUS
 62
     1
 10
289.517542648
 20
555.525
 30
0.0
 11
292.0
 21
555.525
 31
0.0
  0
ARC
  8
0
  6
CONTINUOUS
 62
     1
 10
290.972973788
 20
556.5375
 30
0.0
 40
1.772973788
 50
145.174816769
 51
214.825183231
  0
LINE
  8
0
  6
CONTINUOUS
 62
     1
 10
292.0
 20
552.5
 30
0.0
 11
293.0
 21
553.5
 31
0.0
  0
LINE
  8
0
  6
CONTINUOUS
 62
     1
 10
289.517542648
 20
551.475
 30
0.0
 11
292.0
 21
551.475
 31
0.0
  0
LINE
  8
0
  6
CONTINUOUS
 62
     1
 10
289.2
 20
557.0
 30
0.0
 11
289.2
 21
550.0
 31
0.0
  0
ARC
  8
0
  6
CONTINUOUS
 62
     1
 10
295.815581181
 20
553.5
 30
0.0
 40
6.615581181
 50
162.175912681
 51
197.824087319
  0
ARC
  8
0
  6
CONTINUOUS
 62
     1
 10
320.5
 20
510.429475845
 30
0.0
 40
1.5
 50
0.0
 51
71.029592192
  0
LINE
  8
0
  6
CONTINUOUS
 62
     1
 10
320.7
 20
517.437554159
 30
0.0
 11
320.7
 21
522.049434159
 31
0.0
  0
LINE
  8
0
  6
CONTINUOUS
 62
     1
 10
317.1998
 20
520.919994159
 30
0.0
 11
317.851882488
 21
522.049434159
 31
0.0
  0
LINE
  8
0
  6
CONTINUOUS
 62
     1
 10
317.1998
 20
517.437554159
 30
0.0
 11
317.1998
 21
520.919994159
 31
0.0
  0
ARC
  8
0
  6
CONTINUOUS
 62
     1
 10
318.544720132
 20
520.896464159
 30
0.0
 40
1.34512595
 50
177.010501597
 51
238.997686085
  0
LINE
  8
0
  6
CONTINUOUS
 62
     1
 10
320.7
 20
522.049434159
 30
0.0
 11
317.851882488
 21
522.049434159
 31
0.0
  0
LINE
  8
0
  6
CONTINUOUS
 62
     1
 10
322.0
 20
522.037554159
 30
0.0
 11
320.7
 21
522.037554159
 31
0.0
  0
LINE
  8
0
  6
CONTINUOUS
 62
     1
 10
320.7
 20
517.437554159
 30
0.0
 11
320.7
 21
512.825674159
 31
0.0
  0
LINE
  8
0
  6
CONTINUOUS
 62
     1
 10
317.1998
 20
513.955114159
 30
0.0
 11
317.851882488
 21
512.825674159
 31
0.0
  0
LINE
  8
0
  6
CONTINUOUS
 62
     1
 10
317.1998
 20
517.437554159
 30
0.0
 11
317.1998
 21
513.955114159
 31
0.0
  0
ARC
  8
0
  6
CONTINUOUS
 62
     1
 10
321.603054926
 20
517.437554159
 30
0.0
 40
4.403254926
 50
148.419912243
 51
211.580087757
  0
LINE
  8
0
  6
CONTINUOUS
 62
     1
 10
317.1998
 20
513.955114159
 30
0.0
 11
317.851882488
 21
512.825674159
 31
0.0
  0
ARC
  8
0
  6
CONTINUOUS
 62
     1
 10
318.544720132
 20
513.978644159
 30
0.0
 40
1.34512595
 50
121.002313915
 51
182.989498403
  0
LINE
  8
0
  6
CONTINUOUS
 62
     1
 10
320.7
 20
515.131614159
 30
0.0
 11
317.851882488
 21
515.131614159
 31
0.0
  0
LINE
  8
0
  6
CONTINUOUS
 62
     1
 10
320.7
 20
512.825674159
 30
0.0
 11
317.851882488
 21
512.825674159
 31
0.0
  0
LINE
  8
0
  6
CONTINUOUS
 62
     1
 10
322.0
 20
512.837554159
 30
0.0
 11
320.7
 21
512.837554159
 31
0.0
  0
LINE
  8
0
  6
CONTINUOUS
 62
     1
 10
320.7
 20
519.743494159
 30
0.0
 11
317.851882488
 21
519.743494159
 31
0.0
  0
LINE
  8
0
  6
CONTINUOUS
 62
     1
 10
322.0
 20
517.437554159
 30
0.0
 11
320.700000446
 21
518.737553713
 31
0.0
  0
LINE
  8
0
  6
CONTINUOUS
 62
     1
 10
320.700000446
 20
517.437554159
 30
0.0
 11
322.0
 21
516.137554606
 31
0.0
  0
LINE
  8
2
  6
CONTINUOUS
 62
     2
 10
351.495317777
 20
553.5
 30
0.0
 11
354.083508228
 21
563.159258263
 31
0.0
  0
LINE
  8
2
  6
CONTINUOUS
 62
     2
 10
351.495317777
 20
553.5
 30
0.0
 11
348.907127326
 21
563.159258263
 31
0.0
  0
LINE
  8
2
  6
CONTINUOUS
 62
     2
 10
351.495317777
 20
553.5
 30
0.0
 11
351.495317777
 21
678.5
 31
0.0
  0
LINE
  8
2
  6
CONTINUOUS
 62
     2
 10
351.495317777
 20
678.5
 30
0.0
 11
348.907127326
 21
668.840741737
 31
0.0
  0
LINE
  8
2
  6
CONTINUOUS
 62
     2
 10
351.495317777
 20
678.5
 30
0.0
 11
354.083508228
 21
668.840741737
 31
0.0
  0
LINE
  8
2
  6
CONTINUOUS
 62
     2
 10
402.0
 20
678.5
 30
0.0
 11
347.495317777
 21
678.5
 31
0.0
  0
LINE
  8
0
  6
CONTINUOUS
 62
     2
 10
377.0
 20
648.5
 30
0.0
 11
363.930224855
 21
713.032014776
 31
0.0
  0
LINE
  8
0
  6
CONTINUOUS
 62
     2
 10
363.930224855
 20
713.032014776
 30
0.0
 11
309.558072957
 21
713.032014776
 31
0.0
  0
LINE
  8
2
  6
CONTINUOUS
 62
     2
 10
277.0
 20
569.0
 30
0.0
 11
277.0
 21
810.0
 31
0.0
  0
TEXT
  8
0
  6
CONTINUOUS
 62
     2
 10
309.558072957
 20
717.032014776
 30
0.0
 40
15.0
  1
ＰＦ３／４
 50
0.0
 41
0.9
 51
0.0
  7
KANJI42
  0
TEXT
  8
2
  6
CONTINUOUS
 62
     2
 10
347.658072957
 20
624.532014776
 30
0.0
 40
15.0
  1
１２５
 50
90.0
 41
0.9
 51
0.0
  7
KANJI42
  0
TEXT
  8
0
  6
CONTINUOUS
 62
     2
 10
363.8
 20
525.5
 30
0.0
 40
15.0
  1
日本電産
 50
0.0
 41
0.9
 51
0.0
  7
KANJI42
  0
TEXT
  8
2
  6
CONTINUOUS
 62
     2
 10
215.0
 20
527.7
 30
0.0
 40
15.0
  1
ロ１２２
 50
90.0
 41
0.9
 51
0.0
  7
KANJI42
  0
TEXT
  8
2
  6
CONTINUOUS
 62
     2
 10
250.0
 20
527.7
 30
0.0
 40
15.0
  1
φ１１４
 50
90.0
 41
0.9
 51
0.0
  7
KANJI42
  0
LINE
  8
2
  6
CONTINUOUS
 62
     2
 10
620.0
 20
802.0
 30
0.0
 11
277.0
 21
802.0
 31
0.0
  0
LINE
  8
2
  6
CONTINUOUS
 62
     2
 10
277.0
 20
802.0
 30
0.0
 11
286.659258263
 21
799.411809549
 31
0.0
  0
LINE
  8
2
  6
CONTINUOUS
 62
     2
 10
277.0
 20
802.0
 30
0.0
 11
286.659258263
 21
804.588190451
 31
0.0
  0
LINE
  8
2
  6
CONTINUOUS
 62
     2
 10
277.0
 20
831.5
 30
0.0
 11
286.659258263
 21
828.911809549
 31
0.0
  0
LINE
  8
2
  6
CONTINUOUS
 62
     2
 10
277.0
 20
831.5
 30
0.0
 11
286.659258263
 21
834.088190451
 31
0.0
  0
LINE
  8
2
  6
CONTINUOUS
 62
     2
 10
277.0
 20
800.5
 30
0.0
 11
277.0
 21
839.5
 31
0.0
  0
TEXT
  8
0
  6
CONTINUOUS
 62
     2
 10
438.5
 20
806.0
 30
0.0
 40
15.0
  1
３４３
 50
0.0
 41
0.9
 51
0.0
  7
KANJI42
  0
TEXT
  8
0
  6
CONTINUOUS
 62
     2
 10
251.9
 20
414.7
 30
0.0
 40
20.0
  1
ブレーキ解放装置はありません。
 50
0.0
 41
0.925
 51
0.0
  7
KANJI43
  0
TEXT
  8
0
  6
CONTINUOUS
 62
     2
 10
252.9
 20
389.7
 30
0.0
 40
20.0
  1
そのまま手動操作をして下さい．
 50
0.0
 41
0.925
 51
0.0
  7
KANJI43
  0
ARC
  8
0
  6
CONTINUOUS
 62
     2
 10
162.3
 20
551.0
 30
0.0
 40
20.0
 50
203.198590514
 51
128.047042532
  0
LINE
  8
0
  6
CONTINUOUS
 62
     2
 10
143.9170994
 20
543.121614028
 30
0.0
 11
152.185260778
 21
538.214277493
 31
0.0
  0
LINE
  8
0
  6
CONTINUOUS
 62
     2
 10
143.9170994
 20
543.121614028
 30
0.0
 11
146.21179211
 21
533.284175251
 31
0.0
  0
LINE
  8
0
  6
LTYPE3
 62
     2
 10
515.9
 20
606.5
 30
0.0
 11
1129.9
 21
606.5
 31
0.0
  0
LINE
  8
0
  6
CONTINUOUS
 62
     1
 10
394.0
 20
603.0
 30
0.0
 11
394.0
 21
560.0
 31
0.0
  0
TEXT
  8
0
  6
CONTINUOUS
 62
     2
 10
405.0
 20
565.0
 30
5.0
 40
20.0
  1
銘板
 50
0.0
 41
0.925
 51
0.0
  7
KANJI44
  0
LINE
  8
0
  6
CONTINUOUS
 62
     1
 10
464.0
 20
603.0
 30
0.0
 11
464.0
 21
560.0
 31
0.0
  0
LINE
  8
0
  6
CONTINUOUS
 62
     1
 10
394.0
 20
560.0
 30
0.0
 11
464.0
 21
560.0
 31
0.0
  0
LINE
  8
0
  6
CONTINUOUS
 62
     1
 10
394.0
 20
603.0
 30
0.0
 11
464.0
 21
603.0
 31
0.0
  0
TEXT
  8
0
  6
CONTINUOUS
 62
     2
 10
445.653757109
 20
873.228121884
 30
0.0
 40
20.0
  1
推力リミッタの作動値は、約１１０ｋｇ（設計値）
 50
0.0
 41
0.925
 51
0.0
  7
KANJI43
  0
LINE
  8
0
  6
CONTINUOUS
 62
     2
 10
446.253757109
 20
869.028121884
 30
0.0
 11
869.999784008
 21
869.028121884
 31
0.0
  0
ARC
  8
0
  6
CONTINUOUS
 62
     1
 10
556.0
 20
555.5
 30
0.0
 40
2.0
 50
270.0
 51
0.0
  0
LINE
  8
0
  6
CONTINUOUS
 62
     1
 10
550.0
 20
553.5
 30
0.0
 11
556.0
 21
553.5
 31
0.0
  0
LINE
  8
0
  6
LTYPE2
 62
     2
 10
544.35
 20
497.5
 30
0.0
 11
883.61
 21
497.5
 31
0.0
  0
LINE
  8
0
  6
LTYPE1
 62
     2
 10
561.35
 20
507.3
 30
0.0
 11
555.735640646
 21
507.3
 31
0.0
  0
LINE
  8
0
  6
LTYPE1
 62
     2
 10
561.35
 20
502.4
 30
0.0
 11
555.735640646
 21
502.4
 31
0.0
  0
LINE
  8
0
  6
LTYPE1
 62
     2
 10
561.35
 20
487.7
 30
0.0
 11
555.735640646
 21
487.7
 31
0.0
  0
LINE
  8
0
  6
LTYPE1
 62
     2
 10
561.35
 20
492.6
 30
0.0
 11
555.735640646
 21
492.6
 31
0.0
  0
LINE
  8
0
  6
LTYPE1
 62
     2
 10
554.35
 20
497.5
 30
0.0
 11
554.35
 21
504.9
 31
0.0
  0
LINE
  8
0
  6
LTYPE1
 62
     2
 10
554.35
 20
504.9
 30
0.0
 11
555.735640646
 21
507.3
 31
0.0
  0
LINE
  8
0
  6
LTYPE1
 62
     2
 10
554.35
 20
504.9
 30
0.0
 11
555.735640646
 21
507.3
 31
0.0
  0
ARC
  8
0
  6
LTYPE1
 62
     2
 10
557.207883832
 20
504.85
 30
0.0
 40
2.858321186
 50
177.010501597
 51
238.997686085
  0
LINE
  8
0
  6
LTYPE1
 62
     2
 10
549.85
 20
501.5
 30
0.0
 11
554.35
 21
501.5
 31
0.0
  0
LINE
  8
0
  6
LTYPE1
 62
     2
 10
549.85
 20
500.5
 30
0.0
 11
554.35
 21
500.5
 31
0.0
  0
LINE
  8
0
  6
LTYPE1
 62
     2
 10
554.35
 20
490.1
 30
0.0
 11
555.735640646
 21
487.7
 31
0.0
  0
LINE
  8
0
  6
LTYPE1
 62
     2
 10
554.35
 20
497.5
 30
0.0
 11
554.35
 21
490.1
 31
0.0
  0
ARC
  8
0
  6
LTYPE1
 62
     2
 10
557.207883832
 20
490.15
 30
0.0
 40
2.858321186
 50
121.002313915
 51
182.989498403
  0
LINE
  8
0
  6
LTYPE1
 62
     2
 10
549.85
 20
493.5
 30
0.0
 11
554.35
 21
493.5
 31
0.0
  0
LINE
  8
0
  6
LTYPE1
 62
     2
 10
549.85
 20
494.5
 30
0.0
 11
554.35
 21
494.5
 31
0.0
  0
ARC
  8
0
  6
LTYPE1
 62
     2
 10
563.7066828
 20
497.5
 30
0.0
 40
9.3566828
 50
148.419912243
 51
211.580087757
  0
LINE
  8
0
  6
LTYPE1
 62
     2
 10
549.85
 20
493.5
 30
0.0
 11
549.85
 21
501.5
 31
0.0
  0
TEXT
  8
0
  6
CONTINUOUS
 62
     2
 10
88.4170994
 20
546.878385972
 30
0.0
 40
15.0
  1
前進方向
 50
0.0
 41
0.9
 51
0.0
  7
KANJI42
  0
LINE
  8
0
  6
CONTINUOUS
 62
     1
 10
901.999501379
 20
261.6
 30
0.0
 11
933.999501379
 21
261.6
 31
0.0
  0
LINE
  8
0
  6
CONTINUOUS
 62
     1
 10
901.999501379
 20
229.6
 30
0.0
 11
901.999501379
 21
261.6
 31
0.0
  0
ARC
  8
0
  6
CONTINUOUS
 62
     1
 10
862.999501379
 20
318.1
 30
0.0
 40
10.0
 50
90.0
 51
180.0
  0
LINE
  8
0
  6
CONTINUOUS
 62
     1
 10
862.999501379
 20
328.1
 30
0.0
 11
972.999501379
 21
328.1
 31
0.0
  0
LINE
  8
0
  6
LTYPE3
 62
     2
 10
984.260522596
 20
303.6
 30
0.0
 11
892.999501379
 21
303.6
 31
0.0
  0
LINE
  8
0
  6
CONTINUOUS
 62
     1
 10
933.999501379
 20
229.6
 30
0.0
 11
901.999501379
 21
229.6
 31
0.0
  0
LINE
  8
0
  6
LTYPE3
 62
     2
 10
928.499501379
 20
202.7
 30
0.0
 11
939.399501379
 21
202.7
 31
0.0
  0
LINE
  8
0
  6
LTYPE3
 62
     2
 10
927.959501379
 20
172.5
 30
0.0
 11
939.399501379
 21
172.5
 31
0.0
  0
LINE
  8
0
  6
LTYPE3
 62
     2
 10
870.699501379
 20
172.5
 30
0.0
 11
880.659501379
 21
172.5
 31
0.0
  0
LINE
  8
0
  6
LTYPE3
 62
     2
 10
875.699501379
 20
168.6
 30
0.0
 11
875.699501379
 21
176.48
 31
0.0
  0
LINE
  8
0
  6
LTYPE3
 62
     2
 10
870.699501379
 20
202.7
 30
0.0
 11
880.499501379
 21
202.7
 31
0.0
  0
LINE
  8
0
  6
LTYPE3
 62
     2
 10
875.699501379
 20
196.58
 30
0.0
 11
875.699501379
 21
206.6
 31
0.0
  0
LINE
  8
0
  6
LTYPE3
 62
     2
 10
871.999501379
 20
225.6
 30
0.0
 11
848.999501379
 21
225.6
 31
0.0
  0
ARC
  8
0
  6
CONTINUOUS
 62
     1
 10
872.699501379
 20
169.6
 30
0.0
 40
2.0
 50
180.0
 51
270.0
  0
LINE
  8
0
  6
CONTINUOUS
 62
     1
 10
847.299501379
 20
174.9
 30
0.0
 11
870.699501379
 21
174.9
 31
0.0
  0
ARC
  8
0
  6
CONTINUOUS
 62
     1
 10
847.299501379
 20
176.9
 30
0.0
 40
2.0
 50
180.0
 51
270.0
  0
LINE
  8
0
  6
CONTINUOUS
 62
     1
 10
845.299501379
 20
176.9
 30
0.0
 11
845.299501379
 21
198.3
 31
0.0
  0
ARC
  8
0
  6
CONTINUOUS
 62
     1
 10
847.299501379
 20
198.3
 30
0.0
 40
2.0
 50
90.0
 51
180.0
  0
LINE
  8
0
  6
CONTINUOUS
 62
     1
 10
870.699501379
 20
169.6
 30
0.0
 11
870.699501379
 21
205.6
 31
0.0
  0
ARC
  8
0
  6
CONTINUOUS
 62
     1
 10
872.699501379
 20
205.6
 30
0.0
 40
2.0
 50
90.0
 51
180.0
  0
LINE
  8
0
  6
CONTINUOUS
 62
     1
 10
872.699501379
 20
207.6
 30
0.0
 11
937.399501379
 21
207.6
 31
0.0
  0
LINE
  8
0
  6
CONTINUOUS
 62
     1
 10
872.699501379
 20
167.6
 30
0.0
 11
937.399501379
 21
167.6
 31
0.0
  0
LINE
  8
0
  6
CONTINUOUS
 62
     1
 10
852.999501379
 20
174.9
 30
0.0
 11
852.999501379
 21
173.1
 31
0.0
  0
LINE
  8
0
  6
CONTINUOUS
 62
     1
 10
972.999501379
 20
163.1
 30
0.0
 11
862.999501379
 21
163.1
 31
0.0
  0
ARC
  8
0
  6
CONTINUOUS
 62
     1
 10
862.999501379
 20
173.1
 30
0.0
 40
10.0
 50
180.0
 51
270.0
  0
LINE
  8
0
  6
CONTINUOUS
 62
     1
 10
855.007817392
 20
187.915789474
 30
0.0
 11
857.005045388
 21
225.810526316
 31
0.0
  0
LINE
  8
0
  6
CONTINUOUS
 62
     1
 10
866.991185367
 20
187.915789474
 30
0.0
 11
864.993957371
 21
225.810526316
 31
0.0
  0
ARC
  8
0
  6
CONTINUOUS
 62
     1
 10
860.999501379
 20
225.6
 30
0.0
 40
4.0
 50
356.983042101
 51
183.016952287
  0
ARC
  8
0
  6
CONTINUOUS
 62
     1
 10
860.999501379
 20
225.6
 30
0.0
 40
8.75
 50
300.219855722
 51
239.780144278
  0
ARC
  8
0
  6
CONTINUOUS
 62
     1
 10
860.999501379
 20
187.6
 30
0.0
 40
6.0
 50
176.983045121
 51
3.016954879
  0
LINE
  8
0
  6
CONTINUOUS
 62
     1
 10
866.338480162
 20
200.3
 30
0.0
 11
870.699501379
 21
200.3
 31
0.0
  0
LINE
  8
0
  6
CONTINUOUS
 62
     1
 10
847.299501379
 20
200.3
 30
0.0
 11
855.660522596
 21
200.3
 31
0.0
  0
LINE
  8
0
  6
LTYPE3
 62
     2
 10
860.999501379
 20
178.5
 30
0.0
 11
860.999501379
 21
236.0
 31
0.0
  0
LINE
  8
0
  6
LTYPE3
 62
     2
 10
851.738480162
 20
187.6
 30
0.0
 11
942.999501379
 21
187.6
 31
0.0
  0
LINE
  8
0
  6
CONTINUOUS
 62
     1
 10
852.999501379
 20
222.05563828
 30
0.0
 11
852.999501379
 21
200.25
 31
0.0
  0
LINE
  8
0
  6
CONTINUOUS
 62
     1
 10
852.999501379
 20
237.6
 30
0.0
 11
852.999501379
 21
229.14436172
 31
0.0
  0
LINE
  8
0
  6
CONTINUOUS
 62
     1
 10
836.620444363
 20
237.6
 30
0.0
 11
901.999501379
 21
237.6
 31
0.0
  0
LINE
  8
0
  6
CONTINUOUS
 62
     1
 10
901.999501379
 20
253.6
 30
0.0
 11
836.690079342
 21
253.6
 31
0.0
  0
ARC
  8
0
  6
CONTINUOUS
 62
     1
 10
842.244969957
 20
249.6
 30
0.0
 40
6.845203412
 50
144.242860688
 51
215.757139312
  0
ARC
  8
0
  6
CONTINUOUS
 62
     1
 10
831.135188727
 20
249.6
 30
0.0
 40
6.845203412
 50
324.242860688
 51
35.757139312
  0
ARC
  8
0
  6
CONTINUOUS
 62
     1
 10
831.135188727
 20
241.6
 30
0.0
 40
6.845203412
 50
324.242860688
 51
35.757139312
  0
LINE
  8
0
  6
LTYPE2
 62
     2
 10
1066.499501379
 20
245.6
 30
0.0
 11
831.655261852
 21
245.6
 31
0.0
  0
LINE
  8
7
  6
CONTINUOUS
 62
     2
 10
896.599501379
 20
303.6
 30
0.0
 11
888.29102349
 21
298.035002681
 31
0.0
  0
LINE
  8
7
  6
CONTINUOUS
 62
     2
 10
896.599501379
 20
303.6
 30
0.0
 11
892.18664712
 21
294.626332005
 31
0.0
  0
LINE
  8
7
  6
CONTINUOUS
 62
     2
 10
896.599501379
 20
303.6
 30
0.0
 11
885.399501379
 21
290.8
 31
0.0
  0
LINE
  8
7
  6
CONTINUOUS
 62
     2
 10
885.399501379
 20
290.8
 30
0.0
 11
826.599501379
 21
290.8
 31
0.0
  0
TEXT
  8
7
  6
CONTINUOUS
 62
     2
 10
826.599501379
 20
294.8
 30
1.2
 40
12.0
  1
ＰＦ１／２
 50
0.0
 41
0.9
 51
0.0
  7
KANJI19
  0
LINE
  8
0
  6
CONTINUOUS
 62
     1
 10
852.999501379
 20
307.8
 30
0.0
 11
852.999501379
 21
318.1
 31
0.0
  0
LINE
  8
0
  6
CONTINUOUS
 62
     1
 10
852.999501379
 20
253.6
 30
0.0
 11
852.999501379
 21
287.8
 31
0.0
  0
LINE
  8
0
  6
LTYPE2
 62
     2
 10
917.999501379
 20
211.5
 30
0.0
 11
917.999501379
 21
522.5
 31
0.0
  0
LINE
  8
0
  6
LTYPE3
 62
     2
 10
908.039501379
 20
318.7
 30
0.0
 11
896.599501379
 21
318.7
 31
0.0
  0
LINE
  8
0
  6
LTYPE3
 62
     2
 10
901.599501379
 20
322.6
 30
0.0
 11
901.599501379
 21
313.62
 31
0.0
  0
LINE
  8
0
  6
CONTINUOUS
 62
     1
 10
963.299501379
 20
323.6
 30
0.0
 11
898.599501379
 21
323.6
 31
0.0
  0
LINE
  8
0
  6
CONTINUOUS
 62
     1
 10
896.599501379
 20
321.6
 30
0.0
 11
896.599501379
 21
285.6
 31
0.0
  0
ARC
  8
0
  6
CONTINUOUS
 62
     1
 10
898.599501379
 20
321.6
 30
0.0
 40
2.0
 50
90.0
 51
180.0
  0
LINE
  8
0
  6
LTYPE3
 62
     2
 10
907.499501379
 20
288.5
 30
0.0
 11
896.599501379
 21
288.5
 31
0.0
  0
LINE
  8
0
  6
LTYPE3
 62
     2
 10
901.599501379
 20
294.52
 30
0.0
 11
901.599501379
 21
284.6
 31
0.0
  0
LINE
  8
0
  6
CONTINUOUS
 62
     1
 10
963.299501379
 20
283.6
 30
0.0
 11
898.599501379
 21
283.6
 31
0.0
  0
ARC
  8
0
  6
CONTINUOUS
 62
     1
 10
898.599501379
 20
285.6
 30
0.0
 40
2.0
 50
180.0
 51
270.0
  0
LINE
  8
0
  6
CONTINUOUS
 62
     1
 10
624.005833333
 20
221.118333333
 30
0.0
 11
624.005833333
 21
167.201666667
 31
0.0
  0
LINE
  8
0
  6
CONTINUOUS
 62
     1
 10
625.6725
 20
165.535
 30
0.0
 11
655.6725
 21
165.535
 31
0.0
  0
ARC
  8
0
  6
CONTINUOUS
 62
     1
 10
625.6725
 20
167.201666667
 30
0.0
 40
1.666666667
 50
180.0
 51
270.0
  0
LINE
  8
0
  6
CONTINUOUS
 62
     1
 10
657.339166667
 20
221.118333333
 30
0.0
 11
657.339166667
 21
167.201666667
 31
0.0
  0
ARC
  8
0
  6
CONTINUOUS
 62
     1
 10
655.6725
 20
167.201666667
 30
0.0
 40
1.666666667
 50
270.0
 51
0.0
  0
ARC
  8
0
  6
CONTINUOUS
 62
     1
 10
625.6725
 20
221.118333333
 30
0.0
 40
1.666666667
 50
90.0
 51
180.0
  0
LINE
  8
0
  6
CONTINUOUS
 62
     1
 10
630.089166667
 20
242.285
 30
0.0
 11
630.089166667
 21
222.785
 31
0.0
  0
LINE
  8
0
  6
CONTINUOUS
 62
     1
 10
625.6725
 20
222.785
 30
0.0
 11
655.6725
 21
222.785
 31
0.0
  0
ARC
  8
0
  6
CONTINUOUS
 62
     1
 10
655.6725
 20
221.118333333
 30
0.0
 40
1.666666667
 50
0.0
 51
90.0
  0
ARC
  8
0
  6
CONTINUOUS
 62
     1
 10
631.755833333
 20
242.285
 30
0.0
 40
1.666666667
 50
90.0
 51
180.0
  0
ARC
  8
0
  6
CONTINUOUS
 62
     1
 10
640.6725
 20
230.868333333
 30
0.0
 40
5.0
 50
131.983045121
 51
318.016954879
  0
LINE
  8
0
  6
LTYPE3
 62
     2
 10
635.310273576
 20
225.506106909
 30
0.0
 11
669.192473508
 21
259.388306841
 31
0.0
  0
LINE
  8
0
  6
CONTINUOUS
 62
     1
 10
637.327947083
 20
234.585047714
 30
0.0
 11
660.834512793
 21
255.737857658
 31
0.0
  0
LINE
  8
0
  6
CONTINUOUS
 62
     1
 10
644.389214381
 20
227.523780417
 30
0.0
 11
665.542024325
 21
251.030346126
 31
0.0
  0
LINE
  8
0
  6
LTYPE3
 62
     2
 10
669.546026898
 20
246.77823591
 30
0.0
 11
655.993146926
 21
260.331115883
 31
0.0
  0
ARC
  8
0
  6
CONTINUOUS
 62
     1
 10
663.064214738
 20
253.260048071
 30
0.0
 40
7.291666667
 50
255.219855722
 51
194.780144278
  0
ARC
  8
0
  6
CONTINUOUS
 62
     1
 10
663.064214738
 20
253.260048071
 30
0.0
 40
3.333333333
 50
311.983042101
 51
138.016952287
  0
LINE
  8
0
  6
CONTINUOUS
 62
     1
 10
651.255833333
 20
235.154474875
 30
0.0
 11
651.255833333
 21
222.785
 31
0.0
  0
LINE
  8
0
  6
CONTINUOUS
 62
     1
 10
631.755833333
 20
243.951666667
 30
0.0
 11
647.736826304
 21
243.951666667
 31
0.0
  0
LINE
  8
0
  6
LTYPE2
 62
     2
 10
628.276666667
 20
203.201666667
 30
0.0
 11
653.276666667
 21
203.201666667
 31
0.0
  0
LINE
  8
0
  6
LTYPE2
 62
     2
 10
653.276666667
 20
203.201666667
 30
0.0
 11
653.276666667
 21
211.118333333
 31
0.0
  0
LINE
  8
0
  6
LTYPE2
 62
     2
 10
653.276666667
 20
211.118333333
 30
0.0
 11
628.276666667
 21
211.118333333
 31
0.0
  0
LINE
  8
0
  6
LTYPE2
 62
     2
 10
628.276666667
 20
211.118333333
 30
0.0
 11
628.276666667
 21
203.201666667
 31
0.0
  0
LINE
  8
0
  6
CONTINUOUS
 62
     1
 10
628.276666667
 20
178.201666667
 30
0.0
 11
653.276666667
 21
178.201666667
 31
0.0
  0
LINE
  8
0
  6
CONTINUOUS
 62
     1
 10
653.276666667
 20
178.201666667
 30
0.0
 11
653.276666667
 21
186.118333333
 31
0.0
  0
LINE
  8
0
  6
CONTINUOUS
 62
     1
 10
653.276666667
 20
186.118333333
 30
0.0
 11
628.276666667
 21
186.118333333
 31
0.0
  0
LINE
  8
0
  6
CONTINUOUS
 62
     1
 10
628.276666667
 20
186.118333333
 30
0.0
 11
628.276666667
 21
178.201666667
 31
0.0
  0
TEXT
  8
0
  6
CONTINUOUS
 62
     2
 10
627.255833333
 20
213.868333333
 30
0.0
 40
8.333333333
  1
４
 50
0.0
 41
0.85
 51
0.0
  7
KANJI45
  0
TEXT
  8
0
  6
CONTINUOUS
 62
     2
 10
648.089166667
 20
213.868333333
 30
0.0
 40
8.333333333
  1
３
 50
0.0
 41
0.85
 51
0.0
  7
KANJI45
  0
POLYLINE
  8
0
  6
CONTINUOUS
 62
     2
 66
     1
 70
     1
  0
VERTEX
  8
0
  6
CONTINUOUS
 62
     2
 10
636.4225
 20
213.243333333
 30
0.0
 42
0.021820078
  0
VERTEX
  8
0
  6
CONTINUOUS
 62
     2
 10
636.415365059
 20
213.406750351
 30
0.0
 42
0.021820078
  0
VERTEX
  8
0
  6
CONTINUOUS
 62
     2
 10
636.394014537
 20
213.568923666
 30
0.0
 42
0.021820078
  0
VERTEX
  8
0
  6
CONTINUOUS
 62
     2
 10
636.358610924
 20
213.728619043
 30
0.0
 42
0.021820078
  0
VERTEX
  8
0
  6
CONTINUOUS
 62
     2
 10
636.309423664
 20
213.884621102
 30
0.0
 42
0.021820078
  0
VERTEX
  8
0
  6
CONTINUOUS
 62
     2
 10
636.246827101
 20
214.035742574
 30
0.0
 42
0.021820078
  0
VERTEX
  8
0
  6
CONTINUOUS
 62
     2
 10
636.171297632
 20
214.180833333
 30
0.0
 42
0.021820078
  0
VERTEX
  8
0
  6
CONTINUOUS
 62
     2
 10
636.083410083
 20
214.318789151
 30
0.0
 42
0.021820078
  0
VERTEX
  8
0
  6
CONTINUOUS
 62
     2
 10
635.983833331
 20
214.448560101
 30
0.0
 42
0.021820078
  0
VERTEX
  8
0
  6
CONTINUOUS
 62
     2
 10
635.873325215
 20
214.569158548
 30
0.0
 42
0.021820078
  0
VERTEX
  8
0
  6
CONTINUOUS
 62
     2
 10
635.752726768
 20
214.679666664
 30
0.0
 42
0.021820078
  0
VERTEX
  8
0
  6
CONTINUOUS
 62
     2
 10
635.622955818
 20
214.779243416
 30
0.0
 42
0.021820078
  0
VERTEX
  8
0
  6
CONTINUOUS
 62
     2
 10
635.485
 20
214.867130965
 30
0.0
 42
0.021820078
  0
VERTEX
  8
0
  6
CONTINUOUS
 62
     2
 10
635.339909241
 20
214.942660434
 30
0.0
 42
0.021820078
  0
VERTEX
  8
0
  6
CONTINUOUS
 62
     2
 10
635.188787769
 20
215.005256997
 30
0.0
 42
0.021820078
  0
VERTEX
  8
0
  6
CONTINUOUS
 62
     2
 10
635.03278571
 20
215.054444258
 30
0.0
 42
0.021820078
  0
VERTEX
  8
0
  6
CONTINUOUS
 62
     2
 10
634.873090333
 20
215.08984787
 30
0.0
 42
0.021820078
  0
VERTEX
  8
0
  6
CONTINUOUS
 62
     2
 10
634.710917018
 20
215.111198392
 30
0.0
 42
0.021820078
  0
VERTEX
  8
0
  6
CONTINUOUS
 62
     2
 10
634.5475
 20
215.118333333
 30
0.0
 42
0.021820078
  0
VERTEX
  8
0
  6
CONTINUOUS
 62
     2
 10
634.384082982
 20
215.111198392
 30
0.0
 42
0.021820078
  0
VERTEX
  8
0
  6
CONTINUOUS
 62
     2
 10
634.221909667
 20
215.08984787
 30
0.0
 42
0.021820078
  0
VERTEX
  8
0
  6
CONTINUOUS
 62
     2
 10
634.06221429
 20
215.054444258
 30
0.0
 42
0.021820078
  0
VERTEX
  8
0
  6
CONTINUOUS
 62
     2
 10
633.906212231
 20
215.005256997
 30
0.0
 42
0.021820078
  0
VERTEX
  8
0
  6
CONTINUOUS
 62
     2
 10
633.755090759
 20
214.942660434
 30
0.0
 42
0.021820078
  0
VERTEX
  8
0
  6
CONTINUOUS
 62
     2
 10
633.61
 20
214.867130965
 30
0.0
 42
0.021820078
  0
VERTEX
  8
0
  6
CONTINUOUS
 62
     2
 10
633.472044182
 20
214.779243416
 30
0.0
 42
0.021820078
  0
VERTEX
  8
0
  6
CONTINUOUS
 62
     2
 10
633.342273232
 20
214.679666664
 30
0.0
 42
0.021820078
  0
VERTEX
  8
0
  6
CONTINUOUS
 62
     2
 10
633.221674785
 20
214.569158548
 30
0.0
 42
0.021820078
  0
VERTEX
  8
0
  6
CONTINUOUS
 62
     2
 10
633.111166669
 20
214.448560101
 30
0.0
 42
0.021820078
  0
VERTEX
  8
0
  6
CONTINUOUS
 62
     2
 10
633.011589917
 20
214.318789151
 30
0.0
 42
0.021820078
  0
VERTEX
  8
0
  6
CONTINUOUS
 62
     2
 10
632.923702368
 20
214.180833333
 30
0.0
 42
0.021820078
  0
VERTEX
  8
0
  6
CONTINUOUS
 62
     2
 10
632.848172899
 20
214.035742574
 30
0.0
 42
0.021820078
  0
VERTEX
  8
0
  6
CONTINUOUS
 62
     2
 10
632.785576336
 20
213.884621102
 30
0.0
 42
0.021820078
  0
VERTEX
  8
0
  6
CONTINUOUS
 62
     2
 10
632.736389076
 20
213.728619043
 30
0.0
 42
0.021820078
  0
VERTEX
  8
0
  6
CONTINUOUS
 62
     2
 10
632.700985463
 20
213.568923666
 30
0.0
 42
0.021820078
  0
VERTEX
  8
0
  6
CONTINUOUS
 62
     2
 10
632.679634941
 20
213.406750351
 30
0.0
 42
0.021820078
  0
VERTEX
  8
0
  6
CONTINUOUS
 62
     2
 10
632.6725
 20
213.243333333
 30
0.0
 42
0.021820078
  0
VERTEX
  8
0
  6
CONTINUOUS
 62
     2
 10
632.679634941
 20
213.079916316
 30
0.0
 42
0.021820078
  0
VERTEX
  8
0
  6
CONTINUOUS
 62
     2
 10
632.700985463
 20
212.917743
 30
0.0
 42
0.021820078
  0
VERTEX
  8
0
  6
CONTINUOUS
 62
     2
 10
632.736389076
 20
212.758047624
 30
0.0
 42
0.021820078
  0
VERTEX
  8
0
  6
CONTINUOUS
 62
     2
 10
632.785576336
 20
212.602045565
 30
0.0
 42
0.021820078
  0
VERTEX
  8
0
  6
CONTINUOUS
 62
     2
 10
632.848172899
 20
212.450924093
 30
0.0
 42
0.021820078
  0
VERTEX
  8
0
  6
CONTINUOUS
 62
     2
 10
632.923702368
 20
212.305833333
 30
0.0
 42
0.021820078
  0
VERTEX
  8
0
  6
CONTINUOUS
 62
     2
 10
633.011589917
 20
212.167877515
 30
0.0
 42
0.021820078
  0
VERTEX
  8
0
  6
CONTINUOUS
 62
     2
 10
633.111166669
 20
212.038106565
 30
0.0
 42
0.021820078
  0
VERTEX
  8
0
  6
CONTINUOUS
 62
     2
 10
633.221674785
 20
211.917508119
 30
0.0
 42
0.021820078
  0
VERTEX
  8
0
  6
CONTINUOUS
 62
     2
 10
633.342273232
 20
211.807000002
 30
0.0
 42
0.021820078
  0
VERTEX
  8
0
  6
CONTINUOUS
 62
     2
 10
633.472044182
 20
211.70742325
 30
0.0
 42
0.021820078
  0
VERTEX
  8
0
  6
CONTINUOUS
 62
     2
 10
633.61
 20
211.619535701
 30
0.0
 42
0.021820078
  0
VERTEX
  8
0
  6
CONTINUOUS
 62
     2
 10
633.755090759
 20
211.544006233
 30
0.0
 42
0.021820078
  0
VERTEX
  8
0
  6
CONTINUOUS
 62
     2
 10
633.906212231
 20
211.481409669
 30
0.0
 42
0.021820078
  0
VERTEX
  8
0
  6
CONTINUOUS
 62
     2
 10
634.06221429
 20
211.432222409
 30
0.0
 42
0.021820078
  0
VERTEX
  8
0
  6
CONTINUOUS
 62
     2
 10
634.221909667
 20
211.396818796
 30
0.0
 42
0.021820078
  0
VERTEX
  8
0
  6
CONTINUOUS
 62
     2
 10
634.384082982
 20
211.375468274
 30
0.0
 42
0.021820078
  0
VERTEX
  8
0
  6
CONTINUOUS
 62
     2
 10
634.5475
 20
211.368333333
 30
0.0
 42
0.021820078
  0
VERTEX
  8
0
  6
CONTINUOUS
 62
     2
 10
634.710917018
 20
211.375468274
 30
0.0
 42
0.021820078
  0
VERTEX
  8
0
  6
CONTINUOUS
 62
     2
 10
634.873090333
 20
211.396818796
 30
0.0
 42
0.021820078
  0
VERTEX
  8
0
  6
CONTINUOUS
 62
     2
 10
635.03278571
 20
211.432222409
 30
0.0
 42
0.021820078
  0
VERTEX
  8
0
  6
CONTINUOUS
 62
     2
 10
635.188787769
 20
211.481409669
 30
0.0
 42
0.021820078
  0
VERTEX
  8
0
  6
CONTINUOUS
 62
     2
 10
635.339909241
 20
211.544006233
 30
0.0
 42
0.021820078
  0
VERTEX
  8
0
  6
CONTINUOUS
 62
     2
 10
635.485
 20
211.619535701
 30
0.0
 42
0.021820078
  0
VERTEX
  8
0
  6
CONTINUOUS
 62
     2
 10
635.622955818
 20
211.70742325
 30
0.0
 42
0.021820078
  0
VERTEX
  8
0
  6
CONTINUOUS
 62
     2
 10
635.752726768
 20
211.807000002
 30
0.0
 42
0.021820078
  0
VERTEX
  8
0
  6
CONTINUOUS
 62
     2
 10
635.873325215
 20
211.917508119
 30
0.0
 42
0.021820078
  0
VERTEX
  8
0
  6
CONTINUOUS
 62
     2
 10
635.983833331
 20
212.038106565
 30
0.0
 42
0.021820078
  0
VERTEX
  8
0
  6
CONTINUOUS
 62
     2
 10
636.083410083
 20
212.167877515
 30
0.0
 42
0.021820078
  0
VERTEX
  8
0
  6
CONTINUOUS
 62
     2
 10
636.171297632
 20
212.305833333
 30
0.0
 42
0.021820078
  0
VERTEX
  8
0
  6
CONTINUOUS
 62
     2
 10
636.246827101
 20
212.450924093
 30
0.0
 42
0.021820078
  0
VERTEX
  8
0
  6
CONTINUOUS
 62
     2
 10
636.309423664
 20
212.602045565
 30
0.0
 42
0.021820078
  0
VERTEX
  8
0
  6
CONTINUOUS
 62
     2
 10
636.358610924
 20
212.758047624
 30
0.0
 42
0.021820078
  0
VERTEX
  8
0
  6
CONTINUOUS
 62
     2
 10
636.394014537
 20
212.917743
 30
0.0
 42
0.021820078
  0
VERTEX
  8
0
  6
CONTINUOUS
 62
     2
 10
636.415365059
 20
213.079916316
 30
0.0
 42
0.021820078
  0
SEQEND
  8
0
  6
CONTINUOUS
 62
     2
  0
POLYLINE
  8
0
  6
CONTINUOUS
 62
     2
 66
     1
 70
     1
  0
VERTEX
  8
0
  6
CONTINUOUS
 62
     2
 10
648.9225
 20
213.243333333
 30
0.0
 42
0.021820078
  0
VERTEX
  8
0
  6
CONTINUOUS
 62
     2
 10
648.915365059
 20
213.406750351
 30
0.0
 42
0.021820078
  0
VERTEX
  8
0
  6
CONTINUOUS
 62
     2
 10
648.894014537
 20
213.568923666
 30
0.0
 42
0.021820078
  0
VERTEX
  8
0
  6
CONTINUOUS
 62
     2
 10
648.858610924
 20
213.728619043
 30
0.0
 42
0.021820078
  0
VERTEX
  8
0
  6
CONTINUOUS
 62
     2
 10
648.809423664
 20
213.884621102
 30
0.0
 42
0.021820078
  0
VERTEX
  8
0
  6
CONTINUOUS
 62
     2
 10
648.746827101
 20
214.035742574
 30
0.0
 42
0.021820078
  0
VERTEX
  8
0
  6
CONTINUOUS
 62
     2
 10
648.671297632
 20
214.180833333
 30
0.0
 42
0.021820078
  0
VERTEX
  8
0
  6
CONTINUOUS
 62
     2
 10
648.583410083
 20
214.318789151
 30
0.0
 42
0.021820078
  0
VERTEX
  8
0
  6
CONTINUOUS
 62
     2
 10
648.483833331
 20
214.448560101
 30
0.0
 42
0.021820078
  0
VERTEX
  8
0
  6
CONTINUOUS
 62
     2
 10
648.373325215
 20
214.569158548
 30
0.0
 42
0.021820078
  0
VERTEX
  8
0
  6
CONTINUOUS
 62
     2
 10
648.252726768
 20
214.679666664
 30
0.0
 42
0.021820078
  0
VERTEX
  8
0
  6
CONTINUOUS
 62
     2
 10
648.122955818
 20
214.779243416
 30
0.0
 42
0.021820078
  0
VERTEX
  8
0
  6
CONTINUOUS
 62
     2
 10
647.985
 20
214.867130965
 30
0.0
 42
0.021820078
  0
VERTEX
  8
0
  6
CONTINUOUS
 62
     2
 10
647.839909241
 20
214.942660434
 30
0.0
 42
0.021820078
  0
VERTEX
  8
0
  6
CONTINUOUS
 62
     2
 10
647.688787769
 20
215.005256997
 30
0.0
 42
0.021820078
  0
VERTEX
  8
0
  6
CONTINUOUS
 62
     2
 10
647.53278571
 20
215.054444258
 30
0.0
 42
0.021820078
  0
VERTEX
  8
0
  6
CONTINUOUS
 62
     2
 10
647.373090333
 20
215.08984787
 30
0.0
 42
0.021820078
  0
VERTEX
  8
0
  6
CONTINUOUS
 62
     2
 10
647.210917018
 20
215.111198392
 30
0.0
 42
0.021820078
  0
VERTEX
  8
0
  6
CONTINUOUS
 62
     2
 10
647.0475
 20
215.118333333
 30
0.0
 42
0.021820078
  0
VERTEX
  8
0
  6
CONTINUOUS
 62
     2
 10
646.884082982
 20
215.111198392
 30
0.0
 42
0.021820078
  0
VERTEX
  8
0
  6
CONTINUOUS
 62
     2
 10
646.721909667
 20
215.08984787
 30
0.0
 42
0.021820078
  0
VERTEX
  8
0
  6
CONTINUOUS
 62
     2
 10
646.56221429
 20
215.054444258
 30
0.0
 42
0.021820078
  0
VERTEX
  8
0
  6
CONTINUOUS
 62
     2
 10
646.406212231
 20
215.005256997
 30
0.0
 42
0.021820078
  0
VERTEX
  8
0
  6
CONTINUOUS
 62
     2
 10
646.255090759
 20
214.942660434
 30
0.0
 42
0.021820078
  0
VERTEX
  8
0
  6
CONTINUOUS
 62
     2
 10
646.11
 20
214.867130965
 30
0.0
 42
0.021820078
  0
VERTEX
  8
0
  6
CONTINUOUS
 62
     2
 10
645.972044182
 20
214.779243416
 30
0.0
 42
0.021820078
  0
VERTEX
  8
0
  6
CONTINUOUS
 62
     2
 10
645.842273232
 20
214.679666664
 30
0.0
 42
0.021820078
  0
VERTEX
  8
0
  6
CONTINUOUS
 62
     2
 10
645.721674785
 20
214.569158548
 30
0.0
 42
0.021820078
  0
VERTEX
  8
0
  6
CONTINUOUS
 62
     2
 10
645.611166669
 20
214.448560101
 30
0.0
 42
0.021820078
  0
VERTEX
  8
0
  6
CONTINUOUS
 62
     2
 10
645.511589917
 20
214.318789151
 30
0.0
 42
0.021820078
  0
VERTEX
  8
0
  6
CONTINUOUS
 62
     2
 10
645.423702368
 20
214.180833333
 30
0.0
 42
0.021820078
  0
VERTEX
  8
0
  6
CONTINUOUS
 62
     2
 10
645.348172899
 20
214.035742574
 30
0.0
 42
0.021820078
  0
VERTEX
  8
0
  6
CONTINUOUS
 62
     2
 10
645.285576336
 20
213.884621102
 30
0.0
 42
0.021820078
  0
VERTEX
  8
0
  6
CONTINUOUS
 62
     2
 10
645.236389076
 20
213.728619043
 30
0.0
 42
0.021820078
  0
VERTEX
  8
0
  6
CONTINUOUS
 62
     2
 10
645.200985463
 20
213.568923666
 30
0.0
 42
0.021820078
  0
VERTEX
  8
0
  6
CONTINUOUS
 62
     2
 10
645.179634941
 20
213.406750351
 30
0.0
 42
0.021820078
  0
VERTEX
  8
0
  6
CONTINUOUS
 62
     2
 10
645.1725
 20
213.243333333
 30
0.0
 42
0.021820078
  0
VERTEX
  8
0
  6
CONTINUOUS
 62
     2
 10
645.179634941
 20
213.079916316
 30
0.0
 42
0.021820078
  0
VERTEX
  8
0
  6
CONTINUOUS
 62
     2
 10
645.200985463
 20
212.917743
 30
0.0
 42
0.021820078
  0
VERTEX
  8
0
  6
CONTINUOUS
 62
     2
 10
645.236389076
 20
212.758047624
 30
0.0
 42
0.021820078
  0
VERTEX
  8
0
  6
CONTINUOUS
 62
     2
 10
645.285576336
 20
212.602045565
 30
0.0
 42
0.021820078
  0
VERTEX
  8
0
  6
CONTINUOUS
 62
     2
 10
645.348172899
 20
212.450924093
 30
0.0
 42
0.021820078
  0
VERTEX
  8
0
  6
CONTINUOUS
 62
     2
 10
645.423702368
 20
212.305833333
 30
0.0
 42
0.021820078
  0
VERTEX
  8
0
  6
CONTINUOUS
 62
     2
 10
645.511589917
 20
212.167877515
 30
0.0
 42
0.021820078
  0
VERTEX
  8
0
  6
CONTINUOUS
 62
     2
 10
645.611166669
 20
212.038106565
 30
0.0
 42
0.021820078
  0
VERTEX
  8
0
  6
CONTINUOUS
 62
     2
 10
645.721674785
 20
211.917508119
 30
0.0
 42
0.021820078
  0
VERTEX
  8
0
  6
CONTINUOUS
 62
     2
 10
645.842273232
 20
211.807000002
 30
0.0
 42
0.021820078
  0
VERTEX
  8
0
  6
CONTINUOUS
 62
     2
 10
645.972044182
 20
211.70742325
 30
0.0
 42
0.021820078
  0
VERTEX
  8
0
  6
CONTINUOUS
 62
     2
 10
646.11
 20
211.619535701
 30
0.0
 42
0.021820078
  0
VERTEX
  8
0
  6
CONTINUOUS
 62
     2
 10
646.255090759
 20
211.544006233
 30
0.0
 42
0.021820078
  0
VERTEX
  8
0
  6
CONTINUOUS
 62
     2
 10
646.406212231
 20
211.481409669
 30
0.0
 42
0.021820078
  0
VERTEX
  8
0
  6
CONTINUOUS
 62
     2
 10
646.56221429
 20
211.432222409
 30
0.0
 42
0.021820078
  0
VERTEX
  8
0
  6
CONTINUOUS
 62
     2
 10
646.721909667
 20
211.396818796
 30
0.0
 42
0.021820078
  0
VERTEX
  8
0
  6
CONTINUOUS
 62
     2
 10
646.884082982
 20
211.375468274
 30
0.0
 42
0.021820078
  0
VERTEX
  8
0
  6
CONTINUOUS
 62
     2
 10
647.0475
 20
211.368333333
 30
0.0
 42
0.021820078
  0
VERTEX
  8
0
  6
CONTINUOUS
 62
     2
 10
647.210917018
 20
211.375468274
 30
0.0
 42
0.021820078
  0
VERTEX
  8
0
  6
CONTINUOUS
 62
     2
 10
647.373090333
 20
211.396818796
 30
0.0
 42
0.021820078
  0
VERTEX
  8
0
  6
CONTINUOUS
 62
     2
 10
647.53278571
 20
211.432222409
 30
0.0
 42
0.021820078
  0
VERTEX
  8
0
  6
CONTINUOUS
 62
     2
 10
647.688787769
 20
211.481409669
 30
0.0
 42
0.021820078
  0
VERTEX
  8
0
  6
CONTINUOUS
 62
     2
 10
647.839909241
 20
211.544006233
 30
0.0
 42
0.021820078
  0
VERTEX
  8
0
  6
CONTINUOUS
 62
     2
 10
647.985
 20
211.619535701
 30
0.0
 42
0.021820078
  0
VERTEX
  8
0
  6
CONTINUOUS
 62
     2
 10
648.122955818
 20
211.70742325
 30
0.0
 42
0.021820078
  0
VERTEX
  8
0
  6
CONTINUOUS
 62
     2
 10
648.252726768
 20
211.807000002
 30
0.0
 42
0.021820078
  0
VERTEX
  8
0
  6
CONTINUOUS
 62
     2
 10
648.373325215
 20
211.917508119
 30
0.0
 42
0.021820078
  0
VERTEX
  8
0
  6
CONTINUOUS
 62
     2
 10
648.483833331
 20
212.038106565
 30
0.0
 42
0.021820078
  0
VERTEX
  8
0
  6
CONTINUOUS
 62
     2
 10
648.583410083
 20
212.167877515
 30
0.0
 42
0.021820078
  0
VERTEX
  8
0
  6
CONTINUOUS
 62
     2
 10
648.671297632
 20
212.305833333
 30
0.0
 42
0.021820078
  0
VERTEX
  8
0
  6
CONTINUOUS
 62
     2
 10
648.746827101
 20
212.450924093
 30
0.0
 42
0.021820078
  0
VERTEX
  8
0
  6
CONTINUOUS
 62
     2
 10
648.809423664
 20
212.602045565
 30
0.0
 42
0.021820078
  0
VERTEX
  8
0
  6
CONTINUOUS
 62
     2
 10
648.858610924
 20
212.758047624
 30
0.0
 42
0.021820078
  0
VERTEX
  8
0
  6
CONTINUOUS
 62
     2
 10
648.894014537
 20
212.917743
 30
0.0
 42
0.021820078
  0
VERTEX
  8
0
  6
CONTINUOUS
 62
     2
 10
648.915365059
 20
213.079916316
 30
0.0
 42
0.021820078
  0
SEQEND
  8
0
  6
CONTINUOUS
 62
     2
  0
POLYLINE
  8
0
  6
CONTINUOUS
 62
     2
 66
     1
 70
     1
  0
VERTEX
  8
0
  6
CONTINUOUS
 62
     2
 10
636.4225
 20
176.285
 30
0.0
 42
-0.021820078
  0
VERTEX
  8
0
  6
CONTINUOUS
 62
     2
 10
636.415365059
 20
176.121582982
 30
0.0
 42
-0.021820078
  0
VERTEX
  8
0
  6
CONTINUOUS
 62
     2
 10
636.394014537
 20
175.959409667
 30
0.0
 42
-0.021820078
  0
VERTEX
  8
0
  6
CONTINUOUS
 62
     2
 10
636.358610924
 20
175.79971429
 30
0.0
 42
-0.021820078
  0
VERTEX
  8
0
  6
CONTINUOUS
 62
     2
 10
636.309423664
 20
175.643712231
 30
0.0
 42
-0.021820078
  0
VERTEX
  8
0
  6
CONTINUOUS
 62
     2
 10
636.246827101
 20
175.492590759
 30
0.0
 42
-0.021820078
  0
VERTEX
  8
0
  6
CONTINUOUS
 62
     2
 10
636.171297632
 20
175.3475
 30
0.0
 42
-0.021820078
  0
VERTEX
  8
0
  6
CONTINUOUS
 62
     2
 10
636.083410083
 20
175.209544182
 30
0.0
 42
-0.021820078
  0
VERTEX
  8
0
  6
CONTINUOUS
 62
     2
 10
635.983833331
 20
175.079773232
 30
0.0
 42
-0.021820078
  0
VERTEX
  8
0
  6
CONTINUOUS
 62
     2
 10
635.873325215
 20
174.959174785
 30
0.0
 42
-0.021820078
  0
VERTEX
  8
0
  6
CONTINUOUS
 62
     2
 10
635.752726768
 20
174.848666669
 30
0.0
 42
-0.021820078
  0
VERTEX
  8
0
  6
CONTINUOUS
 62
     2
 10
635.622955818
 20
174.749089917
 30
0.0
 42
-0.021820078
  0
VERTEX
  8
0
  6
CONTINUOUS
 62
     2
 10
635.485
 20
174.661202368
 30
0.0
 42
-0.021820078
  0
VERTEX
  8
0
  6
CONTINUOUS
 62
     2
 10
635.339909241
 20
174.585672899
 30
0.0
 42
-0.021820078
  0
VERTEX
  8
0
  6
CONTINUOUS
 62
     2
 10
635.188787769
 20
174.523076336
 30
0.0
 42
-0.021820078
  0
VERTEX
  8
0
  6
CONTINUOUS
 62
     2
 10
635.03278571
 20
174.473889076
 30
0.0
 42
-0.021820078
  0
VERTEX
  8
0
  6
CONTINUOUS
 62
     2
 10
634.873090333
 20
174.438485463
 30
0.0
 42
-0.021820078
  0
VERTEX
  8
0
  6
CONTINUOUS
 62
     2
 10
634.710917018
 20
174.417134941
 30
0.0
 42
-0.021820078
  0
VERTEX
  8
0
  6
CONTINUOUS
 62
     2
 10
634.5475
 20
174.41
 30
0.0
 42
-0.021820078
  0
VERTEX
  8
0
  6
CONTINUOUS
 62
     2
 10
634.384082982
 20
174.417134941
 30
0.0
 42
-0.021820078
  0
VERTEX
  8
0
  6
CONTINUOUS
 62
     2
 10
634.221909667
 20
174.438485463
 30
0.0
 42
-0.021820078
  0
VERTEX
  8
0
  6
CONTINUOUS
 62
     2
 10
634.06221429
 20
174.473889076
 30
0.0
 42
-0.021820078
  0
VERTEX
  8
0
  6
CONTINUOUS
 62
     2
 10
633.906212231
 20
174.523076336
 30
0.0
 42
-0.021820078
  0
VERTEX
  8
0
  6
CONTINUOUS
 62
     2
 10
633.755090759
 20
174.585672899
 30
0.0
 42
-0.021820078
  0
VERTEX
  8
0
  6
CONTINUOUS
 62
     2
 10
633.61
 20
174.661202368
 30
0.0
 42
-0.021820078
  0
VERTEX
  8
0
  6
CONTINUOUS
 62
     2
 10
633.472044182
 20
174.749089917
 30
0.0
 42
-0.021820078
  0
VERTEX
  8
0
  6
CONTINUOUS
 62
     2
 10
633.342273232
 20
174.848666669
 30
0.0
 42
-0.021820078
  0
VERTEX
  8
0
  6
CONTINUOUS
 62
     2
 10
633.221674785
 20
174.959174785
 30
0.0
 42
-0.021820078
  0
VERTEX
  8
0
  6
CONTINUOUS
 62
     2
 10
633.111166669
 20
175.079773232
 30
0.0
 42
-0.021820078
  0
VERTEX
  8
0
  6
CONTINUOUS
 62
     2
 10
633.011589917
 20
175.209544182
 30
0.0
 42
-0.021820078
  0
VERTEX
  8
0
  6
CONTINUOUS
 62
     2
 10
632.923702368
 20
175.3475
 30
0.0
 42
-0.021820078
  0
VERTEX
  8
0
  6
CONTINUOUS
 62
     2
 10
632.848172899
 20
175.492590759
 30
0.0
 42
-0.021820078
  0
VERTEX
  8
0
  6
CONTINUOUS
 62
     2
 10
632.785576336
 20
175.643712231
 30
0.0
 42
-0.021820078
  0
VERTEX
  8
0
  6
CONTINUOUS
 62
     2
 10
632.736389076
 20
175.79971429
 30
0.0
 42
-0.021820078
  0
VERTEX
  8
0
  6
CONTINUOUS
 62
     2
 10
632.700985463
 20
175.959409667
 30
0.0
 42
-0.021820078
  0
VERTEX
  8
0
  6
CONTINUOUS
 62
     2
 10
632.679634941
 20
176.121582982
 30
0.0
 42
-0.021820078
  0
VERTEX
  8
0
  6
CONTINUOUS
 62
     2
 10
632.6725
 20
176.285
 30
0.0
 42
-0.021820078
  0
VERTEX
  8
0
  6
CONTINUOUS
 62
     2
 10
632.679634941
 20
176.448417018
 30
0.0
 42
-0.021820078
  0
VERTEX
  8
0
  6
CONTINUOUS
 62
     2
 10
632.700985463
 20
176.610590333
 30
0.0
 42
-0.021820078
  0
VERTEX
  8
0
  6
CONTINUOUS
 62
     2
 10
632.736389076
 20
176.77028571
 30
0.0
 42
-0.021820078
  0
VERTEX
  8
0
  6
CONTINUOUS
 62
     2
 10
632.785576336
 20
176.926287769
 30
0.0
 42
-0.021820078
  0
VERTEX
  8
0
  6
CONTINUOUS
 62
     2
 10
632.848172899
 20
177.077409241
 30
0.0
 42
-0.021820078
  0
VERTEX
  8
0
  6
CONTINUOUS
 62
     2
 10
632.923702368
 20
177.2225
 30
0.0
 42
-0.021820078
  0
VERTEX
  8
0
  6
CONTINUOUS
 62
     2
 10
633.011589917
 20
177.360455818
 30
0.0
 42
-0.021820078
  0
VERTEX
  8
0
  6
CONTINUOUS
 62
     2
 10
633.111166669
 20
177.490226768
 30
0.0
 42
-0.021820078
  0
VERTEX
  8
0
  6
CONTINUOUS
 62
     2
 10
633.221674785
 20
177.610825215
 30
0.0
 42
-0.021820078
  0
VERTEX
  8
0
  6
CONTINUOUS
 62
     2
 10
633.342273232
 20
177.721333331
 30
0.0
 42
-0.021820078
  0
VERTEX
  8
0
  6
CONTINUOUS
 62
     2
 10
633.472044182
 20
177.820910083
 30
0.0
 42
-0.021820078
  0
VERTEX
  8
0
  6
CONTINUOUS
 62
     2
 10
633.61
 20
177.908797632
 30
0.0
 42
-0.021820078
  0
VERTEX
  8
0
  6
CONTINUOUS
 62
     2
 10
633.755090759
 20
177.984327101
 30
0.0
 42
-0.021820078
  0
VERTEX
  8
0
  6
CONTINUOUS
 62
     2
 10
633.906212231
 20
178.046923664
 30
0.0
 42
-0.021820078
  0
VERTEX
  8
0
  6
CONTINUOUS
 62
     2
 10
634.06221429
 20
178.096110924
 30
0.0
 42
-0.021820078
  0
VERTEX
  8
0
  6
CONTINUOUS
 62
     2
 10
634.221909667
 20
178.131514537
 30
0.0
 42
-0.021820078
  0
VERTEX
  8
0
  6
CONTINUOUS
 62
     2
 10
634.384082982
 20
178.152865059
 30
0.0
 42
-0.021820078
  0
VERTEX
  8
0
  6
CONTINUOUS
 62
     2
 10
634.5475
 20
178.16
 30
0.0
 42
-0.021820078
  0
VERTEX
  8
0
  6
CONTINUOUS
 62
     2
 10
634.710917018
 20
178.152865059
 30
0.0
 42
-0.021820078
  0
VERTEX
  8
0
  6
CONTINUOUS
 62
     2
 10
634.873090333
 20
178.131514537
 30
0.0
 42
-0.021820078
  0
VERTEX
  8
0
  6
CONTINUOUS
 62
     2
 10
635.03278571
 20
178.096110924
 30
0.0
 42
-0.021820078
  0
VERTEX
  8
0
  6
CONTINUOUS
 62
     2
 10
635.188787769
 20
178.046923664
 30
0.0
 42
-0.021820078
  0
VERTEX
  8
0
  6
CONTINUOUS
 62
     2
 10
635.339909241
 20
177.984327101
 30
0.0
 42
-0.021820078
  0
VERTEX
  8
0
  6
CONTINUOUS
 62
     2
 10
635.485
 20
177.908797632
 30
0.0
 42
-0.021820078
  0
VERTEX
  8
0
  6
CONTINUOUS
 62
     2
 10
635.622955818
 20
177.820910083
 30
0.0
 42
-0.021820078
  0
VERTEX
  8
0
  6
CONTINUOUS
 62
     2
 10
635.752726768
 20
177.721333331
 30
0.0
 42
-0.021820078
  0
VERTEX
  8
0
  6
CONTINUOUS
 62
     2
 10
635.873325215
 20
177.610825215
 30
0.0
 42
-0.021820078
  0
VERTEX
  8
0
  6
CONTINUOUS
 62
     2
 10
635.983833331
 20
177.490226768
 30
0.0
 42
-0.021820078
  0
VERTEX
  8
0
  6
CONTINUOUS
 62
     2
 10
636.083410083
 20
177.360455818
 30
0.0
 42
-0.021820078
  0
VERTEX
  8
0
  6
CONTINUOUS
 62
     2
 10
636.171297632
 20
177.2225
 30
0.0
 42
-0.021820078
  0
VERTEX
  8
0
  6
CONTINUOUS
 62
     2
 10
636.246827101
 20
177.077409241
 30
0.0
 42
-0.021820078
  0
VERTEX
  8
0
  6
CONTINUOUS
 62
     2
 10
636.309423664
 20
176.926287769
 30
0.0
 42
-0.021820078
  0
VERTEX
  8
0
  6
CONTINUOUS
 62
     2
 10
636.358610924
 20
176.77028571
 30
0.0
 42
-0.021820078
  0
VERTEX
  8
0
  6
CONTINUOUS
 62
     2
 10
636.394014537
 20
176.610590333
 30
0.0
 42
-0.021820078
  0
VERTEX
  8
0
  6
CONTINUOUS
 62
     2
 10
636.415365059
 20
176.448417018
 30
0.0
 42
-0.021820078
  0
SEQEND
  8
0
  6
CONTINUOUS
 62
     2
  0
POLYLINE
  8
0
  6
CONTINUOUS
 62
     2
 66
     1
 70
     1
  0
VERTEX
  8
0
  6
CONTINUOUS
 62
     2
 10
648.9225
 20
176.285
 30
0.0
 42
-0.021820078
  0
VERTEX
  8
0
  6
CONTINUOUS
 62
     2
 10
648.915365059
 20
176.121582982
 30
0.0
 42
-0.021820078
  0
VERTEX
  8
0
  6
CONTINUOUS
 62
     2
 10
648.894014537
 20
175.959409667
 30
0.0
 42
-0.021820078
  0
VERTEX
  8
0
  6
CONTINUOUS
 62
     2
 10
648.858610924
 20
175.79971429
 30
0.0
 42
-0.021820078
  0
VERTEX
  8
0
  6
CONTINUOUS
 62
     2
 10
648.809423664
 20
175.643712231
 30
0.0
 42
-0.021820078
  0
VERTEX
  8
0
  6
CONTINUOUS
 62
     2
 10
648.746827101
 20
175.492590759
 30
0.0
 42
-0.021820078
  0
VERTEX
  8
0
  6
CONTINUOUS
 62
     2
 10
648.671297632
 20
175.3475
 30
0.0
 42
-0.021820078
  0
VERTEX
  8
0
  6
CONTINUOUS
 62
     2
 10
648.583410083
 20
175.209544182
 30
0.0
 42
-0.021820078
  0
VERTEX
  8
0
  6
CONTINUOUS
 62
     2
 10
648.483833331
 20
175.079773232
 30
0.0
 42
-0.021820078
  0
VERTEX
  8
0
  6
CONTINUOUS
 62
     2
 10
648.373325215
 20
174.959174785
 30
0.0
 42
-0.021820078
  0
VERTEX
  8
0
  6
CONTINUOUS
 62
     2
 10
648.252726768
 20
174.848666669
 30
0.0
 42
-0.021820078
  0
VERTEX
  8
0
  6
CONTINUOUS
 62
     2
 10
648.122955818
 20
174.749089917
 30
0.0
 42
-0.021820078
  0
VERTEX
  8
0
  6
CONTINUOUS
 62
     2
 10
647.985
 20
174.661202368
 30
0.0
 42
-0.021820078
  0
VERTEX
  8
0
  6
CONTINUOUS
 62
     2
 10
647.839909241
 20
174.585672899
 30
0.0
 42
-0.021820078
  0
VERTEX
  8
0
  6
CONTINUOUS
 62
     2
 10
647.688787769
 20
174.523076336
 30
0.0
 42
-0.021820078
  0
VERTEX
  8
0
  6
CONTINUOUS
 62
     2
 10
647.53278571
 20
174.473889076
 30
0.0
 42
-0.021820078
  0
VERTEX
  8
0
  6
CONTINUOUS
 62
     2
 10
647.373090333
 20
174.438485463
 30
0.0
 42
-0.021820078
  0
VERTEX
  8
0
  6
CONTINUOUS
 62
     2
 10
647.210917018
 20
174.417134941
 30
0.0
 42
-0.021820078
  0
VERTEX
  8
0
  6
CONTINUOUS
 62
     2
 10
647.0475
 20
174.41
 30
0.0
 42
-0.021820078
  0
VERTEX
  8
0
  6
CONTINUOUS
 62
     2
 10
646.884082982
 20
174.417134941
 30
0.0
 42
-0.021820078
  0
VERTEX
  8
0
  6
CONTINUOUS
 62
     2
 10
646.721909667
 20
174.438485463
 30
0.0
 42
-0.021820078
  0
VERTEX
  8
0
  6
CONTINUOUS
 62
     2
 10
646.56221429
 20
174.473889076
 30
0.0
 42
-0.021820078
  0
VERTEX
  8
0
  6
CONTINUOUS
 62
     2
 10
646.406212231
 20
174.523076336
 30
0.0
 42
-0.021820078
  0
VERTEX
  8
0
  6
CONTINUOUS
 62
     2
 10
646.255090759
 20
174.585672899
 30
0.0
 42
-0.021820078
  0
VERTEX
  8
0
  6
CONTINUOUS
 62
     2
 10
646.11
 20
174.661202368
 30
0.0
 42
-0.021820078
  0
VERTEX
  8
0
  6
CONTINUOUS
 62
     2
 10
645.972044182
 20
174.749089917
 30
0.0
 42
-0.021820078
  0
VERTEX
  8
0
  6
CONTINUOUS
 62
     2
 10
645.842273232
 20
174.848666669
 30
0.0
 42
-0.021820078
  0
VERTEX
  8
0
  6
CONTINUOUS
 62
     2
 10
645.721674785
 20
174.959174785
 30
0.0
 42
-0.021820078
  0
VERTEX
  8
0
  6
CONTINUOUS
 62
     2
 10
645.611166669
 20
175.079773232
 30
0.0
 42
-0.021820078
  0
VERTEX
  8
0
  6
CONTINUOUS
 62
     2
 10
645.511589917
 20
175.209544182
 30
0.0
 42
-0.021820078
  0
VERTEX
  8
0
  6
CONTINUOUS
 62
     2
 10
645.423702368
 20
175.3475
 30
0.0
 42
-0.021820078
  0
VERTEX
  8
0
  6
CONTINUOUS
 62
     2
 10
645.348172899
 20
175.492590759
 30
0.0
 42
-0.021820078
  0
VERTEX
  8
0
  6
CONTINUOUS
 62
     2
 10
645.285576336
 20
175.643712231
 30
0.0
 42
-0.021820078
  0
VERTEX
  8
0
  6
CONTINUOUS
 62
     2
 10
645.236389076
 20
175.79971429
 30
0.0
 42
-0.021820078
  0
VERTEX
  8
0
  6
CONTINUOUS
 62
     2
 10
645.200985463
 20
175.959409667
 30
0.0
 42
-0.021820078
  0
VERTEX
  8
0
  6
CONTINUOUS
 62
     2
 10
645.179634941
 20
176.121582982
 30
0.0
 42
-0.021820078
  0
VERTEX
  8
0
  6
CONTINUOUS
 62
     2
 10
645.1725
 20
176.285
 30
0.0
 42
-0.021820078
  0
VERTEX
  8
0
  6
CONTINUOUS
 62
     2
 10
645.179634941
 20
176.448417018
 30
0.0
 42
-0.021820078
  0
VERTEX
  8
0
  6
CONTINUOUS
 62
     2
 10
645.200985463
 20
176.610590333
 30
0.0
 42
-0.021820078
  0
VERTEX
  8
0
  6
CONTINUOUS
 62
     2
 10
645.236389076
 20
176.77028571
 30
0.0
 42
-0.021820078
  0
VERTEX
  8
0
  6
CONTINUOUS
 62
     2
 10
645.285576336
 20
176.926287769
 30
0.0
 42
-0.021820078
  0
VERTEX
  8
0
  6
CONTINUOUS
 62
     2
 10
645.348172899
 20
177.077409241
 30
0.0
 42
-0.021820078
  0
VERTEX
  8
0
  6
CONTINUOUS
 62
     2
 10
645.423702368
 20
177.2225
 30
0.0
 42
-0.021820078
  0
VERTEX
  8
0
  6
CONTINUOUS
 62
     2
 10
645.511589917
 20
177.360455818
 30
0.0
 42
-0.021820078
  0
VERTEX
  8
0
  6
CONTINUOUS
 62
     2
 10
645.611166669
 20
177.490226768
 30
0.0
 42
-0.021820078
  0
VERTEX
  8
0
  6
CONTINUOUS
 62
     2
 10
645.721674785
 20
177.610825215
 30
0.0
 42
-0.021820078
  0
VERTEX
  8
0
  6
CONTINUOUS
 62
     2
 10
645.842273232
 20
177.721333331
 30
0.0
 42
-0.021820078
  0
VERTEX
  8
0
  6
CONTINUOUS
 62
     2
 10
645.972044182
 20
177.820910083
 30
0.0
 42
-0.021820078
  0
VERTEX
  8
0
  6
CONTINUOUS
 62
     2
 10
646.11
 20
177.908797632
 30
0.0
 42
-0.021820078
  0
VERTEX
  8
0
  6
CONTINUOUS
 62
     2
 10
646.255090759
 20
177.984327101
 30
0.0
 42
-0.021820078
  0
VERTEX
  8
0
  6
CONTINUOUS
 62
     2
 10
646.406212231
 20
178.046923664
 30
0.0
 42
-0.021820078
  0
VERTEX
  8
0
  6
CONTINUOUS
 62
     2
 10
646.56221429
 20
178.096110924
 30
0.0
 42
-0.021820078
  0
VERTEX
  8
0
  6
CONTINUOUS
 62
     2
 10
646.721909667
 20
178.131514537
 30
0.0
 42
-0.021820078
  0
VERTEX
  8
0
  6
CONTINUOUS
 62
     2
 10
646.884082982
 20
178.152865059
 30
0.0
 42
-0.021820078
  0
VERTEX
  8
0
  6
CONTINUOUS
 62
     2
 10
647.0475
 20
178.16
 30
0.0
 42
-0.021820078
  0
VERTEX
  8
0
  6
CONTINUOUS
 62
     2
 10
647.210917018
 20
178.152865059
 30
0.0
 42
-0.021820078
  0
VERTEX
  8
0
  6
CONTINUOUS
 62
     2
 10
647.373090333
 20
178.131514537
 30
0.0
 42
-0.021820078
  0
VERTEX
  8
0
  6
CONTINUOUS
 62
     2
 10
647.53278571
 20
178.096110924
 30
0.0
 42
-0.021820078
  0
VERTEX
  8
0
  6
CONTINUOUS
 62
     2
 10
647.688787769
 20
178.046923664
 30
0.0
 42
-0.021820078
  0
VERTEX
  8
0
  6
CONTINUOUS
 62
     2
 10
647.839909241
 20
177.984327101
 30
0.0
 42
-0.021820078
  0
VERTEX
  8
0
  6
CONTINUOUS
 62
     2
 10
647.985
 20
177.908797632
 30
0.0
 42
-0.021820078
  0
VERTEX
  8
0
  6
CONTINUOUS
 62
     2
 10
648.122955818
 20
177.820910083
 30
0.0
 42
-0.021820078
  0
VERTEX
  8
0
  6
CONTINUOUS
 62
     2
 10
648.252726768
 20
177.721333331
 30
0.0
 42
-0.021820078
  0
VERTEX
  8
0
  6
CONTINUOUS
 62
     2
 10
648.373325215
 20
177.610825215
 30
0.0
 42
-0.021820078
  0
VERTEX
  8
0
  6
CONTINUOUS
 62
     2
 10
648.483833331
 20
177.490226768
 30
0.0
 42
-0.021820078
  0
VERTEX
  8
0
  6
CONTINUOUS
 62
     2
 10
648.583410083
 20
177.360455818
 30
0.0
 42
-0.021820078
  0
VERTEX
  8
0
  6
CONTINUOUS
 62
     2
 10
648.671297632
 20
177.2225
 30
0.0
 42
-0.021820078
  0
VERTEX
  8
0
  6
CONTINUOUS
 62
     2
 10
648.746827101
 20
177.077409241
 30
0.0
 42
-0.021820078
  0
VERTEX
  8
0
  6
CONTINUOUS
 62
     2
 10
648.809423664
 20
176.926287769
 30
0.0
 42
-0.021820078
  0
VERTEX
  8
0
  6
CONTINUOUS
 62
     2
 10
648.858610924
 20
176.77028571
 30
0.0
 42
-0.021820078
  0
VERTEX
  8
0
  6
CONTINUOUS
 62
     2
 10
648.894014537
 20
176.610590333
 30
0.0
 42
-0.021820078
  0
VERTEX
  8
0
  6
CONTINUOUS
 62
     2
 10
648.915365059
 20
176.448417018
 30
0.0
 42
-0.021820078
  0
SEQEND
  8
0
  6
CONTINUOUS
 62
     2
  0
TEXT
  8
0
  6
CONTINUOUS
 62
     2
 10
627.255833333
 20
167.618333333
 30
0.0
 40
8.333333333
  1
１
 50
0.0
 41
0.85
 51
0.0
  7
KANJI45
  0
TEXT
  8
0
  6
CONTINUOUS
 62
     2
 10
648.089166667
 20
167.618333333
 30
0.0
 40
8.333333333
  1
２
 50
0.0
 41
0.85
 51
0.0
  7
KANJI45
  0
TEXT
  8
0
  6
CONTINUOUS
 62
     2
 10
600.6725
 20
213.201666667
 30
0.0
 40
8.333333333
  1
（ＮＯ）
 50
0.0
 41
0.75
 51
0.0
  7
KANJI46
  0
TEXT
  8
0
  6
CONTINUOUS
 62
     2
 10
655.6725
 20
213.201666667
 30
0.0
 40
8.333333333
  1
（ＮＯ）
 50
0.0
 41
0.75
 51
0.0
  7
KANJI46
  0
TEXT
  8
0
  6
CONTINUOUS
 62
     2
 10
600.6725
 20
165.285
 30
0.0
 40
8.333333333
  1
（ＮＣ）
 50
0.0
 41
0.75
 51
0.0
  7
KANJI46
  0
TEXT
  8
0
  6
CONTINUOUS
 62
     2
 10
655.6725
 20
165.285
 30
0.0
 40
8.333333333
  1
（ＮＣ）
 50
0.0
 41
0.75
 51
0.0
  7
KANJI46
  0
TEXT
  8
0
  6
CONTINUOUS
 62
     2
 10
587.235
 20
141.118333333
 30
0.0
 40
12.5
  1
外部ＬＳリミットＳＷ
 50
0.0
 41
0.9
 51
0.0
  7
KANJI47
  0
TEXT
  8
0
  6
CONTINUOUS
 62
     2
 10
618.276666667
 20
125.285
 30
0.0
 40
12.5
  1
端子符号
 50
0.0
 41
0.9
 51
0.0
  7
KANJI47
  0
LINE
  8
0
  6
CONTINUOUS
 62
     2
 10
705.36
 20
130.701666667
 30
0.0
 11
705.36
 21
272.16
 31
0.0
  0
LINE
  8
0
  6
CONTINUOUS
 62
     2
 10
705.36
 20
272.16
 30
0.0
 11
577.651666667
 21
272.16
 31
0.0
  0
LINE
  8
0
  6
CONTINUOUS
 62
     2
 10
577.651666667
 20
272.16
 30
0.0
 11
577.651666667
 21
130.701666667
 31
0.0
  0
LINE
  8
0
  6
CONTINUOUS
 62
     2
 10
667.86
 20
130.701666667
 30
0.0
 11
705.36
 21
130.701666667
 31
0.0
  0
LINE
  8
0
  6
CONTINUOUS
 62
     2
 10
577.651666667
 20
130.701666667
 30
0.0
 11
610.151666667
 21
130.701666667
 31
0.0
  0
LINE
  8
0
  6
CONTINUOUS
 62
     2
 10
857.999501379
 20
328.1
 30
0.0
 11
793.0
 21
328.1
 31
0.0
  0
LINE
  8
0
  6
CONTINUOUS
 62
     2
 10
798.0
 20
328.1
 30
0.0
 11
795.411809549
 21
318.440741737
 31
0.0
  0
LINE
  8
0
  6
CONTINUOUS
 62
     2
 10
798.0
 20
328.1
 30
0.0
 11
800.588190451
 21
318.440741737
 31
0.0
  0
LINE
  8
0
  6
CONTINUOUS
 62
     2
 10
798.0
 20
328.1
 30
0.0
 11
798.0
 21
163.1
 31
0.0
  0
LINE
  8
0
  6
CONTINUOUS
 62
     2
 10
798.0
 20
163.1
 30
0.0
 11
800.588190451
 21
172.759258263
 31
0.0
  0
LINE
  8
0
  6
CONTINUOUS
 62
     2
 10
798.0
 20
163.1
 30
0.0
 11
795.411809549
 21
172.759258263
 31
0.0
  0
LINE
  8
0
  6
CONTINUOUS
 62
     2
 10
857.999512169
 20
163.1
 30
0.0
 11
793.0
 21
163.1
 31
0.0
  0
TEXT
  8
0
  6
CONTINUOUS
 62
     3
 10
793.0
 20
225.35
 30
0.0
 40
15.0
  1
１６５
 50
90.0
 41
0.9
 51
0.0
  7
KANJI42
  0
LINE
  8
0
  6
CONTINUOUS
 62
     2
 10
852.999501379
 20
168.1
 30
0.0
 11
852.999501379
 21
113.1
 31
0.0
  0
LINE
  8
0
  6
CONTINUOUS
 62
     2
 10
852.999501379
 20
118.1
 30
0.0
 11
862.658759642
 21
115.511809549
 31
0.0
  0
LINE
  8
0
  6
CONTINUOUS
 62
     2
 10
852.999501379
 20
118.1
 30
0.0
 11
862.658759642
 21
120.688190451
 31
0.0
  0
LINE
  8
0
  6
CONTINUOUS
 62
     2
 10
852.999501379
 20
118.1
 30
0.0
 11
982.999501379
 21
118.1
 31
0.0
  0
TEXT
  8
0
  6
CONTINUOUS
 62
     3
 10
897.749501379
 20
123.1
 30
0.0
 40
15.0
  1
１３０
 50
0.0
 41
0.9
 51
0.0
  7
KANJI42
  0
ARC
  8
0
  6
LTYPE1
 62
     2
 10
1338.0
 20
606.5
 30
0.0
 40
40.25
 50
5.886200316
 51
21.817360174
  0
LINE
  8
0
  6
CONTINUOUS
 62
     1
 10
1383.0
 20
629.5
 30
0.0
 11
1383.0
 21
651.5
 31
0.0
  0
ARC
  8
0
  6
CONTINUOUS
 62
     1
 10
1379.121320344
 20
647.621320344
 30
0.0
 40
7.0
 50
0.0
 51
7.278942019
  0
LINE
  8
0
  6
CONTINUOUS
 62
     1
 10
1386.064907874
 20
648.508220679
 30
0.0
 11
1388.677546324
 21
628.053742279
 31
0.0
  0
LINE
  8
0
  6
LTYPE1
 62
     2
 10
1368.915102543
 20
645.5
 30
0.0
 11
1385.415102543
 21
645.5
 31
0.0
  0
LINE
  8
0
  6
LTYPE1
 62
     2
 10
1377.0
 20
653.172877017
 30
0.0
 11
1377.0
 21
636.872877017
 31
0.0
  0
LINE
  8
0
  6
LTYPE1
 62
     2
 10
1307.084897457
 20
645.5
 30
0.0
 11
1290.584897457
 21
645.5
 31
0.0
  0
LINE
  8
0
  6
LTYPE1
 62
     2
 10
1299.0
 20
653.172877017
 30
0.0
 11
1299.0
 21
636.872877017
 31
0.0
  0
CIRCLE
  8
0
  6
LTYPE1
 62
     2
 10
1377.0
 20
645.5
 30
0.0
 40
5.0
  0
CIRCLE
  8
0
  6
LTYPE1
 62
     2
 10
1299.0
 20
645.5
 30
0.0
 40
5.0
  0
LINE
  8
0
  6
LTYPE1
 62
     2
 10
1377.0
 20
653.172877017
 30
0.0
 11
1377.0
 21
636.872877017
 31
0.0
  0
LINE
  8
0
  6
LTYPE1
 62
     2
 10
1299.0
 20
653.172877017
 30
0.0
 11
1299.0
 21
636.872877017
 31
0.0
  0
LINE
  8
0
  6
LTYPE1
 62
     2
 10
1377.0
 20
653.172877017
 30
0.0
 11
1377.0
 21
636.872877017
 31
0.0
  0
LINE
  8
0
  6
LTYPE1
 62
     2
 10
1299.0
 20
653.172877017
 30
0.0
 11
1299.0
 21
636.872877017
 31
0.0
  0
LINE
  8
0
  6
CONTINUOUS
 62
     1
 10
1389.0
 20
700.0
 30
0.0
 11
1389.0
 21
653.5
 31
0.0
  0
ARC
  8
0
  6
CONTINUOUS
 62
     1
 10
1388.0
 20
700.0
 30
0.0
 40
1.0
 50
360.0
 51
90.0
  0
ARC
  8
0
  6
CONTINUOUS
 62
     1
 10
1385.0
 20
701.0
 30
0.0
 40
1.0
 50
360.0
 51
90.0
  0
ARC
  8
0
  6
CONTINUOUS
 62
     1
 10
1288.0
 20
700.0
 30
0.0
 40
1.0
 50
90.0
 51
180.0
  0
ARC
  8
0
  6
CONTINUOUS
 62
     1
 10
1291.0
 20
701.0
 30
0.0
 40
1.0
 50
90.0
 51
180.0
  0
LINE
  8
0
  6
LTYPE3
 62
     3
 10
1318.1
 20
676.5
 30
0.0
 11
1358.8
 21
676.5
 31
0.0
  0
CIRCLE
  8
0
  6
LTYPE1
 62
     2
 10
1338.0
 20
676.5
 30
0.0
 40
10.4775
  0
CIRCLE
  8
0
  6
LTYPE1
 62
     2
 10
1338.0
 20
676.5
 30
0.0
 40
9.3155
  0
ARC
  8
0
  6
CONTINUOUS
 62
     1
 10
1379.121320344
 20
647.621320344
 30
0.0
 40
7.0
 50
7.278942019
 51
24.68888814
  0
ARC
  8
0
  6
CONTINUOUS
 62
     1
 10
1386.0
 20
653.5
 30
0.0
 40
3.0
 50
270.0
 51
0.0
  0
ARC
  8
0
  6
CONTINUOUS
 62
     1
 10
1292.6
 20
701.0
 30
0.0
 40
5.0
 50
92.3
 51
168.5
  0
LINE
  8
0
  6
CONTINUOUS
 62
     1
 10
1292.4
 20
706.0
 30
0.0
 11
1293.6
 21
706.0
 31
0.0
  0
LINE
  8
0
  6
LTYPE4
 62
     2
 10
1293.0
 20
709.4
 30
0.0
 11
1293.0
 21
696.0
 31
0.0
  0
LINE
  8
0
  6
CONTINUOUS
 62
     1
 10
1377.7
 20
702.0
 30
0.0
 11
1388.3
 21
702.0
 31
0.0
  0
ARC
  8
0
  6
CONTINUOUS
 62
     1
 10
1382.6
 20
701.0
 30
0.0
 40
5.0
 50
92.3
 51
168.5
  0
ARC
  8
0
  6
CONTINUOUS
 62
     1
 10
1383.4
 20
701.0
 30
0.0
 40
5.0
 50
11.5
 51
87.7
  0
LINE
  8
0
  6
CONTINUOUS
 62
     1
 10
1382.4
 20
706.0
 30
0.0
 11
1383.6
 21
706.0
 31
0.0
  0
LINE
  8
0
  6
LTYPE4
 62
     2
 10
1383.0
 20
709.4
 30
0.0
 11
1383.0
 21
696.0
 31
0.0
  0
ARC
  8
0
  6
CONTINUOUS
 62
     1
 10
1391.5
 20
656.0
 30
0.0
 40
5.0
 50
0.000030901
 51
90.0
  0
LINE
  8
0
  6
CONTINUOUS
 62
     1
 10
1396.5
 20
656.000002697
 30
0.0
 11
1396.5
 21
626.778748346
 31
0.0
  0
LINE
  8
0
  6
CONTINUOUS
 62
     1
 10
1391.5
 20
661.0
 30
0.0
 11
1389.0
 21
661.0
 31
0.0
  0
LINE
  8
0
  6
CONTINUOUS
 62
     1
 10
1291.0
 20
702.0
 30
0.0
 11
1296.24011537
 21
702.0
 31
0.0
  0
LINE
  8
0
  6
CONTINUOUS
 62
     1
 10
1287.7
 20
702.0
 30
0.0
 11
1296.24011537
 21
702.0
 31
0.0
  0
LINE
  8
0
  6
CONTINUOUS
 62
     1
 10
1288.0
 20
701.0
 30
0.0
 11
1296.735498012
 21
701.0
 31
0.0
  0
LINE
  8
0
  6
CONTINUOUS
 62
     1
 10
1287.0
 20
695.0
 30
0.0
 11
1290.735498012
 21
695.0
 31
0.0
  0
LINE
  8
0
  6
CONTINUOUS
 62
     1
 10
1287.0
 20
693.5
 30
0.0
 11
1289.235498012
 21
693.5
 31
0.0
  0
LINE
  8
0
  6
CONTINUOUS
 62
     1
 10
1386.0
 20
650.5
 30
0.0
 11
1358.859650045
 21
650.5
 31
0.0
  0
LINE
  8
0
  6
CONTINUOUS
 62
     1
 10
1287.0
 20
700.0
 30
0.0
 11
1287.0
 21
690.090803363
 31
0.0
  0
ARC
  8
0
  6
LTYPE1
 62
     2
 10
1290.0
 20
653.5
 30
0.0
 40
3.0
 50
180.0
 51
270.0
  0
LINE
  8
0
  6
LTYPE1
 62
     2
 10
1287.0
 20
689.790803363
 30
0.0
 11
1287.0
 21
653.5
 31
0.0
  0
LINE
  8
0
  6
LTYPE1
 62
     2
 10
1358.809650045
 20
650.5
 30
0.0
 11
1290.0
 21
650.5
 31
0.0
  0
LINE
  8
0
  6
LTYPE1
 62
     2
 10
1293.0
 20
629.5
 30
0.0
 11
1293.0
 21
651.5
 31
0.0
  0
LINE
  8
0
  6
LTYPE1
 62
     2
 10
1289.935092126
 20
648.508220679
 30
0.0
 11
1287.322453676
 21
628.053742279
 31
0.0
  0
ARC
  8
0
  6
LTYPE1
 62
     2
 10
1296.878679656
 20
647.621320344
 30
0.0
 40
7.0
 50
172.721057981
 51
180.0
  0
ARC
  8
0
  6
LTYPE1
 62
     2
 10
1296.878679656
 20
647.621320344
 30
0.0
 40
7.0
 50
151.513525439
 51
172.721057981
  0
ARC
  8
0
  6
LTYPE1
 62
     2
 10
1284.5
 20
656.0
 30
0.0
 40
5.0
 50
90.0
 51
179.999969099
  0
LINE
  8
0
  6
LTYPE1
 62
     2
 10
1287.0
 20
661.0
 30
0.0
 11
1284.5
 21
661.0
 31
0.0
  0
LINE
  8
0
  6
LTYPE1
 62
     2
 10
1279.5
 20
656.000002697
 30
0.0
 11
1279.5
 21
626.778748346
 31
0.0
  0
LINE
  8
0
  6
CONTINUOUS
 62
     1
 10
1307.0
 20
614.5
 30
0.0
 11
1307.0
 21
598.5
 31
0.0
  0
LINE
  8
0
  6
CONTINUOUS
 62
     1
 10
1330.0
 20
626.5
 30
0.0
 11
1330.0
 21
586.5
 31
0.0
  0
LINE
  8
0
  6
CONTINUOUS
 62
     1
 10
1318.0
 20
626.5
 30
0.0
 11
1318.0
 21
586.5
 31
0.0
  0
LINE
  8
0
  6
CONTINUOUS
 62
     1
 10
1318.0
 20
626.5
 30
0.0
 11
1338.0
 21
626.5
 31
0.0
  0
LINE
  8
0
  6
CONTINUOUS
 62
     1
 10
1318.0
 20
586.5
 30
0.0
 11
1338.0
 21
586.5
 31
0.0
  0
LINE
  8
0
  6
CONTINUOUS
 62
     1
 10
1330.0
 20
614.5
 30
0.0
 11
1338.0
 21
614.5
 31
0.0
  0
LINE
  8
0
  6
CONTINUOUS
 62
     1
 10
1330.0
 20
598.5
 30
0.0
 11
1338.0
 21
598.5
 31
0.0
  0
LINE
  8
0
  6
CONTINUOUS
 62
     1
 10
1369.0
 20
614.5
 30
0.0
 11
1369.0
 21
598.5
 31
0.0
  0
LINE
  8
0
  6
CONTINUOUS
 62
     1
 10
1346.0
 20
626.5
 30
0.0
 11
1346.0
 21
586.5
 31
0.0
  0
LINE
  8
0
  6
CONTINUOUS
 62
     1
 10
1358.0
 20
626.5
 30
0.0
 11
1358.0
 21
586.5
 31
0.0
  0
LINE
  8
0
  6
CONTINUOUS
 62
     1
 10
1358.0
 20
626.5
 30
0.0
 11
1338.0
 21
626.5
 31
0.0
  0
LINE
  8
0
  6
CONTINUOUS
 62
     1
 10
1358.0
 20
586.5
 30
0.0
 11
1338.0
 21
586.5
 31
0.0
  0
LINE
  8
0
  6
CONTINUOUS
 62
     1
 10
1346.0
 20
614.5
 30
0.0
 11
1338.0
 21
614.5
 31
0.0
  0
LINE
  8
0
  6
CONTINUOUS
 62
     1
 10
1346.0
 20
598.5
 30
0.0
 11
1338.0
 21
598.5
 31
0.0
  0
LINE
  8
0
  6
LTYPE3
 62
     2
 10
1275.6
 20
606.5
 30
0.0
 11
1398.8
 21
606.5
 31
0.0
  0
LINE
  8
0
  6
CONTINUOUS
 62
     1
 10
1315.0
 20
591.5
 30
0.0
 11
1315.0
 21
621.5
 31
0.0
  0
LINE
  8
0
  6
CONTINUOUS
 62
     1
 10
1318.0
 20
591.5
 30
0.0
 11
1315.0
 21
591.5
 31
0.0
  0
LINE
  8
0
  6
CONTINUOUS
 62
     1
 10
1318.0
 20
621.5
 30
0.0
 11
1315.0
 21
621.5
 31
0.0
  0
LINE
  8
0
  6
LTYPE2
 62
     2
 10
1312.35
 20
602.1
 30
0.0
 11
1312.35
 21
610.5
 31
0.0
  0
CIRCLE
  8
0
  6
CONTINUOUS
 62
     1
 10
1312.35
 20
606.5
 30
0.0
 40
2.0
  0
LINE
  8
0
  6
CONTINUOUS
 62
     1
 10
1361.0
 20
621.5
 30
0.0
 11
1361.0
 21
591.5
 31
0.0
  0
LINE
  8
0
  6
CONTINUOUS
 62
     1
 10
1358.0
 20
621.5
 30
0.0
 11
1361.0
 21
621.5
 31
0.0
  0
LINE
  8
0
  6
CONTINUOUS
 62
     1
 10
1358.0
 20
591.5
 30
0.0
 11
1361.0
 21
591.5
 31
0.0
  0
LINE
  8
0
  6
LTYPE2
 62
     2
 10
1363.65
 20
610.9
 30
0.0
 11
1363.65
 21
602.5
 31
0.0
  0
CIRCLE
  8
0
  6
CONTINUOUS
 62
     1
 10
1363.65
 20
606.5
 30
0.0
 40
2.0
  0
LINE
  8
0
  6
CONTINUOUS
 62
     1
 10
1307.0
 20
614.5
 30
0.0
 11
1315.0
 21
614.5
 31
0.0
  0
LINE
  8
0
  6
LTYPE1
 62
     2
 10
1330.0
 20
614.5
 30
0.0
 11
1315.0
 21
614.5
 31
0.0
  0
LINE
  8
0
  6
CONTINUOUS
 62
     1
 10
1307.0
 20
598.5
 30
0.0
 11
1315.0
 21
598.5
 31
0.0
  0
LINE
  8
0
  6
LTYPE1
 62
     2
 10
1330.0
 20
598.5
 30
0.0
 11
1315.0
 21
598.5
 31
0.0
  0
LINE
  8
0
  6
CONTINUOUS
 62
     1
 10
1369.0
 20
614.5
 30
0.0
 11
1361.0
 21
614.5
 31
0.0
  0
LINE
  8
0
  6
CONTINUOUS
 62
     1
 10
1369.0
 20
598.5
 30
0.0
 11
1361.0
 21
598.5
 31
0.0
  0
LINE
  8
0
  6
LTYPE1
 62
     2
 10
1346.0
 20
598.5
 30
0.0
 11
1361.0
 21
598.5
 31
0.0
  0
LINE
  8
0
  6
LTYPE1
 62
     2
 10
1346.0
 20
614.5
 30
0.0
 11
1361.0
 21
614.5
 31
0.0
  0
LINE
  8
0
  6
CONTINUOUS
 62
     1
 10
1398.0
 20
586.5
 30
0.0
 11
1398.0
 21
626.5
 31
0.0
  0
LINE
  8
0
  6
CONTINUOUS
 62
     1
 10
1383.0
 20
629.287483461
 30
0.0
 11
1398.0
 21
626.5
 31
0.0
  0
LINE
  8
0
  6
LTYPE1
 62
     2
 10
1376.0
 20
598.5
 30
0.0
 11
1398.0
 21
598.5
 31
0.0
  0
LINE
  8
0
  6
LTYPE1
 62
     2
 10
1376.0
 20
614.5
 30
0.0
 11
1398.0
 21
614.5
 31
0.0
  0
LINE
  8
0
  6
LTYPE1
 62
     2
 10
1376.0
 20
598.5
 30
0.0
 11
1376.0
 21
614.5
 31
0.0
  0
LINE
  8
0
  6
LTYPE1
 62
     2
 10
1300.0
 20
598.5
 30
0.0
 11
1278.0
 21
598.5
 31
0.0
  0
LINE
  8
0
  6
LTYPE1
 62
     2
 10
1300.0
 20
614.5
 30
0.0
 11
1278.0
 21
614.5
 31
0.0
  0
LINE
  8
0
  6
LTYPE1
 62
     2
 10
1300.0
 20
598.5
 30
0.0
 11
1300.0
 21
614.5
 31
0.0
  0
CIRCLE
  8
0
  6
CONTINUOUS
 62
     1
 10
1377.0
 20
567.5
 30
0.0
 40
5.0
  0
LINE
  8
0
  6
CONTINUOUS
 62
     1
 10
1380.008220679
 20
558.435092126
 30
0.0
 11
1344.715102543
 21
553.927122983
 31
0.0
  0
ARC
  8
0
  6
CONTINUOUS
 62
     1
 10
1379.121320344
 20
565.378679656
 30
0.0
 40
7.0
 50
352.721057981
 51
0.0
  0
ARC
  8
0
  6
CONTINUOUS
 62
     1
 10
1379.121320344
 20
565.378679656
 30
0.0
 40
7.0
 50
285.275864075
 51
352.721057981
  0
LINE
  8
0
  6
CONTINUOUS
 62
     1
 10
1386.064907874
 20
564.491779321
 30
0.0
 11
1388.677546324
 21
584.946257721
 31
0.0
  0
LINE
  8
0
  6
LTYPE1
 62
     2
 10
1368.915102543
 20
567.5
 30
0.0
 11
1385.415102543
 21
567.5
 31
0.0
  0
LINE
  8
0
  6
LTYPE1
 62
     2
 10
1377.0
 20
559.827122983
 30
0.0
 11
1377.0
 21
576.127122983
 31
0.0
  0
ARC
  8
0
  6
CONTINUOUS
 62
     1
 10
1338.0
 20
606.5
 30
0.0
 40
53.0
 50
270.0
 51
277.278942019
  0
CIRCLE
  8
0
  6
CONTINUOUS
 62
     1
 10
1299.0
 20
567.5
 30
0.0
 40
5.0
  0
LINE
  8
0
  6
CONTINUOUS
 62
     1
 10
1295.991779321
 20
558.435092126
 30
0.0
 11
1331.284897457
 21
553.927122983
 31
0.0
  0
ARC
  8
0
  6
CONTINUOUS
 62
     1
 10
1296.878679656
 20
565.378679656
 30
0.0
 40
7.0
 50
180.0
 51
187.278942019
  0
ARC
  8
0
  6
CONTINUOUS
 62
     1
 10
1296.878679656
 20
565.378679656
 30
0.0
 40
7.0
 50
187.278942019
 51
254.724135925
  0
LINE
  8
0
  6
CONTINUOUS
 62
     1
 10
1289.935092126
 20
564.491779321
 30
0.0
 11
1287.322453676
 21
584.946257721
 31
0.0
  0
LINE
  8
0
  6
LTYPE1
 62
     2
 10
1307.084897457
 20
567.5
 30
0.0
 11
1290.584897457
 21
567.5
 31
0.0
  0
LINE
  8
0
  6
LTYPE1
 62
     2
 10
1299.0
 20
559.827122983
 30
0.0
 11
1299.0
 21
576.127122983
 31
0.0
  0
ARC
  8
0
  6
CONTINUOUS
 62
     1
 10
1338.0
 20
606.5
 30
0.0
 40
53.0
 50
262.721057981
 51
270.0
  0
LINE
  8
0
  6
CONTINUOUS
 62
     1
 10
1291.0
 20
584.333333333
 30
0.0
 11
1278.0
 21
586.5
 31
0.0
  0
LINE
  8
0
  6
CONTINUOUS
 62
     1
 10
1383.0
 20
629.5
 30
0.0
 11
1381.820823288
 21
624.829905793
 31
0.0
  0
LINE
  8
0
  6
CONTINUOUS
 62
     1
 10
1379.515396986
 20
583.419232831
 30
0.0
 11
1398.0
 21
586.5
 31
0.0
  0
LINE
  8
0
  6
LTYPE2
 62
     2
 10
1269.9
 20
553.5
 30
0.0
 11
1409.9
 21
553.5
 31
0.0
  0
LINE
  8
2
  6
CONTINUOUS
 62
     2
 10
1399.0
 20
498.5
 30
0.0
 11
1399.0
 21
408.0
 31
0.0
  0
LINE
  8
2
  6
CONTINUOUS
 62
     2
 10
1277.0
 20
498.5
 30
0.0
 11
1277.0
 21
408.0
 31
0.0
  0
LINE
  8
2
  6
CONTINUOUS
 62
     2
 10
1399.0
 20
499.0
 30
0.0
 11
1399.0
 21
408.5
 31
0.0
  0
LINE
  8
2
  6
CONTINUOUS
 62
     2
 10
1277.0
 20
499.0
 30
0.0
 11
1277.0
 21
408.5
 31
0.0
  0
LINE
  8
0
  6
CONTINUOUS
 62
     2
 10
1279.5
 20
498.0
 30
0.0
 11
1279.5
 21
439.89
 31
0.0
  0
LINE
  8
0
  6
CONTINUOUS
 62
     2
 10
1396.5
 20
498.0
 30
0.0
 11
1396.5
 21
439.89
 31
0.0
  0
LINE
  8
0
  6
CONTINUOUS
 62
     1
 10
1287.0
 20
492.5
 30
0.0
 11
1389.0
 21
492.5
 31
0.0
  0
ARC
  8
0
  6
CONTINUOUS
 62
     1
 10
1287.0
 20
502.5
 30
0.0
 40
10.0
 50
180.0
 51
270.0
  0
LINE
  8
0
  6
CONTINUOUS
 62
     1
 10
1287.0
 20
492.5
 30
0.0
 11
1389.0
 21
492.5
 31
0.0
  0
CIRCLE
  8
0
  6
CONTINUOUS
 62
     1
 10
1287.0
 20
502.0
 30
0.0
 40
4.0
  0
CIRCLE
  8
0
  6
CONTINUOUS
 62
     1
 10
1287.0
 20
502.0
 30
0.0
 40
3.0
  0
LINE
  8
0
  6
CONTINUOUS
 62
     2
 10
1281.0
 20
502.0
 30
0.0
 11
1293.0
 21
502.0
 31
0.0
  0
LINE
  8
0
  6
CONTINUOUS
 62
     2
 10
1287.0
 20
496.0
 30
0.0
 11
1287.0
 21
508.0
 31
0.0
  0
LINE
  8
0
  6
CONTINUOUS
 62
     1
 10
1387.5
 20
494.0
 30
0.0
 11
1288.5
 21
494.0
 31
0.0
  0
ARC
  8
0
  6
CONTINUOUS
 62
     1
 10
1288.5
 20
503.0
 30
0.0
 40
9.0
 50
180.0
 51
270.0
  0
LINE
  8
0
  6
CONTINUOUS
 62
     1
 10
1279.5
 20
586.25
 30
0.0
 11
1279.5
 21
503.0
 31
0.0
  0
LINE
  8
0
  6
CONTINUOUS
 62
     1
 10
1277.0
 20
604.5
 30
0.0
 11
1277.0
 21
503.0
 31
0.0
  0
ARC
  8
0
  6
CONTINUOUS
 62
     1
 10
1331.0
 20
499.0
 30
0.0
 40
5.0
 50
179.999984538
 51
270.0
  0
LINE
  8
0
  6
CONTINUOUS
 62
     1
 10
1326.0
 20
514.000001349
 30
0.0
 11
1326.0
 21
499.000001349
 31
0.0
  0
ARC
  8
0
  6
CONTINUOUS
 62
     1
 10
1284.5
 20
524.0
 30
0.0
 40
5.0
 50
180.0
 51
270.000026769
  0
LINE
  8
0
  6
CONTINUOUS
 62
     1
 10
1391.500002697
 20
519.0
 30
0.0
 11
1284.500002336
 21
519.0
 31
0.0
  0
ARC
  8
0
  6
CONTINUOUS
 62
     1
 10
1321.0
 20
514.0
 30
0.0
 40
5.0
 50
0.000015462
 51
90.0
  0
ARC
  8
0
  6
CONTINUOUS
 62
     1
 10
1389.0
 20
502.5
 30
0.0
 40
10.0
 50
270.0
 51
0.0
  0
CIRCLE
  8
0
  6
CONTINUOUS
 62
     1
 10
1389.0
 20
502.0
 30
0.0
 40
4.0
  0
CIRCLE
  8
0
  6
CONTINUOUS
 62
     1
 10
1389.0
 20
502.0
 30
0.0
 40
3.0
  0
LINE
  8
0
  6
CONTINUOUS
 62
     2
 10
1395.0
 20
502.0
 30
0.0
 11
1383.0
 21
502.0
 31
0.0
  0
LINE
  8
0
  6
CONTINUOUS
 62
     2
 10
1389.0
 20
496.0
 30
0.0
 11
1389.0
 21
508.0
 31
0.0
  0
ARC
  8
0
  6
CONTINUOUS
 62
     1
 10
1387.5
 20
503.0
 30
0.0
 40
9.0
 50
270.0
 51
0.0
  0
LINE
  8
0
  6
CONTINUOUS
 62
     1
 10
1350.0
 20
514.000001349
 30
0.0
 11
1350.0
 21
499.000001349
 31
0.0
  0
ARC
  8
0
  6
CONTINUOUS
 62
     1
 10
1345.0
 20
499.0
 30
0.0
 40
5.0
 50
270.0
 51
0.000015462
  0
ARC
  8
0
  6
CONTINUOUS
 62
     1
 10
1355.0
 20
514.0
 30
0.0
 40
5.0
 50
90.0
 51
179.999984538
  0
ARC
  8
0
  6
CONTINUOUS
 62
     1
 10
1391.5
 20
524.0
 30
0.0
 40
5.0
 50
270.00003091
 51
0.0
  0
LINE
  8
0
  6
CONTINUOUS
 62
     1
 10
1396.5
 20
586.25
 30
0.0
 11
1396.5
 21
503.0
 31
0.0
  0
LINE
  8
0
  6
CONTINUOUS
 62
     1
 10
1399.0
 20
604.5
 30
0.0
 11
1399.0
 21
503.0
 31
0.0
  0
ARC
  8
0
  6
CONTINUOUS
 62
     1
 10
1287.0
 20
604.5
 30
0.0
 40
10.0
 50
154.158067237
 51
180.0
  0
ARC
  8
0
  6
CONTINUOUS
 62
     1
 10
1389.0
 20
604.5
 30
0.0
 40
10.0
 50
0.0
 51
25.841932763
  0
LINE
  8
0
  6
LTYPE1
 62
     2
 10
1293.0
 20
629.5
 30
0.0
 11
1294.179176712
 21
624.829905793
 31
0.0
  0
LINE
  8
0
  6
CONTINUOUS
 62
     1
 10
1278.0
 20
586.5
 30
0.0
 11
1278.0
 21
623.326406343
 31
0.0
  0
LINE
  8
0
  6
LTYPE1
 62
     2
 10
1293.0
 20
629.287483461
 30
0.0
 11
1278.0
 21
626.5
 31
0.0
  0
LINE
  8
0
  6
LTYPE1
 62
     2
 10
1278.0
 20
623.326406343
 30
0.0
 11
1278.0
 21
626.5
 31
0.0
  0
TEXT
  8
2
  6
CONTINUOUS
 62
     2
 10
1278.6
 20
420.0
 30
0.0
 40
15.0
  1
１２２（モータ幅）
 50
0.0
 41
0.9
 51
0.0
  7
KANJI42
  0
LINE
  8
0
  6
CONTINUOUS
 62
     2
 10
1279.5
 20
449.89
 30
0.0
 11
1291.574072829
 21
446.654761936
 31
0.0
  0
LINE
  8
0
  6
CONTINUOUS
 62
     2
 10
1279.5
 20
449.89
 30
0.0
 11
1291.574072829
 21
453.125238064
 31
0.0
  0
LINE
  8
0
  6
CONTINUOUS
 62
     2
 10
1279.5
 20
449.89
 30
0.0
 11
1396.5
 21
449.89
 31
0.0
  0
LINE
  8
0
  6
CONTINUOUS
 62
     2
 10
1396.5
 20
449.89
 30
0.0
 11
1384.425927171
 21
453.125238064
 31
0.0
  0
LINE
  8
0
  6
CONTINUOUS
 62
     2
 10
1396.5
 20
449.89
 30
0.0
 11
1384.425927171
 21
446.654761936
 31
0.0
  0
TEXT
  8
0
  6
CONTINUOUS
 62
     3
 10
1280.42
 20
452.86
 30
-2.5
 40
15.0
  1
１１７（ギヤケース幅）
 50
0.0
 41
0.9
 51
0.0
  7
KANJI48
  0
LINE
  8
0
  6
CONTINUOUS
 62
     1
 10
976.0
 20
574.75
 30
0.0
 11
976.0
 21
606.5
 31
0.0
  0
LINE
  8
0
  6
CONTINUOUS
 62
     1
 10
1066.0
 20
586.5
 30
0.0
 11
1116.0
 21
586.5
 31
0.0
  0
LINE
  8
0
  6
CONTINUOUS
 62
     1
 10
1119.0
 20
589.5
 30
0.0
 11
1119.0
 21
606.5
 31
0.0
  0
LINE
  8
0
  6
CONTINUOUS
 62
     1
 10
1116.0
 20
586.5
 30
0.0
 11
1119.0
 21
589.5
 31
0.0
  0
LINE
  8
0
  6
CONTINUOUS
 62
     1
 10
1066.0
 20
626.5
 30
0.0
 11
1116.0
 21
626.5
 31
0.0
  0
LINE
  8
0
  6
CONTINUOUS
 62
     1
 10
1119.0
 20
623.5
 30
0.0
 11
1119.0
 21
606.5
 31
0.0
  0
LINE
  8
0
  6
CONTINUOUS
 62
     1
 10
1116.0
 20
626.5
 30
0.0
 11
1119.0
 21
623.5
 31
0.0
  0
CIRCLE
  8
0
  6
CONTINUOUS
 62
     1
 10
1101.0
 20
606.5
 30
0.0
 40
8.0
  0
LINE
  8
0
  6
LTYPE1
 62
     1
 10
1076.0
 20
586.5
 30
0.0
 11
1076.0
 21
606.5
 31
0.0
  0
LINE
  8
0
  6
LTYPE1
 62
     1
 10
1076.0
 20
626.5
 30
0.0
 11
1076.0
 21
606.5
 31
0.0
  0
LINE
  8
0
  6
CONTINUOUS
 62
     1
 10
976.0
 20
638.25
 30
0.0
 11
976.0
 21
606.5
 31
0.0
  0
LINE
  8
0
  6
CONTINUOUS
 62
     1
 10
1006.0
 20
625.5
 30
0.0
 11
1050.0
 21
625.5
 31
0.0
  0
POINT
  8
0
  6
CONTINUOUS
 62
     1
 10
932.639501379
 20
606.5
 30
0.0
  0
LINE
  8
0
  6
CONTINUOUS
 62
     2
 10
1148.8
 20
586.5
 30
0.0
 11
1151.388190451
 21
596.159258263
 31
0.0
  0
LINE
  8
0
  6
CONTINUOUS
 62
     2
 10
1148.8
 20
586.5
 30
0.0
 11
1146.211809549
 21
596.159258263
 31
0.0
  0
LINE
  8
0
  6
CONTINUOUS
 62
     2
 10
1148.8
 20
586.5
 30
0.0
 11
1148.8
 21
626.5
 31
0.0
  0
LINE
  8
0
  6
CONTINUOUS
 62
     2
 10
1148.8
 20
626.5
 30
0.0
 11
1146.211809549
 21
616.840741737
 31
0.0
  0
LINE
  8
0
  6
CONTINUOUS
 62
     2
 10
1148.8
 20
626.5
 30
0.0
 11
1151.388190451
 21
616.840741737
 31
0.0
  0
LINE
  8
0
  6
CONTINUOUS
 62
     1
 10
1006.0
 20
638.25
 30
0.0
 11
1006.0
 21
574.75
 31
0.0
  0
LINE
  8
0
  6
CONTINUOUS
 62
     2
 10
1101.0
 20
831.5
 30
0.0
 11
1091.340741737
 21
834.088190451
 31
0.0
  0
LINE
  8
0
  6
CONTINUOUS
 62
     2
 10
1101.0
 20
831.5
 30
0.0
 11
1091.340741737
 21
828.911809549
 31
0.0
  0
LINE
  8
0
  6
CONTINUOUS
 62
     2
 10
1081.0
 20
831.5
 30
0.0
 11
1139.0
 21
831.5
 31
0.0
  0
LINE
  8
0
  6
CONTINUOUS
 62
     2
 10
1119.0
 20
831.5
 30
0.0
 11
1128.659258263
 21
828.911809549
 31
0.0
  0
LINE
  8
0
  6
CONTINUOUS
 62
     2
 10
1119.0
 20
831.5
 30
0.0
 11
1128.659258263
 21
834.088190451
 31
0.0
  0
LINE
  8
0
  6
CONTINUOUS
 62
     2
 10
1101.0
 20
831.5
 30
0.0
 11
1101.0
 21
823.5
 31
0.0
  0
LINE
  8
0
  6
CONTINUOUS
 62
     2
 10
1101.0
 20
831.5
 30
0.0
 11
1091.340741737
 21
834.088190451
 31
0.0
  0
LINE
  8
0
  6
CONTINUOUS
 62
     2
 10
1101.0
 20
831.5
 30
0.0
 11
1091.340741737
 21
828.911809549
 31
0.0
  0
LINE
  8
0
  6
CONTINUOUS
 62
     2
 10
1006.0
 20
771.5
 30
0.0
 11
1015.659258263
 21
768.911809549
 31
0.0
  0
LINE
  8
0
  6
CONTINUOUS
 62
     2
 10
1006.0
 20
771.5
 30
0.0
 11
1015.659258263
 21
774.088190451
 31
0.0
  0
LINE
  8
0
  6
CONTINUOUS
 62
     2
 10
1006.0
 20
771.5
 30
0.0
 11
1066.0
 21
771.5
 31
0.0
  0
LINE
  8
0
  6
CONTINUOUS
 62
     2
 10
1066.0
 20
771.5
 30
0.0
 11
1056.340741737
 21
774.088190451
 31
0.0
  0
LINE
  8
0
  6
CONTINUOUS
 62
     2
 10
1066.0
 20
771.5
 30
0.0
 11
1056.340741737
 21
768.911809549
 31
0.0
  0
LINE
  8
0
  6
CONTINUOUS
 62
     2
 10
1066.0
 20
771.5
 30
0.0
 11
1075.659258263
 21
768.911809549
 31
0.0
  0
LINE
  8
0
  6
CONTINUOUS
 62
     2
 10
1066.0
 20
771.5
 30
0.0
 11
1075.659258263
 21
774.088190451
 31
0.0
  0
LINE
  8
0
  6
CONTINUOUS
 62
     2
 10
1066.0
 20
771.5
 30
0.0
 11
1101.0
 21
771.5
 31
0.0
  0
LINE
  8
0
  6
CONTINUOUS
 62
     2
 10
1101.0
 20
771.5
 30
0.0
 11
1091.340741737
 21
774.088190451
 31
0.0
  0
LINE
  8
0
  6
CONTINUOUS
 62
     2
 10
1101.0
 20
771.5
 30
0.0
 11
1091.340741737
 21
768.911809549
 31
0.0
  0
LINE
  8
0
  6
CONTINUOUS
 62
     2
 10
1101.0
 20
802.0
 30
0.0
 11
1091.340741737
 21
804.588190451
 31
0.0
  0
LINE
  8
0
  6
CONTINUOUS
 62
     2
 10
1101.0
 20
802.0
 30
0.0
 11
1091.340741737
 21
799.411809549
 31
0.0
  0
LINE
  8
0
  6
CONTINUOUS
 62
     2
 10
1006.0
 20
771.5
 30
0.0
 11
996.340741737
 21
774.088190451
 31
0.0
  0
LINE
  8
0
  6
CONTINUOUS
 62
     2
 10
1006.0
 20
771.5
 30
0.0
 11
996.340741737
 21
768.911809549
 31
0.0
  0
LINE
  8
0
  6
CONTINUOUS
 62
     2
 10
1101.0
 20
831.5
 30
0.0
 11
1091.340741737
 21
834.088190451
 31
0.0
  0
LINE
  8
0
  6
CONTINUOUS
 62
     2
 10
1101.0
 20
831.5
 30
0.0
 11
1091.340741737
 21
828.911809549
 31
0.0
  0
LINE
  8
2
  6
CONTINUOUS
 62
     2
 10
1101.0
 20
831.5
 30
0.0
 11
1091.340741737
 21
834.088190451
 31
0.0
  0
LINE
  8
2
  6
CONTINUOUS
 62
     2
 10
1101.0
 20
831.5
 30
0.0
 11
1091.340741737
 21
828.911809549
 31
0.0
  0
LINE
  8
0
  6
CONTINUOUS
 62
     2
 10
1119.0
 20
626.5
 30
0.0
 11
1119.0
 21
834.85
 31
0.0
  0
LINE
  8
0
  6
CONTINUOUS
 62
     2
 10
1101.0
 20
626.5
 30
0.0
 11
1101.0
 21
834.05
 31
0.0
  0
TEXT
  8
0
  6
CONTINUOUS
 62
     2
 10
1098.2
 20
835.5
 30
0.0
 40
15.0
  1
１８
 50
0.0
 41
0.9
 51
0.0
  7
KANJI42
  0
TEXT
  8
0
  6
CONTINUOUS
 62
     2
 10
1071.7
 20
775.5
 30
0.0
 40
15.0
  1
３５
 50
0.0
 41
0.9
 51
0.0
  7
KANJI42
  0
TEXT
  8
0
  6
CONTINUOUS
 62
     2
 10
996.4
 20
775.5
 30
0.0
 40
15.0
  1
ｍｉｎ．Ｐ
 50
0.0
 41
0.9
 51
0.0
  7
KANJI42
  0
TEXT
  8
0
  6
CONTINUOUS
 62
     2
 10
1156.75
 20
427.26
 30
0.84
 40
8.4
  1
Ｈ１０
 50
0.0
 41
0.9
 51
0.0
  7
KANJI49
  0
LINE
  8
0
  6
CONTINUOUS
 62
     2
 10
1101.0
 20
426.85
 30
0.0
 11
1101.0
 21
435.35
 31
0.0
  0
TEXT
  8
0
  6
CONTINUOUS
 62
     2
 10
1076.7
 20
431.35
 30
0.0
 40
15.0
  1
２５
 50
0.0
 41
0.9
 51
0.0
  7
KANJI42
  0
TEXT
  8
0
  6
CONTINUOUS
 62
     2
 10
1118.0
 20
419.6
 30
0.0
 40
15.0
  1
φ１６
 50
0.0
 41
0.9
 51
0.0
  7
KANJI42
  0
LINE
  8
0
  6
LTYPE3
 62
     2
 10
1101.0
 20
317.6
 30
0.0
 11
1101.0
 21
629.0
 31
0.0
  0
TEXT
  8
0
  6
CONTINUOUS
 62
     2
 10
1144.8
 20
595.1
 30
0.0
 40
15.0
  1
４０
 50
90.0
 41
0.9
 51
0.0
  7
KANJI42
  0
LINE
  8
0
  6
CONTINUOUS
 62
     2
 10
1006.0
 20
641.59
 30
0.0
 11
1006.0
 21
776.25
 31
0.0
  0
LINE
  8
0
  6
CONTINUOUS
 62
     2
 10
1066.0
 20
776.25
 30
0.0
 11
1066.0
 21
639.46
 31
0.0
  0
LINE
  8
0
  6
CONTINUOUS
 62
     2
 10
1120.76
 20
626.5
 30
0.0
 11
1152.9
 21
626.5
 31
0.0
  0
LINE
  8
0
  6
CONTINUOUS
 62
     2
 10
1120.58
 20
586.5
 30
0.0
 11
1153.3
 21
586.5
 31
0.0
  0
LINE
  8
0
  6
CONTINUOUS
 62
     2
 10
1076.0
 20
365.96
 30
0.0
 11
1076.0
 21
434.45
 31
0.0
  0
CIRCLE
  8
0
  6
CONTINUOUS
 62
     1
 10
1101.0
 20
606.5
 30
0.0
 40
15.0
  0
CIRCLE
  8
0
  6
CONTINUOUS
 62
     1
 10
1100.999984741
 20
617.5
 30
0.0
 40
3.0
  0
LINE
  8
0
  6
CONTINUOUS
 62
     1
 10
1096.8
 20
594.2
 30
0.0
 11
1098.8
 21
593.9
 31
0.0
  0
LINE
  8
0
  6
CONTINUOUS
 62
     1
 10
1099.064615385
 20
597.030769231
 30
0.0
 11
1096.8
 21
594.2
 31
0.0
  0
LINE
  8
0
  6
CONTINUOUS
 62
     1
 10
1101.0
 20
596.6
 30
0.0
 11
1098.8
 21
593.9
 31
0.0
  0
LINE
  8
0
  6
CONTINUOUS
 62
     1
 10
1099.3
 20
598.6
 30
0.0
 11
1099.064615385
 21
597.030769231
 31
0.0
  0
LINE
  8
0
  6
CONTINUOUS
 62
     1
 10
1105.2
 20
594.2
 30
0.0
 11
1103.2
 21
593.9
 31
0.0
  0
LINE
  8
0
  6
CONTINUOUS
 62
     1
 10
1102.935384615
 20
597.030769231
 30
0.0
 11
1105.2
 21
594.2
 31
0.0
  0
LINE
  8
0
  6
CONTINUOUS
 62
     1
 10
1101.0
 20
596.6
 30
0.0
 11
1103.2
 21
593.9
 31
0.0
  0
LINE
  8
0
  6
CONTINUOUS
 62
     1
 10
1102.7
 20
598.6
 30
0.0
 11
1102.935384615
 21
597.030769231
 31
0.0
  0
LINE
  8
0
  6
CONTINUOUS
 62
     2
 10
1168.5
 20
672.7
 30
0.0
 11
1156.425927171
 21
675.935238064
 31
0.0
  0
LINE
  8
0
  6
CONTINUOUS
 62
     2
 10
1168.5
 20
672.7
 30
0.0
 11
1156.425927171
 21
669.464761936
 31
0.0
  0
LINE
  8
0
  6
CONTINUOUS
 62
     2
 10
1168.5
 20
672.7
 30
0.0
 11
1127.5
 21
672.7
 31
0.0
  0
TEXT
  8
0
  6
CONTINUOUS
 62
     3
 10
1134.5
 20
682.7
 30
0.0
 40
20.0
  1
前進
 50
0.0
 41
0.925
 51
0.0
  7
KANJI43
  0
LINE
  8
0
  6
CONTINUOUS
 62
     2
 10
1185.5
 20
606.5
 30
0.0
 11
1182.264761936
 21
594.425927171
 31
0.0
  0
LINE
  8
0
  6
CONTINUOUS
 62
     2
 10
1185.5
 20
606.5
 30
0.0
 11
1188.735238064
 21
594.425927171
 31
0.0
  0
LINE
  8
0
  6
CONTINUOUS
 62
     2
 10
1185.5
 20
606.5
 30
0.0
 11
1185.5
 21
453.5
 31
0.0
  0
LINE
  8
0
  6
CONTINUOUS
 62
     2
 10
1185.5
 20
453.5
 30
0.0
 11
1188.735238064
 21
465.574072829
 31
0.0
  0
LINE
  8
0
  6
CONTINUOUS
 62
     2
 10
1185.5
 20
453.5
 30
0.0
 11
1182.264761936
 21
465.574072829
 31
0.0
  0
TEXT
  8
0
  6
CONTINUOUS
 62
     3
 10
1180.5
 20
509.75
 30
0.0
 40
15.0
  1
１５３
 50
90.0
 41
0.9
 51
0.0
  7
KANJI42
  0
LINE
  8
0
  6
CONTINUOUS
 62
     2
 10
1148.8
 20
606.5
 30
0.0
 11
1195.5
 21
606.5
 31
0.0
  0
TEXT
  8
0
  6
CONTINUOUS
 62
     2
 10
857.6
 20
775.5
 30
0.0
 40
15.0
  1
Ｃ
 50
0.0
 41
0.9
 51
0.0
  7
KANJI42
  0
TEXT
  8
0
  6
CONTINUOUS
 62
     2
 10
876.1
 20
806.0
 30
0.0
 40
15.0
  1
ｍｉｎ．Ｌ
 50
0.0
 41
0.9
 51
0.0
  7
KANJI42
  0
TEXT
  8
0
  6
CONTINUOUS
 62
     2
 10
915.2
 20
644.5
 30
0.0
 40
15.0
  1
φ６４
 50
90.0
 41
0.9
 51
0.0
  7
KANJI42
  0
LINE
  8
0
  6
CONTINUOUS
 62
     2
 10
712.0
 20
740.4
 30
0.0
 11
776.8
 21
740.4
 31
0.0
  0
TEXT
  8
0
  6
CONTINUOUS
 62
     2
 10
712.0
 20
744.4
 30
0.0
 40
15.0
  1
推力リミッタ
 50
0.0
 41
0.9
 51
0.0
  7
KANJI42
  0
LINE
  8
0
  6
CONTINUOUS
 62
     2
 10
1101.0
 20
802.0
 30
0.0
 11
620.0
 21
802.0
 31
0.0
  0
LINE
  8
0
  6
CONTINUOUS
 62
     2
 10
1006.0
 20
771.5
 30
0.0
 11
620.0
 21
771.5
 31
0.0
  0
LINE
  8
2
  6
CONTINUOUS
 62
     2
 10
624.5
 20
606.5
 30
0.0
 11
618.5
 21
606.5
 31
0.0
  0
LINE
  8
0
  6
CONTINUOUS
 62
     1
 10
726.0
 20
566.5
 30
0.0
 11
726.0
 21
646.5
 31
0.0
  0
CIRCLE
  8
0
  6
CONTINUOUS
 62
     1
 10
620.0
 20
606.5
 30
0.0
 40
20.0
  0
CIRCLE
  8
0
  6
CONTINUOUS
 62
     1
 10
620.0
 20
606.5
 30
0.0
 40
27.0
  0
LINE
  8
0
  6
CONTINUOUS
 62
     1
 10
644.0
 20
619.0
 30
0.0
 11
644.0
 21
649.5
 31
0.0
  0
LINE
  8
0
  6
CONTINUOUS
 62
     1
 10
644.0
 20
649.5
 30
0.0
 11
718.0
 21
649.5
 31
0.0
  0
LINE
  8
0
  6
CONTINUOUS
 62
     1
 10
561.0
 20
643.5
 30
0.0
 11
644.0
 21
643.5
 31
0.0
  0
ARC
  8
0
  6
CONTINUOUS
 62
     1
 10
561.0
 20
646.5
 30
0.0
 40
3.0
 50
183.814074834
 51
272.952201748
  0
LINE
  8
0
  6
CONTINUOUS
 62
     1
 10
726.0
 20
566.5
 30
0.0
 11
726.0
 21
646.5
 31
0.0
  0
LINE
  8
0
  6
CONTINUOUS
 62
     1
 10
718.0
 20
646.5
 30
0.0
 11
726.0
 21
646.5
 31
0.0
  0
LINE
  8
0
  6
CONTINUOUS
 62
     1
 10
718.0
 20
643.5
 30
0.0
 11
726.0
 21
643.5
 31
0.0
  0
LINE
  8
0
  6
CONTINUOUS
 62
     1
 10
601.0
 20
695.5
 30
0.0
 11
726.0
 21
695.5
 31
0.0
  0
LINE
  8
0
  6
CONTINUOUS
 62
     1
 10
718.0
 20
566.5
 30
0.0
 11
718.0
 21
651.0
 31
0.0
  0
LINE
  8
0
  6
CONTINUOUS
 62
     1
 10
596.0
 20
694.0
 30
0.0
 11
726.0
 21
694.0
 31
0.0
  0
LINE
  8
0
  6
CONTINUOUS
 62
     1
 10
596.0
 20
651.0
 30
0.0
 11
596.0
 21
694.0
 31
0.0
  0
LINE
  8
0
  6
CONTINUOUS
 62
     1
 10
601.0
 20
651.0
 30
0.0
 11
601.0
 21
700.5
 31
0.0
  0
ARC
  8
0
  6
CONTINUOUS
 62
     1
 10
603.0
 20
700.5
 30
0.0
 40
2.0
 50
90.0
 51
180.0
  0
LINE
  8
0
  6
CONTINUOUS
 62
     1
 10
603.0
 20
702.5
 30
0.0
 11
724.0
 21
702.5
 31
0.0
  0
ARC
  8
0
  6
CONTINUOUS
 62
     1
 10
724.0
 20
700.5
 30
0.0
 40
2.0
 50
0.0
 51
90.0
  0
LINE
  8
0
  6
CONTINUOUS
 62
     1
 10
596.0
 20
651.0
 30
0.0
 11
724.0
 21
651.0
 31
0.0
  0
LINE
  8
0
  6
CONTINUOUS
 62
     1
 10
726.0
 20
653.0
 30
0.0
 11
726.0
 21
700.5
 31
0.0
  0
ARC
  8
0
  6
CONTINUOUS
 62
     1
 10
724.0
 20
653.0
 30
0.0
 40
2.0
 50
270.0
 51
360.0
  0
LINE
  8
0
  6
CONTINUOUS
 62
     1
 10
644.0
 20
629.5
 30
0.0
 11
718.0
 21
629.5
 31
0.0
  0
LINE
  8
0
  6
LTYPE3
 62
     2
 10
620.0
 20
553.5
 30
0.0
 11
620.0
 21
659.5
 31
0.0
  0
LINE
  8
0
  6
LTYPE3
 62
     2
 10
681.0
 20
637.143325909
 30
0.0
 11
681.0
 21
653.5
 31
0.0
  0
LINE
  8
0
  6
LTYPE3
 62
     2
 10
589.0
 20
677.0
 30
0.0
 11
612.0
 21
677.0
 31
0.0
  0
LINE
  8
0
  6
CONTINUOUS
 62
     2
 10
596.0
 20
677.0
 30
0.0
 11
593.34257427
 21
686.640440264
 31
0.0
  0
LINE
  8
0
  6
CONTINUOUS
 62
     2
 10
596.0
 20
677.0
 30
0.0
 11
588.878381677
 21
684.020153308
 31
0.0
  0
LINE
  8
0
  6
CONTINUOUS
 62
     2
 10
596.0
 20
677.0
 30
0.0
 11
569.0
 21
723.0
 31
0.0
  0
LINE
  8
0
  6
LTYPE1
 62
     2
 10
596.0
 20
686.3
 30
0.0
 11
606.891504854
 21
686.3
 31
0.0
  0
LINE
  8
0
  6
LTYPE1
 62
     2
 10
596.0
 20
687.5
 30
0.0
 11
606.894417476
 21
687.5
 31
0.0
  0
LINE
  8
0
  6
LTYPE1
 62
     2
 10
596.0
 20
666.5
 30
0.0
 11
606.843446602
 21
666.5
 31
0.0
  0
LINE
  8
0
  6
LTYPE1
 62
     2
 10
596.0
 20
667.7
 30
0.0
 11
606.846359223
 21
667.7
 31
0.0
  0
LINE
  8
0
  6
CONTINUOUS
 62
     2
 10
683.0
 20
694.4
 30
0.0
 11
690.340707918
 21
701.190729509
 31
0.0
  0
LINE
  8
0
  6
CONTINUOUS
 62
     2
 10
683.0
 20
694.4
 30
0.0
 11
685.961874784
 21
703.951298224
 31
0.0
  0
LINE
  8
0
  6
CONTINUOUS
 62
     2
 10
683.0
 20
694.4
 30
0.0
 11
712.0
 21
740.4
 31
0.0
  0
ARC
  8
0
  6
CONTINUOUS
 62
     1
 10
561.0
 20
646.5
 30
0.0
 40
3.0
 50
183.814074834
 51
272.952201748
  0
LINE
  8
0
  6
CONTINUOUS
 62
     1
 10
558.0
 20
555.5
 30
0.0
 11
558.0
 21
659.00001079
 31
0.0
  0
LINE
  8
0
  6
CONTINUOUS
 62
     2
 10
620.0
 20
635.5
 30
0.0
 11
620.0
 21
808.0
 31
0.0
  0
LINE
  8
0
  6
CONTINUOUS
 62
     1
 10
718.0
 20
608.0
 30
0.0
 11
726.0
 21
608.0
 31
0.0
  0
LINE
  8
0
  6
CONTINUOUS
 62
     1
 10
718.0
 20
605.0
 30
0.0
 11
726.0
 21
605.0
 31
0.0
  0
LINE
  8
0
  6
CONTINUOUS
 62
     1
 10
561.0
 20
569.5
 30
0.0
 11
718.0
 21
569.5
 31
0.0
  0
LINE
  8
0
  6
CONTINUOUS
 62
     1
 10
718.0
 20
566.5
 30
0.0
 11
726.0
 21
566.5
 31
0.0
  0
LINE
  8
0
  6
CONTINUOUS
 62
     1
 10
718.0
 20
569.5
 30
0.0
 11
726.0
 21
569.5
 31
0.0
  0
CIRCLE
  8
0
  6
CONTINUOUS
 62
     1
 10
620.0
 20
606.5
 30
0.0
 40
8.0
  0
ARC
  8
0
  6
CONTINUOUS
 62
     1
 10
560.8
 20
566.5
 30
0.0
 40
3.0
 50
86.177446273
 51
182.106627847
  0
ARC
  8
0
  6
CONTINUOUS
 62
     1
 10
560.8
 20
566.5
 30
0.0
 40
3.0
 50
86.177446273
 51
182.106627847
  0
LINE
  8
2
  6
CONTINUOUS
 62
     2
 10
620.0
 20
802.0
 30
0.0
 11
610.340741737
 21
804.588190451
 31
0.0
  0
LINE
  8
2
  6
CONTINUOUS
 62
     2
 10
620.0
 20
802.0
 30
0.0
 11
610.340741737
 21
799.411809549
 31
0.0
  0
LINE
  8
0
  6
CONTINUOUS
 62
     2
 10
620.0
 20
802.0
 30
0.0
 11
629.659258263
 21
799.411809549
 31
0.0
  0
LINE
  8
0
  6
CONTINUOUS
 62
     2
 10
620.0
 20
802.0
 30
0.0
 11
629.659258263
 21
804.588190451
 31
0.0
  0
LINE
  8
0
  6
CONTINUOUS
 62
     2
 10
620.0
 20
771.5
 30
0.0
 11
629.659258263
 21
768.911809549
 31
0.0
  0
LINE
  8
0
  6
CONTINUOUS
 62
     2
 10
620.0
 20
771.5
 30
0.0
 11
629.659258263
 21
774.088190451
 31
0.0
  0
LINE
  8
2
  6
CONTINUOUS
 62
     2
 10
620.0
 20
801.0
 30
0.0
 11
620.0
 21
810.0
 31
0.0
  0
TEXT
  8
0
  6
CONTINUOUS
 62
     2
 10
611.6
 20
835.5
 30
0.0
 40
15.0
  1
ｍｉｎ．ＡＬ
 50
0.0
 41
0.9
 51
0.0
  7
KANJI42
  0
LINE
  8
0
  6
CONTINUOUS
 62
     2
 10
834.450185255
 20
614.65
 30
0.0
 11
834.260119959
 21
624.648193596
 31
0.0
  0
LINE
  8
0
  6
CONTINUOUS
 62
     2
 10
834.450185255
 20
614.65
 30
0.0
 11
829.286487082
 21
623.213656998
 31
0.0
  0
LINE
  8
0
  6
CONTINUOUS
 62
     2
 10
834.450185255
 20
614.65
 30
0.0
 11
813.897884886
 21
685.906179125
 31
0.0
  0
LINE
  8
0
  6
CONTINUOUS
 62
     2
 10
771.0
 20
685.906179125
 30
0.0
 11
813.897884886
 21
685.906179125
 31
0.0
  0
TEXT
  8
0
  6
CONTINUOUS
 62
     2
 10
770.297884886
 20
689.906179125
 30
0.0
 40
15.0
  1
給脂口
 50
0.0
 41
0.9
 51
0.0
  7
KANJI42
  0
LINE
  8
0
  6
CONTINUOUS
 62
     2
 10
919.2
 20
574.75
 30
0.0
 11
919.2
 21
679.3
 31
0.0
  0
LINE
  8
0
  6
CONTINUOUS
 62
     2
 10
919.2
 20
638.25
 30
0.0
 11
916.611809549
 21
628.590741737
 31
0.0
  0
LINE
  8
0
  6
CONTINUOUS
 62
     2
 10
919.2
 20
638.25
 30
0.0
 11
921.788190451
 21
628.590741737
 31
0.0
  0
LINE
  8
0
  6
CONTINUOUS
 62
     2
 10
919.2
 20
574.75
 30
0.0
 11
921.788190451
 21
584.409258263
 31
0.0
  0
LINE
  8
0
  6
CONTINUOUS
 62
     2
 10
919.2
 20
574.75
 30
0.0
 11
916.611809549
 21
584.409258263
 31
0.0
  0
LINE
  8
0
  6
CONTINUOUS
 62
     2
 10
1038.35
 20
453.5
 30
0.0
 11
1195.5
 21
453.5
 31
0.0
  0
LINE
  8
0
  6
CONTINUOUS
 62
     1
 10
1050.0
 20
632.5
 30
0.0
 11
1066.0
 21
632.5
 31
0.0
  0
LINE
  8
0
  6
CONTINUOUS
 62
     1
 10
603.7
 20
703.0
 30
0.0
 11
614.3
 21
703.0
 31
0.0
  0
ARC
  8
0
  6
CONTINUOUS
 62
     1
 10
608.6
 20
702.0
 30
0.0
 40
5.0
 50
92.3
 51
168.5
  0
ARC
  8
0
  6
CONTINUOUS
 62
     1
 10
609.4
 20
702.0
 30
0.0
 40
5.0
 50
11.5
 51
87.7
  0
LINE
  8
0
  6
CONTINUOUS
 62
     1
 10
608.4
 20
707.0
 30
0.0
 11
609.6
 21
707.0
 31
0.0
  0
LINE
  8
0
  6
LTYPE4
 62
     2
 10
609.0
 20
710.4
 30
0.0
 11
609.0
 21
697.0
 31
0.0
  0
LINE
  8
0
  6
CONTINUOUS
 62
     1
 10
712.7
 20
702.5
 30
0.0
 11
723.3
 21
702.5
 31
0.0
  0
ARC
  8
0
  6
CONTINUOUS
 62
     1
 10
717.6
 20
701.5
 30
0.0
 40
5.0
 50
92.3
 51
168.5
  0
ARC
  8
0
  6
CONTINUOUS
 62
     1
 10
718.4
 20
701.5
 30
0.0
 40
5.0
 50
11.5
 51
87.7
  0
LINE
  8
0
  6
CONTINUOUS
 62
     1
 10
717.4
 20
706.5
 30
0.0
 11
718.6
 21
706.5
 31
0.0
  0
LINE
  8
0
  6
LTYPE4
 62
     2
 10
718.0
 20
709.9
 30
0.0
 11
718.0
 21
696.5
 31
0.0
  0
LINE
  8
0
  6
CONTINUOUS
 62
     1
 10
1006.0
 20
587.5
 30
0.0
 11
1050.0
 21
587.5
 31
0.0
  0
ARC
  8
0
  6
CONTINUOUS
 62
     1
 10
1357.445436483
 20
649.279960262
 30
0.0
 40
2.0
 50
315.0
 51
45.0
  0
ARC
  8
0
  6
CONTINUOUS
 62
     1
 10
1338.0
 20
606.5
 30
0.0
 40
32.0
 50
279.340912304
 51
349.457045617
  0
ARC
  8
0
  6
CONTINUOUS
 62
     1
 10
1338.0
 20
606.5
 30
0.0
 40
40.25
 50
265.237896308
 51
4.762103692
  0
LINE
  8
0
  6
LTYPE3
 62
     2
 10
791.85
 20
556.75
 30
0.0
 11
791.85
 21
650.75
 31
0.0
  0
LINE
  8
0
  6
LTYPE1
 62
     2
 10
787.85
 20
587.0
 30
0.0
 11
787.85
 21
642.75
 31
0.0
  0
LINE
  8
0
  6
LTYPE1
 62
     2
 10
795.85
 20
587.0
 30
0.0
 11
795.85
 21
642.75
 31
0.0
  0
ARC
  8
0
  6
LTYPE1
 62
     2
 10
791.85
 20
642.75
 30
0.0
 40
4.0
 50
0.0
 51
180.0
  0
LINE
  8
0
  6
CONTINUOUS
 62
     1
 10
826.5
 20
594.0
 30
0.0
 11
826.5
 21
619.0
 31
0.0
  0
CIRCLE
  8
0
  6
CONTINUOUS
 62
     1
 10
839.0
 20
606.5
 30
0.0
 40
12.5
  0
LINE
  8
0
  6
CONTINUOUS
 62
     1
 10
826.5
 20
594.0
 30
0.0
 11
851.5
 21
594.0
 31
0.0
  0
LINE
  8
0
  6
LTYPE1
 62
     2
 10
798.85
 20
511.5
 30
0.0
 11
798.85
 21
587.0
 31
0.0
  0
LINE
  8
0
  6
LTYPE1
 62
     2
 10
784.85
 20
587.0
 30
0.0
 11
798.85
 21
587.0
 31
0.0
  0
LINE
  8
0
  6
LTYPE3
 62
     2
 10
839.0
 20
625.2
 30
0.0
 11
839.0
 21
585.5
 31
0.0
  0
LINE
  8
0
  6
CONTINUOUS
 62
     1
 10
826.5
 20
619.0
 30
0.0
 11
851.5
 21
619.0
 31
0.0
  0
LINE
  8
0
  6
CONTINUOUS
 62
     1
 10
851.5
 20
594.0
 30
0.0
 11
851.5
 21
619.0
 31
0.0
  0
LINE
  8
0
  6
CONTINUOUS
 62
     1
 10
883.0
 20
587.0
 30
0.0
 11
883.0
 21
642.75
 31
0.0
  0
LINE
  8
0
  6
LTYPE3
 62
     2
 10
887.0
 20
556.75
 30
0.0
 11
887.0
 21
650.75
 31
0.0
  0
LINE
  8
0
  6
CONTINUOUS
 62
     1
 10
891.0
 20
587.0
 30
0.0
 11
891.0
 21
642.75
 31
0.0
  0
ARC
  8
0
  6
CONTINUOUS
 62
     1
 10
887.0
 20
642.75
 30
0.0
 40
4.0
 50
0.0
 51
180.0
  0
LINE
  8
0
  6
CONTINUOUS
 62
     1
 10
891.0
 20
638.25
 30
0.0
 11
943.0
 21
638.25
 31
0.0
  0
LINE
  8
0
  6
CONTINUOUS
 62
     1
 10
955.999501379
 20
638.25
 30
0.0
 11
1006.0
 21
638.25
 31
0.0
  0
LINE
  8
0
  6
CONTINUOUS
 62
     1
 10
951.0
 20
587.0
 30
0.0
 11
951.0
 21
642.75
 31
0.0
  0
LINE
  8
0
  6
CONTINUOUS
 62
     1
 10
943.0
 20
587.0
 30
0.0
 11
943.0
 21
642.75
 31
0.0
  0
LINE
  8
0
  6
LTYPE3
 62
     2
 10
947.0
 20
556.75
 30
0.0
 11
947.0
 21
650.75
 31
0.0
  0
ARC
  8
0
  6
CONTINUOUS
 62
     1
 10
947.0
 20
642.75
 30
0.0
 40
4.0
 50
0.0
 51
180.0
  0
LINE
  8
0
  6
CONTINUOUS
 62
     1
 10
956.0
 20
574.75
 30
0.0
 11
1006.0
 21
574.75
 31
0.0
  0
LINE
  8
0
  6
CONTINUOUS
 62
     1
 10
894.0
 20
574.75
 30
0.0
 11
940.0
 21
574.75
 31
0.0
  0
LINE
  8
0
  6
CONTINUOUS
 62
     1
 10
940.0
 20
518.0
 30
0.0
 11
940.0
 21
587.0
 31
0.0
  0
LINE
  8
0
  6
CONTINUOUS
 62
     1
 10
940.0
 20
587.0
 30
0.0
 11
954.0
 21
587.0
 31
0.0
  0
LINE
  8
0
  6
CONTINUOUS
 62
     1
 10
954.0
 20
518.0
 30
0.0
 11
954.0
 21
587.0
 31
0.0
  0
LINE
  8
0
  6
CONTINUOUS
 62
     1
 10
940.0
 20
567.0
 30
0.0
 11
954.0
 21
567.0
 31
0.0
  0
LINE
  8
0
  6
CONTINUOUS
 62
     1
 10
894.0
 20
518.0
 30
0.0
 11
894.0
 21
587.0
 31
0.0
  0
LINE
  8
0
  6
CONTINUOUS
 62
     1
 10
880.0
 20
518.0
 30
0.0
 11
880.0
 21
587.0
 31
0.0
  0
LINE
  8
0
  6
CONTINUOUS
 62
     1
 10
880.0
 20
567.0
 30
0.0
 11
894.0
 21
567.0
 31
0.0
  0
LINE
  8
0
  6
CONTINUOUS
 62
     1
 10
880.0
 20
587.0
 30
0.0
 11
894.0
 21
587.0
 31
0.0
  0
LINE
  8
0
  6
LTYPE1
 62
     2
 10
784.85
 20
518.0
 30
0.0
 11
784.85
 21
587.0
 31
0.0
  0
LINE
  8
0
  6
LTYPE1
 62
     2
 10
784.85
 20
567.0
 30
0.0
 11
798.85
 21
567.0
 31
0.0
  0
LINE
  8
0
  6
CONTINUOUS
 62
     1
 10
668.85
 20
477.5
 30
0.0
 11
869.7
 21
477.5
 31
0.0
  0
LINE
  8
0
  6
CONTINUOUS
 62
     1
 10
668.85
 20
461.5
 30
0.0
 11
901.0
 21
461.5
 31
0.0
  0
LINE
  8
0
  6
LTYPE3
 62
     2
 10
564.85
 20
469.5
 30
0.0
 11
1098.0
 21
469.5
 31
0.0
  0
LINE
  8
0
  6
LTYPE3
 62
     2
 10
582.85
 20
497.5
 30
0.0
 11
594.35
 21
497.5
 31
0.0
  0
LINE
  8
0
  6
LTYPE1
 62
     2
 10
561.35
 20
497.5
 30
0.0
 11
561.35
 21
507.3
 31
0.0
  0
LINE
  8
0
  6
LTYPE1
 62
     2
 10
563.85
 20
506.7
 30
0.0
 11
561.35
 21
506.7
 31
0.0
  0
LINE
  8
0
  6
LTYPE1
 62
     2
 10
579.85
 20
507.9
 30
0.0
 11
586.35
 21
507.9
 31
0.0
  0
ARC
  8
0
  6
LTYPE1
 62
     2
 10
583.45
 20
505.3
 30
0.0
 40
3.9
 50
317.9
 51
42.1
  0
LINE
  8
0
  6
LTYPE1
 62
     2
 10
586.35
 20
502.7
 30
0.0
 11
579.85
 21
502.7
 31
0.0
  0
LINE
  8
0
  6
LTYPE1
 62
     2
 10
571.85
 20
507.5
 30
0.0
 11
571.85
 21
523.5
 31
0.0
  0
LINE
  8
0
  6
LTYPE1
 62
     2
 10
587.35
 20
501.5
 30
0.0
 11
594.85
 21
501.5
 31
0.0
  0
LINE
  8
0
  6
LTYPE1
 62
     2
 10
626.85
 20
509.5
 30
0.0
 11
594.85
 21
509.5
 31
0.0
  0
LINE
  8
0
  6
LTYPE1
 62
     2
 10
594.85
 20
501.5
 30
0.0
 11
599.85
 21
501.5
 31
0.0
  0
LINE
  8
0
  6
LTYPE1
 62
     2
 10
626.85
 20
503.5
 30
0.0
 11
594.85
 21
503.5
 31
0.0
  0
LINE
  8
0
  6
LTYPE1
 62
     2
 10
587.35
 20
500.5
 30
0.0
 11
594.85
 21
500.5
 31
0.0
  0
LINE
  8
0
  6
LTYPE1
 62
     2
 10
594.85
 20
500.5
 30
0.0
 11
599.85
 21
500.5
 31
0.0
  0
LINE
  8
0
  6
LTYPE1
 62
     2
 10
561.350000004
 20
497.5
 30
0.0
 11
563.85
 21
499.999999996
 31
0.0
  0
LINE
  8
0
  6
LTYPE1
 62
     2
 10
579.85
 20
487.1
 30
0.0
 11
586.35
 21
487.1
 31
0.0
  0
ARC
  8
0
  6
LTYPE1
 62
     2
 10
583.45
 20
489.7
 30
0.0
 40
3.9
 50
317.9
 51
42.1
  0
LINE
  8
0
  6
LTYPE1
 62
     2
 10
561.35
 20
497.5
 30
0.0
 11
561.35
 21
487.7
 31
0.0
  0
LINE
  8
0
  6
LTYPE1
 62
     2
 10
579.85
 20
492.3
 30
0.0
 11
586.35
 21
492.3
 31
0.0
  0
LINE
  8
0
  6
LTYPE1
 62
     2
 10
587.35
 20
494.5
 30
0.0
 11
594.85
 21
494.5
 31
0.0
  0
LINE
  8
0
  6
LTYPE1
 62
     2
 10
587.35
 20
493.5
 30
0.0
 11
594.85
 21
493.5
 31
0.0
  0
LINE
  8
0
  6
LTYPE1
 62
     2
 10
594.85
 20
493.5
 30
0.0
 11
599.85
 21
493.5
 31
0.0
  0
LINE
  8
0
  6
LTYPE1
 62
     2
 10
594.85
 20
494.5
 30
0.0
 11
599.85
 21
494.5
 31
0.0
  0
LINE
  8
0
  6
LTYPE1
 62
     2
 10
594.85
 20
491.5
 30
0.0
 11
626.85
 21
491.5
 31
0.0
  0
LINE
  8
0
  6
LTYPE1
 62
     2
 10
579.85
 20
484.5
 30
0.0
 11
579.85
 21
511.5
 31
0.0
  0
LINE
  8
0
  6
LTYPE1
 62
     2
 10
579.85
 20
507.9
 30
0.0
 11
579.85
 21
487.1
 31
0.0
  0
ARC
  8
0
  6
LTYPE1
 62
     2
 10
573.35
 20
497.5
 30
0.0
 40
14.0
 50
338.2
 51
21.8
  0
LINE
  8
0
  6
LTYPE1
 62
     2
 10
587.35
 20
489.7
 30
0.0
 11
587.35
 21
505.3
 31
0.0
  0
LINE
  8
0
  6
LTYPE1
 62
     2
 10
563.85
 20
484.5
 30
0.0
 11
579.85
 21
484.5
 31
0.0
  0
LINE
  8
0
  6
LTYPE1
 62
     2
 10
563.85
 20
497.5
 30
0.0
 11
561.350000004
 21
495.000000004
 31
0.0
  0
LINE
  8
0
  6
LTYPE1
 62
     2
 10
563.85
 20
488.3
 30
0.0
 11
561.35
 21
488.3
 31
0.0
  0
LINE
  8
0
  6
LTYPE1
 62
     2
 10
563.85
 20
484.5
 30
0.0
 11
563.85
 21
517.5
 31
0.0
  0
LINE
  8
0
  6
LTYPE1
 62
     2
 10
592.35
 20
479.3
 30
0.0
 11
586.735640646
 21
479.3
 31
0.0
  0
LINE
  8
0
  6
LTYPE1
 62
     2
 10
585.35
 20
476.9
 30
0.0
 11
586.735640646
 21
479.3
 31
0.0
  0
LINE
  8
0
  6
LTYPE1
 62
     2
 10
585.35
 20
476.9
 30
0.0
 11
586.735640646
 21
479.3
 31
0.0
  0
LINE
  8
0
  6
LTYPE1
 62
     2
 10
594.85
 20
478.7
 30
0.0
 11
592.35
 21
478.7
 31
0.0
  0
LINE
  8
0
  6
LTYPE1
 62
     2
 10
585.35
 20
469.5
 30
0.0
 11
585.35
 21
476.9
 31
0.0
  0
LINE
  8
0
  6
LTYPE1
 62
     2
 10
592.35
 20
474.4
 30
0.0
 11
586.735640646
 21
474.4
 31
0.0
  0
ARC
  8
0
  6
LTYPE1
 62
     2
 10
588.207883832
 20
476.85
 30
0.0
 40
2.858321186
 50
177.010501597
 51
238.997686085
  0
LINE
  8
0
  6
LTYPE1
 62
     2
 10
592.35
 20
469.5
 30
0.0
 11
592.35
 21
479.3
 31
0.0
  0
LINE
  8
0
  6
LTYPE1
 62
     2
 10
576.85
 20
473.5
 30
0.0
 11
585.35
 21
473.5
 31
0.0
  0
ARC
  8
0
  6
LTYPE1
 62
     2
 10
594.7066828
 20
469.5
 30
0.0
 40
9.3566828
 50
148.419912243
 51
211.580087757
  0
LINE
  8
0
  6
LTYPE1
 62
     2
 10
576.85
 20
465.5
 30
0.0
 11
576.85
 21
473.5
 31
0.0
  0
LINE
  8
0
  6
LTYPE1
 62
     2
 10
594.85
 20
456.5
 30
0.0
 11
594.85
 21
509.5
 31
0.0
  0
LINE
  8
0
  6
LTYPE1
 62
     2
 10
594.85
 20
456.5
 30
0.0
 11
626.85
 21
456.5
 31
0.0
  0
LINE
  8
0
  6
LTYPE1
 62
     2
 10
592.35
 20
469.5
 30
0.0
 11
592.35
 21
459.7
 31
0.0
  0
LINE
  8
0
  6
LTYPE1
 62
     2
 10
592.35
 20
459.7
 30
0.0
 11
586.735640646
 21
459.7
 31
0.0
  0
LINE
  8
0
  6
LTYPE1
 62
     2
 10
585.35
 20
462.1
 30
0.0
 11
586.735640646
 21
459.7
 31
0.0
  0
LINE
  8
0
  6
LTYPE1
 62
     2
 10
585.35
 20
469.5
 30
0.0
 11
585.35
 21
462.1
 31
0.0
  0
LINE
  8
0
  6
LTYPE1
 62
     2
 10
592.35
 20
464.6
 30
0.0
 11
586.735640646
 21
464.6
 31
0.0
  0
ARC
  8
0
  6
LTYPE1
 62
     2
 10
588.207883832
 20
462.15
 30
0.0
 40
2.858321186
 50
121.002313915
 51
182.989498403
  0
LINE
  8
0
  6
LTYPE1
 62
     2
 10
594.85
 20
460.3
 30
0.0
 11
592.35
 21
460.3
 31
0.0
  0
LINE
  8
0
  6
LTYPE1
 62
     2
 10
594.85
 20
469.5
 30
0.0
 11
592.350000004
 21
467.000000004
 31
0.0
  0
LINE
  8
0
  6
LTYPE1
 62
     2
 10
576.85
 20
465.5
 30
0.0
 11
585.35
 21
465.5
 31
0.0
  0
LINE
  8
0
  6
LTYPE1
 62
     2
 10
576.85
 20
466.5
 30
0.0
 11
585.35
 21
466.5
 31
0.0
  0
LINE
  8
0
  6
LTYPE1
 62
     2
 10
592.350000004
 20
469.5
 30
0.0
 11
594.85
 21
471.999999996
 31
0.0
  0
LINE
  8
0
  6
LTYPE1
 62
     2
 10
576.85
 20
472.5
 30
0.0
 11
585.35
 21
472.5
 31
0.0
  0
LINE
  8
0
  6
LTYPE1
 62
     2
 10
626.85
 20
505.5
 30
0.0
 11
844.3
 21
505.5
 31
0.0
  0
LINE
  8
0
  6
LTYPE1
 62
     2
 10
626.85
 20
489.5
 30
0.0
 11
844.3
 21
489.5
 31
0.0
  0
LINE
  8
0
  6
LTYPE1
 62
     2
 10
626.85
 20
456.5
 30
0.0
 11
626.85
 21
509.5
 31
0.0
  0
LINE
  8
0
  6
LTYPE1
 62
     2
 10
599.85
 20
491.5
 30
0.0
 11
599.85
 21
503.5
 31
0.0
  0
LINE
  8
0
  6
CONTINUOUS
 62
     1
 10
613.35
 20
478.05
 30
0.0
 11
613.35
 21
462.05
 31
0.0
  0
LINE
  8
0
  6
CONTINUOUS
 62
     1
 10
613.35
 20
478.05
 30
0.0
 11
626.85
 21
478.05
 31
0.0
  0
LINE
  8
0
  6
CONTINUOUS
 62
     1
 10
626.85
 20
480.5
 30
0.0
 11
635.510254038
 21
485.5
 31
0.0
  0
LINE
  8
0
  6
CONTINUOUS
 62
     1
 10
626.85
 20
458.5
 30
0.0
 11
626.85
 21
480.5
 31
0.0
  0
LINE
  8
0
  6
CONTINUOUS
 62
     1
 10
635.5
 20
453.5
 30
0.0
 11
635.5
 21
485.5
 31
0.0
  0
LINE
  8
0
  6
CONTINUOUS
 62
     1
 10
660.2
 20
453.5
 30
0.0
 11
660.2
 21
485.5
 31
0.0
  0
LINE
  8
0
  6
CONTINUOUS
 62
     1
 10
635.5
 20
453.5
 30
0.0
 11
660.2
 21
453.5
 31
0.0
  0
LINE
  8
0
  6
CONTINUOUS
 62
     1
 10
668.85
 20
458.5
 30
0.0
 11
660.189745962
 21
453.5
 31
0.0
  0
LINE
  8
0
  6
CONTINUOUS
 62
     1
 10
626.85
 20
458.5
 30
0.0
 11
635.510254038
 21
453.5
 31
0.0
  0
LINE
  8
0
  6
CONTINUOUS
 62
     1
 10
613.35
 20
462.05
 30
0.0
 11
626.85
 21
462.05
 31
0.0
  0
LINE
  8
0
  6
LTYPE2
 62
     2
 10
647.85
 20
459.5
 30
0.0
 11
647.85
 21
479.5
 31
0.0
  0
LINE
  8
0
  6
CONTINUOUS
 62
     1
 10
635.5
 20
485.5
 30
0.0
 11
660.2
 21
485.5
 31
0.0
  0
LINE
  8
0
  6
CONTINUOUS
 62
     1
 10
668.85
 20
480.5
 30
0.0
 11
660.189745962
 21
485.5
 31
0.0
  0
CIRCLE
  8
0
  6
CONTINUOUS
 62
     2
 10
647.85
 20
469.5
 30
0.0
 40
5.0
  0
CIRCLE
  8
0
  6
CONTINUOUS
 62
     2
 10
647.85
 20
469.5
 30
0.0
 40
4.0
  0
LINE
  8
0
  6
CONTINUOUS
 62
     1
 10
668.85
 20
458.5
 30
0.0
 11
668.85
 21
480.5
 31
0.0
  0
LINE
  8
0
  6
LTYPE1
 62
     2
 10
798.85
 20
511.5
 30
0.0
 11
563.85
 21
511.5
 31
0.0
  0
LINE
  8
0
  6
LTYPE1
 62
     2
 10
798.85
 20
517.5
 30
0.0
 11
563.85
 21
517.5
 31
0.0
  0
LINE
  8
0
  6
LTYPE1
 62
     2
 10
566.19122
 20
522.9999
 30
0.0
 11
564.35594
 21
521.940300598
 31
0.0
  0
LINE
  8
0
  6
LTYPE1
 62
     2
 10
571.85
 20
522.9999
 30
0.0
 11
566.19122
 21
522.9999
 31
0.0
  0
ARC
  8
0
  6
LTYPE1
 62
     2
 10
566.229455
 20
520.814476233
 30
0.0
 40
2.185758211
 50
31.002313915
 51
92.989498403
  0
ARC
  8
0
  6
LTYPE1
 62
     2
 10
571.85
 20
515.844844663
 30
0.0
 40
7.155055337
 50
58.419912243
 51
121.580087757
  0
LINE
  8
0
  6
LTYPE1
 62
     2
 10
564.35594
 20
517.5
 30
0.0
 11
564.35594
 21
521.940300598
 31
0.0
  0
LINE
  8
0
  6
LTYPE1
 62
     2
 10
568.10297
 20
517.5
 30
0.0
 11
568.10297
 21
521.940300598
 31
0.0
  0
LINE
  8
0
  6
LTYPE1
 62
     2
 10
577.50878
 20
522.9999
 30
0.0
 11
579.34406
 21
521.940300598
 31
0.0
  0
LINE
  8
0
  6
LTYPE1
 62
     2
 10
571.85
 20
522.9999
 30
0.0
 11
577.50878
 21
522.9999
 31
0.0
  0
LINE
  8
0
  6
LTYPE1
 62
     2
 10
577.50878
 20
522.9999
 30
0.0
 11
579.34406
 21
521.940300598
 31
0.0
  0
ARC
  8
0
  6
LTYPE1
 62
     2
 10
577.470545
 20
520.814476233
 30
0.0
 40
2.185758211
 50
87.010501597
 51
148.997686085
  0
LINE
  8
0
  6
LTYPE1
 62
     2
 10
575.59703
 20
517.5
 30
0.0
 11
575.59703
 21
521.940300598
 31
0.0
  0
LINE
  8
0
  6
LTYPE1
 62
     2
 10
579.34406
 20
517.5
 30
0.0
 11
579.34406
 21
521.940300598
 31
0.0
  0
LINE
  8
0
  6
CONTINUOUS
 62
     1
 10
901.0
 20
457.0
 30
0.0
 11
933.0
 21
457.0
 31
0.0
  0
LINE
  8
0
  6
CONTINUOUS
 62
     1
 10
895.6
 20
478.0
 30
0.0
 11
964.3
 21
478.0
 31
0.0
  0
LINE
  8
0
  6
CONTINUOUS
 62
     1
 10
895.6
 20
472.0
 30
0.0
 11
964.3
 21
472.0
 31
0.0
  0
LINE
  8
0
  6
CONTINUOUS
 62
     1
 10
852.0
 20
518.0
 30
0.0
 11
982.0
 21
518.0
 31
0.0
  0
LINE
  8
0
  6
CONTINUOUS
 62
     1
 10
852.0
 20
512.0
 30
0.0
 11
982.0
 21
512.0
 31
0.0
  0
LINE
  8
0
  6
CONTINUOUS
 62
     1
 10
895.6
 20
512.0
 30
0.0
 11
895.6
 21
472.0
 31
0.0
  0
LINE
  8
0
  6
CONTINUOUS
 62
     1
 10
844.3
 20
511.0
 30
0.0
 11
844.3
 21
485.6
 31
0.0
  0
LINE
  8
0
  6
CONTINUOUS
 62
     1
 10
869.7
 20
485.6
 30
0.0
 11
844.3
 21
485.6
 31
0.0
  0
LINE
  8
0
  6
CONTINUOUS
 62
     1
 10
869.7
 20
512.0
 30
0.0
 11
869.7
 21
472.0
 31
0.0
  0
LINE
  8
0
  6
CONTINUOUS
 62
     1
 10
901.0
 20
457.0
 30
0.0
 11
901.0
 21
472.0
 31
0.0
  0
LINE
  8
0
  6
LTYPE5
 62
     2
 10
905.1
 20
490.7
 30
0.0
 11
888.1
 21
490.7
 31
0.0
  0
LINE
  8
0
  6
CONTINUOUS
 62
     1
 10
852.0
 20
512.0
 30
0.0
 11
852.0
 21
518.0
 31
0.0
  0
LINE
  8
0
  6
CONTINUOUS
 62
     1
 10
869.7
 20
511.0
 30
0.0
 11
844.3
 21
511.0
 31
0.0
  0
LINE
  8
0
  6
CONTINUOUS
 62
     1
 10
869.7
 20
478.0
 30
0.0
 11
895.6
 21
478.0
 31
0.0
  0
LINE
  8
0
  6
CONTINUOUS
 62
     1
 10
869.7
 20
472.0
 30
0.0
 11
895.6
 21
472.0
 31
0.0
  0
LINE
  8
0
  6
LTYPE1
 62
     2
 10
798.35
 20
511.5
 30
0.0
 11
798.35
 21
506.9
 31
0.0
  0
LINE
  8
0
  6
LTYPE1
 62
     2
 10
798.35
 20
511.5
 30
0.0
 11
783.35
 21
511.5
 31
0.0
  0
LINE
  8
0
  6
LTYPE1
 62
     2
 10
783.35
 20
511.5
 30
0.0
 11
783.35
 21
506.9
 31
0.0
  0
LINE
  8
0
  6
LTYPE1
 62
     2
 10
787.05
 20
511.5
 30
0.0
 11
787.05
 21
506.9
 31
0.0
  0
LINE
  8
0
  6
LTYPE1
 62
     2
 10
794.65
 20
511.5
 30
0.0
 11
794.65
 21
506.9
 31
0.0
  0
ARC
  8
0
  6
LTYPE1
 62
     2
 10
785.15
 20
509.0
 30
0.0
 40
2.8
 50
228.5
 51
311.5
  0
ARC
  8
0
  6
LTYPE1
 62
     2
 10
790.85
 20
516.9
 30
0.0
 40
10.7
 50
249.1
 51
290.9
  0
ARC
  8
0
  6
LTYPE1
 62
     2
 10
796.55
 20
509.0
 30
0.0
 40
2.8
 50
228.5
 51
311.5
  0
LINE
  8
0
  6
LTYPE1
 62
     2
 10
790.85
 20
502.7
 30
0.0
 11
790.85
 21
514.5
 31
0.0
  0
LINE
  8
0
  6
LTYPE2
 62
     2
 10
790.85
 20
498.85
 30
0.0
 11
790.85
 21
523.15
 31
0.0
  0
LINE
  8
0
  6
LTYPE1
 62
     2
 10
796.55
 20
506.2
 30
0.0
 11
785.15
 21
506.2
 31
0.0
  0
LINE
  8
0
  6
CONTINUOUS
 62
     1
 10
989.7
 20
511.0
 30
0.0
 11
989.7
 21
485.6
 31
0.0
  0
LINE
  8
0
  6
CONTINUOUS
 62
     1
 10
964.3
 20
485.6
 30
0.0
 11
989.7
 21
485.6
 31
0.0
  0
LINE
  8
0
  6
CONTINUOUS
 62
     1
 10
964.3
 20
512.0
 30
0.0
 11
964.3
 21
472.0
 31
0.0
  0
LINE
  8
0
  6
CONTINUOUS
 62
     1
 10
933.0
 20
457.0
 30
0.0
 11
933.0
 21
472.0
 31
0.0
  0
LINE
  8
0
  6
CONTINUOUS
 62
     1
 10
964.3
 20
511.0
 30
0.0
 11
989.7
 21
511.0
 31
0.0
  0
LINE
  8
0
  6
CONTINUOUS
 62
     1
 10
982.0
 20
512.0
 30
0.0
 11
982.0
 21
518.0
 31
0.0
  0
LINE
  8
0
  6
CONTINUOUS
 62
     1
 10
964.3
 20
477.5
 30
0.0
 11
1000.0
 21
477.5
 31
0.0
  0
LINE
  8
0
  6
CONTINUOUS
 62
     1
 10
933.0
 20
461.5
 30
0.0
 11
1000.0
 21
461.5
 31
0.0
  0
CIRCLE
  8
0
  6
CONTINUOUS
 62
     2
 10
1021.0
 20
469.5
 30
0.0
 40
5.0
  0
CIRCLE
  8
0
  6
CONTINUOUS
 62
     2
 10
1021.0
 20
469.5
 30
0.0
 40
4.0
  0
LINE
  8
0
  6
LTYPE2
 62
     2
 10
1021.0
 20
459.5
 30
0.0
 11
1021.0
 21
479.5
 31
0.0
  0
LINE
  8
0
  6
CONTINUOUS
 62
     1
 10
1050.0
 20
456.5
 30
0.0
 11
1050.0
 21
632.5
 31
0.0
  0
LINE
  8
0
  6
CONTINUOUS
 62
     1
 10
1042.0
 20
477.5
 30
0.0
 11
1050.0
 21
477.5
 31
0.0
  0
LINE
  8
0
  6
CONTINUOUS
 62
     1
 10
1042.0
 20
461.5
 30
0.0
 11
1050.0
 21
461.5
 31
0.0
  0
LINE
  8
0
  6
CONTINUOUS
 62
     1
 10
1050.0
 20
456.5
 30
0.0
 11
1066.0
 21
456.5
 31
0.0
  0
LINE
  8
0
  6
CONTINUOUS
 62
     1
 10
1069.0
 20
469.5
 30
0.0
 11
1069.0
 21
458.55046
 31
0.0
  0
LINE
  8
0
  6
CONTINUOUS
 62
     1
 10
1069.0
 20
464.02523
 30
0.0
 11
1075.472923706
 21
464.02523
 31
0.0
  0
LINE
  8
0
  6
CONTINUOUS
 62
     1
 10
1066.0
 20
456.5
 30
0.0
 11
1066.0
 21
632.5
 31
0.0
  0
LINE
  8
0
  6
CONTINUOUS
 62
     1
 10
1069.0
 20
458.55046
 30
0.0
 11
1075.472923706
 21
458.55046
 31
0.0
  0
LINE
  8
0
  6
CONTINUOUS
 62
     1
 10
1066.0
 20
458.75
 30
0.0
 11
1069.0
 21
458.75
 31
0.0
  0
LINE
  8
0
  6
CONTINUOUS
 62
     1
 10
1069.0
 20
469.5
 30
0.0
 11
1069.0
 21
480.44954
 31
0.0
  0
LINE
  8
0
  6
CONTINUOUS
 62
     1
 10
1077.0211
 20
477.76802
 30
0.0
 11
1075.472923706
 21
480.44954
 31
0.0
  0
LINE
  8
0
  6
CONTINUOUS
 62
     1
 10
1077.0211
 20
469.5
 30
0.0
 11
1077.0211
 21
477.76802
 31
0.0
  0
LINE
  8
0
  6
CONTINUOUS
 62
     1
 10
1077.0211
 20
469.5
 30
0.0
 11
1077.0211
 21
461.23198
 31
0.0
  0
ARC
  8
0
  6
CONTINUOUS
 62
     1
 10
1066.566878307
 20
469.5
 30
0.0
 40
10.454221693
 50
328.419912243
 51
31.580087757
  0
ARC
  8
0
  6
CONTINUOUS
 62
     1
 10
1073.827986394
 20
477.712155
 30
0.0
 40
3.193602261
 50
301.002313915
 51
2.989498403
  0
ARC
  8
0
  6
CONTINUOUS
 62
     1
 10
1073.827986394
 20
461.287845
 30
0.0
 40
3.193602261
 50
357.010501597
 51
58.997686085
  0
LINE
  8
0
  6
CONTINUOUS
 62
     1
 10
1069.0
 20
480.44954
 30
0.0
 11
1075.472923706
 21
480.44954
 31
0.0
  0
LINE
  8
0
  6
CONTINUOUS
 62
     1
 10
1069.0
 20
474.97477
 30
0.0
 11
1075.472923706
 21
474.97477
 31
0.0
  0
LINE
  8
0
  6
CONTINUOUS
 62
     1
 10
1066.0
 20
480.25
 30
0.0
 11
1069.0
 21
480.25
 31
0.0
  0
LINE
  8
0
  6
CONTINUOUS
 62
     1
 10
1066.0
 20
469.5
 30
0.0
 11
1069.000254073
 21
472.500254073
 31
0.0
  0
LINE
  8
0
  6
CONTINUOUS
 62
     1
 10
1069.000254073
 20
469.5
 30
0.0
 11
1066.0
 21
466.499745927
 31
0.0
  0
LINE
  8
0
  6
CONTINUOUS
 62
     1
 10
1077.0211
 20
463.5
 30
0.0
 11
1090.0
 21
463.5
 31
0.0
  0
LINE
  8
0
  6
CONTINUOUS
 62
     1
 10
1077.0211
 20
475.5
 30
0.0
 11
1090.0
 21
475.5
 31
0.0
  0
LINE
  8
0
  6
CONTINUOUS
 62
     1
 10
1090.0
 20
463.5
 30
0.0
 11
1090.0
 21
475.5
 31
0.0
  0
LINE
  8
0
  6
CONTINUOUS
 62
     1
 10
1077.0211
 20
461.23198
 30
0.0
 11
1075.472923706
 21
458.55046
 31
0.0
  0
LINE
  8
0
  6
CONTINUOUS
 62
     1
 10
1077.0211
 20
461.23198
 30
0.0
 11
1075.472923706
 21
458.55046
 31
0.0
  0
LINE
  8
0
  6
CONTINUOUS
 62
     2
 10
1186.325595435
 20
673.543416229
 30
0.0
 11
1186.325595435
 21
798.072652293
 31
0.0
  0
LINE
  8
0
  6
CONTINUOUS
 62
     2
 10
1338.0
 20
794.072652293
 30
0.0
 11
1186.325595435
 21
794.072652293
 31
0.0
  0
LINE
  8
0
  6
CONTINUOUS
 62
     2
 10
1186.325595435
 20
794.072652293
 30
0.0
 11
1197.19290757
 21
791.363127062
 31
0.0
  0
LINE
  8
0
  6
CONTINUOUS
 62
     2
 10
1186.325595435
 20
794.072652293
 30
0.0
 11
1197.19290757
 21
796.782177523
 31
0.0
  0
LINE
  8
0
  6
CONTINUOUS
 62
     2
 10
1338.0
 20
794.072652293
 30
0.0
 11
1327.132687866
 21
796.782177523
 31
0.0
  0
LINE
  8
0
  6
CONTINUOUS
 62
     2
 10
1338.0
 20
794.072652293
 30
0.0
 11
1327.132687866
 21
791.363127062
 31
0.0
  0
LINE
  8
0
  6
LTYPE5
 62
     2
 10
1222.883016023
 20
685.130274068
 30
0.0
 11
1258.238355082
 21
720.485613127
 31
0.0
  0
ARC
  8
0
  6
LTYPE1
 62
     1
 10
1241.126370977
 20
703.373629023
 30
0.0
 40
16.0
 50
225.0
 51
99.340912304
  0
ARC
  8
0
  6
CONTINUOUS
 62
     1
 10
1241.126370977
 20
703.373629023
 30
0.0
 40
16.0
 50
99.340912304
 51
170.659087696
  0
LINE
  8
0
  6
CONTINUOUS
 62
     1
 10
1226.505465137
 20
693.702470651
 30
0.0
 11
1218.322177284
 21
685.519182798
 31
0.0
  0
LINE
  8
0
  6
CONTINUOUS
 62
     1
 10
1221.172701496
 20
700.390522289
 30
0.0
 11
1186.325595435
 21
665.543416229
 31
0.0
  0
LINE
  8
0
  6
CONTINUOUS
 62
     1
 10
1225.592118878
 20
693.496231173
 30
0.0
 11
1217.968623894
 21
685.872736188
 31
0.0
  0
LINE
  8
0
  6
LTYPE3
 62
     2
 10
1217.650425842
 20
698.56530291
 30
0.0
 11
1231.226876041
 21
684.988852712
 31
0.0
  0
LINE
  8
0
  6
LTYPE1
 62
     2
 10
1230.696545955
 20
697.893551468
 30
0.0
 11
1235.646293423
 21
692.943804
 31
0.0
  0
LINE
  8
0
  6
LTYPE1
 62
     2
 10
1235.646293423
 20
692.943804
 30
0.0
 11
1230.320895477
 21
687.618406054
 31
0.0
  0
ARC
  8
0
  6
LTYPE1
 62
     1
 10
1241.126370977
 20
703.373629023
 30
0.0
 40
16.0
 50
170.659087696
 51
225.0
  0
LINE
  8
0
  6
LTYPE1
 62
     2
 10
1230.696545955
 20
697.893551468
 30
0.0
 11
1226.505465137
 21
693.702470651
 31
0.0
  0
LINE
  8
0
  6
LTYPE1
 62
     1
 10
1222.034487885
 20
701.252308679
 30
0.0
 11
1221.172701496
 21
700.390522289
 31
0.0
  0
LINE
  8
0
  6
LTYPE1
 62
     1
 10
1227.691342135
 20
695.59545443
 30
0.0
 11
1225.592118878
 21
693.496231173
 31
0.0
  0
LINE
  8
0
  6
LTYPE5
 62
     2
 10
1228.539870272
 20
715.960129728
 30
0.0
 11
1343.244043872
 21
601.255956128
 31
0.0
  0
LINE
  8
0
  6
CONTINUOUS
 62
     1
 10
1222.741594667
 20
703.373629023
 30
0.0
 11
1298.402020254
 21
593.772077939
 31
0.0
  0
LINE
  8
0
  6
CONTINUOUS
 62
     1
 10
1222.741594667
 20
703.373629023
 30
0.0
 11
1241.126370977
 21
721.758405333
 31
0.0
  0
LINE
  8
0
  6
LTYPE1
 62
     1
 10
1222.034487885
 20
701.252308679
 30
0.0
 11
1229.046630132
 21
694.240166432
 31
0.0
  0
CIRCLE
  8
0
  6
CONTINUOUS
 62
     1
 10
1241.126370977
 20
703.373629023
 30
0.0
 40
6.49995
  0
LINE
  8
0
  6
CONTINUOUS
 62
     1
 10
1243.072979378
 20
710.619338067
 30
0.0
 11
1235.827270333
 21
708.672729667
 31
0.0
  0
CIRCLE
  8
0
  6
LTYPE1
 62
     2
 10
1241.126370977
 20
703.373629023
 30
0.0
 40
3.2
  0
CIRCLE
  8
0
  6
CONTINUOUS
 62
     1
 10
1241.126370977
 20
703.373629023
 30
0.0
 40
4.0
  0
LINE
  8
0
  6
CONTINUOUS
 62
     1
 10
1248.372080022
 20
705.320237423
 30
0.0
 11
1246.425471622
 21
698.074528378
 31
0.0
  0
LINE
  8
0
  6
CONTINUOUS
 62
     1
 10
1248.372080022
 20
705.320237423
 30
0.0
 11
1243.072979378
 21
710.619338067
 31
0.0
  0
LINE
  8
0
  6
LTYPE3
 62
     2
 10
1244.237640815
 20
728.546630433
 30
0.0
 11
1259.511147288
 21
713.273123959
 31
0.0
  0
LINE
  8
0
  6
LTYPE1
 62
     2
 10
1246.606448532
 20
713.803454045
 30
0.0
 11
1251.556196
 21
708.853706577
 31
0.0
  0
LINE
  8
0
  6
LTYPE1
 62
     2
 10
1256.881593946
 20
714.179104523
 30
0.0
 11
1251.556196
 21
708.853706577
 31
0.0
  0
LINE
  8
0
  6
CONTINUOUS
 62
     1
 10
1251.003768827
 20
718.907881122
 30
0.0
 11
1258.627263812
 21
726.531376106
 31
0.0
  0
LINE
  8
0
  6
LTYPE1
 62
     1
 10
1248.90454557
 20
716.808657865
 30
0.0
 11
1251.003768827
 21
718.907881122
 31
0.0
  0
LINE
  8
0
  6
CONTINUOUS
 62
     1
 10
1239.179762577
 20
696.127919978
 30
0.0
 11
1233.880661933
 21
701.427020622
 31
0.0
  0
LINE
  8
0
  6
CONTINUOUS
 62
     1
 10
1233.880661933
 20
701.427020622
 30
0.0
 11
1235.827270333
 21
708.672729667
 31
0.0
  0
LINE
  8
0
  6
CONTINUOUS
 62
     1
 10
1239.179762577
 20
696.127919978
 30
0.0
 11
1246.425471622
 21
698.074528378
 31
0.0
  0
LINE
  8
0
  6
LTYPE1
 62
     1
 10
1243.247691321
 20
722.465512115
 30
0.0
 11
1250.259833568
 21
715.453369868
 31
0.0
  0
LINE
  8
0
  6
CONTINUOUS
 62
     1
 10
1258.980817202
 20
726.177822716
 30
0.0
 11
1249.258098961
 21
716.455104475
 31
0.0
  0
LINE
  8
0
  6
LTYPE1
 62
     2
 10
1250.797529349
 20
717.994534863
 30
0.0
 11
1249.258098961
 21
716.455104475
 31
0.0
  0
LINE
  8
0
  6
CONTINUOUS
 62
     1
 10
1218.322177284
 20
685.519182798
 30
0.0
 11
1223.271924752
 21
680.569435329
 31
0.0
  0
LINE
  8
0
  6
CONTINUOUS
 62
     1
 10
1217.897913215
 20
685.943446866
 30
0.0
 11
1212.84209973
 21
677.9177849
 31
0.0
  0
LINE
  8
0
  6
LTYPE3
 62
     2
 10
1220.832406357
 20
620.288582233
 30
0.0
 11
1187.598387642
 21
653.522600949
 31
0.0
  0
LINE
  8
0
  6
LTYPE3
 62
     2
 10
1209.660119215
 20
674.17011896
 30
0.0
 11
1242.89413793
 21
640.936100244
 31
0.0
  0
LINE
  8
0
  6
CONTINUOUS
 62
     1
 10
1243.247691321
 20
647.512193309
 30
0.0
 11
1214.963420074
 21
619.227922061
 31
0.0
  0
LINE
  8
0
  6
CONTINUOUS
 62
     1
 10
1214.963420074
 20
619.227922061
 30
0.0
 11
1215.034130752
 21
619.157211383
 31
0.0
  0
LINE
  8
0
  6
CONTINUOUS
 62
     1
 10
1186.679148826
 20
647.512193309
 30
0.0
 11
1214.963420074
 21
619.227922061
 31
0.0
  0
LINE
  8
0
  6
CONTINUOUS
 62
     1
 10
1243.247691321
 20
647.512193309
 30
0.0
 11
1214.963420074
 21
675.796464556
 31
0.0
  0
LINE
  8
0
  6
LTYPE3
 62
     2
 10
1189.083311882
 20
673.3923015
 30
0.0
 11
1230.095505191
 21
632.380108191
 31
0.0
  0
LINE
  8
0
  6
CONTINUOUS
 62
     1
 10
1212.84209973
 20
677.9177849
 30
0.0
 11
1204.003264965
 21
669.078950135
 31
0.0
  0
LINE
  8
0
  6
CONTINUOUS
 62
     1
 10
1218.428243301
 20
659.179455198
 30
0.0
 11
1203.296158184
 21
644.047370081
 31
0.0
  0
ARC
  8
0
  6
CONTINUOUS
 62
     1
 10
1219.842456864
 20
657.765241636
 30
0.0
 40
2.0
 50
45.0
 51
135.0
  0
LINE
  8
0
  6
CONTINUOUS
 62
     1
 10
1203.296158184
 20
641.218942956
 30
0.0
 11
1218.428243301
 21
626.086857839
 31
0.0
  0
ARC
  8
0
  6
CONTINUOUS
 62
     1
 10
1219.842456864
 20
627.501071401
 30
0.0
 40
2.0
 50
225.0
 51
315.0
  0
LINE
  8
0
  6
LTYPE3
 62
     2
 10
1209.872251249
 20
632.662950904
 30
0.0
 11
1229.954083835
 21
652.74478349
 31
0.0
  0
LINE
  8
0
  6
CONTINUOUS
 62
     1
 10
1196.932197153
 20
676.150017947
 30
0.0
 11
1216.165501602
 21
656.916713499
 31
0.0
  0
LINE
  8
0
  6
CONTINUOUS
 62
     1
 10
1218.498953979
 20
672.26093065
 30
0.0
 11
1209.589408537
 21
663.351385207
 31
0.0
  0
LINE
  8
0
  6
CONTINUOUS
 62
     1
 10
1214.963420074
 20
675.796464556
 30
0.0
 11
1206.124585309
 21
666.957629791
 31
0.0
  0
LINE
  8
0
  6
CONTINUOUS
 62
     1
 10
1230.320895477
 20
687.618406054
 30
0.0
 11
1223.271924752
 21
680.569435329
 31
0.0
  0
LINE
  8
0
  6
CONTINUOUS
 62
     1
 10
1221.256670426
 20
659.179455198
 30
0.0
 11
1236.388755543
 21
644.047370081
 31
0.0
  0
LINE
  8
0
  6
CONTINUOUS
 62
     1
 10
1236.388755543
 20
641.218942956
 30
0.0
 11
1221.256670426
 21
626.086857839
 31
0.0
  0
LINE
  8
0
  6
CONTINUOUS
 62
     1
 10
1257.395224706
 20
653.17444532
 30
0.0
 11
1216.024080245
 21
611.803300859
 31
0.0
  0
LINE
  8
0
  6
CONTINUOUS
 62
     1
 10
1211.781439558
 20
616.045941546
 30
0.0
 11
1253.929861702
 21
658.19436369
 31
0.0
  0
ARC
  8
0
  6
CONTINUOUS
 62
     1
 10
1234.974541981
 20
642.633156519
 30
0.0
 40
2.0
 50
315.0
 51
45.0
  0
LINE
  8
0
  6
CONTINUOUS
 62
     1
 10
1249.611652352
 20
645.390872965
 30
0.0
 11
1269.764195615
 21
625.238329701
 31
0.0
  0
LINE
  8
0
  6
CONTINUOUS
 62
     1
 10
1350.727922061
 20
646.097979746
 30
0.0
 11
1241.126370977
 21
721.758405333
 31
0.0
  0
LINE
  8
0
  6
CONTINUOUS
 62
     1
 10
1222.741594667
 20
703.373629023
 30
0.0
 11
1241.126370977
 21
721.758405333
 31
0.0
  0
LINE
  8
0
  6
CONTINUOUS
 62
     1
 10
1263.930564671
 20
721.228075248
 30
0.0
 11
1254.931146496
 21
712.228657072
 31
0.0
  0
LINE
  8
0
  6
CONTINUOUS
 62
     1
 10
1204.003264965
 20
669.078950135
 30
0.0
 11
1193.396663247
 21
658.472348417
 31
0.0
  0
ARC
  8
0
  6
CONTINUOUS
 62
     1
 10
1204.710371746
 20
642.633156519
 30
0.0
 40
2.0
 50
135.0
 51
225.0
  0
LINE
  8
0
  6
CONTINUOUS
 62
     1
 10
1199.053517497
 20
652.815494168
 30
0.0
 11
1190.214682732
 21
643.976659403
 31
0.0
  0
LINE
  8
0
  6
CONTINUOUS
 62
     1
 10
1195.447272913
 20
656.280317396
 30
0.0
 11
1186.679148826
 21
647.512193309
 31
0.0
  0
LINE
  8
0
  6
CONTINUOUS
 62
     1
 10
1186.325595435
 20
665.543416229
 30
0.0
 11
1205.558899884
 21
646.310111781
 31
0.0
  0
ARC
  8
0
  6
CONTINUOUS
 62
     1
 10
1271.178409178
 20
626.652543264
 30
0.0
 40
2.0
 50
225.0
 51
315.0
  0
LINE
  8
0
  6
CONTINUOUS
 62
     1
 10
1274.713943084
 20
627.359650045
 30
0.0
 11
1272.59262274
 21
625.238329701
 31
0.0
  0
LINE
  8
0
  6
CONTINUOUS
 62
     1
 10
1211.781439558
 20
616.045941546
 30
0.0
 11
1216.024080245
 21
611.803300859
 31
0.0
  0
LINE
  8
0
  6
LTYPE1
 62
     1
 10
1243.247691321
 20
722.465512115
 30
0.0
 11
1244.109477711
 21
723.327298504
 31
0.0
  0
LINE
  8
0
  6
CONTINUOUS
 62
     1
 10
1244.109477711
 20
723.327298504
 30
0.0
 11
1278.956583771
 21
758.174404565
 31
0.0
  0
LINE
  8
0
  6
CONTINUOUS
 62
     1
 10
1258.980817202
 20
726.177822716
 30
0.0
 11
1263.930564671
 21
721.228075248
 31
0.0
  0
LINE
  8
0
  6
CONTINUOUS
 62
     1
 10
1258.556553134
 20
726.602086785
 30
0.0
 11
1266.5822151
 21
731.65790027
 31
0.0
  0
LINE
  8
0
  6
CONTINUOUS
 62
     1
 10
1268.349982053
 20
747.567802847
 30
0.0
 11
1277.542370209
 21
738.375414691
 31
0.0
  0
LINE
  8
0
  6
CONTINUOUS
 62
     1
 10
1266.5822151
 20
731.65790027
 30
0.0
 11
1275.421049865
 21
740.496735035
 31
0.0
  0
LINE
  8
0
  6
LTYPE3
 62
     2
 10
1269.693484937
 20
756.83090168
 30
0.0
 11
1310.705678246
 21
715.818708371
 31
0.0
  0
LINE
  8
0
  6
CONTINUOUS
 62
     1
 10
1300.523340597
 20
754.285317268
 30
0.0
 11
1272.23906935
 21
726.001046021
 31
0.0
  0
LINE
  8
0
  6
CONTINUOUS
 62
     1
 10
1296.937938583
 20
750.699915254
 30
0.0
 11
1272.23906935
 21
726.001046021
 31
0.0
  0
LINE
  8
0
  6
CONTINUOUS
 62
     1
 10
1296.987806691
 20
757.820851174
 30
0.0
 11
1268.703535444
 21
729.536579926
 31
0.0
  0
LINE
  8
0
  6
CONTINUOUS
 62
     1
 10
1278.956583771
 20
758.174404565
 30
0.0
 11
1288.148971926
 21
748.982016409
 31
0.0
  0
LINE
  8
0
  6
LTYPE3
 62
     2
 10
1291.684505832
 20
756.194505577
 30
0.0
 11
1324.918524548
 21
722.960486861
 31
0.0
  0
LINE
  8
0
  6
CONTINUOUS
 62
     1
 10
1325.272077939
 20
729.536579926
 30
0.0
 11
1296.987806691
 21
757.820851174
 31
0.0
  0
CIRCLE
  8
0
  6
CONTINUOUS
 62
     1
 10
1295.856435841
 20
730.667950776
 30
0.0
 40
9.36
  0
LINE
  8
0
  6
LTYPE3
 62
     2
 10
1305.048823997
 20
739.860338932
 30
0.0
 11
1286.664047686
 21
721.475562621
 31
0.0
  0
CIRCLE
  8
0
  6
CONTINUOUS
 62
     2
 10
1295.856435841
 20
730.667950776
 30
0.0
 40
10.47
  0
LINE
  8
0
  6
LTYPE3
 62
     2
 10
1302.856792975
 20
702.312968851
 30
0.0
 11
1269.622774259
 21
735.546987567
 31
0.0
  0
LINE
  8
0
  6
CONTINUOUS
 62
     1
 10
1268.703535444
 20
729.536579926
 30
0.0
 11
1296.987806691
 21
701.252308679
 31
0.0
  0
LINE
  8
0
  6
CONTINUOUS
 62
     1
 10
1293.805826176
 20
722.111958724
 30
0.0
 11
1302.998214331
 21
712.919570569
 31
0.0
  0
LINE
  8
0
  6
LTYPE3
 62
     2
 10
1295.14932906
 20
731.375057558
 30
0.0
 11
1336.161522369
 21
690.362864249
 31
0.0
  0
LINE
  8
0
  6
CONTINUOUS
 62
     1
 10
1286.30563631
 20
690.570138298
 30
0.0
 11
1328.454058454
 21
732.718560442
 31
0.0
  0
LINE
  8
0
  6
CONTINUOUS
 62
     1
 10
1328.454058454
 20
732.718560442
 30
0.0
 11
1332.696699141
 21
728.475919755
 31
0.0
  0
LINE
  8
0
  6
CONTINUOUS
 62
     1
 10
1332.696699141
 20
728.475919755
 30
0.0
 11
1291.32555468
 21
687.104775294
 31
0.0
  0
LINE
  8
0
  6
CONTINUOUS
 62
     1
 10
1322.443650814
 20
732.365007051
 30
0.0
 11
1294.159379566
 21
704.080735804
 31
0.0
  0
LINE
  8
0
  6
CONTINUOUS
 62
     1
 10
1304.412427894
 20
732.718560442
 30
0.0
 11
1313.604816049
 21
723.526172286
 31
0.0
  0
LINE
  8
0
  6
CONTINUOUS
 62
     1
 10
1292.038059223
 20
706.202056147
 30
0.0
 11
1300.876893988
 21
715.040890912
 31
0.0
  0
LINE
  8
0
  6
CONTINUOUS
 62
     1
 10
1299.109127035
 20
694.888347648
 30
0.0
 11
1319.261670299
 21
674.735804385
 31
0.0
  0
ARC
  8
0
  6
CONTINUOUS
 62
     1
 10
1317.847456736
 20
673.321590822
 30
0.0
 40
2.0
 50
315.0
 51
45.0
  0
LINE
  8
0
  6
CONTINUOUS
 62
     1
 10
1317.140349955
 20
669.786056916
 30
0.0
 11
1319.261670299
 21
671.90737726
 31
0.0
  0
LINE
  8
0
  6
CONTINUOUS
 62
     1
 10
1347.545941546
 20
662.007882323
 30
0.0
 11
1358.859650045
 21
650.694173824
 31
0.0
  0
ARC
  8
0
  6
CONTINUOUS
 62
     1
 10
1346.131727984
 20
660.593668761
 30
0.0
 40
2.0
 50
45.0
 51
135.0
  0
LINE
  8
0
  6
CONTINUOUS
 62
     1
 10
1337.796991924
 20
655.087359826
 30
0.0
 11
1344.717514421
 21
662.007882323
 31
0.0
  0
LINE
  8
0
  6
CONTINUOUS
 62
     1
 10
1353.909902577
 20
642.915999231
 30
0.0
 11
1358.859650045
 21
647.865746699
 31
0.0
  0
LINE
  8
0
  6
CONTINUOUS
 62
     1
 10
1363.102290732
 20
633.723611076
 30
0.0
 11
1350.727922061
 21
646.097979746
 31
0.0
  0
LINE
  8
0
  6
CONTINUOUS
 62
     1
 10
1356.207999616
 20
645.21409627
 30
0.0
 11
1366.461047943
 21
634.961047943
 31
0.0
  0
LINE
  8
0
  6
LTYPE1
 62
     2
 10
1301.584000769
 20
590.590097423
 30
0.0
 11
1354.207999616
 21
643.21409627
 31
0.0
  0
LINE
  8
0
  6
LTYPE5
 62
     2
 10
1368.547012947
 20
637.047012947
 30
0.0
 11
1293.452272785
 21
561.952272785
 31
0.0
  0
LINE
  8
0
  6
LTYPE5
 62
     2
 10
1368.547012947
 20
637.047012947
 30
0.0
 11
1293.452272785
 21
561.952272785
 31
0.0
  0
ARC
  8
0
  6
CONTINUOUS
 62
     1
 10
1338.0
 20
606.5
 30
0.0
 40
40.25
 50
21.817360174
 51
45.0
  0
LINE
  8
0
  6
CONTINUOUS
 62
     1
 10
1363.102290732
 20
633.723611076
 30
0.0
 11
1358.859650045
 21
629.480970389
 31
0.0
  0
LINE
  8
0
  6
CONTINUOUS
 62
     1
 10
1382.547727215
 20
614.278174593
 30
0.0
 11
1365.223611076
 21
631.602290732
 31
0.0
  0
LINE
  8
0
  6
CONTINUOUS
 62
     1
 10
1365.223611076
 20
631.602290732
 30
0.0
 11
1360.980970389
 21
627.359650045
 31
0.0
  0
LINE
  8
0
  6
CONTINUOUS
 62
     1
 10
1382.547727215
 20
614.278174593
 30
0.0
 11
1330.221825407
 21
561.952272785
 31
0.0
  0
LINE
  8
0
  6
CONTINUOUS
 62
     1
 10
1330.221825407
 20
561.952272785
 30
0.0
 11
1312.897709268
 21
579.276388924
 31
0.0
  0
ARC
  8
0
  6
CONTINUOUS
 62
     1
 10
1338.0
 20
606.5
 30
0.0
 40
40.25
 50
225.000030718
 51
248.182639826
  0
LINE
  8
0
  6
CONTINUOUS
 62
     1
 10
1299.28590373
 20
588.292000384
 30
0.0
 11
1309.538967316
 21
578.038936798
 31
0.0
  0
LINE
  8
0
  6
CONTINUOUS
 62
     1
 10
1310.776388924
 20
581.397709268
 30
0.0
 11
1298.402020254
 21
593.772077939
 31
0.0
  0
LINE
  8
0
  6
CONTINUOUS
 62
     1
 10
1315.019029611
 20
585.640349955
 30
0.0
 11
1310.776388924
 21
581.397709268
 31
0.0
  0
LINE
  8
0
  6
CONTINUOUS
 62
     1
 10
1317.140349955
 20
583.519029611
 30
0.0
 11
1312.897709268
 21
579.276388924
 31
0.0
  0
LINE
  8
0
  6
CONTINUOUS
 62
     1
 10
1296.634253301
 20
585.640349955
 30
0.0
 11
1301.584000769
 21
590.590097423
 31
0.0
  0
LINE
  8
0
  6
CONTINUOUS
 62
     1
 10
1282.492117677
 20
596.954058454
 30
0.0
 11
1293.805826176
 21
585.640349955
 31
0.0
  0
ARC
  8
0
  6
CONTINUOUS
 62
     1
 10
1295.220039738
 20
587.054563517
 30
0.0
 40
2.0
 50
225.0
 51
315.0
  0
LINE
  8
0
  6
CONTINUOUS
 62
     1
 10
1289.182337765
 20
606.472705667
 30
0.0
 11
1282.492117677
 21
599.782485579
 31
0.0
  0
ARC
  8
0
  6
CONTINUOUS
 62
     1
 10
1283.906331239
 20
598.368272016
 30
0.0
 40
2.0
 50
135.0
 51
225.0
  0
LINE
  8
0
  6
LTYPE1
 62
     2
 10
1350.551145366
 20
639.55724202
 30
0.0
 11
1360.804215272
 21
629.304172114
 31
0.0
  0
LINE
  8
0
  6
LTYPE1
 62
     2
 10
1304.94275798
 20
593.948854634
 30
0.0
 11
1315.195806307
 21
583.695806307
 31
0.0
  0
LINE
  8
2
  6
CONTINUOUS
 62
     2
 10
1399.0
 20
416.0
 30
0.0
 11
1389.340741737
 21
418.588190451
 31
0.0
  0
LINE
  8
2
  6
CONTINUOUS
 62
     2
 10
1399.0
 20
416.0
 30
0.0
 11
1389.340741737
 21
413.411809549
 31
0.0
  0
LINE
  8
2
  6
CONTINUOUS
 62
     2
 10
1399.0
 20
416.0
 30
0.0
 11
1277.0
 21
416.0
 31
0.0
  0
LINE
  8
2
  6
CONTINUOUS
 62
     2
 10
1277.0
 20
416.0
 30
0.0
 11
1286.659258263
 21
413.411809549
 31
0.0
  0
LINE
  8
2
  6
CONTINUOUS
 62
     2
 10
1277.0
 20
416.0
 30
0.0
 11
1286.659258263
 21
418.588190451
 31
0.0
  0
LINE
  8
0
  6
CONTINUOUS
 62
     2
 10
1156.833854631
 20
344.5
 30
0.0
 11
1156.833854631
 21
405.7
 31
0.0
  0
LINE
  8
0
  6
CONTINUOUS
 62
     1
 10
1109.0
 20
356.5
 30
0.0
 11
1109.0
 21
348.5
 31
0.0
  0
LINE
  8
0
  6
CONTINUOUS
 62
     1
 10
1093.0
 20
348.5
 30
0.0
 11
1093.0
 21
356.5
 31
0.0
  0
LINE
  8
0
  6
CONTINUOUS
 62
     1
 10
1119.0
 20
348.5
 30
0.0
 11
1119.0
 21
336.5
 31
0.0
  0
LINE
  8
0
  6
CONTINUOUS
 62
     1
 10
1109.0
 20
325.5
 30
0.0
 11
1093.0
 21
325.5
 31
0.0
  0
LINE
  8
0
  6
CONTINUOUS
 62
     1
 10
1066.0
 20
336.5
 30
0.0
 11
1119.0
 21
336.5
 31
0.0
  0
LINE
  8
0
  6
CONTINUOUS
 62
     1
 10
1076.0
 20
356.5
 30
0.0
 11
1076.0
 21
348.5
 31
0.0
  0
LINE
  8
0
  6
CONTINUOUS
 62
     1
 10
1076.0
 20
348.5
 30
0.0
 11
1119.0
 21
348.5
 31
0.0
  0
LINE
  8
0
  6
CONTINUOUS
 62
     1
 10
1109.0
 20
356.5
 30
0.0
 11
1109.0
 21
364.5
 31
0.0
  0
LINE
  8
0
  6
CONTINUOUS
 62
     1
 10
1093.0
 20
364.5
 30
0.0
 11
1093.0
 21
356.5
 31
0.0
  0
LINE
  8
0
  6
CONTINUOUS
 62
     1
 10
1119.0
 20
364.5
 30
0.0
 11
1119.0
 21
376.5
 31
0.0
  0
LINE
  8
0
  6
CONTINUOUS
 62
     1
 10
1109.0
 20
387.5
 30
0.0
 11
1093.0
 21
387.5
 31
0.0
  0
LINE
  8
0
  6
CONTINUOUS
 62
     1
 10
1066.0
 20
376.5
 30
0.0
 11
1119.0
 21
376.5
 31
0.0
  0
LINE
  8
0
  6
CONTINUOUS
 62
     1
 10
1076.0
 20
356.5
 30
0.0
 11
1076.0
 21
364.5
 31
0.0
  0
LINE
  8
0
  6
CONTINUOUS
 62
     1
 10
1076.0
 20
364.5
 30
0.0
 11
1119.0
 21
364.5
 31
0.0
  0
LINE
  8
0
  6
CONTINUOUS
 62
     2
 10
1156.833854631
 20
364.5
 30
0.0
 11
1154.24566418
 21
354.840741737
 31
0.0
  0
LINE
  8
0
  6
CONTINUOUS
 62
     2
 10
1156.833854631
 20
364.5
 30
0.0
 11
1159.422045082
 21
354.840741737
 31
0.0
  0
LINE
  8
0
  6
CONTINUOUS
 62
     2
 10
1203.2
 20
336.5
 30
0.0
 11
1205.788190451
 21
346.159258263
 31
0.0
  0
LINE
  8
0
  6
CONTINUOUS
 62
     2
 10
1203.2
 20
336.5
 30
0.0
 11
1200.611809549
 21
346.159258263
 31
0.0
  0
LINE
  8
0
  6
CONTINUOUS
 62
     2
 10
1203.2
 20
336.5
 30
0.0
 11
1203.2
 21
376.5
 31
0.0
  0
LINE
  8
0
  6
CONTINUOUS
 62
     2
 10
1203.2
 20
376.5
 30
0.0
 11
1200.611809549
 21
366.840741737
 31
0.0
  0
LINE
  8
0
  6
CONTINUOUS
 62
     2
 10
1203.2
 20
376.5
 30
0.0
 11
1205.788190451
 21
366.840741737
 31
0.0
  0
LINE
  8
0
  6
CONTINUOUS
 62
     2
 10
1164.833854631
 20
376.5
 30
0.0
 11
1210.0
 21
376.5
 31
0.0
  0
LINE
  8
0
  6
CONTINUOUS
 62
     2
 10
1156.833854631
 20
376.5
 30
0.0
 11
1159.422045082
 21
386.159258263
 31
0.0
  0
LINE
  8
0
  6
CONTINUOUS
 62
     2
 10
1156.833854631
 20
376.5
 30
0.0
 11
1154.24566418
 21
386.159258263
 31
0.0
  0
LINE
  8
0
  6
CONTINUOUS
 62
     2
 10
1156.833854631
 20
368.5
 30
0.0
 11
1156.833854631
 21
292.9
 31
0.0
  0
LINE
  8
0
  6
CONTINUOUS
 62
     2
 10
1156.833854631
 20
336.5
 30
0.0
 11
1159.422045082
 21
326.840741737
 31
0.0
  0
LINE
  8
0
  6
CONTINUOUS
 62
     2
 10
1156.833854631
 20
336.5
 30
0.0
 11
1154.24566418
 21
326.840741737
 31
0.0
  0
LINE
  8
0
  6
CONTINUOUS
 62
     2
 10
1164.833854631
 20
336.5
 30
0.0
 11
1211.0
 21
336.5
 31
0.0
  0
LINE
  8
0
  6
CONTINUOUS
 62
     1
 10
1086.0
 20
379.5
 30
0.0
 11
1116.0
 21
379.5
 31
0.0
  0
LINE
  8
0
  6
CONTINUOUS
 62
     1
 10
1086.0
 20
376.5
 30
0.0
 11
1086.0
 21
379.5
 31
0.0
  0
LINE
  8
0
  6
CONTINUOUS
 62
     1
 10
1116.0
 20
376.5
 30
0.0
 11
1116.0
 21
379.5
 31
0.0
  0
LINE
  8
0
  6
CONTINUOUS
 62
     1
 10
1109.0
 20
379.5
 30
0.0
 11
1109.0
 21
387.5
 31
0.0
  0
LINE
  8
0
  6
CONTINUOUS
 62
     1
 10
1093.0
 20
387.5
 30
0.0
 11
1093.0
 21
379.5
 31
0.0
  0
LINE
  8
0
  6
LTYPE1
 62
     2
 10
1093.0
 20
379.5
 30
0.0
 11
1093.0
 21
364.5
 31
0.0
  0
LINE
  8
0
  6
LTYPE1
 62
     2
 10
1109.0
 20
364.5
 30
0.0
 11
1109.0
 21
379.5
 31
0.0
  0
LINE
  8
0
  6
LTYPE2
 62
     2
 10
1096.6
 20
382.15
 30
0.0
 11
1105.0
 21
382.15
 31
0.0
  0
CIRCLE
  8
0
  6
CONTINUOUS
 62
     1
 10
1101.0
 20
382.15
 30
0.0
 40
2.0
  0
LINE
  8
0
  6
CONTINUOUS
 62
     1
 10
1109.0
 20
325.5
 30
0.0
 11
1093.0
 21
325.5
 31
0.0
  0
LINE
  8
0
  6
CONTINUOUS
 62
     1
 10
1086.0
 20
333.5
 30
0.0
 11
1116.0
 21
333.5
 31
0.0
  0
LINE
  8
0
  6
CONTINUOUS
 62
     1
 10
1086.0
 20
336.5
 30
0.0
 11
1086.0
 21
333.5
 31
0.0
  0
LINE
  8
0
  6
CONTINUOUS
 62
     1
 10
1116.0
 20
336.5
 30
0.0
 11
1116.0
 21
333.5
 31
0.0
  0
LINE
  8
0
  6
CONTINUOUS
 62
     1
 10
1109.0
 20
333.5
 30
0.0
 11
1109.0
 21
325.5
 31
0.0
  0
LINE
  8
0
  6
CONTINUOUS
 62
     1
 10
1093.0
 20
325.5
 30
0.0
 11
1093.0
 21
333.5
 31
0.0
  0
LINE
  8
0
  6
LTYPE2
 62
     2
 10
1096.6
 20
330.85
 30
0.0
 11
1105.0
 21
330.85
 31
0.0
  0
CIRCLE
  8
0
  6
CONTINUOUS
 62
     1
 10
1101.0
 20
330.85
 30
0.0
 40
2.0
  0
LINE
  8
0
  6
CONTINUOUS
 62
     1
 10
1093.0
 20
325.5
 30
0.0
 11
1093.0
 21
333.5
 31
0.0
  0
LINE
  8
0
  6
CONTINUOUS
 62
     1
 10
1109.0
 20
333.5
 30
0.0
 11
1109.0
 21
325.5
 31
0.0
  0
LINE
  8
0
  6
LTYPE1
 62
     2
 10
1109.0
 20
348.5
 30
0.0
 11
1109.0
 21
333.5
 31
0.0
  0
LINE
  8
0
  6
LTYPE1
 62
     2
 10
1093.0
 20
333.5
 30
0.0
 11
1093.0
 21
348.5
 31
0.0
  0
LINE
  8
0
  6
CONTINUOUS
 62
     1
 10
1050.0
 20
317.5
 30
0.0
 11
1066.0
 21
317.5
 31
0.0
  0
LINE
  8
0
  6
CONTINUOUS
 62
     1
 10
1066.0
 20
317.5
 30
0.0
 11
1066.0
 21
395.5
 31
0.0
  0
TEXT
  8
0
  6
CONTINUOUS
 62
     2
 10
1152.333854631
 20
384.0
 30
0.0
 40
15.0
  1
１２
 50
90.0
 41
0.9
 51
0.0
  7
KANJI42
  0
TEXT
  8
0
  6
CONTINUOUS
 62
     2
 10
1152.833854631
 20
305.0
 30
0.0
 40
15.0
  1
１２
 50
90.0
 41
0.9
 51
0.0
  7
KANJI42
  0
TEXT
  8
0
  6
CONTINUOUS
 62
     2
 10
1180.733854631
 20
343.7
 30
0.0
 40
15.0
  1
１６
 50
90.0
 41
0.9
 51
0.0
  7
KANJI42
  0
TEXT
  8
0
  6
CONTINUOUS
 62
     2
 10
1199.2
 20
344.7
 30
0.0
 40
15.0
  1
４０
 50
90.0
 41
0.9
 51
0.0
  7
KANJI42
  0
LINE
  8
0
  6
CONTINUOUS
 62
     2
 10
1093.0
 20
414.6
 30
0.0
 11
1083.340741737
 21
417.188190451
 31
0.0
  0
LINE
  8
0
  6
CONTINUOUS
 62
     2
 10
1093.0
 20
414.6
 30
0.0
 11
1083.340741737
 21
412.011809549
 31
0.0
  0
LINE
  8
0
  6
CONTINUOUS
 62
     2
 10
1109.0
 20
414.6
 30
0.0
 11
1118.659258263
 21
412.011809549
 31
0.0
  0
LINE
  8
0
  6
CONTINUOUS
 62
     2
 10
1109.0
 20
414.6
 30
0.0
 11
1118.659258263
 21
417.188190451
 31
0.0
  0
LINE
  8
0
  6
CONTINUOUS
 62
     2
 10
1073.0
 20
414.6
 30
0.0
 11
1165.0
 21
414.6
 31
0.0
  0
LINE
  8
0
  6
CONTINUOUS
 62
     2
 10
1101.0
 20
427.35
 30
0.0
 11
1091.340741737
 21
429.938190451
 31
0.0
  0
LINE
  8
0
  6
CONTINUOUS
 62
     2
 10
1101.0
 20
427.35
 30
0.0
 11
1091.340741737
 21
424.761809549
 31
0.0
  0
LINE
  8
0
  6
CONTINUOUS
 62
     2
 10
1101.0
 20
427.35
 30
0.0
 11
1076.0
 21
427.35
 31
0.0
  0
LINE
  8
0
  6
CONTINUOUS
 62
     2
 10
1076.0
 20
427.35
 30
0.0
 11
1085.659258263
 21
424.761809549
 31
0.0
  0
LINE
  8
0
  6
CONTINUOUS
 62
     2
 10
1076.0
 20
427.35
 30
0.0
 11
1085.659258263
 21
429.938190451
 31
0.0
  0
TEXT
  8
0
  6
CONTINUOUS
 62
     2
 10
1156.75
 20
418.86
 30
0.84
 40
8.4
  1
ｄ９
 50
0.0
 41
0.9
 51
0.0
  7
KANJI49
  0
LINE
  8
0
  6
CONTINUOUS
 62
     1
 10
982.999501379
 20
316.3
 30
0.0
 11
982.999501379
 21
318.1
 31
0.0
  0
ARC
  8
0
  6
CONTINUOUS
 62
     1
 10
972.999501379
 20
318.1
 30
0.0
 40
10.0
 50
0.0
 51
90.0
  0
LINE
  8
0
  6
LTYPE3
 62
     2
 10
934.399501379
 20
196.68
 30
0.0
 11
934.399501379
 21
206.6
 31
0.0
  0
LINE
  8
0
  6
LTYPE3
 62
     2
 10
934.399501379
 20
168.6
 30
0.0
 11
934.399501379
 21
177.58
 31
0.0
  0
ARC
  8
0
  6
CONTINUOUS
 62
     1
 10
937.399501379
 20
205.6
 30
0.0
 40
2.0
 50
0.0
 51
90.0
  0
LINE
  8
0
  6
CONTINUOUS
 62
     1
 10
939.399501379
 20
169.6
 30
0.0
 11
939.399501379
 21
205.6
 31
0.0
  0
ARC
  8
0
  6
CONTINUOUS
 62
     1
 10
972.999501379
 20
173.1
 30
0.0
 40
10.0
 50
270.0
 51
0.0
  0
LINE
  8
0
  6
CONTINUOUS
 62
     1
 10
933.999501379
 20
229.6
 30
0.0
 11
933.999501379
 21
261.6
 31
0.0
  0
LINE
  8
0
  6
CONTINUOUS
 62
     1
 10
982.999501379
 20
269.14436172
 30
0.0
 11
982.999501379
 21
290.95
 31
0.0
  0
LINE
  8
0
  6
CONTINUOUS
 62
     1
 10
982.999501379
 20
253.6
 30
0.0
 11
982.999501379
 21
262.05563828
 31
0.0
  0
LINE
  8
7
  6
CONTINUOUS
 62
     2
 10
939.399501379
 20
187.6
 30
0.0
 11
947.766808964
 21
193.076144975
 31
0.0
  0
LINE
  8
7
  6
CONTINUOUS
 62
     2
 10
939.399501379
 20
187.6
 30
0.0
 11
943.907729822
 21
196.526134455
 31
0.0
  0
LINE
  8
7
  6
CONTINUOUS
 62
     2
 10
939.399501379
 20
187.6
 30
0.0
 11
952.049501379
 21
201.75
 31
0.0
  0
LINE
  8
7
  6
CONTINUOUS
 62
     2
 10
952.049501379
 20
201.75
 30
0.0
 11
1010.849501379
 21
201.75
 31
0.0
  0
TEXT
  8
7
  6
CONTINUOUS
 62
     2
 10
952.049501379
 20
205.75
 30
1.2
 40
12.0
  1
ＰＦ１／２
 50
0.0
 41
0.9
 51
0.0
  7
KANJI19
  0
LINE
  8
0
  6
CONTINUOUS
 62
     1
 10
982.999501379
 20
198.8
 30
0.0
 11
982.999501379
 21
173.1
 31
0.0
  0
LINE
  8
0
  6
LTYPE3
 62
     2
 10
965.299501379
 20
318.7
 30
0.0
 11
955.339501379
 21
318.7
 31
0.0
  0
LINE
  8
0
  6
LTYPE3
 62
     2
 10
960.299501379
 20
322.6
 30
0.0
 11
960.299501379
 21
314.72
 31
0.0
  0
ARC
  8
0
  6
CONTINUOUS
 62
     1
 10
963.299501379
 20
321.6
 30
0.0
 40
2.0
 50
0.0
 51
90.0
  0
LINE
  8
0
  6
CONTINUOUS
 62
     1
 10
988.699501379
 20
316.3
 30
0.0
 11
965.299501379
 21
316.3
 31
0.0
  0
LINE
  8
0
  6
CONTINUOUS
 62
     1
 10
965.299501379
 20
321.6
 30
0.0
 11
965.299501379
 21
285.6
 31
0.0
  0
LINE
  8
0
  6
LTYPE3
 62
     2
 10
965.299501379
 20
288.5
 30
0.0
 11
955.499501379
 21
288.5
 31
0.0
  0
LINE
  8
0
  6
LTYPE3
 62
     2
 10
960.299501379
 20
294.62
 30
0.0
 11
960.299501379
 21
284.6
 31
0.0
  0
ARC
  8
0
  6
CONTINUOUS
 62
     1
 10
963.299501379
 20
285.6
 30
0.0
 40
2.0
 50
270.0
 51
0.0
  0
LINE
  8
0
  6
CONTINUOUS
 62
     1
 10
969.660522596
 20
290.9
 30
0.0
 11
965.299501379
 21
290.9
 31
0.0
  0
ARC
  8
0
  6
CONTINUOUS
 62
     1
 10
988.699501379
 20
314.3
 30
0.0
 40
2.0
 50
0.0
 51
90.0
  0
LINE
  8
0
  6
CONTINUOUS
 62
     1
 10
990.699501379
 20
314.3
 30
0.0
 11
990.699501379
 21
292.9
 31
0.0
  0
ARC
  8
0
  6
CONTINUOUS
 62
     1
 10
974.999501379
 20
303.6
 30
0.0
 40
6.0
 50
356.983045121
 51
183.016954879
  0
LINE
  8
0
  6
LTYPE3
 62
     2
 10
974.999501379
 20
312.7
 30
0.0
 11
974.999501379
 21
255.2
 31
0.0
  0
LINE
  8
0
  6
CONTINUOUS
 62
     1
 10
980.991185367
 20
303.284210526
 30
0.0
 11
978.993957371
 21
265.389473684
 31
0.0
  0
LINE
  8
0
  6
CONTINUOUS
 62
     1
 10
969.007817392
 20
303.284210526
 30
0.0
 11
971.005045388
 21
265.389473684
 31
0.0
  0
ARC
  8
0
  6
CONTINUOUS
 62
     1
 10
988.699501379
 20
292.9
 30
0.0
 40
2.0
 50
270.0
 51
0.0
  0
LINE
  8
0
  6
CONTINUOUS
 62
     1
 10
988.699501379
 20
290.9
 30
0.0
 11
980.338480162
 21
290.9
 31
0.0
  0
LINE
  8
0
  6
LTYPE3
 62
     2
 10
963.999501379
 20
265.6
 30
0.0
 11
986.999501379
 21
265.6
 31
0.0
  0
ARC
  8
0
  6
CONTINUOUS
 62
     1
 10
974.999501379
 20
265.6
 30
0.0
 40
8.75
 50
120.219855722
 51
59.780144278
  0
ARC
  8
0
  6
CONTINUOUS
 62
     1
 10
974.999501379
 20
265.6
 30
0.0
 40
4.0
 50
176.983042101
 51
3.016952287
  0
ARC
  8
0
  6
CONTINUOUS
 62
     1
 10
1056.254032801
 20
249.6
 30
0.0
 40
6.845203412
 50
324.242860688
 51
35.757139312
  0
ARC
  8
0
  6
CONTINUOUS
 62
     1
 10
1067.363814032
 20
249.6
 30
0.0
 40
6.845203412
 50
144.242860688
 51
215.757139312
  0
ARC
  8
0
  6
CONTINUOUS
 62
     1
 10
1067.363814032
 20
241.6
 30
0.0
 40
6.845203412
 50
144.242860688
 51
215.757139312
  0
LINE
  8
0
  6
LTYPE2
 62
     2
 10
1014.499501379
 20
235.6
 30
0.0
 11
1014.499501379
 21
255.6
 31
0.0
  0
CIRCLE
  8
0
  6
CONTINUOUS
 62
     2
 10
1014.499501379
 20
245.6
 30
0.0
 40
5.0
  0
CIRCLE
  8
0
  6
CONTINUOUS
 62
     2
 10
1014.499501379
 20
245.6
 30
0.0
 40
4.0
  0
LINE
  8
0
  6
CONTINUOUS
 62
     2
 10
1093.0
 20
388.82
 30
0.0
 11
1093.0
 21
419.7
 31
0.0
  0
LINE
  8
0
  6
CONTINUOUS
 62
     2
 10
1109.0
 20
388.82
 30
0.0
 11
1109.0
 21
420.7
 31
0.0
  0
LINE
  8
0
  6
CONTINUOUS
 62
     2
 10
1120.57
 20
376.5
 30
0.0
 11
1164.833854631
 21
376.5
 31
0.0
  0
LINE
  8
0
  6
CONTINUOUS
 62
     2
 10
1120.57
 20
364.5
 30
0.0
 11
1164.733854631
 21
364.5
 31
0.0
  0
LINE
  8
0
  6
CONTINUOUS
 62
     2
 10
1120.76
 20
348.5
 30
0.0
 11
1164.733854631
 21
348.5
 31
0.0
  0
LINE
  8
0
  6
CONTINUOUS
 62
     2
 10
1120.57
 20
336.5
 30
0.0
 11
1164.833854631
 21
336.5
 31
0.0
  0
LINE
  8
0
  6
CONTINUOUS
 62
     2
 10
1156.833854631
 20
348.5
 30
0.0
 11
1154.24566418
 21
358.159258263
 31
0.0
  0
LINE
  8
0
  6
CONTINUOUS
 62
     2
 10
1156.833854631
 20
348.5
 30
0.0
 11
1159.422045082
 21
358.159258263
 31
0.0
  0
LINE
  8
0
  6
CONTINUOUS
 62
     1
 10
1006.0
 20
375.5
 30
0.0
 11
1050.0
 21
375.5
 31
0.0
  0
LINE
  8
0
  6
CONTINUOUS
 62
     1
 10
1006.0
 20
337.5
 30
0.0
 11
1050.0
 21
337.5
 31
0.0
  0
LINE
  8
0
  6
LTYPE3
 62
     2
 10
1006.0
 20
356.5
 30
0.0
 11
1129.9
 21
356.5
 31
0.0
  0
LINE
  8
0
  6
CONTINUOUS
 62
     1
 10
1050.0
 20
395.5
 30
0.0
 11
1066.0
 21
395.5
 31
0.0
  0
LINE
  8
0
  6
CONTINUOUS
 62
     1
 10
1050.0
 20
395.5
 30
0.0
 11
1050.0
 21
317.5
 31
0.0
  0
ARC
  8
0
  6
CONTINUOUS
 62
     1
 10
937.399501379
 20
169.6
 30
0.0
 40
2.0
 50
270.0
 51
0.0
  0
LINE
  8
0
  6
CONTINUOUS
 62
     2
 10
982.999501379
 20
118.1
 30
0.0
 11
973.340243116
 21
120.688190451
 31
0.0
  0
LINE
  8
0
  6
CONTINUOUS
 62
     2
 10
982.999501379
 20
118.1
 30
0.0
 11
973.340243116
 21
115.511809549
 31
0.0
  0
LINE
  8
0
  6
CONTINUOUS
 62
     2
 10
982.999501379
 20
168.100015958
 30
0.0
 11
982.999501379
 21
113.1
 31
0.0
  0
LINE
  8
0
  6
CONTINUOUS
 62
     2
 10
1278.0
 20
631.5
 30
0.0
 11
1278.0
 21
774.0
 31
0.0
  0
LINE
  8
0
  6
CONTINUOUS
 62
     2
 10
1278.0
 20
769.0
 30
0.0
 11
1287.659258263
 21
766.411809549
 31
0.0
  0
LINE
  8
0
  6
CONTINUOUS
 62
     2
 10
1278.0
 20
769.0
 30
0.0
 11
1287.659258263
 21
771.588190451
 31
0.0
  0
LINE
  8
0
  6
CONTINUOUS
 62
     2
 10
1278.0
 20
769.0
 30
0.0
 11
1398.0
 21
769.0
 31
0.0
  0
LINE
  8
0
  6
CONTINUOUS
 62
     2
 10
1398.0
 20
769.0
 30
0.0
 11
1388.340741737
 21
771.588190451
 31
0.0
  0
LINE
  8
0
  6
CONTINUOUS
 62
     2
 10
1398.0
 20
769.0
 30
0.0
 11
1388.340741737
 21
766.411809549
 31
0.0
  0
LINE
  8
0
  6
CONTINUOUS
 62
     2
 10
1398.0
 20
631.5
 30
0.0
 11
1398.0
 21
774.0
 31
0.0
  0
LINE
  8
0
  6
CONTINUOUS
 62
     2
 10
1338.0
 20
788.5
 30
0.0
 11
1338.0
 21
798.072652293
 31
0.0
  0
LINE
  8
0
  6
LTYPE3
 62
     2
 10
1338.0
 20
768.0
 30
0.0
 11
1338.0
 21
490.0
 31
0.0
  0
TEXT
  8
0
  6
CONTINUOUS
 62
     6
 10
389.343715102
 20
1330.371931782
 30
0.0
 40
11.8638
  1
ＡＣ１００Ｖ　１２５Ｖ　２５０Ｖ　－１０Ａ
 50
0.0
 41
0.726495726
 51
0.0
  7
KANJI26
  0
LINE
  8
0
  6
CONTINUOUS
 62
     2
 10
111.333333
 20
300.133333
 30
0.0
 11
119.06073961
 21
298.062780639
 31
0.0
  0
LINE
  8
0
  6
CONTINUOUS
 62
     2
 10
111.333333
 20
300.133333
 30
0.0
 11
119.06073961
 21
302.203885361
 31
0.0
  0
LINE
  8
0
  6
CONTINUOUS
 62
     2
 10
111.333333
 20
300.133333
 30
0.0
 11
248.933333
 21
300.133333
 31
0.0
  0
LINE
  8
0
  6
CONTINUOUS
 62
     2
 10
248.933333
 20
300.133333
 30
0.0
 11
241.20592639
 21
302.203885361
 31
0.0
  0
LINE
  8
0
  6
CONTINUOUS
 62
     2
 10
248.933333
 20
300.133333
 30
0.0
 11
241.20592639
 21
298.062780639
 31
0.0
  0
LINE
  8
0
  6
CONTINUOUS
 62
     2
 10
248.933333
 20
298.933333
 30
0.0
 11
248.933333
 21
296.133333
 31
0.0
  0
LINE
  8
0
  6
CONTINUOUS
 62
     2
 10
248.933333
 20
300.133333
 30
0.0
 11
256.66073961
 21
298.062780639
 31
0.0
  0
LINE
  8
0
  6
CONTINUOUS
 62
     2
 10
248.933333
 20
300.133333
 30
0.0
 11
256.66073961
 21
302.203885361
 31
0.0
  0
LINE
  8
0
  6
CONTINUOUS
 62
     2
 10
248.933333
 20
300.133333
 30
0.0
 11
451.333333
 21
300.133333
 31
0.0
  0
LINE
  8
0
  6
CONTINUOUS
 62
     2
 10
451.333333
 20
300.133333
 30
0.0
 11
443.60592639
 21
302.203885361
 31
0.0
  0
LINE
  8
0
  6
CONTINUOUS
 62
     2
 10
451.333333
 20
300.133333
 30
0.0
 11
443.60592639
 21
298.062780639
 31
0.0
  0
LINE
  8
0
  6
CONTINUOUS
 62
     2
 10
248.933333
 20
273.803885361
 30
0.0
 11
241.20592639
 21
275.874437722
 31
0.0
  0
LINE
  8
0
  6
CONTINUOUS
 62
     2
 10
248.933333
 20
273.803885361
 30
0.0
 11
241.20592639
 21
271.733333
 31
0.0
  0
LINE
  8
0
  6
CONTINUOUS
 62
     2
 10
236.933333
 20
273.803885361
 30
0.0
 11
248.933333
 21
273.803885361
 31
0.0
  0
LINE
  8
0
  6
CONTINUOUS
 62
     2
 10
248.933333
 20
273.803885361
 30
0.0
 11
269.733333
 21
273.803885361
 31
0.0
  0
LINE
  8
0
  6
CONTINUOUS
 62
     2
 10
269.733333
 20
273.803885361
 30
0.0
 11
277.46073961
 21
271.733333
 31
0.0
  0
LINE
  8
0
  6
CONTINUOUS
 62
     2
 10
269.733333
 20
273.803885361
 30
0.0
 11
277.46073961
 21
275.874437722
 31
0.0
  0
LINE
  8
0
  6
CONTINUOUS
 62
     2
 10
111.333333
 20
248.533333
 30
0.0
 11
111.333333
 21
242.533333
 31
0.0
  0
LINE
  8
0
  6
CONTINUOUS
 62
     2
 10
111.333333
 20
246.533333
 30
0.0
 11
119.06073961
 21
244.462780639
 31
0.0
  0
LINE
  8
0
  6
CONTINUOUS
 62
     2
 10
111.333333
 20
246.533333
 30
0.0
 11
119.06073961
 21
248.603885361
 31
0.0
  0
LINE
  8
0
  6
CONTINUOUS
 62
     2
 10
111.333333
 20
246.533333
 30
0.0
 11
269.733333
 21
246.533333
 31
0.0
  0
LINE
  8
0
  6
CONTINUOUS
 62
     2
 10
269.733333
 20
246.533333
 30
0.0
 11
262.00592639
 21
248.603885361
 31
0.0
  0
LINE
  8
0
  6
CONTINUOUS
 62
     2
 10
269.733333
 20
246.533333
 30
0.0
 11
262.00592639
 21
244.462780639
 31
0.0
  0
LINE
  8
0
  6
CONTINUOUS
 62
     2
 10
269.733333
 20
247.733333
 30
0.0
 11
269.733333
 21
242.533333
 31
0.0
  0
LINE
  8
0
  6
CONTINUOUS
 62
     2
 10
269.733333
 20
246.533333
 30
0.0
 11
277.46073961
 21
244.462780639
 31
0.0
  0
LINE
  8
0
  6
CONTINUOUS
 62
     2
 10
269.733333
 20
246.533333
 30
0.0
 11
277.46073961
 21
248.603885361
 31
0.0
  0
LINE
  8
0
  6
CONTINUOUS
 62
     2
 10
451.333333
 20
242.933333
 30
0.0
 11
451.333333
 21
242.533333
 31
0.0
  0
LINE
  8
0
  6
CONTINUOUS
 62
     2
 10
111.333333
 20
217.333333
 30
0.0
 11
119.06073961
 21
215.262780639
 31
0.0
  0
LINE
  8
0
  6
CONTINUOUS
 62
     2
 10
111.333333
 20
217.333333
 30
0.0
 11
119.06073961
 21
219.403885361
 31
0.0
  0
LINE
  8
0
  6
CONTINUOUS
 62
     2
 10
111.333333
 20
217.333333
 30
0.0
 11
428.933333
 21
217.333333
 31
0.0
  0
LINE
  8
0
  6
CONTINUOUS
 62
     2
 10
428.933333
 20
217.333333
 30
0.0
 11
421.20592639
 21
219.403885361
 31
0.0
  0
LINE
  8
0
  6
CONTINUOUS
 62
     2
 10
428.933333
 20
217.333333
 30
0.0
 11
421.20592639
 21
215.262780639
 31
0.0
  0
LINE
  8
0
  6
CONTINUOUS
 62
     2
 10
428.933333
 20
218.133333
 30
0.0
 11
428.933333
 21
213.333333
 31
0.0
  0
LINE
  8
0
  6
CONTINUOUS
 62
     2
 10
428.933333
 20
217.333333
 30
0.0
 11
421.20592639
 21
219.403885361
 31
0.0
  0
LINE
  8
0
  6
CONTINUOUS
 62
     2
 10
428.933333
 20
217.333333
 30
0.0
 11
421.20592639
 21
215.262780639
 31
0.0
  0
LINE
  8
0
  6
CONTINUOUS
 62
     2
 10
416.933333
 20
217.333333
 30
0.0
 11
428.933333
 21
217.333333
 31
0.0
  0
LINE
  8
0
  6
CONTINUOUS
 62
     2
 10
428.933333
 20
217.333333
 30
0.0
 11
451.333333
 21
217.333333
 31
0.0
  0
LINE
  8
0
  6
CONTINUOUS
 62
     2
 10
451.333333
 20
217.333333
 30
0.0
 11
459.06073961
 21
215.262780639
 31
0.0
  0
LINE
  8
0
  6
CONTINUOUS
 62
     2
 10
451.333333
 20
217.333333
 30
0.0
 11
459.06073961
 21
219.403885361
 31
0.0
  0
LINE
  8
0
  6
CONTINUOUS
 62
     2
 10
111.333333
 20
310.933333
 30
0.0
 11
111.333333
 21
296.133333
 31
0.0
  0
LINE
  8
0
  6
CONTINUOUS
 62
     2
 10
451.333333
 20
310.933333
 30
0.0
 11
451.333333
 21
296.133333
 31
0.0
  0
LINE
  8
0
  6
CONTINUOUS
 62
     2
 10
248.933333
 20
299.733333
 30
0.0
 11
248.933333
 21
310.933333
 31
0.0
  0
LINE
  8
0
  6
CONTINUOUS
 62
     2
 10
269.733333
 20
286.603885361
 30
0.0
 11
269.733333
 21
269.803885361
 31
0.0
  0
LINE
  8
0
  6
CONTINUOUS
 62
     2
 10
111.333333
 20
296.133333
 30
0.0
 11
111.333333
 21
204.133333
 31
0.0
  0
LINE
  8
0
  6
CONTINUOUS
 62
     2
 10
451.333333
 20
300.133333
 30
0.0
 11
451.333333
 21
205.333333
 31
0.0
  0
LINE
  8
0
  6
CONTINUOUS
 62
     2
 10
269.733333
 20
273.803885361
 30
0.0
 11
269.733333
 21
237.333333
 31
0.0
  0
LINE
  8
0
  6
CONTINUOUS
 62
     2
 10
248.933333
 20
300.133333
 30
0.0
 11
248.933333
 21
264.533333
 31
0.0
  0
TEXT
  8
0
  6
CONTINUOUS
 62
     3
 10
153.133333
 20
302.133333
 30
0.0
 40
15.0
  1
ｍｉｎ．Ｌ
 50
0.0
 41
0.9
 51
0.0
  7
KANJI42
  0
TEXT
  8
0
  6
CONTINUOUS
 62
     3
 10
306.933333
 20
302.133333
 30
0.0
 40
15.0
  1
機械的ストローク
 50
0.0
 41
0.9
 51
0.0
  7
KANJI42
  0
TEXT
  8
0
  6
CONTINUOUS
 62
     3
 10
281.733333
 20
275.803885361
 30
0.0
 40
15.0
  1
余裕
 50
0.0
 41
0.9
 51
0.0
  7
KANJI42
  0
TEXT
  8
0
  6
CONTINUOUS
 62
     3
 10
163.533333
 20
248.533333
 30
0.0
 40
15.0
  1
常用ｍｉｎ
 50
0.0
 41
0.9
 51
0.0
  7
KANJI42
  0
TEXT
  8
0
  6
CONTINUOUS
 62
     3
 10
322.733333
 20
248.533333
 30
0.0
 40
15.0
  1
常用ストローク
 50
0.0
 41
0.9
 51
0.0
  7
KANJI42
  0
TEXT
  8
0
  6
CONTINUOUS
 62
     3
 10
243.133333
 20
219.333333
 30
0.0
 40
15.0
  1
常用ｍａｘ
 50
0.0
 41
0.9
 51
0.0
  7
KANJI42
  0
TEXT
  8
0
  6
CONTINUOUS
 62
     3
 10
463.333333
 20
219.333333
 30
0.0
 40
15.0
  1
余裕
 50
0.0
 41
0.9
 51
0.0
  7
KANJI42
  0
LINE
  8
0
  6
CONTINUOUS
 62
     2
 10
269.733333
 20
273.803885361
 30
0.0
 11
309.833333
 21
273.803885361
 31
0.0
  0
LINE
  8
0
  6
CONTINUOUS
 62
     2
 10
451.333333
 20
217.333333
 30
0.0
 11
493.833333
 21
217.333333
 31
0.0
  0
TEXT
  8
0
  6
CONTINUOUS
 62
     3
 10
1317.75
 20
771.5
 30
0.0
 40
15.0
  1
１２０（トラニオン幅）
 50
0.0
 41
0.9
 51
0.0
  7
KANJI42
  0
LINE
  8
0
  6
CONTINUOUS
 62
     1
 10
858.25
 20
987.95
 30
0.0
 11
1506.25
 21
987.95
 31
0.0
  0
LINE
  8
0
  6
CONTINUOUS
 62
     1
 10
858.25
 20
1239.95
 30
0.0
 11
858.25
 21
987.95
 31
0.0
  0
LINE
  8
0
  6
CONTINUOUS
 62
     1
 10
1026.25
 20
1239.95
 30
0.0
 11
1026.25
 21
987.95
 31
0.0
  0
LINE
  8
0
  6
CONTINUOUS
 62
     2
 10
1106.25
 20
1239.95
 30
0.0
 11
1106.25
 21
987.95
 31
0.0
  0
LINE
  8
0
  6
CONTINUOUS
 62
     2
 10
1186.25
 20
1239.95
 30
0.0
 11
1186.25
 21
987.95
 31
0.0
  0
LINE
  8
0
  6
CONTINUOUS
 62
     2
 10
1266.25
 20
1239.95
 30
0.0
 11
1266.25
 21
987.95
 31
0.0
  0
LINE
  8
0
  6
CONTINUOUS
 62
     2
 10
1346.25
 20
1239.95
 30
0.0
 11
1346.25
 21
987.95
 31
0.0
  0
LINE
  8
0
  6
CONTINUOUS
 62
     2
 10
1426.25
 20
1239.95
 30
0.0
 11
1426.25
 21
987.95
 31
0.0
  0
LINE
  8
0
  6
CONTINUOUS
 62
     1
 10
1506.25
 20
1239.95
 30
0.0
 11
1506.25
 21
987.95
 31
0.0
  0
TEXT
  8
0
  6
CONTINUOUS
 62
     2
 10
871.25
 20
994.35
 30
0.8
 40
12.0
  1
ＭＣＳＬＢＢ０１－　　　Ｌ
 50
0.0
 41
0.833333333
 51
0.0
  7
KANJI30
  0
LINE
  8
0
  6
CONTINUOUS
 62
     2
 10
428.933333
 20
259.0
 30
0.0
 11
428.933333
 21
204.533333
 31
0.0
  0
LINE
  8
0
  6
CONTINUOUS
 62
     2
 10
269.733333
 20
246.533333
 30
0.0
 11
428.933333
 21
246.533333
 31
0.0
  0
LINE
  8
0
  6
CONTINUOUS
 62
     2
 10
428.933333
 20
246.533333
 30
0.0
 11
421.20592639
 21
248.603885361
 31
0.0
  0
LINE
  8
0
  6
CONTINUOUS
 62
     2
 10
428.933333
 20
246.533333
 30
0.0
 11
421.20592639
 21
244.462780639
 31
0.0
  0
LINE
  8
0
  6
CONTINUOUS
 62
     1
 10
1300.497474683
 20
693.5
 30
0.0
 11
1389.0
 21
693.5
 31
0.0
  0
LINE
  8
0
  6
CONTINUOUS
 62
     1
 10
1299.220779386
 20
695.0
 30
0.0
 11
1389.0
 21
695.0
 31
0.0
  0
LINE
  8
0
  6
CONTINUOUS
 62
     1
 10
1305.220779386
 20
701.0
 30
0.0
 11
1388.0
 21
701.0
 31
0.0
  0
LINE
  8
0
  6
CONTINUOUS
 62
     1
 10
1306.220779386
 20
702.0
 30
0.0
 11
1385.0
 21
702.0
 31
0.0
  0
LINE
  8
2
  6
CONTINUOUS
 62
     2
 10
1297.474649635
 20
741.570698219
 30
0.0
 11
1275.919716322
 21
842.272652293
 31
0.0
  0
LINE
  8
2
  6
CONTINUOUS
 62
     2
 10
1297.5
 20
741.8
 30
0.0
 11
1298.598851058
 21
751.73944296
 31
0.0
  0
LINE
  8
2
  6
CONTINUOUS
 62
     2
 10
1297.5
 20
741.8
 30
0.0
 11
1293.481911451
 21
750.957235632
 31
0.0
  0
LINE
  8
2
  6
CONTINUOUS
 62
     2
 10
1275.919716322
 20
842.272652293
 30
0.0
 11
1165.119716322
 21
842.272652293
 31
0.0
  0
TEXT
  8
2
  6
CONTINUOUS
 62
     2
 10
1165.119716322
 20
846.272652293
 30
0.0
 40
15.0
  1
２－ＰＦ１／２
 50
0.0
 41
0.9
 51
0.0
  7
KANJI42
  0
TEXT
  8
0
  6
CONTINUOUS
 62
     2
 10
1238.762797718
 20
798.072652293
 30
0.0
 40
15.0
  1
１５２
 50
0.0
 41
0.9
 51
0.0
  7
KANJI42
  0
LINE
  8
0
  6
CONTINUOUS
 62
     1
 10
1000.0
 20
480.5
 30
0.0
 11
1008.660254038
 21
485.5
 31
0.0
  0
LINE
  8
0
  6
CONTINUOUS
 62
     1
 10
1008.65
 20
485.5
 30
0.0
 11
1033.35
 21
485.5
 31
0.0
  0
LINE
  8
0
  6
CONTINUOUS
 62
     1
 10
1008.65
 20
453.5
 30
0.0
 11
1008.65
 21
485.5
 31
0.0
  0
LINE
  8
0
  6
CONTINUOUS
 62
     1
 10
1000.0
 20
458.5
 30
0.0
 11
1000.0
 21
480.5
 31
0.0
  0
LINE
  8
0
  6
CONTINUOUS
 62
     1
 10
1042.0
 20
480.5
 30
0.0
 11
1033.339745962
 21
485.5
 31
0.0
  0
LINE
  8
0
  6
CONTINUOUS
 62
     1
 10
1033.35
 20
453.5
 30
0.0
 11
1033.35
 21
485.5
 31
0.0
  0
LINE
  8
0
  6
CONTINUOUS
 62
     1
 10
1042.0
 20
458.5
 30
0.0
 11
1042.0
 21
480.5
 31
0.0
  0
LINE
  8
0
  6
CONTINUOUS
 62
     1
 10
1008.65
 20
453.5
 30
0.0
 11
1033.35
 21
453.5
 31
0.0
  0
LINE
  8
0
  6
CONTINUOUS
 62
     1
 10
1042.0
 20
458.5
 30
0.0
 11
1033.339745962
 21
453.5
 31
0.0
  0
LINE
  8
0
  6
CONTINUOUS
 62
     1
 10
1000.0
 20
458.5
 30
0.0
 11
1008.660254038
 21
453.5
 31
0.0
  0
LINE
  8
0
  6
CONTINUOUS
 62
     1
 10
993.499501379
 20
256.6
 30
0.0
 11
1002.159755417
 21
261.6
 31
0.0
  0
LINE
  8
0
  6
CONTINUOUS
 62
     1
 10
1002.149501379
 20
261.6
 30
0.0
 11
1026.849501379
 21
261.6
 31
0.0
  0
LINE
  8
0
  6
CONTINUOUS
 62
     1
 10
1002.149501379
 20
229.6
 30
0.0
 11
1002.149501379
 21
261.6
 31
0.0
  0
LINE
  8
0
  6
CONTINUOUS
 62
     1
 10
993.499501379
 20
234.6
 30
0.0
 11
993.499501379
 21
256.6
 31
0.0
  0
LINE
  8
0
  6
CONTINUOUS
 62
     1
 10
1035.499501379
 20
256.6
 30
0.0
 11
1026.839247342
 21
261.6
 31
0.0
  0
LINE
  8
0
  6
CONTINUOUS
 62
     1
 10
1026.849501379
 20
229.6
 30
0.0
 11
1026.849501379
 21
261.6
 31
0.0
  0
LINE
  8
0
  6
CONTINUOUS
 62
     1
 10
1035.499501379
 20
234.6
 30
0.0
 11
1035.499501379
 21
256.6
 31
0.0
  0
LINE
  8
0
  6
CONTINUOUS
 62
     1
 10
1002.149501379
 20
229.6
 30
0.0
 11
1026.849501379
 21
229.6
 31
0.0
  0
LINE
  8
0
  6
CONTINUOUS
 62
     1
 10
1035.499501379
 20
234.6
 30
0.0
 11
1026.839247342
 21
229.6
 31
0.0
  0
LINE
  8
0
  6
CONTINUOUS
 62
     1
 10
993.499501379
 20
234.6
 30
0.0
 11
1002.159755417
 21
229.6
 31
0.0
  0
LINE
  8
0
  6
CONTINUOUS
 62
     1
 10
1035.499501379
 20
253.6
 30
0.0
 11
1061.808923417
 21
253.6
 31
0.0
  0
LINE
  8
0
  6
CONTINUOUS
 62
     1
 10
1061.808923417
 20
237.6
 30
0.0
 11
1035.499501379
 21
237.6
 31
0.0
  0
LINE
  8
0
  6
CONTINUOUS
 62
     1
 10
993.499501379
 20
237.6
 30
0.0
 11
933.999501379
 21
237.6
 31
0.0
  0
LINE
  8
0
  6
CONTINUOUS
 62
     1
 10
933.999501379
 20
253.6
 30
0.0
 11
993.499501379
 21
253.6
 31
0.0
  0
LINE
  8
0
  6
LTYPE6
 62
     2
 10
814.849814745
 20
569.5
 30
0.0
 11
814.849814745
 21
640.95
 31
0.0
  0
LINE
  8
0
  6
CONTINUOUS
 62
     1
 10
814.849814745
 20
638.25
 30
0.0
 11
879.999501379
 21
638.25
 31
0.0
  0
LINE
  8
0
  6
CONTINUOUS
 62
     1
 10
814.849814745
 20
574.75
 30
0.0
 11
879.999501379
 21
574.75
 31
0.0
  0
LINE
  8
0
  6
LTYPE6
 62
     2
 10
810.849814745
 20
569.5
 30
0.0
 11
810.849814745
 21
640.95
 31
0.0
  0
LINE
  8
0
  6
CONTINUOUS
 62
     1
 10
726.0
 20
638.25
 30
0.0
 11
810.849814745
 21
638.25
 31
0.0
  0
LINE
  8
0
  6
CONTINUOUS
 62
     1
 10
726.0
 20
574.75
 30
0.0
 11
810.849814745
 21
574.75
 31
0.0
  0
LINE
  8
0
  6
CONTINUOUS
 62
     1
 10
982.999501379
 20
237.6
 30
0.0
 11
982.999501379
 21
220.5
 31
0.0
  0
TEXT
  8
2
  6
CONTINUOUS
 62
     2
 10
159.3
 20
694.8
 30
1.2
 40
16.0
  1
手動軸カバー
 50
0.0
 41
0.925
 51
0.0
  7
KANJI50
  0
TEXT
  8
2
  6
CONTINUOUS
 62
     2
 10
159.3
 20
670.8
 30
1.2
 40
16.0
  1
手動軸□１０
 50
0.0
 41
0.925
 51
0.0
  7
KANJI50
  0
POLYLINE
  8
2
  6
CONTINUOUS
 62
     2
 66
     1
  0
VERTEX
  8
2
  6
CONTINUOUS
 62
     2
 10
275.685350584
 20
606.25
 30
0.0
  0
VERTEX
  8
2
  6
CONTINUOUS
 62
     2
 10
259.1
 20
690.8
 30
0.0
  0
VERTEX
  8
2
  6
CONTINUOUS
 62
     2
 10
154.3
 20
690.8
 30
0.0
  0
SEQEND
  0
TEXT
  8
0
  6
CONTINUOUS
 62
     2
 10
1612.25
 20
1278.5
 30
138.5
 40
17.5
  1
形式
 50
0.0
 41
0.9
 51
0.0
  7
KANJI51
  0
TEXT
  8
0
  6
CONTINUOUS
 62
     2
 10
1612.25
 20
1243.5
 30
138.5
 40
17.5
  1
推力
 50
0.0
 41
0.9
 51
0.0
  7
KANJI51
  0
TEXT
  8
0
  6
CONTINUOUS
 62
     2
 10
1612.25
 20
1103.5
 30
138.5
 40
17.5
  1
構造
 50
0.0
 41
0.9
 51
0.0
  7
KANJI51
  0
TEXT
  8
0
  6
CONTINUOUS
 62
     2
 10
1612.25
 20
718.5
 30
61.375
 40
17.5
  1
付属品
 50
0.0
 41
0.9
 51
0.0
  7
KANJI52
  0
TEXT
  8
0
  6
CONTINUOUS
 62
     2
 10
1612.25
 20
1033.5
 30
61.375
 40
17.5
  1
塗装色
 50
0.0
 41
0.9
 51
0.0
  7
KANJI52
  0
TEXT
  8
0
  6
CONTINUOUS
 62
     2
 10
1612.25
 20
1208.5
 30
22.8125
 40
17.5
  1
ストローク
 50
0.0
 41
0.9
 51
0.0
  7
KANJI53
  0
TEXT
  8
0
  6
CONTINUOUS
 62
     2
 10
1612.25
 20
1068.5
 30
9.958
 40
17.5
  1
過負荷安全装置
 50
0.0
 41
0.9
 51
0.0
  7
KANJI54
  0
TEXT
  8
0
  6
CONTINUOUS
 62
     2
 10
1637.25
 20
1318.0
 30
14.2497
 40
22.5
  1
マイティシリンダ仕様
 50
0.0
 41
0.9
 51
0.0
  7
KANJI55
  0
TEXT
  8
0
  6
CONTINUOUS
 62
     2
 10
1637.25
 20
998.5
 30
15.3125
 40
17.5
  1
出力　極数
 50
0.0
 41
0.9
 51
0.0
  7
KANJI56
  0
TEXT
  8
0
  6
CONTINUOUS
 62
     2
 10
1637.25
 20
963.5
 30
25.6665
 40
17.5
  1
電源電圧
 50
0.0
 41
0.9
 51
0.0
  7
KANJI57
  0
TEXT
  8
0
  6
CONTINUOUS
 62
     2
 10
1637.25
 20
928.5
 30
46.375
 40
17.5
  1
周波数
 50
0.0
 41
0.9
 51
0.0
  7
KANJI58
  0
TEXT
  8
0
  6
CONTINUOUS
 62
     2
 10
1637.25
 20
858.5
 30
46.375
 40
17.5
  1
絶縁級
 50
0.0
 41
0.9
 51
0.0
  7
KANJI58
  0
TEXT
  8
0
  6
CONTINUOUS
 62
     2
 10
1637.25
 20
893.5
 30
108.5
 40
17.5
  1
電流
 50
0.0
 41
0.9
 51
0.0
  7
KANJI59
  0
TEXT
  8
0
  6
CONTINUOUS
 62
     2
 10
1637.25
 20
788.5
 30
108.5
 40
17.5
  1
形式
 50
0.0
 41
0.9
 51
0.0
  7
KANJI59
  0
TEXT
  8
0
  6
CONTINUOUS
 62
     2
 10
1637.25
 20
753.5
 30
25.6665
 40
17.5
  1
操作方式
 50
0.0
 41
0.9
 51
0.0
  7
KANJI57
  0
TEXT
  8
0
  6
CONTINUOUS
 62
     2
 10
1597.25
 20
1138.5
 30
1.5
 40
17.5
  1
ピストンロッド回転トルク
 50
0.0
 41
0.9
 51
0.0
  7
KANJI60
  0
TEXT
  8
0
  6
CONTINUOUS
 62
     2
 10
1595.125
 20
1002.0
 30
11.0
 40
17.5
  1
モ　トル仕様
 50
0.0
 41
0.9
 51
0.0
  7
KANJI61
  0
TEXT
  8
0
  6
CONTINUOUS
 62
     2
 10
1594.0
 20
812.0
 30
0.857142857
 40
15.0
  1
ブレ　キ
 50
0.0
 41
0.9
 51
0.0
  7
KANJI62
  0
LINE
  8
0
  6
CONTINUOUS
 62
     2
 10
1593.75
 20
777.5
 30
0.0
 11
1593.75
 21
767.0
 31
0.0
  0
LINE
  8
0
  6
CONTINUOUS
 62
     2
 10
1593.75
 20
974.0
 30
0.0
 11
1593.75
 21
962.5
 31
0.0
  0
TEXT
  8
0
  6
CONTINUOUS
 62
     2
 10
1949.75
 20
1177.0
 30
0.1
 40
12.5
  1
ｍｍ／ｓｅｃ
 50
0.0
 41
0.8
 51
0.0
  7
KANJI63
  0
TEXT
  8
0
  6
CONTINUOUS
 62
     2
 10
1987.25
 20
1210.5
 30
0.1
 40
12.5
  1
ｍｍ
 50
0.0
 41
0.8
 51
0.0
  7
KANJI63
  0
TEXT
  8
0
  6
CONTINUOUS
 62
     2
 10
1861.75
 20
1068.5
 30
7.1
 40
17.5
  1
推力リミッタ
 50
0.0
 41
0.9
 51
0.0
  7
KANJI64
  0
TEXT
  8
0
  6
CONTINUOUS
 62
     2
 10
1994.25
 20
998.5
 30
10.982142857
 40
15.0
  1
Ｐ
 50
0.0
 41
0.9
 51
0.0
  7
KANJI65
  0
TEXT
  8
0
  6
CONTINUOUS
 62
     2
 10
1911.25
 20
998.5
 30
1.0
 40
15.0
  1
ＫＷ
 50
0.0
 41
0.857142857
 51
0.0
  7
KANJI66
  0
TEXT
  8
0
  6
CONTINUOUS
 62
     2
 10
1969.25
 20
998.5
 30
12.8125
 40
17.5
  1
４
 50
0.0
 41
0.9
 51
0.0
  7
KANJI67
  0
TEXT
  8
0
  6
CONTINUOUS
 62
     2
 10
1833.75
 20
1035.0
 30
0.5
 40
14.0
  1
マンセル
 50
0.0
 41
0.9
 51
0.0
  7
KANJI68
  0
TEXT
  8
0
  6
CONTINUOUS
 62
     2
 10
1892.25
 20
1036.0
 30
0.2
 40
14.0
  1
７．５ＧＹ５／４．５
 50
0.0
 41
0.785714286
 51
0.0
  7
KANJI69
  0
TEXT
  8
0
  6
CONTINUOUS
 62
     2
 10
1829.75
 20
789.0
 30
1.5
 40
14.0
  1
スプリング制動式電磁ブレーキ
 50
0.0
 41
0.8
 51
0.0
  7
KANJI70
  0
TEXT
  8
0
  6
CONTINUOUS
 62
     2
 10
1864.75
 20
753.5
 30
10.0
 40
17.5
  1
同時切り
 50
0.0
 41
0.9
 51
0.0
  7
KANJI71
  0
TEXT
  8
0
  6
CONTINUOUS
 62
     2
 10
1994.75
 20
963.5
 30
0.18
 40
15.0
  1
Ｖ
 50
0.0
 41
0.8
 51
0.0
  7
KANJI72
  0
TEXT
  8
0
  6
CONTINUOUS
 62
     2
 10
1985.75
 20
928.5
 30
0.18
 40
15.0
  1
Ｈｚ
 50
0.0
 41
0.8
 51
0.0
  7
KANJI72
  0
TEXT
  8
0
  6
CONTINUOUS
 62
     2
 10
1995.875
 20
894.625
 30
1.5
 40
15.0
  1
Ａ
 50
0.0
 41
0.9
 51
0.0
  7
KANJI73
  0
TEXT
  8
0
  6
CONTINUOUS
 62
     2
 10
1917.125
 20
860.875
 30
1.5
 40
15.0
  1
Ｅ
 50
0.0
 41
0.9
 51
0.0
  7
KANJI73
  0
LINE
  8
0
  6
CONTINUOUS
 62
     2
 10
1574.75
 20
744.5
 30
0.0
 11
2012.25
 21
744.5
 31
0.0
  0
LINE
  8
0
  6
CONTINUOUS
 62
     2
 10
1574.75
 20
1024.5
 30
0.0
 11
2012.25
 21
1024.5
 31
0.0
  0
LINE
  8
0
  6
CONTINUOUS
 62
     2
 10
1574.75
 20
814.5
 30
0.0
 11
2012.25
 21
814.5
 31
0.0
  0
LINE
  8
0
  6
CONTINUOUS
 62
     2
 10
1614.75
 20
779.5
 30
0.0
 11
2012.25
 21
779.5
 31
0.0
  0
LINE
  8
0
  6
CONTINUOUS
 62
     2
 10
1614.75
 20
849.5
 30
0.0
 11
2012.25
 21
849.5
 31
0.0
  0
LINE
  8
0
  6
CONTINUOUS
 62
     2
 10
1614.75
 20
884.5
 30
0.0
 11
2012.25
 21
884.5
 31
0.0
  0
LINE
  8
0
  6
CONTINUOUS
 62
     2
 10
1614.75
 20
954.5
 30
0.0
 11
2012.25
 21
954.5
 31
0.0
  0
LINE
  8
0
  6
CONTINUOUS
 62
     2
 10
1614.75
 20
919.5
 30
0.0
 11
2012.25
 21
919.5
 31
0.0
  0
LINE
  8
0
  6
CONTINUOUS
 62
     2
 10
1614.75
 20
989.5
 30
0.0
 11
2012.25
 21
989.5
 31
0.0
  0
LINE
  8
0
  6
CONTINUOUS
 62
     2
 10
1574.75
 20
1304.5
 30
0.0
 11
2012.25
 21
1304.5
 31
0.0
  0
LINE
  8
0
  6
CONTINUOUS
 62
     2
 10
1574.75
 20
1269.5
 30
0.0
 11
2012.25
 21
1269.5
 31
0.0
  0
LINE
  8
0
  6
CONTINUOUS
 62
     2
 10
1574.75
 20
1234.5
 30
0.0
 11
2012.25
 21
1234.5
 31
0.0
  0
LINE
  8
0
  6
CONTINUOUS
 62
     2
 10
1574.75
 20
1199.5
 30
0.0
 11
2012.25
 21
1199.5
 31
0.0
  0
LINE
  8
0
  6
CONTINUOUS
 62
     2
 10
1574.75
 20
1164.5
 30
0.0
 11
2012.25
 21
1164.5
 31
0.0
  0
LINE
  8
0
  6
CONTINUOUS
 62
     2
 10
1574.75
 20
1129.5
 30
0.0
 11
2012.25
 21
1129.5
 31
0.0
  0
LINE
  8
0
  6
CONTINUOUS
 62
     2
 10
1574.75
 20
1094.5
 30
0.0
 11
2012.25
 21
1094.5
 31
0.0
  0
LINE
  8
0
  6
CONTINUOUS
 62
     2
 10
1574.75
 20
1059.5
 30
0.0
 11
2012.25
 21
1059.5
 31
0.0
  0
LINE
  8
0
  6
CONTINUOUS
 62
     2
 10
1614.75
 20
1024.5
 30
0.0
 11
1614.75
 21
744.5
 31
0.0
  0
LINE
  8
0
  6
CONTINUOUS
 62
     1
 10
1574.75
 20
1354.5
 30
0.0
 11
2012.25
 21
1354.5
 31
0.0
  0
LINE
  8
0
  6
CONTINUOUS
 62
     2
 10
1574.75
 20
709.5
 30
0.0
 11
2012.25
 21
709.5
 31
0.0
  0
TEXT
  8
0
  6
CONTINUOUS
 62
     2
 10
1842.125
 20
1173.375
 30
1.5
 40
15.0
  1
　２５／３０
 50
0.0
 41
0.9
 51
0.0
  7
KANJI73
  0
TEXT
  8
0
  6
CONTINUOUS
 62
     2
 10
1872.75
 20
964.0
 30
1.5
 40
15.0
  1
　　　／　
 50
0.0
 41
0.9
 51
0.0
  7
KANJI73
  0
TEXT
  8
0
  6
CONTINUOUS
 62
     2
 10
1887.125
 20
928.375
 30
1.5
 40
15.0
  1
　５０／６０
 50
0.0
 41
0.9
 51
0.0
  7
KANJI73
  0
TEXT
  8
0
  6
CONTINUOUS
 62
     2
 10
1853.375
 20
999.625
 30
1.5
 40
15.0
  1
０．３
 50
0.0
 41
0.9
 51
0.0
  7
KANJI73
  0
TEXT
  8
0
  6
CONTINUOUS
 62
     2
 10
1854.25
 20
1243.5
 30
1.5
 40
15.0
  1
９８０Ｎ（１００ｋｇ）
 50
0.0
 41
0.9
 51
0.0
  7
KANJI73
  0
TEXT
  8
0
  6
CONTINUOUS
 62
     2
 10
1612.25
 20
1173.5
 30
5.0
 40
17.5
  1
公称速度（５０／６０Ｈｚ）
 50
0.0
 41
0.9
 51
0.0
  7
KANJI74
  0
TEXT
  8
0
  6
CONTINUOUS
 62
     2
 10
1861.75
 20
1104.0
 30
12.8125
 40
17.5
  1
全閉屋内形
 50
0.0
 41
0.9
 51
0.0
  7
KANJI67
  0
TEXT
  8
0
  6
CONTINUOUS
 62
     2
 10
1830.75
 20
1277.625
 30
1.0
 40
15.0
  1
ＭＣＳＬＢＢ０１－　　Ｌ
 50
0.0
 41
0.833333333
 51
0.0
  7
KANJI75
  0
TEXT
  8
0
  6
CONTINUOUS
 62
     2
 10
1832.875
 20
1138.375
 30
0.0
 40
15.0
  1
２．９Ｎ・ｍ（０．３ｋｇ・ｍ）
 50
0.0
 41
0.833333333
 51
0.0
  7
KANJI76
  0
TEXT
  8
0
  6
CONTINUOUS
 62
     2
 10
1612.25
 20
683.5
 30
138.5
 40
17.5
  1
台数
 50
0.0
 41
0.9
 51
0.0
  7
KANJI51
  0
LINE
  8
0
  6
CONTINUOUS
 62
     1
 10
1574.75
 20
639.5
 30
0.0
 11
2012.25
 21
639.5
 31
0.0
  0
LINE
  8
0
  6
CONTINUOUS
 62
     2
 10
1574.75
 20
674.5
 30
0.0
 11
2012.25
 21
674.5
 31
0.0
  0
TEXT
  8
0
  6
CONTINUOUS
 62
     2
 10
1612.25
 20
648.5
 30
5.0
 40
17.5
  1
概算重量（１台当り）
 50
0.0
 41
0.857142857
 51
0.0
  7
KANJI15
  0
TEXT
  8
0
  6
CONTINUOUS
 62
     2
 10
1966.25
 20
649.65
 30
0.0
 40
17.5
  1
ｋｇ
 50
0.0
 41
0.9
 51
0.0
  7
KANJI77
  0
LINE
  8
0
  6
CONTINUOUS
 62
     2
 10
1824.75
 20
1304.5
 30
0.0
 11
1824.75
 21
639.5
 31
0.0
  0
LINE
  8
0
  6
CONTINUOUS
 62
     1
 10
1574.75
 20
1354.5
 30
0.0
 11
1574.75
 21
639.5
 31
0.0
  0
LINE
  8
0
  6
CONTINUOUS
 62
     2
 10
1494.25
 20
586.0
 30
0.0
 11
1614.25
 21
586.0
 31
0.0
  0
TEXT
  8
0
  6
CONTINUOUS
 62
     2
 10
1504.75
 20
593.0
 30
10.0
 40
20.0
  1
特記事項
 50
0.0
 41
0.9
 51
0.0
  7
KANJI78
  0
TEXT
  8
0
  6
CONTINUOUS
 62
     2
 10
1499.75
 20
443.25
 30
1.5
 40
17.5
  1
　　ストローク７００ｍｍ以上の場合２ロッド方式となります。
 50
0.0
 41
0.857142857
 51
0.0
  7
KANJI79
  0
TEXT
  8
0
  6
CONTINUOUS
 62
     2
 10
1499.75
 20
493.25
 30
1.5
 40
17.5
  1
３．ＬＳユニット
 50
0.0
 41
0.857142857
 51
0.0
  7
KANJI79
  0
TEXT
  8
0
  6
CONTINUOUS
 62
     2
 10
1499.75
 20
555.75
 30
1.5
 40
17.5
  1
１．運転時は必ずピストンロッドの回転防止を行って下さい。
 50
0.0
 41
0.857142857
 51
0.0
  7
KANJI79
  0
TEXT
  8
0
  6
CONTINUOUS
 62
     2
 10
1499.75
 20
468.25
 30
1.5
 40
17.5
  1
　　リミットスイッチ：１ＬＳ１－Ｊｘ２ケ（山武）
 50
0.0
 41
0.857142857
 51
0.0
  7
KANJI79
  0
TEXT
  8
0
  6
CONTINUOUS
 62
     2
 10
1499.75
 20
524.5
 30
1.5
 40
17.5
  1
２．モートル：全閉自冷かご形３０分定格
 50
0.0
 41
0.857142857
 51
0.0
  7
KANJI79
  0
TEXT
  8
0
  6
CONTINUOUS
 62
     2
 10
1499.75
 20
415.75
 30
1.5
 40
17.5
  1
４．呼称ストロークは、機械的ストロークです。
 50
0.0
 41
0.857142857
 51
0.0
  7
KANJI79
  0
TEXT
  8
0
  6
CONTINUOUS
 62
     2
 10
1499.75
 20
384.95
 30
1.5
 40
17.5
  1
　　必ず、常用はストローク両端に必ず余裕を取って下さい。
 50
0.0
 41
0.857142857
 51
0.0
  7
KANJI79
  0
TEXT
  8
0
  6
CONTINUOUS
 62
     2
 10
1499.75
 20
353.47
 30
1.5
 40
17.5
  1
　　前後の推奨余裕寸法は、各々１５ｍｍです。
 50
0.0
 41
0.857142857
 51
0.0
  7
KANJI79
  0
POLYLINE
  8
2
  6
CONTINUOUS
 62
     2
 66
     1
  0
VERTEX
  8
2
  6
CONTINUOUS
 62
     2
 10
1466.0
 20
553.5
 30
0.0
  0
VERTEX
  8
2
  6
CONTINUOUS
 62
     2
 10
1466.0
 20
702.0
 30
0.0
  0
VERTEX
  8
2
  6
CONTINUOUS
 62
     2
 10
1463.411809549
 20
692.340741737
 30
0.0
  0
SEQEND
  0
LINE
  8
2
  6
CONTINUOUS
 62
     2
 10
1466.0
 20
702.0
 30
0.0
 11
1468.588190451
 21
692.340741737
 31
0.0
  0
TEXT
  8
2
  6
CONTINUOUS
 62
     3
 10
1462.0
 20
593.35
 30
0.0
 40
15.0
  1
１４８．５
 50
90.0
 41
0.9
 51
0.0
  7
KANJI42
  0
LINE
  8
2
  6
CONTINUOUS
 62
     2
 10
1466.0
 20
553.5
 30
0.0
 11
1463.411809549
 21
543.840741737
 31
0.0
  0
LINE
  8
2
  6
CONTINUOUS
 62
     2
 10
1466.0
 20
553.5
 30
0.0
 11
1468.588190451
 21
543.840741737
 31
0.0
  0
LINE
  8
2
  6
CONTINUOUS
 62
     2
 10
1466.0
 20
553.5
 30
0.0
 11
1466.0
 21
492.5
 31
0.0
  0
LINE
  8
2
  6
CONTINUOUS
 62
     2
 10
1466.0
 20
492.5
 30
0.0
 11
1468.588190451
 21
502.159258263
 31
0.0
  0
LINE
  8
2
  6
CONTINUOUS
 62
     2
 10
1466.0
 20
492.5
 30
0.0
 11
1463.411809549
 21
502.159258263
 31
0.0
  0
LINE
  8
2
  6
CONTINUOUS
 62
     2
 10
1462.0
 20
553.5
 30
0.0
 11
1474.0
 21
553.5
 31
0.0
  0
LINE
  8
2
  6
CONTINUOUS
 62
     2
 10
1466.0
 20
553.5
 30
0.0
 11
1468.588190451
 21
563.159258263
 31
0.0
  0
LINE
  8
2
  6
CONTINUOUS
 62
     2
 10
1466.0
 20
553.5
 30
0.0
 11
1463.411809549
 21
563.159258263
 31
0.0
  0
TEXT
  8
2
  6
CONTINUOUS
 62
     3
 10
1462.0
 20
509.6
 30
0.0
 40
15.0
  1
６１
 50
90.0
 41
0.9
 51
0.0
  7
KANJI42
  0
LINE
  8
0
  6
CONTINUOUS
 62
     2
 10
1403.0
 20
614.5
 30
0.0
 11
1441.0
 21
614.5
 31
0.0
  0
LINE
  8
0
  6
CONTINUOUS
 62
     2
 10
1436.0
 20
614.5
 30
0.0
 11
1439.235238064
 21
626.574072829
 31
0.0
  0
LINE
  8
0
  6
CONTINUOUS
 62
     2
 10
1436.0
 20
614.5
 30
0.0
 11
1432.764761936
 21
626.574072829
 31
0.0
  0
LINE
  8
0
  6
CONTINUOUS
 62
     2
 10
1436.0
 20
614.5
 30
0.0
 11
1436.0
 21
598.5
 31
0.0
  0
LINE
  8
0
  6
CONTINUOUS
 62
     2
 10
1436.0
 20
598.5
 30
0.0
 11
1436.0
 21
579.75
 31
0.0
  0
LINE
  8
0
  6
CONTINUOUS
 62
     2
 10
1436.0
 20
598.5
 30
0.0
 11
1432.764761936
 21
586.425927171
 31
0.0
  0
LINE
  8
0
  6
CONTINUOUS
 62
     2
 10
1436.0
 20
598.5
 30
0.0
 11
1439.235238064
 21
586.425927171
 31
0.0
  0
LINE
  8
0
  6
CONTINUOUS
 62
     2
 10
1403.0
 20
598.5
 30
0.0
 11
1441.0
 21
598.5
 31
0.0
  0
TEXT
  8
0
  6
CONTINUOUS
 62
     3
 10
1433.5
 20
622.25
 30
0.0
 40
15.0
  1
φ１６Ｈ１０深さ２２
 50
90.0
 41
0.9
 51
0.0
  7
KANJI42
  0
LINE
  8
2
  6
CONTINUOUS
 62
     2
 10
1411.0
 20
553.5
 30
0.0
 11
1474.0
 21
553.5
 31
0.0
  0
LINE
  8
2
  6
CONTINUOUS
 62
     2
 10
1396.0
 20
492.5
 30
0.0
 11
1474.0
 21
492.5
 31
0.0
  0
LINE
  8
0
  6
CONTINUOUS
 62
     2
 10
1436.0
 20
756.5
 30
0.0
 11
1436.0
 21
614.5
 31
0.0
  0
LINE
  8
2
  6
CONTINUOUS
 62
     2
 10
1441.0
 20
702.0
 30
0.0
 11
1474.0
 21
702.0
 31
0.0
  0
LINE
  8
2
  6
CONTINUOUS
 62
     2
 10
1394.0
 20
702.0
 30
0.0
 11
1416.0
 21
702.0
 31
0.0
  0
TEXT
  8
0
  6
CONTINUOUS
 62
     2
 10
1381.9166945
 20
102.999995
 30
1.5
 40
17.5
  1
０７．１１．０７
 50
0.0
 41
0.571428571
 51
0.0
  7
KANJI80
  0
ENDSEC
  0
EOF
