  0
SECTION
  2
HEADER
  9
$ACADVER
  1
AC1009
  9
$DWGCODEPAGE
  3
dos932
  9
$EXTMIN
 10
0.0
 20
0.0
 30
0.0
  9
$EXTMAX
 10
2100.0
 20
1485.0
 30
0.0
  9
$LIMMIN
 10
0.0
 20
0.0
  9
$LIMMAX
 10
2100.0
 20
1485.0
  9
$LTSCALE
 40
1.0
  9
$PDMODE
 70
     0
  0
ENDSEC
  0
SECTION
  2
TABLES
  0
TABLE
  2
VPORT
 70
     1
  0
VPORT
  2
*ACTIVE
 70
     0
 10
0.0
 20
0.0
 11
1.0
 21
1.0
 12
1050.0
 22
742.5
 13
0.0
 23
0.0
 14
10.0
 24
10.0
 15
10.0
 25
10.0
 16
0.0
 26
0.0
 36
1.0
 17
0.0
 27
0.0
 37
0.0
 40
2100.0
 41
1.414141414
 42
50.0
 43
0.0
 44
0.0
 50
0.0
 51
0.0
 71
     0
 72
  1000
 73
     1
 74
     3
 75
     0
 76
     0
 77
     0
 78
     0
  0
ENDTAB
  0
TABLE
  2
LTYPE
 70
     8
  0
LTYPE
  2
CONTINUOUS
 70
    64
  3
Solid line
 72
    65
 73
     0
 40
0.0
  0
LTYPE
  2
LTYPE1
 70
    64
  3
HIDDEN
 72
    65
 73
     2
 40
15.0
 49
9.0
 49
-6.0
  0
LTYPE
  2
LTYPE2
 70
    64
  3
CENTER
 72
    65
 73
     4
 40
75.0
 49
52.5
 49
-7.5
 49
7.5
 49
-7.5
  0
LTYPE
  2
LTYPE3
 70
    64
  3
CENTER
 72
    65
 73
     4
 40
50.0
 49
35.0
 49
-5.0
 49
5.0
 49
-5.0
  0
LTYPE
  2
LTYPE4
 70
    64
  3
CENTER
 72
    65
 73
     4
 40
45.0
 49
31.5
 49
-4.5
 49
4.5
 49
-4.5
  0
LTYPE
  2
LTYPE5
 70
    64
  3
CENTER
 72
    65
 73
     4
 40
100.0
 49
70.0
 49
-10.0
 49
10.0
 49
-10.0
  0
LTYPE
  2
LTYPE6
 70
    64
  3
PHANTOM
 72
    65
 73
     6
 40
75.0
 49
56.25
 49
-3.75
 49
3.75
 49
-3.75
 49
3.75
 49
-3.75
  0
LTYPE
  2
LTYPE7
 70
    64
  3
PHANTOM
 72
    65
 73
     6
 40
50.0
 49
37.5
 49
-2.5
 49
2.5
 49
-2.5
 49
2.5
 49
-2.5
  0
ENDTAB
  0
TABLE
  2
LAYER
 70
   128
  0
LAYER
  2
0
 70
     0
 62
     7
  6
CONTINUOUS
  0
LAYER
  2
2
 70
     0
 62
     7
  6
CONTINUOUS
  0
LAYER
  2
3
 70
     0
 62
     7
  6
CONTINUOUS
  0
LAYER
  2
4
 70
     0
 62
     7
  6
CONTINUOUS
  0
LAYER
  2
5
 70
     0
 62
     7
  6
CONTINUOUS
  0
LAYER
  2
6
 70
     0
 62
     7
  6
CONTINUOUS
  0
LAYER
  2
7
 70
     0
 62
     7
  6
CONTINUOUS
  0
LAYER
  2
8
 70
     0
 62
     7
  6
CONTINUOUS
  0
LAYER
  2
9
 70
     0
 62
     7
  6
CONTINUOUS
  0
LAYER
  2
10
 70
     0
 62
     7
  6
CONTINUOUS
  0
LAYER
  2
11
 70
     0
 62
     7
  6
CONTINUOUS
  0
LAYER
  2
12
 70
     0
 62
     7
  6
CONTINUOUS
  0
LAYER
  2
13
 70
     0
 62
     7
  6
CONTINUOUS
  0
LAYER
  2
14
 70
     0
 62
     7
  6
CONTINUOUS
  0
LAYER
  2
15
 70
     0
 62
     7
  6
CONTINUOUS
  0
LAYER
  2
16
 70
     0
 62
     7
  6
CONTINUOUS
  0
LAYER
  2
17
 70
     0
 62
     7
  6
CONTINUOUS
  0
LAYER
  2
18
 70
     0
 62
     7
  6
CONTINUOUS
  0
LAYER
  2
19
 70
     0
 62
     7
  6
CONTINUOUS
  0
LAYER
  2
20
 70
     0
 62
     7
  6
CONTINUOUS
  0
LAYER
  2
21
 70
     0
 62
     7
  6
CONTINUOUS
  0
LAYER
  2
22
 70
     0
 62
     7
  6
CONTINUOUS
  0
LAYER
  2
23
 70
     0
 62
     7
  6
CONTINUOUS
  0
LAYER
  2
24
 70
     0
 62
     7
  6
CONTINUOUS
  0
LAYER
  2
25
 70
     0
 62
     7
  6
CONTINUOUS
  0
LAYER
  2
26
 70
     0
 62
     7
  6
CONTINUOUS
  0
LAYER
  2
27
 70
     0
 62
     7
  6
CONTINUOUS
  0
LAYER
  2
28
 70
     0
 62
     7
  6
CONTINUOUS
  0
LAYER
  2
29
 70
     0
 62
     7
  6
CONTINUOUS
  0
LAYER
  2
30
 70
     0
 62
     7
  6
CONTINUOUS
  0
LAYER
  2
31
 70
     0
 62
     7
  6
CONTINUOUS
  0
LAYER
  2
32
 70
     0
 62
     7
  6
CONTINUOUS
  0
LAYER
  2
33
 70
     0
 62
     7
  6
CONTINUOUS
  0
LAYER
  2
34
 70
     0
 62
     7
  6
CONTINUOUS
  0
LAYER
  2
35
 70
     0
 62
     7
  6
CONTINUOUS
  0
LAYER
  2
36
 70
     0
 62
     7
  6
CONTINUOUS
  0
LAYER
  2
37
 70
     0
 62
     7
  6
CONTINUOUS
  0
LAYER
  2
38
 70
     0
 62
     7
  6
CONTINUOUS
  0
LAYER
  2
39
 70
     0
 62
     7
  6
CONTINUOUS
  0
LAYER
  2
40
 70
     0
 62
     7
  6
CONTINUOUS
  0
LAYER
  2
41
 70
     0
 62
     7
  6
CONTINUOUS
  0
LAYER
  2
42
 70
     0
 62
     7
  6
CONTINUOUS
  0
LAYER
  2
43
 70
     0
 62
     7
  6
CONTINUOUS
  0
LAYER
  2
44
 70
     0
 62
     7
  6
CONTINUOUS
  0
LAYER
  2
45
 70
     0
 62
     7
  6
CONTINUOUS
  0
LAYER
  2
46
 70
     0
 62
     7
  6
CONTINUOUS
  0
LAYER
  2
47
 70
     0
 62
     7
  6
CONTINUOUS
  0
LAYER
  2
48
 70
     0
 62
     7
  6
CONTINUOUS
  0
LAYER
  2
49
 70
     0
 62
     7
  6
CONTINUOUS
  0
LAYER
  2
50
 70
     0
 62
     7
  6
CONTINUOUS
  0
LAYER
  2
51
 70
     0
 62
     7
  6
CONTINUOUS
  0
LAYER
  2
52
 70
     0
 62
     7
  6
CONTINUOUS
  0
LAYER
  2
53
 70
     0
 62
     7
  6
CONTINUOUS
  0
LAYER
  2
54
 70
     0
 62
     7
  6
CONTINUOUS
  0
LAYER
  2
55
 70
     0
 62
     7
  6
CONTINUOUS
  0
LAYER
  2
56
 70
     0
 62
     7
  6
CONTINUOUS
  0
LAYER
  2
57
 70
     0
 62
     7
  6
CONTINUOUS
  0
LAYER
  2
58
 70
     0
 62
     7
  6
CONTINUOUS
  0
LAYER
  2
59
 70
     0
 62
     7
  6
CONTINUOUS
  0
LAYER
  2
60
 70
     0
 62
     7
  6
CONTINUOUS
  0
LAYER
  2
61
 70
     0
 62
     7
  6
CONTINUOUS
  0
LAYER
  2
62
 70
     0
 62
     7
  6
CONTINUOUS
  0
LAYER
  2
63
 70
     0
 62
     7
  6
CONTINUOUS
  0
LAYER
  2
64
 70
     0
 62
     7
  6
CONTINUOUS
  0
LAYER
  2
65
 70
     0
 62
     7
  6
CONTINUOUS
  0
LAYER
  2
66
 70
     0
 62
     7
  6
CONTINUOUS
  0
LAYER
  2
67
 70
     0
 62
     7
  6
CONTINUOUS
  0
LAYER
  2
68
 70
     0
 62
     7
  6
CONTINUOUS
  0
LAYER
  2
69
 70
     0
 62
     7
  6
CONTINUOUS
  0
LAYER
  2
70
 70
     0
 62
     7
  6
CONTINUOUS
  0
LAYER
  2
71
 70
     0
 62
     7
  6
CONTINUOUS
  0
LAYER
  2
72
 70
     0
 62
     7
  6
CONTINUOUS
  0
LAYER
  2
73
 70
     0
 62
     7
  6
CONTINUOUS
  0
LAYER
  2
74
 70
     0
 62
     7
  6
CONTINUOUS
  0
LAYER
  2
75
 70
     0
 62
     7
  6
CONTINUOUS
  0
LAYER
  2
76
 70
     0
 62
     7
  6
CONTINUOUS
  0
LAYER
  2
77
 70
     0
 62
     7
  6
CONTINUOUS
  0
LAYER
  2
78
 70
     0
 62
     7
  6
CONTINUOUS
  0
LAYER
  2
79
 70
     0
 62
     7
  6
CONTINUOUS
  0
LAYER
  2
80
 70
     0
 62
     7
  6
CONTINUOUS
  0
LAYER
  2
81
 70
     0
 62
     7
  6
CONTINUOUS
  0
LAYER
  2
82
 70
     0
 62
     7
  6
CONTINUOUS
  0
LAYER
  2
83
 70
     0
 62
     7
  6
CONTINUOUS
  0
LAYER
  2
84
 70
     0
 62
     7
  6
CONTINUOUS
  0
LAYER
  2
85
 70
     0
 62
     7
  6
CONTINUOUS
  0
LAYER
  2
86
 70
     0
 62
     7
  6
CONTINUOUS
  0
LAYER
  2
87
 70
     0
 62
     7
  6
CONTINUOUS
  0
LAYER
  2
88
 70
     0
 62
     7
  6
CONTINUOUS
  0
LAYER
  2
89
 70
     0
 62
     7
  6
CONTINUOUS
  0
LAYER
  2
90
 70
     0
 62
     7
  6
CONTINUOUS
  0
LAYER
  2
91
 70
     0
 62
     7
  6
CONTINUOUS
  0
LAYER
  2
92
 70
     0
 62
     7
  6
CONTINUOUS
  0
LAYER
  2
93
 70
     0
 62
     7
  6
CONTINUOUS
  0
LAYER
  2
94
 70
     0
 62
     7
  6
CONTINUOUS
  0
LAYER
  2
95
 70
     0
 62
     7
  6
CONTINUOUS
  0
LAYER
  2
96
 70
     0
 62
     7
  6
CONTINUOUS
  0
LAYER
  2
97
 70
     0
 62
     7
  6
CONTINUOUS
  0
LAYER
  2
98
 70
     0
 62
     7
  6
CONTINUOUS
  0
LAYER
  2
99
 70
     0
 62
     7
  6
CONTINUOUS
  0
LAYER
  2
100
 70
     0
 62
     7
  6
CONTINUOUS
  0
LAYER
  2
101
 70
     0
 62
     7
  6
CONTINUOUS
  0
LAYER
  2
102
 70
     0
 62
     7
  6
CONTINUOUS
  0
LAYER
  2
103
 70
     0
 62
     7
  6
CONTINUOUS
  0
LAYER
  2
104
 70
     0
 62
     7
  6
CONTINUOUS
  0
LAYER
  2
105
 70
     0
 62
     7
  6
CONTINUOUS
  0
LAYER
  2
106
 70
     0
 62
     7
  6
CONTINUOUS
  0
LAYER
  2
107
 70
     0
 62
     7
  6
CONTINUOUS
  0
LAYER
  2
108
 70
     0
 62
     7
  6
CONTINUOUS
  0
LAYER
  2
109
 70
     0
 62
     7
  6
CONTINUOUS
  0
LAYER
  2
110
 70
     0
 62
     7
  6
CONTINUOUS
  0
LAYER
  2
111
 70
     0
 62
     7
  6
CONTINUOUS
  0
LAYER
  2
112
 70
     0
 62
     7
  6
CONTINUOUS
  0
LAYER
  2
113
 70
     0
 62
     7
  6
CONTINUOUS
  0
LAYER
  2
114
 70
     0
 62
     7
  6
CONTINUOUS
  0
LAYER
  2
115
 70
     0
 62
     7
  6
CONTINUOUS
  0
LAYER
  2
116
 70
     0
 62
     7
  6
CONTINUOUS
  0
LAYER
  2
117
 70
     0
 62
     7
  6
CONTINUOUS
  0
LAYER
  2
118
 70
     0
 62
     7
  6
CONTINUOUS
  0
LAYER
  2
119
 70
     0
 62
     7
  6
CONTINUOUS
  0
LAYER
  2
120
 70
     0
 62
     7
  6
CONTINUOUS
  0
LAYER
  2
121
 70
     0
 62
     7
  6
CONTINUOUS
  0
LAYER
  2
122
 70
     0
 62
     7
  6
CONTINUOUS
  0
LAYER
  2
123
 70
     0
 62
     7
  6
CONTINUOUS
  0
LAYER
  2
124
 70
     0
 62
     7
  6
CONTINUOUS
  0
LAYER
  2
125
 70
     0
 62
     7
  6
CONTINUOUS
  0
LAYER
  2
126
 70
     0
 62
     7
  6
CONTINUOUS
  0
LAYER
  2
127
 70
     0
 62
     7
  6
CONTINUOUS
  0
LAYER
  2
128
 70
     0
 62
     7
  6
CONTINUOUS
  0
ENDTAB
  0
TABLE
  2
STYLE
 70
    82
  0
STYLE
  2
STANDARD
 70
     0
 40
0.0
 41
1.0
 50
0.0
 71
     0
 42
0.2
  3
txt.shx
  4
extfont.shx
  0
STYLE
  2
KANJI0
 70
     0
 40
9.999997897
 41
0.6
 50
0.0
 71
     0
 42
9.999997897
  3
txt.shx
  4
extfont.shx
  0
STYLE
  2
KANJI1
 70
     0
 40
11.999997477
 41
0.9
 50
0.0
 71
     0
 42
11.999997477
  3
txt.shx
  4
extfont.shx
  0
STYLE
  2
KANJI2
 70
     0
 40
14.999996846
 41
0.9
 50
0.0
 71
     0
 42
14.999996846
  3
txt.shx
  4
extfont.shx
  0
STYLE
  2
KANJI3
 70
     0
 40
12.999999
 41
0.75
 50
0.0
 71
     0
 42
12.999999
  3
txt.shx
  4
extfont.shx
  0
STYLE
  2
KANJI4
 70
     0
 40
8.666666
 41
0.6
 50
0.0
 71
     0
 42
8.666666
  3
txt.shx
  4
extfont.shx
  0
STYLE
  2
KANJI5
 70
     0
 40
10.3999992
 41
0.6
 50
0.0
 71
     0
 42
10.3999992
  3
txt.shx
  4
extfont.shx
  0
STYLE
  2
KANJI6
 70
     0
 40
15.1666655
 41
0.42031746
 50
0.0
 71
     0
 42
15.1666655
  3
txt.shx
  4
extfont.shx
  0
STYLE
  2
KANJI7
 70
     0
 40
25.999998
 41
0.9
 50
0.0
 71
     0
 42
25.999998
  3
txt.shx
  4
extfont.shx
  0
STYLE
  2
KANJI8
 70
     0
 40
8.666666
 41
0.8
 50
0.0
 71
     0
 42
8.666666
  3
txt.shx
  4
extfont.shx
  0
STYLE
  2
KANJI9
 70
     0
 40
10.3999992
 41
0.8
 50
0.0
 71
     0
 42
10.3999992
  3
txt.shx
  4
extfont.shx
  0
STYLE
  2
KANJI10
 70
     0
 40
25.0
 41
1.0
 50
0.0
 71
     0
 42
25.0
  3
txt.shx
  4
extfont.shx
  0
STYLE
  2
KANJI11
 70
     0
 40
25.0
 41
1.0
 50
0.0
 71
     0
 42
25.0
  3
txt.shx
  4
extfont.shx
  0
STYLE
  2
KANJI12
 70
     0
 40
25.0
 41
0.8
 50
0.0
 71
     0
 42
25.0
  3
txt.shx
  4
extfont.shx
  0
STYLE
  2
KANJI13
 70
     0
 40
20.0
 41
1.0
 50
0.0
 71
     0
 42
20.0
  3
txt.shx
  4
extfont.shx
  0
STYLE
  2
KANJI14
 70
     0
 40
18.0
 41
1.111111111
 50
0.0
 71
     0
 42
18.0
  3
txt.shx
  4
extfont.shx
  0
STYLE
  2
KANJI15
 70
     0
 40
17.5
 41
0.857142857
 50
0.0
 71
     0
 42
17.5
  3
txt.shx
  4
extfont.shx
  0
STYLE
  2
KANJI16
 70
     0
 40
22.5
 41
0.666666667
 50
0.0
 71
     0
 42
22.5
  3
txt.shx
  4
extfont.shx
  0
STYLE
  2
KANJI17
 70
     0
 40
15.0
 41
1.0
 50
0.0
 71
     0
 42
15.0
  3
txt.shx
  4
extfont.shx
  0
STYLE
  2
KANJI18
 70
     0
 40
12.8
 41
0.9
 50
0.0
 71
     0
 42
12.8
  3
txt.shx
  4
extfont.shx
  0
STYLE
  2
KANJI19
 70
     0
 40
12.0
 41
0.9
 50
0.0
 71
     0
 42
12.0
  3
txt.shx
  4
extfont.shx
  0
STYLE
  2
KANJI20
 70
     0
 40
12.0
 41
0.9
 50
0.0
 71
     0
 42
12.0
  3
txt.shx
  4
extfont.shx
  0
STYLE
  2
KANJI21
 70
     0
 40
14.0
 41
0.9
 50
0.0
 71
     0
 42
14.0
  3
txt.shx
  4
extfont.shx
  0
STYLE
  2
KANJI22
 70
     0
 40
10.8
 41
0.740740741
 50
0.0
 71
     0
 42
10.8
  3
txt.shx
  4
extfont.shx
  0
STYLE
  2
KANJI23
 70
     0
 40
14.0
 41
0.857142857
 50
0.0
 71
     0
 42
14.0
  3
txt.shx
  4
extfont.shx
  0
STYLE
  2
KANJI24
 70
     0
 40
13.182
 41
0.85
 50
0.0
 71
     0
 42
13.182
  3
txt.shx
  4
extfont.shx
  0
STYLE
  2
KANJI25
 70
     0
 40
11.661
 41
0.822608696
 50
0.0
 71
     0
 42
11.661
  3
txt.shx
  4
extfont.shx
  0
STYLE
  2
KANJI26
 70
     0
 40
11.8638
 41
0.726495726
 50
0.0
 71
     0
 42
11.8638
  3
txt.shx
  4
extfont.shx
  0
STYLE
  2
KANJI27
 70
     4
 40
45.0
 41
0.538166667
 50
0.0
 71
     0
 42
45.0
  3
txt.shx
  4
extfont.shx
  0
STYLE
  2
KANJI28
 70
     0
 40
17.5
 41
0.793650794
 50
0.0
 71
     0
 42
17.5
  3
txt.shx
  4
extfont.shx
  0
STYLE
  2
KANJI29
 70
     0
 40
25.0
 41
0.8
 50
0.0
 71
     0
 42
25.0
  3
txt.shx
  4
extfont.shx
  0
STYLE
  2
KANJI30
 70
     0
 40
12.0
 41
0.833333333
 50
0.0
 71
     0
 42
12.0
  3
txt.shx
  4
extfont.shx
  0
STYLE
  2
KANJI31
 70
     0
 40
11.55
 41
0.9
 50
0.0
 71
     0
 42
11.55
  3
txt.shx
  4
extfont.shx
  0
STYLE
  2
KANJI32
 70
     0
 40
17.740702234
 41
0.880962996
 50
0.0
 71
     0
 42
17.740702234
  3
txt.shx
  4
extfont.shx
  0
STYLE
  2
KANJI33
 70
     0
 40
11.7
 41
0.8
 50
0.0
 71
     0
 42
11.7
  3
txt.shx
  4
extfont.shx
  0
STYLE
  2
KANJI34
 70
     0
 40
15.0
 41
0.911
 50
0.0
 71
     0
 42
15.0
  3
txt.shx
  4
extfont.shx
  0
STYLE
  2
KANJI35
 70
     0
 40
13.475
 41
0.9
 50
0.0
 71
     0
 42
13.475
  3
txt.shx
  4
extfont.shx
  0
STYLE
  2
KANJI36
 70
     0
 40
10.933904043
 41
0.9
 50
0.0
 71
     0
 42
10.933904043
  3
txt.shx
  4
extfont.shx
  0
STYLE
  2
KANJI37
 70
     0
 40
15.185977837
 41
0.66671875
 50
0.0
 71
     0
 42
15.185977837
  3
txt.shx
  4
extfont.shx
  0
STYLE
  2
KANJI38
 70
     0
 40
18.223173404
 41
0.9
 50
0.0
 71
     0
 42
18.223173404
  3
txt.shx
  4
extfont.shx
  0
STYLE
  2
KANJI39
 70
     0
 40
15.6
 41
0.925
 50
0.0
 71
     0
 42
15.6
  3
txt.shx
  4
extfont.shx
  0
STYLE
  2
KANJI40
 70
     0
 40
14.578538724
 41
0.9
 50
0.0
 71
     0
 42
14.578538724
  3
txt.shx
  4
extfont.shx
  0
STYLE
  2
KANJI41
 70
     0
 40
14.0
 41
0.771428571
 50
0.0
 71
     0
 42
14.0
  3
txt.shx
  4
extfont.shx
  0
STYLE
  2
KANJI42
 70
     0
 40
15.0
 41
0.9
 50
0.0
 71
     0
 42
15.0
  3
txt.shx
  4
extfont.shx
  0
STYLE
  2
KANJI43
 70
     0
 40
20.0
 41
0.925
 50
0.0
 71
     0
 42
20.0
  3
txt.shx
  4
extfont.shx
  0
STYLE
  2
KANJI44
 70
     0
 40
20.0
 41
0.925
 50
0.0
 71
     0
 42
20.0
  3
txt.shx
  4
extfont.shx
  0
STYLE
  2
KANJI45
 70
     0
 40
8.333333333
 41
0.85
 50
0.0
 71
     0
 42
8.333333333
  3
txt.shx
  4
extfont.shx
  0
STYLE
  2
KANJI46
 70
     0
 40
8.333333333
 41
0.75
 50
0.0
 71
     0
 42
8.333333333
  3
txt.shx
  4
extfont.shx
  0
STYLE
  2
KANJI47
 70
     0
 40
12.5
 41
0.9
 50
0.0
 71
     0
 42
12.5
  3
txt.shx
  4
extfont.shx
  0
STYLE
  2
KANJI48
 70
     0
 40
15.0
 41
0.9
 50
0.0
 71
     0
 42
15.0
  3
txt.shx
  4
extfont.shx
  0
STYLE
  2
KANJI49
 70
     0
 40
8.4
 41
0.9
 50
0.0
 71
     0
 42
8.4
  3
txt.shx
  4
extfont.shx
  0
STYLE
  2
KANJI50
 70
     0
 40
16.0
 41
0.925
 50
0.0
 71
     0
 42
16.0
  3
txt.shx
  4
extfont.shx
  0
STYLE
  2
KANJI51
 70
     0
 40
17.5
 41
0.9
 50
0.0
 71
     0
 42
17.5
  3
txt.shx
  4
extfont.shx
  0
STYLE
  2
KANJI52
 70
     0
 40
17.5
 41
0.9
 50
0.0
 71
     0
 42
17.5
  3
txt.shx
  4
extfont.shx
  0
STYLE
  2
KANJI53
 70
     0
 40
17.5
 41
0.9
 50
0.0
 71
     0
 42
17.5
  3
txt.shx
  4
extfont.shx
  0
STYLE
  2
KANJI54
 70
     0
 40
17.5
 41
0.9
 50
0.0
 71
     0
 42
17.5
  3
txt.shx
  4
extfont.shx
  0
STYLE
  2
KANJI55
 70
     0
 40
22.5
 41
0.9
 50
0.0
 71
     0
 42
22.5
  3
txt.shx
  4
extfont.shx
  0
STYLE
  2
KANJI56
 70
     0
 40
17.5
 41
0.9
 50
0.0
 71
     0
 42
17.5
  3
txt.shx
  4
extfont.shx
  0
STYLE
  2
KANJI57
 70
     0
 40
17.5
 41
0.9
 50
0.0
 71
     0
 42
17.5
  3
txt.shx
  4
extfont.shx
  0
STYLE
  2
KANJI58
 70
     0
 40
17.5
 41
0.9
 50
0.0
 71
     0
 42
17.5
  3
txt.shx
  4
extfont.shx
  0
STYLE
  2
KANJI59
 70
     0
 40
17.5
 41
0.9
 50
0.0
 71
     0
 42
17.5
  3
txt.shx
  4
extfont.shx
  0
STYLE
  2
KANJI60
 70
     0
 40
17.5
 41
0.9
 50
0.0
 71
     0
 42
17.5
  3
txt.shx
  4
extfont.shx
  0
STYLE
  2
KANJI61
 70
     4
 40
17.5
 41
0.9
 50
0.0
 71
     0
 42
17.5
  3
txt.shx
  4
extfont.shx
  0
STYLE
  2
KANJI62
 70
     4
 40
15.0
 41
0.9
 50
0.0
 71
     0
 42
15.0
  3
txt.shx
  4
extfont.shx
  0
STYLE
  2
KANJI63
 70
     0
 40
12.5
 41
0.8
 50
0.0
 71
     0
 42
12.5
  3
txt.shx
  4
extfont.shx
  0
STYLE
  2
KANJI64
 70
     0
 40
17.5
 41
0.9
 50
0.0
 71
     0
 42
17.5
  3
txt.shx
  4
extfont.shx
  0
STYLE
  2
KANJI65
 70
     0
 40
15.0
 41
0.9
 50
0.0
 71
     0
 42
15.0
  3
txt.shx
  4
extfont.shx
  0
STYLE
  2
KANJI66
 70
     0
 40
15.0
 41
0.857142857
 50
0.0
 71
     0
 42
15.0
  3
txt.shx
  4
extfont.shx
  0
STYLE
  2
KANJI67
 70
     0
 40
17.5
 41
0.9
 50
0.0
 71
     0
 42
17.5
  3
txt.shx
  4
extfont.shx
  0
STYLE
  2
KANJI68
 70
     0
 40
14.0
 41
0.9
 50
0.0
 71
     0
 42
14.0
  3
txt.shx
  4
extfont.shx
  0
STYLE
  2
KANJI69
 70
     0
 40
14.0
 41
0.785714286
 50
0.0
 71
     0
 42
14.0
  3
txt.shx
  4
extfont.shx
  0
STYLE
  2
KANJI70
 70
     0
 40
14.0
 41
0.8
 50
0.0
 71
     0
 42
14.0
  3
txt.shx
  4
extfont.shx
  0
STYLE
  2
KANJI71
 70
     0
 40
17.5
 41
0.9
 50
0.0
 71
     0
 42
17.5
  3
txt.shx
  4
extfont.shx
  0
STYLE
  2
KANJI72
 70
     0
 40
15.0
 41
0.8
 50
0.0
 71
     0
 42
15.0
  3
txt.shx
  4
extfont.shx
  0
STYLE
  2
KANJI73
 70
     0
 40
15.0
 41
0.9
 50
0.0
 71
     0
 42
15.0
  3
txt.shx
  4
extfont.shx
  0
STYLE
  2
KANJI74
 70
     0
 40
17.5
 41
0.9
 50
0.0
 71
     0
 42
17.5
  3
txt.shx
  4
extfont.shx
  0
STYLE
  2
KANJI75
 70
     0
 40
15.0
 41
0.833333333
 50
0.0
 71
     0
 42
15.0
  3
txt.shx
  4
extfont.shx
  0
STYLE
  2
KANJI76
 70
     0
 40
15.0
 41
0.833333333
 50
0.0
 71
     0
 42
15.0
  3
txt.shx
  4
extfont.shx
  0
STYLE
  2
KANJI77
 70
     0
 40
17.5
 41
0.9
 50
0.0
 71
     0
 42
17.5
  3
txt.shx
  4
extfont.shx
  0
STYLE
  2
KANJI78
 70
     0
 40
20.0
 41
0.9
 50
0.0
 71
     0
 42
20.0
  3
txt.shx
  4
extfont.shx
  0
STYLE
  2
KANJI79
 70
     0
 40
17.5
 41
0.857142857
 50
0.0
 71
     0
 42
17.5
  3
txt.shx
  4
extfont.shx
  0
STYLE
  2
KANJI80
 70
     0
 40
17.5
 41
0.571428571
 50
0.0
 71
     0
 42
17.5
  3
txt.shx
  4
extfont.shx
  0
ENDTAB
  0
TABLE
  2
VIEW
 70
     0
  0
ENDTAB
  0
ENDSEC
  0
SECTION
  2
BLOCKS
  0
ENDSEC
  0
SECTION
  2
ENTITIES
  0
LINE
  8
0
  6
CONTINUOUS
 62
     6
 10
77.25
 20
58.0
 30
0.0
 11
77.25
 21
1403.0
 31
0.0
  0
LINE
  8
0
  6
CONTINUOUS
 62
     6
 10
77.25
 20
1403.0
 30
0.0
 11
2012.25
 21
1403.0
 31
0.0
  0
TEXT
  8
0
  6
CONTINUOUS
 62
     4
 10
92.249996846
 20
82.999994744
 30
0.99999979
 40
9.999997897
  1
ＰＡＲＴＳ　ＬＩＳＴ
 50
0.0
 41
0.6
 51
0.0
  7
KANJI0
  0
TEXT
  8
0
  6
CONTINUOUS
 62
     4
 10
92.249996846
 20
67.999997897
 30
1.199999748
 40
11.999997477
  1
部品表
 50
0.0
 41
0.9
 51
0.0
  7
KANJI1
  0
LINE
  8
0
  6
CONTINUOUS
 62
     6
 10
2012.25
 20
58.0
 30
0.0
 11
77.25
 21
58.0
 31
0.0
  0
LINE
  8
0
  6
CONTINUOUS
 62
     6
 10
82.249998949
 20
132.999984231
 30
0.0
 11
407.249930615
 21
132.999984231
 31
0.0
  0
LINE
  8
0
  6
CONTINUOUS
 62
     6
 10
82.249998949
 20
62.999998949
 30
0.0
 11
407.249930615
 21
62.999998949
 31
0.0
  0
LINE
  8
0
  6
CONTINUOUS
 62
     6
 10
82.249998949
 20
62.999998949
 30
0.0
 11
82.249998949
 21
132.999984231
 31
0.0
  0
LINE
  8
0
  6
CONTINUOUS
 62
     6
 10
82.249998949
 20
97.99999159
 30
0.0
 11
407.249930615
 21
97.99999159
 31
0.0
  0
TEXT
  8
0
  6
CONTINUOUS
 62
     2
 10
92.249996846
 20
107.999989487
 30
1.499999685
 40
14.999996846
  1
ＰＬ
 50
0.0
 41
0.9
 51
0.0
  7
KANJI2
  0
LINE
  8
0
  6
CONTINUOUS
 62
     4
 10
20.333333
 20
62.333333
 30
0.0
 11
72.333329
 21
62.333333
 31
0.0
  0
LINE
  8
0
  6
CONTINUOUS
 62
     4
 10
20.333333
 20
88.333331
 30
0.0
 11
72.333329
 21
88.333331
 31
0.0
  0
LINE
  8
0
  6
CONTINUOUS
 62
     4
 10
20.333333
 20
114.333329
 30
0.0
 11
72.333329
 21
114.333329
 31
0.0
  0
LINE
  8
0
  6
CONTINUOUS
 62
     4
 10
20.333333
 20
140.333327
 30
0.0
 11
72.333329
 21
140.333327
 31
0.0
  0
LINE
  8
0
  6
CONTINUOUS
 62
     4
 10
20.333333
 20
166.333325
 30
0.0
 11
72.333329
 21
166.333325
 31
0.0
  0
LINE
  8
0
  6
CONTINUOUS
 62
     4
 10
20.333333
 20
192.333323
 30
0.0
 11
72.333329
 21
192.333323
 31
0.0
  0
LINE
  8
0
  6
CONTINUOUS
 62
     4
 10
20.333333
 20
218.333321
 30
0.0
 11
72.333329
 21
218.333321
 31
0.0
  0
LINE
  8
0
  6
CONTINUOUS
 62
     4
 10
20.333333
 20
244.333319
 30
0.0
 11
72.333329
 21
244.333319
 31
0.0
  0
LINE
  8
0
  6
CONTINUOUS
 62
     4
 10
20.333333
 20
270.333317
 30
0.0
 11
72.333329
 21
270.333317
 31
0.0
  0
LINE
  8
0
  6
CONTINUOUS
 62
     4
 10
20.333333
 20
296.333315
 30
0.0
 11
72.333329
 21
296.333315
 31
0.0
  0
LINE
  8
0
  6
CONTINUOUS
 62
     4
 10
72.333329
 20
62.333333
 30
0.0
 11
72.333329
 21
296.333315
 31
0.0
  0
LINE
  8
0
  6
CONTINUOUS
 62
     4
 10
46.333331
 20
62.333333
 30
0.0
 11
46.333331
 21
270.333317
 31
0.0
  0
TEXT
  8
0
  6
CONTINUOUS
 62
     4
 10
29.21666565
 20
69.91666575
 30
1.2999999
 40
12.999999
  1
計
 50
0.0
 41
0.75
 51
0.0
  7
KANJI3
  0
TEXT
  8
0
  6
CONTINUOUS
 62
     4
 10
29.21666565
 20
122.34999505
 30
1.2999999
 40
12.999999
  1
設
 50
0.0
 41
0.75
 51
0.0
  7
KANJI3
  0
TEXT
  8
0
  6
CONTINUOUS
 62
     4
 10
29.21666565
 20
147.91665975
 30
1.2999999
 40
12.999999
  1
管
 50
0.0
 41
0.75
 51
0.0
  7
KANJI3
  0
TEXT
  8
0
  6
CONTINUOUS
 62
     4
 10
29.21666565
 20
173.91665775
 30
1.2999999
 40
12.999999
  1
製
 50
0.0
 41
0.75
 51
0.0
  7
KANJI3
  0
TEXT
  8
0
  6
CONTINUOUS
 62
     4
 10
29.21666565
 20
199.91665575
 30
1.2999999
 40
12.999999
  1
資
 50
0.0
 41
0.75
 51
0.0
  7
KANJI3
  0
TEXT
  8
0
  6
CONTINUOUS
 62
     4
 10
29.21666565
 20
225.91665375
 30
1.2999999
 40
12.999999
  1
営
 50
0.0
 41
0.75
 51
0.0
  7
KANJI3
  0
TEXT
  8
0
  6
CONTINUOUS
 62
     4
 10
29.21666565
 20
251.91665175
 30
1.2999999
 40
12.999999
  1
客
 50
0.0
 41
0.75
 51
0.0
  7
KANJI3
  0
TEXT
  8
0
  6
CONTINUOUS
 62
     4
 10
28.999999
 20
278.999983
 30
1.2999999
 40
12.999999
  1
出　図
 50
0.0
 41
0.75
 51
0.0
  7
KANJI3
  0
LINE
  8
0
  6
CONTINUOUS
 62
     4
 10
20.333333
 20
62.333333
 30
0.0
 11
20.333333
 21
296.333315
 31
0.0
  0
TEXT
  8
0
  6
CONTINUOUS
 62
     4
 10
317.249949538
 20
82.999994744
 30
0.99999979
 40
9.999997897
  1
Ｎ０．
 50
0.0
 41
0.6
 51
0.0
  7
KANJI0
  0
TEXT
  8
0
  6
CONTINUOUS
 62
     4
 10
317.249949538
 20
67.999997897
 30
1.199999748
 40
11.999997477
  1
項番
 50
0.0
 41
0.9
 51
0.0
  7
KANJI1
  0
LINE
  8
0
  6
CONTINUOUS
 62
     6
 10
407.249930615
 20
62.999998949
 30
0.0
 11
407.249930615
 21
132.999984231
 31
0.0
  0
LINE
  8
0
  6
CONTINUOUS
 62
     6
 10
307.249951641
 20
62.999998949
 30
0.0
 11
307.249951641
 21
132.999984231
 31
0.0
  0
LINE
  8
0
  6
CONTINUOUS
 62
     4
 10
1340.583385
 20
96.999997
 30
0.0
 11
1498.7500395
 21
96.999997
 31
0.0
  0
TEXT
  8
0
  6
CONTINUOUS
 62
     4
 10
1349.250051
 20
81.8333315
 30
0.8666666
 40
8.666666
  1
ＳＣＡＬＥ
 50
0.0
 41
0.6
 51
0.0
  7
KANJI4
  0
TEXT
  8
0
  6
CONTINUOUS
 62
     4
 10
1349.250051
 20
116.4999955
 30
0.8666666
 40
8.666666
  1
ＤＡＴＥ
 50
0.0
 41
0.6
 51
0.0
  7
KANJI4
  0
TEXT
  8
0
  6
CONTINUOUS
 62
     4
 10
1349.250051
 20
68.8333325
 30
1.03999992
 40
10.3999992
  1
尺度
 50
0.0
 41
0.6
 51
0.0
  7
KANJI5
  0
TEXT
  8
0
  6
CONTINUOUS
 62
     4
 10
1349.250051
 20
103.4999965
 30
1.03999992
 40
10.3999992
  1
日付
 50
0.0
 41
0.6
 51
0.0
  7
KANJI5
  0
TEXT
  8
0
  6
CONTINUOUS
 62
     4
 10
1108.7500695
 20
81.8333315
 30
0.8666666
 40
8.666666
  1
ＢＹ
 50
0.0
 41
0.6
 51
0.0
  7
KANJI4
  0
TEXT
  8
0
  6
CONTINUOUS
 62
     4
 10
1204.0833955
 20
81.8333315
 30
0.8666666
 40
8.666666
  1
ＤＥＳＣＲＩＰＴＩＯＮ
 50
0.0
 41
0.6
 51
0.0
  7
KANJI4
  0
TEXT
  8
0
  6
CONTINUOUS
 62
     4
 10
1108.7500695
 20
68.8333325
 30
1.03999992
 40
10.3999992
  1
担当
 50
0.0
 41
0.6
 51
0.0
  7
KANJI5
  0
TEXT
  8
0
  6
CONTINUOUS
 62
     4
 10
1217.0833945
 20
68.8333325
 30
1.03999992
 40
10.3999992
  1
記　　　　事
 50
0.0
 41
0.6
 51
0.0
  7
KANJI5
  0
LINE
  8
0
  6
CONTINUOUS
 62
     4
 10
1016.66674325
 20
90.4999975
 30
0.0
 11
1002.583411
 21
68.8333325
 31
0.0
  0
TEXT
  8
0
  6
CONTINUOUS
 62
     4
 10
1052.4167405
 20
81.8333315
 30
0.8666666
 40
8.666666
  1
ＤＡＴＥ
 50
0.0
 41
0.6
 51
0.0
  7
KANJI4
  0
TEXT
  8
0
  6
CONTINUOUS
 62
     4
 10
1058.91674
 20
68.8333325
 30
1.03999992
 40
10.3999992
  1
日付
 50
0.0
 41
0.6
 51
0.0
  7
KANJI5
  0
LINE
  8
0
  6
CONTINUOUS
 62
     4
 10
1002.583411
 20
68.8333325
 30
0.0
 11
1030.7500755
 21
68.8333325
 31
0.0
  0
LINE
  8
0
  6
CONTINUOUS
 62
     4
 10
1016.66674325
 20
90.4999975
 30
0.0
 11
1030.7500755
 21
68.8333325
 31
0.0
  0
LINE
  8
0
  6
CONTINUOUS
 62
     4
 10
1498.7500395
 20
116.4999955
 30
0.0
 11
2007.916667
 21
116.4999955
 31
0.0
  0
LINE
  8
0
  6
LTYPE1
 62
     4
 10
1862.7500115
 20
122.999995
 30
0.0
 11
1862.7500115
 21
157.666659
 31
0.0
  0
LINE
  8
0
  6
LTYPE1
 62
     4
 10
1832.4166805
 20
122.999995
 30
0.0
 11
1832.4166805
 21
157.666659
 31
0.0
  0
LINE
  8
0
  6
LTYPE1
 62
     4
 10
1802.0833495
 20
122.999995
 30
0.0
 11
1802.0833495
 21
157.666659
 31
0.0
  0
LINE
  8
0
  6
LTYPE1
 62
     4
 10
1771.7500185
 20
122.999995
 30
0.0
 11
1771.7500185
 21
157.666659
 31
0.0
  0
LINE
  8
0
  6
LTYPE1
 62
     4
 10
1741.4166875
 20
122.999995
 30
0.0
 11
1741.4166875
 21
157.666659
 31
0.0
  0
LINE
  8
0
  6
LTYPE1
 62
     4
 10
1711.0833565
 20
122.999995
 30
0.0
 11
1711.0833565
 21
157.666659
 31
0.0
  0
LINE
  8
0
  6
LTYPE1
 62
     4
 10
1680.7500255
 20
122.999995
 30
0.0
 11
1680.7500255
 21
157.666659
 31
0.0
  0
LINE
  8
0
  6
LTYPE1
 62
     4
 10
1650.4166945
 20
122.999995
 30
0.0
 11
1650.4166945
 21
157.666659
 31
0.0
  0
LINE
  8
0
  6
LTYPE1
 62
     4
 10
1650.4166945
 20
122.999995
 30
0.0
 11
1862.7500115
 21
122.999995
 31
0.0
  0
LINE
  8
0
  6
CONTINUOUS
 62
     6
 10
2012.25
 20
1403.0
 30
0.0
 11
2012.25
 21
58.0
 31
0.0
  0
LINE
  8
0
  6
CONTINUOUS
 62
     6
 10
998.250078
 20
96.999997
 30
0.0
 11
1340.583385
 21
96.999997
 31
0.0
  0
LINE
  8
0
  6
CONTINUOUS
 62
     6
 10
998.250078
 20
62.333333
 30
0.0
 11
2007.916667
 21
62.333333
 31
0.0
  0
TEXT
  8
0
  6
CONTINUOUS
 62
     6
 10
1503.0833725
 20
81.8333315
 30
0.0
 40
15.1666655
  1
ＵＮＩＴＥＣ　ＩＮＤＵＳＴＲＹ　ＣＯ．，ＬＴＤ．
 50
0.0
 41
0.42031746
 51
0.0
  7
KANJI6
  0
TEXT
  8
0
  6
CONTINUOUS
 62
     6
 10
1715.795856138
 20
76.1999986
 30
2.5999998
 40
25.999998
  1
ユニテック工業株式会社
 50
0.0
 41
0.9
 51
0.0
  7
KANJI7
  0
LINE
  8
0
  6
CONTINUOUS
 62
     6
 10
998.250078
 20
62.333333
 30
0.0
 11
998.250078
 21
96.999997
 31
0.0
  0
LINE
  8
0
  6
CONTINUOUS
 62
     4
 10
1035.0834085
 20
62.333333
 30
0.0
 11
1035.0834085
 21
96.999997
 31
0.0
  0
LINE
  8
0
  6
CONTINUOUS
 62
     4
 10
1095.7500705
 20
62.333333
 30
0.0
 11
1095.7500705
 21
96.999997
 31
0.0
  0
LINE
  8
0
  6
CONTINUOUS
 62
     4
 10
1134.7500675
 20
62.333333
 30
0.0
 11
1134.7500675
 21
96.999997
 31
0.0
  0
LINE
  8
0
  6
CONTINUOUS
 62
     6
 10
1340.583385
 20
62.333333
 30
0.0
 11
1340.583385
 21
339.666645
 31
0.0
  0
LINE
  8
0
  6
CONTINUOUS
 62
     6
 10
2007.916667
 20
62.333333
 30
0.0
 11
2007.916667
 21
339.666645
 31
0.0
  0
LINE
  8
0
  6
CONTINUOUS
 62
     4
 10
1498.7500395
 20
62.333333
 30
0.0
 11
1498.7500395
 21
339.666645
 31
0.0
  0
LINE
  8
0
  6
CONTINUOUS
 62
     6
 10
1681.129192138
 20
85.2999979
 30
0.0
 11
1669.689193018
 21
85.2999979
 31
0.0
  0
LINE
  8
0
  6
CONTINUOUS
 62
     6
 10
1681.129192138
 20
87.37999774
 30
0.0
 11
1669.689193018
 21
87.37999774
 31
0.0
  0
LINE
  8
0
  6
CONTINUOUS
 62
     6
 10
1681.129192138
 20
85.2999979
 30
0.0
 11
1692.569191258
 21
85.2999979
 31
0.0
  0
LINE
  8
0
  6
CONTINUOUS
 62
     6
 10
1681.129192138
 20
87.37999774
 30
0.0
 11
1692.569191258
 21
87.37999774
 31
0.0
  0
LINE
  8
0
  6
CONTINUOUS
 62
     6
 10
1692.569191258
 20
87.37999774
 30
0.0
 11
1692.569191258
 21
85.2999979
 31
0.0
  0
ARC
  8
0
  6
CONTINUOUS
 62
     6
 10
1695.169191058
 20
86.33999782
 30
0.0
 40
10.3999992
 50
185.739170477
 51
90.0
  0
ARC
  8
0
  6
CONTINUOUS
 62
     6
 10
1695.169191058
 20
86.33999782
 30
0.0
 40
12.47999904
 50
184.780191847
 51
90.0
  0
LINE
  8
0
  6
CONTINUOUS
 62
     6
 10
1669.689193018
 20
85.2999979
 30
0.0
 11
1669.689193018
 21
87.37999774
 31
0.0
  0
LINE
  8
0
  6
CONTINUOUS
 62
     6
 10
1679.569192258
 20
98.81999686
 30
0.0
 11
1667.089193218
 21
98.81999686
 31
0.0
  0
LINE
  8
0
  6
CONTINUOUS
 62
     6
 10
1682.689192018
 20
98.81999686
 30
0.0
 11
1695.169191058
 21
98.81999686
 31
0.0
  0
ARC
  8
0
  6
CONTINUOUS
 62
     6
 10
1667.089193218
 20
86.33999782
 30
0.0
 40
10.3999992
 50
90.0
 51
354.260829523
  0
ARC
  8
0
  6
CONTINUOUS
 62
     6
 10
1667.089193218
 20
86.33999782
 30
0.0
 40
12.47999904
 50
90.0
 51
355.219808153
  0
LINE
  8
0
  6
CONTINUOUS
 62
     6
 10
1679.569192258
 20
98.81999686
 30
0.0
 11
1679.569192258
 21
96.73999702
 31
0.0
  0
LINE
  8
0
  6
CONTINUOUS
 62
     6
 10
1667.089193218
 20
96.73999702
 30
0.0
 11
1679.569192258
 21
96.73999702
 31
0.0
  0
LINE
  8
0
  6
CONTINUOUS
 62
     6
 10
1682.689192018
 20
98.81999686
 30
0.0
 11
1682.689192018
 21
96.73999702
 31
0.0
  0
LINE
  8
0
  6
CONTINUOUS
 62
     6
 10
1695.169191058
 20
96.73999702
 30
0.0
 11
1682.689192018
 21
96.73999702
 31
0.0
  0
TEXT
  8
0
  6
CONTINUOUS
 62
     4
 10
1349.250051
 20
151.1666595
 30
0.8666666
 40
8.666666
  1
ＤＲＡＷＮ
 50
0.0
 41
0.6
 51
0.0
  7
KANJI4
  0
TEXT
  8
0
  6
CONTINUOUS
 62
     4
 10
1349.250051
 20
185.8333235
 30
0.8666666
 40
8.666666
  1
ＤＥＳＩＧＮ
 50
0.0
 41
0.6
 51
0.0
  7
KANJI4
  0
TEXT
  8
0
  6
CONTINUOUS
 62
     4
 10
1349.250051
 20
220.4999875
 30
0.8666666
 40
8.666666
  1
ＣＨＥＣＫ
 50
0.0
 41
0.6
 51
0.0
  7
KANJI4
  0
TEXT
  8
0
  6
CONTINUOUS
 62
     4
 10
1349.250051
 20
255.1666515
 30
0.8666666
 40
8.666666
  1
ＣＯＤＥ
 50
0.0
 41
0.6
 51
0.0
  7
KANJI4
  0
LINE
  8
0
  6
CONTINUOUS
 62
     4
 10
1340.583385
 20
200.999989
 30
0.0
 11
1498.7500395
 21
200.999989
 31
0.0
  0
LINE
  8
0
  6
CONTINUOUS
 62
     4
 10
1340.583385
 20
166.333325
 30
0.0
 11
1498.7500395
 21
166.333325
 31
0.0
  0
LINE
  8
0
  6
CONTINUOUS
 62
     4
 10
1340.583385
 20
235.666653
 30
0.0
 11
1498.7500395
 21
235.666653
 31
0.0
  0
LINE
  8
0
  6
CONTINUOUS
 62
     4
 10
1340.583385
 20
270.333317
 30
0.0
 11
2007.916667
 21
270.333317
 31
0.0
  0
TEXT
  8
0
  6
CONTINUOUS
 62
     4
 10
1349.250051
 20
172.8333245
 30
1.03999992
 40
10.3999992
  1
設計
 50
0.0
 41
0.6
 51
0.0
  7
KANJI5
  0
TEXT
  8
0
  6
CONTINUOUS
 62
     4
 10
1349.250051
 20
207.4999885
 30
1.03999992
 40
10.3999992
  1
検図
 50
0.0
 41
0.6
 51
0.0
  7
KANJI5
  0
TEXT
  8
0
  6
CONTINUOUS
 62
     4
 10
1349.250051
 20
242.1666525
 30
1.03999992
 40
10.3999992
  1
分類
 50
0.0
 41
0.6
 51
0.0
  7
KANJI5
  0
LINE
  8
0
  6
CONTINUOUS
 62
     4
 10
1511.53337185
 20
235.666653
 30
0.0
 11
2007.916667
 21
235.666653
 31
0.0
  0
LINE
  8
0
  6
CONTINUOUS
 62
     4
 10
1498.7500395
 20
166.333325
 30
0.0
 11
2007.916667
 21
166.333325
 31
0.0
  0
TEXT
  8
0
  6
CONTINUOUS
 62
     4
 10
1507.4167055
 20
151.1666595
 30
0.8666666
 40
8.666666
  1
ＤＲＡＷＩＮＧ　ＮＯ．
 50
0.0
 41
0.8
 51
0.0
  7
KANJI8
  0
TEXT
  8
0
  6
CONTINUOUS
 62
     4
 10
1507.4167055
 20
185.8333235
 30
0.8666666
 40
8.666666
  1
ＭＦＧ　ＮＯ．
 50
0.0
 41
0.8
 51
0.0
  7
KANJI8
  0
TEXT
  8
0
  6
CONTINUOUS
 62
     4
 10
1507.4167055
 20
220.4999875
 30
0.8666666
 40
8.666666
  1
ＴＹＰＥ
 50
0.0
 41
0.8
 51
0.0
  7
KANJI8
  0
LINE
  8
0
  6
CONTINUOUS
 62
     4
 10
1511.7500385
 20
200.999989
 30
0.0
 11
1711.0833565
 21
200.999989
 31
0.0
  0
TEXT
  8
0
  6
CONTINUOUS
 62
     4
 10
1507.4167055
 20
135.999994
 30
1.03999992
 40
10.3999992
  1
図　面　番　号
 50
0.0
 41
0.8
 51
0.0
  7
KANJI9
  0
TEXT
  8
0
  6
CONTINUOUS
 62
     4
 10
1507.4167055
 20
170.666658
 30
1.03999992
 40
10.3999992
  1
製番
 50
0.0
 41
0.8
 51
0.0
  7
KANJI9
  0
TEXT
  8
0
  6
CONTINUOUS
 62
     4
 10
1507.4167055
 20
205.333322
 30
1.03999992
 40
10.3999992
  1
機種
 50
0.0
 41
0.8
 51
0.0
  7
KANJI9
  0
LINE
  8
0
  6
CONTINUOUS
 62
     4
 10
1340.583385
 20
131.666661
 30
0.0
 11
1498.7500395
 21
131.666661
 31
0.0
  0
TEXT
  8
0
  6
CONTINUOUS
 62
     4
 10
1349.250051
 20
138.1666605
 30
1.03999992
 40
10.3999992
  1
作図
 50
0.0
 41
0.6
 51
0.0
  7
KANJI5
  0
LINE
  8
0
  6
LTYPE1
 62
     4
 10
1650.4166945
 20
157.666659
 30
0.0
 11
1862.7500115
 21
157.666659
 31
0.0
  0
LINE
  8
0
  6
CONTINUOUS
 62
     4
 10
1880.0833435
 20
141.41666025
 30
0.0
 11
1888.7500095
 21
141.41666025
 31
0.0
  0
LINE
  8
0
  6
CONTINUOUS
 62
     4
 10
1934.250006
 20
128.41666125
 30
0.0
 11
1903.916675
 21
128.41666125
 31
0.0
  0
LINE
  8
0
  6
CONTINUOUS
 62
     4
 10
1903.916675
 20
128.41666125
 30
0.0
 11
1919.0833405
 21
154.41665925
 31
0.0
  0
LINE
  8
0
  6
CONTINUOUS
 62
     4
 10
1919.0833405
 20
154.41665925
 30
0.0
 11
1934.250006
 21
128.41666125
 31
0.0
  0
LINE
  8
0
  6
CONTINUOUS
 62
     4
 10
2007.916667
 20
304.999981
 30
0.0
 11
2007.916667
 21
339.666645
 31
0.0
  0
TEXT
  8
0
  6
CONTINUOUS
 62
     4
 10
1724.0833555
 20
220.4999875
 30
0.8666666
 40
8.666666
  1
ＴＩＴＬＥ
 50
0.0
 41
0.8
 51
0.0
  7
KANJI8
  0
TEXT
  8
0
  6
CONTINUOUS
 62
     4
 10
1724.0833555
 20
205.333322
 30
1.03999992
 40
10.3999992
  1
名称
 50
0.0
 41
0.8
 51
0.0
  7
KANJI9
  0
TEXT
  8
0
  6
CONTINUOUS
 62
     2
 10
1794.75
 20
173.0
 30
12.5
 40
25.0
  1
外形寸法図
 50
0.0
 41
1.0
 51
0.0
  7
KANJI10
  0
TEXT
  8
0
  6
CONTINUOUS
 62
     2
 10
1764.75
 20
203.0
 30
3.571428571
 40
25.0
  1
マイティシリンダ
 50
0.0
 41
1.0
 51
0.0
  7
KANJI11
  0
TEXT
  8
0
  6
CONTINUOUS
 62
     2
 10
1624.1666945
 20
127.999995
 30
1.5
 40
25.0
  1
Ａ
 50
0.0
 41
0.8
 51
0.0
  7
KANJI12
  0
CIRCLE
  8
0
  6
CONTINUOUS
 62
     2
 10
1591.6666945
 20
181.749995
 30
0.0
 40
12.5
  0
TEXT
  8
0
  6
CONTINUOUS
 62
     2
 10
1582.2916945
 20
172.374995
 30
1.5
 40
20.0
  1
Ｓ
 50
0.0
 41
1.0
 51
0.0
  7
KANJI13
  0
LINE
  8
0
  6
CONTINUOUS
 62
     6
 10
1341.208385
 20
304.999981
 30
0.0
 11
2008.541667
 21
304.999981
 31
0.0
  0
LINE
  8
0
  6
CONTINUOUS
 62
     6
 10
1340.583385
 20
339.666645
 30
0.0
 11
2007.916667
 21
339.666645
 31
0.0
  0
TEXT
  8
0
  6
CONTINUOUS
 62
     4
 10
1356.0
 20
310.166664
 30
5.0
 40
18.0
  1
ご用途
 50
0.0
 41
1.111111111
 51
0.0
  7
KANJI14
  0
TEXT
  8
0
  6
CONTINUOUS
 62
     4
 10
1356.0
 20
275.5
 30
5.0
 40
18.0
  1
ご注文主
 50
0.0
 41
1.111111111
 51
0.0
  7
KANJI14
  0
TEXT
  8
0
  6
CONTINUOUS
 62
     2
 10
1396.4166945
 20
140.499995
 30
5.0
 40
17.5
  1
岡田
 50
0.0
 41
0.857142857
 51
0.0
  7
KANJI15
  0
TEXT
  8
0
  6
CONTINUOUS
 62
     2
 10
1432.25
 20
68.0
 30
1.5
 40
22.5
  1
１／５
 50
0.0
 41
0.666666667
 51
0.0
  7
KANJI16
  0
TEXT
  8
0
  6
CONTINUOUS
 62
     2
 10
134.75
 20
25.5
 30
1.5
 40
15.0
  1
ＦＤ　Ｎｏ．ＭＣ１８５
 50
0.0
 41
1.0
 51
0.0
  7
KANJI17
  0
LINE
  8
0
  6
CONTINUOUS
 62
     1
 10
858.25
 20
1240.95
 30
0.0
 11
1506.25
 21
1240.95
 31
0.0
  0
LINE
  8
0
  6
CONTINUOUS
 62
     1
 10
858.25
 20
1212.95
 30
0.0
 11
1506.25
 21
1212.95
 31
0.0
  0
TEXT
  8
0
  6
CONTINUOUS
 62
     2
 10
898.25
 20
1220.95
 30
1.28
 40
12.8
  1
形
 50
0.0
 41
0.9
 51
0.0
  7
KANJI18
  0
TEXT
  8
0
  6
CONTINUOUS
 62
     2
 10
976.25
 20
1220.95
 30
1.28
 40
12.8
  1
式
 50
0.0
 41
0.9
 51
0.0
  7
KANJI18
  0
TEXT
  8
0
  6
CONTINUOUS
 62
     2
 10
1036.65
 20
1220.15
 30
1.2
 40
12.0
  1
ストローク
 50
0.0
 41
0.9
 51
0.0
  7
KANJI19
  0
TEXT
  8
0
  6
CONTINUOUS
 62
     2
 10
1113.45
 20
1219.35
 30
0.0
 40
12.0
  1
ｍｉｎ　
 50
0.0
 41
0.9
 51
0.0
  7
KANJI20
  0
TEXT
  8
0
  6
CONTINUOUS
 62
     2
 10
1193.45
 20
1219.35
 30
0.0
 40
12.0
  1
ｍｉｎ　
 50
0.0
 41
0.9
 51
0.0
  7
KANJI20
  0
TEXT
  8
0
  6
CONTINUOUS
 62
     2
 10
1353.45
 20
1219.35
 30
0.0
 40
12.0
  1
ｍｉｎ　
 50
0.0
 41
0.9
 51
0.0
  7
KANJI20
  0
TEXT
  8
0
  6
CONTINUOUS
 62
     2
 10
1154.25
 20
1220.15
 30
1.4
 40
14.0
  1
ＡＬ
 50
0.0
 41
0.9
 51
0.0
  7
KANJI21
  0
TEXT
  8
0
  6
CONTINUOUS
 62
     2
 10
1234.25
 20
1220.15
 30
1.4
 40
14.0
  1
Ｌ
 50
0.0
 41
0.9
 51
0.0
  7
KANJI21
  0
TEXT
  8
0
  6
CONTINUOUS
 62
     2
 10
1302.25
 20
1220.15
 30
1.4
 40
14.0
  1
Ｃ
 50
0.0
 41
0.9
 51
0.0
  7
KANJI21
  0
TEXT
  8
0
  6
CONTINUOUS
 62
     2
 10
1394.25
 20
1220.15
 30
1.4
 40
14.0
  1
Ｐ
 50
0.0
 41
0.9
 51
0.0
  7
KANJI21
  0
TEXT
  8
0
  6
CONTINUOUS
 62
     2
 10
1476.55
 20
1219.85
 30
0.0
 40
10.8
  1
（ｋｇ）
 50
0.0
 41
0.740740741
 51
0.0
  7
KANJI22
  0
TEXT
  8
0
  6
CONTINUOUS
 62
     2
 10
1428.55
 20
1219.65
 30
1.2
 40
14.0
  1
概算重量
 50
0.0
 41
0.857142857
 51
0.0
  7
KANJI23
  0
TEXT
  8
0
  6
CONTINUOUS
 62
     2
 10
1044.25
 20
1191.65
 30
1.2
 40
12.0
  1
　１００
 50
0.0
 41
0.9
 51
0.0
  7
KANJI19
  0
TEXT
  8
0
  6
CONTINUOUS
 62
     2
 10
1044.25
 20
1163.65
 30
1.2
 40
12.0
  1
　２００
 50
0.0
 41
0.9
 51
0.0
  7
KANJI19
  0
TEXT
  8
0
  6
CONTINUOUS
 62
     2
 10
1044.25
 20
1135.65
 30
1.2
 40
12.0
  1
　３００
 50
0.0
 41
0.9
 51
0.0
  7
KANJI19
  0
TEXT
  8
0
  6
CONTINUOUS
 62
     2
 10
1284.25
 20
1191.65
 30
1.2
 40
12.0
  1
　２３８
 50
0.0
 41
0.9
 51
0.0
  7
KANJI19
  0
TEXT
  8
0
  6
CONTINUOUS
 62
     2
 10
1284.25
 20
1163.65
 30
1.2
 40
12.0
  1
　３３８
 50
0.0
 41
0.9
 51
0.0
  7
KANJI19
  0
TEXT
  8
0
  6
CONTINUOUS
 62
     2
 10
1284.25
 20
1135.65
 30
1.2
 40
12.0
  1
　４３８
 50
0.0
 41
0.9
 51
0.0
  7
KANJI19
  0
TEXT
  8
0
  6
CONTINUOUS
 62
     2
 10
1364.25
 20
1135.65
 30
1.2
 40
12.0
  1
　　３５
 50
0.0
 41
0.9
 51
0.0
  7
KANJI19
  0
TEXT
  8
0
  6
CONTINUOUS
 62
     2
 10
1364.25
 20
1163.65
 30
1.2
 40
12.0
  1
　　３５
 50
0.0
 41
0.9
 51
0.0
  7
KANJI19
  0
TEXT
  8
0
  6
CONTINUOUS
 62
     2
 10
1364.25
 20
1191.65
 30
1.2
 40
12.0
  1
　　３５
 50
0.0
 41
0.9
 51
0.0
  7
KANJI19
  0
TEXT
  8
0
  6
CONTINUOUS
 62
     2
 10
1044.25
 20
1023.65
 30
1.2
 40
12.0
  1
　７００
 50
0.0
 41
0.9
 51
0.0
  7
KANJI19
  0
TEXT
  8
0
  6
CONTINUOUS
 62
     2
 10
1284.25
 20
1023.65
 30
1.2
 40
12.0
  1
　８７８
 50
0.0
 41
0.9
 51
0.0
  7
KANJI19
  0
TEXT
  8
0
  6
CONTINUOUS
 62
     2
 10
1044.25
 20
1079.65
 30
1.2
 40
12.0
  1
　５００
 50
0.0
 41
0.9
 51
0.0
  7
KANJI19
  0
TEXT
  8
0
  6
CONTINUOUS
 62
     2
 10
1284.25
 20
1079.65
 30
1.2
 40
12.0
  1
　６３８
 50
0.0
 41
0.9
 51
0.0
  7
KANJI19
  0
TEXT
  8
0
  6
CONTINUOUS
 62
     2
 10
1044.25
 20
1107.65
 30
1.2
 40
12.0
  1
　４００
 50
0.0
 41
0.9
 51
0.0
  7
KANJI19
  0
TEXT
  8
0
  6
CONTINUOUS
 62
     2
 10
1044.25
 20
1051.65
 30
1.2
 40
12.0
  1
　６００
 50
0.0
 41
0.9
 51
0.0
  7
KANJI19
  0
TEXT
  8
0
  6
CONTINUOUS
 62
     2
 10
1284.25
 20
1107.65
 30
1.2
 40
12.0
  1
　５３８
 50
0.0
 41
0.9
 51
0.0
  7
KANJI19
  0
TEXT
  8
0
  6
CONTINUOUS
 62
     2
 10
1284.25
 20
1051.65
 30
1.2
 40
12.0
  1
　７７８
 50
0.0
 41
0.9
 51
0.0
  7
KANJI19
  0
TEXT
  8
0
  6
CONTINUOUS
 62
     2
 10
1124.25
 20
1191.65
 30
1.2
 40
12.0
  1
　６５１
 50
0.0
 41
0.9
 51
0.0
  7
KANJI19
  0
TEXT
  8
0
  6
CONTINUOUS
 62
     2
 10
1124.25
 20
1163.65
 30
1.2
 40
12.0
  1
　７５１
 50
0.0
 41
0.9
 51
0.0
  7
KANJI19
  0
TEXT
  8
0
  6
CONTINUOUS
 62
     2
 10
1124.25
 20
1135.65
 30
1.2
 40
12.0
  1
　８５１
 50
0.0
 41
0.9
 51
0.0
  7
KANJI19
  0
LINE
  8
0
  6
CONTINUOUS
 62
     6
 10
350.959425053
 20
1348.747759827
 30
0.0
 11
118.914646507
 21
1348.747759827
 31
0.0
  0
LINE
  8
0
  6
CONTINUOUS
 62
     3
 10
350.959425053
 20
1321.285259827
 30
0.0
 11
118.914646507
 21
1321.285259827
 31
0.0
  0
LINE
  8
0
  6
CONTINUOUS
 62
     6
 10
350.959425053
 20
1321.285259827
 30
0.0
 11
118.914646507
 21
1321.285259827
 31
0.0
  0
TEXT
  8
0
  6
CONTINUOUS
 62
     6
 10
376.542228
 20
1346.200410728
 30
1.232517
 40
13.182
  1
電気定格　　　
 50
0.0
 41
0.85
 51
0.0
  7
KANJI24
  0
TEXT
  8
0
  6
CONTINUOUS
 62
     6
 10
122.823517202
 20
1351.94592676
 30
1.0647
 40
11.661
  1
ＬＳ０１　　　：推力リミッタ（前進時過負荷用）
 50
0.0
 41
0.822608696
 51
0.0
  7
KANJI25
  0
TEXT
  8
0
  6
CONTINUOUS
 62
     6
 10
122.823517202
 20
1324.48342676
 30
1.0647
 40
11.661
  1
ＬＳ０２　　　：推力リミッタ（後進時過負荷用）
 50
0.0
 41
0.822608696
 51
0.0
  7
KANJI25
  0
TEXT
  8
0
  6
CONTINUOUS
 62
     6
 10
389.343715102
 20
1315.626958599
 30
0.0
 40
11.8638
  1
ＤＣ１２５Ｖ　０．６Ａ　，ＤＣ２５０Ｖ　０．３Ａ　
 50
0.0
 41
0.726495726
 51
0.0
  7
KANJI26
  0
LINE
  8
0
  6
LTYPE2
 62
     6
 10
649.35
 20
1376.2
 30
0.0
 11
100.95
 21
1376.2
 31
0.0
  0
TEXT
  8
0
  6
CONTINUOUS
 62
     6
 10
384.087132178
 20
1363.961726126
 30
0.0
 40
45.0
  1
｝
 50
0.0
 41
0.538166667
 51
0.0
  7
KANJI27
  0
LINE
  8
0
  6
LTYPE2
 62
     6
 10
649.35
 20
1117.2
 30
0.0
 11
649.35
 21
1376.2
 31
0.0
  0
LINE
  8
0
  6
LTYPE2
 62
     6
 10
100.95
 20
1117.2
 30
0.0
 11
649.35
 21
1117.2
 31
0.0
  0
LINE
  8
0
  6
LTYPE2
 62
     6
 10
100.95
 20
1376.2
 30
0.0
 11
100.95
 21
1117.2
 31
0.0
  0
TEXT
  8
0
  6
CONTINUOUS
 62
     2
 10
1364.25
 20
1107.65
 30
1.2
 40
12.0
  1
　　８５
 50
0.0
 41
0.9
 51
0.0
  7
KANJI19
  0
TEXT
  8
0
  6
CONTINUOUS
 62
     2
 10
1364.25
 20
1079.65
 30
1.2
 40
12.0
  1
　１１２
 50
0.0
 41
0.9
 51
0.0
  7
KANJI19
  0
TEXT
  8
0
  6
CONTINUOUS
 62
     2
 10
1364.25
 20
1051.65
 30
1.2
 40
12.0
  1
　１２８
 50
0.0
 41
0.9
 51
0.0
  7
KANJI19
  0
TEXT
  8
0
  6
CONTINUOUS
 62
     2
 10
1364.25
 20
1023.65
 30
1.2
 40
12.0
  1
　１４８
 50
0.0
 41
0.9
 51
0.0
  7
KANJI19
  0
TEXT
  8
0
  6
CONTINUOUS
 62
     2
 10
1204.25
 20
1023.65
 30
1.2
 40
12.0
  1
１０６１
 50
0.0
 41
0.9
 51
0.0
  7
KANJI19
  0
TEXT
  8
0
  6
CONTINUOUS
 62
     2
 10
1204.25
 20
1051.65
 30
1.2
 40
12.0
  1
　９４１
 50
0.0
 41
0.9
 51
0.0
  7
KANJI19
  0
TEXT
  8
0
  6
CONTINUOUS
 62
     2
 10
1204.25
 20
1079.65
 30
1.2
 40
12.0
  1
　７８５
 50
0.0
 41
0.9
 51
0.0
  7
KANJI19
  0
TEXT
  8
0
  6
CONTINUOUS
 62
     2
 10
1204.25
 20
1107.65
 30
1.2
 40
12.0
  1
　６５８
 50
0.0
 41
0.9
 51
0.0
  7
KANJI19
  0
TEXT
  8
0
  6
CONTINUOUS
 62
     2
 10
1204.25
 20
1135.65
 30
1.2
 40
12.0
  1
　５０８
 50
0.0
 41
0.9
 51
0.0
  7
KANJI19
  0
TEXT
  8
0
  6
CONTINUOUS
 62
     2
 10
1204.25
 20
1163.65
 30
1.2
 40
12.0
  1
　４０８
 50
0.0
 41
0.9
 51
0.0
  7
KANJI19
  0
TEXT
  8
0
  6
CONTINUOUS
 62
     2
 10
1204.25
 20
1191.65
 30
1.2
 40
12.0
  1
　３０８
 50
0.0
 41
0.9
 51
0.0
  7
KANJI19
  0
TEXT
  8
0
  6
CONTINUOUS
 62
     2
 10
1124.25
 20
1107.65
 30
1.2
 40
12.0
  1
１００１
 50
0.0
 41
0.9
 51
0.0
  7
KANJI19
  0
TEXT
  8
0
  6
CONTINUOUS
 62
     2
 10
1124.25
 20
1079.65
 30
1.2
 40
12.0
  1
１１２８
 50
0.0
 41
0.9
 51
0.0
  7
KANJI19
  0
TEXT
  8
0
  6
CONTINUOUS
 62
     2
 10
1124.25
 20
1051.65
 30
1.2
 40
12.0
  1
１２８４
 50
0.0
 41
0.9
 51
0.0
  7
KANJI19
  0
TEXT
  8
0
  6
CONTINUOUS
 62
     2
 10
1124.25
 20
1023.65
 30
1.2
 40
12.0
  1
１４０４
 50
0.0
 41
0.9
 51
0.0
  7
KANJI19
  0
TEXT
  8
0
  6
CONTINUOUS
 62
     2
 10
1559.75
 20
208.0
 30
0.0
 40
17.5
  1
ＭＣＳＬＢＢ０１－ＪＬ
 50
0.0
 41
0.793650794
 51
0.0
  7
KANJI28
  0
TEXT
  8
0
  6
CONTINUOUS
 62
     2
 10
1655.4166945
 20
127.999995
 30
10.833333333
 40
25.0
  1
３００２３５４
 50
0.0
 41
0.8
 51
0.0
  7
KANJI29
  0
TEXT
  8
0
  6
CONTINUOUS
 62
     2
 10
871.25
 20
1191.35
 30
0.8
 40
12.0
  1
ＭＣＳＬＢＢ０１－　　１ＪＬ
 50
0.0
 41
0.833333333
 51
0.0
  7
KANJI30
  0
TEXT
  8
0
  6
CONTINUOUS
 62
     2
 10
871.25
 20
1163.35
 30
0.8
 40
12.0
  1
ＭＣＳＬＢＢ０１－　　２ＪＬ
 50
0.0
 41
0.833333333
 51
0.0
  7
KANJI30
  0
TEXT
  8
0
  6
CONTINUOUS
 62
     2
 10
871.25
 20
1135.35
 30
0.8
 40
12.0
  1
ＭＣＳＬＢＢ０１－　　３ＪＬ
 50
0.0
 41
0.833333333
 51
0.0
  7
KANJI30
  0
TEXT
  8
0
  6
CONTINUOUS
 62
     2
 10
871.25
 20
1107.35
 30
0.8
 40
12.0
  1
ＭＣＳＬＢＢ０１－　　４ＪＬ
 50
0.0
 41
0.833333333
 51
0.0
  7
KANJI30
  0
TEXT
  8
0
  6
CONTINUOUS
 62
     2
 10
871.25
 20
1079.35
 30
0.8
 40
12.0
  1
ＭＣＳＬＢＢ０１－　　５ＪＬ
 50
0.0
 41
0.833333333
 51
0.0
  7
KANJI30
  0
TEXT
  8
0
  6
CONTINUOUS
 62
     2
 10
871.25
 20
1051.35
 30
0.8
 40
12.0
  1
ＭＣＳＬＢＢ０１－　　６ＪＬ
 50
0.0
 41
0.833333333
 51
0.0
  7
KANJI30
  0
TEXT
  8
0
  6
CONTINUOUS
 62
     2
 10
871.25
 20
1023.35
 30
0.8
 40
12.0
  1
ＭＣＳＬＢＢ０１－　　７ＪＬ
 50
0.0
 41
0.833333333
 51
0.0
  7
KANJI30
  0
LINE
  8
0
  6
CONTINUOUS
 62
     1
 10
1282.625
 20
1394.0
 30
0.0
 11
1282.625
 21
1293.9
 31
0.0
  0
LINE
  8
0
  6
CONTINUOUS
 62
     2
 10
1224.875
 20
1394.0
 30
0.0
 11
1224.875
 21
1293.9
 31
0.0
  0
LINE
  8
0
  6
CONTINUOUS
 62
     2
 10
1167.125
 20
1394.0
 30
0.0
 11
1167.125
 21
1293.9
 31
0.0
  0
LINE
  8
0
  6
CONTINUOUS
 62
     1
 10
1090.125
 20
1394.0
 30
0.0
 11
1090.125
 21
1293.9
 31
0.0
  0
LINE
  8
0
  6
CONTINUOUS
 62
     1
 10
1090.125
 20
1394.0
 30
0.0
 11
1282.625
 21
1394.0
 31
0.0
  0
LINE
  8
0
  6
CONTINUOUS
 62
     1
 10
1090.125
 20
1363.2
 30
0.0
 11
1282.625
 21
1363.2
 31
0.0
  0
LINE
  8
0
  6
CONTINUOUS
 62
     2
 10
1090.125
 20
1340.1
 30
0.0
 11
1282.625
 21
1340.1
 31
0.0
  0
LINE
  8
0
  6
CONTINUOUS
 62
     2
 10
1090.125
 20
1317.0
 30
0.0
 11
1282.625
 21
1317.0
 31
0.0
  0
LINE
  8
0
  6
CONTINUOUS
 62
     1
 10
1090.125
 20
1293.9
 30
0.0
 11
1282.625
 21
1293.9
 31
0.0
  0
TEXT
  8
0
  6
CONTINUOUS
 62
     2
 10
1232.575
 20
1380.525
 30
1.155
 40
11.55
  1
起動電流
 50
0.0
 41
0.9
 51
0.0
  7
KANJI31
  0
TEXT
  8
0
  6
CONTINUOUS
 62
     2
 10
1232.575
 20
1367.05
 30
1.155
 40
11.55
  1
　　　Ａ
 50
0.0
 41
0.9
 51
0.0
  7
KANJI31
  0
TEXT
  8
0
  6
CONTINUOUS
 62
     2
 10
1174.825
 20
1380.525
 30
1.155
 40
11.55
  1
定格電流
 50
0.0
 41
0.9
 51
0.0
  7
KANJI31
  0
TEXT
  8
0
  6
CONTINUOUS
 62
     2
 10
1174.825
 20
1367.05
 30
1.155
 40
11.55
  1
　　　Ａ
 50
0.0
 41
0.9
 51
0.0
  7
KANJI31
  0
TEXT
  8
0
  6
CONTINUOUS
 62
     2
 10
1096.67
 20
1322.775
 30
1.155
 40
11.55
  1
２００／６０
 50
0.0
 41
0.9
 51
0.0
  7
KANJI31
  0
TEXT
  8
0
  6
CONTINUOUS
 62
     2
 10
1096.67
 20
1380.525
 30
1.155
 40
11.55
  1
電圧／周波数
 50
0.0
 41
0.9
 51
0.0
  7
KANJI31
  0
TEXT
  8
0
  6
CONTINUOUS
 62
     2
 10
1096.67
 20
1367.05
 30
1.155
 40
11.55
  1
　Ｖ／Ｈｚ
 50
0.0
 41
0.9
 51
0.0
  7
KANJI31
  0
TEXT
  8
0
  6
CONTINUOUS
 62
     2
 10
1096.67
 20
1345.875
 30
1.155
 40
11.55
  1
２００／５０
 50
0.0
 41
0.9
 51
0.0
  7
KANJI31
  0
TEXT
  8
0
  6
CONTINUOUS
 62
     2
 10
1096.67
 20
1299.675
 30
1.155
 40
11.55
  1
２２０／６０
 50
0.0
 41
0.9
 51
0.0
  7
KANJI31
  0
LINE
  8
0
  6
CONTINUOUS
 62
     1
 10
1051.625
 20
1394.0
 30
0.0
 11
1051.625
 21
1293.9
 31
0.0
  0
LINE
  8
0
  6
CONTINUOUS
 62
     2
 10
993.875
 20
1394.0
 30
0.0
 11
993.875
 21
1293.9
 31
0.0
  0
LINE
  8
0
  6
CONTINUOUS
 62
     2
 10
936.125
 20
1394.0
 30
0.0
 11
936.125
 21
1293.9
 31
0.0
  0
LINE
  8
0
  6
CONTINUOUS
 62
     1
 10
859.125
 20
1394.0
 30
0.0
 11
859.125
 21
1293.9
 31
0.0
  0
LINE
  8
0
  6
CONTINUOUS
 62
     1
 10
859.125
 20
1394.0
 30
0.0
 11
1051.625
 21
1394.0
 31
0.0
  0
LINE
  8
0
  6
CONTINUOUS
 62
     1
 10
859.125
 20
1363.2
 30
0.0
 11
1051.625
 21
1363.2
 31
0.0
  0
LINE
  8
0
  6
CONTINUOUS
 62
     2
 10
859.125
 20
1340.1
 30
0.0
 11
1051.625
 21
1340.1
 31
0.0
  0
LINE
  8
0
  6
CONTINUOUS
 62
     2
 10
859.125
 20
1317.0
 30
0.0
 11
1051.625
 21
1317.0
 31
0.0
  0
LINE
  8
0
  6
CONTINUOUS
 62
     1
 10
859.125
 20
1293.9
 30
0.0
 11
1051.625
 21
1293.9
 31
0.0
  0
TEXT
  8
0
  6
CONTINUOUS
 62
     2
 10
1001.575
 20
1380.525
 30
1.155
 40
11.55
  1
起動電流
 50
0.0
 41
0.9
 51
0.0
  7
KANJI31
  0
TEXT
  8
0
  6
CONTINUOUS
 62
     2
 10
1001.575
 20
1367.05
 30
1.155
 40
11.55
  1
　　　Ａ
 50
0.0
 41
0.9
 51
0.0
  7
KANJI31
  0
TEXT
  8
0
  6
CONTINUOUS
 62
     2
 10
943.825
 20
1380.525
 30
1.155
 40
11.55
  1
定格電流
 50
0.0
 41
0.9
 51
0.0
  7
KANJI31
  0
TEXT
  8
0
  6
CONTINUOUS
 62
     2
 10
943.825
 20
1367.05
 30
1.155
 40
11.55
  1
　　　Ａ
 50
0.0
 41
0.9
 51
0.0
  7
KANJI31
  0
TEXT
  8
0
  6
CONTINUOUS
 62
     2
 10
865.67
 20
1380.525
 30
1.155
 40
11.55
  1
電圧／周波数
 50
0.0
 41
0.9
 51
0.0
  7
KANJI31
  0
TEXT
  8
0
  6
CONTINUOUS
 62
     2
 10
865.67
 20
1367.05
 30
1.155
 40
11.55
  1
　Ｖ／Ｈｚ
 50
0.0
 41
0.9
 51
0.0
  7
KANJI31
  0
TEXT
  8
0
  6
CONTINUOUS
 62
     2
 10
865.67
 20
1345.875
 30
1.155
 40
11.55
  1
４００／５０
 50
0.0
 41
0.9
 51
0.0
  7
KANJI31
  0
TEXT
  8
0
  6
CONTINUOUS
 62
     2
 10
865.67
 20
1322.775
 30
1.155
 40
11.55
  1
４００／６０
 50
0.0
 41
0.9
 51
0.0
  7
KANJI31
  0
TEXT
  8
0
  6
CONTINUOUS
 62
     2
 10
865.67
 20
1299.675
 30
1.155
 40
11.55
  1
４４０／６０
 50
0.0
 41
0.9
 51
0.0
  7
KANJI31
  0
TEXT
  8
0
  6
CONTINUOUS
 62
     2
 10
943.825
 20
1345.875
 30
1.155
 40
11.55
  1
　２．０
 50
0.0
 41
0.9
 51
0.0
  7
KANJI31
  0
TEXT
  8
0
  6
CONTINUOUS
 62
     2
 10
943.825
 20
1322.775
 30
1.155
 40
11.55
  1
　１．４
 50
0.0
 41
0.9
 51
0.0
  7
KANJI31
  0
TEXT
  8
0
  6
CONTINUOUS
 62
     2
 10
943.825
 20
1299.675
 30
1.155
 40
11.55
  1
　１．７
 50
0.0
 41
0.9
 51
0.0
  7
KANJI31
  0
TEXT
  8
0
  6
CONTINUOUS
 62
     2
 10
1174.825
 20
1345.875
 30
1.155
 40
11.55
  1
　４．０
 50
0.0
 41
0.9
 51
0.0
  7
KANJI31
  0
TEXT
  8
0
  6
CONTINUOUS
 62
     2
 10
1174.825
 20
1322.775
 30
1.155
 40
11.55
  1
　２．８
 50
0.0
 41
0.9
 51
0.0
  7
KANJI31
  0
TEXT
  8
0
  6
CONTINUOUS
 62
     2
 10
1174.825
 20
1299.675
 30
1.155
 40
11.55
  1
　３．３
 50
0.0
 41
0.9
 51
0.0
  7
KANJI31
  0
TEXT
  8
0
  6
CONTINUOUS
 62
     2
 10
1232.575
 20
1345.875
 30
1.155
 40
11.55
  1
　９．２
 50
0.0
 41
0.9
 51
0.0
  7
KANJI31
  0
TEXT
  8
0
  6
CONTINUOUS
 62
     2
 10
1232.575
 20
1322.775
 30
1.155
 40
11.55
  1
　８
 50
0.0
 41
0.9
 51
0.0
  7
KANJI31
  0
TEXT
  8
0
  6
CONTINUOUS
 62
     2
 10
1232.575
 20
1299.675
 30
1.155
 40
11.55
  1
　８．８
 50
0.0
 41
0.9
 51
0.0
  7
KANJI31
  0
TEXT
  8
0
  6
CONTINUOUS
 62
     2
 10
1001.575
 20
1345.875
 30
1.155
 40
11.55
  1
　４．６
 50
0.0
 41
0.9
 51
0.0
  7
KANJI31
  0
TEXT
  8
0
  6
CONTINUOUS
 62
     2
 10
1001.575
 20
1322.775
 30
1.155
 40
11.55
  1
　４
 50
0.0
 41
0.9
 51
0.0
  7
KANJI31
  0
TEXT
  8
0
  6
CONTINUOUS
 62
     2
 10
1001.575
 20
1299.675
 30
1.155
 40
11.55
  1
　４．４
 50
0.0
 41
0.9
 51
0.0
  7
KANJI31
  0
LINE
  8
0
  6
CONTINUOUS
 62
     2
 10
858.25
 20
1184.95
 30
0.0
 11
1506.25
 21
1184.95
 31
0.0
  0
LINE
  8
0
  6
CONTINUOUS
 62
     2
 10
858.25
 20
1156.95
 30
0.0
 11
1506.25
 21
1156.95
 31
0.0
  0
LINE
  8
0
  6
CONTINUOUS
 62
     2
 10
858.25
 20
1128.95
 30
0.0
 11
1506.25
 21
1128.95
 31
0.0
  0
LINE
  8
0
  6
CONTINUOUS
 62
     2
 10
858.25
 20
1072.95
 30
0.0
 11
1506.25
 21
1072.95
 31
0.0
  0
LINE
  8
0
  6
CONTINUOUS
 62
     2
 10
858.25
 20
1100.95
 30
0.0
 11
1506.25
 21
1100.95
 31
0.0
  0
LINE
  8
0
  6
CONTINUOUS
 62
     2
 10
858.25
 20
1016.95
 30
0.0
 11
1506.25
 21
1016.95
 31
0.0
  0
LINE
  8
0
  6
CONTINUOUS
 62
     2
 10
858.25
 20
1044.95
 30
0.0
 11
1506.25
 21
1044.95
 31
0.0
  0
TEXT
  8
0
  6
CONTINUOUS
 62
     2
 10
1444.25
 20
1191.65
 30
1.2
 40
12.0
  1
　　２９
 50
0.0
 41
0.9
 51
0.0
  7
KANJI19
  0
TEXT
  8
0
  6
CONTINUOUS
 62
     2
 10
1444.25
 20
1163.65
 30
1.2
 40
12.0
  1
　　３０
 50
0.0
 41
0.9
 51
0.0
  7
KANJI19
  0
TEXT
  8
0
  6
CONTINUOUS
 62
     2
 10
1444.25
 20
1135.65
 30
1.2
 40
12.0
  1
　　３１
 50
0.0
 41
0.9
 51
0.0
  7
KANJI19
  0
TEXT
  8
0
  6
CONTINUOUS
 62
     2
 10
1444.25
 20
1107.65
 30
1.2
 40
12.0
  1
　　３２
 50
0.0
 41
0.9
 51
0.0
  7
KANJI19
  0
TEXT
  8
0
  6
CONTINUOUS
 62
     2
 10
1444.25
 20
1079.65
 30
1.2
 40
12.0
  1
　　３３
 50
0.0
 41
0.9
 51
0.0
  7
KANJI19
  0
TEXT
  8
0
  6
CONTINUOUS
 62
     2
 10
1444.25
 20
1051.65
 30
1.2
 40
12.0
  1
　　３４
 50
0.0
 41
0.9
 51
0.0
  7
KANJI19
  0
TEXT
  8
0
  6
CONTINUOUS
 62
     2
 10
1444.25
 20
1023.65
 30
1.2
 40
12.0
  1
　　３５
 50
0.0
 41
0.9
 51
0.0
  7
KANJI19
  0
TEXT
  8
0
  6
CONTINUOUS
 62
     6
 10
313.962791539
 20
1135.22382165
 30
0.0
 40
17.740702234
  1
端子台　接続図
 50
0.0
 41
0.880962996
 51
0.0
  7
KANJI32
  0
LINE
  8
0
  6
CONTINUOUS
 62
     2
 10
348.927373465
 20
1186.228121884
 30
0.0
 11
348.927373465
 21
1163.449155128
 31
0.0
  0
LINE
  8
0
  6
CONTINUOUS
 62
     2
 10
375.50283468
 20
1186.228121884
 30
0.0
 11
375.50283468
 21
1163.449155128
 31
0.0
  0
LINE
  8
0
  6
CONTINUOUS
 62
     2
 10
402.078295894
 20
1186.228121884
 30
0.0
 11
402.078295894
 21
1163.449155128
 31
0.0
  0
LINE
  8
0
  6
CONTINUOUS
 62
     2
 10
428.653757109
 20
1186.228121884
 30
0.0
 11
428.653757109
 21
1163.449155128
 31
0.0
  0
CIRCLE
  8
0
  6
CONTINUOUS
 62
     6
 10
420.734269667
 20
1209.707921517
 30
0.0
 40
4.100214016
  0
LINE
  8
0
  6
CONTINUOUS
 62
     6
 10
416.634055651
 20
1209.707921517
 30
0.0
 11
415.366026502
 21
1209.707921517
 31
0.0
  0
LINE
  8
0
  6
CONTINUOUS
 62
     6
 10
441.688027433
 20
1223.394562742
 30
0.0
 11
437.773558096
 21
1201.059507138
 31
0.0
  0
LINE
  8
0
  6
CONTINUOUS
 62
     6
 10
436.961699663
 20
1224.182284037
 30
0.0
 11
433.046922494
 21
1201.847279739
 31
0.0
  0
LINE
  8
0
  6
CONTINUOUS
 62
     6
 10
437.773558096
 20
1201.059507138
 30
0.0
 11
433.046922494
 21
1201.847279739
 31
0.0
  0
CIRCLE
  8
0
  6
CONTINUOUS
 62
     6
 10
441.941487717
 20
1200.239464335
 30
0.0
 40
4.100214016
  0
LINE
  8
0
  6
CONTINUOUS
 62
     6
 10
441.941487717
 20
1196.139250319
 30
0.0
 11
441.941487717
 21
1186.228121884
 31
0.0
  0
LINE
  8
0
  6
CONTINUOUS
 62
     6
 10
415.366026502
 20
1209.707921517
 30
0.0
 11
415.366026502
 21
1186.228121884
 31
0.0
  0
LINE
  8
0
  6
CONTINUOUS
 62
     6
 10
388.790565287
 20
1186.228121884
 30
0.0
 11
388.790565287
 21
1239.933332504
 31
0.0
  0
LINE
  8
0
  6
CONTINUOUS
 62
     6
 10
309.317641926
 20
1223.394562742
 30
0.0
 11
313.232111263
 21
1201.059507138
 31
0.0
  0
LINE
  8
0
  6
CONTINUOUS
 62
     6
 10
314.043969696
 20
1224.182284037
 30
0.0
 11
317.958746865
 21
1201.847279739
 31
0.0
  0
LINE
  8
0
  6
CONTINUOUS
 62
     6
 10
313.232111263
 20
1201.059507138
 30
0.0
 11
317.958746865
 21
1201.847279739
 31
0.0
  0
CIRCLE
  8
0
  6
CONTINUOUS
 62
     6
 10
309.064181642
 20
1200.239464335
 30
0.0
 40
4.100214016
  0
CIRCLE
  8
0
  6
CONTINUOUS
 62
     6
 10
330.271399692
 20
1209.707921517
 30
0.0
 40
4.100214016
  0
LINE
  8
0
  6
CONTINUOUS
 62
     6
 10
334.371613708
 20
1209.707921517
 30
0.0
 11
335.639642857
 21
1209.707921517
 31
0.0
  0
LINE
  8
0
  6
CONTINUOUS
 62
     6
 10
309.064181642
 20
1196.139250319
 30
0.0
 11
309.064181642
 21
1186.228121884
 31
0.0
  0
LINE
  8
0
  6
CONTINUOUS
 62
     6
 10
335.639642857
 20
1209.707921517
 30
0.0
 11
335.639642857
 21
1186.228121884
 31
0.0
  0
LINE
  8
0
  6
CONTINUOUS
 62
     6
 10
362.215104072
 20
1186.228121884
 30
0.0
 11
362.215104072
 21
1239.933332504
 31
0.0
  0
LINE
  8
0
  6
CONTINUOUS
 62
     2
 10
455.229218324
 20
1186.228121884
 30
0.0
 11
455.229218324
 21
1163.449155128
 31
0.0
  0
LINE
  8
0
  6
CONTINUOUS
 62
     2
 10
295.776451035
 20
1186.228121884
 30
0.0
 11
295.776451035
 21
1163.449155128
 31
0.0
  0
LINE
  8
0
  6
CONTINUOUS
 62
     2
 10
322.35191225
 20
1186.228121884
 30
0.0
 11
322.35191225
 21
1163.449155128
 31
0.0
  0
LINE
  8
0
  6
CONTINUOUS
 62
     6
 10
441.941487717
 20
1239.933332504
 30
0.0
 11
388.790565287
 21
1239.933332504
 31
0.0
  0
CIRCLE
  8
0
  6
CONTINUOUS
 62
     6
 10
441.941487717
 20
1227.58941042
 30
0.0
 40
4.100214016
  0
LINE
  8
0
  6
CONTINUOUS
 62
     6
 10
441.688027433
 20
1223.394562742
 30
0.0
 11
436.961699663
 21
1224.182284037
 31
0.0
  0
LINE
  8
0
  6
CONTINUOUS
 62
     6
 10
441.941487717
 20
1231.689624436
 30
0.0
 11
441.941487717
 21
1239.933332504
 31
0.0
  0
CIRCLE
  8
0
  6
CONTINUOUS
 62
     6
 10
309.064181642
 20
1227.58941042
 30
0.0
 40
4.100214016
  0
LINE
  8
0
  6
CONTINUOUS
 62
     6
 10
309.317641926
 20
1223.394562742
 30
0.0
 11
314.043969696
 21
1224.182284037
 31
0.0
  0
LINE
  8
0
  6
CONTINUOUS
 62
     6
 10
309.064181642
 20
1231.689624436
 30
0.0
 11
309.064181642
 21
1239.933332504
 31
0.0
  0
LINE
  8
0
  6
CONTINUOUS
 62
     6
 10
362.215104072
 20
1239.933332504
 30
0.0
 11
309.064181642
 21
1239.933332504
 31
0.0
  0
TEXT
  8
0
  6
CONTINUOUS
 62
     6
 10
313.8272152
 20
1244.452473273
 30
0.819
 40
11.7
  1
ＬＳ０１
 50
0.0
 41
0.8
 51
0.0
  7
KANJI33
  0
TEXT
  8
0
  6
CONTINUOUS
 62
     6
 10
396.447398844
 20
1244.452473273
 30
0.819
 40
11.7
  1
ＬＳ０２
 50
0.0
 41
0.8
 51
0.0
  7
KANJI33
  0
TEXT
  8
0
  6
CONTINUOUS
 62
     3
 10
141.638775989
 20
1167.245649587
 30
0.0
 40
15.0
  1
　　　　　　　　　　　　　　　　　　１　　２　　　３　　　４　　　５　　　６
 50
0.0
 41
0.911
 51
0.0
  7
KANJI34
  0
LINE
  8
0
  6
CONTINUOUS
 62
     2
 10
295.776451035
 20
1186.228121884
 30
0.0
 11
455.229218324
 21
1186.228121884
 31
0.0
  0
LINE
  8
0
  6
CONTINUOUS
 62
     2
 10
295.776451035
 20
1163.449155128
 30
0.0
 11
455.229218324
 21
1163.449155128
 31
0.0
  0
TEXT
  8
0
  6
CONTINUOUS
 62
     6
 10
287.462791539
 20
1274.22382165
 30
0.0
 40
17.740702234
  1
推力リミッタ端子台配列
 50
0.0
 41
0.880962996
 51
0.0
  7
KANJI32
  0
LINE
  8
0
  6
CONTINUOUS
 62
     2
 10
884.7275
 20
1272.725
 30
0.0
 11
1273.575
 21
1272.725
 31
0.0
  0
TEXT
  8
0
  6
CONTINUOUS
 62
     2
 10
892.4275
 20
1276.575
 30
1.3475
 40
13.475
  1
注意：サーマルリレー等の選定は、上記の値で選定して下さい。
 50
0.0
 41
0.9
 51
0.0
  7
KANJI35
  0
LINE
  8
0
  6
LTYPE2
 62
     6
 10
113.408333
 20
1009.633317
 30
0.0
 11
113.408333
 21
993.232460936
 31
0.0
  0
LINE
  8
0
  6
LTYPE2
 62
     6
 10
243.805262694
 20
1009.633317
 30
0.0
 11
113.408333
 21
1009.633317
 31
0.0
  0
TEXT
  8
0
  6
CONTINUOUS
 62
     6
 10
95.873590591
 20
996.148168681
 30
1.093390404
 40
10.933904043
  1
Ｕ
 50
0.0
 41
0.9
 51
0.0
  7
KANJI36
  0
CIRCLE
  8
0
  6
CONTINUOUS
 62
     6
 10
113.408333
 20
989.952289723
 30
0.0
 40
4.373561617
  0
LINE
  8
0
  6
CONTINUOUS
 62
     6
 10
108.38354931
 20
984.927506033
 30
0.0
 11
118.588526417
 21
995.13248314
 31
0.0
  0
TEXT
  8
0
  6
CONTINUOUS
 62
     6
 10
123.653806047
 20
1018.299448352
 30
1.518597784
 40
15.185977837
  1
エコノストップモータ
 50
0.0
 41
0.66671875
 51
0.0
  7
KANJI37
  0
LINE
  8
0
  6
LTYPE2
 62
     6
 10
243.805262694
 20
914.221584891
 30
0.0
 11
243.805262694
 21
1009.633317
 31
0.0
  0
CIRCLE
  8
0
  6
CONTINUOUS
 62
     6
 10
158.237339575
 20
964.439846957
 30
0.0
 40
18.223173404
  0
TEXT
  8
0
  6
CONTINUOUS
 62
     6
 10
150.583606745
 20
955.692723723
 30
1.82231734
 40
18.223173404
  1
Ｍ
 50
0.0
 41
0.9
 51
0.0
  7
KANJI38
  0
LINE
  8
0
  6
CONTINUOUS
 62
     6
 10
134.182750681
 20
938.927404191
 30
0.0
 11
145.481118192
 21
952.048089042
 31
0.0
  0
LINE
  8
0
  6
CONTINUOUS
 62
     6
 10
134.182750681
 20
989.952289723
 30
0.0
 11
145.481118192
 21
976.831604872
 31
0.0
  0
LINE
  8
0
  6
CONTINUOUS
 62
     6
 10
134.182750681
 20
989.952289723
 30
0.0
 11
117.781894617
 21
989.952289723
 31
0.0
  0
LINE
  8
0
  6
CONTINUOUS
 62
     6
 10
140.378629639
 20
964.439846957
 30
0.0
 11
117.781894617
 21
964.439846957
 31
0.0
  0
LINE
  8
0
  6
CONTINUOUS
 62
     6
 10
134.182750681
 20
938.927404191
 30
0.0
 11
117.781894617
 21
938.927404191
 31
0.0
  0
TEXT
  8
0
  6
CONTINUOUS
 62
     6
 10
96.966980995
 20
970.271262446
 30
1.093390404
 40
10.933904043
  1
Ｖ
 50
0.0
 41
0.9
 51
0.0
  7
KANJI36
  0
TEXT
  8
0
  6
CONTINUOUS
 62
     6
 10
98.060371399
 20
944.394356212
 30
1.093390404
 40
10.933904043
  1
Ｗ
 50
0.0
 41
0.9
 51
0.0
  7
KANJI36
  0
CIRCLE
  8
0
  6
CONTINUOUS
 62
     6
 10
113.408333
 20
964.439846957
 30
0.0
 40
4.373561617
  0
LINE
  8
0
  6
CONTINUOUS
 62
     6
 10
108.38354931
 20
959.415063267
 30
0.0
 11
118.588526417
 21
969.620040374
 31
0.0
  0
LINE
  8
0
  6
LTYPE2
 62
     6
 10
113.408333
 20
985.943191574
 30
0.0
 11
113.408333
 21
967.72001817
 31
0.0
  0
CIRCLE
  8
0
  6
CONTINUOUS
 62
     6
 10
113.408333
 20
938.927404191
 30
0.0
 40
4.373561617
  0
LINE
  8
0
  6
CONTINUOUS
 62
     6
 10
108.38354931
 20
933.902620501
 30
0.0
 11
118.588526417
 21
944.107597607
 31
0.0
  0
LINE
  8
0
  6
LTYPE2
 62
     6
 10
113.408333
 20
960.430748808
 30
0.0
 11
113.408333
 21
943.300965808
 31
0.0
  0
LINE
  8
0
  6
LTYPE2
 62
     6
 10
243.805262694
 20
914.221584891
 30
0.0
 11
113.408333
 21
914.221584891
 31
0.0
  0
LINE
  8
0
  6
LTYPE2
 62
     6
 10
113.408333
 20
934.553842574
 30
0.0
 11
113.408333
 21
914.221584891
 31
0.0
  0
TEXT
  8
0
  6
CONTINUOUS
 62
     2
 10
118.503726364
 20
889.012221811
 30
0.0
 40
15.6
  1
モーター結線図
 50
0.0
 41
0.925
 51
0.0
  7
KANJI39
  0
TEXT
  8
0
  6
CONTINUOUS
 62
     6
 10
184.478709277
 20
956.184749405
 30
1.457853872
 40
14.578538724
  1
Ｂ
 50
0.0
 41
0.9
 51
0.0
  7
KANJI40
  0
CIRCLE
  8
0
  6
CONTINUOUS
 62
     6
 10
191.039051703
 20
964.439846957
 30
0.0
 40
14.578538724
  0
LINE
  8
2
  6
CONTINUOUS
 62
     2
 10
1101.0
 20
843.5
 30
0.0
 11
277.0
 21
843.5
 31
0.0
  0
LINE
  8
0
  6
CONTINUOUS
 62
     1
 10
508.0
 20
673.0
 30
0.0
 11
556.000007629
 21
673.0
 31
0.0
  0
LINE
  8
0
  6
CONTINUOUS
 62
     1
 10
490.0
 20
625.5
 30
0.0
 11
490.0
 21
505.5
 31
0.0
  0
LINE
  8
0
  6
CONTINUOUS
 62
     1
 10
476.0
 20
565.5
 30
0.0
 11
476.0
 21
622.5
 31
0.0
  0
LINE
  8
0
  6
CONTINUOUS
 62
     1
 10
482.0
 20
565.5
 30
0.0
 11
482.0
 21
624.6
 31
0.0
  0
LINE
  8
0
  6
CONTINUOUS
 62
     1
 10
476.0
 20
565.5
 30
0.0
 11
476.0
 21
508.5
 31
0.0
  0
ARC
  8
0
  6
CONTINUOUS
 62
     1
 10
480.5
 20
507.0
 30
0.0
 40
1.5
 50
0.0
 51
90.0
  0
LINE
  8
0
  6
CONTINUOUS
 62
     1
 10
482.0
 20
507.0
 30
0.0
 11
482.0
 21
506.0
 31
0.0
  0
ARC
  8
0
  6
CONTINUOUS
 62
     1
 10
483.5
 20
506.0
 30
0.0
 40
1.5
 50
180.0
 51
270.0
  0
LINE
  8
0
  6
CONTINUOUS
 62
     1
 10
323.5
 20
508.5
 30
0.0
 11
480.5
 21
508.5
 31
0.0
  0
LINE
  8
0
  6
CONTINUOUS
 62
     1
 10
482.0
 20
565.5
 30
0.0
 11
482.0
 21
506.4
 31
0.0
  0
TEXT
  8
0
  6
CONTINUOUS
 62
     2
 10
360.9
 20
520.5
 30
0.4
 40
14.0
  1
エコノストップモータ
 50
0.0
 41
0.771428571
 51
0.0
  7
KANJI41
  0
LINE
  8
2
  6
CONTINUOUS
 62
     2
 10
479.500012063
 20
504.5
 30
0.0
 11
214.5
 21
504.5
 31
0.0
  0
LINE
  8
0
  6
CONTINUOUS
 62
     1
 10
490.0
 20
504.5
 30
0.0
 11
490.0
 21
565.5
 31
0.0
  0
LINE
  8
0
  6
CONTINUOUS
 62
     1
 10
483.499990656
 20
504.5
 30
0.0
 11
490.0
 21
504.5
 31
0.0
  0
LINE
  8
0
  6
CONTINUOUS
 62
     1
 10
490.0
 20
626.5
 30
0.0
 11
490.0
 21
504.5
 31
0.0
  0
LINE
  8
0
  6
LTYPE3
 62
     2
 10
542.9
 20
565.5
 30
0.0
 11
271.0
 21
565.5
 31
0.0
  0
LINE
  8
0
  6
CONTINUOUS
 62
     1
 10
505.0
 20
530.5
 30
0.0
 11
547.000007629
 21
530.5
 31
0.0
  0
ARC
  8
0
  6
CONTINUOUS
 62
     1
 10
505.0
 20
527.5
 30
0.0
 40
3.0
 50
90.0
 51
180.0
  0
ARC
  8
0
  6
CONTINUOUS
 62
     1
 10
499.0
 20
508.5
 30
0.0
 40
3.0
 50
270.0
 51
0.0
  0
LINE
  8
0
  6
CONTINUOUS
 62
     1
 10
502.0
 20
527.5
 30
0.0
 11
502.0
 21
508.5
 31
0.0
  0
LINE
  8
0
  6
CONTINUOUS
 62
     1
 10
490.0
 20
505.5
 30
0.0
 11
523.000007629
 21
505.5
 31
0.0
  0
TEXT
  8
2
  6
CONTINUOUS
 62
     3
 10
522.5
 20
578.6
 30
0.0
 40
15.0
  1
５３
 50
90.0
 41
0.9
 51
0.0
  7
KANJI42
  0
ARC
  8
0
  6
CONTINUOUS
 62
     1
 10
480.5
 20
624.0
 30
0.0
 40
1.5
 50
270.0
 51
0.0
  0
LINE
  8
0
  6
CONTINUOUS
 62
     1
 10
482.0
 20
624.0
 30
0.0
 11
482.0
 21
625.0
 31
0.0
  0
ARC
  8
0
  6
CONTINUOUS
 62
     1
 10
483.5
 20
625.0
 30
0.0
 40
1.5
 50
90.0
 51
180.0
  0
ARC
  8
0
  6
CONTINUOUS
 62
     1
 10
463.0
 20
625.5
 30
0.0
 40
3.0
 50
270.0
 51
0.0
  0
LINE
  8
0
  6
CONTINUOUS
 62
     1
 10
323.5
 20
622.5
 30
0.0
 11
480.5
 21
622.5
 31
0.0
  0
LINE
  8
0
  6
LTYPE2
 62
     2
 10
443.0
 20
610.5
 30
0.0
 11
443.0
 21
698.4321338
 31
0.0
  0
LINE
  8
2
  6
CONTINUOUS
 62
     2
 10
479.500009344
 20
626.5
 30
0.0
 11
214.5
 21
626.5
 31
0.0
  0
LINE
  8
0
  6
CONTINUOUS
 62
     1
 10
473.0
 20
635.5
 30
0.0
 11
473.0
 21
638.5
 31
0.0
  0
ARC
  8
0
  6
CONTINUOUS
 62
     1
 10
469.0
 20
632.5
 30
0.0
 40
3.0
 50
90.0
 51
180.0
  0
LINE
  8
0
  6
CONTINUOUS
 62
     1
 10
466.0
 20
625.5
 30
0.0
 11
466.0
 21
632.5
 31
0.0
  0
LINE
  8
0
  6
CONTINUOUS
 62
     1
 10
413.0
 20
635.5
 30
0.0
 11
473.0
 21
635.5
 31
0.0
  0
LINE
  8
0
  6
CONTINUOUS
 62
     1
 10
488.087912088
 20
640.5
 30
0.0
 11
396.0
 21
684.520045888
 31
0.0
  0
LINE
  8
0
  6
CONTINUOUS
 62
     1
 10
490.0
 20
644.5
 30
0.0
 11
488.087912088
 21
640.5
 31
0.0
  0
LINE
  8
0
  6
CONTINUOUS
 62
     1
 10
490.0
 20
644.5
 30
0.0
 11
397.912087912
 21
688.520045888
 31
0.0
  0
LINE
  8
0
  6
CONTINUOUS
 62
     1
 10
483.0
 20
647.846153846
 30
0.0
 11
483.0
 21
687.5
 31
0.0
  0
LINE
  8
0
  6
CONTINUOUS
 62
     1
 10
483.0
 20
641.5
 30
0.0
 11
483.0
 21
642.9321338
 31
0.0
  0
ARC
  8
0
  6
CONTINUOUS
 62
     1
 10
480.0
 20
641.5
 30
0.0
 40
3.0
 50
270.0
 51
0.0
  0
LINE
  8
0
  6
CONTINUOUS
 62
     1
 10
406.0
 20
638.5
 30
0.0
 11
480.0
 21
638.5
 31
0.0
  0
LINE
  8
0
  6
CONTINUOUS
 62
     1
 10
483.5
 20
626.5
 30
0.0
 11
490.0
 21
626.5
 31
0.0
  0
ARC
  8
0
  6
CONTINUOUS
 62
     1
 10
508.0
 20
658.0
 30
0.0
 40
15.0
 50
90.0
 51
180.0
  0
LINE
  8
0
  6
CONTINUOUS
 62
     1
 10
490.0
 20
623.0
 30
0.0
 11
491.00001079
 21
623.0
 31
0.0
  0
LINE
  8
0
  6
CONTINUOUS
 62
     1
 10
493.0
 20
658.0
 30
0.0
 11
493.0
 21
625.000007629
 31
0.0
  0
ARC
  8
0
  6
CONTINUOUS
 62
     1
 10
491.0
 20
625.0
 30
0.0
 40
2.0
 50
270.000309099
 51
0.000218566
  0
LINE
  8
0
  6
CONTINUOUS
 62
     1
 10
327.0
 20
565.5
 30
0.0
 11
327.0
 21
622.5
 31
0.0
  0
ARC
  8
0
  6
CONTINUOUS
 62
     1
 10
323.5
 20
621.0
 30
0.0
 40
1.5
 50
90.0
 51
180.0
  0
LINE
  8
0
  6
CONTINUOUS
 62
     1
 10
322.0
 20
608.570524155
 30
0.0
 11
322.0
 21
621.0
 31
0.0
  0
ARC
  8
0
  6
CONTINUOUS
 62
     1
 10
320.5
 20
608.570524155
 30
0.0
 40
1.5
 50
288.970407808
 51
0.0
  0
LINE
  8
0
  6
CONTINUOUS
 62
     1
 10
306.0
 20
565.5
 30
0.0
 11
306.0
 21
600.929475845
 31
0.0
  0
LINE
  8
0
  6
CONTINUOUS
 62
     1
 10
307.012380347
 20
602.348005744
 30
0.0
 11
320.987619653
 21
607.151994256
 31
0.0
  0
ARC
  8
0
  6
CONTINUOUS
 62
     1
 10
307.5
 20
600.929475845
 30
0.0
 40
1.5
 50
108.970407808
 51
180.0
  0
LINE
  8
0
  6
CONTINUOUS
 62
     1
 10
322.0
 20
565.5
 30
0.0
 11
322.0
 21
608.570524155
 31
0.0
  0
ARC
  8
0
  6
CONTINUOUS
 62
     1
 10
294.0
 20
582.0
 30
0.0
 40
1.0
 50
90.0
 51
180.0
  0
LINE
  8
0
  6
CONTINUOUS
 62
     1
 10
294.0
 20
583.0
 30
0.0
 11
306.0
 21
583.0
 31
0.0
  0
LINE
  8
0
  6
CONTINUOUS
 62
     1
 10
293.0
 20
565.5
 30
0.0
 11
293.0
 21
582.0
 31
0.0
  0
LINE
  8
0
  6
CONTINUOUS
 62
     1
 10
327.0
 20
565.5
 30
0.0
 11
327.0
 21
508.5
 31
0.0
  0
ARC
  8
0
  6
CONTINUOUS
 62
     1
 10
323.5
 20
510.0
 30
0.0
 40
1.5
 50
180.0
 51
270.0
  0
LINE
  8
0
  6
CONTINUOUS
 62
     1
 10
306.0
 20
565.5
 30
0.0
 11
306.0
 21
530.070524155
 31
0.0
  0
ARC
  8
0
  6
CONTINUOUS
 62
     1
 10
307.5
 20
530.070524155
 30
0.0
 40
1.5
 50
180.0
 51
251.029592192
  0
ARC
  8
0
  6
CONTINUOUS
 62
     1
 10
294.0
 20
549.0
 30
0.0
 40
1.0
 50
180.0
 51
270.0
  0
LINE
  8
0
  6
CONTINUOUS
 62
     1
 10
294.0
 20
548.0
 30
0.0
 11
306.0
 21
548.0
 31
0.0
  0
LINE
  8
0
  6
CONTINUOUS
 62
     1
 10
293.0
 20
565.5
 30
0.0
 11
293.0
 21
549.0
 31
0.0
  0
LINE
  8
0
  6
LTYPE2
 62
     2
 10
314.0
 20
601.562445841
 30
0.0
 11
325.0
 21
601.562445841
 31
0.0
  0
LINE
  8
0
  6
CONTINUOUS
 62
     1
 10
322.0
 20
522.429475845
 30
0.0
 11
322.0
 21
510.0
 31
0.0
  0
LINE
  8
0
  6
CONTINUOUS
 62
     1
 10
307.012380347
 20
528.651994256
 30
0.0
 11
320.987619653
 21
523.848005744
 31
0.0
  0
LINE
  8
0
  6
CONTINUOUS
 62
     1
 10
322.0
 20
565.5
 30
0.0
 11
322.0
 21
522.429475845
 31
0.0
  0
LINE
  8
0
  6
LTYPE2
 62
     2
 10
314.0
 20
529.437554159
 30
0.0
 11
325.0
 21
529.437554159
 31
0.0
  0
ARC
  8
0
  6
CONTINUOUS
 62
     1
 10
423.0
 20
625.5
 30
0.0
 40
3.0
 50
180.0
 51
270.0
  0
LINE
  8
0
  6
CONTINUOUS
 62
     1
 10
278.5
 20
581.0
 30
0.0
 11
293.0
 21
581.0
 31
0.0
  0
ARC
  8
0
  6
CONTINUOUS
 62
     1
 10
278.5
 20
579.5
 30
0.0
 40
1.5
 50
90.0
 51
180.0
  0
LINE
  8
0
  6
CONTINUOUS
 62
     1
 10
278.5
 20
550.0
 30
0.0
 11
293.0
 21
550.0
 31
0.0
  0
LINE
  8
0
  6
CONTINUOUS
 62
     1
 10
277.0
 20
551.5
 30
0.0
 11
277.0
 21
579.5
 31
0.0
  0
ARC
  8
0
  6
CONTINUOUS
 62
     1
 10
278.5
 20
551.5
 30
0.0
 40
1.5
 50
180.0
 51
270.0
  0
LINE
  8
2
  6
CONTINUOUS
 62
     2
 10
282.6
 20
583.0
 30
0.0
 11
283.280459689
 21
592.976821869
 31
0.0
  0
LINE
  8
2
  6
CONTINUOUS
 62
     2
 10
282.6
 20
583.0
 30
0.0
 11
278.200884442
 21
591.980411032
 31
0.0
  0
LINE
  8
2
  6
CONTINUOUS
 62
     2
 10
219.0
 20
504.5
 30
0.0
 11
221.588190451
 21
514.159258263
 31
0.0
  0
LINE
  8
2
  6
CONTINUOUS
 62
     2
 10
219.0
 20
504.5
 30
0.0
 11
216.411809549
 21
514.159258263
 31
0.0
  0
LINE
  8
2
  6
CONTINUOUS
 62
     2
 10
219.0
 20
504.5
 30
0.0
 11
219.0
 21
626.5
 31
0.0
  0
LINE
  8
2
  6
CONTINUOUS
 62
     2
 10
219.0
 20
626.5
 30
0.0
 11
216.411809549
 21
616.840741737
 31
0.0
  0
LINE
  8
2
  6
CONTINUOUS
 62
     2
 10
219.0
 20
626.5
 30
0.0
 11
221.588190451
 21
616.840741737
 31
0.0
  0
LINE
  8
2
  6
CONTINUOUS
 62
     2
 10
254.0
 20
622.5
 30
0.0
 11
251.411809549
 21
612.840741737
 31
0.0
  0
LINE
  8
2
  6
CONTINUOUS
 62
     2
 10
254.0
 20
622.5
 30
0.0
 11
256.588190451
 21
612.840741737
 31
0.0
  0
LINE
  8
2
  6
CONTINUOUS
 62
     2
 10
254.0
 20
622.5
 30
0.0
 11
254.0
 21
508.5
 31
0.0
  0
LINE
  8
2
  6
CONTINUOUS
 62
     2
 10
254.0
 20
508.5
 30
0.0
 11
256.588190451
 21
518.159258263
 31
0.0
  0
LINE
  8
2
  6
CONTINUOUS
 62
     2
 10
254.0
 20
508.5
 30
0.0
 11
251.411809549
 21
518.159258263
 31
0.0
  0
LINE
  8
2
  6
CONTINUOUS
 62
     2
 10
318.0
 20
622.5
 30
0.0
 11
249.5
 21
622.5
 31
0.0
  0
LINE
  8
2
  6
CONTINUOUS
 62
     2
 10
318.0
 20
508.5
 30
0.0
 11
249.5
 21
508.5
 31
0.0
  0
LINE
  8
0
  6
CONTINUOUS
 62
     1
 10
377.0
 20
643.5
 30
0.0
 11
377.0
 21
677.5
 31
0.0
  0
LINE
  8
0
  6
CONTINUOUS
 62
     1
 10
377.0
 20
643.5
 30
0.0
 11
403.0
 21
643.5
 31
0.0
  0
LINE
  8
0
  6
CONTINUOUS
 62
     1
 10
377.0
 20
677.5
 30
0.0
 11
403.0
 21
677.5
 31
0.0
  0
LINE
  8
0
  6
LTYPE2
 62
     2
 10
370.070524155
 20
660.5
 30
0.0
 11
410.070524155
 21
660.5
 31
0.0
  0
LINE
  8
0
  6
CONTINUOUS
 62
     1
 10
413.0
 20
635.5
 30
0.0
 11
413.0
 21
638.5
 31
0.0
  0
ARC
  8
0
  6
CONTINUOUS
 62
     1
 10
417.0
 20
632.5
 30
0.0
 40
3.0
 50
0.0
 51
90.0
  0
LINE
  8
0
  6
CONTINUOUS
 62
     1
 10
420.0
 20
625.5
 30
0.0
 11
420.0
 21
632.5
 31
0.0
  0
LINE
  8
0
  6
CONTINUOUS
 62
     1
 10
397.912087912
 20
688.520045888
 30
0.0
 11
396.0
 21
684.520045888
 31
0.0
  0
ARC
  8
0
  6
CONTINUOUS
 62
     1
 10
480.0
 20
687.5
 30
0.0
 40
3.0
 50
0.0
 51
90.0
  0
LINE
  8
0
  6
CONTINUOUS
 62
     1
 10
403.0
 20
641.5
 30
0.0
 11
403.0
 21
681.173892042
 31
0.0
  0
ARC
  8
0
  6
CONTINUOUS
 62
     1
 10
406.0
 20
641.5
 30
0.0
 40
3.0
 50
180.0
 51
270.0
  0
LINE
  8
0
  6
CONTINUOUS
 62
     1
 10
403.0
 20
686.087912088
 30
0.0
 11
403.0
 21
687.5
 31
0.0
  0
LINE
  8
0
  6
CONTINUOUS
 62
     1
 10
406.0
 20
690.5
 30
0.0
 11
480.0
 21
690.5
 31
0.0
  0
ARC
  8
0
  6
CONTINUOUS
 62
     1
 10
406.0
 20
687.5
 30
0.0
 40
3.0
 50
90.0
 51
180.0
  0
LINE
  8
0
  6
CONTINUOUS
 62
     2
 10
377.0
 20
660.5
 30
0.0
 11
377.619310852
 21
670.48080428
 31
0.0
  0
LINE
  8
0
  6
CONTINUOUS
 62
     2
 10
377.0
 20
660.5
 30
0.0
 11
372.545936791
 21
669.453285482
 31
0.0
  0
LINE
  8
2
  6
CONTINUOUS
 62
     2
 10
282.6
 20
583.0
 30
0.0
 11
278.137353923
 21
605.75
 31
0.0
  0
LINE
  8
0
  6
CONTINUOUS
 62
     1
 10
320.7
 20
601.562445841
 30
0.0
 11
320.7
 21
596.950565841
 31
0.0
  0
LINE
  8
0
  6
CONTINUOUS
 62
     1
 10
320.7
 20
601.562445841
 30
0.0
 11
320.7
 21
606.174325841
 31
0.0
  0
LINE
  8
0
  6
CONTINUOUS
 62
     1
 10
317.1998
 20
598.080005841
 30
0.0
 11
317.851882488
 21
596.950565841
 31
0.0
  0
LINE
  8
0
  6
CONTINUOUS
 62
     1
 10
317.1998
 20
601.562445841
 30
0.0
 11
317.1998
 21
598.080005841
 31
0.0
  0
LINE
  8
0
  6
CONTINUOUS
 62
     1
 10
317.1998
 20
605.044885841
 30
0.0
 11
317.851882488
 21
606.174325841
 31
0.0
  0
LINE
  8
0
  6
CONTINUOUS
 62
     1
 10
317.1998
 20
601.562445841
 30
0.0
 11
317.1998
 21
605.044885841
 31
0.0
  0
ARC
  8
0
  6
CONTINUOUS
 62
     1
 10
321.603054926
 20
601.562445841
 30
0.0
 40
4.403254926
 50
148.419912243
 51
211.580087757
  0
ARC
  8
0
  6
CONTINUOUS
 62
     1
 10
318.544720132
 20
598.103535841
 30
0.0
 40
1.34512595
 50
121.002313915
 51
182.989498403
  0
LINE
  8
0
  6
CONTINUOUS
 62
     1
 10
317.1998
 20
605.044885841
 30
0.0
 11
317.851882488
 21
606.174325841
 31
0.0
  0
ARC
  8
0
  6
CONTINUOUS
 62
     1
 10
318.544720132
 20
605.021355841
 30
0.0
 40
1.34512595
 50
177.010501597
 51
238.997686085
  0
LINE
  8
0
  6
CONTINUOUS
 62
     1
 10
320.7
 20
596.950565841
 30
0.0
 11
317.851882488
 21
596.950565841
 31
0.0
  0
LINE
  8
0
  6
CONTINUOUS
 62
     1
 10
320.7
 20
599.256505841
 30
0.0
 11
317.851882488
 21
599.256505841
 31
0.0
  0
LINE
  8
0
  6
CONTINUOUS
 62
     1
 10
320.7
 20
603.868385841
 30
0.0
 11
317.851882488
 21
603.868385841
 31
0.0
  0
LINE
  8
0
  6
CONTINUOUS
 62
     1
 10
320.7
 20
606.174325841
 30
0.0
 11
317.851882488
 21
606.174325841
 31
0.0
  0
LINE
  8
0
  6
CONTINUOUS
 62
     1
 10
322.0
 20
596.962445841
 30
0.0
 11
320.7
 21
596.962445841
 31
0.0
  0
LINE
  8
0
  6
CONTINUOUS
 62
     1
 10
322.0
 20
601.562445841
 30
0.0
 11
320.700000446
 21
600.262446287
 31
0.0
  0
LINE
  8
0
  6
CONTINUOUS
 62
     1
 10
320.700000446
 20
601.562445841
 30
0.0
 11
322.0
 21
602.862445394
 31
0.0
  0
LINE
  8
0
  6
CONTINUOUS
 62
     1
 10
322.0
 20
606.162445841
 30
0.0
 11
320.7
 21
606.162445841
 31
0.0
  0
LINE
  8
0
  6
CONTINUOUS
 62
     1
 10
292.0
 20
561.7
 30
0.0
 11
293.0
 21
561.7
 31
0.0
  0
LINE
  8
0
  6
CONTINUOUS
 62
     1
 10
289.2
 20
562.0
 30
0.0
 11
289.517542648
 21
561.45
 31
0.0
  0
LINE
  8
0
  6
CONTINUOUS
 62
     1
 10
289.517542648
 20
561.45
 30
0.0
 11
292.0
 21
561.45
 31
0.0
  0
ARC
  8
0
  6
CONTINUOUS
 62
     1
 10
290.972973788
 20
562.4625
 30
0.0
 40
1.772973788
 50
145.174816769
 51
214.825183231
  0
LINE
  8
0
  6
CONTINUOUS
 62
     1
 10
292.0
 20
569.55
 30
0.0
 11
292.0
 21
561.45
 31
0.0
  0
LINE
  8
0
  6
CONTINUOUS
 62
     1
 10
292.0
 20
569.3
 30
0.0
 11
293.0
 21
569.3
 31
0.0
  0
LINE
  8
0
  6
CONTINUOUS
 62
     1
 10
292.0
 20
565.5
 30
0.0
 11
293.0
 21
566.5
 31
0.0
  0
LINE
  8
0
  6
CONTINUOUS
 62
     1
 10
289.517542648
 20
569.55
 30
0.0
 11
292.0
 21
569.55
 31
0.0
  0
LINE
  8
0
  6
CONTINUOUS
 62
     1
 10
289.2
 20
569.0
 30
0.0
 11
289.517542648
 21
569.55
 31
0.0
  0
LINE
  8
0
  6
CONTINUOUS
 62
     1
 10
289.517542648
 20
567.525
 30
0.0
 11
292.0
 21
567.525
 31
0.0
  0
ARC
  8
0
  6
CONTINUOUS
 62
     1
 10
290.972973788
 20
568.5375
 30
0.0
 40
1.772973788
 50
145.174816769
 51
214.825183231
  0
LINE
  8
0
  6
CONTINUOUS
 62
     1
 10
292.0
 20
564.5
 30
0.0
 11
293.0
 21
565.5
 31
0.0
  0
LINE
  8
0
  6
CONTINUOUS
 62
     1
 10
289.517542648
 20
563.475
 30
0.0
 11
292.0
 21
563.475
 31
0.0
  0
LINE
  8
0
  6
CONTINUOUS
 62
     1
 10
289.2
 20
569.0
 30
0.0
 11
289.2
 21
562.0
 31
0.0
  0
ARC
  8
0
  6
CONTINUOUS
 62
     1
 10
295.815581181
 20
565.5
 30
0.0
 40
6.615581181
 50
162.175912681
 51
197.824087319
  0
ARC
  8
0
  6
CONTINUOUS
 62
     1
 10
320.5
 20
522.429475845
 30
0.0
 40
1.5
 50
0.0
 51
71.029592192
  0
LINE
  8
0
  6
CONTINUOUS
 62
     1
 10
320.7
 20
529.437554159
 30
0.0
 11
320.7
 21
534.049434159
 31
0.0
  0
LINE
  8
0
  6
CONTINUOUS
 62
     1
 10
317.1998
 20
532.919994159
 30
0.0
 11
317.851882488
 21
534.049434159
 31
0.0
  0
LINE
  8
0
  6
CONTINUOUS
 62
     1
 10
317.1998
 20
529.437554159
 30
0.0
 11
317.1998
 21
532.919994159
 31
0.0
  0
ARC
  8
0
  6
CONTINUOUS
 62
     1
 10
318.544720132
 20
532.896464159
 30
0.0
 40
1.34512595
 50
177.010501597
 51
238.997686085
  0
LINE
  8
0
  6
CONTINUOUS
 62
     1
 10
320.7
 20
534.049434159
 30
0.0
 11
317.851882488
 21
534.049434159
 31
0.0
  0
LINE
  8
0
  6
CONTINUOUS
 62
     1
 10
322.0
 20
534.037554159
 30
0.0
 11
320.7
 21
534.037554159
 31
0.0
  0
LINE
  8
0
  6
CONTINUOUS
 62
     1
 10
320.7
 20
529.437554159
 30
0.0
 11
320.7
 21
524.825674159
 31
0.0
  0
LINE
  8
0
  6
CONTINUOUS
 62
     1
 10
317.1998
 20
525.955114159
 30
0.0
 11
317.851882488
 21
524.825674159
 31
0.0
  0
LINE
  8
0
  6
CONTINUOUS
 62
     1
 10
317.1998
 20
529.437554159
 30
0.0
 11
317.1998
 21
525.955114159
 31
0.0
  0
ARC
  8
0
  6
CONTINUOUS
 62
     1
 10
321.603054926
 20
529.437554159
 30
0.0
 40
4.403254926
 50
148.419912243
 51
211.580087757
  0
LINE
  8
0
  6
CONTINUOUS
 62
     1
 10
317.1998
 20
525.955114159
 30
0.0
 11
317.851882488
 21
524.825674159
 31
0.0
  0
ARC
  8
0
  6
CONTINUOUS
 62
     1
 10
318.544720132
 20
525.978644159
 30
0.0
 40
1.34512595
 50
121.002313915
 51
182.989498403
  0
LINE
  8
0
  6
CONTINUOUS
 62
     1
 10
320.7
 20
527.131614159
 30
0.0
 11
317.851882488
 21
527.131614159
 31
0.0
  0
LINE
  8
0
  6
CONTINUOUS
 62
     1
 10
320.7
 20
524.825674159
 30
0.0
 11
317.851882488
 21
524.825674159
 31
0.0
  0
LINE
  8
0
  6
CONTINUOUS
 62
     1
 10
322.0
 20
524.837554159
 30
0.0
 11
320.7
 21
524.837554159
 31
0.0
  0
LINE
  8
0
  6
CONTINUOUS
 62
     1
 10
320.7
 20
531.743494159
 30
0.0
 11
317.851882488
 21
531.743494159
 31
0.0
  0
LINE
  8
0
  6
CONTINUOUS
 62
     1
 10
322.0
 20
529.437554159
 30
0.0
 11
320.700000446
 21
530.737553713
 31
0.0
  0
LINE
  8
0
  6
CONTINUOUS
 62
     1
 10
320.700000446
 20
529.437554159
 30
0.0
 11
322.0
 21
528.137554606
 31
0.0
  0
LINE
  8
2
  6
CONTINUOUS
 62
     2
 10
351.495317777
 20
565.5
 30
0.0
 11
354.083508228
 21
575.159258263
 31
0.0
  0
LINE
  8
2
  6
CONTINUOUS
 62
     2
 10
351.495317777
 20
565.5
 30
0.0
 11
348.907127326
 21
575.159258263
 31
0.0
  0
LINE
  8
2
  6
CONTINUOUS
 62
     2
 10
351.495317777
 20
565.5
 30
0.0
 11
351.495317777
 21
690.5
 31
0.0
  0
LINE
  8
2
  6
CONTINUOUS
 62
     2
 10
351.495317777
 20
690.5
 30
0.0
 11
348.907127326
 21
680.840741737
 31
0.0
  0
LINE
  8
2
  6
CONTINUOUS
 62
     2
 10
351.495317777
 20
690.5
 30
0.0
 11
354.083508228
 21
680.840741737
 31
0.0
  0
LINE
  8
2
  6
CONTINUOUS
 62
     2
 10
402.0
 20
690.5
 30
0.0
 11
347.495317777
 21
690.5
 31
0.0
  0
LINE
  8
0
  6
CONTINUOUS
 62
     2
 10
377.0
 20
660.5
 30
0.0
 11
363.930224855
 21
725.032014776
 31
0.0
  0
LINE
  8
0
  6
CONTINUOUS
 62
     2
 10
363.930224855
 20
725.032014776
 30
0.0
 11
309.558072957
 21
725.032014776
 31
0.0
  0
LINE
  8
2
  6
CONTINUOUS
 62
     2
 10
277.0
 20
581.0
 30
0.0
 11
277.0
 21
822.0
 31
0.0
  0
TEXT
  8
0
  6
CONTINUOUS
 62
     2
 10
309.558072957
 20
729.032014776
 30
0.0
 40
15.0
  1
ＰＦ３／４
 50
0.0
 41
0.9
 51
0.0
  7
KANJI42
  0
TEXT
  8
2
  6
CONTINUOUS
 62
     2
 10
347.658072957
 20
636.532014776
 30
0.0
 40
15.0
  1
１２５
 50
90.0
 41
0.9
 51
0.0
  7
KANJI42
  0
TEXT
  8
0
  6
CONTINUOUS
 62
     2
 10
363.8
 20
537.5
 30
0.0
 40
15.0
  1
日本電産
 50
0.0
 41
0.9
 51
0.0
  7
KANJI42
  0
TEXT
  8
2
  6
CONTINUOUS
 62
     2
 10
215.0
 20
539.7
 30
0.0
 40
15.0
  1
ロ１２２
 50
90.0
 41
0.9
 51
0.0
  7
KANJI42
  0
TEXT
  8
2
  6
CONTINUOUS
 62
     2
 10
250.0
 20
539.7
 30
0.0
 40
15.0
  1
φ１１４
 50
90.0
 41
0.9
 51
0.0
  7
KANJI42
  0
LINE
  8
2
  6
CONTINUOUS
 62
     2
 10
620.0
 20
814.0
 30
0.0
 11
277.0
 21
814.0
 31
0.0
  0
LINE
  8
2
  6
CONTINUOUS
 62
     2
 10
277.0
 20
814.0
 30
0.0
 11
286.659258263
 21
811.411809549
 31
0.0
  0
LINE
  8
2
  6
CONTINUOUS
 62
     2
 10
277.0
 20
814.0
 30
0.0
 11
286.659258263
 21
816.588190451
 31
0.0
  0
LINE
  8
2
  6
CONTINUOUS
 62
     2
 10
277.0
 20
843.5
 30
0.0
 11
286.659258263
 21
840.911809549
 31
0.0
  0
LINE
  8
2
  6
CONTINUOUS
 62
     2
 10
277.0
 20
843.5
 30
0.0
 11
286.659258263
 21
846.088190451
 31
0.0
  0
LINE
  8
2
  6
CONTINUOUS
 62
     2
 10
277.0
 20
812.5
 30
0.0
 11
277.0
 21
851.5
 31
0.0
  0
TEXT
  8
0
  6
CONTINUOUS
 62
     2
 10
438.5
 20
818.0
 30
0.0
 40
15.0
  1
３４３
 50
0.0
 41
0.9
 51
0.0
  7
KANJI42
  0
TEXT
  8
0
  6
CONTINUOUS
 62
     2
 10
445.653757109
 20
885.228121884
 30
0.0
 40
20.0
  1
推力リミッタの作動値は、約１１０ｋｇ（設計値）
 50
0.0
 41
0.925
 51
0.0
  7
KANJI43
  0
LINE
  8
0
  6
CONTINUOUS
 62
     2
 10
446.253757109
 20
881.028121884
 30
0.0
 11
859.0
 21
881.028121884
 31
0.0
  0
LINE
  8
0
  6
CONTINUOUS
 62
     1
 10
394.0
 20
615.0
 30
0.0
 11
394.0
 21
572.0
 31
0.0
  0
TEXT
  8
0
  6
CONTINUOUS
 62
     2
 10
405.0
 20
577.0
 30
5.0
 40
20.0
  1
銘板
 50
0.0
 41
0.925
 51
0.0
  7
KANJI44
  0
LINE
  8
0
  6
CONTINUOUS
 62
     1
 10
464.0
 20
615.0
 30
0.0
 11
464.0
 21
572.0
 31
0.0
  0
LINE
  8
0
  6
CONTINUOUS
 62
     1
 10
394.0
 20
572.0
 30
0.0
 11
464.0
 21
572.0
 31
0.0
  0
LINE
  8
0
  6
CONTINUOUS
 62
     1
 10
394.0
 20
615.0
 30
0.0
 11
464.0
 21
615.0
 31
0.0
  0
ARC
  8
0
  6
CONTINUOUS
 62
     2
 10
167.45
 20
562.65
 30
0.0
 40
20.0
 50
203.198590514
 51
128.047042532
  0
LINE
  8
0
  6
CONTINUOUS
 62
     2
 10
149.0670994
 20
554.771614028
 30
0.0
 11
157.335260778
 21
549.864277493
 31
0.0
  0
LINE
  8
0
  6
CONTINUOUS
 62
     2
 10
149.0670994
 20
554.771614028
 30
0.0
 11
151.36179211
 21
544.934175251
 31
0.0
  0
TEXT
  8
0
  6
CONTINUOUS
 62
     2
 10
87.0670994
 20
558.528385972
 30
0.0
 40
15.0
  1
前進方向
 50
0.0
 41
0.9
 51
0.0
  7
KANJI42
  0
TEXT
  8
0
  6
CONTINUOUS
 62
     2
 10
251.9
 20
426.7
 30
0.0
 40
20.0
  1
ブレーキ解放装置はありません。
 50
0.0
 41
0.925
 51
0.0
  7
KANJI43
  0
TEXT
  8
0
  6
CONTINUOUS
 62
     2
 10
252.9
 20
401.7
 30
0.0
 40
20.0
  1
そのまま手動操作をして下さい．
 50
0.0
 41
0.925
 51
0.0
  7
KANJI43
  0
LINE
  8
0
  6
CONTINUOUS
 62
     2
 10
712.0
 20
752.4
 30
0.0
 11
776.8
 21
752.4
 31
0.0
  0
TEXT
  8
0
  6
CONTINUOUS
 62
     2
 10
712.0
 20
756.4
 30
0.0
 40
15.0
  1
推力リミッタ
 50
0.0
 41
0.9
 51
0.0
  7
KANJI42
  0
LINE
  8
0
  6
LTYPE2
 62
     2
 10
544.35
 20
509.5
 30
0.0
 11
883.61
 21
509.5
 31
0.0
  0
LINE
  8
0
  6
LTYPE1
 62
     2
 10
798.85
 20
523.5
 30
0.0
 11
563.85
 21
523.5
 31
0.0
  0
LINE
  8
0
  6
LTYPE1
 62
     2
 10
798.85
 20
529.5
 30
0.0
 11
563.85
 21
529.5
 31
0.0
  0
LINE
  8
0
  6
LTYPE1
 62
     2
 10
784.85
 20
530.0
 30
0.0
 11
784.85
 21
599.0
 31
0.0
  0
LINE
  8
0
  6
LTYPE1
 62
     2
 10
798.35
 20
523.5
 30
0.0
 11
798.35
 21
518.9
 31
0.0
  0
LINE
  8
0
  6
LTYPE1
 62
     2
 10
798.35
 20
523.5
 30
0.0
 11
783.35
 21
523.5
 31
0.0
  0
LINE
  8
0
  6
LTYPE1
 62
     2
 10
783.35
 20
523.5
 30
0.0
 11
783.35
 21
518.9
 31
0.0
  0
LINE
  8
0
  6
LTYPE1
 62
     2
 10
787.05
 20
523.5
 30
0.0
 11
787.05
 21
518.9
 31
0.0
  0
LINE
  8
0
  6
LTYPE1
 62
     2
 10
794.65
 20
523.5
 30
0.0
 11
794.65
 21
518.9
 31
0.0
  0
ARC
  8
0
  6
LTYPE1
 62
     2
 10
785.15
 20
521.0
 30
0.0
 40
2.8
 50
228.5
 51
311.5
  0
ARC
  8
0
  6
LTYPE1
 62
     2
 10
790.85
 20
528.9
 30
0.0
 40
10.7
 50
249.1
 51
290.9
  0
ARC
  8
0
  6
LTYPE1
 62
     2
 10
796.55
 20
521.0
 30
0.0
 40
2.8
 50
228.5
 51
311.5
  0
LINE
  8
0
  6
LTYPE1
 62
     2
 10
790.85
 20
514.7
 30
0.0
 11
790.85
 21
526.5
 31
0.0
  0
LINE
  8
0
  6
LTYPE2
 62
     2
 10
790.85
 20
510.85
 30
0.0
 11
790.85
 21
535.15
 31
0.0
  0
LINE
  8
0
  6
LTYPE1
 62
     2
 10
798.85
 20
523.5
 30
0.0
 11
798.85
 21
599.0
 31
0.0
  0
LINE
  8
0
  6
LTYPE1
 62
     2
 10
796.55
 20
518.2
 30
0.0
 11
785.15
 21
518.2
 31
0.0
  0
LINE
  8
0
  6
LTYPE3
 62
     2
 10
791.85
 20
568.75
 30
0.0
 11
791.85
 21
662.75
 31
0.0
  0
LINE
  8
0
  6
LTYPE1
 62
     2
 10
787.85
 20
599.0
 30
0.0
 11
787.85
 21
654.75
 31
0.0
  0
LINE
  8
0
  6
LTYPE1
 62
     2
 10
795.85
 20
599.0
 30
0.0
 11
795.85
 21
654.75
 31
0.0
  0
ARC
  8
0
  6
LTYPE1
 62
     2
 10
791.85
 20
654.75
 30
0.0
 40
4.0
 50
0.0
 51
180.0
  0
LINE
  8
0
  6
LTYPE1
 62
     2
 10
784.85
 20
579.0
 30
0.0
 11
798.85
 21
579.0
 31
0.0
  0
LINE
  8
0
  6
LTYPE1
 62
     2
 10
784.85
 20
599.0
 30
0.0
 11
798.85
 21
599.0
 31
0.0
  0
LINE
  8
0
  6
LTYPE1
 62
     2
 10
626.85
 20
517.5
 30
0.0
 11
844.3
 21
517.5
 31
0.0
  0
LINE
  8
0
  6
LTYPE1
 62
     2
 10
626.85
 20
501.5
 30
0.0
 11
844.3
 21
501.5
 31
0.0
  0
LINE
  8
0
  6
CONTINUOUS
 62
     1
 10
668.85
 20
489.5
 30
0.0
 11
869.7
 21
489.5
 31
0.0
  0
LINE
  8
0
  6
CONTINUOUS
 62
     1
 10
668.85
 20
473.5
 30
0.0
 11
901.0
 21
473.5
 31
0.0
  0
LINE
  8
0
  6
LTYPE3
 62
     2
 10
564.85
 20
481.5
 30
0.0
 11
1098.0
 21
481.5
 31
0.0
  0
LINE
  8
0
  6
CONTINUOUS
 62
     2
 10
1101.0
 20
814.0
 30
0.0
 11
620.0
 21
814.0
 31
0.0
  0
LINE
  8
0
  6
CONTINUOUS
 62
     2
 10
1006.0
 20
783.5
 30
0.0
 11
620.0
 21
783.5
 31
0.0
  0
LINE
  8
2
  6
CONTINUOUS
 62
     2
 10
624.5
 20
618.5
 30
0.0
 11
618.5
 21
618.5
 31
0.0
  0
LINE
  8
0
  6
CONTINUOUS
 62
     1
 10
726.0
 20
578.5
 30
0.0
 11
726.0
 21
658.5
 31
0.0
  0
CIRCLE
  8
0
  6
CONTINUOUS
 62
     1
 10
620.0
 20
618.5
 30
0.0
 40
20.0
  0
CIRCLE
  8
0
  6
CONTINUOUS
 62
     1
 10
620.0
 20
618.5
 30
0.0
 40
27.0
  0
LINE
  8
0
  6
CONTINUOUS
 62
     1
 10
644.0
 20
631.0
 30
0.0
 11
644.0
 21
661.5
 31
0.0
  0
LINE
  8
0
  6
CONTINUOUS
 62
     1
 10
644.0
 20
661.5
 30
0.0
 11
718.0
 21
661.5
 31
0.0
  0
LINE
  8
0
  6
CONTINUOUS
 62
     1
 10
561.0
 20
655.5
 30
0.0
 11
644.0
 21
655.5
 31
0.0
  0
ARC
  8
0
  6
CONTINUOUS
 62
     1
 10
561.0
 20
658.5
 30
0.0
 40
3.0
 50
183.814074834
 51
272.952201748
  0
LINE
  8
0
  6
CONTINUOUS
 62
     1
 10
726.0
 20
578.5
 30
0.0
 11
726.0
 21
658.5
 31
0.0
  0
LINE
  8
0
  6
CONTINUOUS
 62
     1
 10
718.0
 20
658.5
 30
0.0
 11
726.0
 21
658.5
 31
0.0
  0
LINE
  8
0
  6
CONTINUOUS
 62
     1
 10
718.0
 20
655.5
 30
0.0
 11
726.0
 21
655.5
 31
0.0
  0
LINE
  8
0
  6
CONTINUOUS
 62
     1
 10
601.0
 20
707.5
 30
0.0
 11
726.0
 21
707.5
 31
0.0
  0
LINE
  8
0
  6
CONTINUOUS
 62
     1
 10
718.0
 20
578.5
 30
0.0
 11
718.0
 21
663.0
 31
0.0
  0
LINE
  8
0
  6
CONTINUOUS
 62
     1
 10
596.0
 20
706.0
 30
0.0
 11
726.0
 21
706.0
 31
0.0
  0
LINE
  8
0
  6
CONTINUOUS
 62
     1
 10
596.0
 20
663.0
 30
0.0
 11
596.0
 21
706.0
 31
0.0
  0
LINE
  8
0
  6
CONTINUOUS
 62
     1
 10
601.0
 20
663.0
 30
0.0
 11
601.0
 21
712.5
 31
0.0
  0
ARC
  8
0
  6
CONTINUOUS
 62
     1
 10
603.0
 20
712.5
 30
0.0
 40
2.0
 50
90.0
 51
180.0
  0
LINE
  8
0
  6
CONTINUOUS
 62
     1
 10
603.0
 20
714.5
 30
0.0
 11
724.0
 21
714.5
 31
0.0
  0
ARC
  8
0
  6
CONTINUOUS
 62
     1
 10
724.0
 20
712.5
 30
0.0
 40
2.0
 50
0.0
 51
90.0
  0
LINE
  8
0
  6
CONTINUOUS
 62
     1
 10
596.0
 20
663.0
 30
0.0
 11
724.0
 21
663.0
 31
0.0
  0
LINE
  8
0
  6
CONTINUOUS
 62
     1
 10
726.0
 20
665.0
 30
0.0
 11
726.0
 21
712.5
 31
0.0
  0
ARC
  8
0
  6
CONTINUOUS
 62
     1
 10
724.0
 20
665.0
 30
0.0
 40
2.0
 50
270.0
 51
360.0
  0
LINE
  8
0
  6
CONTINUOUS
 62
     1
 10
644.0
 20
641.5
 30
0.0
 11
718.0
 21
641.5
 31
0.0
  0
LINE
  8
0
  6
LTYPE3
 62
     2
 10
620.0
 20
565.5
 30
0.0
 11
620.0
 21
671.5
 31
0.0
  0
LINE
  8
0
  6
LTYPE3
 62
     2
 10
681.0
 20
649.143325909
 30
0.0
 11
681.0
 21
665.5
 31
0.0
  0
LINE
  8
0
  6
LTYPE3
 62
     2
 10
589.0
 20
689.0
 30
0.0
 11
612.0
 21
689.0
 31
0.0
  0
LINE
  8
0
  6
CONTINUOUS
 62
     2
 10
596.0
 20
689.0
 30
0.0
 11
593.34257427
 21
698.640440264
 31
0.0
  0
LINE
  8
0
  6
CONTINUOUS
 62
     2
 10
596.0
 20
689.0
 30
0.0
 11
588.878381677
 21
696.020153308
 31
0.0
  0
LINE
  8
0
  6
CONTINUOUS
 62
     2
 10
596.0
 20
689.0
 30
0.0
 11
569.0
 21
735.0
 31
0.0
  0
LINE
  8
0
  6
LTYPE1
 62
     2
 10
596.0
 20
698.3
 30
0.0
 11
606.891504854
 21
698.3
 31
0.0
  0
LINE
  8
0
  6
LTYPE1
 62
     2
 10
596.0
 20
699.5
 30
0.0
 11
606.894417476
 21
699.5
 31
0.0
  0
LINE
  8
0
  6
LTYPE1
 62
     2
 10
596.0
 20
678.5
 30
0.0
 11
606.843446602
 21
678.5
 31
0.0
  0
LINE
  8
0
  6
LTYPE1
 62
     2
 10
596.0
 20
679.7
 30
0.0
 11
606.846359223
 21
679.7
 31
0.0
  0
LINE
  8
0
  6
CONTINUOUS
 62
     2
 10
683.0
 20
706.4
 30
0.0
 11
690.340707918
 21
713.190729509
 31
0.0
  0
LINE
  8
0
  6
CONTINUOUS
 62
     2
 10
683.0
 20
706.4
 30
0.0
 11
685.961874784
 21
715.951298224
 31
0.0
  0
LINE
  8
0
  6
CONTINUOUS
 62
     2
 10
683.0
 20
706.4
 30
0.0
 11
712.0
 21
752.4
 31
0.0
  0
ARC
  8
0
  6
CONTINUOUS
 62
     1
 10
561.0
 20
658.5
 30
0.0
 40
3.0
 50
183.814074834
 51
272.952201748
  0
LINE
  8
0
  6
CONTINUOUS
 62
     1
 10
558.0
 20
567.5
 30
0.0
 11
558.0
 21
671.00001079
 31
0.0
  0
ARC
  8
0
  6
CONTINUOUS
 62
     1
 10
556.0
 20
671.0
 30
0.0
 40
2.0
 50
0.000309099
 51
89.999781434
  0
LINE
  8
0
  6
CONTINUOUS
 62
     1
 10
550.0
 20
533.5
 30
0.0
 11
550.0
 21
673.0
 31
0.0
  0
LINE
  8
0
  6
CONTINUOUS
 62
     2
 10
620.0
 20
647.5
 30
0.0
 11
620.0
 21
820.0
 31
0.0
  0
LINE
  8
0
  6
CONTINUOUS
 62
     1
 10
718.0
 20
620.0
 30
0.0
 11
726.0
 21
620.0
 31
0.0
  0
LINE
  8
0
  6
CONTINUOUS
 62
     1
 10
718.0
 20
617.0
 30
0.0
 11
726.0
 21
617.0
 31
0.0
  0
LINE
  8
0
  6
CONTINUOUS
 62
     1
 10
561.0
 20
581.5
 30
0.0
 11
718.0
 21
581.5
 31
0.0
  0
LINE
  8
0
  6
CONTINUOUS
 62
     1
 10
718.0
 20
578.5
 30
0.0
 11
726.0
 21
578.5
 31
0.0
  0
LINE
  8
0
  6
CONTINUOUS
 62
     1
 10
718.0
 20
581.5
 30
0.0
 11
726.0
 21
581.5
 31
0.0
  0
CIRCLE
  8
0
  6
CONTINUOUS
 62
     1
 10
620.0
 20
618.5
 30
0.0
 40
8.0
  0
ARC
  8
0
  6
CONTINUOUS
 62
     1
 10
560.8
 20
578.5
 30
0.0
 40
3.0
 50
86.177446273
 51
182.106627847
  0
ARC
  8
0
  6
CONTINUOUS
 62
     1
 10
556.0
 20
567.5
 30
0.0
 40
2.0
 50
270.0
 51
0.0
  0
ARC
  8
0
  6
CONTINUOUS
 62
     1
 10
560.8
 20
578.5
 30
0.0
 40
3.0
 50
86.177446273
 51
182.106627847
  0
LINE
  8
0
  6
CONTINUOUS
 62
     1
 10
550.0
 20
565.5
 30
0.0
 11
556.0
 21
565.5
 31
0.0
  0
ARC
  8
0
  6
CONTINUOUS
 62
     1
 10
547.0
 20
533.5
 30
0.0
 40
3.0
 50
270.000145711
 51
0.0
  0
LINE
  8
0
  6
CONTINUOUS
 62
     2
 10
569.0
 20
735.0
 30
0.0
 11
523.4
 21
735.0
 31
0.0
  0
TEXT
  8
0
  6
CONTINUOUS
 62
     2
 10
523.4
 20
739.0
 30
0.0
 40
15.0
  1
ＰＦ１／２
 50
0.0
 41
0.9
 51
0.0
  7
KANJI42
  0
LINE
  8
2
  6
CONTINUOUS
 62
     2
 10
620.0
 20
814.0
 30
0.0
 11
610.340741737
 21
816.588190451
 31
0.0
  0
LINE
  8
2
  6
CONTINUOUS
 62
     2
 10
620.0
 20
814.0
 30
0.0
 11
610.340741737
 21
811.411809549
 31
0.0
  0
LINE
  8
0
  6
CONTINUOUS
 62
     2
 10
620.0
 20
814.0
 30
0.0
 11
629.659258263
 21
811.411809549
 31
0.0
  0
LINE
  8
0
  6
CONTINUOUS
 62
     2
 10
620.0
 20
814.0
 30
0.0
 11
629.659258263
 21
816.588190451
 31
0.0
  0
LINE
  8
0
  6
CONTINUOUS
 62
     2
 10
620.0
 20
783.5
 30
0.0
 11
629.659258263
 21
780.911809549
 31
0.0
  0
LINE
  8
0
  6
CONTINUOUS
 62
     2
 10
620.0
 20
783.5
 30
0.0
 11
629.659258263
 21
786.088190451
 31
0.0
  0
LINE
  8
2
  6
CONTINUOUS
 62
     2
 10
620.0
 20
813.0
 30
0.0
 11
620.0
 21
822.0
 31
0.0
  0
LINE
  8
0
  6
LTYPE3
 62
     2
 10
582.85
 20
509.5
 30
0.0
 11
594.35
 21
509.5
 31
0.0
  0
LINE
  8
0
  6
LTYPE1
 62
     2
 10
626.85
 20
468.5
 30
0.0
 11
626.85
 21
521.5
 31
0.0
  0
LINE
  8
0
  6
LTYPE1
 62
     2
 10
554.35
 20
509.5
 30
0.0
 11
554.35
 21
516.9
 31
0.0
  0
LINE
  8
0
  6
LTYPE1
 62
     2
 10
561.35
 20
519.3
 30
0.0
 11
555.735640646
 21
519.3
 31
0.0
  0
LINE
  8
0
  6
LTYPE1
 62
     2
 10
554.35
 20
516.9
 30
0.0
 11
555.735640646
 21
519.3
 31
0.0
  0
LINE
  8
0
  6
LTYPE1
 62
     2
 10
561.35
 20
514.4
 30
0.0
 11
555.735640646
 21
514.4
 31
0.0
  0
LINE
  8
0
  6
LTYPE1
 62
     2
 10
554.35
 20
516.9
 30
0.0
 11
555.735640646
 21
519.3
 31
0.0
  0
ARC
  8
0
  6
LTYPE1
 62
     2
 10
557.207883832
 20
516.85
 30
0.0
 40
2.858321186
 50
177.010501597
 51
238.997686085
  0
LINE
  8
0
  6
LTYPE1
 62
     2
 10
549.85
 20
513.5
 30
0.0
 11
554.35
 21
513.5
 31
0.0
  0
LINE
  8
0
  6
LTYPE1
 62
     2
 10
561.35
 20
509.5
 30
0.0
 11
561.35
 21
519.3
 31
0.0
  0
LINE
  8
0
  6
LTYPE1
 62
     2
 10
563.85
 20
518.7
 30
0.0
 11
561.35
 21
518.7
 31
0.0
  0
LINE
  8
0
  6
LTYPE1
 62
     2
 10
579.85
 20
519.9
 30
0.0
 11
586.35
 21
519.9
 31
0.0
  0
ARC
  8
0
  6
LTYPE1
 62
     2
 10
583.45
 20
517.3
 30
0.0
 40
3.9
 50
317.9
 51
42.1
  0
LINE
  8
0
  6
LTYPE1
 62
     2
 10
586.35
 20
514.7
 30
0.0
 11
579.85
 21
514.7
 31
0.0
  0
LINE
  8
0
  6
LTYPE1
 62
     2
 10
571.85
 20
519.5
 30
0.0
 11
571.85
 21
535.5
 31
0.0
  0
LINE
  8
0
  6
LTYPE1
 62
     2
 10
587.35
 20
513.5
 30
0.0
 11
594.85
 21
513.5
 31
0.0
  0
LINE
  8
0
  6
LTYPE1
 62
     2
 10
626.85
 20
521.5
 30
0.0
 11
594.85
 21
521.5
 31
0.0
  0
LINE
  8
0
  6
LTYPE1
 62
     2
 10
594.85
 20
513.5
 30
0.0
 11
599.85
 21
513.5
 31
0.0
  0
LINE
  8
0
  6
LTYPE1
 62
     2
 10
626.85
 20
515.5
 30
0.0
 11
594.85
 21
515.5
 31
0.0
  0
LINE
  8
0
  6
LTYPE1
 62
     2
 10
587.35
 20
512.5
 30
0.0
 11
594.85
 21
512.5
 31
0.0
  0
LINE
  8
0
  6
LTYPE1
 62
     2
 10
594.85
 20
512.5
 30
0.0
 11
599.85
 21
512.5
 31
0.0
  0
LINE
  8
0
  6
LTYPE1
 62
     2
 10
549.85
 20
512.5
 30
0.0
 11
554.35
 21
512.5
 31
0.0
  0
LINE
  8
0
  6
LTYPE1
 62
     2
 10
561.350000004
 20
509.5
 30
0.0
 11
563.85
 21
511.999999996
 31
0.0
  0
LINE
  8
0
  6
LTYPE1
 62
     2
 10
566.19122
 20
534.9999
 30
0.0
 11
564.35594
 21
533.940300598
 31
0.0
  0
LINE
  8
0
  6
LTYPE1
 62
     2
 10
571.85
 20
534.9999
 30
0.0
 11
566.19122
 21
534.9999
 31
0.0
  0
ARC
  8
0
  6
LTYPE1
 62
     2
 10
566.229455
 20
532.814476233
 30
0.0
 40
2.185758211
 50
31.002313915
 51
92.989498403
  0
ARC
  8
0
  6
LTYPE1
 62
     2
 10
571.85
 20
527.844844663
 30
0.0
 40
7.155055337
 50
58.419912243
 51
121.580087757
  0
LINE
  8
0
  6
LTYPE1
 62
     2
 10
564.35594
 20
529.5
 30
0.0
 11
564.35594
 21
533.940300598
 31
0.0
  0
LINE
  8
0
  6
LTYPE1
 62
     2
 10
568.10297
 20
529.5
 30
0.0
 11
568.10297
 21
533.940300598
 31
0.0
  0
LINE
  8
0
  6
LTYPE1
 62
     2
 10
577.50878
 20
534.9999
 30
0.0
 11
579.34406
 21
533.940300598
 31
0.0
  0
LINE
  8
0
  6
LTYPE1
 62
     2
 10
571.85
 20
534.9999
 30
0.0
 11
577.50878
 21
534.9999
 31
0.0
  0
LINE
  8
0
  6
LTYPE1
 62
     2
 10
577.50878
 20
534.9999
 30
0.0
 11
579.34406
 21
533.940300598
 31
0.0
  0
ARC
  8
0
  6
LTYPE1
 62
     2
 10
577.470545
 20
532.814476233
 30
0.0
 40
2.185758211
 50
87.010501597
 51
148.997686085
  0
LINE
  8
0
  6
LTYPE1
 62
     2
 10
575.59703
 20
529.5
 30
0.0
 11
575.59703
 21
533.940300598
 31
0.0
  0
LINE
  8
0
  6
LTYPE1
 62
     2
 10
579.34406
 20
529.5
 30
0.0
 11
579.34406
 21
533.940300598
 31
0.0
  0
LINE
  8
0
  6
LTYPE1
 62
     2
 10
579.85
 20
499.1
 30
0.0
 11
586.35
 21
499.1
 31
0.0
  0
ARC
  8
0
  6
LTYPE1
 62
     2
 10
583.45
 20
501.7
 30
0.0
 40
3.9
 50
317.9
 51
42.1
  0
LINE
  8
0
  6
LTYPE1
 62
     2
 10
561.35
 20
499.7
 30
0.0
 11
555.735640646
 21
499.7
 31
0.0
  0
LINE
  8
0
  6
LTYPE1
 62
     2
 10
554.35
 20
502.1
 30
0.0
 11
555.735640646
 21
499.7
 31
0.0
  0
LINE
  8
0
  6
LTYPE1
 62
     2
 10
554.35
 20
509.5
 30
0.0
 11
554.35
 21
502.1
 31
0.0
  0
LINE
  8
0
  6
LTYPE1
 62
     2
 10
561.35
 20
504.6
 30
0.0
 11
555.735640646
 21
504.6
 31
0.0
  0
ARC
  8
0
  6
LTYPE1
 62
     2
 10
557.207883832
 20
502.15
 30
0.0
 40
2.858321186
 50
121.002313915
 51
182.989498403
  0
LINE
  8
0
  6
LTYPE1
 62
     2
 10
549.85
 20
505.5
 30
0.0
 11
554.35
 21
505.5
 31
0.0
  0
LINE
  8
0
  6
LTYPE1
 62
     2
 10
549.85
 20
506.5
 30
0.0
 11
554.35
 21
506.5
 31
0.0
  0
LINE
  8
0
  6
LTYPE1
 62
     2
 10
561.35
 20
509.5
 30
0.0
 11
561.35
 21
499.7
 31
0.0
  0
LINE
  8
0
  6
LTYPE1
 62
     2
 10
579.85
 20
504.3
 30
0.0
 11
586.35
 21
504.3
 31
0.0
  0
LINE
  8
0
  6
LTYPE1
 62
     2
 10
587.35
 20
506.5
 30
0.0
 11
594.85
 21
506.5
 31
0.0
  0
LINE
  8
0
  6
LTYPE1
 62
     2
 10
587.35
 20
505.5
 30
0.0
 11
594.85
 21
505.5
 31
0.0
  0
LINE
  8
0
  6
LTYPE1
 62
     2
 10
594.85
 20
505.5
 30
0.0
 11
599.85
 21
505.5
 31
0.0
  0
LINE
  8
0
  6
LTYPE1
 62
     2
 10
594.85
 20
506.5
 30
0.0
 11
599.85
 21
506.5
 31
0.0
  0
LINE
  8
0
  6
LTYPE1
 62
     2
 10
594.85
 20
503.5
 30
0.0
 11
626.85
 21
503.5
 31
0.0
  0
LINE
  8
0
  6
LTYPE1
 62
     2
 10
579.85
 20
496.5
 30
0.0
 11
579.85
 21
523.5
 31
0.0
  0
LINE
  8
0
  6
LTYPE1
 62
     2
 10
579.85
 20
519.9
 30
0.0
 11
579.85
 21
499.1
 31
0.0
  0
ARC
  8
0
  6
LTYPE1
 62
     2
 10
563.7066828
 20
509.5
 30
0.0
 40
9.3566828
 50
148.419912243
 51
211.580087757
  0
LINE
  8
0
  6
LTYPE1
 62
     2
 10
549.85
 20
505.5
 30
0.0
 11
549.85
 21
513.5
 31
0.0
  0
ARC
  8
0
  6
LTYPE1
 62
     2
 10
573.35
 20
509.5
 30
0.0
 40
14.0
 50
338.2
 51
21.8
  0
LINE
  8
0
  6
LTYPE1
 62
     2
 10
587.35
 20
501.7
 30
0.0
 11
587.35
 21
517.3
 31
0.0
  0
LINE
  8
0
  6
LTYPE1
 62
     2
 10
599.85
 20
503.5
 30
0.0
 11
599.85
 21
515.5
 31
0.0
  0
LINE
  8
0
  6
LTYPE1
 62
     2
 10
563.85
 20
496.5
 30
0.0
 11
579.85
 21
496.5
 31
0.0
  0
LINE
  8
0
  6
LTYPE1
 62
     2
 10
563.85
 20
509.5
 30
0.0
 11
561.350000004
 21
507.000000004
 31
0.0
  0
LINE
  8
0
  6
LTYPE1
 62
     2
 10
563.85
 20
500.3
 30
0.0
 11
561.35
 21
500.3
 31
0.0
  0
LINE
  8
0
  6
LTYPE1
 62
     2
 10
563.85
 20
496.5
 30
0.0
 11
563.85
 21
529.5
 31
0.0
  0
LINE
  8
0
  6
LTYPE1
 62
     2
 10
592.35
 20
491.3
 30
0.0
 11
586.735640646
 21
491.3
 31
0.0
  0
LINE
  8
0
  6
LTYPE1
 62
     2
 10
585.35
 20
488.9
 30
0.0
 11
586.735640646
 21
491.3
 31
0.0
  0
LINE
  8
0
  6
LTYPE1
 62
     2
 10
585.35
 20
488.9
 30
0.0
 11
586.735640646
 21
491.3
 31
0.0
  0
LINE
  8
0
  6
LTYPE1
 62
     2
 10
594.85
 20
490.7
 30
0.0
 11
592.35
 21
490.7
 31
0.0
  0
LINE
  8
0
  6
LTYPE1
 62
     2
 10
585.35
 20
481.5
 30
0.0
 11
585.35
 21
488.9
 31
0.0
  0
LINE
  8
0
  6
LTYPE1
 62
     2
 10
592.35
 20
486.4
 30
0.0
 11
586.735640646
 21
486.4
 31
0.0
  0
ARC
  8
0
  6
LTYPE1
 62
     2
 10
588.207883832
 20
488.85
 30
0.0
 40
2.858321186
 50
177.010501597
 51
238.997686085
  0
LINE
  8
0
  6
LTYPE1
 62
     2
 10
592.35
 20
481.5
 30
0.0
 11
592.35
 21
491.3
 31
0.0
  0
LINE
  8
0
  6
LTYPE1
 62
     2
 10
576.85
 20
485.5
 30
0.0
 11
585.35
 21
485.5
 31
0.0
  0
ARC
  8
0
  6
LTYPE1
 62
     2
 10
594.7066828
 20
481.5
 30
0.0
 40
9.3566828
 50
148.419912243
 51
211.580087757
  0
LINE
  8
0
  6
LTYPE1
 62
     2
 10
576.85
 20
477.5
 30
0.0
 11
576.85
 21
485.5
 31
0.0
  0
LINE
  8
0
  6
LTYPE1
 62
     2
 10
594.85
 20
468.5
 30
0.0
 11
594.85
 21
521.5
 31
0.0
  0
LINE
  8
0
  6
LTYPE1
 62
     2
 10
594.85
 20
468.5
 30
0.0
 11
626.85
 21
468.5
 31
0.0
  0
LINE
  8
0
  6
LTYPE1
 62
     2
 10
592.35
 20
481.5
 30
0.0
 11
592.35
 21
471.7
 31
0.0
  0
LINE
  8
0
  6
LTYPE1
 62
     2
 10
592.35
 20
471.7
 30
0.0
 11
586.735640646
 21
471.7
 31
0.0
  0
LINE
  8
0
  6
LTYPE1
 62
     2
 10
585.35
 20
474.1
 30
0.0
 11
586.735640646
 21
471.7
 31
0.0
  0
LINE
  8
0
  6
LTYPE1
 62
     2
 10
585.35
 20
481.5
 30
0.0
 11
585.35
 21
474.1
 31
0.0
  0
LINE
  8
0
  6
LTYPE1
 62
     2
 10
592.35
 20
476.6
 30
0.0
 11
586.735640646
 21
476.6
 31
0.0
  0
ARC
  8
0
  6
LTYPE1
 62
     2
 10
588.207883832
 20
474.15
 30
0.0
 40
2.858321186
 50
121.002313915
 51
182.989498403
  0
LINE
  8
0
  6
LTYPE1
 62
     2
 10
594.85
 20
472.3
 30
0.0
 11
592.35
 21
472.3
 31
0.0
  0
LINE
  8
0
  6
LTYPE1
 62
     2
 10
594.85
 20
481.5
 30
0.0
 11
592.350000004
 21
479.000000004
 31
0.0
  0
LINE
  8
0
  6
LTYPE1
 62
     2
 10
576.85
 20
477.5
 30
0.0
 11
585.35
 21
477.5
 31
0.0
  0
LINE
  8
0
  6
LTYPE1
 62
     2
 10
576.85
 20
478.5
 30
0.0
 11
585.35
 21
478.5
 31
0.0
  0
LINE
  8
0
  6
LTYPE1
 62
     2
 10
592.350000004
 20
481.5
 30
0.0
 11
594.85
 21
483.999999996
 31
0.0
  0
LINE
  8
0
  6
LTYPE1
 62
     2
 10
576.85
 20
484.5
 30
0.0
 11
585.35
 21
484.5
 31
0.0
  0
LINE
  8
0
  6
LTYPE2
 62
     2
 10
647.85
 20
471.5
 30
0.0
 11
647.85
 21
491.5
 31
0.0
  0
CIRCLE
  8
0
  6
CONTINUOUS
 62
     2
 10
647.85
 20
481.5
 30
0.0
 40
5.0
  0
CIRCLE
  8
0
  6
CONTINUOUS
 62
     2
 10
647.85
 20
481.5
 30
0.0
 40
4.0
  0
LINE
  8
0
  6
CONTINUOUS
 62
     1
 10
613.35
 20
490.05
 30
0.0
 11
613.35
 21
474.05
 31
0.0
  0
LINE
  8
0
  6
CONTINUOUS
 62
     1
 10
613.35
 20
490.05
 30
0.0
 11
626.85
 21
490.05
 31
0.0
  0
LINE
  8
0
  6
CONTINUOUS
 62
     1
 10
613.35
 20
474.05
 30
0.0
 11
626.85
 21
474.05
 31
0.0
  0
LINE
  8
0
  6
CONTINUOUS
 62
     1
 10
635.5
 20
497.5
 30
0.0
 11
660.2
 21
497.5
 31
0.0
  0
LINE
  8
0
  6
CONTINUOUS
 62
     1
 10
635.5
 20
465.5
 30
0.0
 11
635.5
 21
497.5
 31
0.0
  0
LINE
  8
0
  6
CONTINUOUS
 62
     1
 10
626.85
 20
492.5
 30
0.0
 11
635.510254038
 21
497.5
 31
0.0
  0
LINE
  8
0
  6
CONTINUOUS
 62
     1
 10
626.85
 20
470.5
 30
0.0
 11
626.85
 21
492.5
 31
0.0
  0
LINE
  8
0
  6
CONTINUOUS
 62
     1
 10
660.2
 20
465.5
 30
0.0
 11
660.2
 21
497.5
 31
0.0
  0
LINE
  8
0
  6
CONTINUOUS
 62
     1
 10
635.5
 20
465.5
 30
0.0
 11
660.2
 21
465.5
 31
0.0
  0
LINE
  8
0
  6
CONTINUOUS
 62
     1
 10
668.85
 20
470.5
 30
0.0
 11
660.189745962
 21
465.5
 31
0.0
  0
LINE
  8
0
  6
CONTINUOUS
 62
     1
 10
626.85
 20
470.5
 30
0.0
 11
635.510254038
 21
465.5
 31
0.0
  0
LINE
  8
0
  6
CONTINUOUS
 62
     1
 10
668.85
 20
470.5
 30
0.0
 11
668.85
 21
492.5
 31
0.0
  0
LINE
  8
0
  6
CONTINUOUS
 62
     1
 10
668.85
 20
492.5
 30
0.0
 11
660.189745962
 21
497.5
 31
0.0
  0
TEXT
  8
0
  6
CONTINUOUS
 62
     2
 10
611.6
 20
847.5
 30
0.0
 40
15.0
  1
ｍｉｎ．ＡＬ
 50
0.0
 41
0.9
 51
0.0
  7
KANJI42
  0
LINE
  8
0
  6
CONTINUOUS
 62
     2
 10
771.0
 20
697.906179125
 30
0.0
 11
813.897884886
 21
697.906179125
 31
0.0
  0
TEXT
  8
0
  6
CONTINUOUS
 62
     2
 10
770.297884886
 20
701.906179125
 30
0.0
 40
15.0
  1
給脂口
 50
0.0
 41
0.9
 51
0.0
  7
KANJI42
  0
LINE
  8
0
  6
LTYPE3
 62
     2
 10
515.9
 20
618.5
 30
0.0
 11
1129.9
 21
618.5
 31
0.0
  0
LINE
  8
0
  6
CONTINUOUS
 62
     1
 10
659.405833333
 20
242.268333333
 30
0.0
 11
659.405833333
 21
188.351666667
 31
0.0
  0
LINE
  8
0
  6
CONTINUOUS
 62
     1
 10
661.0725
 20
186.685
 30
0.0
 11
691.0725
 21
186.685
 31
0.0
  0
ARC
  8
0
  6
CONTINUOUS
 62
     1
 10
661.0725
 20
188.351666667
 30
0.0
 40
1.666666667
 50
180.0
 51
270.0
  0
LINE
  8
0
  6
CONTINUOUS
 62
     1
 10
692.739166667
 20
242.268333333
 30
0.0
 11
692.739166667
 21
188.351666667
 31
0.0
  0
ARC
  8
0
  6
CONTINUOUS
 62
     1
 10
691.0725
 20
188.351666667
 30
0.0
 40
1.666666667
 50
270.0
 51
0.0
  0
ARC
  8
0
  6
CONTINUOUS
 62
     1
 10
661.0725
 20
242.268333333
 30
0.0
 40
1.666666667
 50
90.0
 51
180.0
  0
LINE
  8
0
  6
CONTINUOUS
 62
     1
 10
665.489166667
 20
263.435
 30
0.0
 11
665.489166667
 21
243.935
 31
0.0
  0
LINE
  8
0
  6
CONTINUOUS
 62
     1
 10
661.0725
 20
243.935
 30
0.0
 11
691.0725
 21
243.935
 31
0.0
  0
ARC
  8
0
  6
CONTINUOUS
 62
     1
 10
691.0725
 20
242.268333333
 30
0.0
 40
1.666666667
 50
0.0
 51
90.0
  0
ARC
  8
0
  6
CONTINUOUS
 62
     1
 10
667.155833333
 20
263.435
 30
0.0
 40
1.666666667
 50
90.0
 51
180.0
  0
ARC
  8
0
  6
CONTINUOUS
 62
     1
 10
676.0725
 20
252.018333333
 30
0.0
 40
5.0
 50
131.983045121
 51
318.016954879
  0
LINE
  8
0
  6
LTYPE3
 62
     2
 10
670.710273576
 20
246.656106909
 30
0.0
 11
704.592473508
 21
280.538306841
 31
0.0
  0
LINE
  8
0
  6
CONTINUOUS
 62
     1
 10
672.727947083
 20
255.735047714
 30
0.0
 11
696.234512793
 21
276.887857658
 31
0.0
  0
LINE
  8
0
  6
CONTINUOUS
 62
     1
 10
679.789214381
 20
248.673780417
 30
0.0
 11
700.942024325
 21
272.180346126
 31
0.0
  0
LINE
  8
0
  6
LTYPE3
 62
     2
 10
704.946026898
 20
267.92823591
 30
0.0
 11
691.393146926
 21
281.481115883
 31
0.0
  0
ARC
  8
0
  6
CONTINUOUS
 62
     1
 10
698.464214738
 20
274.410048071
 30
0.0
 40
7.291666667
 50
255.219855722
 51
194.780144278
  0
ARC
  8
0
  6
CONTINUOUS
 62
     1
 10
698.464214738
 20
274.410048071
 30
0.0
 40
3.333333333
 50
311.983042101
 51
138.016952287
  0
LINE
  8
0
  6
CONTINUOUS
 62
     1
 10
686.655833333
 20
256.304474875
 30
0.0
 11
686.655833333
 21
243.935
 31
0.0
  0
LINE
  8
0
  6
CONTINUOUS
 62
     1
 10
667.155833333
 20
265.101666667
 30
0.0
 11
683.136826304
 21
265.101666667
 31
0.0
  0
LINE
  8
0
  6
LTYPE2
 62
     2
 10
663.676666667
 20
224.351666667
 30
0.0
 11
688.676666667
 21
224.351666667
 31
0.0
  0
LINE
  8
0
  6
LTYPE2
 62
     2
 10
688.676666667
 20
224.351666667
 30
0.0
 11
688.676666667
 21
232.268333333
 31
0.0
  0
LINE
  8
0
  6
LTYPE2
 62
     2
 10
688.676666667
 20
232.268333333
 30
0.0
 11
663.676666667
 21
232.268333333
 31
0.0
  0
LINE
  8
0
  6
LTYPE2
 62
     2
 10
663.676666667
 20
232.268333333
 30
0.0
 11
663.676666667
 21
224.351666667
 31
0.0
  0
LINE
  8
0
  6
CONTINUOUS
 62
     1
 10
663.676666667
 20
199.351666667
 30
0.0
 11
688.676666667
 21
199.351666667
 31
0.0
  0
LINE
  8
0
  6
CONTINUOUS
 62
     1
 10
688.676666667
 20
199.351666667
 30
0.0
 11
688.676666667
 21
207.268333333
 31
0.0
  0
LINE
  8
0
  6
CONTINUOUS
 62
     1
 10
688.676666667
 20
207.268333333
 30
0.0
 11
663.676666667
 21
207.268333333
 31
0.0
  0
LINE
  8
0
  6
CONTINUOUS
 62
     1
 10
663.676666667
 20
207.268333333
 30
0.0
 11
663.676666667
 21
199.351666667
 31
0.0
  0
TEXT
  8
0
  6
CONTINUOUS
 62
     2
 10
662.655833333
 20
235.018333333
 30
0.0
 40
8.333333333
  1
４
 50
0.0
 41
0.85
 51
0.0
  7
KANJI45
  0
TEXT
  8
0
  6
CONTINUOUS
 62
     2
 10
683.489166667
 20
235.018333333
 30
0.0
 40
8.333333333
  1
３
 50
0.0
 41
0.85
 51
0.0
  7
KANJI45
  0
POLYLINE
  8
0
  6
CONTINUOUS
 62
     2
 66
     1
 70
     1
  0
VERTEX
  8
0
  6
CONTINUOUS
 62
     2
 10
671.8225
 20
234.393333333
 30
0.0
 42
0.021820078
  0
VERTEX
  8
0
  6
CONTINUOUS
 62
     2
 10
671.815365059
 20
234.556750351
 30
0.0
 42
0.021820078
  0
VERTEX
  8
0
  6
CONTINUOUS
 62
     2
 10
671.794014537
 20
234.718923666
 30
0.0
 42
0.021820078
  0
VERTEX
  8
0
  6
CONTINUOUS
 62
     2
 10
671.758610924
 20
234.878619043
 30
0.0
 42
0.021820078
  0
VERTEX
  8
0
  6
CONTINUOUS
 62
     2
 10
671.709423664
 20
235.034621102
 30
0.0
 42
0.021820078
  0
VERTEX
  8
0
  6
CONTINUOUS
 62
     2
 10
671.646827101
 20
235.185742574
 30
0.0
 42
0.021820078
  0
VERTEX
  8
0
  6
CONTINUOUS
 62
     2
 10
671.571297632
 20
235.330833333
 30
0.0
 42
0.021820078
  0
VERTEX
  8
0
  6
CONTINUOUS
 62
     2
 10
671.483410083
 20
235.468789151
 30
0.0
 42
0.021820078
  0
VERTEX
  8
0
  6
CONTINUOUS
 62
     2
 10
671.383833331
 20
235.598560101
 30
0.0
 42
0.021820078
  0
VERTEX
  8
0
  6
CONTINUOUS
 62
     2
 10
671.273325215
 20
235.719158548
 30
0.0
 42
0.021820078
  0
VERTEX
  8
0
  6
CONTINUOUS
 62
     2
 10
671.152726768
 20
235.829666664
 30
0.0
 42
0.021820078
  0
VERTEX
  8
0
  6
CONTINUOUS
 62
     2
 10
671.022955818
 20
235.929243416
 30
0.0
 42
0.021820078
  0
VERTEX
  8
0
  6
CONTINUOUS
 62
     2
 10
670.885
 20
236.017130965
 30
0.0
 42
0.021820078
  0
VERTEX
  8
0
  6
CONTINUOUS
 62
     2
 10
670.739909241
 20
236.092660434
 30
0.0
 42
0.021820078
  0
VERTEX
  8
0
  6
CONTINUOUS
 62
     2
 10
670.588787769
 20
236.155256997
 30
0.0
 42
0.021820078
  0
VERTEX
  8
0
  6
CONTINUOUS
 62
     2
 10
670.43278571
 20
236.204444258
 30
0.0
 42
0.021820078
  0
VERTEX
  8
0
  6
CONTINUOUS
 62
     2
 10
670.273090333
 20
236.23984787
 30
0.0
 42
0.021820078
  0
VERTEX
  8
0
  6
CONTINUOUS
 62
     2
 10
670.110917018
 20
236.261198392
 30
0.0
 42
0.021820078
  0
VERTEX
  8
0
  6
CONTINUOUS
 62
     2
 10
669.9475
 20
236.268333333
 30
0.0
 42
0.021820078
  0
VERTEX
  8
0
  6
CONTINUOUS
 62
     2
 10
669.784082982
 20
236.261198392
 30
0.0
 42
0.021820078
  0
VERTEX
  8
0
  6
CONTINUOUS
 62
     2
 10
669.621909667
 20
236.23984787
 30
0.0
 42
0.021820078
  0
VERTEX
  8
0
  6
CONTINUOUS
 62
     2
 10
669.46221429
 20
236.204444258
 30
0.0
 42
0.021820078
  0
VERTEX
  8
0
  6
CONTINUOUS
 62
     2
 10
669.306212231
 20
236.155256997
 30
0.0
 42
0.021820078
  0
VERTEX
  8
0
  6
CONTINUOUS
 62
     2
 10
669.155090759
 20
236.092660434
 30
0.0
 42
0.021820078
  0
VERTEX
  8
0
  6
CONTINUOUS
 62
     2
 10
669.01
 20
236.017130965
 30
0.0
 42
0.021820078
  0
VERTEX
  8
0
  6
CONTINUOUS
 62
     2
 10
668.872044182
 20
235.929243416
 30
0.0
 42
0.021820078
  0
VERTEX
  8
0
  6
CONTINUOUS
 62
     2
 10
668.742273232
 20
235.829666664
 30
0.0
 42
0.021820078
  0
VERTEX
  8
0
  6
CONTINUOUS
 62
     2
 10
668.621674785
 20
235.719158548
 30
0.0
 42
0.021820078
  0
VERTEX
  8
0
  6
CONTINUOUS
 62
     2
 10
668.511166669
 20
235.598560101
 30
0.0
 42
0.021820078
  0
VERTEX
  8
0
  6
CONTINUOUS
 62
     2
 10
668.411589917
 20
235.468789151
 30
0.0
 42
0.021820078
  0
VERTEX
  8
0
  6
CONTINUOUS
 62
     2
 10
668.323702368
 20
235.330833333
 30
0.0
 42
0.021820078
  0
VERTEX
  8
0
  6
CONTINUOUS
 62
     2
 10
668.248172899
 20
235.185742574
 30
0.0
 42
0.021820078
  0
VERTEX
  8
0
  6
CONTINUOUS
 62
     2
 10
668.185576336
 20
235.034621102
 30
0.0
 42
0.021820078
  0
VERTEX
  8
0
  6
CONTINUOUS
 62
     2
 10
668.136389076
 20
234.878619043
 30
0.0
 42
0.021820078
  0
VERTEX
  8
0
  6
CONTINUOUS
 62
     2
 10
668.100985463
 20
234.718923666
 30
0.0
 42
0.021820078
  0
VERTEX
  8
0
  6
CONTINUOUS
 62
     2
 10
668.079634941
 20
234.556750351
 30
0.0
 42
0.021820078
  0
VERTEX
  8
0
  6
CONTINUOUS
 62
     2
 10
668.0725
 20
234.393333333
 30
0.0
 42
0.021820078
  0
VERTEX
  8
0
  6
CONTINUOUS
 62
     2
 10
668.079634941
 20
234.229916316
 30
0.0
 42
0.021820078
  0
VERTEX
  8
0
  6
CONTINUOUS
 62
     2
 10
668.100985463
 20
234.067743
 30
0.0
 42
0.021820078
  0
VERTEX
  8
0
  6
CONTINUOUS
 62
     2
 10
668.136389076
 20
233.908047624
 30
0.0
 42
0.021820078
  0
VERTEX
  8
0
  6
CONTINUOUS
 62
     2
 10
668.185576336
 20
233.752045565
 30
0.0
 42
0.021820078
  0
VERTEX
  8
0
  6
CONTINUOUS
 62
     2
 10
668.248172899
 20
233.600924093
 30
0.0
 42
0.021820078
  0
VERTEX
  8
0
  6
CONTINUOUS
 62
     2
 10
668.323702368
 20
233.455833333
 30
0.0
 42
0.021820078
  0
VERTEX
  8
0
  6
CONTINUOUS
 62
     2
 10
668.411589917
 20
233.317877515
 30
0.0
 42
0.021820078
  0
VERTEX
  8
0
  6
CONTINUOUS
 62
     2
 10
668.511166669
 20
233.188106565
 30
0.0
 42
0.021820078
  0
VERTEX
  8
0
  6
CONTINUOUS
 62
     2
 10
668.621674785
 20
233.067508119
 30
0.0
 42
0.021820078
  0
VERTEX
  8
0
  6
CONTINUOUS
 62
     2
 10
668.742273232
 20
232.957000002
 30
0.0
 42
0.021820078
  0
VERTEX
  8
0
  6
CONTINUOUS
 62
     2
 10
668.872044182
 20
232.85742325
 30
0.0
 42
0.021820078
  0
VERTEX
  8
0
  6
CONTINUOUS
 62
     2
 10
669.01
 20
232.769535701
 30
0.0
 42
0.021820078
  0
VERTEX
  8
0
  6
CONTINUOUS
 62
     2
 10
669.155090759
 20
232.694006233
 30
0.0
 42
0.021820078
  0
VERTEX
  8
0
  6
CONTINUOUS
 62
     2
 10
669.306212231
 20
232.631409669
 30
0.0
 42
0.021820078
  0
VERTEX
  8
0
  6
CONTINUOUS
 62
     2
 10
669.46221429
 20
232.582222409
 30
0.0
 42
0.021820078
  0
VERTEX
  8
0
  6
CONTINUOUS
 62
     2
 10
669.621909667
 20
232.546818796
 30
0.0
 42
0.021820078
  0
VERTEX
  8
0
  6
CONTINUOUS
 62
     2
 10
669.784082982
 20
232.525468274
 30
0.0
 42
0.021820078
  0
VERTEX
  8
0
  6
CONTINUOUS
 62
     2
 10
669.9475
 20
232.518333333
 30
0.0
 42
0.021820078
  0
VERTEX
  8
0
  6
CONTINUOUS
 62
     2
 10
670.110917018
 20
232.525468274
 30
0.0
 42
0.021820078
  0
VERTEX
  8
0
  6
CONTINUOUS
 62
     2
 10
670.273090333
 20
232.546818796
 30
0.0
 42
0.021820078
  0
VERTEX
  8
0
  6
CONTINUOUS
 62
     2
 10
670.43278571
 20
232.582222409
 30
0.0
 42
0.021820078
  0
VERTEX
  8
0
  6
CONTINUOUS
 62
     2
 10
670.588787769
 20
232.631409669
 30
0.0
 42
0.021820078
  0
VERTEX
  8
0
  6
CONTINUOUS
 62
     2
 10
670.739909241
 20
232.694006233
 30
0.0
 42
0.021820078
  0
VERTEX
  8
0
  6
CONTINUOUS
 62
     2
 10
670.885
 20
232.769535701
 30
0.0
 42
0.021820078
  0
VERTEX
  8
0
  6
CONTINUOUS
 62
     2
 10
671.022955818
 20
232.85742325
 30
0.0
 42
0.021820078
  0
VERTEX
  8
0
  6
CONTINUOUS
 62
     2
 10
671.152726768
 20
232.957000002
 30
0.0
 42
0.021820078
  0
VERTEX
  8
0
  6
CONTINUOUS
 62
     2
 10
671.273325215
 20
233.067508119
 30
0.0
 42
0.021820078
  0
VERTEX
  8
0
  6
CONTINUOUS
 62
     2
 10
671.383833331
 20
233.188106565
 30
0.0
 42
0.021820078
  0
VERTEX
  8
0
  6
CONTINUOUS
 62
     2
 10
671.483410083
 20
233.317877515
 30
0.0
 42
0.021820078
  0
VERTEX
  8
0
  6
CONTINUOUS
 62
     2
 10
671.571297632
 20
233.455833333
 30
0.0
 42
0.021820078
  0
VERTEX
  8
0
  6
CONTINUOUS
 62
     2
 10
671.646827101
 20
233.600924093
 30
0.0
 42
0.021820078
  0
VERTEX
  8
0
  6
CONTINUOUS
 62
     2
 10
671.709423664
 20
233.752045565
 30
0.0
 42
0.021820078
  0
VERTEX
  8
0
  6
CONTINUOUS
 62
     2
 10
671.758610924
 20
233.908047624
 30
0.0
 42
0.021820078
  0
VERTEX
  8
0
  6
CONTINUOUS
 62
     2
 10
671.794014537
 20
234.067743
 30
0.0
 42
0.021820078
  0
VERTEX
  8
0
  6
CONTINUOUS
 62
     2
 10
671.815365059
 20
234.229916316
 30
0.0
 42
0.021820078
  0
SEQEND
  8
0
  6
CONTINUOUS
 62
     2
  0
POLYLINE
  8
0
  6
CONTINUOUS
 62
     2
 66
     1
 70
     1
  0
VERTEX
  8
0
  6
CONTINUOUS
 62
     2
 10
684.3225
 20
234.393333333
 30
0.0
 42
0.021820078
  0
VERTEX
  8
0
  6
CONTINUOUS
 62
     2
 10
684.315365059
 20
234.556750351
 30
0.0
 42
0.021820078
  0
VERTEX
  8
0
  6
CONTINUOUS
 62
     2
 10
684.294014537
 20
234.718923666
 30
0.0
 42
0.021820078
  0
VERTEX
  8
0
  6
CONTINUOUS
 62
     2
 10
684.258610924
 20
234.878619043
 30
0.0
 42
0.021820078
  0
VERTEX
  8
0
  6
CONTINUOUS
 62
     2
 10
684.209423664
 20
235.034621102
 30
0.0
 42
0.021820078
  0
VERTEX
  8
0
  6
CONTINUOUS
 62
     2
 10
684.146827101
 20
235.185742574
 30
0.0
 42
0.021820078
  0
VERTEX
  8
0
  6
CONTINUOUS
 62
     2
 10
684.071297632
 20
235.330833333
 30
0.0
 42
0.021820078
  0
VERTEX
  8
0
  6
CONTINUOUS
 62
     2
 10
683.983410083
 20
235.468789151
 30
0.0
 42
0.021820078
  0
VERTEX
  8
0
  6
CONTINUOUS
 62
     2
 10
683.883833331
 20
235.598560101
 30
0.0
 42
0.021820078
  0
VERTEX
  8
0
  6
CONTINUOUS
 62
     2
 10
683.773325215
 20
235.719158548
 30
0.0
 42
0.021820078
  0
VERTEX
  8
0
  6
CONTINUOUS
 62
     2
 10
683.652726768
 20
235.829666664
 30
0.0
 42
0.021820078
  0
VERTEX
  8
0
  6
CONTINUOUS
 62
     2
 10
683.522955818
 20
235.929243416
 30
0.0
 42
0.021820078
  0
VERTEX
  8
0
  6
CONTINUOUS
 62
     2
 10
683.385
 20
236.017130965
 30
0.0
 42
0.021820078
  0
VERTEX
  8
0
  6
CONTINUOUS
 62
     2
 10
683.239909241
 20
236.092660434
 30
0.0
 42
0.021820078
  0
VERTEX
  8
0
  6
CONTINUOUS
 62
     2
 10
683.088787769
 20
236.155256997
 30
0.0
 42
0.021820078
  0
VERTEX
  8
0
  6
CONTINUOUS
 62
     2
 10
682.93278571
 20
236.204444258
 30
0.0
 42
0.021820078
  0
VERTEX
  8
0
  6
CONTINUOUS
 62
     2
 10
682.773090333
 20
236.23984787
 30
0.0
 42
0.021820078
  0
VERTEX
  8
0
  6
CONTINUOUS
 62
     2
 10
682.610917018
 20
236.261198392
 30
0.0
 42
0.021820078
  0
VERTEX
  8
0
  6
CONTINUOUS
 62
     2
 10
682.4475
 20
236.268333333
 30
0.0
 42
0.021820078
  0
VERTEX
  8
0
  6
CONTINUOUS
 62
     2
 10
682.284082982
 20
236.261198392
 30
0.0
 42
0.021820078
  0
VERTEX
  8
0
  6
CONTINUOUS
 62
     2
 10
682.121909667
 20
236.23984787
 30
0.0
 42
0.021820078
  0
VERTEX
  8
0
  6
CONTINUOUS
 62
     2
 10
681.96221429
 20
236.204444258
 30
0.0
 42
0.021820078
  0
VERTEX
  8
0
  6
CONTINUOUS
 62
     2
 10
681.806212231
 20
236.155256997
 30
0.0
 42
0.021820078
  0
VERTEX
  8
0
  6
CONTINUOUS
 62
     2
 10
681.655090759
 20
236.092660434
 30
0.0
 42
0.021820078
  0
VERTEX
  8
0
  6
CONTINUOUS
 62
     2
 10
681.51
 20
236.017130965
 30
0.0
 42
0.021820078
  0
VERTEX
  8
0
  6
CONTINUOUS
 62
     2
 10
681.372044182
 20
235.929243416
 30
0.0
 42
0.021820078
  0
VERTEX
  8
0
  6
CONTINUOUS
 62
     2
 10
681.242273232
 20
235.829666664
 30
0.0
 42
0.021820078
  0
VERTEX
  8
0
  6
CONTINUOUS
 62
     2
 10
681.121674785
 20
235.719158548
 30
0.0
 42
0.021820078
  0
VERTEX
  8
0
  6
CONTINUOUS
 62
     2
 10
681.011166669
 20
235.598560101
 30
0.0
 42
0.021820078
  0
VERTEX
  8
0
  6
CONTINUOUS
 62
     2
 10
680.911589917
 20
235.468789151
 30
0.0
 42
0.021820078
  0
VERTEX
  8
0
  6
CONTINUOUS
 62
     2
 10
680.823702368
 20
235.330833333
 30
0.0
 42
0.021820078
  0
VERTEX
  8
0
  6
CONTINUOUS
 62
     2
 10
680.748172899
 20
235.185742574
 30
0.0
 42
0.021820078
  0
VERTEX
  8
0
  6
CONTINUOUS
 62
     2
 10
680.685576336
 20
235.034621102
 30
0.0
 42
0.021820078
  0
VERTEX
  8
0
  6
CONTINUOUS
 62
     2
 10
680.636389076
 20
234.878619043
 30
0.0
 42
0.021820078
  0
VERTEX
  8
0
  6
CONTINUOUS
 62
     2
 10
680.600985463
 20
234.718923666
 30
0.0
 42
0.021820078
  0
VERTEX
  8
0
  6
CONTINUOUS
 62
     2
 10
680.579634941
 20
234.556750351
 30
0.0
 42
0.021820078
  0
VERTEX
  8
0
  6
CONTINUOUS
 62
     2
 10
680.5725
 20
234.393333333
 30
0.0
 42
0.021820078
  0
VERTEX
  8
0
  6
CONTINUOUS
 62
     2
 10
680.579634941
 20
234.229916316
 30
0.0
 42
0.021820078
  0
VERTEX
  8
0
  6
CONTINUOUS
 62
     2
 10
680.600985463
 20
234.067743
 30
0.0
 42
0.021820078
  0
VERTEX
  8
0
  6
CONTINUOUS
 62
     2
 10
680.636389076
 20
233.908047624
 30
0.0
 42
0.021820078
  0
VERTEX
  8
0
  6
CONTINUOUS
 62
     2
 10
680.685576336
 20
233.752045565
 30
0.0
 42
0.021820078
  0
VERTEX
  8
0
  6
CONTINUOUS
 62
     2
 10
680.748172899
 20
233.600924093
 30
0.0
 42
0.021820078
  0
VERTEX
  8
0
  6
CONTINUOUS
 62
     2
 10
680.823702368
 20
233.455833333
 30
0.0
 42
0.021820078
  0
VERTEX
  8
0
  6
CONTINUOUS
 62
     2
 10
680.911589917
 20
233.317877515
 30
0.0
 42
0.021820078
  0
VERTEX
  8
0
  6
CONTINUOUS
 62
     2
 10
681.011166669
 20
233.188106565
 30
0.0
 42
0.021820078
  0
VERTEX
  8
0
  6
CONTINUOUS
 62
     2
 10
681.121674785
 20
233.067508119
 30
0.0
 42
0.021820078
  0
VERTEX
  8
0
  6
CONTINUOUS
 62
     2
 10
681.242273232
 20
232.957000002
 30
0.0
 42
0.021820078
  0
VERTEX
  8
0
  6
CONTINUOUS
 62
     2
 10
681.372044182
 20
232.85742325
 30
0.0
 42
0.021820078
  0
VERTEX
  8
0
  6
CONTINUOUS
 62
     2
 10
681.51
 20
232.769535701
 30
0.0
 42
0.021820078
  0
VERTEX
  8
0
  6
CONTINUOUS
 62
     2
 10
681.655090759
 20
232.694006233
 30
0.0
 42
0.021820078
  0
VERTEX
  8
0
  6
CONTINUOUS
 62
     2
 10
681.806212231
 20
232.631409669
 30
0.0
 42
0.021820078
  0
VERTEX
  8
0
  6
CONTINUOUS
 62
     2
 10
681.96221429
 20
232.582222409
 30
0.0
 42
0.021820078
  0
VERTEX
  8
0
  6
CONTINUOUS
 62
     2
 10
682.121909667
 20
232.546818796
 30
0.0
 42
0.021820078
  0
VERTEX
  8
0
  6
CONTINUOUS
 62
     2
 10
682.284082982
 20
232.525468274
 30
0.0
 42
0.021820078
  0
VERTEX
  8
0
  6
CONTINUOUS
 62
     2
 10
682.4475
 20
232.518333333
 30
0.0
 42
0.021820078
  0
VERTEX
  8
0
  6
CONTINUOUS
 62
     2
 10
682.610917018
 20
232.525468274
 30
0.0
 42
0.021820078
  0
VERTEX
  8
0
  6
CONTINUOUS
 62
     2
 10
682.773090333
 20
232.546818796
 30
0.0
 42
0.021820078
  0
VERTEX
  8
0
  6
CONTINUOUS
 62
     2
 10
682.93278571
 20
232.582222409
 30
0.0
 42
0.021820078
  0
VERTEX
  8
0
  6
CONTINUOUS
 62
     2
 10
683.088787769
 20
232.631409669
 30
0.0
 42
0.021820078
  0
VERTEX
  8
0
  6
CONTINUOUS
 62
     2
 10
683.239909241
 20
232.694006233
 30
0.0
 42
0.021820078
  0
VERTEX
  8
0
  6
CONTINUOUS
 62
     2
 10
683.385
 20
232.769535701
 30
0.0
 42
0.021820078
  0
VERTEX
  8
0
  6
CONTINUOUS
 62
     2
 10
683.522955818
 20
232.85742325
 30
0.0
 42
0.021820078
  0
VERTEX
  8
0
  6
CONTINUOUS
 62
     2
 10
683.652726768
 20
232.957000002
 30
0.0
 42
0.021820078
  0
VERTEX
  8
0
  6
CONTINUOUS
 62
     2
 10
683.773325215
 20
233.067508119
 30
0.0
 42
0.021820078
  0
VERTEX
  8
0
  6
CONTINUOUS
 62
     2
 10
683.883833331
 20
233.188106565
 30
0.0
 42
0.021820078
  0
VERTEX
  8
0
  6
CONTINUOUS
 62
     2
 10
683.983410083
 20
233.317877515
 30
0.0
 42
0.021820078
  0
VERTEX
  8
0
  6
CONTINUOUS
 62
     2
 10
684.071297632
 20
233.455833333
 30
0.0
 42
0.021820078
  0
VERTEX
  8
0
  6
CONTINUOUS
 62
     2
 10
684.146827101
 20
233.600924093
 30
0.0
 42
0.021820078
  0
VERTEX
  8
0
  6
CONTINUOUS
 62
     2
 10
684.209423664
 20
233.752045565
 30
0.0
 42
0.021820078
  0
VERTEX
  8
0
  6
CONTINUOUS
 62
     2
 10
684.258610924
 20
233.908047624
 30
0.0
 42
0.021820078
  0
VERTEX
  8
0
  6
CONTINUOUS
 62
     2
 10
684.294014537
 20
234.067743
 30
0.0
 42
0.021820078
  0
VERTEX
  8
0
  6
CONTINUOUS
 62
     2
 10
684.315365059
 20
234.229916316
 30
0.0
 42
0.021820078
  0
SEQEND
  8
0
  6
CONTINUOUS
 62
     2
  0
POLYLINE
  8
0
  6
CONTINUOUS
 62
     2
 66
     1
 70
     1
  0
VERTEX
  8
0
  6
CONTINUOUS
 62
     2
 10
671.8225
 20
197.435
 30
0.0
 42
-0.021820078
  0
VERTEX
  8
0
  6
CONTINUOUS
 62
     2
 10
671.815365059
 20
197.271582982
 30
0.0
 42
-0.021820078
  0
VERTEX
  8
0
  6
CONTINUOUS
 62
     2
 10
671.794014537
 20
197.109409667
 30
0.0
 42
-0.021820078
  0
VERTEX
  8
0
  6
CONTINUOUS
 62
     2
 10
671.758610924
 20
196.94971429
 30
0.0
 42
-0.021820078
  0
VERTEX
  8
0
  6
CONTINUOUS
 62
     2
 10
671.709423664
 20
196.793712231
 30
0.0
 42
-0.021820078
  0
VERTEX
  8
0
  6
CONTINUOUS
 62
     2
 10
671.646827101
 20
196.642590759
 30
0.0
 42
-0.021820078
  0
VERTEX
  8
0
  6
CONTINUOUS
 62
     2
 10
671.571297632
 20
196.4975
 30
0.0
 42
-0.021820078
  0
VERTEX
  8
0
  6
CONTINUOUS
 62
     2
 10
671.483410083
 20
196.359544182
 30
0.0
 42
-0.021820078
  0
VERTEX
  8
0
  6
CONTINUOUS
 62
     2
 10
671.383833331
 20
196.229773232
 30
0.0
 42
-0.021820078
  0
VERTEX
  8
0
  6
CONTINUOUS
 62
     2
 10
671.273325215
 20
196.109174785
 30
0.0
 42
-0.021820078
  0
VERTEX
  8
0
  6
CONTINUOUS
 62
     2
 10
671.152726768
 20
195.998666669
 30
0.0
 42
-0.021820078
  0
VERTEX
  8
0
  6
CONTINUOUS
 62
     2
 10
671.022955818
 20
195.899089917
 30
0.0
 42
-0.021820078
  0
VERTEX
  8
0
  6
CONTINUOUS
 62
     2
 10
670.885
 20
195.811202368
 30
0.0
 42
-0.021820078
  0
VERTEX
  8
0
  6
CONTINUOUS
 62
     2
 10
670.739909241
 20
195.735672899
 30
0.0
 42
-0.021820078
  0
VERTEX
  8
0
  6
CONTINUOUS
 62
     2
 10
670.588787769
 20
195.673076336
 30
0.0
 42
-0.021820078
  0
VERTEX
  8
0
  6
CONTINUOUS
 62
     2
 10
670.43278571
 20
195.623889076
 30
0.0
 42
-0.021820078
  0
VERTEX
  8
0
  6
CONTINUOUS
 62
     2
 10
670.273090333
 20
195.588485463
 30
0.0
 42
-0.021820078
  0
VERTEX
  8
0
  6
CONTINUOUS
 62
     2
 10
670.110917018
 20
195.567134941
 30
0.0
 42
-0.021820078
  0
VERTEX
  8
0
  6
CONTINUOUS
 62
     2
 10
669.9475
 20
195.56
 30
0.0
 42
-0.021820078
  0
VERTEX
  8
0
  6
CONTINUOUS
 62
     2
 10
669.784082982
 20
195.567134941
 30
0.0
 42
-0.021820078
  0
VERTEX
  8
0
  6
CONTINUOUS
 62
     2
 10
669.621909667
 20
195.588485463
 30
0.0
 42
-0.021820078
  0
VERTEX
  8
0
  6
CONTINUOUS
 62
     2
 10
669.46221429
 20
195.623889076
 30
0.0
 42
-0.021820078
  0
VERTEX
  8
0
  6
CONTINUOUS
 62
     2
 10
669.306212231
 20
195.673076336
 30
0.0
 42
-0.021820078
  0
VERTEX
  8
0
  6
CONTINUOUS
 62
     2
 10
669.155090759
 20
195.735672899
 30
0.0
 42
-0.021820078
  0
VERTEX
  8
0
  6
CONTINUOUS
 62
     2
 10
669.01
 20
195.811202368
 30
0.0
 42
-0.021820078
  0
VERTEX
  8
0
  6
CONTINUOUS
 62
     2
 10
668.872044182
 20
195.899089917
 30
0.0
 42
-0.021820078
  0
VERTEX
  8
0
  6
CONTINUOUS
 62
     2
 10
668.742273232
 20
195.998666669
 30
0.0
 42
-0.021820078
  0
VERTEX
  8
0
  6
CONTINUOUS
 62
     2
 10
668.621674785
 20
196.109174785
 30
0.0
 42
-0.021820078
  0
VERTEX
  8
0
  6
CONTINUOUS
 62
     2
 10
668.511166669
 20
196.229773232
 30
0.0
 42
-0.021820078
  0
VERTEX
  8
0
  6
CONTINUOUS
 62
     2
 10
668.411589917
 20
196.359544182
 30
0.0
 42
-0.021820078
  0
VERTEX
  8
0
  6
CONTINUOUS
 62
     2
 10
668.323702368
 20
196.4975
 30
0.0
 42
-0.021820078
  0
VERTEX
  8
0
  6
CONTINUOUS
 62
     2
 10
668.248172899
 20
196.642590759
 30
0.0
 42
-0.021820078
  0
VERTEX
  8
0
  6
CONTINUOUS
 62
     2
 10
668.185576336
 20
196.793712231
 30
0.0
 42
-0.021820078
  0
VERTEX
  8
0
  6
CONTINUOUS
 62
     2
 10
668.136389076
 20
196.94971429
 30
0.0
 42
-0.021820078
  0
VERTEX
  8
0
  6
CONTINUOUS
 62
     2
 10
668.100985463
 20
197.109409667
 30
0.0
 42
-0.021820078
  0
VERTEX
  8
0
  6
CONTINUOUS
 62
     2
 10
668.079634941
 20
197.271582982
 30
0.0
 42
-0.021820078
  0
VERTEX
  8
0
  6
CONTINUOUS
 62
     2
 10
668.0725
 20
197.435
 30
0.0
 42
-0.021820078
  0
VERTEX
  8
0
  6
CONTINUOUS
 62
     2
 10
668.079634941
 20
197.598417018
 30
0.0
 42
-0.021820078
  0
VERTEX
  8
0
  6
CONTINUOUS
 62
     2
 10
668.100985463
 20
197.760590333
 30
0.0
 42
-0.021820078
  0
VERTEX
  8
0
  6
CONTINUOUS
 62
     2
 10
668.136389076
 20
197.92028571
 30
0.0
 42
-0.021820078
  0
VERTEX
  8
0
  6
CONTINUOUS
 62
     2
 10
668.185576336
 20
198.076287769
 30
0.0
 42
-0.021820078
  0
VERTEX
  8
0
  6
CONTINUOUS
 62
     2
 10
668.248172899
 20
198.227409241
 30
0.0
 42
-0.021820078
  0
VERTEX
  8
0
  6
CONTINUOUS
 62
     2
 10
668.323702368
 20
198.3725
 30
0.0
 42
-0.021820078
  0
VERTEX
  8
0
  6
CONTINUOUS
 62
     2
 10
668.411589917
 20
198.510455818
 30
0.0
 42
-0.021820078
  0
VERTEX
  8
0
  6
CONTINUOUS
 62
     2
 10
668.511166669
 20
198.640226768
 30
0.0
 42
-0.021820078
  0
VERTEX
  8
0
  6
CONTINUOUS
 62
     2
 10
668.621674785
 20
198.760825215
 30
0.0
 42
-0.021820078
  0
VERTEX
  8
0
  6
CONTINUOUS
 62
     2
 10
668.742273232
 20
198.871333331
 30
0.0
 42
-0.021820078
  0
VERTEX
  8
0
  6
CONTINUOUS
 62
     2
 10
668.872044182
 20
198.970910083
 30
0.0
 42
-0.021820078
  0
VERTEX
  8
0
  6
CONTINUOUS
 62
     2
 10
669.01
 20
199.058797632
 30
0.0
 42
-0.021820078
  0
VERTEX
  8
0
  6
CONTINUOUS
 62
     2
 10
669.155090759
 20
199.134327101
 30
0.0
 42
-0.021820078
  0
VERTEX
  8
0
  6
CONTINUOUS
 62
     2
 10
669.306212231
 20
199.196923664
 30
0.0
 42
-0.021820078
  0
VERTEX
  8
0
  6
CONTINUOUS
 62
     2
 10
669.46221429
 20
199.246110924
 30
0.0
 42
-0.021820078
  0
VERTEX
  8
0
  6
CONTINUOUS
 62
     2
 10
669.621909667
 20
199.281514537
 30
0.0
 42
-0.021820078
  0
VERTEX
  8
0
  6
CONTINUOUS
 62
     2
 10
669.784082982
 20
199.302865059
 30
0.0
 42
-0.021820078
  0
VERTEX
  8
0
  6
CONTINUOUS
 62
     2
 10
669.9475
 20
199.31
 30
0.0
 42
-0.021820078
  0
VERTEX
  8
0
  6
CONTINUOUS
 62
     2
 10
670.110917018
 20
199.302865059
 30
0.0
 42
-0.021820078
  0
VERTEX
  8
0
  6
CONTINUOUS
 62
     2
 10
670.273090333
 20
199.281514537
 30
0.0
 42
-0.021820078
  0
VERTEX
  8
0
  6
CONTINUOUS
 62
     2
 10
670.43278571
 20
199.246110924
 30
0.0
 42
-0.021820078
  0
VERTEX
  8
0
  6
CONTINUOUS
 62
     2
 10
670.588787769
 20
199.196923664
 30
0.0
 42
-0.021820078
  0
VERTEX
  8
0
  6
CONTINUOUS
 62
     2
 10
670.739909241
 20
199.134327101
 30
0.0
 42
-0.021820078
  0
VERTEX
  8
0
  6
CONTINUOUS
 62
     2
 10
670.885
 20
199.058797632
 30
0.0
 42
-0.021820078
  0
VERTEX
  8
0
  6
CONTINUOUS
 62
     2
 10
671.022955818
 20
198.970910083
 30
0.0
 42
-0.021820078
  0
VERTEX
  8
0
  6
CONTINUOUS
 62
     2
 10
671.152726768
 20
198.871333331
 30
0.0
 42
-0.021820078
  0
VERTEX
  8
0
  6
CONTINUOUS
 62
     2
 10
671.273325215
 20
198.760825215
 30
0.0
 42
-0.021820078
  0
VERTEX
  8
0
  6
CONTINUOUS
 62
     2
 10
671.383833331
 20
198.640226768
 30
0.0
 42
-0.021820078
  0
VERTEX
  8
0
  6
CONTINUOUS
 62
     2
 10
671.483410083
 20
198.510455818
 30
0.0
 42
-0.021820078
  0
VERTEX
  8
0
  6
CONTINUOUS
 62
     2
 10
671.571297632
 20
198.3725
 30
0.0
 42
-0.021820078
  0
VERTEX
  8
0
  6
CONTINUOUS
 62
     2
 10
671.646827101
 20
198.227409241
 30
0.0
 42
-0.021820078
  0
VERTEX
  8
0
  6
CONTINUOUS
 62
     2
 10
671.709423664
 20
198.076287769
 30
0.0
 42
-0.021820078
  0
VERTEX
  8
0
  6
CONTINUOUS
 62
     2
 10
671.758610924
 20
197.92028571
 30
0.0
 42
-0.021820078
  0
VERTEX
  8
0
  6
CONTINUOUS
 62
     2
 10
671.794014537
 20
197.760590333
 30
0.0
 42
-0.021820078
  0
VERTEX
  8
0
  6
CONTINUOUS
 62
     2
 10
671.815365059
 20
197.598417018
 30
0.0
 42
-0.021820078
  0
SEQEND
  8
0
  6
CONTINUOUS
 62
     2
  0
POLYLINE
  8
0
  6
CONTINUOUS
 62
     2
 66
     1
 70
     1
  0
VERTEX
  8
0
  6
CONTINUOUS
 62
     2
 10
684.3225
 20
197.435
 30
0.0
 42
-0.021820078
  0
VERTEX
  8
0
  6
CONTINUOUS
 62
     2
 10
684.315365059
 20
197.271582982
 30
0.0
 42
-0.021820078
  0
VERTEX
  8
0
  6
CONTINUOUS
 62
     2
 10
684.294014537
 20
197.109409667
 30
0.0
 42
-0.021820078
  0
VERTEX
  8
0
  6
CONTINUOUS
 62
     2
 10
684.258610924
 20
196.94971429
 30
0.0
 42
-0.021820078
  0
VERTEX
  8
0
  6
CONTINUOUS
 62
     2
 10
684.209423664
 20
196.793712231
 30
0.0
 42
-0.021820078
  0
VERTEX
  8
0
  6
CONTINUOUS
 62
     2
 10
684.146827101
 20
196.642590759
 30
0.0
 42
-0.021820078
  0
VERTEX
  8
0
  6
CONTINUOUS
 62
     2
 10
684.071297632
 20
196.4975
 30
0.0
 42
-0.021820078
  0
VERTEX
  8
0
  6
CONTINUOUS
 62
     2
 10
683.983410083
 20
196.359544182
 30
0.0
 42
-0.021820078
  0
VERTEX
  8
0
  6
CONTINUOUS
 62
     2
 10
683.883833331
 20
196.229773232
 30
0.0
 42
-0.021820078
  0
VERTEX
  8
0
  6
CONTINUOUS
 62
     2
 10
683.773325215
 20
196.109174785
 30
0.0
 42
-0.021820078
  0
VERTEX
  8
0
  6
CONTINUOUS
 62
     2
 10
683.652726768
 20
195.998666669
 30
0.0
 42
-0.021820078
  0
VERTEX
  8
0
  6
CONTINUOUS
 62
     2
 10
683.522955818
 20
195.899089917
 30
0.0
 42
-0.021820078
  0
VERTEX
  8
0
  6
CONTINUOUS
 62
     2
 10
683.385
 20
195.811202368
 30
0.0
 42
-0.021820078
  0
VERTEX
  8
0
  6
CONTINUOUS
 62
     2
 10
683.239909241
 20
195.735672899
 30
0.0
 42
-0.021820078
  0
VERTEX
  8
0
  6
CONTINUOUS
 62
     2
 10
683.088787769
 20
195.673076336
 30
0.0
 42
-0.021820078
  0
VERTEX
  8
0
  6
CONTINUOUS
 62
     2
 10
682.93278571
 20
195.623889076
 30
0.0
 42
-0.021820078
  0
VERTEX
  8
0
  6
CONTINUOUS
 62
     2
 10
682.773090333
 20
195.588485463
 30
0.0
 42
-0.021820078
  0
VERTEX
  8
0
  6
CONTINUOUS
 62
     2
 10
682.610917018
 20
195.567134941
 30
0.0
 42
-0.021820078
  0
VERTEX
  8
0
  6
CONTINUOUS
 62
     2
 10
682.4475
 20
195.56
 30
0.0
 42
-0.021820078
  0
VERTEX
  8
0
  6
CONTINUOUS
 62
     2
 10
682.284082982
 20
195.567134941
 30
0.0
 42
-0.021820078
  0
VERTEX
  8
0
  6
CONTINUOUS
 62
     2
 10
682.121909667
 20
195.588485463
 30
0.0
 42
-0.021820078
  0
VERTEX
  8
0
  6
CONTINUOUS
 62
     2
 10
681.96221429
 20
195.623889076
 30
0.0
 42
-0.021820078
  0
VERTEX
  8
0
  6
CONTINUOUS
 62
     2
 10
681.806212231
 20
195.673076336
 30
0.0
 42
-0.021820078
  0
VERTEX
  8
0
  6
CONTINUOUS
 62
     2
 10
681.655090759
 20
195.735672899
 30
0.0
 42
-0.021820078
  0
VERTEX
  8
0
  6
CONTINUOUS
 62
     2
 10
681.51
 20
195.811202368
 30
0.0
 42
-0.021820078
  0
VERTEX
  8
0
  6
CONTINUOUS
 62
     2
 10
681.372044182
 20
195.899089917
 30
0.0
 42
-0.021820078
  0
VERTEX
  8
0
  6
CONTINUOUS
 62
     2
 10
681.242273232
 20
195.998666669
 30
0.0
 42
-0.021820078
  0
VERTEX
  8
0
  6
CONTINUOUS
 62
     2
 10
681.121674785
 20
196.109174785
 30
0.0
 42
-0.021820078
  0
VERTEX
  8
0
  6
CONTINUOUS
 62
     2
 10
681.011166669
 20
196.229773232
 30
0.0
 42
-0.021820078
  0
VERTEX
  8
0
  6
CONTINUOUS
 62
     2
 10
680.911589917
 20
196.359544182
 30
0.0
 42
-0.021820078
  0
VERTEX
  8
0
  6
CONTINUOUS
 62
     2
 10
680.823702368
 20
196.4975
 30
0.0
 42
-0.021820078
  0
VERTEX
  8
0
  6
CONTINUOUS
 62
     2
 10
680.748172899
 20
196.642590759
 30
0.0
 42
-0.021820078
  0
VERTEX
  8
0
  6
CONTINUOUS
 62
     2
 10
680.685576336
 20
196.793712231
 30
0.0
 42
-0.021820078
  0
VERTEX
  8
0
  6
CONTINUOUS
 62
     2
 10
680.636389076
 20
196.94971429
 30
0.0
 42
-0.021820078
  0
VERTEX
  8
0
  6
CONTINUOUS
 62
     2
 10
680.600985463
 20
197.109409667
 30
0.0
 42
-0.021820078
  0
VERTEX
  8
0
  6
CONTINUOUS
 62
     2
 10
680.579634941
 20
197.271582982
 30
0.0
 42
-0.021820078
  0
VERTEX
  8
0
  6
CONTINUOUS
 62
     2
 10
680.5725
 20
197.435
 30
0.0
 42
-0.021820078
  0
VERTEX
  8
0
  6
CONTINUOUS
 62
     2
 10
680.579634941
 20
197.598417018
 30
0.0
 42
-0.021820078
  0
VERTEX
  8
0
  6
CONTINUOUS
 62
     2
 10
680.600985463
 20
197.760590333
 30
0.0
 42
-0.021820078
  0
VERTEX
  8
0
  6
CONTINUOUS
 62
     2
 10
680.636389076
 20
197.92028571
 30
0.0
 42
-0.021820078
  0
VERTEX
  8
0
  6
CONTINUOUS
 62
     2
 10
680.685576336
 20
198.076287769
 30
0.0
 42
-0.021820078
  0
VERTEX
  8
0
  6
CONTINUOUS
 62
     2
 10
680.748172899
 20
198.227409241
 30
0.0
 42
-0.021820078
  0
VERTEX
  8
0
  6
CONTINUOUS
 62
     2
 10
680.823702368
 20
198.3725
 30
0.0
 42
-0.021820078
  0
VERTEX
  8
0
  6
CONTINUOUS
 62
     2
 10
680.911589917
 20
198.510455818
 30
0.0
 42
-0.021820078
  0
VERTEX
  8
0
  6
CONTINUOUS
 62
     2
 10
681.011166669
 20
198.640226768
 30
0.0
 42
-0.021820078
  0
VERTEX
  8
0
  6
CONTINUOUS
 62
     2
 10
681.121674785
 20
198.760825215
 30
0.0
 42
-0.021820078
  0
VERTEX
  8
0
  6
CONTINUOUS
 62
     2
 10
681.242273232
 20
198.871333331
 30
0.0
 42
-0.021820078
  0
VERTEX
  8
0
  6
CONTINUOUS
 62
     2
 10
681.372044182
 20
198.970910083
 30
0.0
 42
-0.021820078
  0
VERTEX
  8
0
  6
CONTINUOUS
 62
     2
 10
681.51
 20
199.058797632
 30
0.0
 42
-0.021820078
  0
VERTEX
  8
0
  6
CONTINUOUS
 62
     2
 10
681.655090759
 20
199.134327101
 30
0.0
 42
-0.021820078
  0
VERTEX
  8
0
  6
CONTINUOUS
 62
     2
 10
681.806212231
 20
199.196923664
 30
0.0
 42
-0.021820078
  0
VERTEX
  8
0
  6
CONTINUOUS
 62
     2
 10
681.96221429
 20
199.246110924
 30
0.0
 42
-0.021820078
  0
VERTEX
  8
0
  6
CONTINUOUS
 62
     2
 10
682.121909667
 20
199.281514537
 30
0.0
 42
-0.021820078
  0
VERTEX
  8
0
  6
CONTINUOUS
 62
     2
 10
682.284082982
 20
199.302865059
 30
0.0
 42
-0.021820078
  0
VERTEX
  8
0
  6
CONTINUOUS
 62
     2
 10
682.4475
 20
199.31
 30
0.0
 42
-0.021820078
  0
VERTEX
  8
0
  6
CONTINUOUS
 62
     2
 10
682.610917018
 20
199.302865059
 30
0.0
 42
-0.021820078
  0
VERTEX
  8
0
  6
CONTINUOUS
 62
     2
 10
682.773090333
 20
199.281514537
 30
0.0
 42
-0.021820078
  0
VERTEX
  8
0
  6
CONTINUOUS
 62
     2
 10
682.93278571
 20
199.246110924
 30
0.0
 42
-0.021820078
  0
VERTEX
  8
0
  6
CONTINUOUS
 62
     2
 10
683.088787769
 20
199.196923664
 30
0.0
 42
-0.021820078
  0
VERTEX
  8
0
  6
CONTINUOUS
 62
     2
 10
683.239909241
 20
199.134327101
 30
0.0
 42
-0.021820078
  0
VERTEX
  8
0
  6
CONTINUOUS
 62
     2
 10
683.385
 20
199.058797632
 30
0.0
 42
-0.021820078
  0
VERTEX
  8
0
  6
CONTINUOUS
 62
     2
 10
683.522955818
 20
198.970910083
 30
0.0
 42
-0.021820078
  0
VERTEX
  8
0
  6
CONTINUOUS
 62
     2
 10
683.652726768
 20
198.871333331
 30
0.0
 42
-0.021820078
  0
VERTEX
  8
0
  6
CONTINUOUS
 62
     2
 10
683.773325215
 20
198.760825215
 30
0.0
 42
-0.021820078
  0
VERTEX
  8
0
  6
CONTINUOUS
 62
     2
 10
683.883833331
 20
198.640226768
 30
0.0
 42
-0.021820078
  0
VERTEX
  8
0
  6
CONTINUOUS
 62
     2
 10
683.983410083
 20
198.510455818
 30
0.0
 42
-0.021820078
  0
VERTEX
  8
0
  6
CONTINUOUS
 62
     2
 10
684.071297632
 20
198.3725
 30
0.0
 42
-0.021820078
  0
VERTEX
  8
0
  6
CONTINUOUS
 62
     2
 10
684.146827101
 20
198.227409241
 30
0.0
 42
-0.021820078
  0
VERTEX
  8
0
  6
CONTINUOUS
 62
     2
 10
684.209423664
 20
198.076287769
 30
0.0
 42
-0.021820078
  0
VERTEX
  8
0
  6
CONTINUOUS
 62
     2
 10
684.258610924
 20
197.92028571
 30
0.0
 42
-0.021820078
  0
VERTEX
  8
0
  6
CONTINUOUS
 62
     2
 10
684.294014537
 20
197.760590333
 30
0.0
 42
-0.021820078
  0
VERTEX
  8
0
  6
CONTINUOUS
 62
     2
 10
684.315365059
 20
197.598417018
 30
0.0
 42
-0.021820078
  0
SEQEND
  8
0
  6
CONTINUOUS
 62
     2
  0
TEXT
  8
0
  6
CONTINUOUS
 62
     2
 10
662.655833333
 20
188.768333333
 30
0.0
 40
8.333333333
  1
１
 50
0.0
 41
0.85
 51
0.0
  7
KANJI45
  0
TEXT
  8
0
  6
CONTINUOUS
 62
     2
 10
683.489166667
 20
188.768333333
 30
0.0
 40
8.333333333
  1
２
 50
0.0
 41
0.85
 51
0.0
  7
KANJI45
  0
TEXT
  8
0
  6
CONTINUOUS
 62
     2
 10
636.0725
 20
234.351666667
 30
0.0
 40
8.333333333
  1
（ＮＯ）
 50
0.0
 41
0.75
 51
0.0
  7
KANJI46
  0
TEXT
  8
0
  6
CONTINUOUS
 62
     2
 10
691.0725
 20
234.351666667
 30
0.0
 40
8.333333333
  1
（ＮＯ）
 50
0.0
 41
0.75
 51
0.0
  7
KANJI46
  0
TEXT
  8
0
  6
CONTINUOUS
 62
     2
 10
636.0725
 20
186.435
 30
0.0
 40
8.333333333
  1
（ＮＣ）
 50
0.0
 41
0.75
 51
0.0
  7
KANJI46
  0
TEXT
  8
0
  6
CONTINUOUS
 62
     2
 10
691.0725
 20
186.435
 30
0.0
 40
8.333333333
  1
（ＮＣ）
 50
0.0
 41
0.75
 51
0.0
  7
KANJI46
  0
TEXT
  8
0
  6
CONTINUOUS
 62
     2
 10
622.635
 20
162.268333333
 30
0.0
 40
12.5
  1
外部ＬＳリミットＳＷ
 50
0.0
 41
0.9
 51
0.0
  7
KANJI47
  0
TEXT
  8
0
  6
CONTINUOUS
 62
     2
 10
653.676666667
 20
146.435
 30
0.0
 40
12.5
  1
端子符号
 50
0.0
 41
0.9
 51
0.0
  7
KANJI47
  0
LINE
  8
0
  6
CONTINUOUS
 62
     2
 10
740.76
 20
151.851666667
 30
0.0
 11
740.76
 21
293.31
 31
0.0
  0
LINE
  8
0
  6
CONTINUOUS
 62
     2
 10
740.76
 20
293.31
 30
0.0
 11
613.051666667
 21
293.31
 31
0.0
  0
LINE
  8
0
  6
CONTINUOUS
 62
     2
 10
613.051666667
 20
293.31
 30
0.0
 11
613.051666667
 21
151.851666667
 31
0.0
  0
LINE
  8
0
  6
CONTINUOUS
 62
     2
 10
703.26
 20
151.851666667
 30
0.0
 11
740.76
 21
151.851666667
 31
0.0
  0
LINE
  8
0
  6
CONTINUOUS
 62
     2
 10
613.051666667
 20
151.851666667
 30
0.0
 11
645.551666667
 21
151.851666667
 31
0.0
  0
LINE
  8
0
  6
CONTINUOUS
 62
     1
 10
602.7
 20
714.5
 30
0.0
 11
613.3
 21
714.5
 31
0.0
  0
ARC
  8
0
  6
CONTINUOUS
 62
     1
 10
607.6
 20
713.5
 30
0.0
 40
5.0
 50
92.3
 51
168.5
  0
ARC
  8
0
  6
CONTINUOUS
 62
     1
 10
608.4
 20
713.5
 30
0.0
 40
5.0
 50
11.5
 51
87.7
  0
LINE
  8
0
  6
CONTINUOUS
 62
     1
 10
607.4
 20
718.5
 30
0.0
 11
608.6
 21
718.5
 31
0.0
  0
LINE
  8
0
  6
LTYPE4
 62
     2
 10
608.0
 20
721.9
 30
0.0
 11
608.0
 21
708.5
 31
0.0
  0
LINE
  8
0
  6
CONTINUOUS
 62
     1
 10
712.7
 20
714.5
 30
0.0
 11
723.3
 21
714.5
 31
0.0
  0
ARC
  8
0
  6
CONTINUOUS
 62
     1
 10
717.6
 20
713.5
 30
0.0
 40
5.0
 50
92.3
 51
168.5
  0
ARC
  8
0
  6
CONTINUOUS
 62
     1
 10
718.4
 20
713.5
 30
0.0
 40
5.0
 50
11.5
 51
87.7
  0
LINE
  8
0
  6
CONTINUOUS
 62
     1
 10
717.4
 20
718.5
 30
0.0
 11
718.6
 21
718.5
 31
0.0
  0
LINE
  8
0
  6
LTYPE4
 62
     2
 10
718.0
 20
721.9
 30
0.0
 11
718.0
 21
708.5
 31
0.0
  0
LINE
  8
0
  6
CONTINUOUS
 62
     2
 10
857.999512169
 20
310.1
 30
0.0
 11
795.999501379
 21
310.1
 31
0.0
  0
LINE
  8
0
  6
CONTINUOUS
 62
     2
 10
800.999501379
 20
310.1
 30
0.0
 11
798.411310928
 21
300.440741737
 31
0.0
  0
LINE
  8
0
  6
CONTINUOUS
 62
     2
 10
800.999501379
 20
310.1
 30
0.0
 11
803.58769183
 21
300.440741737
 31
0.0
  0
LINE
  8
0
  6
CONTINUOUS
 62
     2
 10
800.999501379
 20
310.1
 30
0.0
 11
800.999501379
 21
145.1
 31
0.0
  0
LINE
  8
0
  6
CONTINUOUS
 62
     2
 10
800.999501379
 20
145.1
 30
0.0
 11
803.58769183
 21
154.759258263
 31
0.0
  0
LINE
  8
0
  6
CONTINUOUS
 62
     2
 10
800.999501379
 20
145.1
 30
0.0
 11
798.411310928
 21
154.759258263
 31
0.0
  0
LINE
  8
0
  6
CONTINUOUS
 62
     2
 10
857.999512169
 20
145.1
 30
0.0
 11
795.999501379
 21
145.1
 31
0.0
  0
TEXT
  8
0
  6
CONTINUOUS
 62
     3
 10
795.999501379
 20
207.35
 30
0.0
 40
15.0
  1
１６５
 50
90.0
 41
0.9
 51
0.0
  7
KANJI42
  0
TEXT
  8
0
  6
CONTINUOUS
 62
     2
 10
915.2
 20
656.5
 30
0.0
 40
15.0
  1
φ６４
 50
90.0
 41
0.9
 51
0.0
  7
KANJI42
  0
LINE
  8
0
  6
CONTINUOUS
 62
     1
 10
901.0
 20
469.0
 30
0.0
 11
933.0
 21
469.0
 31
0.0
  0
LINE
  8
0
  6
CONTINUOUS
 62
     1
 10
895.6
 20
490.0
 30
0.0
 11
964.3
 21
490.0
 31
0.0
  0
LINE
  8
0
  6
CONTINUOUS
 62
     1
 10
895.6
 20
484.0
 30
0.0
 11
964.3
 21
484.0
 31
0.0
  0
LINE
  8
0
  6
CONTINUOUS
 62
     1
 10
852.0
 20
530.0
 30
0.0
 11
982.0
 21
530.0
 31
0.0
  0
LINE
  8
0
  6
CONTINUOUS
 62
     1
 10
852.0
 20
524.0
 30
0.0
 11
982.0
 21
524.0
 31
0.0
  0
LINE
  8
0
  6
CONTINUOUS
 62
     1
 10
895.6
 20
524.0
 30
0.0
 11
895.6
 21
484.0
 31
0.0
  0
LINE
  8
0
  6
CONTINUOUS
 62
     1
 10
844.3
 20
523.0
 30
0.0
 11
844.3
 21
497.6
 31
0.0
  0
LINE
  8
0
  6
CONTINUOUS
 62
     1
 10
869.7
 20
497.6
 30
0.0
 11
844.3
 21
497.6
 31
0.0
  0
LINE
  8
0
  6
CONTINUOUS
 62
     1
 10
869.7
 20
524.0
 30
0.0
 11
869.7
 21
484.0
 31
0.0
  0
LINE
  8
0
  6
CONTINUOUS
 62
     1
 10
901.0
 20
469.0
 30
0.0
 11
901.0
 21
484.0
 31
0.0
  0
LINE
  8
0
  6
LTYPE5
 62
     2
 10
905.1
 20
502.7
 30
0.0
 11
888.1
 21
502.7
 31
0.0
  0
LINE
  8
0
  6
CONTINUOUS
 62
     1
 10
852.0
 20
524.0
 30
0.0
 11
852.0
 21
530.0
 31
0.0
  0
LINE
  8
0
  6
CONTINUOUS
 62
     1
 10
869.7
 20
523.0
 30
0.0
 11
844.3
 21
523.0
 31
0.0
  0
LINE
  8
0
  6
CONTINUOUS
 62
     1
 10
869.7
 20
490.0
 30
0.0
 11
895.6
 21
490.0
 31
0.0
  0
LINE
  8
0
  6
CONTINUOUS
 62
     1
 10
869.7
 20
484.0
 30
0.0
 11
895.6
 21
484.0
 31
0.0
  0
LINE
  8
0
  6
CONTINUOUS
 62
     1
 10
894.0
 20
530.0
 30
0.0
 11
894.0
 21
599.0
 31
0.0
  0
LINE
  8
0
  6
CONTINUOUS
 62
     1
 10
880.0
 20
530.0
 30
0.0
 11
880.0
 21
599.0
 31
0.0
  0
LINE
  8
0
  6
CONTINUOUS
 62
     1
 10
894.0
 20
586.75
 30
0.0
 11
940.0
 21
586.75
 31
0.0
  0
LINE
  8
0
  6
CONTINUOUS
 62
     1
 10
883.0
 20
599.0
 30
0.0
 11
883.0
 21
654.75
 31
0.0
  0
LINE
  8
0
  6
LTYPE3
 62
     2
 10
887.0
 20
568.75
 30
0.0
 11
887.0
 21
662.75
 31
0.0
  0
LINE
  8
0
  6
CONTINUOUS
 62
     1
 10
880.0
 20
579.0
 30
0.0
 11
894.0
 21
579.0
 31
0.0
  0
LINE
  8
0
  6
CONTINUOUS
 62
     1
 10
880.0
 20
599.0
 30
0.0
 11
894.0
 21
599.0
 31
0.0
  0
LINE
  8
0
  6
CONTINUOUS
 62
     1
 10
891.0
 20
599.0
 30
0.0
 11
891.0
 21
654.75
 31
0.0
  0
ARC
  8
0
  6
CONTINUOUS
 62
     1
 10
887.0
 20
654.75
 30
0.0
 40
4.0
 50
0.0
 51
180.0
  0
LINE
  8
0
  6
CONTINUOUS
 62
     1
 10
891.0
 20
650.25
 30
0.0
 11
943.0
 21
650.25
 31
0.0
  0
LINE
  8
2
  6
CONTINUOUS
 62
     2
 10
526.5
 20
618.5
 30
0.0
 11
526.5
 21
565.5
 31
0.0
  0
LINE
  8
2
  6
CONTINUOUS
 62
     2
 10
526.5
 20
565.5
 30
0.0
 11
529.088190451
 21
575.159258263
 31
0.0
  0
LINE
  8
2
  6
CONTINUOUS
 62
     2
 10
526.5
 20
565.5
 30
0.0
 11
523.911809549
 21
575.159258263
 31
0.0
  0
LINE
  8
2
  6
CONTINUOUS
 62
     2
 10
523.5
 20
565.5
 30
0.0
 11
518.5
 21
565.5
 31
0.0
  0
ARC
  8
0
  6
CONTINUOUS
 62
     1
 10
523.0
 20
508.5
 30
0.0
 40
3.0
 50
270.000145711
 51
0.00014571
  0
LINE
  8
0
  6
CONTINUOUS
 62
     1
 10
526.0
 20
527.500007629
 30
0.0
 11
526.0
 21
508.500007629
 31
0.0
  0
ARC
  8
0
  6
CONTINUOUS
 62
     1
 10
529.0
 20
527.5
 30
0.0
 40
3.0
 50
90.0
 51
179.99985429
  0
LINE
  8
2
  6
CONTINUOUS
 62
     2
 10
526.5
 20
618.5
 30
0.0
 11
523.911809549
 21
608.840741737
 31
0.0
  0
LINE
  8
2
  6
CONTINUOUS
 62
     2
 10
526.5
 20
618.5
 30
0.0
 11
529.088190451
 21
608.840741737
 31
0.0
  0
LINE
  8
0
  6
CONTINUOUS
 62
     1
 10
826.5
 20
631.0
 30
0.0
 11
851.5
 21
631.0
 31
0.0
  0
LINE
  8
0
  6
CONTINUOUS
 62
     1
 10
851.5
 20
606.0
 30
0.0
 11
851.5
 21
631.0
 31
0.0
  0
LINE
  8
0
  6
CONTINUOUS
 62
     1
 10
826.5
 20
606.0
 30
0.0
 11
826.5
 21
631.0
 31
0.0
  0
CIRCLE
  8
0
  6
CONTINUOUS
 62
     1
 10
839.0
 20
618.5
 30
0.0
 40
12.5
  0
LINE
  8
0
  6
LTYPE3
 62
     2
 10
839.0
 20
637.2
 30
0.0
 11
839.0
 21
597.5
 31
0.0
  0
LINE
  8
0
  6
CONTINUOUS
 62
     1
 10
826.5
 20
606.0
 30
0.0
 11
851.5
 21
606.0
 31
0.0
  0
LINE
  8
0
  6
CONTINUOUS
 62
     2
 10
834.450185255
 20
626.65
 30
0.0
 11
834.260119959
 21
636.648193596
 31
0.0
  0
LINE
  8
0
  6
CONTINUOUS
 62
     2
 10
834.450185255
 20
626.65
 30
0.0
 11
829.286487082
 21
635.213656998
 31
0.0
  0
LINE
  8
0
  6
CONTINUOUS
 62
     2
 10
834.450185255
 20
626.65
 30
0.0
 11
813.897884886
 21
697.906179125
 31
0.0
  0
LINE
  8
0
  6
CONTINUOUS
 62
     2
 10
919.2
 20
586.75
 30
0.0
 11
919.2
 21
691.3
 31
0.0
  0
LINE
  8
0
  6
CONTINUOUS
 62
     2
 10
919.2
 20
650.25
 30
0.0
 11
916.611809549
 21
640.590741737
 31
0.0
  0
LINE
  8
0
  6
CONTINUOUS
 62
     2
 10
919.2
 20
650.25
 30
0.0
 11
921.788190451
 21
640.590741737
 31
0.0
  0
LINE
  8
0
  6
CONTINUOUS
 62
     1
 10
951.0
 20
599.0
 30
0.0
 11
951.0
 21
654.75
 31
0.0
  0
LINE
  8
0
  6
CONTINUOUS
 62
     1
 10
943.0
 20
599.0
 30
0.0
 11
943.0
 21
654.75
 31
0.0
  0
LINE
  8
0
  6
LTYPE3
 62
     2
 10
947.0
 20
568.75
 30
0.0
 11
947.0
 21
662.75
 31
0.0
  0
ARC
  8
0
  6
CONTINUOUS
 62
     1
 10
947.0
 20
654.75
 30
0.0
 40
4.0
 50
0.0
 51
180.0
  0
LINE
  8
0
  6
CONTINUOUS
 62
     2
 10
919.2
 20
586.75
 30
0.0
 11
921.788190451
 21
596.409258263
 31
0.0
  0
LINE
  8
0
  6
CONTINUOUS
 62
     2
 10
919.2
 20
586.75
 30
0.0
 11
916.611809549
 21
596.409258263
 31
0.0
  0
LINE
  8
0
  6
CONTINUOUS
 62
     1
 10
940.0
 20
530.0
 30
0.0
 11
940.0
 21
599.0
 31
0.0
  0
LINE
  8
0
  6
CONTINUOUS
 62
     1
 10
940.0
 20
599.0
 30
0.0
 11
954.0
 21
599.0
 31
0.0
  0
LINE
  8
0
  6
CONTINUOUS
 62
     1
 10
954.0
 20
530.0
 30
0.0
 11
954.0
 21
599.0
 31
0.0
  0
LINE
  8
0
  6
CONTINUOUS
 62
     1
 10
940.0
 20
579.0
 30
0.0
 11
954.0
 21
579.0
 31
0.0
  0
LINE
  8
0
  6
CONTINUOUS
 62
     1
 10
989.7
 20
523.0
 30
0.0
 11
989.7
 21
497.6
 31
0.0
  0
LINE
  8
0
  6
CONTINUOUS
 62
     1
 10
964.3
 20
497.6
 30
0.0
 11
989.7
 21
497.6
 31
0.0
  0
LINE
  8
0
  6
CONTINUOUS
 62
     1
 10
964.3
 20
524.0
 30
0.0
 11
964.3
 21
484.0
 31
0.0
  0
LINE
  8
0
  6
CONTINUOUS
 62
     1
 10
933.0
 20
469.0
 30
0.0
 11
933.0
 21
484.0
 31
0.0
  0
LINE
  8
0
  6
CONTINUOUS
 62
     1
 10
964.3
 20
523.0
 30
0.0
 11
989.7
 21
523.0
 31
0.0
  0
LINE
  8
0
  6
CONTINUOUS
 62
     1
 10
982.0
 20
524.0
 30
0.0
 11
982.0
 21
530.0
 31
0.0
  0
LINE
  8
0
  6
CONTINUOUS
 62
     1
 10
964.3
 20
489.5
 30
0.0
 11
1000.0
 21
489.5
 31
0.0
  0
LINE
  8
0
  6
CONTINUOUS
 62
     1
 10
933.0
 20
473.5
 30
0.0
 11
1000.0
 21
473.5
 31
0.0
  0
CIRCLE
  8
0
  6
CONTINUOUS
 62
     2
 10
1021.0
 20
481.5
 30
0.0
 40
5.0
  0
CIRCLE
  8
0
  6
CONTINUOUS
 62
     2
 10
1021.0
 20
481.5
 30
0.0
 40
4.0
  0
LINE
  8
0
  6
LTYPE2
 62
     2
 10
1021.0
 20
471.5
 30
0.0
 11
1021.0
 21
491.5
 31
0.0
  0
LINE
  8
0
  6
CONTINUOUS
 62
     1
 10
1050.0
 20
468.5
 30
0.0
 11
1050.0
 21
644.5
 31
0.0
  0
LINE
  8
0
  6
CONTINUOUS
 62
     1
 10
1042.0
 20
489.5
 30
0.0
 11
1050.0
 21
489.5
 31
0.0
  0
LINE
  8
0
  6
CONTINUOUS
 62
     1
 10
1042.0
 20
473.5
 30
0.0
 11
1050.0
 21
473.5
 31
0.0
  0
LINE
  8
0
  6
CONTINUOUS
 62
     1
 10
1050.0
 20
468.5
 30
0.0
 11
1066.0
 21
468.5
 31
0.0
  0
LINE
  8
0
  6
CONTINUOUS
 62
     1
 10
1050.0
 20
644.5
 30
0.0
 11
1066.0
 21
644.5
 31
0.0
  0
LINE
  8
0
  6
CONTINUOUS
 62
     1
 10
1050.0
 20
368.5
 30
0.0
 11
1050.0
 21
329.5
 31
0.0
  0
LINE
  8
0
  6
CONTINUOUS
 62
     1
 10
1021.462146432
 20
418.5
 30
0.0
 11
1021.462146432
 21
318.5
 31
0.0
  0
LINE
  8
0
  6
CONTINUOUS
 62
     1
 10
1013.033854631
 20
318.5
 30
0.0
 11
1013.033854631
 21
418.5
 31
0.0
  0
LINE
  8
0
  6
CONTINUOUS
 62
     1
 10
1017.248000531
 20
328.5
 30
0.0
 11
1017.248000531
 21
408.5
 31
0.0
  0
LINE
  8
0
  6
CONTINUOUS
 62
     1
 10
1008.619708731
 20
328.5
 30
0.0
 11
1008.619708731
 21
408.5
 31
0.0
  0
LINE
  8
0
  6
CONTINUOUS
 62
     1
 10
1030.0
 20
347.5
 30
0.0
 11
1022.428072258
 21
319.241180955
 31
0.0
  0
ARC
  8
0
  6
CONTINUOUS
 62
     1
 10
1021.462146432
 20
319.5
 30
0.0
 40
1.0
 50
270.0
 51
345.0
  0
ARC
  8
0
  6
CONTINUOUS
 62
     1
 10
1021.462146432
 20
319.5
 30
0.0
 40
1.0
 50
195.0
 51
270.0
  0
LINE
  8
0
  6
CONTINUOUS
 62
     1
 10
1018.213926358
 20
327.758819045
 30
0.0
 11
1020.496220605
 21
319.241180955
 31
0.0
  0
ARC
  8
0
  6
CONTINUOUS
 62
     1
 10
1017.248000531
 20
327.5
 30
0.0
 40
1.0
 50
15.0
 51
90.0
  0
ARC
  8
0
  6
CONTINUOUS
 62
     1
 10
1017.248000531
 20
327.5
 30
0.0
 40
1.0
 50
90.0
 51
165.0
  0
LINE
  8
0
  6
CONTINUOUS
 62
     1
 10
1016.282074705
 20
327.758819045
 30
0.0
 11
1013.999780457
 21
319.241180955
 31
0.0
  0
ARC
  8
0
  6
CONTINUOUS
 62
     1
 10
1013.033854631
 20
319.5
 30
0.0
 40
1.0
 50
270.0
 51
345.0
  0
ARC
  8
0
  6
CONTINUOUS
 62
     1
 10
1008.819708731
 20
327.5
 30
0.0
 40
1.0
 50
90.0
 51
165.0
  0
ARC
  8
0
  6
CONTINUOUS
 62
     1
 10
1008.819708731
 20
327.5
 30
0.0
 40
1.0
 50
15.0
 51
90.0
  0
LINE
  8
0
  6
CONTINUOUS
 62
     1
 10
1009.785634557
 20
327.758819045
 30
0.0
 11
1012.067928805
 21
319.241180955
 31
0.0
  0
ARC
  8
0
  6
CONTINUOUS
 62
     1
 10
1013.033854631
 20
319.5
 30
0.0
 40
1.0
 50
195.0
 51
270.0
  0
LINE
  8
0
  6
LTYPE6
 62
     2
 10
990.0
 20
328.5
 30
0.0
 11
1008.619708731
 21
328.5
 31
0.0
  0
LINE
  8
0
  6
LTYPE6
 62
     2
 10
990.0
 20
318.5
 30
0.0
 11
1013.033854631
 21
318.5
 31
0.0
  0
LINE
  8
0
  6
CONTINUOUS
 62
     1
 10
1050.0
 20
329.5
 30
0.0
 11
1066.0
 21
329.5
 31
0.0
  0
ARC
  8
0
  6
CONTINUOUS
 62
     1
 10
862.999501379
 20
300.1
 30
0.0
 40
10.0
 50
90.0
 51
180.0
  0
LINE
  8
0
  6
CONTINUOUS
 62
     1
 10
982.999501379
 20
298.3
 30
0.0
 11
982.999501379
 21
300.1
 31
0.0
  0
LINE
  8
0
  6
CONTINUOUS
 62
     1
 10
862.999501379
 20
310.1
 30
0.0
 11
972.999501379
 21
310.1
 31
0.0
  0
ARC
  8
0
  6
CONTINUOUS
 62
     1
 10
972.999501379
 20
300.1
 30
0.0
 40
10.0
 50
0.0
 51
90.0
  0
LINE
  8
0
  6
CONTINUOUS
 62
     1
 10
852.999501379
 20
289.8
 30
0.0
 11
852.999501379
 21
300.1
 31
0.0
  0
LINE
  8
0
  6
LTYPE2
 62
     2
 10
917.999501379
 20
193.5
 30
0.0
 11
917.999501379
 21
504.5
 31
0.0
  0
LINE
  8
0
  6
LTYPE3
 62
     2
 10
908.039501379
 20
300.7
 30
0.0
 11
896.599501379
 21
300.7
 31
0.0
  0
LINE
  8
0
  6
LTYPE3
 62
     2
 10
901.599501379
 20
304.6
 30
0.0
 11
901.599501379
 21
295.62
 31
0.0
  0
LINE
  8
0
  6
CONTINUOUS
 62
     1
 10
963.299501379
 20
305.6
 30
0.0
 11
898.599501379
 21
305.6
 31
0.0
  0
LINE
  8
0
  6
CONTINUOUS
 62
     1
 10
896.599501379
 20
303.6
 30
0.0
 11
896.599501379
 21
267.6
 31
0.0
  0
ARC
  8
0
  6
CONTINUOUS
 62
     1
 10
898.599501379
 20
303.6
 30
0.0
 40
2.0
 50
90.0
 51
180.0
  0
LINE
  8
0
  6
LTYPE3
 62
     2
 10
965.299501379
 20
300.7
 30
0.0
 11
955.339501379
 21
300.7
 31
0.0
  0
LINE
  8
0
  6
LTYPE3
 62
     2
 10
960.299501379
 20
304.6
 30
0.0
 11
960.299501379
 21
296.72
 31
0.0
  0
ARC
  8
0
  6
CONTINUOUS
 62
     1
 10
963.299501379
 20
303.6
 30
0.0
 40
2.0
 50
0.0
 51
90.0
  0
LINE
  8
0
  6
CONTINUOUS
 62
     1
 10
988.699501379
 20
298.3
 30
0.0
 11
965.299501379
 21
298.3
 31
0.0
  0
LINE
  8
0
  6
CONTINUOUS
 62
     1
 10
965.299501379
 20
303.6
 30
0.0
 11
965.299501379
 21
267.6
 31
0.0
  0
ARC
  8
0
  6
CONTINUOUS
 62
     1
 10
988.699501379
 20
296.3
 30
0.0
 40
2.0
 50
0.0
 51
90.0
  0
LINE
  8
0
  6
CONTINUOUS
 62
     1
 10
990.699501379
 20
296.3
 30
0.0
 11
990.699501379
 21
274.9
 31
0.0
  0
ARC
  8
0
  6
CONTINUOUS
 62
     1
 10
974.999501379
 20
285.6
 30
0.0
 40
6.0
 50
356.983045121
 51
183.016954879
  0
LINE
  8
0
  6
LTYPE3
 62
     2
 10
974.999501379
 20
294.7
 30
0.0
 11
974.999501379
 21
237.2
 31
0.0
  0
LINE
  8
0
  6
CONTINUOUS
 62
     1
 10
976.0
 20
586.75
 30
0.0
 11
976.0
 21
618.5
 31
0.0
  0
LINE
  8
0
  6
CONTINUOUS
 62
     1
 10
1006.0
 20
650.25
 30
0.0
 11
1006.0
 21
618.5
 31
0.0
  0
LINE
  8
0
  6
CONTINUOUS
 62
     1
 10
956.0
 20
652.25
 30
0.0
 11
976.0
 21
652.25
 31
0.0
  0
LINE
  8
0
  6
CONTINUOUS
 62
     1
 10
976.0
 20
652.25
 30
0.0
 11
980.155575539
 21
667.758819045
 31
0.0
  0
ARC
  8
0
  6
CONTINUOUS
 62
     1
 10
981.121501365
 20
667.5
 30
0.0
 40
1.0
 50
90.0
 51
165.0
  0
ARC
  8
0
  6
CONTINUOUS
 62
     1
 10
981.121501365
 20
667.5
 30
0.0
 40
1.0
 50
15.0
 51
90.0
  0
LINE
  8
0
  6
CONTINUOUS
 62
     1
 10
984.369721439
 20
659.241180955
 30
0.0
 11
982.087427191
 21
667.758819045
 31
0.0
  0
ARC
  8
0
  6
CONTINUOUS
 62
     1
 10
985.335647265
 20
659.5
 30
0.0
 40
1.0
 50
195.0
 51
270.0
  0
ARC
  8
0
  6
CONTINUOUS
 62
     1
 10
989.549793166
 20
667.5
 30
0.0
 40
1.0
 50
90.0
 51
165.0
  0
LINE
  8
0
  6
CONTINUOUS
 62
     1
 10
986.301573092
 20
659.241180955
 30
0.0
 11
988.583867339
 21
667.758819045
 31
0.0
  0
ARC
  8
0
  6
CONTINUOUS
 62
     1
 10
985.335647265
 20
659.5
 30
0.0
 40
1.0
 50
270.0
 51
345.0
  0
ARC
  8
0
  6
CONTINUOUS
 62
     1
 10
989.549814745
 20
667.5
 30
0.0
 40
1.0
 50
15.0
 51
90.0
  0
LINE
  8
0
  6
CONTINUOUS
 62
     1
 10
992.798034819
 20
659.241180955
 30
0.0
 11
990.515740571
 21
667.758819045
 31
0.0
  0
ARC
  8
0
  6
CONTINUOUS
 62
     1
 10
993.763960645
 20
659.5
 30
0.0
 40
1.0
 50
195.0
 51
270.0
  0
LINE
  8
0
  6
CONTINUOUS
 62
     1
 10
959.0
 20
654.25
 30
0.0
 11
973.0
 21
654.25
 31
0.0
  0
LINE
  8
0
  6
CONTINUOUS
 62
     1
 10
956.0
 20
584.75
 30
0.0
 11
956.0
 21
618.5
 31
0.0
  0
LINE
  8
0
  6
CONTINUOUS
 62
     1
 10
976.0
 20
584.75
 30
0.0
 11
976.0
 21
618.5
 31
0.0
  0
LINE
  8
0
  6
CONTINUOUS
 62
     1
 10
976.0
 20
584.75
 30
0.0
 11
980.155575539
 21
569.241180955
 31
0.0
  0
ARC
  8
0
  6
CONTINUOUS
 62
     1
 10
981.121501365
 20
569.5
 30
0.0
 40
1.0
 50
195.0
 51
270.0
  0
ARC
  8
0
  6
CONTINUOUS
 62
     1
 10
981.121501365
 20
569.5
 30
0.0
 40
1.0
 50
270.0
 51
345.0
  0
LINE
  8
0
  6
CONTINUOUS
 62
     1
 10
984.369721439
 20
577.758819045
 30
0.0
 11
982.087427191
 21
569.241180955
 31
0.0
  0
ARC
  8
0
  6
CONTINUOUS
 62
     1
 10
985.335647265
 20
577.5
 30
0.0
 40
1.0
 50
90.0
 51
165.0
  0
ARC
  8
0
  6
CONTINUOUS
 62
     1
 10
989.549793166
 20
569.5
 30
0.0
 40
1.0
 50
195.0
 51
270.0
  0
LINE
  8
0
  6
CONTINUOUS
 62
     1
 10
986.301573092
 20
577.758819045
 30
0.0
 11
988.583867339
 21
569.241180955
 31
0.0
  0
ARC
  8
0
  6
CONTINUOUS
 62
     1
 10
985.335647265
 20
577.5
 30
0.0
 40
1.0
 50
15.0
 51
90.0
  0
ARC
  8
0
  6
CONTINUOUS
 62
     1
 10
989.549814745
 20
569.5
 30
0.0
 40
1.0
 50
270.0
 51
345.0
  0
LINE
  8
0
  6
CONTINUOUS
 62
     1
 10
992.798034819
 20
577.758819045
 30
0.0
 11
990.515740571
 21
569.241180955
 31
0.0
  0
ARC
  8
0
  6
CONTINUOUS
 62
     1
 10
993.763960645
 20
577.5
 30
0.0
 40
1.0
 50
90.0
 51
165.0
  0
LINE
  8
0
  6
CONTINUOUS
 62
     1
 10
959.0
 20
582.75
 30
0.0
 11
959.0
 21
618.5
 31
0.0
  0
LINE
  8
0
  6
CONTINUOUS
 62
     1
 10
959.0
 20
582.75
 30
0.0
 11
973.0
 21
582.75
 31
0.0
  0
LINE
  8
0
  6
CONTINUOUS
 62
     1
 10
973.0
 20
582.75
 30
0.0
 11
973.0
 21
618.5
 31
0.0
  0
LINE
  8
0
  6
CONTINUOUS
 62
     1
 10
956.0
 20
652.25
 30
0.0
 11
956.0
 21
650.25
 31
0.0
  0
LINE
  8
0
  6
CONTINUOUS
 62
     1
 10
976.0
 20
652.25
 30
0.0
 11
976.0
 21
650.25
 31
0.0
  0
LINE
  8
0
  6
CONTINUOUS
 62
     1
 10
973.0
 20
654.25
 30
0.0
 11
973.0
 21
652.25
 31
0.0
  0
LINE
  8
0
  6
CONTINUOUS
 62
     1
 10
959.0
 20
654.25
 30
0.0
 11
959.0
 21
652.25
 31
0.0
  0
LINE
  8
0
  6
CONTINUOUS
 62
     1
 10
973.0
 20
584.75
 30
0.0
 11
976.0
 21
584.75
 31
0.0
  0
LINE
  8
0
  6
CONTINUOUS
 62
     1
 10
956.0
 20
584.75
 30
0.0
 11
959.0
 21
584.75
 31
0.0
  0
LINE
  8
0
  6
CONTINUOUS
 62
     1
 10
981.121501365
 20
568.5
 30
0.0
 11
981.121501365
 21
618.5
 31
0.0
  0
LINE
  8
0
  6
CONTINUOUS
 62
     1
 10
985.335658055
 20
578.5
 30
0.0
 11
985.335658055
 21
618.5
 31
0.0
  0
LINE
  8
0
  6
CONTINUOUS
 62
     1
 10
989.549814745
 20
568.5
 30
0.0
 11
989.549814745
 21
618.5
 31
0.0
  0
LINE
  8
0
  6
CONTINUOUS
 62
     1
 10
993.763971435
 20
578.5
 30
0.0
 11
993.763971435
 21
618.5
 31
0.0
  0
LINE
  8
0
  6
CONTINUOUS
 62
     1
 10
976.0
 20
650.25
 30
0.0
 11
976.0
 21
618.5
 31
0.0
  0
LINE
  8
0
  6
CONTINUOUS
 62
     1
 10
1050.0
 20
598.5
 30
0.0
 11
1050.0
 21
618.5
 31
0.0
  0
LINE
  8
0
  6
CONTINUOUS
 62
     1
 10
1050.0
 20
618.5
 30
0.0
 11
1050.0
 21
598.5
 31
0.0
  0
LINE
  8
0
  6
CONTINUOUS
 62
     1
 10
1033.0
 20
595.5
 30
0.0
 11
1047.0
 21
595.5
 31
0.0
  0
LINE
  8
0
  6
CONTINUOUS
 62
     1
 10
1047.0
 20
618.5
 30
0.0
 11
1047.0
 21
595.5
 31
0.0
  0
LINE
  8
0
  6
CONTINUOUS
 62
     1
 10
1047.0
 20
597.5
 30
0.0
 11
1050.0
 21
597.5
 31
0.0
  0
LINE
  8
0
  6
CONTINUOUS
 62
     1
 10
1030.0
 20
597.5
 30
0.0
 11
1033.0
 21
597.5
 31
0.0
  0
LINE
  8
0
  6
CONTINUOUS
 62
     1
 10
1030.0
 20
597.5
 30
0.0
 11
1022.428072258
 21
569.241180955
 31
0.0
  0
ARC
  8
0
  6
CONTINUOUS
 62
     1
 10
1021.462146432
 20
569.5
 30
0.0
 40
1.0
 50
270.0
 51
345.0
  0
ARC
  8
0
  6
CONTINUOUS
 62
     1
 10
1021.462146432
 20
569.5
 30
0.0
 40
1.0
 50
195.0
 51
270.0
  0
LINE
  8
0
  6
CONTINUOUS
 62
     1
 10
1018.213926358
 20
577.758819045
 30
0.0
 11
1020.496220605
 21
569.241180955
 31
0.0
  0
ARC
  8
0
  6
CONTINUOUS
 62
     1
 10
1017.248000531
 20
577.5
 30
0.0
 40
1.0
 50
15.0
 51
90.0
  0
ARC
  8
0
  6
CONTINUOUS
 62
     1
 10
1017.248000531
 20
577.5
 30
0.0
 40
1.0
 50
90.0
 51
165.0
  0
LINE
  8
0
  6
CONTINUOUS
 62
     1
 10
1016.282074705
 20
577.758819045
 30
0.0
 11
1013.999780457
 21
569.241180955
 31
0.0
  0
ARC
  8
0
  6
CONTINUOUS
 62
     1
 10
1013.033854631
 20
569.5
 30
0.0
 40
1.0
 50
270.0
 51
345.0
  0
ARC
  8
0
  6
CONTINUOUS
 62
     1
 10
1008.819708731
 20
577.5
 30
0.0
 40
1.0
 50
15.0
 51
90.0
  0
LINE
  8
0
  6
CONTINUOUS
 62
     1
 10
1009.785634557
 20
577.758819045
 30
0.0
 11
1012.067928805
 21
569.241180955
 31
0.0
  0
ARC
  8
0
  6
CONTINUOUS
 62
     1
 10
1013.033854631
 20
569.5
 30
0.0
 40
1.0
 50
195.0
 51
270.0
  0
LINE
  8
0
  6
CONTINUOUS
 62
     1
 10
1033.0
 20
641.5
 30
0.0
 11
1047.0
 21
641.5
 31
0.0
  0
LINE
  8
0
  6
CONTINUOUS
 62
     1
 10
1047.0
 20
639.5
 30
0.0
 11
1050.0
 21
639.5
 31
0.0
  0
LINE
  8
0
  6
CONTINUOUS
 62
     1
 10
1030.0
 20
639.5
 30
0.0
 11
1022.428072258
 21
667.758819045
 31
0.0
  0
ARC
  8
0
  6
CONTINUOUS
 62
     1
 10
1021.462146432
 20
667.5
 30
0.0
 40
1.0
 50
15.0
 51
90.0
  0
ARC
  8
0
  6
CONTINUOUS
 62
     1
 10
1021.462146432
 20
667.5
 30
0.0
 40
1.0
 50
90.0
 51
165.0
  0
LINE
  8
0
  6
CONTINUOUS
 62
     1
 10
1018.213926358
 20
659.241180955
 30
0.0
 11
1020.496220605
 21
667.758819045
 31
0.0
  0
ARC
  8
0
  6
CONTINUOUS
 62
     1
 10
1017.248000531
 20
659.5
 30
0.0
 40
1.0
 50
270.0
 51
345.0
  0
ARC
  8
0
  6
CONTINUOUS
 62
     1
 10
1017.248000531
 20
659.5
 30
0.0
 40
1.0
 50
195.0
 51
270.0
  0
LINE
  8
0
  6
CONTINUOUS
 62
     1
 10
1016.282074705
 20
659.241180955
 30
0.0
 11
1013.999780457
 21
667.758819045
 31
0.0
  0
ARC
  8
0
  6
CONTINUOUS
 62
     1
 10
1013.033854631
 20
667.5
 30
0.0
 40
1.0
 50
15.0
 51
90.0
  0
ARC
  8
0
  6
CONTINUOUS
 62
     1
 10
1008.819708731
 20
659.5
 30
0.0
 40
1.0
 50
270.0
 51
345.0
  0
LINE
  8
0
  6
CONTINUOUS
 62
     1
 10
1009.785634557
 20
659.241180955
 30
0.0
 11
1012.067928805
 21
667.758819045
 31
0.0
  0
ARC
  8
0
  6
CONTINUOUS
 62
     1
 10
1013.033854631
 20
667.5
 30
0.0
 40
1.0
 50
90.0
 51
165.0
  0
LINE
  8
0
  6
CONTINUOUS
 62
     1
 10
1013.033854631
 20
568.5
 30
0.0
 11
1013.033854631
 21
618.5
 31
0.0
  0
LINE
  8
0
  6
CONTINUOUS
 62
     1
 10
1008.619708731
 20
578.5
 30
0.0
 11
1008.619708731
 21
618.5
 31
0.0
  0
LINE
  8
0
  6
CONTINUOUS
 62
     1
 10
1017.248000531
 20
578.5
 30
0.0
 11
1017.248000531
 21
618.5
 31
0.0
  0
LINE
  8
0
  6
CONTINUOUS
 62
     1
 10
1021.462146432
 20
618.5
 30
0.0
 11
1021.462146432
 21
568.5
 31
0.0
  0
LINE
  8
0
  6
CONTINUOUS
 62
     1
 10
1033.0
 20
618.5
 30
0.0
 11
1033.0
 21
595.5
 31
0.0
  0
LINE
  8
0
  6
CONTINUOUS
 62
     1
 10
1030.0
 20
618.5
 30
0.0
 11
1030.0
 21
597.5
 31
0.0
  0
LINE
  8
0
  6
CONTINUOUS
 62
     1
 10
1030.0
 20
637.5
 30
0.0
 11
1030.0
 21
639.5
 31
0.0
  0
LINE
  8
0
  6
CONTINUOUS
 62
     1
 10
1033.0
 20
639.5
 30
0.0
 11
1033.0
 21
641.5
 31
0.0
  0
LINE
  8
0
  6
CONTINUOUS
 62
     1
 10
1047.0
 20
639.5
 30
0.0
 11
1047.0
 21
641.5
 31
0.0
  0
LINE
  8
0
  6
CONTINUOUS
 62
     1
 10
1030.0
 20
639.5
 30
0.0
 11
1047.0
 21
639.5
 31
0.0
  0
LINE
  8
0
  6
CONTINUOUS
 62
     1
 10
1050.0
 20
639.5
 30
0.0
 11
1050.0
 21
618.5
 31
0.0
  0
LINE
  8
0
  6
LTYPE6
 62
     2
 10
993.763971435
 20
658.5
 30
0.0
 11
1008.619708731
 21
658.5
 31
0.0
  0
LINE
  8
0
  6
LTYPE6
 62
     2
 10
993.763971435
 20
578.5
 30
0.0
 11
1008.619708731
 21
578.5
 31
0.0
  0
LINE
  8
0
  6
CONTINUOUS
 62
     1
 10
1006.0
 20
637.5
 30
0.0
 11
1050.0
 21
637.5
 31
0.0
  0
LINE
  8
0
  6
LTYPE3
 62
     2
 10
917.999501379
 20
467.5
 30
0.0
 11
917.999501379
 21
532.8
 31
0.0
  0
LINE
  8
0
  6
CONTINUOUS
 62
     1
 10
955.999501379
 20
650.25
 30
0.0
 11
1006.0
 21
650.25
 31
0.0
  0
LINE
  8
0
  6
CONTINUOUS
 62
     2
 10
1006.0
 20
620.25
 30
0.0
 11
1006.0
 21
788.25
 31
0.0
  0
LINE
  8
0
  6
CONTINUOUS
 62
     2
 10
969.7
 20
568.5
 30
0.0
 11
969.7
 21
724.9
 31
0.0
  0
LINE
  8
0
  6
CONTINUOUS
 62
     2
 10
969.7
 20
668.5
 30
0.0
 11
967.111809549
 21
658.840741737
 31
0.0
  0
LINE
  8
0
  6
CONTINUOUS
 62
     2
 10
969.7
 20
668.5
 30
0.0
 11
972.288190451
 21
658.840741737
 31
0.0
  0
LINE
  8
0
  6
CONTINUOUS
 62
     2
 10
969.7
 20
568.5
 30
0.0
 11
972.288190451
 21
578.159258263
 31
0.0
  0
LINE
  8
0
  6
CONTINUOUS
 62
     2
 10
969.7
 20
568.5
 30
0.0
 11
967.111809549
 21
578.159258263
 31
0.0
  0
LINE
  8
0
  6
LTYPE6
 62
     2
 10
963.7
 20
668.5
 30
0.0
 11
1013.033854631
 21
668.5
 31
0.0
  0
LINE
  8
0
  6
LTYPE6
 62
     2
 10
962.7
 20
568.5
 30
0.0
 11
1013.033854631
 21
568.5
 31
0.0
  0
LINE
  8
0
  6
LTYPE3
 62
     2
 10
989.0
 20
368.5
 30
0.0
 11
1129.9
 21
368.5
 31
0.0
  0
LINE
  8
0
  6
CONTINUOUS
 62
     1
 10
1047.0
 20
368.5
 30
0.0
 11
1047.0
 21
391.5
 31
0.0
  0
LINE
  8
0
  6
CONTINUOUS
 62
     1
 10
1050.0
 20
368.5
 30
0.0
 11
1050.0
 21
407.5
 31
0.0
  0
LINE
  8
0
  6
CONTINUOUS
 62
     1
 10
1047.0
 20
368.5
 30
0.0
 11
1047.0
 21
345.5
 31
0.0
  0
LINE
  8
0
  6
CONTINUOUS
 62
     1
 10
1033.0
 20
368.5
 30
0.0
 11
1033.0
 21
391.5
 31
0.0
  0
LINE
  8
0
  6
CONTINUOUS
 62
     1
 10
1033.0
 20
391.5
 30
0.0
 11
1047.0
 21
391.5
 31
0.0
  0
LINE
  8
0
  6
CONTINUOUS
 62
     1
 10
1030.0
 20
368.5
 30
0.0
 11
1030.0
 21
389.5
 31
0.0
  0
LINE
  8
0
  6
CONTINUOUS
 62
     1
 10
1047.0
 20
389.5
 30
0.0
 11
1050.0
 21
389.5
 31
0.0
  0
LINE
  8
0
  6
CONTINUOUS
 62
     1
 10
1030.0
 20
389.5
 30
0.0
 11
1033.0
 21
389.5
 31
0.0
  0
LINE
  8
0
  6
CONTINUOUS
 62
     1
 10
1030.0
 20
389.5
 30
0.0
 11
1022.428072258
 21
417.758819045
 31
0.0
  0
ARC
  8
0
  6
CONTINUOUS
 62
     1
 10
1021.462146432
 20
417.5
 30
0.0
 40
1.0
 50
15.0
 51
90.0
  0
ARC
  8
0
  6
CONTINUOUS
 62
     1
 10
1021.462146432
 20
417.5
 30
0.0
 40
1.0
 50
90.0
 51
165.0
  0
LINE
  8
0
  6
CONTINUOUS
 62
     1
 10
1018.213926358
 20
409.241180955
 30
0.0
 11
1020.496220605
 21
417.758819045
 31
0.0
  0
ARC
  8
0
  6
CONTINUOUS
 62
     1
 10
1017.248000531
 20
409.5
 30
0.0
 40
1.0
 50
270.0
 51
345.0
  0
LINE
  8
0
  6
CONTINUOUS
 62
     1
 10
1017.248000531
 20
408.5
 30
0.0
 11
1017.248000531
 21
407.5
 31
0.0
  0
ARC
  8
0
  6
CONTINUOUS
 62
     1
 10
1017.248000531
 20
409.5
 30
0.0
 40
1.0
 50
195.0
 51
270.0
  0
LINE
  8
0
  6
CONTINUOUS
 62
     1
 10
1016.282074705
 20
409.241180955
 30
0.0
 11
1013.999780457
 21
417.758819045
 31
0.0
  0
ARC
  8
0
  6
CONTINUOUS
 62
     1
 10
1013.033854631
 20
417.5
 30
0.0
 40
1.0
 50
15.0
 51
90.0
  0
ARC
  8
0
  6
CONTINUOUS
 62
     1
 10
1008.819708731
 20
409.5
 30
0.0
 40
1.0
 50
195.0
 51
270.0
  0
ARC
  8
0
  6
CONTINUOUS
 62
     1
 10
1008.819708731
 20
409.5
 30
0.0
 40
1.0
 50
270.0
 51
345.0
  0
LINE
  8
0
  6
CONTINUOUS
 62
     1
 10
1009.785634557
 20
409.241180955
 30
0.0
 11
1012.067928805
 21
417.758819045
 31
0.0
  0
ARC
  8
0
  6
CONTINUOUS
 62
     1
 10
1013.033854631
 20
417.5
 30
0.0
 40
1.0
 50
90.0
 51
165.0
  0
LINE
  8
0
  6
LTYPE6
 62
     2
 10
990.0
 20
408.5
 30
0.0
 11
1008.619708731
 21
408.5
 31
0.0
  0
LINE
  8
0
  6
CONTINUOUS
 62
     1
 10
1050.0
 20
407.5
 30
0.0
 11
1066.0
 21
407.5
 31
0.0
  0
LINE
  8
0
  6
CONTINUOUS
 62
     1
 10
1033.0
 20
368.5
 30
0.0
 11
1033.0
 21
345.5
 31
0.0
  0
LINE
  8
0
  6
CONTINUOUS
 62
     1
 10
1033.0
 20
345.5
 30
0.0
 11
1047.0
 21
345.5
 31
0.0
  0
LINE
  8
0
  6
CONTINUOUS
 62
     1
 10
1030.0
 20
368.5
 30
0.0
 11
1030.0
 21
347.5
 31
0.0
  0
LINE
  8
0
  6
CONTINUOUS
 62
     1
 10
1047.0
 20
347.5
 30
0.0
 11
1050.0
 21
347.5
 31
0.0
  0
LINE
  8
0
  6
CONTINUOUS
 62
     1
 10
1030.0
 20
347.5
 30
0.0
 11
1033.0
 21
347.5
 31
0.0
  0
LINE
  8
0
  6
LTYPE6
 62
     2
 10
990.0
 20
418.5
 30
0.0
 11
1013.033854631
 21
418.5
 31
0.0
  0
TEXT
  8
0
  6
CONTINUOUS
 62
     2
 10
968.2
 20
678.8
 30
0.0
 40
15.0
  1
φ９５
 50
90.0
 41
0.9
 51
0.0
  7
KANJI42
  0
LINE
  8
0
  6
CONTINUOUS
 62
     2
 10
1038.35
 20
465.5
 30
0.0
 11
1186.25
 21
465.5
 31
0.0
  0
LINE
  8
0
  6
LTYPE7
 62
     2
 10
813.849814745
 20
581.5
 30
0.0
 11
813.849814745
 21
652.95
 31
0.0
  0
LINE
  8
0
  6
CONTINUOUS
 62
     1
 10
813.849814745
 20
586.75
 30
0.0
 11
879.999501379
 21
586.75
 31
0.0
  0
LINE
  8
0
  6
CONTINUOUS
 62
     1
 10
813.849814745
 20
650.25
 30
0.0
 11
879.999501379
 21
650.25
 31
0.0
  0
LINE
  8
0
  6
CONTINUOUS
 62
     2
 10
1184.225595435
 20
685.543416229
 30
0.0
 11
1184.225595435
 21
810.072652293
 31
0.0
  0
LINE
  8
0
  6
CONTINUOUS
 62
     2
 10
1335.9
 20
806.072652293
 30
0.0
 11
1184.225595435
 21
806.072652293
 31
0.0
  0
LINE
  8
0
  6
CONTINUOUS
 62
     2
 10
1184.225595435
 20
806.072652293
 30
0.0
 11
1195.09290757
 21
803.363127062
 31
0.0
  0
LINE
  8
0
  6
CONTINUOUS
 62
     2
 10
1184.225595435
 20
806.072652293
 30
0.0
 11
1195.09290757
 21
808.782177523
 31
0.0
  0
LINE
  8
0
  6
CONTINUOUS
 62
     2
 10
1335.9
 20
806.072652293
 30
0.0
 11
1325.032687866
 21
808.782177523
 31
0.0
  0
LINE
  8
0
  6
CONTINUOUS
 62
     2
 10
1335.9
 20
806.072652293
 30
0.0
 11
1325.032687866
 21
803.363127062
 31
0.0
  0
LINE
  8
0
  6
LTYPE5
 62
     2
 10
1220.783016023
 20
697.130274068
 30
0.0
 11
1256.138355082
 21
732.485613127
 31
0.0
  0
ARC
  8
0
  6
LTYPE1
 62
     1
 10
1239.026370977
 20
715.373629023
 30
0.0
 40
16.0
 50
225.0
 51
99.340912304
  0
ARC
  8
0
  6
CONTINUOUS
 62
     1
 10
1239.026370977
 20
715.373629023
 30
0.0
 40
16.0
 50
99.340912304
 51
170.659087696
  0
LINE
  8
0
  6
CONTINUOUS
 62
     1
 10
1224.405465137
 20
705.702470651
 30
0.0
 11
1216.222177284
 21
697.519182798
 31
0.0
  0
LINE
  8
0
  6
CONTINUOUS
 62
     1
 10
1219.072701496
 20
712.390522289
 30
0.0
 11
1184.225595435
 21
677.543416229
 31
0.0
  0
LINE
  8
0
  6
CONTINUOUS
 62
     1
 10
1223.492118878
 20
705.496231173
 30
0.0
 11
1215.868623894
 21
697.872736188
 31
0.0
  0
LINE
  8
0
  6
LTYPE3
 62
     2
 10
1215.550425842
 20
710.56530291
 30
0.0
 11
1229.126876041
 21
696.988852712
 31
0.0
  0
LINE
  8
0
  6
LTYPE1
 62
     2
 10
1228.596545955
 20
709.893551468
 30
0.0
 11
1233.546293423
 21
704.943804
 31
0.0
  0
LINE
  8
0
  6
LTYPE1
 62
     2
 10
1233.546293423
 20
704.943804
 30
0.0
 11
1228.220895477
 21
699.618406054
 31
0.0
  0
ARC
  8
0
  6
LTYPE1
 62
     1
 10
1239.026370977
 20
715.373629023
 30
0.0
 40
16.0
 50
170.659087696
 51
225.0
  0
LINE
  8
0
  6
LTYPE1
 62
     2
 10
1228.596545955
 20
709.893551468
 30
0.0
 11
1224.405465137
 21
705.702470651
 31
0.0
  0
LINE
  8
0
  6
LTYPE1
 62
     1
 10
1219.934487885
 20
713.252308679
 30
0.0
 11
1219.072701496
 21
712.390522289
 31
0.0
  0
LINE
  8
0
  6
LTYPE1
 62
     1
 10
1225.591342135
 20
707.59545443
 30
0.0
 11
1223.492118878
 21
705.496231173
 31
0.0
  0
LINE
  8
0
  6
LTYPE5
 62
     2
 10
1226.439870272
 20
727.960129728
 30
0.0
 11
1341.144043872
 21
613.255956128
 31
0.0
  0
LINE
  8
0
  6
CONTINUOUS
 62
     1
 10
1220.641594667
 20
715.373629023
 30
0.0
 11
1296.302020254
 21
605.772077939
 31
0.0
  0
LINE
  8
0
  6
CONTINUOUS
 62
     1
 10
1220.641594667
 20
715.373629023
 30
0.0
 11
1239.026370977
 21
733.758405333
 31
0.0
  0
LINE
  8
0
  6
LTYPE1
 62
     1
 10
1219.934487885
 20
713.252308679
 30
0.0
 11
1226.946630132
 21
706.240166432
 31
0.0
  0
CIRCLE
  8
0
  6
CONTINUOUS
 62
     1
 10
1239.026370977
 20
715.373629023
 30
0.0
 40
6.49995
  0
LINE
  8
0
  6
CONTINUOUS
 62
     1
 10
1240.972979378
 20
722.619338067
 30
0.0
 11
1233.727270333
 21
720.672729667
 31
0.0
  0
CIRCLE
  8
0
  6
LTYPE1
 62
     2
 10
1239.026370977
 20
715.373629023
 30
0.0
 40
3.2
  0
CIRCLE
  8
0
  6
CONTINUOUS
 62
     1
 10
1239.026370977
 20
715.373629023
 30
0.0
 40
4.0
  0
LINE
  8
0
  6
CONTINUOUS
 62
     1
 10
1246.272080022
 20
717.320237423
 30
0.0
 11
1244.325471622
 21
710.074528378
 31
0.0
  0
LINE
  8
0
  6
CONTINUOUS
 62
     1
 10
1246.272080022
 20
717.320237423
 30
0.0
 11
1240.972979378
 21
722.619338067
 31
0.0
  0
LINE
  8
0
  6
LTYPE1
 62
     1
 10
1241.147691321
 20
734.465512115
 30
0.0
 11
1242.009477711
 21
735.327298504
 31
0.0
  0
LINE
  8
0
  6
LTYPE3
 62
     2
 10
1242.137640815
 20
740.546630433
 30
0.0
 11
1257.411147288
 21
725.273123959
 31
0.0
  0
LINE
  8
0
  6
LTYPE1
 62
     2
 10
1244.506448532
 20
725.803454045
 30
0.0
 11
1249.456196
 21
720.853706577
 31
0.0
  0
LINE
  8
0
  6
LTYPE1
 62
     2
 10
1254.781593946
 20
726.179104523
 30
0.0
 11
1249.456196
 21
720.853706577
 31
0.0
  0
LINE
  8
0
  6
CONTINUOUS
 62
     1
 10
1248.903768827
 20
730.907881122
 30
0.0
 11
1256.527263812
 21
738.531376106
 31
0.0
  0
LINE
  8
0
  6
CONTINUOUS
 62
     1
 10
1242.009477711
 20
735.327298504
 30
0.0
 11
1276.856583771
 21
770.174404565
 31
0.0
  0
LINE
  8
0
  6
LTYPE1
 62
     1
 10
1246.804545571
 20
728.808657865
 30
0.0
 11
1248.903768827
 21
730.907881122
 31
0.0
  0
LINE
  8
0
  6
CONTINUOUS
 62
     1
 10
1237.079762577
 20
708.127919978
 30
0.0
 11
1231.780661933
 21
713.427020622
 31
0.0
  0
LINE
  8
0
  6
CONTINUOUS
 62
     1
 10
1231.780661933
 20
713.427020622
 30
0.0
 11
1233.727270333
 21
720.672729667
 31
0.0
  0
LINE
  8
0
  6
CONTINUOUS
 62
     1
 10
1237.079762577
 20
708.127919978
 30
0.0
 11
1244.325471622
 21
710.074528378
 31
0.0
  0
LINE
  8
0
  6
LTYPE1
 62
     1
 10
1241.147691321
 20
734.465512115
 30
0.0
 11
1248.159833568
 21
727.453369868
 31
0.0
  0
LINE
  8
0
  6
CONTINUOUS
 62
     1
 10
1256.880817202
 20
738.177822716
 30
0.0
 11
1247.158098961
 21
728.455104475
 31
0.0
  0
LINE
  8
0
  6
LTYPE1
 62
     2
 10
1248.697529349
 20
729.994534863
 30
0.0
 11
1247.158098961
 21
728.455104475
 31
0.0
  0
LINE
  8
0
  6
CONTINUOUS
 62
     1
 10
1216.222177284
 20
697.519182798
 30
0.0
 11
1221.171924752
 21
692.569435329
 31
0.0
  0
LINE
  8
0
  6
CONTINUOUS
 62
     1
 10
1215.797913215
 20
697.943446866
 30
0.0
 11
1210.74209973
 21
689.9177849
 31
0.0
  0
LINE
  8
0
  6
CONTINUOUS
 62
     1
 10
1209.681439558
 20
628.045941546
 30
0.0
 11
1213.924080245
 21
623.803300859
 31
0.0
  0
LINE
  8
0
  6
LTYPE3
 62
     2
 10
1218.732406357
 20
632.288582233
 30
0.0
 11
1185.498387642
 21
665.522600949
 31
0.0
  0
LINE
  8
0
  6
LTYPE3
 62
     2
 10
1207.560119215
 20
686.17011896
 30
0.0
 11
1240.79413793
 21
652.936100244
 31
0.0
  0
LINE
  8
0
  6
CONTINUOUS
 62
     1
 10
1241.147691321
 20
659.512193309
 30
0.0
 11
1212.863420074
 21
631.227922061
 31
0.0
  0
LINE
  8
0
  6
CONTINUOUS
 62
     1
 10
1212.863420074
 20
631.227922061
 30
0.0
 11
1212.934130752
 21
631.157211383
 31
0.0
  0
LINE
  8
0
  6
CONTINUOUS
 62
     1
 10
1184.579148826
 20
659.512193309
 30
0.0
 11
1212.863420074
 21
631.227922061
 31
0.0
  0
LINE
  8
0
  6
CONTINUOUS
 62
     1
 10
1241.147691321
 20
659.512193309
 30
0.0
 11
1212.863420074
 21
687.796464556
 31
0.0
  0
LINE
  8
0
  6
LTYPE3
 62
     2
 10
1186.983311882
 20
685.3923015
 30
0.0
 11
1227.995505191
 21
644.380108191
 31
0.0
  0
LINE
  8
0
  6
CONTINUOUS
 62
     1
 10
1210.74209973
 20
689.9177849
 30
0.0
 11
1201.903264965
 21
681.078950135
 31
0.0
  0
LINE
  8
0
  6
CONTINUOUS
 62
     1
 10
1201.903264965
 20
681.078950135
 30
0.0
 11
1191.296663247
 21
670.472348417
 31
0.0
  0
ARC
  8
0
  6
CONTINUOUS
 62
     1
 10
1202.610371746
 20
654.633156519
 30
0.0
 40
2.0
 50
135.0
 51
225.0
  0
LINE
  8
0
  6
CONTINUOUS
 62
     1
 10
1216.328243301
 20
671.179455198
 30
0.0
 11
1201.196158184
 21
656.047370081
 31
0.0
  0
ARC
  8
0
  6
CONTINUOUS
 62
     1
 10
1217.742456864
 20
669.765241636
 30
0.0
 40
2.0
 50
45.0
 51
135.0
  0
LINE
  8
0
  6
CONTINUOUS
 62
     1
 10
1201.196158184
 20
653.218942956
 30
0.0
 11
1216.328243301
 21
638.086857839
 31
0.0
  0
ARC
  8
0
  6
CONTINUOUS
 62
     1
 10
1217.742456864
 20
639.501071401
 30
0.0
 40
2.0
 50
225.0
 51
315.0
  0
LINE
  8
0
  6
LTYPE3
 62
     2
 10
1207.772251249
 20
644.662950904
 30
0.0
 11
1227.854083835
 21
664.74478349
 31
0.0
  0
LINE
  8
0
  6
CONTINUOUS
 62
     1
 10
1194.832197153
 20
688.150017947
 30
0.0
 11
1214.065501602
 21
668.916713499
 31
0.0
  0
LINE
  8
0
  6
CONTINUOUS
 62
     1
 10
1196.953517497
 20
664.815494168
 30
0.0
 11
1188.114682732
 21
655.976659403
 31
0.0
  0
LINE
  8
0
  6
CONTINUOUS
 62
     1
 10
1216.398953979
 20
684.26093065
 30
0.0
 11
1207.489408537
 21
675.351385207
 31
0.0
  0
LINE
  8
0
  6
CONTINUOUS
 62
     1
 10
1193.347272913
 20
668.280317396
 30
0.0
 11
1184.579148826
 21
659.512193309
 31
0.0
  0
LINE
  8
0
  6
CONTINUOUS
 62
     1
 10
1212.863420074
 20
687.796464556
 30
0.0
 11
1204.024585309
 21
678.957629791
 31
0.0
  0
LINE
  8
0
  6
CONTINUOUS
 62
     1
 10
1184.225595435
 20
677.543416229
 30
0.0
 11
1203.458899884
 21
658.310111781
 31
0.0
  0
LINE
  8
0
  6
CONTINUOUS
 62
     1
 10
1228.220895477
 20
699.618406054
 30
0.0
 11
1221.171924752
 21
692.569435329
 31
0.0
  0
LINE
  8
0
  6
CONTINUOUS
 62
     1
 10
1219.156670426
 20
671.179455198
 30
0.0
 11
1234.288755544
 21
656.047370081
 31
0.0
  0
LINE
  8
0
  6
CONTINUOUS
 62
     1
 10
1234.288755544
 20
653.218942956
 30
0.0
 11
1219.156670426
 21
638.086857839
 31
0.0
  0
LINE
  8
0
  6
CONTINUOUS
 62
     1
 10
1255.295224706
 20
665.17444532
 30
0.0
 11
1213.924080245
 21
623.803300859
 31
0.0
  0
LINE
  8
0
  6
CONTINUOUS
 62
     1
 10
1209.681439558
 20
628.045941546
 30
0.0
 11
1251.829861702
 21
670.19436369
 31
0.0
  0
ARC
  8
0
  6
CONTINUOUS
 62
     1
 10
1232.874541981
 20
654.633156519
 30
0.0
 40
2.0
 50
315.0
 51
45.0
  0
LINE
  8
0
  6
CONTINUOUS
 62
     1
 10
1247.511652352
 20
657.390872965
 30
0.0
 11
1267.664195616
 21
637.238329701
 31
0.0
  0
LINE
  8
0
  6
CONTINUOUS
 62
     1
 10
1348.627922061
 20
658.097979746
 30
0.0
 11
1239.026370977
 21
733.758405333
 31
0.0
  0
LINE
  8
0
  6
CONTINUOUS
 62
     1
 10
1220.641594667
 20
715.373629023
 30
0.0
 11
1239.026370977
 21
733.758405333
 31
0.0
  0
LINE
  8
0
  6
CONTINUOUS
 62
     1
 10
1256.880817202
 20
738.177822716
 30
0.0
 11
1261.830564671
 21
733.228075248
 31
0.0
  0
LINE
  8
0
  6
CONTINUOUS
 62
     1
 10
1256.456553134
 20
738.602086785
 30
0.0
 11
1264.4822151
 21
743.65790027
 31
0.0
  0
LINE
  8
0
  6
CONTINUOUS
 62
     1
 10
1261.830564671
 20
733.228075248
 30
0.0
 11
1252.831146496
 21
724.228657072
 31
0.0
  0
LINE
  8
0
  6
LTYPE3
 62
     2
 10
1267.593484937
 20
768.83090168
 30
0.0
 11
1308.605678246
 21
727.818708371
 31
0.0
  0
LINE
  8
0
  6
CONTINUOUS
 62
     1
 10
1298.423340597
 20
766.285317268
 30
0.0
 11
1270.13906935
 21
738.001046021
 31
0.0
  0
LINE
  8
0
  6
CONTINUOUS
 62
     1
 10
1294.837938583
 20
762.699915254
 30
0.0
 11
1270.13906935
 21
738.001046021
 31
0.0
  0
LINE
  8
0
  6
CONTINUOUS
 62
     1
 10
1294.887806691
 20
769.820851174
 30
0.0
 11
1266.603535444
 21
741.536579926
 31
0.0
  0
LINE
  8
0
  6
CONTINUOUS
 62
     1
 10
1276.856583771
 20
770.174404565
 30
0.0
 11
1286.048971926
 21
760.982016409
 31
0.0
  0
LINE
  8
0
  6
CONTINUOUS
 62
     1
 10
1266.249982053
 20
759.567802847
 30
0.0
 11
1275.442370209
 21
750.375414691
 31
0.0
  0
LINE
  8
0
  6
LTYPE3
 62
     2
 10
1289.584505832
 20
768.194505577
 30
0.0
 11
1322.818524548
 21
734.960486861
 31
0.0
  0
LINE
  8
0
  6
CONTINUOUS
 62
     1
 10
1323.172077939
 20
741.536579926
 30
0.0
 11
1294.887806691
 21
769.820851174
 31
0.0
  0
CIRCLE
  8
0
  6
CONTINUOUS
 62
     1
 10
1293.756435841
 20
742.667950776
 30
0.0
 40
9.36
  0
LINE
  8
0
  6
LTYPE3
 62
     2
 10
1302.948823997
 20
751.860338932
 30
0.0
 11
1284.564047686
 21
733.475562621
 31
0.0
  0
CIRCLE
  8
0
  6
CONTINUOUS
 62
     2
 10
1293.756435841
 20
742.667950776
 30
0.0
 40
10.47
  0
LINE
  8
0
  6
LTYPE3
 62
     2
 10
1300.756792975
 20
714.312968851
 30
0.0
 11
1267.522774259
 21
747.546987567
 31
0.0
  0
LINE
  8
0
  6
CONTINUOUS
 62
     1
 10
1266.603535444
 20
741.536579926
 30
0.0
 11
1294.887806691
 21
713.252308679
 31
0.0
  0
LINE
  8
0
  6
CONTINUOUS
 62
     1
 10
1264.4822151
 20
743.65790027
 30
0.0
 11
1273.321049865
 21
752.496735035
 31
0.0
  0
LINE
  8
0
  6
CONTINUOUS
 62
     1
 10
1330.596699141
 20
740.475919755
 30
0.0
 11
1289.22555468
 21
699.104775294
 31
0.0
  0
LINE
  8
0
  6
CONTINUOUS
 62
     1
 10
1284.20563631
 20
702.570138298
 30
0.0
 11
1326.354058454
 21
744.718560442
 31
0.0
  0
LINE
  8
0
  6
CONTINUOUS
 62
     1
 10
1326.354058454
 20
744.718560442
 30
0.0
 11
1330.596699141
 21
740.475919755
 31
0.0
  0
LINE
  8
0
  6
CONTINUOUS
 62
     1
 10
1320.343650814
 20
744.365007051
 30
0.0
 11
1292.059379566
 21
716.080735804
 31
0.0
  0
LINE
  8
0
  6
CONTINUOUS
 62
     1
 10
1302.312427894
 20
744.718560442
 30
0.0
 11
1311.504816049
 21
735.526172286
 31
0.0
  0
LINE
  8
0
  6
CONTINUOUS
 62
     1
 10
1291.705826176
 20
734.111958724
 30
0.0
 11
1300.898214331
 21
724.919570569
 31
0.0
  0
LINE
  8
0
  6
CONTINUOUS
 62
     1
 10
1289.938059223
 20
718.202056147
 30
0.0
 11
1298.776893988
 21
727.040890912
 31
0.0
  0
LINE
  8
0
  6
CONTINUOUS
 62
     1
 10
1297.009127035
 20
706.888347648
 30
0.0
 11
1317.161670299
 21
686.735804385
 31
0.0
  0
ARC
  8
0
  6
CONTINUOUS
 62
     1
 10
1315.747456736
 20
685.321590822
 30
0.0
 40
2.0
 50
315.0
 51
45.0
  0
LINE
  8
0
  6
CONTINUOUS
 62
     1
 10
1315.040349955
 20
681.786056916
 30
0.0
 11
1317.161670299
 21
683.90737726
 31
0.0
  0
LINE
  8
0
  6
CONTINUOUS
 62
     1
 10
1335.696991924
 20
667.087359826
 30
0.0
 11
1342.617514421
 21
674.007882323
 31
0.0
  0
LINE
  8
0
  6
CONTINUOUS
 62
     1
 10
1345.445941546
 20
674.007882323
 30
0.0
 11
1356.759650045
 21
662.694173824
 31
0.0
  0
ARC
  8
0
  6
CONTINUOUS
 62
     1
 10
1344.031727984
 20
672.593668761
 30
0.0
 40
2.0
 50
45.0
 51
135.0
  0
ARC
  8
0
  6
CONTINUOUS
 62
     1
 10
1355.345436483
 20
661.279960262
 30
0.0
 40
2.0
 50
315.0
 51
45.0
  0
LINE
  8
0
  6
CONTINUOUS
 62
     1
 10
1361.002290732
 20
645.723611076
 30
0.0
 11
1348.627922061
 21
658.097979746
 31
0.0
  0
ARC
  8
0
  6
CONTINUOUS
 62
     1
 10
1269.078409178
 20
638.652543264
 30
0.0
 40
2.0
 50
225.0
 51
315.0
  0
LINE
  8
0
  6
CONTINUOUS
 62
     1
 10
1272.613943084
 20
639.359650045
 30
0.0
 11
1270.49262274
 21
637.238329701
 31
0.0
  0
LINE
  8
0
  6
CONTINUOUS
 62
     1
 10
1287.082337765
 20
618.472705667
 30
0.0
 11
1280.392117677
 21
611.782485579
 31
0.0
  0
ARC
  8
0
  6
CONTINUOUS
 62
     1
 10
1281.806331239
 20
610.368272016
 30
0.0
 40
2.0
 50
135.0
 51
225.0
  0
LINE
  8
0
  6
CONTINUOUS
 62
     1
 10
1280.392117677
 20
608.954058454
 30
0.0
 11
1291.705826176
 21
597.640349955
 31
0.0
  0
ARC
  8
0
  6
CONTINUOUS
 62
     1
 10
1293.120039738
 20
599.054563517
 30
0.0
 40
2.0
 50
225.0
 51
315.0
  0
LINE
  8
0
  6
CONTINUOUS
 62
     1
 10
1380.447727215
 20
626.278174593
 30
0.0
 11
1328.121825407
 21
573.952272785
 31
0.0
  0
LINE
  8
0
  6
LTYPE5
 62
     2
 10
1366.447012947
 20
649.047012947
 30
0.0
 11
1291.352272785
 21
573.952272785
 31
0.0
  0
LINE
  8
0
  6
LTYPE5
 62
     2
 10
1366.447012947
 20
649.047012947
 30
0.0
 11
1291.352272785
 21
573.952272785
 31
0.0
  0
LINE
  8
0
  6
CONTINUOUS
 62
     1
 10
1308.676388924
 20
593.397709268
 30
0.0
 11
1296.302020254
 21
605.772077939
 31
0.0
  0
LINE
  8
0
  6
CONTINUOUS
 62
     1
 10
1312.919029611
 20
597.640349955
 30
0.0
 11
1308.676388924
 21
593.397709268
 31
0.0
  0
LINE
  8
0
  6
CONTINUOUS
 62
     1
 10
1315.040349955
 20
595.519029611
 30
0.0
 11
1310.797709268
 21
591.276388924
 31
0.0
  0
LINE
  8
0
  6
CONTINUOUS
 62
     1
 10
1328.121825407
 20
573.952272785
 30
0.0
 11
1310.797709268
 21
591.276388924
 31
0.0
  0
LINE
  8
0
  6
CONTINUOUS
 62
     1
 10
1361.002290732
 20
645.723611076
 30
0.0
 11
1356.759650045
 21
641.480970389
 31
0.0
  0
LINE
  8
0
  6
CONTINUOUS
 62
     1
 10
1380.447727215
 20
626.278174593
 30
0.0
 11
1363.123611076
 21
643.602290732
 31
0.0
  0
LINE
  8
0
  6
CONTINUOUS
 62
     1
 10
1363.123611076
 20
643.602290732
 30
0.0
 11
1358.880970389
 21
639.359650045
 31
0.0
  0
LINE
  8
0
  6
CONTINUOUS
 62
     1
 10
1380.9
 20
641.5
 30
0.0
 11
1380.9
 21
663.5
 31
0.0
  0
ARC
  8
0
  6
CONTINUOUS
 62
     1
 10
1377.021320344
 20
659.621320344
 30
0.0
 40
7.0
 50
0.0
 51
7.278942019
  0
LINE
  8
0
  6
CONTINUOUS
 62
     1
 10
1383.964907874
 20
660.508220679
 30
0.0
 11
1386.577546324
 21
640.053742279
 31
0.0
  0
LINE
  8
0
  6
LTYPE1
 62
     2
 10
1366.815102543
 20
657.5
 30
0.0
 11
1383.315102543
 21
657.5
 31
0.0
  0
LINE
  8
0
  6
LTYPE1
 62
     2
 10
1374.9
 20
665.172877017
 30
0.0
 11
1374.9
 21
648.872877017
 31
0.0
  0
LINE
  8
0
  6
LTYPE1
 62
     2
 10
1304.984897457
 20
657.5
 30
0.0
 11
1288.484897457
 21
657.5
 31
0.0
  0
LINE
  8
0
  6
LTYPE1
 62
     2
 10
1296.9
 20
665.172877017
 30
0.0
 11
1296.9
 21
648.872877017
 31
0.0
  0
CIRCLE
  8
0
  6
LTYPE1
 62
     2
 10
1374.9
 20
657.5
 30
0.0
 40
5.0
  0
CIRCLE
  8
0
  6
LTYPE1
 62
     2
 10
1296.9
 20
657.5
 30
0.0
 40
5.0
  0
LINE
  8
0
  6
LTYPE1
 62
     2
 10
1374.9
 20
665.172877017
 30
0.0
 11
1374.9
 21
648.872877017
 31
0.0
  0
LINE
  8
0
  6
LTYPE1
 62
     2
 10
1296.9
 20
665.172877017
 30
0.0
 11
1296.9
 21
648.872877017
 31
0.0
  0
LINE
  8
0
  6
LTYPE1
 62
     2
 10
1374.9
 20
665.172877017
 30
0.0
 11
1374.9
 21
648.872877017
 31
0.0
  0
LINE
  8
0
  6
LTYPE1
 62
     2
 10
1296.9
 20
665.172877017
 30
0.0
 11
1296.9
 21
648.872877017
 31
0.0
  0
LINE
  8
0
  6
CONTINUOUS
 62
     1
 10
1386.9
 20
712.0
 30
0.0
 11
1386.9
 21
665.5
 31
0.0
  0
ARC
  8
0
  6
CONTINUOUS
 62
     1
 10
1385.9
 20
712.0
 30
0.0
 40
1.0
 50
360.0
 51
90.0
  0
ARC
  8
0
  6
CONTINUOUS
 62
     1
 10
1382.9
 20
713.0
 30
0.0
 40
1.0
 50
360.0
 51
90.0
  0
ARC
  8
0
  6
CONTINUOUS
 62
     1
 10
1285.9
 20
712.0
 30
0.0
 40
1.0
 50
90.0
 51
180.0
  0
ARC
  8
0
  6
CONTINUOUS
 62
     1
 10
1288.9
 20
713.0
 30
0.0
 40
1.0
 50
90.0
 51
180.0
  0
LINE
  8
0
  6
LTYPE3
 62
     3
 10
1316.0
 20
688.5
 30
0.0
 11
1356.7
 21
688.5
 31
0.0
  0
CIRCLE
  8
0
  6
LTYPE1
 62
     2
 10
1335.9
 20
688.5
 30
0.0
 40
10.4775
  0
CIRCLE
  8
0
  6
LTYPE1
 62
     2
 10
1335.9
 20
688.5
 30
0.0
 40
9.3155
  0
ARC
  8
0
  6
CONTINUOUS
 62
     1
 10
1377.021320344
 20
659.621320344
 30
0.0
 40
7.0
 50
7.278942019
 51
24.68888814
  0
ARC
  8
0
  6
CONTINUOUS
 62
     1
 10
1383.9
 20
665.5
 30
0.0
 40
3.0
 50
270.0
 51
0.0
  0
ARC
  8
0
  6
CONTINUOUS
 62
     1
 10
1290.5
 20
713.0
 30
0.0
 40
5.0
 50
92.3
 51
168.5
  0
LINE
  8
0
  6
CONTINUOUS
 62
     1
 10
1290.3
 20
718.0
 30
0.0
 11
1291.5
 21
718.0
 31
0.0
  0
LINE
  8
0
  6
LTYPE4
 62
     2
 10
1290.9
 20
721.4
 30
0.0
 11
1290.9
 21
708.0
 31
0.0
  0
LINE
  8
0
  6
CONTINUOUS
 62
     1
 10
1375.6
 20
714.0
 30
0.0
 11
1386.2
 21
714.0
 31
0.0
  0
ARC
  8
0
  6
CONTINUOUS
 62
     1
 10
1380.5
 20
713.0
 30
0.0
 40
5.0
 50
92.3
 51
168.5
  0
ARC
  8
0
  6
CONTINUOUS
 62
     1
 10
1381.3
 20
713.0
 30
0.0
 40
5.0
 50
11.5
 51
87.7
  0
LINE
  8
0
  6
CONTINUOUS
 62
     1
 10
1380.3
 20
718.0
 30
0.0
 11
1381.5
 21
718.0
 31
0.0
  0
LINE
  8
0
  6
LTYPE4
 62
     2
 10
1380.9
 20
721.4
 30
0.0
 11
1380.9
 21
708.0
 31
0.0
  0
ARC
  8
0
  6
CONTINUOUS
 62
     1
 10
1389.4
 20
668.0
 30
0.0
 40
5.0
 50
0.000030901
 51
90.0
  0
LINE
  8
0
  6
CONTINUOUS
 62
     1
 10
1394.4
 20
668.000002697
 30
0.0
 11
1394.4
 21
638.778748346
 31
0.0
  0
LINE
  8
0
  6
CONTINUOUS
 62
     1
 10
1389.4
 20
673.0
 30
0.0
 11
1386.9
 21
673.0
 31
0.0
  0
LINE
  8
0
  6
CONTINUOUS
 62
     1
 10
1288.9
 20
714.0
 30
0.0
 11
1294.14011537
 21
714.0
 31
0.0
  0
LINE
  8
0
  6
CONTINUOUS
 62
     1
 10
1285.6
 20
714.0
 30
0.0
 11
1294.14011537
 21
714.0
 31
0.0
  0
LINE
  8
0
  6
CONTINUOUS
 62
     1
 10
1285.9
 20
713.0
 30
0.0
 11
1294.635498012
 21
713.0
 31
0.0
  0
LINE
  8
0
  6
CONTINUOUS
 62
     1
 10
1284.9
 20
707.0
 30
0.0
 11
1288.635498012
 21
707.0
 31
0.0
  0
LINE
  8
0
  6
CONTINUOUS
 62
     1
 10
1284.9
 20
705.5
 30
0.0
 11
1287.135498012
 21
705.5
 31
0.0
  0
LINE
  8
0
  6
CONTINUOUS
 62
     1
 10
1383.9
 20
662.5
 30
0.0
 11
1356.759650045
 21
662.5
 31
0.0
  0
LINE
  8
0
  6
CONTINUOUS
 62
     1
 10
1284.9
 20
712.0
 30
0.0
 11
1284.9
 21
702.090803363
 31
0.0
  0
ARC
  8
0
  6
LTYPE1
 62
     2
 10
1287.9
 20
665.5
 30
0.0
 40
3.0
 50
180.0
 51
270.0
  0
LINE
  8
0
  6
LTYPE1
 62
     2
 10
1284.9
 20
701.790803363
 30
0.0
 11
1284.9
 21
665.5
 31
0.0
  0
LINE
  8
0
  6
LTYPE1
 62
     2
 10
1356.709650045
 20
662.5
 30
0.0
 11
1287.9
 21
662.5
 31
0.0
  0
LINE
  8
0
  6
LTYPE1
 62
     2
 10
1290.9
 20
641.5
 30
0.0
 11
1290.9
 21
663.5
 31
0.0
  0
LINE
  8
0
  6
LTYPE1
 62
     2
 10
1287.835092126
 20
660.508220679
 30
0.0
 11
1285.222453676
 21
640.053742279
 31
0.0
  0
ARC
  8
0
  6
LTYPE1
 62
     2
 10
1294.778679656
 20
659.621320344
 30
0.0
 40
7.0
 50
172.721057981
 51
180.0
  0
ARC
  8
0
  6
LTYPE1
 62
     2
 10
1294.778679656
 20
659.621320344
 30
0.0
 40
7.0
 50
151.513525439
 51
172.721057981
  0
ARC
  8
0
  6
LTYPE1
 62
     2
 10
1282.4
 20
668.0
 30
0.0
 40
5.0
 50
90.0
 51
179.999969099
  0
LINE
  8
0
  6
LTYPE1
 62
     2
 10
1284.9
 20
673.0
 30
0.0
 11
1282.4
 21
673.0
 31
0.0
  0
LINE
  8
0
  6
LTYPE1
 62
     2
 10
1277.4
 20
668.000002697
 30
0.0
 11
1277.4
 21
638.778748346
 31
0.0
  0
LINE
  8
0
  6
CONTINUOUS
 62
     1
 10
1304.9
 20
626.5
 30
0.0
 11
1304.9
 21
610.5
 31
0.0
  0
LINE
  8
0
  6
CONTINUOUS
 62
     1
 10
1327.9
 20
638.5
 30
0.0
 11
1327.9
 21
598.5
 31
0.0
  0
LINE
  8
0
  6
CONTINUOUS
 62
     1
 10
1315.9
 20
638.5
 30
0.0
 11
1315.9
 21
598.5
 31
0.0
  0
LINE
  8
0
  6
CONTINUOUS
 62
     1
 10
1315.9
 20
638.5
 30
0.0
 11
1335.9
 21
638.5
 31
0.0
  0
LINE
  8
0
  6
CONTINUOUS
 62
     1
 10
1315.9
 20
598.5
 30
0.0
 11
1335.9
 21
598.5
 31
0.0
  0
LINE
  8
0
  6
CONTINUOUS
 62
     1
 10
1327.9
 20
626.5
 30
0.0
 11
1335.9
 21
626.5
 31
0.0
  0
LINE
  8
0
  6
CONTINUOUS
 62
     1
 10
1327.9
 20
610.5
 30
0.0
 11
1335.9
 21
610.5
 31
0.0
  0
LINE
  8
0
  6
CONTINUOUS
 62
     1
 10
1366.9
 20
626.5
 30
0.0
 11
1366.9
 21
610.5
 31
0.0
  0
LINE
  8
0
  6
CONTINUOUS
 62
     1
 10
1343.9
 20
638.5
 30
0.0
 11
1343.9
 21
598.5
 31
0.0
  0
LINE
  8
0
  6
CONTINUOUS
 62
     1
 10
1355.9
 20
638.5
 30
0.0
 11
1355.9
 21
598.5
 31
0.0
  0
LINE
  8
0
  6
CONTINUOUS
 62
     1
 10
1355.9
 20
638.5
 30
0.0
 11
1335.9
 21
638.5
 31
0.0
  0
LINE
  8
0
  6
CONTINUOUS
 62
     1
 10
1355.9
 20
598.5
 30
0.0
 11
1335.9
 21
598.5
 31
0.0
  0
LINE
  8
0
  6
CONTINUOUS
 62
     1
 10
1343.9
 20
626.5
 30
0.0
 11
1335.9
 21
626.5
 31
0.0
  0
LINE
  8
0
  6
CONTINUOUS
 62
     1
 10
1343.9
 20
610.5
 30
0.0
 11
1335.9
 21
610.5
 31
0.0
  0
LINE
  8
0
  6
LTYPE3
 62
     2
 10
1273.5
 20
618.5
 30
0.0
 11
1396.7
 21
618.5
 31
0.0
  0
LINE
  8
0
  6
CONTINUOUS
 62
     1
 10
1312.9
 20
603.5
 30
0.0
 11
1312.9
 21
633.5
 31
0.0
  0
LINE
  8
0
  6
CONTINUOUS
 62
     1
 10
1315.9
 20
603.5
 30
0.0
 11
1312.9
 21
603.5
 31
0.0
  0
LINE
  8
0
  6
CONTINUOUS
 62
     1
 10
1315.9
 20
633.5
 30
0.0
 11
1312.9
 21
633.5
 31
0.0
  0
LINE
  8
0
  6
LTYPE2
 62
     2
 10
1310.25
 20
614.1
 30
0.0
 11
1310.25
 21
622.5
 31
0.0
  0
CIRCLE
  8
0
  6
CONTINUOUS
 62
     1
 10
1310.25
 20
618.5
 30
0.0
 40
2.0
  0
LINE
  8
0
  6
CONTINUOUS
 62
     1
 10
1358.9
 20
633.5
 30
0.0
 11
1358.9
 21
603.5
 31
0.0
  0
LINE
  8
0
  6
CONTINUOUS
 62
     1
 10
1355.9
 20
633.5
 30
0.0
 11
1358.9
 21
633.5
 31
0.0
  0
LINE
  8
0
  6
CONTINUOUS
 62
     1
 10
1355.9
 20
603.5
 30
0.0
 11
1358.9
 21
603.5
 31
0.0
  0
LINE
  8
0
  6
LTYPE2
 62
     2
 10
1361.55
 20
622.9
 30
0.0
 11
1361.55
 21
614.5
 31
0.0
  0
CIRCLE
  8
0
  6
CONTINUOUS
 62
     1
 10
1361.55
 20
618.5
 30
0.0
 40
2.0
  0
LINE
  8
0
  6
CONTINUOUS
 62
     1
 10
1304.9
 20
626.5
 30
0.0
 11
1312.9
 21
626.5
 31
0.0
  0
LINE
  8
0
  6
LTYPE1
 62
     2
 10
1327.9
 20
626.5
 30
0.0
 11
1312.9
 21
626.5
 31
0.0
  0
LINE
  8
0
  6
CONTINUOUS
 62
     1
 10
1304.9
 20
610.5
 30
0.0
 11
1312.9
 21
610.5
 31
0.0
  0
LINE
  8
0
  6
LTYPE1
 62
     2
 10
1327.9
 20
610.5
 30
0.0
 11
1312.9
 21
610.5
 31
0.0
  0
LINE
  8
0
  6
CONTINUOUS
 62
     1
 10
1366.9
 20
626.5
 30
0.0
 11
1358.9
 21
626.5
 31
0.0
  0
LINE
  8
0
  6
CONTINUOUS
 62
     1
 10
1366.9
 20
610.5
 30
0.0
 11
1358.9
 21
610.5
 31
0.0
  0
LINE
  8
0
  6
LTYPE1
 62
     2
 10
1343.9
 20
610.5
 30
0.0
 11
1358.9
 21
610.5
 31
0.0
  0
LINE
  8
0
  6
LTYPE1
 62
     2
 10
1343.9
 20
626.5
 30
0.0
 11
1358.9
 21
626.5
 31
0.0
  0
LINE
  8
0
  6
CONTINUOUS
 62
     1
 10
1395.9
 20
598.5
 30
0.0
 11
1395.9
 21
638.5
 31
0.0
  0
LINE
  8
0
  6
CONTINUOUS
 62
     1
 10
1380.9
 20
641.287483461
 30
0.0
 11
1395.9
 21
638.5
 31
0.0
  0
LINE
  8
0
  6
LTYPE1
 62
     2
 10
1373.9
 20
610.5
 30
0.0
 11
1395.9
 21
610.5
 31
0.0
  0
LINE
  8
0
  6
LTYPE1
 62
     2
 10
1373.9
 20
626.5
 30
0.0
 11
1395.9
 21
626.5
 31
0.0
  0
LINE
  8
0
  6
LTYPE1
 62
     2
 10
1373.9
 20
610.5
 30
0.0
 11
1373.9
 21
626.5
 31
0.0
  0
LINE
  8
0
  6
LTYPE1
 62
     2
 10
1297.9
 20
610.5
 30
0.0
 11
1275.9
 21
610.5
 31
0.0
  0
LINE
  8
0
  6
LTYPE1
 62
     2
 10
1297.9
 20
626.5
 30
0.0
 11
1275.9
 21
626.5
 31
0.0
  0
LINE
  8
0
  6
LTYPE1
 62
     2
 10
1297.9
 20
610.5
 30
0.0
 11
1297.9
 21
626.5
 31
0.0
  0
CIRCLE
  8
0
  6
CONTINUOUS
 62
     1
 10
1374.9
 20
579.5
 30
0.0
 40
5.0
  0
LINE
  8
0
  6
CONTINUOUS
 62
     1
 10
1377.908220679
 20
570.435092126
 30
0.0
 11
1342.615102543
 21
565.927122983
 31
0.0
  0
ARC
  8
0
  6
CONTINUOUS
 62
     1
 10
1377.021320344
 20
577.378679656
 30
0.0
 40
7.0
 50
352.721057981
 51
0.0
  0
ARC
  8
0
  6
CONTINUOUS
 62
     1
 10
1377.021320344
 20
577.378679656
 30
0.0
 40
7.0
 50
285.275864075
 51
352.721057981
  0
LINE
  8
0
  6
CONTINUOUS
 62
     1
 10
1383.964907874
 20
576.491779321
 30
0.0
 11
1386.577546324
 21
596.946257721
 31
0.0
  0
LINE
  8
0
  6
LTYPE1
 62
     2
 10
1366.815102543
 20
579.5
 30
0.0
 11
1383.315102543
 21
579.5
 31
0.0
  0
LINE
  8
0
  6
LTYPE1
 62
     2
 10
1374.9
 20
571.827122983
 30
0.0
 11
1374.9
 21
588.127122983
 31
0.0
  0
ARC
  8
0
  6
CONTINUOUS
 62
     1
 10
1335.9
 20
618.5
 30
0.0
 40
53.0
 50
270.0
 51
277.278942019
  0
CIRCLE
  8
0
  6
CONTINUOUS
 62
     1
 10
1296.9
 20
579.5
 30
0.0
 40
5.0
  0
LINE
  8
0
  6
CONTINUOUS
 62
     1
 10
1293.891779321
 20
570.435092126
 30
0.0
 11
1329.184897457
 21
565.927122983
 31
0.0
  0
ARC
  8
0
  6
CONTINUOUS
 62
     1
 10
1294.778679656
 20
577.378679656
 30
0.0
 40
7.0
 50
180.0
 51
187.278942019
  0
ARC
  8
0
  6
CONTINUOUS
 62
     1
 10
1294.778679656
 20
577.378679656
 30
0.0
 40
7.0
 50
187.278942019
 51
254.724135925
  0
LINE
  8
0
  6
CONTINUOUS
 62
     1
 10
1287.835092126
 20
576.491779321
 30
0.0
 11
1285.222453676
 21
596.946257721
 31
0.0
  0
LINE
  8
0
  6
LTYPE1
 62
     2
 10
1304.984897457
 20
579.5
 30
0.0
 11
1288.484897457
 21
579.5
 31
0.0
  0
LINE
  8
0
  6
LTYPE1
 62
     2
 10
1296.9
 20
571.827122983
 30
0.0
 11
1296.9
 21
588.127122983
 31
0.0
  0
ARC
  8
0
  6
CONTINUOUS
 62
     1
 10
1335.9
 20
618.5
 30
0.0
 40
53.0
 50
262.721057981
 51
270.0
  0
LINE
  8
0
  6
CONTINUOUS
 62
     1
 10
1288.9
 20
596.333333333
 30
0.0
 11
1275.9
 21
598.5
 31
0.0
  0
LINE
  8
0
  6
CONTINUOUS
 62
     1
 10
1380.9
 20
641.5
 30
0.0
 11
1379.720823288
 21
636.829905793
 31
0.0
  0
LINE
  8
0
  6
CONTINUOUS
 62
     1
 10
1377.415396986
 20
595.419232831
 30
0.0
 11
1395.9
 21
598.5
 31
0.0
  0
LINE
  8
0
  6
LTYPE2
 62
     2
 10
1267.8
 20
565.5
 30
0.0
 11
1407.8
 21
565.5
 31
0.0
  0
LINE
  8
2
  6
CONTINUOUS
 62
     2
 10
1396.9
 20
510.5
 30
0.0
 11
1396.9
 21
420.0
 31
0.0
  0
LINE
  8
2
  6
CONTINUOUS
 62
     2
 10
1274.9
 20
510.5
 30
0.0
 11
1274.9
 21
420.0
 31
0.0
  0
LINE
  8
2
  6
CONTINUOUS
 62
     2
 10
1396.9
 20
511.0
 30
0.0
 11
1396.9
 21
420.5
 31
0.0
  0
LINE
  8
2
  6
CONTINUOUS
 62
     2
 10
1274.9
 20
511.0
 30
0.0
 11
1274.9
 21
420.5
 31
0.0
  0
LINE
  8
0
  6
CONTINUOUS
 62
     2
 10
1277.4
 20
510.0
 30
0.0
 11
1277.4
 21
451.89
 31
0.0
  0
LINE
  8
0
  6
CONTINUOUS
 62
     2
 10
1394.4
 20
510.0
 30
0.0
 11
1394.4
 21
451.89
 31
0.0
  0
LINE
  8
0
  6
CONTINUOUS
 62
     1
 10
1284.9
 20
504.5
 30
0.0
 11
1386.9
 21
504.5
 31
0.0
  0
ARC
  8
0
  6
CONTINUOUS
 62
     1
 10
1284.9
 20
514.5
 30
0.0
 40
10.0
 50
180.0
 51
270.0
  0
LINE
  8
0
  6
CONTINUOUS
 62
     1
 10
1284.9
 20
504.5
 30
0.0
 11
1386.9
 21
504.5
 31
0.0
  0
CIRCLE
  8
0
  6
CONTINUOUS
 62
     1
 10
1284.9
 20
514.0
 30
0.0
 40
4.0
  0
CIRCLE
  8
0
  6
CONTINUOUS
 62
     1
 10
1284.9
 20
514.0
 30
0.0
 40
3.0
  0
LINE
  8
0
  6
CONTINUOUS
 62
     2
 10
1278.9
 20
514.0
 30
0.0
 11
1290.9
 21
514.0
 31
0.0
  0
LINE
  8
0
  6
CONTINUOUS
 62
     2
 10
1284.9
 20
508.0
 30
0.0
 11
1284.9
 21
520.0
 31
0.0
  0
LINE
  8
0
  6
CONTINUOUS
 62
     1
 10
1385.4
 20
506.0
 30
0.0
 11
1286.4
 21
506.0
 31
0.0
  0
ARC
  8
0
  6
CONTINUOUS
 62
     1
 10
1286.4
 20
515.0
 30
0.0
 40
9.0
 50
180.0
 51
270.0
  0
LINE
  8
0
  6
CONTINUOUS
 62
     1
 10
1277.4
 20
598.25
 30
0.0
 11
1277.4
 21
515.0
 31
0.0
  0
LINE
  8
0
  6
CONTINUOUS
 62
     1
 10
1274.9
 20
616.5
 30
0.0
 11
1274.9
 21
515.0
 31
0.0
  0
ARC
  8
0
  6
CONTINUOUS
 62
     1
 10
1328.9
 20
511.0
 30
0.0
 40
5.0
 50
179.999984538
 51
270.0
  0
LINE
  8
0
  6
CONTINUOUS
 62
     1
 10
1323.9
 20
526.000001349
 30
0.0
 11
1323.9
 21
511.000001349
 31
0.0
  0
ARC
  8
0
  6
CONTINUOUS
 62
     1
 10
1282.4
 20
536.0
 30
0.0
 40
5.0
 50
180.0
 51
270.000026769
  0
LINE
  8
0
  6
CONTINUOUS
 62
     1
 10
1389.400002697
 20
531.0
 30
0.0
 11
1282.400002336
 21
531.0
 31
0.0
  0
ARC
  8
0
  6
CONTINUOUS
 62
     1
 10
1318.9
 20
526.0
 30
0.0
 40
5.0
 50
0.000015462
 51
90.0
  0
ARC
  8
0
  6
CONTINUOUS
 62
     1
 10
1386.9
 20
514.5
 30
0.0
 40
10.0
 50
270.0
 51
0.0
  0
CIRCLE
  8
0
  6
CONTINUOUS
 62
     1
 10
1386.9
 20
514.0
 30
0.0
 40
4.0
  0
CIRCLE
  8
0
  6
CONTINUOUS
 62
     1
 10
1386.9
 20
514.0
 30
0.0
 40
3.0
  0
LINE
  8
0
  6
CONTINUOUS
 62
     2
 10
1392.9
 20
514.0
 30
0.0
 11
1380.9
 21
514.0
 31
0.0
  0
LINE
  8
0
  6
CONTINUOUS
 62
     2
 10
1386.9
 20
508.0
 30
0.0
 11
1386.9
 21
520.0
 31
0.0
  0
ARC
  8
0
  6
CONTINUOUS
 62
     1
 10
1385.4
 20
515.0
 30
0.0
 40
9.0
 50
270.0
 51
0.0
  0
LINE
  8
0
  6
CONTINUOUS
 62
     1
 10
1347.9
 20
526.000001349
 30
0.0
 11
1347.9
 21
511.000001349
 31
0.0
  0
ARC
  8
0
  6
CONTINUOUS
 62
     1
 10
1342.9
 20
511.0
 30
0.0
 40
5.0
 50
270.0
 51
0.000015462
  0
ARC
  8
0
  6
CONTINUOUS
 62
     1
 10
1352.9
 20
526.0
 30
0.0
 40
5.0
 50
90.0
 51
179.999984538
  0
ARC
  8
0
  6
CONTINUOUS
 62
     1
 10
1389.4
 20
536.0
 30
0.0
 40
5.0
 50
270.00003091
 51
0.0
  0
LINE
  8
0
  6
CONTINUOUS
 62
     1
 10
1394.4
 20
598.25
 30
0.0
 11
1394.4
 21
515.0
 31
0.0
  0
LINE
  8
0
  6
CONTINUOUS
 62
     1
 10
1396.9
 20
616.5
 30
0.0
 11
1396.9
 21
515.0
 31
0.0
  0
ARC
  8
0
  6
CONTINUOUS
 62
     1
 10
1284.9
 20
616.5
 30
0.0
 40
10.0
 50
154.158067237
 51
180.0
  0
ARC
  8
0
  6
CONTINUOUS
 62
     1
 10
1386.9
 20
616.5
 30
0.0
 40
10.0
 50
0.0
 51
25.841932763
  0
LINE
  8
0
  6
LTYPE1
 62
     2
 10
1290.9
 20
641.5
 30
0.0
 11
1292.079176712
 21
636.829905793
 31
0.0
  0
LINE
  8
0
  6
CONTINUOUS
 62
     1
 10
1275.9
 20
598.5
 30
0.0
 11
1275.9
 21
635.326406343
 31
0.0
  0
LINE
  8
0
  6
LTYPE1
 62
     2
 10
1290.9
 20
641.287483461
 30
0.0
 11
1275.9
 21
638.5
 31
0.0
  0
LINE
  8
0
  6
LTYPE1
 62
     2
 10
1275.9
 20
635.326406343
 30
0.0
 11
1275.9
 21
638.5
 31
0.0
  0
TEXT
  8
2
  6
CONTINUOUS
 62
     2
 10
1276.5
 20
432.0
 30
0.0
 40
15.0
  1
１２２（モータ幅）
 50
0.0
 41
0.9
 51
0.0
  7
KANJI42
  0
LINE
  8
0
  6
CONTINUOUS
 62
     2
 10
1277.4
 20
461.89
 30
0.0
 11
1289.474072829
 21
458.654761936
 31
0.0
  0
LINE
  8
0
  6
CONTINUOUS
 62
     2
 10
1277.4
 20
461.89
 30
0.0
 11
1289.474072829
 21
465.125238064
 31
0.0
  0
LINE
  8
0
  6
CONTINUOUS
 62
     2
 10
1277.4
 20
461.89
 30
0.0
 11
1394.4
 21
461.89
 31
0.0
  0
LINE
  8
0
  6
CONTINUOUS
 62
     2
 10
1394.4
 20
461.89
 30
0.0
 11
1382.325927171
 21
465.125238064
 31
0.0
  0
LINE
  8
0
  6
CONTINUOUS
 62
     2
 10
1394.4
 20
461.89
 30
0.0
 11
1382.325927171
 21
458.654761936
 31
0.0
  0
LINE
  8
2
  6
CONTINUOUS
 62
     2
 10
1396.9
 20
428.0
 30
0.0
 11
1387.240741737
 21
430.588190451
 31
0.0
  0
LINE
  8
2
  6
CONTINUOUS
 62
     2
 10
1274.9
 20
428.0
 30
0.0
 11
1284.559258263
 21
430.588190451
 31
0.0
  0
TEXT
  8
0
  6
CONTINUOUS
 62
     3
 10
1278.32
 20
464.86
 30
-2.5
 40
15.0
  1
１１７（ギヤケース幅）
 50
0.0
 41
0.9
 51
0.0
  7
KANJI48
  0
ARC
  8
0
  6
CONTINUOUS
 62
     1
 10
1335.9
 20
618.5
 30
0.0
 40
47.5
 50
183.328901134
 51
87.65147312
  0
ARC
  8
0
  6
LTYPE1
 62
     2
 10
1335.9
 20
618.5
 30
0.0
 40
47.5
 50
88.423107436
 51
181.576892564
  0
TEXT
  8
0
  6
CONTINUOUS
 62
     2
 10
857.6
 20
787.5
 30
0.0
 40
15.0
  1
Ｃ
 50
0.0
 41
0.9
 51
0.0
  7
KANJI42
  0
TEXT
  8
0
  6
CONTINUOUS
 62
     2
 10
876.1
 20
818.0
 30
0.0
 40
15.0
  1
ｍｉｎ．Ｌ
 50
0.0
 41
0.9
 51
0.0
  7
KANJI42
  0
LINE
  8
0
  6
CONTINUOUS
 62
     1
 10
1069.0
 20
481.5
 30
0.0
 11
1069.0
 21
492.44954
 31
0.0
  0
LINE
  8
0
  6
CONTINUOUS
 62
     1
 10
1069.0
 20
481.5
 30
0.0
 11
1069.0
 21
470.55046
 31
0.0
  0
LINE
  8
0
  6
CONTINUOUS
 62
     1
 10
1077.0211
 20
489.76802
 30
0.0
 11
1075.472923706
 21
492.44954
 31
0.0
  0
LINE
  8
0
  6
CONTINUOUS
 62
     1
 10
1077.0211
 20
481.5
 30
0.0
 11
1077.0211
 21
489.76802
 31
0.0
  0
LINE
  8
0
  6
CONTINUOUS
 62
     1
 10
1077.0211
 20
481.5
 30
0.0
 11
1077.0211
 21
473.23198
 31
0.0
  0
ARC
  8
0
  6
CONTINUOUS
 62
     1
 10
1066.566878307
 20
481.5
 30
0.0
 40
10.454221693
 50
328.419912243
 51
31.580087757
  0
ARC
  8
0
  6
CONTINUOUS
 62
     1
 10
1073.827986394
 20
489.712155
 30
0.0
 40
3.193602261
 50
301.002313915
 51
2.989498403
  0
ARC
  8
0
  6
CONTINUOUS
 62
     1
 10
1073.827986394
 20
473.287845
 30
0.0
 40
3.193602261
 50
357.010501597
 51
58.997686085
  0
LINE
  8
0
  6
CONTINUOUS
 62
     1
 10
1069.0
 20
492.44954
 30
0.0
 11
1075.472923706
 21
492.44954
 31
0.0
  0
LINE
  8
0
  6
CONTINUOUS
 62
     1
 10
1069.0
 20
486.97477
 30
0.0
 11
1075.472923706
 21
486.97477
 31
0.0
  0
LINE
  8
0
  6
CONTINUOUS
 62
     1
 10
1069.0
 20
476.02523
 30
0.0
 11
1075.472923706
 21
476.02523
 31
0.0
  0
LINE
  8
0
  6
CONTINUOUS
 62
     1
 10
1066.0
 20
492.25
 30
0.0
 11
1069.0
 21
492.25
 31
0.0
  0
LINE
  8
0
  6
CONTINUOUS
 62
     1
 10
1066.0
 20
481.5
 30
0.0
 11
1069.000254073
 21
484.500254073
 31
0.0
  0
LINE
  8
0
  6
CONTINUOUS
 62
     1
 10
1069.000254073
 20
481.5
 30
0.0
 11
1066.0
 21
478.499745927
 31
0.0
  0
LINE
  8
0
  6
CONTINUOUS
 62
     1
 10
1077.0211
 20
475.5
 30
0.0
 11
1090.0
 21
475.5
 31
0.0
  0
LINE
  8
0
  6
CONTINUOUS
 62
     1
 10
1077.0211
 20
487.5
 30
0.0
 11
1090.0
 21
487.5
 31
0.0
  0
LINE
  8
0
  6
CONTINUOUS
 62
     1
 10
1090.0
 20
475.5
 30
0.0
 11
1090.0
 21
487.5
 31
0.0
  0
LINE
  8
0
  6
CONTINUOUS
 62
     1
 10
1066.0
 20
468.5
 30
0.0
 11
1066.0
 21
644.5
 31
0.0
  0
LINE
  8
0
  6
CONTINUOUS
 62
     1
 10
1077.0211
 20
473.23198
 30
0.0
 11
1075.472923706
 21
470.55046
 31
0.0
  0
LINE
  8
0
  6
CONTINUOUS
 62
     1
 10
1077.0211
 20
473.23198
 30
0.0
 11
1075.472923706
 21
470.55046
 31
0.0
  0
LINE
  8
0
  6
CONTINUOUS
 62
     1
 10
1069.0
 20
470.55046
 30
0.0
 11
1075.472923706
 21
470.55046
 31
0.0
  0
LINE
  8
0
  6
CONTINUOUS
 62
     1
 10
1066.0
 20
470.75
 30
0.0
 11
1069.0
 21
470.75
 31
0.0
  0
LINE
  8
0
  6
CONTINUOUS
 62
     1
 10
1066.0
 20
598.5
 30
0.0
 11
1116.0
 21
598.5
 31
0.0
  0
LINE
  8
0
  6
CONTINUOUS
 62
     1
 10
1119.0
 20
601.5
 30
0.0
 11
1119.0
 21
618.5
 31
0.0
  0
LINE
  8
0
  6
CONTINUOUS
 62
     1
 10
1116.0
 20
598.5
 30
0.0
 11
1119.0
 21
601.5
 31
0.0
  0
LINE
  8
0
  6
CONTINUOUS
 62
     1
 10
1066.0
 20
638.5
 30
0.0
 11
1116.0
 21
638.5
 31
0.0
  0
LINE
  8
0
  6
CONTINUOUS
 62
     1
 10
1119.0
 20
635.5
 30
0.0
 11
1119.0
 21
618.5
 31
0.0
  0
LINE
  8
0
  6
CONTINUOUS
 62
     1
 10
1116.0
 20
638.5
 30
0.0
 11
1119.0
 21
635.5
 31
0.0
  0
CIRCLE
  8
0
  6
CONTINUOUS
 62
     1
 10
1101.0
 20
618.5
 30
0.0
 40
8.0
  0
LINE
  8
0
  6
LTYPE1
 62
     1
 10
1076.0
 20
598.5
 30
0.0
 11
1076.0
 21
618.5
 31
0.0
  0
LINE
  8
0
  6
LTYPE1
 62
     1
 10
1076.0
 20
638.5
 30
0.0
 11
1076.0
 21
618.5
 31
0.0
  0
LINE
  8
0
  6
CONTINUOUS
 62
     2
 10
1101.0
 20
843.5
 30
0.0
 11
1091.340741737
 21
846.088190451
 31
0.0
  0
LINE
  8
0
  6
CONTINUOUS
 62
     2
 10
1101.0
 20
843.5
 30
0.0
 11
1091.340741737
 21
840.911809549
 31
0.0
  0
LINE
  8
0
  6
CONTINUOUS
 62
     2
 10
1081.0
 20
843.5
 30
0.0
 11
1139.0
 21
843.5
 31
0.0
  0
LINE
  8
0
  6
CONTINUOUS
 62
     2
 10
1119.0
 20
843.5
 30
0.0
 11
1128.659258263
 21
840.911809549
 31
0.0
  0
LINE
  8
0
  6
CONTINUOUS
 62
     2
 10
1119.0
 20
843.5
 30
0.0
 11
1128.659258263
 21
846.088190451
 31
0.0
  0
LINE
  8
0
  6
CONTINUOUS
 62
     2
 10
1101.0
 20
843.5
 30
0.0
 11
1101.0
 21
835.5
 31
0.0
  0
LINE
  8
0
  6
CONTINUOUS
 62
     2
 10
1101.0
 20
843.5
 30
0.0
 11
1091.340741737
 21
846.088190451
 31
0.0
  0
LINE
  8
0
  6
CONTINUOUS
 62
     2
 10
1101.0
 20
843.5
 30
0.0
 11
1091.340741737
 21
840.911809549
 31
0.0
  0
LINE
  8
0
  6
CONTINUOUS
 62
     2
 10
1006.0
 20
783.5
 30
0.0
 11
1015.659258263
 21
780.911809549
 31
0.0
  0
LINE
  8
0
  6
CONTINUOUS
 62
     2
 10
1006.0
 20
783.5
 30
0.0
 11
1015.659258263
 21
786.088190451
 31
0.0
  0
LINE
  8
0
  6
CONTINUOUS
 62
     2
 10
1006.0
 20
783.5
 30
0.0
 11
1066.0
 21
783.5
 31
0.0
  0
LINE
  8
0
  6
CONTINUOUS
 62
     2
 10
1066.0
 20
783.5
 30
0.0
 11
1056.340741737
 21
786.088190451
 31
0.0
  0
LINE
  8
0
  6
CONTINUOUS
 62
     2
 10
1066.0
 20
783.5
 30
0.0
 11
1056.340741737
 21
780.911809549
 31
0.0
  0
LINE
  8
0
  6
CONTINUOUS
 62
     2
 10
1066.0
 20
783.5
 30
0.0
 11
1075.659258263
 21
780.911809549
 31
0.0
  0
LINE
  8
0
  6
CONTINUOUS
 62
     2
 10
1066.0
 20
783.5
 30
0.0
 11
1075.659258263
 21
786.088190451
 31
0.0
  0
LINE
  8
0
  6
CONTINUOUS
 62
     2
 10
1066.0
 20
783.5
 30
0.0
 11
1101.0
 21
783.5
 31
0.0
  0
LINE
  8
0
  6
CONTINUOUS
 62
     2
 10
1101.0
 20
783.5
 30
0.0
 11
1091.340741737
 21
786.088190451
 31
0.0
  0
LINE
  8
0
  6
CONTINUOUS
 62
     2
 10
1101.0
 20
783.5
 30
0.0
 11
1091.340741737
 21
780.911809549
 31
0.0
  0
LINE
  8
0
  6
CONTINUOUS
 62
     2
 10
1101.0
 20
814.0
 30
0.0
 11
1091.340741737
 21
816.588190451
 31
0.0
  0
LINE
  8
0
  6
CONTINUOUS
 62
     2
 10
1101.0
 20
814.0
 30
0.0
 11
1091.340741737
 21
811.411809549
 31
0.0
  0
LINE
  8
0
  6
CONTINUOUS
 62
     2
 10
1006.0
 20
783.5
 30
0.0
 11
996.340741737
 21
786.088190451
 31
0.0
  0
LINE
  8
0
  6
CONTINUOUS
 62
     2
 10
1006.0
 20
783.5
 30
0.0
 11
996.340741737
 21
780.911809549
 31
0.0
  0
LINE
  8
0
  6
CONTINUOUS
 62
     2
 10
1101.0
 20
843.5
 30
0.0
 11
1091.340741737
 21
846.088190451
 31
0.0
  0
LINE
  8
0
  6
CONTINUOUS
 62
     2
 10
1101.0
 20
843.5
 30
0.0
 11
1091.340741737
 21
840.911809549
 31
0.0
  0
LINE
  8
2
  6
CONTINUOUS
 62
     2
 10
1101.0
 20
843.5
 30
0.0
 11
1091.340741737
 21
846.088190451
 31
0.0
  0
LINE
  8
2
  6
CONTINUOUS
 62
     2
 10
1101.0
 20
843.5
 30
0.0
 11
1091.340741737
 21
840.911809549
 31
0.0
  0
LINE
  8
0
  6
CONTINUOUS
 62
     2
 10
1093.0
 20
426.6
 30
0.0
 11
1083.340741737
 21
429.188190451
 31
0.0
  0
LINE
  8
0
  6
CONTINUOUS
 62
     2
 10
1109.0
 20
426.6
 30
0.0
 11
1118.659258263
 21
429.188190451
 31
0.0
  0
TEXT
  8
0
  6
CONTINUOUS
 62
     2
 10
1156.75
 20
439.26
 30
0.84
 40
8.4
  1
Ｈ１０
 50
0.0
 41
0.9
 51
0.0
  7
KANJI49
  0
LINE
  8
0
  6
CONTINUOUS
 62
     2
 10
1101.0
 20
438.85
 30
0.0
 11
1101.0
 21
447.35
 31
0.0
  0
LINE
  8
0
  6
CONTINUOUS
 62
     2
 10
1101.0
 20
439.35
 30
0.0
 11
1091.340741737
 21
441.938190451
 31
0.0
  0
LINE
  8
0
  6
CONTINUOUS
 62
     2
 10
1101.0
 20
439.35
 30
0.0
 11
1091.340741737
 21
436.761809549
 31
0.0
  0
LINE
  8
0
  6
CONTINUOUS
 62
     2
 10
1101.0
 20
439.35
 30
0.0
 11
1076.0
 21
439.35
 31
0.0
  0
LINE
  8
0
  6
CONTINUOUS
 62
     2
 10
1076.0
 20
439.35
 30
0.0
 11
1085.659258263
 21
436.761809549
 31
0.0
  0
LINE
  8
0
  6
CONTINUOUS
 62
     2
 10
1076.0
 20
439.35
 30
0.0
 11
1085.659258263
 21
441.938190451
 31
0.0
  0
TEXT
  8
0
  6
CONTINUOUS
 62
     2
 10
1156.75
 20
430.86
 30
0.84
 40
8.4
  1
ｄ９
 50
0.0
 41
0.9
 51
0.0
  7
KANJI49
  0
LINE
  8
0
  6
LTYPE3
 62
     2
 10
1101.0
 20
329.6
 30
0.0
 11
1101.0
 21
634.0
 31
0.0
  0
LINE
  8
0
  6
CONTINUOUS
 62
     2
 10
1066.0
 20
788.25
 30
0.0
 11
1066.0
 21
648.5
 31
0.0
  0
TEXT
  8
0
  6
CONTINUOUS
 62
     2
 10
1098.2
 20
847.5
 30
0.0
 40
15.0
  1
１８
 50
0.0
 41
0.9
 51
0.0
  7
KANJI42
  0
TEXT
  8
0
  6
CONTINUOUS
 62
     2
 10
1071.7
 20
787.5
 30
0.0
 40
15.0
  1
３５
 50
0.0
 41
0.9
 51
0.0
  7
KANJI42
  0
TEXT
  8
0
  6
CONTINUOUS
 62
     2
 10
996.4
 20
787.5
 30
0.0
 40
15.0
  1
ｍｉｎ．Ｐ
 50
0.0
 41
0.9
 51
0.0
  7
KANJI42
  0
TEXT
  8
0
  6
CONTINUOUS
 62
     2
 10
1076.7
 20
443.35
 30
0.0
 40
15.0
  1
２５
 50
0.0
 41
0.9
 51
0.0
  7
KANJI42
  0
TEXT
  8
0
  6
CONTINUOUS
 62
     2
 10
1118.0
 20
431.6
 30
0.0
 40
15.0
  1
φ１６
 50
0.0
 41
0.9
 51
0.0
  7
KANJI42
  0
LINE
  8
2
  6
CONTINUOUS
 62
     2
 10
1125.0
 20
638.5
 30
0.0
 11
1152.7
 21
638.5
 31
0.0
  0
LINE
  8
2
  6
CONTINUOUS
 62
     2
 10
1144.7
 20
638.5
 30
0.0
 11
1142.111809549
 21
628.840741737
 31
0.0
  0
LINE
  8
2
  6
CONTINUOUS
 62
     2
 10
1144.7
 20
638.5
 30
0.0
 11
1147.288190451
 21
628.840741737
 31
0.0
  0
LINE
  8
2
  6
CONTINUOUS
 62
     2
 10
1144.7
 20
638.5
 30
0.0
 11
1144.7
 21
598.5
 31
0.0
  0
LINE
  8
2
  6
CONTINUOUS
 62
     2
 10
1144.7
 20
598.5
 30
0.0
 11
1147.288190451
 21
608.159258263
 31
0.0
  0
LINE
  8
2
  6
CONTINUOUS
 62
     2
 10
1144.7
 20
598.5
 30
0.0
 11
1142.111809549
 21
608.159258263
 31
0.0
  0
LINE
  8
2
  6
CONTINUOUS
 62
     2
 10
1125.0
 20
598.5
 30
0.0
 11
1152.7
 21
598.5
 31
0.0
  0
TEXT
  8
2
  6
CONTINUOUS
 62
     3
 10
1140.7
 20
605.1
 30
0.0
 40
15.0
  1
４０
 50
90.0
 41
0.9
 51
0.0
  7
KANJI42
  0
LINE
  8
0
  6
CONTINUOUS
 62
     2
 10
1109.0
 20
400.8
 30
0.0
 11
1109.0
 21
432.7
 31
0.0
  0
LINE
  8
0
  6
CONTINUOUS
 62
     2
 10
1093.0
 20
400.92
 30
0.0
 11
1093.0
 21
431.7
 31
0.0
  0
LINE
  8
0
  6
CONTINUOUS
 62
     2
 10
1076.0
 20
378.03
 30
0.0
 11
1076.0
 21
446.45
 31
0.0
  0
LINE
  8
0
  6
LTYPE1
 62
     2
 10
1101.0
 20
610.5
 30
0.0
 11
1101.0
 21
626.5
 31
0.0
  0
LINE
  8
0
  6
CONTINUOUS
 62
     2
 10
1133.45
 20
618.5
 30
0.0
 11
1186.25
 21
618.5
 31
0.0
  0
LINE
  8
0
  6
CONTINUOUS
 62
     2
 10
1176.25
 20
618.5
 30
0.0
 11
1173.014761936
 21
606.425927171
 31
0.0
  0
LINE
  8
0
  6
CONTINUOUS
 62
     2
 10
1176.25
 20
618.5
 30
0.0
 11
1179.485238064
 21
606.425927171
 31
0.0
  0
LINE
  8
0
  6
CONTINUOUS
 62
     2
 10
1176.25
 20
618.5
 30
0.0
 11
1176.25
 21
465.5
 31
0.0
  0
LINE
  8
0
  6
CONTINUOUS
 62
     2
 10
1176.25
 20
465.5
 30
0.0
 11
1179.485238064
 21
477.574072829
 31
0.0
  0
LINE
  8
0
  6
CONTINUOUS
 62
     2
 10
1176.25
 20
465.5
 30
0.0
 11
1173.014761936
 21
477.574072829
 31
0.0
  0
TEXT
  8
0
  6
CONTINUOUS
 62
     3
 10
1171.25
 20
521.75
 30
0.0
 40
15.0
  1
１５３
 50
90.0
 41
0.9
 51
0.0
  7
KANJI42
  0
LINE
  8
0
  6
CONTINUOUS
 62
     2
 10
1172.4
 20
684.7
 30
0.0
 11
1160.325927171
 21
687.935238064
 31
0.0
  0
LINE
  8
0
  6
CONTINUOUS
 62
     2
 10
1172.4
 20
684.7
 30
0.0
 11
1160.325927171
 21
681.464761936
 31
0.0
  0
LINE
  8
0
  6
CONTINUOUS
 62
     2
 10
1172.4
 20
684.7
 30
0.0
 11
1131.4
 21
684.7
 31
0.0
  0
TEXT
  8
0
  6
CONTINUOUS
 62
     3
 10
1138.4
 20
694.7
 30
0.0
 40
20.0
  1
前進
 50
0.0
 41
0.925
 51
0.0
  7
KANJI43
  0
LINE
  8
2
  6
CONTINUOUS
 62
     2
 10
1396.9
 20
428.0
 30
0.0
 11
1387.240741737
 21
425.411809549
 31
0.0
  0
LINE
  8
2
  6
CONTINUOUS
 62
     2
 10
1396.9
 20
428.0
 30
0.0
 11
1274.9
 21
428.0
 31
0.0
  0
LINE
  8
2
  6
CONTINUOUS
 62
     2
 10
1274.9
 20
428.0
 30
0.0
 11
1284.559258263
 21
425.411809549
 31
0.0
  0
LINE
  8
0
  6
CONTINUOUS
 62
     2
 10
1109.0
 20
426.6
 30
0.0
 11
1118.659258263
 21
424.011809549
 31
0.0
  0
LINE
  8
0
  6
CONTINUOUS
 62
     2
 10
1073.0
 20
426.6
 30
0.0
 11
1165.0
 21
426.6
 31
0.0
  0
LINE
  8
0
  6
CONTINUOUS
 62
     2
 10
1156.833854631
 20
356.5
 30
0.0
 11
1156.833854631
 21
417.7
 31
0.0
  0
TEXT
  8
0
  6
CONTINUOUS
 62
     2
 10
1152.333854631
 20
396.0
 30
0.0
 40
15.0
  1
１２
 50
90.0
 41
0.9
 51
0.0
  7
KANJI42
  0
LINE
  8
0
  6
CONTINUOUS
 62
     1
 10
1066.0
 20
329.5
 30
0.0
 11
1066.0
 21
407.5
 31
0.0
  0
LINE
  8
0
  6
CONTINUOUS
 62
     2
 10
1093.0
 20
426.6
 30
0.0
 11
1083.340741737
 21
424.011809549
 31
0.0
  0
LINE
  8
0
  6
CONTINUOUS
 62
     1
 10
1119.0
 20
376.5
 30
0.0
 11
1119.0
 21
388.5
 31
0.0
  0
LINE
  8
0
  6
CONTINUOUS
 62
     1
 10
1109.0
 20
399.5
 30
0.0
 11
1093.0
 21
399.5
 31
0.0
  0
LINE
  8
0
  6
CONTINUOUS
 62
     1
 10
1066.0
 20
388.5
 30
0.0
 11
1119.0
 21
388.5
 31
0.0
  0
LINE
  8
0
  6
CONTINUOUS
 62
     2
 10
1164.833854631
 20
388.5
 30
0.0
 11
1210.0
 21
388.5
 31
0.0
  0
LINE
  8
0
  6
CONTINUOUS
 62
     2
 10
1156.833854631
 20
388.5
 30
0.0
 11
1159.422045082
 21
398.159258263
 31
0.0
  0
LINE
  8
0
  6
CONTINUOUS
 62
     2
 10
1156.833854631
 20
388.5
 30
0.0
 11
1154.24566418
 21
398.159258263
 31
0.0
  0
LINE
  8
0
  6
CONTINUOUS
 62
     1
 10
1086.0
 20
391.5
 30
0.0
 11
1116.0
 21
391.5
 31
0.0
  0
LINE
  8
0
  6
CONTINUOUS
 62
     1
 10
1086.0
 20
388.5
 30
0.0
 11
1086.0
 21
391.5
 31
0.0
  0
LINE
  8
0
  6
CONTINUOUS
 62
     1
 10
1116.0
 20
388.5
 30
0.0
 11
1116.0
 21
391.5
 31
0.0
  0
LINE
  8
0
  6
CONTINUOUS
 62
     1
 10
1109.0
 20
391.5
 30
0.0
 11
1109.0
 21
399.5
 31
0.0
  0
LINE
  8
0
  6
CONTINUOUS
 62
     1
 10
1093.0
 20
399.5
 30
0.0
 11
1093.0
 21
391.5
 31
0.0
  0
LINE
  8
0
  6
LTYPE1
 62
     2
 10
1093.0
 20
391.5
 30
0.0
 11
1093.0
 21
376.5
 31
0.0
  0
LINE
  8
0
  6
LTYPE1
 62
     2
 10
1109.0
 20
376.5
 30
0.0
 11
1109.0
 21
391.5
 31
0.0
  0
LINE
  8
0
  6
LTYPE2
 62
     2
 10
1096.6
 20
394.15
 30
0.0
 11
1105.0
 21
394.15
 31
0.0
  0
CIRCLE
  8
0
  6
CONTINUOUS
 62
     1
 10
1101.0
 20
394.15
 30
0.0
 40
2.0
  0
LINE
  8
0
  6
CONTINUOUS
 62
     1
 10
1109.0
 20
368.5
 30
0.0
 11
1109.0
 21
360.5
 31
0.0
  0
LINE
  8
0
  6
CONTINUOUS
 62
     1
 10
1093.0
 20
360.5
 30
0.0
 11
1093.0
 21
368.5
 31
0.0
  0
LINE
  8
0
  6
CONTINUOUS
 62
     1
 10
1119.0
 20
360.5
 30
0.0
 11
1119.0
 21
348.5
 31
0.0
  0
LINE
  8
0
  6
CONTINUOUS
 62
     1
 10
1109.0
 20
337.5
 30
0.0
 11
1093.0
 21
337.5
 31
0.0
  0
LINE
  8
0
  6
CONTINUOUS
 62
     1
 10
1066.0
 20
348.5
 30
0.0
 11
1119.0
 21
348.5
 31
0.0
  0
LINE
  8
0
  6
CONTINUOUS
 62
     1
 10
1076.0
 20
360.5
 30
0.0
 11
1119.0
 21
360.5
 31
0.0
  0
LINE
  8
0
  6
CONTINUOUS
 62
     1
 10
1109.0
 20
368.5
 30
0.0
 11
1109.0
 21
376.5
 31
0.0
  0
LINE
  8
0
  6
CONTINUOUS
 62
     1
 10
1093.0
 20
376.5
 30
0.0
 11
1093.0
 21
368.5
 31
0.0
  0
LINE
  8
0
  6
CONTINUOUS
 62
     1
 10
1076.0
 20
376.5
 30
0.0
 11
1119.0
 21
376.5
 31
0.0
  0
LINE
  8
0
  6
CONTINUOUS
 62
     2
 10
1156.833854631
 20
376.5
 30
0.0
 11
1154.24566418
 21
366.840741737
 31
0.0
  0
LINE
  8
0
  6
CONTINUOUS
 62
     2
 10
1156.833854631
 20
376.5
 30
0.0
 11
1159.422045082
 21
366.840741737
 31
0.0
  0
LINE
  8
0
  6
CONTINUOUS
 62
     2
 10
1156.833854631
 20
380.5
 30
0.0
 11
1156.833854631
 21
304.9
 31
0.0
  0
LINE
  8
0
  6
CONTINUOUS
 62
     2
 10
1156.833854631
 20
348.5
 30
0.0
 11
1159.422045082
 21
338.840741737
 31
0.0
  0
LINE
  8
0
  6
CONTINUOUS
 62
     2
 10
1156.833854631
 20
348.5
 30
0.0
 11
1154.24566418
 21
338.840741737
 31
0.0
  0
LINE
  8
0
  6
CONTINUOUS
 62
     2
 10
1164.833854631
 20
348.5
 30
0.0
 11
1211.0
 21
348.5
 31
0.0
  0
LINE
  8
0
  6
CONTINUOUS
 62
     1
 10
1109.0
 20
337.5
 30
0.0
 11
1093.0
 21
337.5
 31
0.0
  0
LINE
  8
0
  6
CONTINUOUS
 62
     1
 10
1086.0
 20
345.5
 30
0.0
 11
1116.0
 21
345.5
 31
0.0
  0
LINE
  8
0
  6
CONTINUOUS
 62
     1
 10
1086.0
 20
348.5
 30
0.0
 11
1086.0
 21
345.5
 31
0.0
  0
LINE
  8
0
  6
CONTINUOUS
 62
     1
 10
1116.0
 20
348.5
 30
0.0
 11
1116.0
 21
345.5
 31
0.0
  0
LINE
  8
0
  6
CONTINUOUS
 62
     1
 10
1109.0
 20
345.5
 30
0.0
 11
1109.0
 21
337.5
 31
0.0
  0
LINE
  8
0
  6
CONTINUOUS
 62
     1
 10
1093.0
 20
337.5
 30
0.0
 11
1093.0
 21
345.5
 31
0.0
  0
LINE
  8
0
  6
LTYPE2
 62
     2
 10
1096.6
 20
342.85
 30
0.0
 11
1105.0
 21
342.85
 31
0.0
  0
CIRCLE
  8
0
  6
CONTINUOUS
 62
     1
 10
1101.0
 20
342.85
 30
0.0
 40
2.0
  0
LINE
  8
0
  6
CONTINUOUS
 62
     1
 10
1093.0
 20
337.5
 30
0.0
 11
1093.0
 21
345.5
 31
0.0
  0
LINE
  8
0
  6
CONTINUOUS
 62
     1
 10
1109.0
 20
345.5
 30
0.0
 11
1109.0
 21
337.5
 31
0.0
  0
LINE
  8
0
  6
LTYPE1
 62
     2
 10
1109.0
 20
360.5
 30
0.0
 11
1109.0
 21
345.5
 31
0.0
  0
LINE
  8
0
  6
LTYPE1
 62
     2
 10
1093.0
 20
345.5
 30
0.0
 11
1093.0
 21
360.5
 31
0.0
  0
LINE
  8
0
  6
CONTINUOUS
 62
     1
 10
1076.0
 20
368.5
 30
0.0
 11
1076.0
 21
360.5
 31
0.0
  0
LINE
  8
0
  6
CONTINUOUS
 62
     1
 10
1076.0
 20
368.5
 30
0.0
 11
1076.0
 21
376.5
 31
0.0
  0
TEXT
  8
0
  6
CONTINUOUS
 62
     2
 10
1152.833854631
 20
317.0
 30
0.0
 40
15.0
  1
１２
 50
90.0
 41
0.9
 51
0.0
  7
KANJI42
  0
TEXT
  8
0
  6
CONTINUOUS
 62
     2
 10
1180.733854631
 20
355.7
 30
0.0
 40
15.0
  1
１６
 50
90.0
 41
0.9
 51
0.0
  7
KANJI42
  0
TEXT
  8
0
  6
CONTINUOUS
 62
     2
 10
1199.2
 20
356.7
 30
0.0
 40
15.0
  1
４０
 50
90.0
 41
0.9
 51
0.0
  7
KANJI42
  0
LINE
  8
0
  6
CONTINUOUS
 62
     2
 10
1120.16
 20
388.5
 30
0.0
 11
1164.833854631
 21
388.5
 31
0.0
  0
LINE
  8
0
  6
CONTINUOUS
 62
     2
 10
1120.28
 20
376.5
 30
0.0
 11
1164.733854631
 21
376.5
 31
0.0
  0
LINE
  8
0
  6
CONTINUOUS
 62
     2
 10
1120.4
 20
360.5
 30
0.0
 11
1164.733854631
 21
360.5
 31
0.0
  0
LINE
  8
0
  6
CONTINUOUS
 62
     2
 10
1120.28
 20
348.5
 30
0.0
 11
1164.833854631
 21
348.5
 31
0.0
  0
LINE
  8
0
  6
CONTINUOUS
 62
     2
 10
1156.833854631
 20
360.5
 30
0.0
 11
1154.24566418
 21
370.159258263
 31
0.0
  0
LINE
  8
0
  6
CONTINUOUS
 62
     2
 10
1156.833854631
 20
360.5
 30
0.0
 11
1159.422045082
 21
370.159258263
 31
0.0
  0
LINE
  8
0
  6
CONTINUOUS
 62
     1
 10
901.999501379
 20
243.6
 30
0.0
 11
933.999501379
 21
243.6
 31
0.0
  0
LINE
  8
0
  6
CONTINUOUS
 62
     1
 10
901.999501379
 20
211.6
 30
0.0
 11
901.999501379
 21
243.6
 31
0.0
  0
LINE
  8
0
  6
LTYPE3
 62
     2
 10
984.260522596
 20
285.6
 30
0.0
 11
892.999501379
 21
285.6
 31
0.0
  0
LINE
  8
0
  6
CONTINUOUS
 62
     1
 10
933.999501379
 20
211.6
 30
0.0
 11
901.999501379
 21
211.6
 31
0.0
  0
LINE
  8
0
  6
LTYPE3
 62
     2
 10
928.499501379
 20
184.7
 30
0.0
 11
939.399501379
 21
184.7
 31
0.0
  0
LINE
  8
0
  6
LTYPE3
 62
     2
 10
934.399501379
 20
178.68
 30
0.0
 11
934.399501379
 21
188.6
 31
0.0
  0
LINE
  8
0
  6
LTYPE3
 62
     2
 10
927.959501379
 20
154.5
 30
0.0
 11
939.399501379
 21
154.5
 31
0.0
  0
LINE
  8
0
  6
LTYPE3
 62
     2
 10
934.399501379
 20
150.6
 30
0.0
 11
934.399501379
 21
159.58
 31
0.0
  0
LINE
  8
0
  6
LTYPE3
 62
     2
 10
870.699501379
 20
154.5
 30
0.0
 11
880.659501379
 21
154.5
 31
0.0
  0
LINE
  8
0
  6
LTYPE3
 62
     2
 10
875.699501379
 20
150.6
 30
0.0
 11
875.699501379
 21
158.48
 31
0.0
  0
LINE
  8
0
  6
LTYPE3
 62
     2
 10
870.699501379
 20
184.7
 30
0.0
 11
880.499501379
 21
184.7
 31
0.0
  0
LINE
  8
0
  6
LTYPE3
 62
     2
 10
875.699501379
 20
178.58
 30
0.0
 11
875.699501379
 21
188.6
 31
0.0
  0
LINE
  8
0
  6
LTYPE3
 62
     2
 10
871.999501379
 20
207.6
 30
0.0
 11
848.999501379
 21
207.6
 31
0.0
  0
ARC
  8
0
  6
CONTINUOUS
 62
     1
 10
872.699501379
 20
151.6
 30
0.0
 40
2.0
 50
180.0
 51
270.0
  0
LINE
  8
0
  6
CONTINUOUS
 62
     1
 10
847.299501379
 20
156.9
 30
0.0
 11
870.699501379
 21
156.9
 31
0.0
  0
ARC
  8
0
  6
CONTINUOUS
 62
     1
 10
847.299501379
 20
158.9
 30
0.0
 40
2.0
 50
180.0
 51
270.0
  0
LINE
  8
0
  6
CONTINUOUS
 62
     1
 10
845.299501379
 20
158.9
 30
0.0
 11
845.299501379
 21
180.3
 31
0.0
  0
ARC
  8
0
  6
CONTINUOUS
 62
     1
 10
847.299501379
 20
180.3
 30
0.0
 40
2.0
 50
90.0
 51
180.0
  0
LINE
  8
0
  6
CONTINUOUS
 62
     1
 10
870.699501379
 20
151.6
 30
0.0
 11
870.699501379
 21
187.6
 31
0.0
  0
ARC
  8
0
  6
CONTINUOUS
 62
     1
 10
872.699501379
 20
187.6
 30
0.0
 40
2.0
 50
90.0
 51
180.0
  0
LINE
  8
0
  6
CONTINUOUS
 62
     1
 10
872.699501379
 20
189.6
 30
0.0
 11
937.399501379
 21
189.6
 31
0.0
  0
ARC
  8
0
  6
CONTINUOUS
 62
     1
 10
937.399501379
 20
187.6
 30
0.0
 40
2.0
 50
0.0
 51
90.0
  0
LINE
  8
0
  6
CONTINUOUS
 62
     1
 10
872.699501379
 20
149.6
 30
0.0
 11
937.399501379
 21
149.6
 31
0.0
  0
LINE
  8
0
  6
CONTINUOUS
 62
     1
 10
939.399501379
 20
151.6
 30
0.0
 11
939.399501379
 21
187.6
 31
0.0
  0
ARC
  8
0
  6
CONTINUOUS
 62
     1
 10
937.399501379
 20
151.6
 30
0.0
 40
2.0
 50
270.0
 51
0.0
  0
ARC
  8
0
  6
CONTINUOUS
 62
     1
 10
972.999501379
 20
155.1
 30
0.0
 40
10.0
 50
270.0
 51
0.0
  0
LINE
  8
0
  6
CONTINUOUS
 62
     1
 10
852.999501379
 20
156.9
 30
0.0
 11
852.999501379
 21
155.1
 31
0.0
  0
LINE
  8
0
  6
CONTINUOUS
 62
     1
 10
972.999501379
 20
145.1
 30
0.0
 11
862.999501379
 21
145.1
 31
0.0
  0
ARC
  8
0
  6
CONTINUOUS
 62
     1
 10
862.999501379
 20
155.1
 30
0.0
 40
10.0
 50
180.0
 51
270.0
  0
LINE
  8
0
  6
CONTINUOUS
 62
     1
 10
855.007817392
 20
169.915789474
 30
0.0
 11
857.005045388
 21
207.810526316
 31
0.0
  0
LINE
  8
0
  6
CONTINUOUS
 62
     1
 10
866.991185367
 20
169.915789474
 30
0.0
 11
864.993957371
 21
207.810526316
 31
0.0
  0
ARC
  8
0
  6
CONTINUOUS
 62
     1
 10
860.999501379
 20
207.6
 30
0.0
 40
4.0
 50
356.983042101
 51
183.016952287
  0
ARC
  8
0
  6
CONTINUOUS
 62
     1
 10
860.999501379
 20
207.6
 30
0.0
 40
8.75
 50
300.219855722
 51
239.780144278
  0
ARC
  8
0
  6
CONTINUOUS
 62
     1
 10
860.999501379
 20
169.6
 30
0.0
 40
6.0
 50
176.983045121
 51
3.016954879
  0
LINE
  8
0
  6
CONTINUOUS
 62
     1
 10
866.338480162
 20
182.3
 30
0.0
 11
870.699501379
 21
182.3
 31
0.0
  0
LINE
  8
0
  6
CONTINUOUS
 62
     1
 10
847.299501379
 20
182.3
 30
0.0
 11
855.660522596
 21
182.3
 31
0.0
  0
LINE
  8
0
  6
LTYPE3
 62
     2
 10
860.999501379
 20
160.5
 30
0.0
 11
860.999501379
 21
218.0
 31
0.0
  0
LINE
  8
0
  6
LTYPE3
 62
     2
 10
851.738480162
 20
169.6
 30
0.0
 11
942.999501379
 21
169.6
 31
0.0
  0
LINE
  8
0
  6
CONTINUOUS
 62
     1
 10
933.999501379
 20
211.6
 30
0.0
 11
933.999501379
 21
243.6
 31
0.0
  0
LINE
  8
0
  6
CONTINUOUS
 62
     1
 10
852.999501379
 20
204.05563828
 30
0.0
 11
852.999501379
 21
182.25
 31
0.0
  0
LINE
  8
0
  6
CONTINUOUS
 62
     1
 10
852.999501379
 20
219.6
 30
0.0
 11
852.999501379
 21
211.14436172
 31
0.0
  0
LINE
  8
0
  6
CONTINUOUS
 62
     1
 10
982.999501379
 20
251.14436172
 30
0.0
 11
982.999501379
 21
272.95
 31
0.0
  0
LINE
  8
0
  6
CONTINUOUS
 62
     1
 10
982.999501379
 20
235.6
 30
0.0
 11
982.999501379
 21
244.05563828
 31
0.0
  0
LINE
  8
0
  6
CONTINUOUS
 62
     1
 10
836.620444363
 20
219.6
 30
0.0
 11
901.999501379
 21
219.6
 31
0.0
  0
LINE
  8
0
  6
CONTINUOUS
 62
     1
 10
901.999501379
 20
235.6
 30
0.0
 11
836.690079342
 21
235.6
 31
0.0
  0
ARC
  8
0
  6
CONTINUOUS
 62
     1
 10
842.244969957
 20
231.6
 30
0.0
 40
6.845203412
 50
144.242860688
 51
215.757139312
  0
ARC
  8
0
  6
CONTINUOUS
 62
     1
 10
831.135188727
 20
231.6
 30
0.0
 40
6.845203412
 50
324.242860688
 51
35.757139312
  0
ARC
  8
0
  6
CONTINUOUS
 62
     1
 10
831.135188727
 20
223.6
 30
0.0
 40
6.845203412
 50
324.242860688
 51
35.757139312
  0
LINE
  8
0
  6
LTYPE2
 62
     2
 10
1066.499501379
 20
227.6
 30
0.0
 11
831.655261852
 21
227.6
 31
0.0
  0
LINE
  8
7
  6
CONTINUOUS
 62
     2
 10
939.399501379
 20
169.6
 30
0.0
 11
947.766808964
 21
175.076144975
 31
0.0
  0
LINE
  8
7
  6
CONTINUOUS
 62
     2
 10
939.399501379
 20
169.6
 30
0.0
 11
943.907729822
 21
178.526134455
 31
0.0
  0
LINE
  8
7
  6
CONTINUOUS
 62
     2
 10
939.399501379
 20
169.6
 30
0.0
 11
952.049501379
 21
183.75
 31
0.0
  0
LINE
  8
7
  6
CONTINUOUS
 62
     2
 10
952.049501379
 20
183.75
 30
0.0
 11
1010.849501379
 21
183.75
 31
0.0
  0
TEXT
  8
7
  6
CONTINUOUS
 62
     2
 10
952.049501379
 20
187.75
 30
1.2
 40
12.0
  1
ＰＦ１／２
 50
0.0
 41
0.9
 51
0.0
  7
KANJI19
  0
LINE
  8
7
  6
CONTINUOUS
 62
     2
 10
896.599501379
 20
285.6
 30
0.0
 11
888.29102349
 21
280.035002681
 31
0.0
  0
LINE
  8
7
  6
CONTINUOUS
 62
     2
 10
896.599501379
 20
285.6
 30
0.0
 11
892.18664712
 21
276.626332005
 31
0.0
  0
LINE
  8
7
  6
CONTINUOUS
 62
     2
 10
896.599501379
 20
285.6
 30
0.0
 11
885.399501379
 21
272.8
 31
0.0
  0
LINE
  8
7
  6
CONTINUOUS
 62
     2
 10
885.399501379
 20
272.8
 30
0.0
 11
826.599501379
 21
272.8
 31
0.0
  0
TEXT
  8
7
  6
CONTINUOUS
 62
     2
 10
826.599501379
 20
276.8
 30
1.2
 40
12.0
  1
ＰＦ１／２
 50
0.0
 41
0.9
 51
0.0
  7
KANJI19
  0
LINE
  8
0
  6
CONTINUOUS
 62
     1
 10
852.999501379
 20
235.6
 30
0.0
 11
852.999501379
 21
269.8
 31
0.0
  0
LINE
  8
0
  6
CONTINUOUS
 62
     1
 10
982.999501379
 20
180.8
 30
0.0
 11
982.999501379
 21
155.1
 31
0.0
  0
LINE
  8
0
  6
LTYPE3
 62
     2
 10
907.499501379
 20
270.5
 30
0.0
 11
896.599501379
 21
270.5
 31
0.0
  0
LINE
  8
0
  6
LTYPE3
 62
     2
 10
901.599501379
 20
276.52
 30
0.0
 11
901.599501379
 21
266.6
 31
0.0
  0
LINE
  8
0
  6
CONTINUOUS
 62
     1
 10
963.299501379
 20
265.6
 30
0.0
 11
898.599501379
 21
265.6
 31
0.0
  0
ARC
  8
0
  6
CONTINUOUS
 62
     1
 10
898.599501379
 20
267.6
 30
0.0
 40
2.0
 50
180.0
 51
270.0
  0
LINE
  8
0
  6
LTYPE3
 62
     2
 10
965.299501379
 20
270.5
 30
0.0
 11
955.499501379
 21
270.5
 31
0.0
  0
LINE
  8
0
  6
LTYPE3
 62
     2
 10
960.299501379
 20
276.62
 30
0.0
 11
960.299501379
 21
266.6
 31
0.0
  0
ARC
  8
0
  6
CONTINUOUS
 62
     1
 10
963.299501379
 20
267.6
 30
0.0
 40
2.0
 50
270.0
 51
0.0
  0
LINE
  8
0
  6
CONTINUOUS
 62
     1
 10
969.660522596
 20
272.9
 30
0.0
 11
965.299501379
 21
272.9
 31
0.0
  0
LINE
  8
0
  6
CONTINUOUS
 62
     1
 10
980.991185367
 20
285.284210526
 30
0.0
 11
978.993957371
 21
247.389473684
 31
0.0
  0
LINE
  8
0
  6
CONTINUOUS
 62
     1
 10
969.007817392
 20
285.284210526
 30
0.0
 11
971.005045388
 21
247.389473684
 31
0.0
  0
ARC
  8
0
  6
CONTINUOUS
 62
     1
 10
988.699501379
 20
274.9
 30
0.0
 40
2.0
 50
270.0
 51
0.0
  0
LINE
  8
0
  6
CONTINUOUS
 62
     1
 10
988.699501379
 20
272.9
 30
0.0
 11
980.338480162
 21
272.9
 31
0.0
  0
LINE
  8
0
  6
LTYPE3
 62
     2
 10
963.999501379
 20
247.6
 30
0.0
 11
986.999501379
 21
247.6
 31
0.0
  0
ARC
  8
0
  6
CONTINUOUS
 62
     1
 10
974.999501379
 20
247.6
 30
0.0
 40
8.75
 50
120.219855722
 51
59.780144278
  0
ARC
  8
0
  6
CONTINUOUS
 62
     1
 10
974.999501379
 20
247.6
 30
0.0
 40
4.0
 50
176.983042101
 51
3.016952287
  0
ARC
  8
0
  6
CONTINUOUS
 62
     1
 10
1056.254032801
 20
231.6
 30
0.0
 40
6.845203412
 50
324.242860688
 51
35.757139312
  0
ARC
  8
0
  6
CONTINUOUS
 62
     1
 10
1067.363814032
 20
231.6
 30
0.0
 40
6.845203412
 50
144.242860688
 51
215.757139312
  0
ARC
  8
0
  6
CONTINUOUS
 62
     1
 10
1067.363814032
 20
223.6
 30
0.0
 40
6.845203412
 50
144.242860688
 51
215.757139312
  0
LINE
  8
0
  6
LTYPE2
 62
     2
 10
1014.499501379
 20
217.6
 30
0.0
 11
1014.499501379
 21
237.6
 31
0.0
  0
CIRCLE
  8
0
  6
CONTINUOUS
 62
     2
 10
1014.499501379
 20
227.6
 30
0.0
 40
5.0
  0
CIRCLE
  8
0
  6
CONTINUOUS
 62
     2
 10
1014.499501379
 20
227.6
 30
0.0
 40
4.0
  0
LINE
  8
0
  6
CONTINUOUS
 62
     2
 10
852.999501379
 20
150.1
 30
0.0
 11
852.999501379
 21
94.1
 31
0.0
  0
LINE
  8
0
  6
CONTINUOUS
 62
     2
 10
982.999501379
 20
150.100015139
 30
0.0
 11
982.999501379
 21
94.1
 31
0.0
  0
TEXT
  8
0
  6
CONTINUOUS
 62
     3
 10
897.749501379
 20
104.1
 30
0.0
 40
15.0
  1
１３０
 50
0.0
 41
0.9
 51
0.0
  7
KANJI42
  0
LINE
  8
0
  6
CONTINUOUS
 62
     2
 10
852.999501379
 20
99.1
 30
0.0
 11
862.658759642
 21
96.511809549
 31
0.0
  0
LINE
  8
0
  6
CONTINUOUS
 62
     2
 10
852.999501379
 20
99.1
 30
0.0
 11
862.658759642
 21
101.688190451
 31
0.0
  0
LINE
  8
0
  6
CONTINUOUS
 62
     2
 10
852.999501379
 20
99.1
 30
0.0
 11
982.999501379
 21
99.1
 31
0.0
  0
LINE
  8
0
  6
CONTINUOUS
 62
     2
 10
982.999501379
 20
99.1
 30
0.0
 11
973.340243116
 21
101.688190451
 31
0.0
  0
LINE
  8
0
  6
CONTINUOUS
 62
     2
 10
982.999501379
 20
99.1
 30
0.0
 11
973.340243116
 21
96.511809549
 31
0.0
  0
LINE
  8
0
  6
CONTINUOUS
 62
     2
 10
1275.9
 20
640.326406343
 30
0.0
 11
1275.9
 21
787.0
 31
0.0
  0
LINE
  8
0
  6
CONTINUOUS
 62
     2
 10
1275.9
 20
782.0
 30
0.0
 11
1285.559258263
 21
779.411809549
 31
0.0
  0
LINE
  8
0
  6
CONTINUOUS
 62
     2
 10
1275.9
 20
782.0
 30
0.0
 11
1285.559258263
 21
784.588190451
 31
0.0
  0
LINE
  8
0
  6
CONTINUOUS
 62
     2
 10
1275.9
 20
782.0
 30
0.0
 11
1395.9
 21
782.0
 31
0.0
  0
LINE
  8
0
  6
CONTINUOUS
 62
     2
 10
1395.9
 20
782.0
 30
0.0
 11
1386.240741737
 21
784.588190451
 31
0.0
  0
LINE
  8
0
  6
CONTINUOUS
 62
     2
 10
1395.9
 20
782.0
 30
0.0
 11
1386.240741737
 21
779.411809549
 31
0.0
  0
LINE
  8
0
  6
CONTINUOUS
 62
     2
 10
1395.9
 20
643.5
 30
0.0
 11
1395.9
 21
787.0
 31
0.0
  0
LINE
  8
0
  6
CONTINUOUS
 62
     2
 10
1335.9
 20
800.1
 30
0.0
 11
1335.9
 21
810.072652293
 31
0.0
  0
LINE
  8
0
  6
LTYPE3
 62
     2
 10
1335.9
 20
779.5
 30
0.0
 11
1335.9
 21
502.0
 31
0.0
  0
TEXT
  8
0
  6
CONTINUOUS
 62
     6
 10
389.343715102
 20
1331.371931782
 30
0.0
 40
11.8638
  1
ＡＣ１００Ｖ　１２５Ｖ　２５０Ｖ　－１０Ａ
 50
0.0
 41
0.726495726
 51
0.0
  7
KANJI26
  0
LINE
  8
0
  6
CONTINUOUS
 62
     2
 10
96.449930615
 20
341.199984231
 30
0.0
 11
104.177337226
 21
339.12943187
 31
0.0
  0
LINE
  8
0
  6
CONTINUOUS
 62
     2
 10
96.449930615
 20
341.199984231
 30
0.0
 11
104.177337226
 21
343.270536592
 31
0.0
  0
LINE
  8
0
  6
CONTINUOUS
 62
     2
 10
96.449930615
 20
341.199984231
 30
0.0
 11
234.049930615
 21
341.199984231
 31
0.0
  0
LINE
  8
0
  6
CONTINUOUS
 62
     2
 10
234.049930615
 20
341.199984231
 30
0.0
 11
226.322524005
 21
343.270536592
 31
0.0
  0
LINE
  8
0
  6
CONTINUOUS
 62
     2
 10
234.049930615
 20
341.199984231
 30
0.0
 11
226.322524005
 21
339.12943187
 31
0.0
  0
LINE
  8
0
  6
CONTINUOUS
 62
     2
 10
234.049930615
 20
339.999984231
 30
0.0
 11
234.049930615
 21
337.199984231
 31
0.0
  0
LINE
  8
0
  6
CONTINUOUS
 62
     2
 10
234.049930615
 20
341.199984231
 30
0.0
 11
241.777337226
 21
339.12943187
 31
0.0
  0
LINE
  8
0
  6
CONTINUOUS
 62
     2
 10
234.049930615
 20
341.199984231
 30
0.0
 11
241.777337226
 21
343.270536592
 31
0.0
  0
LINE
  8
0
  6
CONTINUOUS
 62
     2
 10
234.049930615
 20
341.199984231
 30
0.0
 11
436.449930615
 21
341.199984231
 31
0.0
  0
LINE
  8
0
  6
CONTINUOUS
 62
     2
 10
436.449930615
 20
341.199984231
 30
0.0
 11
428.722524005
 21
343.270536592
 31
0.0
  0
LINE
  8
0
  6
CONTINUOUS
 62
     2
 10
436.449930615
 20
341.199984231
 30
0.0
 11
428.722524005
 21
339.12943187
 31
0.0
  0
LINE
  8
0
  6
CONTINUOUS
 62
     2
 10
234.049930615
 20
314.870536592
 30
0.0
 11
226.322524005
 21
316.941088952
 31
0.0
  0
LINE
  8
0
  6
CONTINUOUS
 62
     2
 10
234.049930615
 20
314.870536592
 30
0.0
 11
226.322524005
 21
312.799984231
 31
0.0
  0
LINE
  8
0
  6
CONTINUOUS
 62
     2
 10
222.049930615
 20
314.870536592
 30
0.0
 11
234.049930615
 21
314.870536592
 31
0.0
  0
LINE
  8
0
  6
CONTINUOUS
 62
     2
 10
234.049930615
 20
314.870536592
 30
0.0
 11
254.849930615
 21
314.870536592
 31
0.0
  0
LINE
  8
0
  6
CONTINUOUS
 62
     2
 10
254.849930615
 20
314.870536592
 30
0.0
 11
262.577337226
 21
312.799984231
 31
0.0
  0
LINE
  8
0
  6
CONTINUOUS
 62
     2
 10
254.849930615
 20
314.870536592
 30
0.0
 11
262.577337226
 21
316.941088952
 31
0.0
  0
LINE
  8
0
  6
CONTINUOUS
 62
     2
 10
96.449930615
 20
289.599984231
 30
0.0
 11
96.449930615
 21
283.599984231
 31
0.0
  0
LINE
  8
0
  6
CONTINUOUS
 62
     2
 10
96.449930615
 20
287.599984231
 30
0.0
 11
104.177337226
 21
285.52943187
 31
0.0
  0
LINE
  8
0
  6
CONTINUOUS
 62
     2
 10
96.449930615
 20
287.599984231
 30
0.0
 11
104.177337226
 21
289.670536592
 31
0.0
  0
LINE
  8
0
  6
CONTINUOUS
 62
     2
 10
96.449930615
 20
287.599984231
 30
0.0
 11
254.849930615
 21
287.599984231
 31
0.0
  0
LINE
  8
0
  6
CONTINUOUS
 62
     2
 10
254.849930615
 20
287.599984231
 30
0.0
 11
247.122524005
 21
289.670536592
 31
0.0
  0
LINE
  8
0
  6
CONTINUOUS
 62
     2
 10
254.849930615
 20
287.599984231
 30
0.0
 11
247.122524005
 21
285.52943187
 31
0.0
  0
LINE
  8
0
  6
CONTINUOUS
 62
     2
 10
254.849930615
 20
288.799984231
 30
0.0
 11
254.849930615
 21
283.599984231
 31
0.0
  0
LINE
  8
0
  6
CONTINUOUS
 62
     2
 10
254.849930615
 20
287.599984231
 30
0.0
 11
262.577337226
 21
285.52943187
 31
0.0
  0
LINE
  8
0
  6
CONTINUOUS
 62
     2
 10
254.849930615
 20
287.599984231
 30
0.0
 11
262.577337226
 21
289.670536592
 31
0.0
  0
LINE
  8
0
  6
CONTINUOUS
 62
     2
 10
436.449930615
 20
283.999984231
 30
0.0
 11
436.449930615
 21
283.599984231
 31
0.0
  0
LINE
  8
0
  6
CONTINUOUS
 62
     2
 10
96.449930615
 20
258.399984231
 30
0.0
 11
104.177337226
 21
256.32943187
 31
0.0
  0
LINE
  8
0
  6
CONTINUOUS
 62
     2
 10
96.449930615
 20
258.399984231
 30
0.0
 11
104.177337226
 21
260.470536592
 31
0.0
  0
LINE
  8
0
  6
CONTINUOUS
 62
     2
 10
96.449930615
 20
258.399984231
 30
0.0
 11
414.049930615
 21
258.399984231
 31
0.0
  0
LINE
  8
0
  6
CONTINUOUS
 62
     2
 10
414.049930615
 20
258.399984231
 30
0.0
 11
406.322524005
 21
260.470536592
 31
0.0
  0
LINE
  8
0
  6
CONTINUOUS
 62
     2
 10
414.049930615
 20
258.399984231
 30
0.0
 11
406.322524005
 21
256.32943187
 31
0.0
  0
LINE
  8
0
  6
CONTINUOUS
 62
     2
 10
414.049930615
 20
259.199984231
 30
0.0
 11
414.049930615
 21
254.399984231
 31
0.0
  0
LINE
  8
0
  6
CONTINUOUS
 62
     2
 10
414.049930615
 20
258.399984231
 30
0.0
 11
406.322524005
 21
260.470536592
 31
0.0
  0
LINE
  8
0
  6
CONTINUOUS
 62
     2
 10
414.049930615
 20
258.399984231
 30
0.0
 11
406.322524005
 21
256.32943187
 31
0.0
  0
LINE
  8
0
  6
CONTINUOUS
 62
     2
 10
402.049930615
 20
258.399984231
 30
0.0
 11
414.049930615
 21
258.399984231
 31
0.0
  0
LINE
  8
0
  6
CONTINUOUS
 62
     2
 10
414.049930615
 20
258.399984231
 30
0.0
 11
436.449930615
 21
258.399984231
 31
0.0
  0
LINE
  8
0
  6
CONTINUOUS
 62
     2
 10
436.449930615
 20
258.399984231
 30
0.0
 11
444.177337226
 21
256.32943187
 31
0.0
  0
LINE
  8
0
  6
CONTINUOUS
 62
     2
 10
436.449930615
 20
258.399984231
 30
0.0
 11
444.177337226
 21
260.470536592
 31
0.0
  0
LINE
  8
0
  6
CONTINUOUS
 62
     2
 10
96.449930615
 20
351.999984231
 30
0.0
 11
96.449930615
 21
337.199984231
 31
0.0
  0
LINE
  8
0
  6
CONTINUOUS
 62
     2
 10
436.449930615
 20
351.999984231
 30
0.0
 11
436.449930615
 21
337.199984231
 31
0.0
  0
LINE
  8
0
  6
CONTINUOUS
 62
     2
 10
234.049930615
 20
340.799984231
 30
0.0
 11
234.049930615
 21
351.999984231
 31
0.0
  0
LINE
  8
0
  6
CONTINUOUS
 62
     2
 10
254.849930615
 20
327.670536592
 30
0.0
 11
254.849930615
 21
310.870536592
 31
0.0
  0
LINE
  8
0
  6
CONTINUOUS
 62
     2
 10
96.449930615
 20
337.199984231
 30
0.0
 11
96.449930615
 21
245.199984231
 31
0.0
  0
LINE
  8
0
  6
CONTINUOUS
 62
     2
 10
436.449930615
 20
341.199984231
 30
0.0
 11
436.449930615
 21
246.399984231
 31
0.0
  0
LINE
  8
0
  6
CONTINUOUS
 62
     2
 10
254.849930615
 20
314.870536592
 30
0.0
 11
254.849930615
 21
278.399984231
 31
0.0
  0
LINE
  8
0
  6
CONTINUOUS
 62
     2
 10
234.049930615
 20
341.199984231
 30
0.0
 11
234.049930615
 21
305.599984231
 31
0.0
  0
TEXT
  8
0
  6
CONTINUOUS
 62
     3
 10
138.249930615
 20
343.199984231
 30
0.0
 40
15.0
  1
ｍｉｎ．Ｌ
 50
0.0
 41
0.9
 51
0.0
  7
KANJI42
  0
TEXT
  8
0
  6
CONTINUOUS
 62
     3
 10
292.049930615
 20
343.199984231
 30
0.0
 40
15.0
  1
機械的ストローク
 50
0.0
 41
0.9
 51
0.0
  7
KANJI42
  0
TEXT
  8
0
  6
CONTINUOUS
 62
     3
 10
266.849930615
 20
316.870536592
 30
0.0
 40
15.0
  1
余裕
 50
0.0
 41
0.9
 51
0.0
  7
KANJI42
  0
TEXT
  8
0
  6
CONTINUOUS
 62
     3
 10
148.649930615
 20
289.599984231
 30
0.0
 40
15.0
  1
常用ｍｉｎ
 50
0.0
 41
0.9
 51
0.0
  7
KANJI42
  0
TEXT
  8
0
  6
CONTINUOUS
 62
     3
 10
307.849930615
 20
289.599984231
 30
0.0
 40
15.0
  1
常用ストローク
 50
0.0
 41
0.9
 51
0.0
  7
KANJI42
  0
TEXT
  8
0
  6
CONTINUOUS
 62
     3
 10
228.249930615
 20
260.399984231
 30
0.0
 40
15.0
  1
常用ｍａｘ
 50
0.0
 41
0.9
 51
0.0
  7
KANJI42
  0
TEXT
  8
0
  6
CONTINUOUS
 62
     3
 10
448.449930615
 20
260.399984231
 30
0.0
 40
15.0
  1
余裕
 50
0.0
 41
0.9
 51
0.0
  7
KANJI42
  0
LINE
  8
0
  6
CONTINUOUS
 62
     2
 10
254.849930615
 20
314.870536592
 30
0.0
 11
294.949930615
 21
314.870536592
 31
0.0
  0
LINE
  8
0
  6
CONTINUOUS
 62
     2
 10
436.449930615
 20
258.399984231
 30
0.0
 11
478.949930615
 21
258.399984231
 31
0.0
  0
TEXT
  8
0
  6
CONTINUOUS
 62
     3
 10
1315.65
 20
784.5
 30
0.0
 40
15.0
  1
１２０（トラニオン幅）
 50
0.0
 41
0.9
 51
0.0
  7
KANJI42
  0
LINE
  8
0
  6
CONTINUOUS
 62
     1
 10
858.25
 20
988.95
 30
0.0
 11
1506.25
 21
988.95
 31
0.0
  0
LINE
  8
0
  6
CONTINUOUS
 62
     1
 10
858.25
 20
1240.95
 30
0.0
 11
858.25
 21
988.95
 31
0.0
  0
LINE
  8
0
  6
CONTINUOUS
 62
     1
 10
1026.25
 20
1240.95
 30
0.0
 11
1026.25
 21
988.95
 31
0.0
  0
LINE
  8
0
  6
CONTINUOUS
 62
     2
 10
1106.25
 20
1240.95
 30
0.0
 11
1106.25
 21
988.95
 31
0.0
  0
LINE
  8
0
  6
CONTINUOUS
 62
     2
 10
1186.25
 20
1240.95
 30
0.0
 11
1186.25
 21
988.95
 31
0.0
  0
LINE
  8
0
  6
CONTINUOUS
 62
     2
 10
1266.25
 20
1240.95
 30
0.0
 11
1266.25
 21
988.95
 31
0.0
  0
LINE
  8
0
  6
CONTINUOUS
 62
     2
 10
1346.25
 20
1240.95
 30
0.0
 11
1346.25
 21
988.95
 31
0.0
  0
LINE
  8
0
  6
CONTINUOUS
 62
     2
 10
1426.25
 20
1240.95
 30
0.0
 11
1426.25
 21
988.95
 31
0.0
  0
LINE
  8
0
  6
CONTINUOUS
 62
     1
 10
1506.25
 20
1240.95
 30
0.0
 11
1506.25
 21
988.95
 31
0.0
  0
TEXT
  8
0
  6
CONTINUOUS
 62
     2
 10
871.25
 20
995.35
 30
0.8
 40
12.0
  1
ＭＣＳＬＢＢ０１－　　　ＪＬ
 50
0.0
 41
0.833333333
 51
0.0
  7
KANJI30
  0
LINE
  8
0
  6
CONTINUOUS
 62
     2
 10
414.049930615
 20
301.0
 30
0.0
 11
414.049930615
 21
245.599984231
 31
0.0
  0
LINE
  8
0
  6
CONTINUOUS
 62
     2
 10
254.849930615
 20
287.599984231
 30
0.0
 11
414.049930615
 21
287.599984231
 31
0.0
  0
LINE
  8
0
  6
CONTINUOUS
 62
     2
 10
414.049930615
 20
287.599984231
 30
0.0
 11
406.322524005
 21
289.670536592
 31
0.0
  0
LINE
  8
0
  6
CONTINUOUS
 62
     2
 10
414.049930615
 20
287.599984231
 30
0.0
 11
406.322524005
 21
285.52943187
 31
0.0
  0
LINE
  8
0
  6
CONTINUOUS
 62
     1
 10
1000.0
 20
492.5
 30
0.0
 11
1008.660254038
 21
497.5
 31
0.0
  0
LINE
  8
0
  6
CONTINUOUS
 62
     1
 10
1008.65
 20
497.5
 30
0.0
 11
1033.35
 21
497.5
 31
0.0
  0
LINE
  8
0
  6
CONTINUOUS
 62
     1
 10
1008.65
 20
465.5
 30
0.0
 11
1008.65
 21
497.5
 31
0.0
  0
LINE
  8
0
  6
CONTINUOUS
 62
     1
 10
1033.35
 20
465.5
 30
0.0
 11
1033.35
 21
497.5
 31
0.0
  0
LINE
  8
0
  6
CONTINUOUS
 62
     1
 10
1042.0
 20
492.5
 30
0.0
 11
1033.339745962
 21
497.5
 31
0.0
  0
LINE
  8
0
  6
CONTINUOUS
 62
     1
 10
1042.0
 20
470.5
 30
0.0
 11
1042.0
 21
492.5
 31
0.0
  0
LINE
  8
0
  6
CONTINUOUS
 62
     1
 10
1008.65
 20
465.5
 30
0.0
 11
1033.35
 21
465.5
 31
0.0
  0
LINE
  8
0
  6
CONTINUOUS
 62
     1
 10
1042.0
 20
470.5
 30
0.0
 11
1033.339745962
 21
465.5
 31
0.0
  0
LINE
  8
0
  6
CONTINUOUS
 62
     1
 10
1000.0
 20
470.5
 30
0.0
 11
1008.660254038
 21
465.5
 31
0.0
  0
LINE
  8
0
  6
CONTINUOUS
 62
     1
 10
1000.0
 20
470.5
 30
0.0
 11
1000.0
 21
492.5
 31
0.0
  0
LINE
  8
0
  6
CONTINUOUS
 62
     1
 10
993.499501379
 20
238.6
 30
0.0
 11
1002.159755417
 21
243.6
 31
0.0
  0
LINE
  8
0
  6
CONTINUOUS
 62
     1
 10
1002.149501379
 20
243.6
 30
0.0
 11
1026.849501379
 21
243.6
 31
0.0
  0
LINE
  8
0
  6
CONTINUOUS
 62
     1
 10
1002.149501379
 20
211.6
 30
0.0
 11
1002.149501379
 21
243.6
 31
0.0
  0
LINE
  8
0
  6
CONTINUOUS
 62
     1
 10
1026.849501379
 20
211.6
 30
0.0
 11
1026.849501379
 21
243.6
 31
0.0
  0
LINE
  8
0
  6
CONTINUOUS
 62
     1
 10
1035.499501379
 20
238.6
 30
0.0
 11
1026.839247342
 21
243.6
 31
0.0
  0
LINE
  8
0
  6
CONTINUOUS
 62
     1
 10
1035.499501379
 20
216.6
 30
0.0
 11
1035.499501379
 21
238.6
 31
0.0
  0
LINE
  8
0
  6
CONTINUOUS
 62
     1
 10
1002.149501379
 20
211.6
 30
0.0
 11
1026.849501379
 21
211.6
 31
0.0
  0
LINE
  8
0
  6
CONTINUOUS
 62
     1
 10
1035.499501379
 20
216.6
 30
0.0
 11
1026.839247342
 21
211.6
 31
0.0
  0
LINE
  8
0
  6
CONTINUOUS
 62
     1
 10
993.499501379
 20
216.6
 30
0.0
 11
1002.159755417
 21
211.6
 31
0.0
  0
LINE
  8
0
  6
CONTINUOUS
 62
     1
 10
993.499501379
 20
216.6
 30
0.0
 11
993.499501379
 21
238.6
 31
0.0
  0
LINE
  8
0
  6
CONTINUOUS
 62
     1
 10
1035.499501379
 20
235.6
 30
0.0
 11
1061.808923417
 21
235.6
 31
0.0
  0
LINE
  8
0
  6
CONTINUOUS
 62
     1
 10
1061.808923417
 20
219.6
 30
0.0
 11
1035.499501379
 21
219.6
 31
0.0
  0
LINE
  8
0
  6
CONTINUOUS
 62
     1
 10
993.499501379
 20
219.6
 30
0.0
 11
933.999501379
 21
219.6
 31
0.0
  0
LINE
  8
0
  6
CONTINUOUS
 62
     1
 10
933.999501379
 20
235.6
 30
0.0
 11
993.499501379
 21
235.6
 31
0.0
  0
LINE
  8
0
  6
CONTINUOUS
 62
     1
 10
1304.120779386
 20
714.0
 30
0.0
 11
1382.9
 21
714.0
 31
0.0
  0
LINE
  8
0
  6
CONTINUOUS
 62
     1
 10
1303.120779386
 20
713.0
 30
0.0
 11
1385.9
 21
713.0
 31
0.0
  0
LINE
  8
0
  6
CONTINUOUS
 62
     1
 10
1297.120779386
 20
707.0
 30
0.0
 11
1386.9
 21
707.0
 31
0.0
  0
LINE
  8
0
  6
CONTINUOUS
 62
     1
 10
1298.397474683
 20
705.5
 30
0.0
 11
1386.9
 21
705.5
 31
0.0
  0
LINE
  8
2
  6
CONTINUOUS
 62
     2
 10
1295.4
 20
752.8
 30
0.0
 11
1296.498851058
 21
762.73944296
 31
0.0
  0
LINE
  8
2
  6
CONTINUOUS
 62
     2
 10
1295.4
 20
752.8
 30
0.0
 11
1291.381911451
 21
761.957235632
 31
0.0
  0
LINE
  8
2
  6
CONTINUOUS
 62
     2
 10
1295.374649635
 20
752.570698219
 30
0.0
 11
1269.324733044
 21
874.272652293
 31
0.0
  0
TEXT
  8
2
  6
CONTINUOUS
 62
     2
 10
1158.019716322
 20
878.272652293
 30
0.0
 40
15.0
  1
２－ＰＦ１／２
 50
0.0
 41
0.9
 51
0.0
  7
KANJI42
  0
LINE
  8
2
  6
CONTINUOUS
 62
     2
 10
1269.324733044
 20
874.272652293
 30
0.0
 11
1158.019716322
 21
874.272652293
 31
0.0
  0
TEXT
  8
0
  6
CONTINUOUS
 62
     2
 10
1233.662797718
 20
810.072652293
 30
0.0
 40
15.0
  1
１５２
 50
0.0
 41
0.9
 51
0.0
  7
KANJI42
  0
LINE
  8
0
  6
LTYPE7
 62
     2
 10
809.849814745
 20
581.5
 30
0.0
 11
809.849814745
 21
652.95
 31
0.0
  0
LINE
  8
0
  6
CONTINUOUS
 62
     1
 10
726.0
 20
650.25
 30
0.0
 11
809.849814745
 21
650.25
 31
0.0
  0
LINE
  8
0
  6
CONTINUOUS
 62
     1
 10
726.0
 20
586.75
 30
0.0
 11
809.849814745
 21
586.75
 31
0.0
  0
TEXT
  8
2
  6
CONTINUOUS
 62
     2
 10
164.3
 20
706.8
 30
1.2
 40
16.0
  1
手動軸カバー
 50
0.0
 41
0.925
 51
0.0
  7
KANJI50
  0
TEXT
  8
2
  6
CONTINUOUS
 62
     2
 10
164.3
 20
682.8
 30
1.2
 40
16.0
  1
手動軸□１０
 50
0.0
 41
0.925
 51
0.0
  7
KANJI50
  0
POLYLINE
  8
2
  6
CONTINUOUS
 62
     2
 66
     1
  0
VERTEX
  8
2
  6
CONTINUOUS
 62
     2
 10
275.685350584
 20
618.25
 30
0.0
  0
VERTEX
  8
2
  6
CONTINUOUS
 62
     2
 10
259.1
 20
702.8
 30
0.0
  0
VERTEX
  8
2
  6
CONTINUOUS
 62
     2
 10
159.3
 20
702.8
 30
0.0
  0
SEQEND
  0
LINE
  8
0
  6
CONTINUOUS
 62
     2
 10
1101.0
 20
638.5
 30
0.0
 11
1101.0
 21
846.088190451
 31
0.0
  0
LINE
  8
0
  6
CONTINUOUS
 62
     2
 10
1119.0
 20
638.5
 30
0.0
 11
1119.0
 21
846.088190451
 31
0.0
  0
LINE
  8
0
  6
CONTINUOUS
 62
     1
 10
982.999501379
 20
219.6
 30
0.0
 11
982.999501379
 21
201.8
 31
0.0
  0
TEXT
  8
0
  6
CONTINUOUS
 62
     2
 10
1612.25
 20
1279.5
 30
138.5
 40
17.5
  1
形式
 50
0.0
 41
0.9
 51
0.0
  7
KANJI51
  0
TEXT
  8
0
  6
CONTINUOUS
 62
     2
 10
1612.25
 20
1244.5
 30
138.5
 40
17.5
  1
推力
 50
0.0
 41
0.9
 51
0.0
  7
KANJI51
  0
TEXT
  8
0
  6
CONTINUOUS
 62
     2
 10
1612.25
 20
1104.5
 30
138.5
 40
17.5
  1
構造
 50
0.0
 41
0.9
 51
0.0
  7
KANJI51
  0
TEXT
  8
0
  6
CONTINUOUS
 62
     2
 10
1612.25
 20
719.5
 30
61.375
 40
17.5
  1
付属品
 50
0.0
 41
0.9
 51
0.0
  7
KANJI52
  0
TEXT
  8
0
  6
CONTINUOUS
 62
     2
 10
1612.25
 20
1034.5
 30
61.375
 40
17.5
  1
塗装色
 50
0.0
 41
0.9
 51
0.0
  7
KANJI52
  0
TEXT
  8
0
  6
CONTINUOUS
 62
     2
 10
1612.25
 20
1209.5
 30
22.8125
 40
17.5
  1
ストローク
 50
0.0
 41
0.9
 51
0.0
  7
KANJI53
  0
TEXT
  8
0
  6
CONTINUOUS
 62
     2
 10
1612.25
 20
1069.5
 30
9.958
 40
17.5
  1
過負荷安全装置
 50
0.0
 41
0.9
 51
0.0
  7
KANJI54
  0
TEXT
  8
0
  6
CONTINUOUS
 62
     2
 10
1637.25
 20
1319.0
 30
14.2497
 40
22.5
  1
マイティシリンダ仕様
 50
0.0
 41
0.9
 51
0.0
  7
KANJI55
  0
TEXT
  8
0
  6
CONTINUOUS
 62
     2
 10
1637.25
 20
999.5
 30
15.3125
 40
17.5
  1
出力　極数
 50
0.0
 41
0.9
 51
0.0
  7
KANJI56
  0
TEXT
  8
0
  6
CONTINUOUS
 62
     2
 10
1637.25
 20
964.5
 30
25.6665
 40
17.5
  1
電源電圧
 50
0.0
 41
0.9
 51
0.0
  7
KANJI57
  0
TEXT
  8
0
  6
CONTINUOUS
 62
     2
 10
1637.25
 20
929.5
 30
46.375
 40
17.5
  1
周波数
 50
0.0
 41
0.9
 51
0.0
  7
KANJI58
  0
TEXT
  8
0
  6
CONTINUOUS
 62
     2
 10
1637.25
 20
859.5
 30
46.375
 40
17.5
  1
絶縁級
 50
0.0
 41
0.9
 51
0.0
  7
KANJI58
  0
TEXT
  8
0
  6
CONTINUOUS
 62
     2
 10
1637.25
 20
894.5
 30
108.5
 40
17.5
  1
電流
 50
0.0
 41
0.9
 51
0.0
  7
KANJI59
  0
TEXT
  8
0
  6
CONTINUOUS
 62
     2
 10
1637.25
 20
789.5
 30
108.5
 40
17.5
  1
形式
 50
0.0
 41
0.9
 51
0.0
  7
KANJI59
  0
TEXT
  8
0
  6
CONTINUOUS
 62
     2
 10
1637.25
 20
754.5
 30
25.6665
 40
17.5
  1
操作方式
 50
0.0
 41
0.9
 51
0.0
  7
KANJI57
  0
TEXT
  8
0
  6
CONTINUOUS
 62
     2
 10
1597.25
 20
1139.5
 30
1.5
 40
17.5
  1
ピストンロッド回転トルク
 50
0.0
 41
0.9
 51
0.0
  7
KANJI60
  0
TEXT
  8
0
  6
CONTINUOUS
 62
     2
 10
1595.125
 20
1003.0
 30
11.0
 40
17.5
  1
モ　トル仕様
 50
0.0
 41
0.9
 51
0.0
  7
KANJI61
  0
TEXT
  8
0
  6
CONTINUOUS
 62
     2
 10
1594.0
 20
813.0
 30
0.857142857
 40
15.0
  1
ブレ　キ
 50
0.0
 41
0.9
 51
0.0
  7
KANJI62
  0
LINE
  8
0
  6
CONTINUOUS
 62
     2
 10
1593.75
 20
778.5
 30
0.0
 11
1593.75
 21
768.0
 31
0.0
  0
LINE
  8
0
  6
CONTINUOUS
 62
     2
 10
1593.75
 20
975.0
 30
0.0
 11
1593.75
 21
963.5
 31
0.0
  0
TEXT
  8
0
  6
CONTINUOUS
 62
     2
 10
1949.75
 20
1178.0
 30
0.1
 40
12.5
  1
ｍｍ／ｓｅｃ
 50
0.0
 41
0.8
 51
0.0
  7
KANJI63
  0
TEXT
  8
0
  6
CONTINUOUS
 62
     2
 10
1987.25
 20
1211.5
 30
0.1
 40
12.5
  1
ｍｍ
 50
0.0
 41
0.8
 51
0.0
  7
KANJI63
  0
TEXT
  8
0
  6
CONTINUOUS
 62
     2
 10
1861.75
 20
1069.5
 30
7.1
 40
17.5
  1
推力リミッタ
 50
0.0
 41
0.9
 51
0.0
  7
KANJI64
  0
TEXT
  8
0
  6
CONTINUOUS
 62
     2
 10
1994.25
 20
999.5
 30
10.982142857
 40
15.0
  1
Ｐ
 50
0.0
 41
0.9
 51
0.0
  7
KANJI65
  0
TEXT
  8
0
  6
CONTINUOUS
 62
     2
 10
1911.25
 20
999.5
 30
1.0
 40
15.0
  1
ＫＷ
 50
0.0
 41
0.857142857
 51
0.0
  7
KANJI66
  0
TEXT
  8
0
  6
CONTINUOUS
 62
     2
 10
1969.25
 20
999.5
 30
12.8125
 40
17.5
  1
４
 50
0.0
 41
0.9
 51
0.0
  7
KANJI67
  0
TEXT
  8
0
  6
CONTINUOUS
 62
     2
 10
1833.75
 20
1036.0
 30
0.5
 40
14.0
  1
マンセル
 50
0.0
 41
0.9
 51
0.0
  7
KANJI68
  0
TEXT
  8
0
  6
CONTINUOUS
 62
     2
 10
1892.25
 20
1037.0
 30
0.2
 40
14.0
  1
７．５ＧＹ５／４．５
 50
0.0
 41
0.785714286
 51
0.0
  7
KANJI69
  0
TEXT
  8
0
  6
CONTINUOUS
 62
     2
 10
1829.75
 20
790.0
 30
1.5
 40
14.0
  1
スプリング制動式電磁ブレーキ
 50
0.0
 41
0.8
 51
0.0
  7
KANJI70
  0
TEXT
  8
0
  6
CONTINUOUS
 62
     2
 10
1864.75
 20
754.5
 30
10.0
 40
17.5
  1
同時切り
 50
0.0
 41
0.9
 51
0.0
  7
KANJI71
  0
TEXT
  8
0
  6
CONTINUOUS
 62
     2
 10
1994.75
 20
964.5
 30
0.18
 40
15.0
  1
Ｖ
 50
0.0
 41
0.8
 51
0.0
  7
KANJI72
  0
TEXT
  8
0
  6
CONTINUOUS
 62
     2
 10
1985.75
 20
929.5
 30
0.18
 40
15.0
  1
Ｈｚ
 50
0.0
 41
0.8
 51
0.0
  7
KANJI72
  0
TEXT
  8
0
  6
CONTINUOUS
 62
     2
 10
1995.875
 20
895.625
 30
1.5
 40
15.0
  1
Ａ
 50
0.0
 41
0.9
 51
0.0
  7
KANJI73
  0
TEXT
  8
0
  6
CONTINUOUS
 62
     2
 10
1917.125
 20
861.875
 30
1.5
 40
15.0
  1
Ｅ
 50
0.0
 41
0.9
 51
0.0
  7
KANJI73
  0
LINE
  8
0
  6
CONTINUOUS
 62
     2
 10
1574.75
 20
745.5
 30
0.0
 11
2012.25
 21
745.5
 31
0.0
  0
LINE
  8
0
  6
CONTINUOUS
 62
     2
 10
1574.75
 20
1025.5
 30
0.0
 11
2012.25
 21
1025.5
 31
0.0
  0
LINE
  8
0
  6
CONTINUOUS
 62
     2
 10
1574.75
 20
815.5
 30
0.0
 11
2012.25
 21
815.5
 31
0.0
  0
LINE
  8
0
  6
CONTINUOUS
 62
     2
 10
1614.75
 20
780.5
 30
0.0
 11
2012.25
 21
780.5
 31
0.0
  0
LINE
  8
0
  6
CONTINUOUS
 62
     2
 10
1614.75
 20
850.5
 30
0.0
 11
2012.25
 21
850.5
 31
0.0
  0
LINE
  8
0
  6
CONTINUOUS
 62
     2
 10
1614.75
 20
885.5
 30
0.0
 11
2012.25
 21
885.5
 31
0.0
  0
LINE
  8
0
  6
CONTINUOUS
 62
     2
 10
1614.75
 20
955.5
 30
0.0
 11
2012.25
 21
955.5
 31
0.0
  0
LINE
  8
0
  6
CONTINUOUS
 62
     2
 10
1614.75
 20
920.5
 30
0.0
 11
2012.25
 21
920.5
 31
0.0
  0
LINE
  8
0
  6
CONTINUOUS
 62
     2
 10
1614.75
 20
990.5
 30
0.0
 11
2012.25
 21
990.5
 31
0.0
  0
LINE
  8
0
  6
CONTINUOUS
 62
     2
 10
1574.75
 20
1305.5
 30
0.0
 11
2012.25
 21
1305.5
 31
0.0
  0
LINE
  8
0
  6
CONTINUOUS
 62
     2
 10
1574.75
 20
1270.5
 30
0.0
 11
2012.25
 21
1270.5
 31
0.0
  0
LINE
  8
0
  6
CONTINUOUS
 62
     2
 10
1574.75
 20
1235.5
 30
0.0
 11
2012.25
 21
1235.5
 31
0.0
  0
LINE
  8
0
  6
CONTINUOUS
 62
     2
 10
1574.75
 20
1200.5
 30
0.0
 11
2012.25
 21
1200.5
 31
0.0
  0
LINE
  8
0
  6
CONTINUOUS
 62
     2
 10
1574.75
 20
1165.5
 30
0.0
 11
2012.25
 21
1165.5
 31
0.0
  0
LINE
  8
0
  6
CONTINUOUS
 62
     2
 10
1574.75
 20
1130.5
 30
0.0
 11
2012.25
 21
1130.5
 31
0.0
  0
LINE
  8
0
  6
CONTINUOUS
 62
     2
 10
1574.75
 20
1095.5
 30
0.0
 11
2012.25
 21
1095.5
 31
0.0
  0
LINE
  8
0
  6
CONTINUOUS
 62
     2
 10
1574.75
 20
1060.5
 30
0.0
 11
2012.25
 21
1060.5
 31
0.0
  0
LINE
  8
0
  6
CONTINUOUS
 62
     2
 10
1614.75
 20
1025.5
 30
0.0
 11
1614.75
 21
745.5
 31
0.0
  0
LINE
  8
0
  6
CONTINUOUS
 62
     1
 10
1574.75
 20
1355.5
 30
0.0
 11
2012.25
 21
1355.5
 31
0.0
  0
LINE
  8
0
  6
CONTINUOUS
 62
     2
 10
1574.75
 20
710.5
 30
0.0
 11
2012.25
 21
710.5
 31
0.0
  0
TEXT
  8
0
  6
CONTINUOUS
 62
     2
 10
1842.125
 20
1174.375
 30
1.5
 40
15.0
  1
　２５／３０
 50
0.0
 41
0.9
 51
0.0
  7
KANJI73
  0
TEXT
  8
0
  6
CONTINUOUS
 62
     2
 10
1872.75
 20
965.0
 30
1.5
 40
15.0
  1
　　　／　
 50
0.0
 41
0.9
 51
0.0
  7
KANJI73
  0
TEXT
  8
0
  6
CONTINUOUS
 62
     2
 10
1887.125
 20
929.375
 30
1.5
 40
15.0
  1
　５０／６０
 50
0.0
 41
0.9
 51
0.0
  7
KANJI73
  0
TEXT
  8
0
  6
CONTINUOUS
 62
     2
 10
1861.75
 20
1105.0
 30
12.8125
 40
17.5
  1
全閉屋外形
 50
0.0
 41
0.9
 51
0.0
  7
KANJI67
  0
TEXT
  8
0
  6
CONTINUOUS
 62
     2
 10
1853.375
 20
1000.625
 30
1.5
 40
15.0
  1
０．３
 50
0.0
 41
0.9
 51
0.0
  7
KANJI73
  0
TEXT
  8
0
  6
CONTINUOUS
 62
     2
 10
1854.25
 20
1244.5
 30
1.5
 40
15.0
  1
９８０Ｎ（１００ｋｇ）
 50
0.0
 41
0.9
 51
0.0
  7
KANJI73
  0
TEXT
  8
0
  6
CONTINUOUS
 62
     2
 10
1612.25
 20
1174.5
 30
5.0
 40
17.5
  1
公称速度（５０／６０Ｈｚ）
 50
0.0
 41
0.9
 51
0.0
  7
KANJI74
  0
TEXT
  8
0
  6
CONTINUOUS
 62
     2
 10
1830.75
 20
1278.625
 30
1.0
 40
15.0
  1
ＭＣＳＬＢＢ０１－　　ＪＬ
 50
0.0
 41
0.833333333
 51
0.0
  7
KANJI75
  0
TEXT
  8
0
  6
CONTINUOUS
 62
     2
 10
1832.875
 20
1139.375
 30
0.0
 40
15.0
  1
２．９Ｎ・ｍ（０．３ｋｇ・ｍ）
 50
0.0
 41
0.833333333
 51
0.0
  7
KANJI76
  0
TEXT
  8
0
  6
CONTINUOUS
 62
     2
 10
1612.25
 20
684.5
 30
138.5
 40
17.5
  1
台数
 50
0.0
 41
0.9
 51
0.0
  7
KANJI51
  0
LINE
  8
0
  6
CONTINUOUS
 62
     1
 10
1574.75
 20
640.5
 30
0.0
 11
2012.25
 21
640.5
 31
0.0
  0
LINE
  8
0
  6
CONTINUOUS
 62
     2
 10
1574.75
 20
675.5
 30
0.0
 11
2012.25
 21
675.5
 31
0.0
  0
TEXT
  8
0
  6
CONTINUOUS
 62
     2
 10
1612.25
 20
649.5
 30
5.0
 40
17.5
  1
概算重量（１台当り）
 50
0.0
 41
0.857142857
 51
0.0
  7
KANJI15
  0
TEXT
  8
0
  6
CONTINUOUS
 62
     2
 10
1966.25
 20
650.65
 30
0.0
 40
17.5
  1
ｋｇ
 50
0.0
 41
0.9
 51
0.0
  7
KANJI77
  0
LINE
  8
0
  6
CONTINUOUS
 62
     2
 10
1824.75
 20
1305.5
 30
0.0
 11
1824.75
 21
640.5
 31
0.0
  0
LINE
  8
0
  6
CONTINUOUS
 62
     1
 10
1574.75
 20
1355.5
 30
0.0
 11
1574.75
 21
640.5
 31
0.0
  0
LINE
  8
0
  6
CONTINUOUS
 62
     2
 10
1500.25
 20
587.0
 30
0.0
 11
1620.25
 21
587.0
 31
0.0
  0
TEXT
  8
0
  6
CONTINUOUS
 62
     2
 10
1510.75
 20
594.0
 30
10.0
 40
20.0
  1
特記事項
 50
0.0
 41
0.9
 51
0.0
  7
KANJI78
  0
TEXT
  8
0
  6
CONTINUOUS
 62
     2
 10
1505.75
 20
444.25
 30
1.5
 40
17.5
  1
　　ストローク７００ｍｍ以上の場合２ロッド方式となります。
 50
0.0
 41
0.857142857
 51
0.0
  7
KANJI79
  0
TEXT
  8
0
  6
CONTINUOUS
 62
     2
 10
1505.75
 20
494.25
 30
1.5
 40
17.5
  1
３．ＬＳユニット
 50
0.0
 41
0.857142857
 51
0.0
  7
KANJI79
  0
TEXT
  8
0
  6
CONTINUOUS
 62
     2
 10
1505.75
 20
556.75
 30
1.5
 40
17.5
  1
１．運転時は必ずピストンロッドの回転防止を行って下さい。
 50
0.0
 41
0.857142857
 51
0.0
  7
KANJI79
  0
TEXT
  8
0
  6
CONTINUOUS
 62
     2
 10
1505.75
 20
469.25
 30
1.5
 40
17.5
  1
　　リミットスイッチ：１ＬＳ１－Ｊｘ２ケ（山武）
 50
0.0
 41
0.857142857
 51
0.0
  7
KANJI79
  0
TEXT
  8
0
  6
CONTINUOUS
 62
     2
 10
1505.75
 20
525.5
 30
1.5
 40
17.5
  1
２．モートル：全閉自冷かご形３０分定格
 50
0.0
 41
0.857142857
 51
0.0
  7
KANJI79
  0
TEXT
  8
0
  6
CONTINUOUS
 62
     2
 10
1505.75
 20
416.75
 30
1.5
 40
17.5
  1
４．呼称ストロークは、機械的ストロークです。
 50
0.0
 41
0.857142857
 51
0.0
  7
KANJI79
  0
TEXT
  8
0
  6
CONTINUOUS
 62
     2
 10
1505.75
 20
385.95
 30
1.5
 40
17.5
  1
　　必ず、常用はストローク両端に必ず余裕を取って下さい。
 50
0.0
 41
0.857142857
 51
0.0
  7
KANJI79
  0
TEXT
  8
0
  6
CONTINUOUS
 62
     2
 10
1505.75
 20
354.47
 30
1.5
 40
17.5
  1
　　前後の推奨余裕寸法は、各々１５ｍｍです。
 50
0.0
 41
0.857142857
 51
0.0
  7
KANJI79
  0
POLYLINE
  8
2
  6
CONTINUOUS
 62
     2
 66
     1
  0
VERTEX
  8
2
  6
CONTINUOUS
 62
     2
 10
1463.9
 20
565.5
 30
0.0
  0
VERTEX
  8
2
  6
CONTINUOUS
 62
     2
 10
1463.9
 20
714.0
 30
0.0
  0
VERTEX
  8
2
  6
CONTINUOUS
 62
     2
 10
1461.311809549
 20
704.340741737
 30
0.0
  0
SEQEND
  0
LINE
  8
2
  6
CONTINUOUS
 62
     2
 10
1463.9
 20
714.0
 30
0.0
 11
1466.488190451
 21
704.340741737
 31
0.0
  0
TEXT
  8
2
  6
CONTINUOUS
 62
     3
 10
1459.9
 20
605.35
 30
0.0
 40
15.0
  1
１４８．５
 50
90.0
 41
0.9
 51
0.0
  7
KANJI42
  0
LINE
  8
2
  6
CONTINUOUS
 62
     2
 10
1463.9
 20
565.5
 30
0.0
 11
1461.311809549
 21
555.840741737
 31
0.0
  0
LINE
  8
2
  6
CONTINUOUS
 62
     2
 10
1463.9
 20
565.5
 30
0.0
 11
1466.488190451
 21
555.840741737
 31
0.0
  0
LINE
  8
2
  6
CONTINUOUS
 62
     2
 10
1463.9
 20
565.5
 30
0.0
 11
1463.9
 21
504.5
 31
0.0
  0
LINE
  8
2
  6
CONTINUOUS
 62
     2
 10
1463.9
 20
504.5
 30
0.0
 11
1466.488190451
 21
514.159258263
 31
0.0
  0
LINE
  8
2
  6
CONTINUOUS
 62
     2
 10
1463.9
 20
504.5
 30
0.0
 11
1461.311809549
 21
514.159258263
 31
0.0
  0
LINE
  8
2
  6
CONTINUOUS
 62
     2
 10
1459.9
 20
565.5
 30
0.0
 11
1471.9
 21
565.5
 31
0.0
  0
LINE
  8
2
  6
CONTINUOUS
 62
     2
 10
1463.9
 20
565.5
 30
0.0
 11
1466.488190451
 21
575.159258263
 31
0.0
  0
LINE
  8
2
  6
CONTINUOUS
 62
     2
 10
1463.9
 20
565.5
 30
0.0
 11
1461.311809549
 21
575.159258263
 31
0.0
  0
TEXT
  8
2
  6
CONTINUOUS
 62
     3
 10
1459.9
 20
521.6
 30
0.0
 40
15.0
  1
６１
 50
90.0
 41
0.9
 51
0.0
  7
KANJI42
  0
LINE
  8
0
  6
CONTINUOUS
 62
     2
 10
1400.9
 20
626.5
 30
0.0
 11
1439.0
 21
626.5
 31
0.0
  0
LINE
  8
0
  6
CONTINUOUS
 62
     2
 10
1434.0
 20
626.5
 30
0.0
 11
1437.235238064
 21
638.574072829
 31
0.0
  0
LINE
  8
0
  6
CONTINUOUS
 62
     2
 10
1434.0
 20
626.5
 30
0.0
 11
1430.764761936
 21
638.574072829
 31
0.0
  0
LINE
  8
0
  6
CONTINUOUS
 62
     2
 10
1434.0
 20
626.5
 30
0.0
 11
1434.0
 21
610.5
 31
0.0
  0
LINE
  8
0
  6
CONTINUOUS
 62
     2
 10
1434.0
 20
610.5
 30
0.0
 11
1434.0
 21
591.75
 31
0.0
  0
LINE
  8
0
  6
CONTINUOUS
 62
     2
 10
1434.0
 20
610.5
 30
0.0
 11
1430.764761936
 21
598.425927171
 31
0.0
  0
LINE
  8
0
  6
CONTINUOUS
 62
     2
 10
1434.0
 20
610.5
 30
0.0
 11
1437.235238064
 21
598.425927171
 31
0.0
  0
LINE
  8
0
  6
CONTINUOUS
 62
     2
 10
1400.9
 20
610.5
 30
0.0
 11
1439.0
 21
610.5
 31
0.0
  0
TEXT
  8
0
  6
CONTINUOUS
 62
     3
 10
1431.5
 20
635.25
 30
0.0
 40
15.0
  1
φ１６Ｈ１０深さ２２
 50
90.0
 41
0.9
 51
0.0
  7
KANJI42
  0
LINE
  8
2
  6
CONTINUOUS
 62
     2
 10
1436.9
 20
714.0
 30
0.0
 11
1471.9
 21
714.0
 31
0.0
  0
LINE
  8
2
  6
CONTINUOUS
 62
     2
 10
1389.9
 20
714.0
 30
0.0
 11
1414.9
 21
714.0
 31
0.0
  0
LINE
  8
0
  6
CONTINUOUS
 62
     2
 10
1434.0
 20
768.5
 30
0.0
 11
1434.0
 21
626.5
 31
0.0
  0
LINE
  8
2
  6
CONTINUOUS
 62
     2
 10
1409.9
 20
565.5
 30
0.0
 11
1471.9
 21
565.5
 31
0.0
  0
LINE
  8
2
  6
CONTINUOUS
 62
     2
 10
1393.9
 20
504.5
 30
0.0
 11
1471.9
 21
504.5
 31
0.0
  0
TEXT
  8
0
  6
CONTINUOUS
 62
     2
 10
1381.9166945
 20
103.999995
 30
1.5
 40
17.5
  1
０７．１１．０７
 50
0.0
 41
0.571428571
 51
0.0
  7
KANJI80
  0
ENDSEC
  0
EOF
