  0
SECTION
  2
HEADER
  9
$ACADVER
  1
AC1009
  9
$DWGCODEPAGE
  3
dos932
  9
$EXTMIN
 10
0.0
 20
0.0
 30
0.0
  9
$EXTMAX
 10
2100.0
 20
1485.0
 30
0.0
  9
$LIMMIN
 10
0.0
 20
0.0
  9
$LIMMAX
 10
2100.0
 20
1485.0
  9
$LTSCALE
 40
1.0
  9
$PDMODE
 70
     0
  0
ENDSEC
  0
SECTION
  2
TABLES
  0
TABLE
  2
VPORT
 70
     1
  0
VPORT
  2
*ACTIVE
 70
     0
 10
0.0
 20
0.0
 11
1.0
 21
1.0
 12
1050.0
 22
742.5
 13
0.0
 23
0.0
 14
10.0
 24
10.0
 15
10.0
 25
10.0
 16
0.0
 26
0.0
 36
1.0
 17
0.0
 27
0.0
 37
0.0
 40
2100.0
 41
1.414141414
 42
50.0
 43
0.0
 44
0.0
 50
0.0
 51
0.0
 71
     0
 72
  1000
 73
     1
 74
     3
 75
     0
 76
     0
 77
     0
 78
     0
  0
ENDTAB
  0
TABLE
  2
LTYPE
 70
     7
  0
LTYPE
  2
CONTINUOUS
 70
    64
  3
Solid line
 72
    65
 73
     0
 40
0.0
  0
LTYPE
  2
LTYPE1
 70
    64
  3
HIDDEN
 72
    65
 73
     2
 40
15.0
 49
9.0
 49
-6.0
  0
LTYPE
  2
LTYPE2
 70
    64
  3
CENTER
 72
    65
 73
     4
 40
75.0
 49
52.5
 49
-7.5
 49
7.5
 49
-7.5
  0
LTYPE
  2
LTYPE3
 70
    64
  3
CENTER
 72
    65
 73
     4
 40
50.0
 49
35.0
 49
-5.0
 49
5.0
 49
-5.0
  0
LTYPE
  2
LTYPE4
 70
    64
  3
PHANTOM
 72
    65
 73
     6
 40
50.0
 49
37.5
 49
-2.5
 49
2.5
 49
-2.5
 49
2.5
 49
-2.5
  0
LTYPE
  2
LTYPE5
 70
    64
  3
PHANTOM
 72
    65
 73
     6
 40
75.0
 49
56.25
 49
-3.75
 49
3.75
 49
-3.75
 49
3.75
 49
-3.75
  0
LTYPE
  2
LTYPE6
 70
    64
  3
CENTER
 72
    65
 73
     4
 40
45.0
 49
31.5
 49
-4.5
 49
4.5
 49
-4.5
  0
ENDTAB
  0
TABLE
  2
LAYER
 70
   128
  0
LAYER
  2
0
 70
     0
 62
     7
  6
CONTINUOUS
  0
LAYER
  2
2
 70
     0
 62
     7
  6
CONTINUOUS
  0
LAYER
  2
3
 70
     0
 62
     7
  6
CONTINUOUS
  0
LAYER
  2
4
 70
     0
 62
     7
  6
CONTINUOUS
  0
LAYER
  2
5
 70
     0
 62
     7
  6
CONTINUOUS
  0
LAYER
  2
6
 70
     0
 62
     7
  6
CONTINUOUS
  0
LAYER
  2
7
 70
     0
 62
     7
  6
CONTINUOUS
  0
LAYER
  2
8
 70
     0
 62
     7
  6
CONTINUOUS
  0
LAYER
  2
9
 70
     0
 62
     7
  6
CONTINUOUS
  0
LAYER
  2
10
 70
     0
 62
     7
  6
CONTINUOUS
  0
LAYER
  2
11
 70
     0
 62
     7
  6
CONTINUOUS
  0
LAYER
  2
12
 70
     0
 62
     7
  6
CONTINUOUS
  0
LAYER
  2
13
 70
     0
 62
     7
  6
CONTINUOUS
  0
LAYER
  2
14
 70
     0
 62
     7
  6
CONTINUOUS
  0
LAYER
  2
15
 70
     0
 62
     7
  6
CONTINUOUS
  0
LAYER
  2
16
 70
     0
 62
     7
  6
CONTINUOUS
  0
LAYER
  2
17
 70
     0
 62
     7
  6
CONTINUOUS
  0
LAYER
  2
18
 70
     0
 62
     7
  6
CONTINUOUS
  0
LAYER
  2
19
 70
     0
 62
     7
  6
CONTINUOUS
  0
LAYER
  2
20
 70
     0
 62
     7
  6
CONTINUOUS
  0
LAYER
  2
21
 70
     0
 62
     7
  6
CONTINUOUS
  0
LAYER
  2
22
 70
     0
 62
     7
  6
CONTINUOUS
  0
LAYER
  2
23
 70
     0
 62
     7
  6
CONTINUOUS
  0
LAYER
  2
24
 70
     0
 62
     7
  6
CONTINUOUS
  0
LAYER
  2
25
 70
     0
 62
     7
  6
CONTINUOUS
  0
LAYER
  2
26
 70
     0
 62
     7
  6
CONTINUOUS
  0
LAYER
  2
27
 70
     0
 62
     7
  6
CONTINUOUS
  0
LAYER
  2
28
 70
     0
 62
     7
  6
CONTINUOUS
  0
LAYER
  2
29
 70
     0
 62
     7
  6
CONTINUOUS
  0
LAYER
  2
30
 70
     0
 62
     7
  6
CONTINUOUS
  0
LAYER
  2
31
 70
     0
 62
     7
  6
CONTINUOUS
  0
LAYER
  2
32
 70
     0
 62
     7
  6
CONTINUOUS
  0
LAYER
  2
33
 70
     0
 62
     7
  6
CONTINUOUS
  0
LAYER
  2
34
 70
     0
 62
     7
  6
CONTINUOUS
  0
LAYER
  2
35
 70
     0
 62
     7
  6
CONTINUOUS
  0
LAYER
  2
36
 70
     0
 62
     7
  6
CONTINUOUS
  0
LAYER
  2
37
 70
     0
 62
     7
  6
CONTINUOUS
  0
LAYER
  2
38
 70
     0
 62
     7
  6
CONTINUOUS
  0
LAYER
  2
39
 70
     0
 62
     7
  6
CONTINUOUS
  0
LAYER
  2
40
 70
     0
 62
     7
  6
CONTINUOUS
  0
LAYER
  2
41
 70
     0
 62
     7
  6
CONTINUOUS
  0
LAYER
  2
42
 70
     0
 62
     7
  6
CONTINUOUS
  0
LAYER
  2
43
 70
     0
 62
     7
  6
CONTINUOUS
  0
LAYER
  2
44
 70
     0
 62
     7
  6
CONTINUOUS
  0
LAYER
  2
45
 70
     0
 62
     7
  6
CONTINUOUS
  0
LAYER
  2
46
 70
     0
 62
     7
  6
CONTINUOUS
  0
LAYER
  2
47
 70
     0
 62
     7
  6
CONTINUOUS
  0
LAYER
  2
48
 70
     0
 62
     7
  6
CONTINUOUS
  0
LAYER
  2
49
 70
     0
 62
     7
  6
CONTINUOUS
  0
LAYER
  2
50
 70
     0
 62
     7
  6
CONTINUOUS
  0
LAYER
  2
51
 70
     0
 62
     7
  6
CONTINUOUS
  0
LAYER
  2
52
 70
     0
 62
     7
  6
CONTINUOUS
  0
LAYER
  2
53
 70
     0
 62
     7
  6
CONTINUOUS
  0
LAYER
  2
54
 70
     0
 62
     7
  6
CONTINUOUS
  0
LAYER
  2
55
 70
     0
 62
     7
  6
CONTINUOUS
  0
LAYER
  2
56
 70
     0
 62
     7
  6
CONTINUOUS
  0
LAYER
  2
57
 70
     0
 62
     7
  6
CONTINUOUS
  0
LAYER
  2
58
 70
     0
 62
     7
  6
CONTINUOUS
  0
LAYER
  2
59
 70
     0
 62
     7
  6
CONTINUOUS
  0
LAYER
  2
60
 70
     0
 62
     7
  6
CONTINUOUS
  0
LAYER
  2
61
 70
     0
 62
     7
  6
CONTINUOUS
  0
LAYER
  2
62
 70
     0
 62
     7
  6
CONTINUOUS
  0
LAYER
  2
63
 70
     0
 62
     7
  6
CONTINUOUS
  0
LAYER
  2
64
 70
     0
 62
     7
  6
CONTINUOUS
  0
LAYER
  2
65
 70
     0
 62
     7
  6
CONTINUOUS
  0
LAYER
  2
66
 70
     0
 62
     7
  6
CONTINUOUS
  0
LAYER
  2
67
 70
     0
 62
     7
  6
CONTINUOUS
  0
LAYER
  2
68
 70
     0
 62
     7
  6
CONTINUOUS
  0
LAYER
  2
69
 70
     0
 62
     7
  6
CONTINUOUS
  0
LAYER
  2
70
 70
     0
 62
     7
  6
CONTINUOUS
  0
LAYER
  2
71
 70
     0
 62
     7
  6
CONTINUOUS
  0
LAYER
  2
72
 70
     0
 62
     7
  6
CONTINUOUS
  0
LAYER
  2
73
 70
     0
 62
     7
  6
CONTINUOUS
  0
LAYER
  2
74
 70
     0
 62
     7
  6
CONTINUOUS
  0
LAYER
  2
75
 70
     0
 62
     7
  6
CONTINUOUS
  0
LAYER
  2
76
 70
     0
 62
     7
  6
CONTINUOUS
  0
LAYER
  2
77
 70
     0
 62
     7
  6
CONTINUOUS
  0
LAYER
  2
78
 70
     0
 62
     7
  6
CONTINUOUS
  0
LAYER
  2
79
 70
     0
 62
     7
  6
CONTINUOUS
  0
LAYER
  2
80
 70
     0
 62
     7
  6
CONTINUOUS
  0
LAYER
  2
81
 70
     0
 62
     7
  6
CONTINUOUS
  0
LAYER
  2
82
 70
     0
 62
     7
  6
CONTINUOUS
  0
LAYER
  2
83
 70
     0
 62
     7
  6
CONTINUOUS
  0
LAYER
  2
84
 70
     0
 62
     7
  6
CONTINUOUS
  0
LAYER
  2
85
 70
     0
 62
     7
  6
CONTINUOUS
  0
LAYER
  2
86
 70
     0
 62
     7
  6
CONTINUOUS
  0
LAYER
  2
87
 70
     0
 62
     7
  6
CONTINUOUS
  0
LAYER
  2
88
 70
     0
 62
     7
  6
CONTINUOUS
  0
LAYER
  2
89
 70
     0
 62
     7
  6
CONTINUOUS
  0
LAYER
  2
90
 70
     0
 62
     7
  6
CONTINUOUS
  0
LAYER
  2
91
 70
     0
 62
     7
  6
CONTINUOUS
  0
LAYER
  2
92
 70
     0
 62
     7
  6
CONTINUOUS
  0
LAYER
  2
93
 70
     0
 62
     7
  6
CONTINUOUS
  0
LAYER
  2
94
 70
     0
 62
     7
  6
CONTINUOUS
  0
LAYER
  2
95
 70
     0
 62
     7
  6
CONTINUOUS
  0
LAYER
  2
96
 70
     0
 62
     7
  6
CONTINUOUS
  0
LAYER
  2
97
 70
     0
 62
     7
  6
CONTINUOUS
  0
LAYER
  2
98
 70
     0
 62
     7
  6
CONTINUOUS
  0
LAYER
  2
99
 70
     0
 62
     7
  6
CONTINUOUS
  0
LAYER
  2
100
 70
     0
 62
     7
  6
CONTINUOUS
  0
LAYER
  2
101
 70
     0
 62
     7
  6
CONTINUOUS
  0
LAYER
  2
102
 70
     0
 62
     7
  6
CONTINUOUS
  0
LAYER
  2
103
 70
     0
 62
     7
  6
CONTINUOUS
  0
LAYER
  2
104
 70
     0
 62
     7
  6
CONTINUOUS
  0
LAYER
  2
105
 70
     0
 62
     7
  6
CONTINUOUS
  0
LAYER
  2
106
 70
     0
 62
     7
  6
CONTINUOUS
  0
LAYER
  2
107
 70
     0
 62
     7
  6
CONTINUOUS
  0
LAYER
  2
108
 70
     0
 62
     7
  6
CONTINUOUS
  0
LAYER
  2
109
 70
     0
 62
     7
  6
CONTINUOUS
  0
LAYER
  2
110
 70
     0
 62
     7
  6
CONTINUOUS
  0
LAYER
  2
111
 70
     0
 62
     7
  6
CONTINUOUS
  0
LAYER
  2
112
 70
     0
 62
     7
  6
CONTINUOUS
  0
LAYER
  2
113
 70
     0
 62
     7
  6
CONTINUOUS
  0
LAYER
  2
114
 70
     0
 62
     7
  6
CONTINUOUS
  0
LAYER
  2
115
 70
     0
 62
     7
  6
CONTINUOUS
  0
LAYER
  2
116
 70
     0
 62
     7
  6
CONTINUOUS
  0
LAYER
  2
117
 70
     0
 62
     7
  6
CONTINUOUS
  0
LAYER
  2
118
 70
     0
 62
     7
  6
CONTINUOUS
  0
LAYER
  2
119
 70
     0
 62
     7
  6
CONTINUOUS
  0
LAYER
  2
120
 70
     0
 62
     7
  6
CONTINUOUS
  0
LAYER
  2
121
 70
     0
 62
     7
  6
CONTINUOUS
  0
LAYER
  2
122
 70
     0
 62
     7
  6
CONTINUOUS
  0
LAYER
  2
123
 70
     0
 62
     7
  6
CONTINUOUS
  0
LAYER
  2
124
 70
     0
 62
     7
  6
CONTINUOUS
  0
LAYER
  2
125
 70
     0
 62
     7
  6
CONTINUOUS
  0
LAYER
  2
126
 70
     0
 62
     7
  6
CONTINUOUS
  0
LAYER
  2
127
 70
     0
 62
     7
  6
CONTINUOUS
  0
LAYER
  2
128
 70
     0
 62
     7
  6
CONTINUOUS
  0
ENDTAB
  0
TABLE
  2
STYLE
 70
    80
  0
STYLE
  2
STANDARD
 70
     0
 40
0.0
 41
1.0
 50
0.0
 71
     0
 42
0.2
  3
txt.shx
  4
extfont.shx
  0
STYLE
  2
KANJI0
 70
     0
 40
9.999997897
 41
0.6
 50
0.0
 71
     0
 42
9.999997897
  3
txt.shx
  4
extfont.shx
  0
STYLE
  2
KANJI1
 70
     0
 40
11.999997477
 41
0.9
 50
0.0
 71
     0
 42
11.999997477
  3
txt.shx
  4
extfont.shx
  0
STYLE
  2
KANJI2
 70
     0
 40
14.999996846
 41
0.9
 50
0.0
 71
     0
 42
14.999996846
  3
txt.shx
  4
extfont.shx
  0
STYLE
  2
KANJI3
 70
     0
 40
12.999999
 41
0.75
 50
0.0
 71
     0
 42
12.999999
  3
txt.shx
  4
extfont.shx
  0
STYLE
  2
KANJI4
 70
     0
 40
8.666666
 41
0.6
 50
0.0
 71
     0
 42
8.666666
  3
txt.shx
  4
extfont.shx
  0
STYLE
  2
KANJI5
 70
     0
 40
10.3999992
 41
0.6
 50
0.0
 71
     0
 42
10.3999992
  3
txt.shx
  4
extfont.shx
  0
STYLE
  2
KANJI6
 70
     0
 40
15.1666655
 41
0.42031746
 50
0.0
 71
     0
 42
15.1666655
  3
txt.shx
  4
extfont.shx
  0
STYLE
  2
KANJI7
 70
     0
 40
25.999998
 41
0.9
 50
0.0
 71
     0
 42
25.999998
  3
txt.shx
  4
extfont.shx
  0
STYLE
  2
KANJI8
 70
     0
 40
8.666666
 41
0.8
 50
0.0
 71
     0
 42
8.666666
  3
txt.shx
  4
extfont.shx
  0
STYLE
  2
KANJI9
 70
     0
 40
10.3999992
 41
0.8
 50
0.0
 71
     0
 42
10.3999992
  3
txt.shx
  4
extfont.shx
  0
STYLE
  2
KANJI10
 70
     0
 40
25.0
 41
1.0
 50
0.0
 71
     0
 42
25.0
  3
txt.shx
  4
extfont.shx
  0
STYLE
  2
KANJI11
 70
     0
 40
25.0
 41
1.0
 50
0.0
 71
     0
 42
25.0
  3
txt.shx
  4
extfont.shx
  0
STYLE
  2
KANJI12
 70
     0
 40
25.0
 41
0.8
 50
0.0
 71
     0
 42
25.0
  3
txt.shx
  4
extfont.shx
  0
STYLE
  2
KANJI13
 70
     0
 40
20.0
 41
1.0
 50
0.0
 71
     0
 42
20.0
  3
txt.shx
  4
extfont.shx
  0
STYLE
  2
KANJI14
 70
     0
 40
18.0
 41
1.111111111
 50
0.0
 71
     0
 42
18.0
  3
txt.shx
  4
extfont.shx
  0
STYLE
  2
KANJI15
 70
     0
 40
17.5
 41
0.857142857
 50
0.0
 71
     0
 42
17.5
  3
txt.shx
  4
extfont.shx
  0
STYLE
  2
KANJI16
 70
     0
 40
17.5
 41
0.9
 50
0.0
 71
     0
 42
17.5
  3
txt.shx
  4
extfont.shx
  0
STYLE
  2
KANJI17
 70
     0
 40
17.5
 41
0.9
 50
0.0
 71
     0
 42
17.5
  3
txt.shx
  4
extfont.shx
  0
STYLE
  2
KANJI18
 70
     0
 40
17.5
 41
0.9
 50
0.0
 71
     0
 42
17.5
  3
txt.shx
  4
extfont.shx
  0
STYLE
  2
KANJI19
 70
     0
 40
17.5
 41
0.9
 50
0.0
 71
     0
 42
17.5
  3
txt.shx
  4
extfont.shx
  0
STYLE
  2
KANJI20
 70
     0
 40
22.5
 41
0.9
 50
0.0
 71
     0
 42
22.5
  3
txt.shx
  4
extfont.shx
  0
STYLE
  2
KANJI21
 70
     0
 40
17.5
 41
0.9
 50
0.0
 71
     0
 42
17.5
  3
txt.shx
  4
extfont.shx
  0
STYLE
  2
KANJI22
 70
     0
 40
17.5
 41
0.9
 50
0.0
 71
     0
 42
17.5
  3
txt.shx
  4
extfont.shx
  0
STYLE
  2
KANJI23
 70
     0
 40
17.5
 41
0.9
 50
0.0
 71
     0
 42
17.5
  3
txt.shx
  4
extfont.shx
  0
STYLE
  2
KANJI24
 70
     0
 40
17.5
 41
0.9
 50
0.0
 71
     0
 42
17.5
  3
txt.shx
  4
extfont.shx
  0
STYLE
  2
KANJI25
 70
     0
 40
17.5
 41
0.9
 50
0.0
 71
     0
 42
17.5
  3
txt.shx
  4
extfont.shx
  0
STYLE
  2
KANJI26
 70
     4
 40
17.5
 41
0.9
 50
0.0
 71
     0
 42
17.5
  3
txt.shx
  4
extfont.shx
  0
STYLE
  2
KANJI27
 70
     4
 40
15.0
 41
0.9
 50
0.0
 71
     0
 42
15.0
  3
txt.shx
  4
extfont.shx
  0
STYLE
  2
KANJI28
 70
     0
 40
12.5
 41
0.8
 50
0.0
 71
     0
 42
12.5
  3
txt.shx
  4
extfont.shx
  0
STYLE
  2
KANJI29
 70
     0
 40
17.5
 41
0.9
 50
0.0
 71
     0
 42
17.5
  3
txt.shx
  4
extfont.shx
  0
STYLE
  2
KANJI30
 70
     0
 40
15.0
 41
0.9
 50
0.0
 71
     0
 42
15.0
  3
txt.shx
  4
extfont.shx
  0
STYLE
  2
KANJI31
 70
     0
 40
15.0
 41
0.857142857
 50
0.0
 71
     0
 42
15.0
  3
txt.shx
  4
extfont.shx
  0
STYLE
  2
KANJI32
 70
     0
 40
17.5
 41
0.9
 50
0.0
 71
     0
 42
17.5
  3
txt.shx
  4
extfont.shx
  0
STYLE
  2
KANJI33
 70
     0
 40
14.0
 41
0.9
 50
0.0
 71
     0
 42
14.0
  3
txt.shx
  4
extfont.shx
  0
STYLE
  2
KANJI34
 70
     0
 40
14.0
 41
0.785714286
 50
0.0
 71
     0
 42
14.0
  3
txt.shx
  4
extfont.shx
  0
STYLE
  2
KANJI35
 70
     0
 40
14.0
 41
0.8
 50
0.0
 71
     0
 42
14.0
  3
txt.shx
  4
extfont.shx
  0
STYLE
  2
KANJI36
 70
     0
 40
17.5
 41
0.9
 50
0.0
 71
     0
 42
17.5
  3
txt.shx
  4
extfont.shx
  0
STYLE
  2
KANJI37
 70
     0
 40
15.0
 41
0.8
 50
0.0
 71
     0
 42
15.0
  3
txt.shx
  4
extfont.shx
  0
STYLE
  2
KANJI38
 70
     0
 40
15.0
 41
0.9
 50
0.0
 71
     0
 42
15.0
  3
txt.shx
  4
extfont.shx
  0
STYLE
  2
KANJI39
 70
     0
 40
22.5
 41
0.666666667
 50
0.0
 71
     0
 42
22.5
  3
txt.shx
  4
extfont.shx
  0
STYLE
  2
KANJI40
 70
     0
 40
15.0
 41
1.0
 50
0.0
 71
     0
 42
15.0
  3
txt.shx
  4
extfont.shx
  0
STYLE
  2
KANJI41
 70
     0
 40
15.0
 41
0.833333333
 50
0.0
 71
     0
 42
15.0
  3
txt.shx
  4
extfont.shx
  0
STYLE
  2
KANJI42
 70
     0
 40
17.5
 41
0.9
 50
0.0
 71
     0
 42
17.5
  3
txt.shx
  4
extfont.shx
  0
STYLE
  2
KANJI43
 70
     0
 40
12.8
 41
0.9
 50
0.0
 71
     0
 42
12.8
  3
txt.shx
  4
extfont.shx
  0
STYLE
  2
KANJI44
 70
     0
 40
12.0
 41
0.9
 50
0.0
 71
     0
 42
12.0
  3
txt.shx
  4
extfont.shx
  0
STYLE
  2
KANJI45
 70
     0
 40
12.0
 41
0.9
 50
0.0
 71
     0
 42
12.0
  3
txt.shx
  4
extfont.shx
  0
STYLE
  2
KANJI46
 70
     0
 40
14.0
 41
0.9
 50
0.0
 71
     0
 42
14.0
  3
txt.shx
  4
extfont.shx
  0
STYLE
  2
KANJI47
 70
     0
 40
10.8
 41
0.740740741
 50
0.0
 71
     0
 42
10.8
  3
txt.shx
  4
extfont.shx
  0
STYLE
  2
KANJI48
 70
     0
 40
14.0
 41
0.857142857
 50
0.0
 71
     0
 42
14.0
  3
txt.shx
  4
extfont.shx
  0
STYLE
  2
KANJI49
 70
     0
 40
13.182
 41
0.85
 50
0.0
 71
     0
 42
13.182
  3
txt.shx
  4
extfont.shx
  0
STYLE
  2
KANJI50
 70
     0
 40
11.661
 41
0.822608696
 50
0.0
 71
     0
 42
11.661
  3
txt.shx
  4
extfont.shx
  0
STYLE
  2
KANJI51
 70
     0
 40
11.8638
 41
0.726495726
 50
0.0
 71
     0
 42
11.8638
  3
txt.shx
  4
extfont.shx
  0
STYLE
  2
KANJI52
 70
     4
 40
45.0
 41
0.538166667
 50
0.0
 71
     0
 42
45.0
  3
txt.shx
  4
extfont.shx
  0
STYLE
  2
KANJI53
 70
     0
 40
8.4
 41
0.9
 50
0.0
 71
     0
 42
8.4
  3
txt.shx
  4
extfont.shx
  0
STYLE
  2
KANJI54
 70
     0
 40
14.0
 41
0.857142857
 50
0.0
 71
     0
 42
14.0
  3
txt.shx
  4
extfont.shx
  0
STYLE
  2
KANJI55
 70
     0
 40
15.0
 41
0.833333333
 50
0.0
 71
     0
 42
15.0
  3
txt.shx
  4
extfont.shx
  0
STYLE
  2
KANJI56
 70
     0
 40
17.5
 41
0.793650794
 50
0.0
 71
     0
 42
17.5
  3
txt.shx
  4
extfont.shx
  0
STYLE
  2
KANJI57
 70
     0
 40
25.0
 41
0.8
 50
0.0
 71
     0
 42
25.0
  3
txt.shx
  4
extfont.shx
  0
STYLE
  2
KANJI58
 70
     0
 40
15.0
 41
0.9
 50
0.0
 71
     0
 42
15.0
  3
txt.shx
  4
extfont.shx
  0
STYLE
  2
KANJI59
 70
     0
 40
12.0
 41
0.833333333
 50
0.0
 71
     0
 42
12.0
  3
txt.shx
  4
extfont.shx
  0
STYLE
  2
KANJI60
 70
     0
 40
11.55
 41
0.9
 50
0.0
 71
     0
 42
11.55
  3
txt.shx
  4
extfont.shx
  0
STYLE
  2
KANJI61
 70
     0
 40
17.740702234
 41
0.880962996
 50
0.0
 71
     0
 42
17.740702234
  3
txt.shx
  4
extfont.shx
  0
STYLE
  2
KANJI62
 70
     0
 40
11.7
 41
0.8
 50
0.0
 71
     0
 42
11.7
  3
txt.shx
  4
extfont.shx
  0
STYLE
  2
KANJI63
 70
     0
 40
15.0
 41
0.911
 50
0.0
 71
     0
 42
15.0
  3
txt.shx
  4
extfont.shx
  0
STYLE
  2
KANJI64
 70
     0
 40
20.0
 41
0.9
 50
0.0
 71
     0
 42
20.0
  3
txt.shx
  4
extfont.shx
  0
STYLE
  2
KANJI65
 70
     0
 40
18.0
 41
0.857142857
 50
0.0
 71
     0
 42
18.0
  3
txt.shx
  4
extfont.shx
  0
STYLE
  2
KANJI66
 70
     0
 40
18.0
 41
0.857222222
 50
0.0
 71
     0
 42
18.0
  3
txt.shx
  4
extfont.shx
  0
STYLE
  2
KANJI67
 70
     0
 40
20.0
 41
0.925
 50
0.0
 71
     0
 42
20.0
  3
txt.shx
  4
extfont.shx
  0
STYLE
  2
KANJI68
 70
     0
 40
13.475
 41
0.9
 50
0.0
 71
     0
 42
13.475
  3
txt.shx
  4
extfont.shx
  0
STYLE
  2
KANJI69
 70
     0
 40
15.0
 41
0.9
 50
0.0
 71
     0
 42
15.0
  3
txt.shx
  4
extfont.shx
  0
STYLE
  2
KANJI70
 70
     0
 40
20.0
 41
0.925
 50
0.0
 71
     0
 42
20.0
  3
txt.shx
  4
extfont.shx
  0
STYLE
  2
KANJI71
 70
     0
 40
15.6
 41
0.925
 50
0.0
 71
     0
 42
15.6
  3
txt.shx
  4
extfont.shx
  0
STYLE
  2
KANJI72
 70
     0
 40
10.933904043
 41
0.9
 50
0.0
 71
     0
 42
10.933904043
  3
txt.shx
  4
extfont.shx
  0
STYLE
  2
KANJI73
 70
     0
 40
15.185977837
 41
0.66671875
 50
0.0
 71
     0
 42
15.185977837
  3
txt.shx
  4
extfont.shx
  0
STYLE
  2
KANJI74
 70
     0
 40
18.223173404
 41
0.9
 50
0.0
 71
     0
 42
18.223173404
  3
txt.shx
  4
extfont.shx
  0
STYLE
  2
KANJI75
 70
     0
 40
14.578538724
 41
0.9
 50
0.0
 71
     0
 42
14.578538724
  3
txt.shx
  4
extfont.shx
  0
STYLE
  2
KANJI76
 70
     0
 40
15.0
 41
0.9
 50
0.0
 71
     0
 42
15.0
  3
txt.shx
  4
extfont.shx
  0
STYLE
  2
KANJI77
 70
     0
 40
16.0
 41
0.925
 50
0.0
 71
     0
 42
16.0
  3
txt.shx
  4
extfont.shx
  0
STYLE
  2
KANJI78
 70
     0
 40
17.5
 41
0.571428571
 50
0.0
 71
     0
 42
17.5
  3
txt.shx
  4
extfont.shx
  0
ENDTAB
  0
TABLE
  2
VIEW
 70
     0
  0
ENDTAB
  0
ENDSEC
  0
SECTION
  2
BLOCKS
  0
ENDSEC
  0
SECTION
  2
ENTITIES
  0
LINE
  8
0
  6
CONTINUOUS
 62
     6
 10
77.25
 20
62.0
 30
0.0
 11
77.25
 21
1407.0
 31
0.0
  0
LINE
  8
0
  6
CONTINUOUS
 62
     6
 10
77.25
 20
1407.0
 30
0.0
 11
2012.25
 21
1407.0
 31
0.0
  0
TEXT
  8
0
  6
CONTINUOUS
 62
     4
 10
92.249996846
 20
86.999994744
 30
0.99999979
 40
9.999997897
  1
ＰＡＲＴＳ　ＬＩＳＴ
 50
0.0
 41
0.6
 51
0.0
  7
KANJI0
  0
TEXT
  8
0
  6
CONTINUOUS
 62
     4
 10
92.249996846
 20
71.999997897
 30
1.199999748
 40
11.999997477
  1
部品表
 50
0.0
 41
0.9
 51
0.0
  7
KANJI1
  0
LINE
  8
0
  6
CONTINUOUS
 62
     6
 10
2012.25
 20
62.0
 30
0.0
 11
77.25
 21
62.0
 31
0.0
  0
LINE
  8
0
  6
CONTINUOUS
 62
     6
 10
82.249998949
 20
136.999984231
 30
0.0
 11
407.249930615
 21
136.999984231
 31
0.0
  0
LINE
  8
0
  6
CONTINUOUS
 62
     6
 10
82.249998949
 20
66.999998949
 30
0.0
 11
407.249930615
 21
66.999998949
 31
0.0
  0
LINE
  8
0
  6
CONTINUOUS
 62
     6
 10
82.249998949
 20
66.999998949
 30
0.0
 11
82.249998949
 21
136.999984231
 31
0.0
  0
LINE
  8
0
  6
CONTINUOUS
 62
     6
 10
82.249998949
 20
101.99999159
 30
0.0
 11
407.249930615
 21
101.99999159
 31
0.0
  0
TEXT
  8
0
  6
CONTINUOUS
 62
     2
 10
92.249996846
 20
111.999989487
 30
1.499999685
 40
14.999996846
  1
ＰＬ
 50
0.0
 41
0.9
 51
0.0
  7
KANJI2
  0
LINE
  8
0
  6
CONTINUOUS
 62
     4
 10
20.333333
 20
66.333333
 30
0.0
 11
72.333329
 21
66.333333
 31
0.0
  0
LINE
  8
0
  6
CONTINUOUS
 62
     4
 10
20.333333
 20
92.333331
 30
0.0
 11
72.333329
 21
92.333331
 31
0.0
  0
LINE
  8
0
  6
CONTINUOUS
 62
     4
 10
20.333333
 20
118.333329
 30
0.0
 11
72.333329
 21
118.333329
 31
0.0
  0
LINE
  8
0
  6
CONTINUOUS
 62
     4
 10
20.333333
 20
144.333327
 30
0.0
 11
72.333329
 21
144.333327
 31
0.0
  0
LINE
  8
0
  6
CONTINUOUS
 62
     4
 10
20.333333
 20
170.333325
 30
0.0
 11
72.333329
 21
170.333325
 31
0.0
  0
LINE
  8
0
  6
CONTINUOUS
 62
     4
 10
20.333333
 20
196.333323
 30
0.0
 11
72.333329
 21
196.333323
 31
0.0
  0
LINE
  8
0
  6
CONTINUOUS
 62
     4
 10
20.333333
 20
222.333321
 30
0.0
 11
72.333329
 21
222.333321
 31
0.0
  0
LINE
  8
0
  6
CONTINUOUS
 62
     4
 10
20.333333
 20
248.333319
 30
0.0
 11
72.333329
 21
248.333319
 31
0.0
  0
LINE
  8
0
  6
CONTINUOUS
 62
     4
 10
20.333333
 20
274.333317
 30
0.0
 11
72.333329
 21
274.333317
 31
0.0
  0
LINE
  8
0
  6
CONTINUOUS
 62
     4
 10
20.333333
 20
300.333315
 30
0.0
 11
72.333329
 21
300.333315
 31
0.0
  0
LINE
  8
0
  6
CONTINUOUS
 62
     4
 10
72.333329
 20
66.333333
 30
0.0
 11
72.333329
 21
300.333315
 31
0.0
  0
LINE
  8
0
  6
CONTINUOUS
 62
     4
 10
46.333331
 20
66.333333
 30
0.0
 11
46.333331
 21
274.333317
 31
0.0
  0
TEXT
  8
0
  6
CONTINUOUS
 62
     4
 10
29.21666565
 20
73.91666575
 30
1.2999999
 40
12.999999
  1
計
 50
0.0
 41
0.75
 51
0.0
  7
KANJI3
  0
TEXT
  8
0
  6
CONTINUOUS
 62
     4
 10
29.21666565
 20
126.34999505
 30
1.2999999
 40
12.999999
  1
設
 50
0.0
 41
0.75
 51
0.0
  7
KANJI3
  0
TEXT
  8
0
  6
CONTINUOUS
 62
     4
 10
29.21666565
 20
151.91665975
 30
1.2999999
 40
12.999999
  1
管
 50
0.0
 41
0.75
 51
0.0
  7
KANJI3
  0
TEXT
  8
0
  6
CONTINUOUS
 62
     4
 10
29.21666565
 20
177.91665775
 30
1.2999999
 40
12.999999
  1
製
 50
0.0
 41
0.75
 51
0.0
  7
KANJI3
  0
TEXT
  8
0
  6
CONTINUOUS
 62
     4
 10
29.21666565
 20
203.91665575
 30
1.2999999
 40
12.999999
  1
資
 50
0.0
 41
0.75
 51
0.0
  7
KANJI3
  0
TEXT
  8
0
  6
CONTINUOUS
 62
     4
 10
29.21666565
 20
229.91665375
 30
1.2999999
 40
12.999999
  1
営
 50
0.0
 41
0.75
 51
0.0
  7
KANJI3
  0
TEXT
  8
0
  6
CONTINUOUS
 62
     4
 10
29.21666565
 20
255.91665175
 30
1.2999999
 40
12.999999
  1
客
 50
0.0
 41
0.75
 51
0.0
  7
KANJI3
  0
TEXT
  8
0
  6
CONTINUOUS
 62
     4
 10
28.999999
 20
282.999983
 30
1.2999999
 40
12.999999
  1
出　図
 50
0.0
 41
0.75
 51
0.0
  7
KANJI3
  0
LINE
  8
0
  6
CONTINUOUS
 62
     4
 10
20.333333
 20
66.333333
 30
0.0
 11
20.333333
 21
300.333315
 31
0.0
  0
TEXT
  8
0
  6
CONTINUOUS
 62
     4
 10
317.249949538
 20
86.999994744
 30
0.99999979
 40
9.999997897
  1
Ｎ０．
 50
0.0
 41
0.6
 51
0.0
  7
KANJI0
  0
TEXT
  8
0
  6
CONTINUOUS
 62
     4
 10
317.249949538
 20
71.999997897
 30
1.199999748
 40
11.999997477
  1
項番
 50
0.0
 41
0.9
 51
0.0
  7
KANJI1
  0
LINE
  8
0
  6
CONTINUOUS
 62
     6
 10
407.249930615
 20
66.999998949
 30
0.0
 11
407.249930615
 21
136.999984231
 31
0.0
  0
LINE
  8
0
  6
CONTINUOUS
 62
     6
 10
307.249951641
 20
66.999998949
 30
0.0
 11
307.249951641
 21
136.999984231
 31
0.0
  0
LINE
  8
0
  6
CONTINUOUS
 62
     4
 10
1340.583385
 20
100.999997
 30
0.0
 11
1498.7500395
 21
100.999997
 31
0.0
  0
TEXT
  8
0
  6
CONTINUOUS
 62
     4
 10
1349.250051
 20
85.8333315
 30
0.8666666
 40
8.666666
  1
ＳＣＡＬＥ
 50
0.0
 41
0.6
 51
0.0
  7
KANJI4
  0
TEXT
  8
0
  6
CONTINUOUS
 62
     4
 10
1349.250051
 20
120.4999955
 30
0.8666666
 40
8.666666
  1
ＤＡＴＥ
 50
0.0
 41
0.6
 51
0.0
  7
KANJI4
  0
TEXT
  8
0
  6
CONTINUOUS
 62
     4
 10
1349.250051
 20
72.8333325
 30
1.03999992
 40
10.3999992
  1
尺度
 50
0.0
 41
0.6
 51
0.0
  7
KANJI5
  0
TEXT
  8
0
  6
CONTINUOUS
 62
     4
 10
1349.250051
 20
107.4999965
 30
1.03999992
 40
10.3999992
  1
日付
 50
0.0
 41
0.6
 51
0.0
  7
KANJI5
  0
TEXT
  8
0
  6
CONTINUOUS
 62
     4
 10
1108.7500695
 20
85.8333315
 30
0.8666666
 40
8.666666
  1
ＢＹ
 50
0.0
 41
0.6
 51
0.0
  7
KANJI4
  0
TEXT
  8
0
  6
CONTINUOUS
 62
     4
 10
1204.0833955
 20
85.8333315
 30
0.8666666
 40
8.666666
  1
ＤＥＳＣＲＩＰＴＩＯＮ
 50
0.0
 41
0.6
 51
0.0
  7
KANJI4
  0
TEXT
  8
0
  6
CONTINUOUS
 62
     4
 10
1108.7500695
 20
72.8333325
 30
1.03999992
 40
10.3999992
  1
担当
 50
0.0
 41
0.6
 51
0.0
  7
KANJI5
  0
TEXT
  8
0
  6
CONTINUOUS
 62
     4
 10
1217.0833945
 20
72.8333325
 30
1.03999992
 40
10.3999992
  1
記　　　　事
 50
0.0
 41
0.6
 51
0.0
  7
KANJI5
  0
LINE
  8
0
  6
CONTINUOUS
 62
     4
 10
1016.66674325
 20
94.4999975
 30
0.0
 11
1002.583411
 21
72.8333325
 31
0.0
  0
TEXT
  8
0
  6
CONTINUOUS
 62
     4
 10
1052.4167405
 20
85.8333315
 30
0.8666666
 40
8.666666
  1
ＤＡＴＥ
 50
0.0
 41
0.6
 51
0.0
  7
KANJI4
  0
TEXT
  8
0
  6
CONTINUOUS
 62
     4
 10
1058.91674
 20
72.8333325
 30
1.03999992
 40
10.3999992
  1
日付
 50
0.0
 41
0.6
 51
0.0
  7
KANJI5
  0
LINE
  8
0
  6
CONTINUOUS
 62
     4
 10
1002.583411
 20
72.8333325
 30
0.0
 11
1030.7500755
 21
72.8333325
 31
0.0
  0
LINE
  8
0
  6
CONTINUOUS
 62
     4
 10
1016.66674325
 20
94.4999975
 30
0.0
 11
1030.7500755
 21
72.8333325
 31
0.0
  0
LINE
  8
0
  6
CONTINUOUS
 62
     4
 10
1498.7500395
 20
120.4999955
 30
0.0
 11
2007.916667
 21
120.4999955
 31
0.0
  0
LINE
  8
0
  6
LTYPE1
 62
     4
 10
1862.7500115
 20
126.999995
 30
0.0
 11
1862.7500115
 21
161.666659
 31
0.0
  0
LINE
  8
0
  6
LTYPE1
 62
     4
 10
1832.4166805
 20
126.999995
 30
0.0
 11
1832.4166805
 21
161.666659
 31
0.0
  0
LINE
  8
0
  6
LTYPE1
 62
     4
 10
1802.0833495
 20
126.999995
 30
0.0
 11
1802.0833495
 21
161.666659
 31
0.0
  0
LINE
  8
0
  6
LTYPE1
 62
     4
 10
1771.7500185
 20
126.999995
 30
0.0
 11
1771.7500185
 21
161.666659
 31
0.0
  0
LINE
  8
0
  6
LTYPE1
 62
     4
 10
1741.4166875
 20
126.999995
 30
0.0
 11
1741.4166875
 21
161.666659
 31
0.0
  0
LINE
  8
0
  6
LTYPE1
 62
     4
 10
1711.0833565
 20
126.999995
 30
0.0
 11
1711.0833565
 21
161.666659
 31
0.0
  0
LINE
  8
0
  6
LTYPE1
 62
     4
 10
1680.7500255
 20
126.999995
 30
0.0
 11
1680.7500255
 21
161.666659
 31
0.0
  0
LINE
  8
0
  6
LTYPE1
 62
     4
 10
1650.4166945
 20
126.999995
 30
0.0
 11
1650.4166945
 21
161.666659
 31
0.0
  0
LINE
  8
0
  6
LTYPE1
 62
     4
 10
1650.4166945
 20
126.999995
 30
0.0
 11
1862.7500115
 21
126.999995
 31
0.0
  0
LINE
  8
0
  6
CONTINUOUS
 62
     6
 10
2012.25
 20
1407.0
 30
0.0
 11
2012.25
 21
62.0
 31
0.0
  0
LINE
  8
0
  6
CONTINUOUS
 62
     6
 10
998.250078
 20
100.999997
 30
0.0
 11
1340.583385
 21
100.999997
 31
0.0
  0
LINE
  8
0
  6
CONTINUOUS
 62
     6
 10
998.250078
 20
66.333333
 30
0.0
 11
2007.916667
 21
66.333333
 31
0.0
  0
TEXT
  8
0
  6
CONTINUOUS
 62
     6
 10
1503.0833725
 20
85.8333315
 30
0.0
 40
15.1666655
  1
ＵＮＩＴＥＣ　ＩＮＤＵＳＴＲＹ　ＣＯ．，ＬＴＤ．
 50
0.0
 41
0.42031746
 51
0.0
  7
KANJI6
  0
TEXT
  8
0
  6
CONTINUOUS
 62
     6
 10
1715.795856138
 20
80.1999986
 30
2.5999998
 40
25.999998
  1
ユニテック工業株式会社
 50
0.0
 41
0.9
 51
0.0
  7
KANJI7
  0
LINE
  8
0
  6
CONTINUOUS
 62
     6
 10
998.250078
 20
66.333333
 30
0.0
 11
998.250078
 21
100.999997
 31
0.0
  0
LINE
  8
0
  6
CONTINUOUS
 62
     4
 10
1035.0834085
 20
66.333333
 30
0.0
 11
1035.0834085
 21
100.999997
 31
0.0
  0
LINE
  8
0
  6
CONTINUOUS
 62
     4
 10
1095.7500705
 20
66.333333
 30
0.0
 11
1095.7500705
 21
100.999997
 31
0.0
  0
LINE
  8
0
  6
CONTINUOUS
 62
     4
 10
1134.7500675
 20
66.333333
 30
0.0
 11
1134.7500675
 21
100.999997
 31
0.0
  0
LINE
  8
0
  6
CONTINUOUS
 62
     6
 10
1340.583385
 20
66.333333
 30
0.0
 11
1340.583385
 21
343.666645
 31
0.0
  0
LINE
  8
0
  6
CONTINUOUS
 62
     6
 10
2007.916667
 20
66.333333
 30
0.0
 11
2007.916667
 21
343.666645
 31
0.0
  0
LINE
  8
0
  6
CONTINUOUS
 62
     4
 10
1498.7500395
 20
66.333333
 30
0.0
 11
1498.7500395
 21
343.666645
 31
0.0
  0
LINE
  8
0
  6
CONTINUOUS
 62
     6
 10
1681.129192138
 20
89.2999979
 30
0.0
 11
1669.689193018
 21
89.2999979
 31
0.0
  0
LINE
  8
0
  6
CONTINUOUS
 62
     6
 10
1681.129192138
 20
91.37999774
 30
0.0
 11
1669.689193018
 21
91.37999774
 31
0.0
  0
LINE
  8
0
  6
CONTINUOUS
 62
     6
 10
1681.129192138
 20
89.2999979
 30
0.0
 11
1692.569191258
 21
89.2999979
 31
0.0
  0
LINE
  8
0
  6
CONTINUOUS
 62
     6
 10
1681.129192138
 20
91.37999774
 30
0.0
 11
1692.569191258
 21
91.37999774
 31
0.0
  0
LINE
  8
0
  6
CONTINUOUS
 62
     6
 10
1692.569191258
 20
91.37999774
 30
0.0
 11
1692.569191258
 21
89.2999979
 31
0.0
  0
ARC
  8
0
  6
CONTINUOUS
 62
     6
 10
1695.169191058
 20
90.33999782
 30
0.0
 40
10.3999992
 50
185.739170477
 51
90.0
  0
ARC
  8
0
  6
CONTINUOUS
 62
     6
 10
1695.169191058
 20
90.33999782
 30
0.0
 40
12.47999904
 50
184.780191847
 51
90.0
  0
LINE
  8
0
  6
CONTINUOUS
 62
     6
 10
1669.689193018
 20
89.2999979
 30
0.0
 11
1669.689193018
 21
91.37999774
 31
0.0
  0
LINE
  8
0
  6
CONTINUOUS
 62
     6
 10
1679.569192258
 20
102.81999686
 30
0.0
 11
1667.089193218
 21
102.81999686
 31
0.0
  0
LINE
  8
0
  6
CONTINUOUS
 62
     6
 10
1682.689192018
 20
102.81999686
 30
0.0
 11
1695.169191058
 21
102.81999686
 31
0.0
  0
ARC
  8
0
  6
CONTINUOUS
 62
     6
 10
1667.089193218
 20
90.33999782
 30
0.0
 40
10.3999992
 50
90.0
 51
354.260829523
  0
ARC
  8
0
  6
CONTINUOUS
 62
     6
 10
1667.089193218
 20
90.33999782
 30
0.0
 40
12.47999904
 50
90.0
 51
355.219808153
  0
LINE
  8
0
  6
CONTINUOUS
 62
     6
 10
1679.569192258
 20
102.81999686
 30
0.0
 11
1679.569192258
 21
100.73999702
 31
0.0
  0
LINE
  8
0
  6
CONTINUOUS
 62
     6
 10
1667.089193218
 20
100.73999702
 30
0.0
 11
1679.569192258
 21
100.73999702
 31
0.0
  0
LINE
  8
0
  6
CONTINUOUS
 62
     6
 10
1682.689192018
 20
102.81999686
 30
0.0
 11
1682.689192018
 21
100.73999702
 31
0.0
  0
LINE
  8
0
  6
CONTINUOUS
 62
     6
 10
1695.169191058
 20
100.73999702
 30
0.0
 11
1682.689192018
 21
100.73999702
 31
0.0
  0
TEXT
  8
0
  6
CONTINUOUS
 62
     4
 10
1349.250051
 20
155.1666595
 30
0.8666666
 40
8.666666
  1
ＤＲＡＷＮ
 50
0.0
 41
0.6
 51
0.0
  7
KANJI4
  0
TEXT
  8
0
  6
CONTINUOUS
 62
     4
 10
1349.250051
 20
189.8333235
 30
0.8666666
 40
8.666666
  1
ＤＥＳＩＧＮ
 50
0.0
 41
0.6
 51
0.0
  7
KANJI4
  0
TEXT
  8
0
  6
CONTINUOUS
 62
     4
 10
1349.250051
 20
224.4999875
 30
0.8666666
 40
8.666666
  1
ＣＨＥＣＫ
 50
0.0
 41
0.6
 51
0.0
  7
KANJI4
  0
TEXT
  8
0
  6
CONTINUOUS
 62
     4
 10
1349.250051
 20
259.1666515
 30
0.8666666
 40
8.666666
  1
ＣＯＤＥ
 50
0.0
 41
0.6
 51
0.0
  7
KANJI4
  0
LINE
  8
0
  6
CONTINUOUS
 62
     4
 10
1340.583385
 20
204.999989
 30
0.0
 11
1498.7500395
 21
204.999989
 31
0.0
  0
LINE
  8
0
  6
CONTINUOUS
 62
     4
 10
1340.583385
 20
170.333325
 30
0.0
 11
1498.7500395
 21
170.333325
 31
0.0
  0
LINE
  8
0
  6
CONTINUOUS
 62
     4
 10
1340.583385
 20
239.666653
 30
0.0
 11
1498.7500395
 21
239.666653
 31
0.0
  0
LINE
  8
0
  6
CONTINUOUS
 62
     4
 10
1340.583385
 20
274.333317
 30
0.0
 11
2007.916667
 21
274.333317
 31
0.0
  0
TEXT
  8
0
  6
CONTINUOUS
 62
     4
 10
1349.250051
 20
176.8333245
 30
1.03999992
 40
10.3999992
  1
設計
 50
0.0
 41
0.6
 51
0.0
  7
KANJI5
  0
TEXT
  8
0
  6
CONTINUOUS
 62
     4
 10
1349.250051
 20
211.4999885
 30
1.03999992
 40
10.3999992
  1
検図
 50
0.0
 41
0.6
 51
0.0
  7
KANJI5
  0
TEXT
  8
0
  6
CONTINUOUS
 62
     4
 10
1349.250051
 20
246.1666525
 30
1.03999992
 40
10.3999992
  1
分類
 50
0.0
 41
0.6
 51
0.0
  7
KANJI5
  0
LINE
  8
0
  6
CONTINUOUS
 62
     4
 10
1511.53337185
 20
239.666653
 30
0.0
 11
2007.916667
 21
239.666653
 31
0.0
  0
LINE
  8
0
  6
CONTINUOUS
 62
     4
 10
1498.7500395
 20
170.333325
 30
0.0
 11
2007.916667
 21
170.333325
 31
0.0
  0
TEXT
  8
0
  6
CONTINUOUS
 62
     4
 10
1507.4167055
 20
155.1666595
 30
0.8666666
 40
8.666666
  1
ＤＲＡＷＩＮＧ　ＮＯ．
 50
0.0
 41
0.8
 51
0.0
  7
KANJI8
  0
TEXT
  8
0
  6
CONTINUOUS
 62
     4
 10
1507.4167055
 20
189.8333235
 30
0.8666666
 40
8.666666
  1
ＭＦＧ　ＮＯ．
 50
0.0
 41
0.8
 51
0.0
  7
KANJI8
  0
TEXT
  8
0
  6
CONTINUOUS
 62
     4
 10
1507.4167055
 20
224.4999875
 30
0.8666666
 40
8.666666
  1
ＴＹＰＥ
 50
0.0
 41
0.8
 51
0.0
  7
KANJI8
  0
LINE
  8
0
  6
CONTINUOUS
 62
     4
 10
1511.7500385
 20
204.999989
 30
0.0
 11
1711.0833565
 21
204.999989
 31
0.0
  0
TEXT
  8
0
  6
CONTINUOUS
 62
     4
 10
1507.4167055
 20
139.999994
 30
1.03999992
 40
10.3999992
  1
図　面　番　号
 50
0.0
 41
0.8
 51
0.0
  7
KANJI9
  0
TEXT
  8
0
  6
CONTINUOUS
 62
     4
 10
1507.4167055
 20
174.666658
 30
1.03999992
 40
10.3999992
  1
製番
 50
0.0
 41
0.8
 51
0.0
  7
KANJI9
  0
TEXT
  8
0
  6
CONTINUOUS
 62
     4
 10
1507.4167055
 20
209.333322
 30
1.03999992
 40
10.3999992
  1
機種
 50
0.0
 41
0.8
 51
0.0
  7
KANJI9
  0
LINE
  8
0
  6
CONTINUOUS
 62
     4
 10
1340.583385
 20
135.666661
 30
0.0
 11
1498.7500395
 21
135.666661
 31
0.0
  0
TEXT
  8
0
  6
CONTINUOUS
 62
     4
 10
1349.250051
 20
142.1666605
 30
1.03999992
 40
10.3999992
  1
作図
 50
0.0
 41
0.6
 51
0.0
  7
KANJI5
  0
LINE
  8
0
  6
LTYPE1
 62
     4
 10
1650.4166945
 20
161.666659
 30
0.0
 11
1862.7500115
 21
161.666659
 31
0.0
  0
LINE
  8
0
  6
CONTINUOUS
 62
     4
 10
1880.0833435
 20
145.41666025
 30
0.0
 11
1888.7500095
 21
145.41666025
 31
0.0
  0
LINE
  8
0
  6
CONTINUOUS
 62
     4
 10
1934.250006
 20
132.41666125
 30
0.0
 11
1903.916675
 21
132.41666125
 31
0.0
  0
LINE
  8
0
  6
CONTINUOUS
 62
     4
 10
1903.916675
 20
132.41666125
 30
0.0
 11
1919.0833405
 21
158.41665925
 31
0.0
  0
LINE
  8
0
  6
CONTINUOUS
 62
     4
 10
1919.0833405
 20
158.41665925
 30
0.0
 11
1934.250006
 21
132.41666125
 31
0.0
  0
LINE
  8
0
  6
CONTINUOUS
 62
     4
 10
2007.916667
 20
308.999981
 30
0.0
 11
2007.916667
 21
343.666645
 31
0.0
  0
TEXT
  8
0
  6
CONTINUOUS
 62
     4
 10
1724.0833555
 20
224.4999875
 30
0.8666666
 40
8.666666
  1
ＴＩＴＬＥ
 50
0.0
 41
0.8
 51
0.0
  7
KANJI8
  0
TEXT
  8
0
  6
CONTINUOUS
 62
     4
 10
1724.0833555
 20
209.333322
 30
1.03999992
 40
10.3999992
  1
名称
 50
0.0
 41
0.8
 51
0.0
  7
KANJI9
  0
TEXT
  8
0
  6
CONTINUOUS
 62
     2
 10
1794.75
 20
177.0
 30
12.5
 40
25.0
  1
外形寸法図
 50
0.0
 41
1.0
 51
0.0
  7
KANJI10
  0
TEXT
  8
0
  6
CONTINUOUS
 62
     2
 10
1764.75
 20
207.0
 30
3.571428571
 40
25.0
  1
マイティシリンダ
 50
0.0
 41
1.0
 51
0.0
  7
KANJI11
  0
TEXT
  8
0
  6
CONTINUOUS
 62
     2
 10
1624.1666945
 20
131.999995
 30
1.5
 40
25.0
  1
Ａ
 50
0.0
 41
0.8
 51
0.0
  7
KANJI12
  0
CIRCLE
  8
0
  6
CONTINUOUS
 62
     2
 10
1591.6666945
 20
185.749995
 30
0.0
 40
12.5
  0
TEXT
  8
0
  6
CONTINUOUS
 62
     2
 10
1582.2916945
 20
176.374995
 30
1.5
 40
20.0
  1
Ｓ
 50
0.0
 41
1.0
 51
0.0
  7
KANJI13
  0
LINE
  8
0
  6
CONTINUOUS
 62
     6
 10
1341.208385
 20
308.999981
 30
0.0
 11
2008.541667
 21
308.999981
 31
0.0
  0
LINE
  8
0
  6
CONTINUOUS
 62
     6
 10
1340.583385
 20
343.666645
 30
0.0
 11
2007.916667
 21
343.666645
 31
0.0
  0
TEXT
  8
0
  6
CONTINUOUS
 62
     4
 10
1356.0
 20
314.166664
 30
5.0
 40
18.0
  1
ご用途
 50
0.0
 41
1.111111111
 51
0.0
  7
KANJI14
  0
TEXT
  8
0
  6
CONTINUOUS
 62
     4
 10
1356.0
 20
279.5
 30
5.0
 40
18.0
  1
ご注文主
 50
0.0
 41
1.111111111
 51
0.0
  7
KANJI14
  0
TEXT
  8
0
  6
CONTINUOUS
 62
     2
 10
1396.4166945
 20
144.499995
 30
5.0
 40
17.5
  1
岡田
 50
0.0
 41
0.857142857
 51
0.0
  7
KANJI15
  0
TEXT
  8
0
  6
CONTINUOUS
 62
     2
 10
1612.25
 20
1248.5
 30
138.5
 40
17.5
  1
形式
 50
0.0
 41
0.9
 51
0.0
  7
KANJI16
  0
TEXT
  8
0
  6
CONTINUOUS
 62
     2
 10
1612.25
 20
1213.5
 30
138.5
 40
17.5
  1
推力
 50
0.0
 41
0.9
 51
0.0
  7
KANJI16
  0
TEXT
  8
0
  6
CONTINUOUS
 62
     2
 10
1612.25
 20
1073.5
 30
138.5
 40
17.5
  1
構造
 50
0.0
 41
0.9
 51
0.0
  7
KANJI16
  0
TEXT
  8
0
  6
CONTINUOUS
 62
     2
 10
1612.25
 20
653.5
 30
138.5
 40
17.5
  1
台数
 50
0.0
 41
0.9
 51
0.0
  7
KANJI16
  0
TEXT
  8
0
  6
CONTINUOUS
 62
     2
 10
1612.25
 20
688.5
 30
61.375
 40
17.5
  1
付属品
 50
0.0
 41
0.9
 51
0.0
  7
KANJI17
  0
TEXT
  8
0
  6
CONTINUOUS
 62
     2
 10
1612.25
 20
1003.5
 30
61.375
 40
17.5
  1
塗装色
 50
0.0
 41
0.9
 51
0.0
  7
KANJI17
  0
TEXT
  8
0
  6
CONTINUOUS
 62
     2
 10
1612.25
 20
1178.5
 30
22.8125
 40
17.5
  1
ストローク
 50
0.0
 41
0.9
 51
0.0
  7
KANJI18
  0
TEXT
  8
0
  6
CONTINUOUS
 62
     2
 10
1612.25
 20
1038.5
 30
9.958
 40
17.5
  1
過負荷安全装置
 50
0.0
 41
0.9
 51
0.0
  7
KANJI19
  0
TEXT
  8
0
  6
CONTINUOUS
 62
     2
 10
1637.25
 20
1288.0
 30
14.2497
 40
22.5
  1
マイティシリンダ仕様
 50
0.0
 41
0.9
 51
0.0
  7
KANJI20
  0
TEXT
  8
0
  6
CONTINUOUS
 62
     2
 10
1637.25
 20
968.5
 30
15.3125
 40
17.5
  1
出力　極数
 50
0.0
 41
0.9
 51
0.0
  7
KANJI21
  0
TEXT
  8
0
  6
CONTINUOUS
 62
     2
 10
1637.25
 20
933.5
 30
25.6665
 40
17.5
  1
電源電圧
 50
0.0
 41
0.9
 51
0.0
  7
KANJI22
  0
TEXT
  8
0
  6
CONTINUOUS
 62
     2
 10
1637.25
 20
898.5
 30
46.375
 40
17.5
  1
周波数
 50
0.0
 41
0.9
 51
0.0
  7
KANJI23
  0
TEXT
  8
0
  6
CONTINUOUS
 62
     2
 10
1637.25
 20
828.5
 30
46.375
 40
17.5
  1
絶縁級
 50
0.0
 41
0.9
 51
0.0
  7
KANJI23
  0
TEXT
  8
0
  6
CONTINUOUS
 62
     2
 10
1637.25
 20
863.5
 30
108.5
 40
17.5
  1
電流
 50
0.0
 41
0.9
 51
0.0
  7
KANJI24
  0
TEXT
  8
0
  6
CONTINUOUS
 62
     2
 10
1637.25
 20
758.5
 30
108.5
 40
17.5
  1
形式
 50
0.0
 41
0.9
 51
0.0
  7
KANJI24
  0
TEXT
  8
0
  6
CONTINUOUS
 62
     2
 10
1637.25
 20
723.5
 30
25.6665
 40
17.5
  1
操作方式
 50
0.0
 41
0.9
 51
0.0
  7
KANJI22
  0
TEXT
  8
0
  6
CONTINUOUS
 62
     2
 10
1597.25
 20
1108.5
 30
1.5
 40
17.5
  1
ピストンロッド回転トルク
 50
0.0
 41
0.9
 51
0.0
  7
KANJI25
  0
TEXT
  8
0
  6
CONTINUOUS
 62
     2
 10
1595.125
 20
972.0
 30
11.0
 40
17.5
  1
モ　トル仕様
 50
0.0
 41
0.9
 51
0.0
  7
KANJI26
  0
TEXT
  8
0
  6
CONTINUOUS
 62
     2
 10
1594.0
 20
782.0
 30
0.857142857
 40
15.0
  1
ブレ　キ
 50
0.0
 41
0.9
 51
0.0
  7
KANJI27
  0
LINE
  8
0
  6
CONTINUOUS
 62
     2
 10
1593.75
 20
747.5
 30
0.0
 11
1593.75
 21
737.0
 31
0.0
  0
LINE
  8
0
  6
CONTINUOUS
 62
     2
 10
1593.75
 20
944.0
 30
0.0
 11
1593.75
 21
932.5
 31
0.0
  0
TEXT
  8
0
  6
CONTINUOUS
 62
     2
 10
1949.75
 20
1147.0
 30
0.1
 40
12.5
  1
ｍｍ／ｓｅｃ
 50
0.0
 41
0.8
 51
0.0
  7
KANJI28
  0
TEXT
  8
0
  6
CONTINUOUS
 62
     2
 10
1987.25
 20
1180.5
 30
0.1
 40
12.5
  1
ｍｍ
 50
0.0
 41
0.8
 51
0.0
  7
KANJI28
  0
TEXT
  8
0
  6
CONTINUOUS
 62
     2
 10
1861.75
 20
1038.5
 30
7.1
 40
17.5
  1
推力リミッタ
 50
0.0
 41
0.9
 51
0.0
  7
KANJI29
  0
TEXT
  8
0
  6
CONTINUOUS
 62
     2
 10
1994.25
 20
968.5
 30
10.982142857
 40
15.0
  1
Ｐ
 50
0.0
 41
0.9
 51
0.0
  7
KANJI30
  0
TEXT
  8
0
  6
CONTINUOUS
 62
     2
 10
1911.25
 20
968.5
 30
1.0
 40
15.0
  1
ＫＷ
 50
0.0
 41
0.857142857
 51
0.0
  7
KANJI31
  0
TEXT
  8
0
  6
CONTINUOUS
 62
     2
 10
1969.25
 20
968.5
 30
12.8125
 40
17.5
  1
４
 50
0.0
 41
0.9
 51
0.0
  7
KANJI32
  0
TEXT
  8
0
  6
CONTINUOUS
 62
     2
 10
1833.75
 20
1005.0
 30
0.5
 40
14.0
  1
マンセル
 50
0.0
 41
0.9
 51
0.0
  7
KANJI33
  0
TEXT
  8
0
  6
CONTINUOUS
 62
     2
 10
1892.25
 20
1006.0
 30
0.2
 40
14.0
  1
７．５ＧＹ５／４．５
 50
0.0
 41
0.785714286
 51
0.0
  7
KANJI34
  0
TEXT
  8
0
  6
CONTINUOUS
 62
     2
 10
1829.75
 20
759.0
 30
1.5
 40
14.0
  1
スプリング制動式電磁ブレーキ
 50
0.0
 41
0.8
 51
0.0
  7
KANJI35
  0
TEXT
  8
0
  6
CONTINUOUS
 62
     2
 10
1864.75
 20
723.5
 30
10.0
 40
17.5
  1
同時切り
 50
0.0
 41
0.9
 51
0.0
  7
KANJI36
  0
TEXT
  8
0
  6
CONTINUOUS
 62
     2
 10
1994.75
 20
933.5
 30
0.18
 40
15.0
  1
Ｖ
 50
0.0
 41
0.8
 51
0.0
  7
KANJI37
  0
TEXT
  8
0
  6
CONTINUOUS
 62
     2
 10
1985.75
 20
898.5
 30
0.18
 40
15.0
  1
Ｈｚ
 50
0.0
 41
0.8
 51
0.0
  7
KANJI37
  0
TEXT
  8
0
  6
CONTINUOUS
 62
     2
 10
1995.875
 20
864.625
 30
1.5
 40
15.0
  1
Ａ
 50
0.0
 41
0.9
 51
0.0
  7
KANJI38
  0
TEXT
  8
0
  6
CONTINUOUS
 62
     2
 10
1917.125
 20
830.875
 30
1.5
 40
15.0
  1
Ｅ
 50
0.0
 41
0.9
 51
0.0
  7
KANJI38
  0
LINE
  8
0
  6
CONTINUOUS
 62
     2
 10
1574.75
 20
714.5
 30
0.0
 11
2012.25
 21
714.5
 31
0.0
  0
LINE
  8
0
  6
CONTINUOUS
 62
     2
 10
1824.75
 20
1274.5
 30
0.0
 11
1824.75
 21
644.5
 31
0.0
  0
LINE
  8
0
  6
CONTINUOUS
 62
     2
 10
1574.75
 20
994.5
 30
0.0
 11
2012.25
 21
994.5
 31
0.0
  0
LINE
  8
0
  6
CONTINUOUS
 62
     2
 10
1574.75
 20
784.5
 30
0.0
 11
2012.25
 21
784.5
 31
0.0
  0
LINE
  8
0
  6
CONTINUOUS
 62
     2
 10
1614.75
 20
749.5
 30
0.0
 11
2012.25
 21
749.5
 31
0.0
  0
LINE
  8
0
  6
CONTINUOUS
 62
     2
 10
1614.75
 20
819.5
 30
0.0
 11
2012.25
 21
819.5
 31
0.0
  0
LINE
  8
0
  6
CONTINUOUS
 62
     2
 10
1614.75
 20
854.5
 30
0.0
 11
2012.25
 21
854.5
 31
0.0
  0
LINE
  8
0
  6
CONTINUOUS
 62
     2
 10
1614.75
 20
924.5
 30
0.0
 11
2012.25
 21
924.5
 31
0.0
  0
LINE
  8
0
  6
CONTINUOUS
 62
     2
 10
1614.75
 20
889.5
 30
0.0
 11
2012.25
 21
889.5
 31
0.0
  0
LINE
  8
0
  6
CONTINUOUS
 62
     2
 10
1614.75
 20
959.5
 30
0.0
 11
2012.25
 21
959.5
 31
0.0
  0
LINE
  8
0
  6
CONTINUOUS
 62
     2
 10
1574.75
 20
1274.5
 30
0.0
 11
2012.25
 21
1274.5
 31
0.0
  0
LINE
  8
0
  6
CONTINUOUS
 62
     2
 10
1574.75
 20
1239.5
 30
0.0
 11
2012.25
 21
1239.5
 31
0.0
  0
LINE
  8
0
  6
CONTINUOUS
 62
     2
 10
1574.75
 20
1204.5
 30
0.0
 11
2012.25
 21
1204.5
 31
0.0
  0
LINE
  8
0
  6
CONTINUOUS
 62
     2
 10
1574.75
 20
1169.5
 30
0.0
 11
2012.25
 21
1169.5
 31
0.0
  0
LINE
  8
0
  6
CONTINUOUS
 62
     2
 10
1574.75
 20
1134.5
 30
0.0
 11
2012.25
 21
1134.5
 31
0.0
  0
LINE
  8
0
  6
CONTINUOUS
 62
     2
 10
1574.75
 20
1099.5
 30
0.0
 11
2012.25
 21
1099.5
 31
0.0
  0
LINE
  8
0
  6
CONTINUOUS
 62
     2
 10
1574.75
 20
1064.5
 30
0.0
 11
2012.25
 21
1064.5
 31
0.0
  0
LINE
  8
0
  6
CONTINUOUS
 62
     2
 10
1574.75
 20
1029.5
 30
0.0
 11
2012.25
 21
1029.5
 31
0.0
  0
LINE
  8
0
  6
CONTINUOUS
 62
     2
 10
1614.75
 20
994.5
 30
0.0
 11
1614.75
 21
714.5
 31
0.0
  0
LINE
  8
0
  6
CONTINUOUS
 62
     1
 10
1574.75
 20
1324.5
 30
0.0
 11
2012.25
 21
1324.5
 31
0.0
  0
LINE
  8
0
  6
CONTINUOUS
 62
     1
 10
1574.75
 20
1324.5
 30
0.0
 11
1574.75
 21
644.5
 31
0.0
  0
LINE
  8
0
  6
CONTINUOUS
 62
     1
 10
1574.75
 20
644.5
 30
0.0
 11
2012.25
 21
644.5
 31
0.0
  0
LINE
  8
0
  6
CONTINUOUS
 62
     2
 10
1574.75
 20
679.5
 30
0.0
 11
2012.25
 21
679.5
 31
0.0
  0
TEXT
  8
0
  6
CONTINUOUS
 62
     2
 10
1842.125
 20
1143.375
 30
1.5
 40
15.0
  1
　２５／３０
 50
0.0
 41
0.9
 51
0.0
  7
KANJI38
  0
TEXT
  8
0
  6
CONTINUOUS
 62
     2
 10
1872.75
 20
934.0
 30
1.5
 40
15.0
  1
　　　／　
 50
0.0
 41
0.9
 51
0.0
  7
KANJI38
  0
TEXT
  8
0
  6
CONTINUOUS
 62
     2
 10
1887.125
 20
898.375
 30
1.5
 40
15.0
  1
　５０／６０
 50
0.0
 41
0.9
 51
0.0
  7
KANJI38
  0
TEXT
  8
0
  6
CONTINUOUS
 62
     2
 10
1861.75
 20
1074.0
 30
12.8125
 40
17.5
  1
全閉屋外形
 50
0.0
 41
0.9
 51
0.0
  7
KANJI32
  0
TEXT
  8
0
  6
CONTINUOUS
 62
     2
 10
1853.375
 20
969.625
 30
1.5
 40
15.0
  1
０．３
 50
0.0
 41
0.9
 51
0.0
  7
KANJI38
  0
TEXT
  8
0
  6
CONTINUOUS
 62
     2
 10
1432.25
 20
72.0
 30
1.5
 40
22.5
  1
１／５
 50
0.0
 41
0.666666667
 51
0.0
  7
KANJI39
  0
TEXT
  8
0
  6
CONTINUOUS
 62
     2
 10
134.75
 20
29.5
 30
1.5
 40
15.0
  1
ＦＤ　Ｎｏ．ＭＣ１８５
 50
0.0
 41
1.0
 51
0.0
  7
KANJI40
  0
TEXT
  8
0
  6
CONTINUOUS
 62
     2
 10
1854.25
 20
1213.5
 30
1.5
 40
15.0
  1
９８０Ｎ（１００ｋｇ）
 50
0.0
 41
0.9
 51
0.0
  7
KANJI38
  0
TEXT
  8
0
  6
CONTINUOUS
 62
     2
 10
1832.875
 20
1108.375
 30
0.0
 40
15.0
  1
２．９Ｎ．ｍ（０．３ｋｇ．ｍ）
 50
0.0
 41
0.833333333
 51
0.0
  7
KANJI41
  0
TEXT
  8
0
  6
CONTINUOUS
 62
     2
 10
1612.25
 20
1143.5
 30
5.0
 40
17.5
  1
公称速度（５０／６０Ｈｚ）
 50
0.0
 41
0.9
 51
0.0
  7
KANJI42
  0
LINE
  8
0
  6
CONTINUOUS
 62
     1
 10
858.25
 20
1244.95
 30
0.0
 11
1506.25
 21
1244.95
 31
0.0
  0
LINE
  8
0
  6
CONTINUOUS
 62
     1
 10
858.25
 20
1216.95
 30
0.0
 11
1506.25
 21
1216.95
 31
0.0
  0
TEXT
  8
0
  6
CONTINUOUS
 62
     2
 10
898.25
 20
1224.95
 30
1.28
 40
12.8
  1
形
 50
0.0
 41
0.9
 51
0.0
  7
KANJI43
  0
TEXT
  8
0
  6
CONTINUOUS
 62
     2
 10
976.25
 20
1224.95
 30
1.28
 40
12.8
  1
式
 50
0.0
 41
0.9
 51
0.0
  7
KANJI43
  0
TEXT
  8
0
  6
CONTINUOUS
 62
     2
 10
1036.65
 20
1224.15
 30
1.2
 40
12.0
  1
ストローク
 50
0.0
 41
0.9
 51
0.0
  7
KANJI44
  0
TEXT
  8
0
  6
CONTINUOUS
 62
     2
 10
1113.45
 20
1223.35
 30
0.0
 40
12.0
  1
ｍｉｎ　
 50
0.0
 41
0.9
 51
0.0
  7
KANJI45
  0
TEXT
  8
0
  6
CONTINUOUS
 62
     2
 10
1193.45
 20
1223.35
 30
0.0
 40
12.0
  1
ｍｉｎ　
 50
0.0
 41
0.9
 51
0.0
  7
KANJI45
  0
TEXT
  8
0
  6
CONTINUOUS
 62
     2
 10
1353.45
 20
1223.35
 30
0.0
 40
12.0
  1
ｍｉｎ　
 50
0.0
 41
0.9
 51
0.0
  7
KANJI45
  0
TEXT
  8
0
  6
CONTINUOUS
 62
     2
 10
1154.25
 20
1224.15
 30
1.4
 40
14.0
  1
ＡＬ
 50
0.0
 41
0.9
 51
0.0
  7
KANJI46
  0
TEXT
  8
0
  6
CONTINUOUS
 62
     2
 10
1234.25
 20
1224.15
 30
1.4
 40
14.0
  1
Ｌ
 50
0.0
 41
0.9
 51
0.0
  7
KANJI46
  0
TEXT
  8
0
  6
CONTINUOUS
 62
     2
 10
1302.25
 20
1224.15
 30
1.4
 40
14.0
  1
Ｃ
 50
0.0
 41
0.9
 51
0.0
  7
KANJI46
  0
TEXT
  8
0
  6
CONTINUOUS
 62
     2
 10
1394.25
 20
1224.15
 30
1.4
 40
14.0
  1
Ｐ
 50
0.0
 41
0.9
 51
0.0
  7
KANJI46
  0
TEXT
  8
0
  6
CONTINUOUS
 62
     2
 10
1476.55
 20
1223.85
 30
0.0
 40
10.8
  1
（ｋｇ）
 50
0.0
 41
0.740740741
 51
0.0
  7
KANJI47
  0
TEXT
  8
0
  6
CONTINUOUS
 62
     2
 10
1428.55
 20
1223.65
 30
1.2
 40
14.0
  1
概算重量
 50
0.0
 41
0.857142857
 51
0.0
  7
KANJI48
  0
TEXT
  8
0
  6
CONTINUOUS
 62
     2
 10
1044.25
 20
1195.65
 30
1.2
 40
12.0
  1
　１００
 50
0.0
 41
0.9
 51
0.0
  7
KANJI44
  0
TEXT
  8
0
  6
CONTINUOUS
 62
     2
 10
1044.25
 20
1167.65
 30
1.2
 40
12.0
  1
　２００
 50
0.0
 41
0.9
 51
0.0
  7
KANJI44
  0
TEXT
  8
0
  6
CONTINUOUS
 62
     2
 10
1044.25
 20
1139.65
 30
1.2
 40
12.0
  1
　３００
 50
0.0
 41
0.9
 51
0.0
  7
KANJI44
  0
TEXT
  8
0
  6
CONTINUOUS
 62
     2
 10
1284.25
 20
1195.65
 30
1.2
 40
12.0
  1
　２３８
 50
0.0
 41
0.9
 51
0.0
  7
KANJI44
  0
TEXT
  8
0
  6
CONTINUOUS
 62
     2
 10
1284.25
 20
1167.65
 30
1.2
 40
12.0
  1
　３３８
 50
0.0
 41
0.9
 51
0.0
  7
KANJI44
  0
TEXT
  8
0
  6
CONTINUOUS
 62
     2
 10
1284.25
 20
1139.65
 30
1.2
 40
12.0
  1
　４３８
 50
0.0
 41
0.9
 51
0.0
  7
KANJI44
  0
TEXT
  8
0
  6
CONTINUOUS
 62
     2
 10
1364.25
 20
1139.65
 30
1.2
 40
12.0
  1
　　３５
 50
0.0
 41
0.9
 51
0.0
  7
KANJI44
  0
TEXT
  8
0
  6
CONTINUOUS
 62
     2
 10
1364.25
 20
1167.65
 30
1.2
 40
12.0
  1
　　３５
 50
0.0
 41
0.9
 51
0.0
  7
KANJI44
  0
TEXT
  8
0
  6
CONTINUOUS
 62
     2
 10
1364.25
 20
1195.65
 30
1.2
 40
12.0
  1
　　３５
 50
0.0
 41
0.9
 51
0.0
  7
KANJI44
  0
TEXT
  8
0
  6
CONTINUOUS
 62
     2
 10
1044.25
 20
1027.65
 30
1.2
 40
12.0
  1
　７００
 50
0.0
 41
0.9
 51
0.0
  7
KANJI44
  0
TEXT
  8
0
  6
CONTINUOUS
 62
     2
 10
1284.25
 20
1027.65
 30
1.2
 40
12.0
  1
　８７８
 50
0.0
 41
0.9
 51
0.0
  7
KANJI44
  0
TEXT
  8
0
  6
CONTINUOUS
 62
     2
 10
1044.25
 20
1083.65
 30
1.2
 40
12.0
  1
　５００
 50
0.0
 41
0.9
 51
0.0
  7
KANJI44
  0
TEXT
  8
0
  6
CONTINUOUS
 62
     2
 10
1284.25
 20
1083.65
 30
1.2
 40
12.0
  1
　６３８
 50
0.0
 41
0.9
 51
0.0
  7
KANJI44
  0
TEXT
  8
0
  6
CONTINUOUS
 62
     2
 10
1044.25
 20
1111.65
 30
1.2
 40
12.0
  1
　４００
 50
0.0
 41
0.9
 51
0.0
  7
KANJI44
  0
TEXT
  8
0
  6
CONTINUOUS
 62
     2
 10
1044.25
 20
1055.65
 30
1.2
 40
12.0
  1
　６００
 50
0.0
 41
0.9
 51
0.0
  7
KANJI44
  0
TEXT
  8
0
  6
CONTINUOUS
 62
     2
 10
1284.25
 20
1111.65
 30
1.2
 40
12.0
  1
　５３８
 50
0.0
 41
0.9
 51
0.0
  7
KANJI44
  0
TEXT
  8
0
  6
CONTINUOUS
 62
     2
 10
1284.25
 20
1055.65
 30
1.2
 40
12.0
  1
　７７８
 50
0.0
 41
0.9
 51
0.0
  7
KANJI44
  0
TEXT
  8
0
  6
CONTINUOUS
 62
     2
 10
1124.25
 20
1195.65
 30
1.2
 40
12.0
  1
　６５１
 50
0.0
 41
0.9
 51
0.0
  7
KANJI44
  0
TEXT
  8
0
  6
CONTINUOUS
 62
     2
 10
1124.25
 20
1167.65
 30
1.2
 40
12.0
  1
　７５１
 50
0.0
 41
0.9
 51
0.0
  7
KANJI44
  0
TEXT
  8
0
  6
CONTINUOUS
 62
     2
 10
1124.25
 20
1139.65
 30
1.2
 40
12.0
  1
　８５１
 50
0.0
 41
0.9
 51
0.0
  7
KANJI44
  0
LINE
  8
0
  6
CONTINUOUS
 62
     6
 10
350.959425053
 20
1352.747759827
 30
0.0
 11
118.914646507
 21
1352.747759827
 31
0.0
  0
LINE
  8
0
  6
CONTINUOUS
 62
     3
 10
350.959425053
 20
1325.285259827
 30
0.0
 11
118.914646507
 21
1325.285259827
 31
0.0
  0
LINE
  8
0
  6
CONTINUOUS
 62
     6
 10
350.959425053
 20
1325.285259827
 30
0.0
 11
118.914646507
 21
1325.285259827
 31
0.0
  0
TEXT
  8
0
  6
CONTINUOUS
 62
     6
 10
376.542228
 20
1350.200410728
 30
1.232517
 40
13.182
  1
電気定格　　　
 50
0.0
 41
0.85
 51
0.0
  7
KANJI49
  0
TEXT
  8
0
  6
CONTINUOUS
 62
     6
 10
122.823517202
 20
1355.94592676
 30
1.0647
 40
11.661
  1
ＬＳ０１　　　：推力リミッタ（前進時過負荷用）
 50
0.0
 41
0.822608696
 51
0.0
  7
KANJI50
  0
TEXT
  8
0
  6
CONTINUOUS
 62
     6
 10
122.823517202
 20
1328.48342676
 30
1.0647
 40
11.661
  1
ＬＳ０２　　　：推力リミッタ（後進時過負荷用）
 50
0.0
 41
0.822608696
 51
0.0
  7
KANJI50
  0
TEXT
  8
0
  6
CONTINUOUS
 62
     6
 10
389.343715102
 20
1319.626958599
 30
0.0
 40
11.8638
  1
ＤＣ１２５Ｖ　０．６Ａ　，ＤＣ２５０Ｖ　０．３Ａ　
 50
0.0
 41
0.726495726
 51
0.0
  7
KANJI51
  0
LINE
  8
0
  6
LTYPE2
 62
     6
 10
649.35
 20
1380.2
 30
0.0
 11
100.95
 21
1380.2
 31
0.0
  0
TEXT
  8
0
  6
CONTINUOUS
 62
     6
 10
384.087132178
 20
1367.961726126
 30
0.0
 40
45.0
  1
｝
 50
0.0
 41
0.538166667
 51
0.0
  7
KANJI52
  0
LINE
  8
0
  6
LTYPE2
 62
     6
 10
649.35
 20
1121.2
 30
0.0
 11
649.35
 21
1380.2
 31
0.0
  0
LINE
  8
0
  6
LTYPE2
 62
     6
 10
100.95
 20
1121.2
 30
0.0
 11
649.35
 21
1121.2
 31
0.0
  0
LINE
  8
0
  6
LTYPE2
 62
     6
 10
100.95
 20
1380.2
 30
0.0
 11
100.95
 21
1121.2
 31
0.0
  0
LINE
  8
0
  6
CONTINUOUS
 62
     1
 10
897.0
 20
509.75
 30
0.0
 11
897.0
 21
541.5
 31
0.0
  0
LINE
  8
0
  6
CONTINUOUS
 62
     1
 10
1040.0
 20
524.5
 30
0.0
 11
1040.0
 21
541.5
 31
0.0
  0
LINE
  8
0
  6
CONTINUOUS
 62
     1
 10
1037.0
 20
521.5
 30
0.0
 11
1040.0
 21
524.5
 31
0.0
  0
LINE
  8
0
  6
CONTINUOUS
 62
     1
 10
927.0
 20
573.25
 30
0.0
 11
927.0
 21
541.5
 31
0.0
  0
LINE
  8
0
  6
CONTINUOUS
 62
     1
 10
1040.0
 20
558.5
 30
0.0
 11
1040.0
 21
541.5
 31
0.0
  0
LINE
  8
0
  6
CONTINUOUS
 62
     1
 10
1037.0
 20
561.5
 30
0.0
 11
1040.0
 21
558.5
 31
0.0
  0
CIRCLE
  8
0
  6
CONTINUOUS
 62
     1
 10
1022.0
 20
541.5
 30
0.0
 40
8.0
  0
LINE
  8
0
  6
LTYPE1
 62
     1
 10
997.0
 20
521.5
 30
0.0
 11
997.0
 21
541.5
 31
0.0
  0
LINE
  8
0
  6
LTYPE1
 62
     1
 10
997.0
 20
561.5
 30
0.0
 11
997.0
 21
541.5
 31
0.0
  0
LINE
  8
0
  6
CONTINUOUS
 62
     1
 10
1030.0
 20
311.5
 30
0.0
 11
1030.0
 21
303.5
 31
0.0
  0
LINE
  8
0
  6
CONTINUOUS
 62
     1
 10
1014.0
 20
303.5
 30
0.0
 11
1014.0
 21
311.5
 31
0.0
  0
LINE
  8
0
  6
CONTINUOUS
 62
     1
 10
1040.0
 20
303.5
 30
0.0
 11
1040.0
 21
291.5
 31
0.0
  0
LINE
  8
0
  6
CONTINUOUS
 62
     1
 10
1030.0
 20
280.5
 30
0.0
 11
1014.0
 21
280.5
 31
0.0
  0
LINE
  8
0
  6
CONTINUOUS
 62
     1
 10
987.0
 20
291.5
 30
0.0
 11
1040.0
 21
291.5
 31
0.0
  0
LINE
  8
0
  6
CONTINUOUS
 62
     1
 10
997.0
 20
311.5
 30
0.0
 11
997.0
 21
303.5
 31
0.0
  0
LINE
  8
0
  6
CONTINUOUS
 62
     1
 10
997.0
 20
303.5
 30
0.0
 11
1040.0
 21
303.5
 31
0.0
  0
LINE
  8
0
  6
CONTINUOUS
 62
     1
 10
1030.0
 20
311.5
 30
0.0
 11
1030.0
 21
319.5
 31
0.0
  0
LINE
  8
0
  6
CONTINUOUS
 62
     1
 10
1014.0
 20
319.5
 30
0.0
 11
1014.0
 21
311.5
 31
0.0
  0
LINE
  8
0
  6
CONTINUOUS
 62
     1
 10
1040.0
 20
319.5
 30
0.0
 11
1040.0
 21
331.5
 31
0.0
  0
LINE
  8
0
  6
CONTINUOUS
 62
     1
 10
1030.0
 20
342.5
 30
0.0
 11
1014.0
 21
342.5
 31
0.0
  0
LINE
  8
0
  6
CONTINUOUS
 62
     1
 10
987.0
 20
331.5
 30
0.0
 11
1040.0
 21
331.5
 31
0.0
  0
LINE
  8
0
  6
CONTINUOUS
 62
     1
 10
997.0
 20
311.5
 30
0.0
 11
997.0
 21
319.5
 31
0.0
  0
LINE
  8
0
  6
CONTINUOUS
 62
     1
 10
997.0
 20
319.5
 30
0.0
 11
1040.0
 21
319.5
 31
0.0
  0
LINE
  8
0
  6
CONTINUOUS
 62
     1
 10
877.0
 20
575.25
 30
0.0
 11
897.0
 21
575.25
 31
0.0
  0
LINE
  8
0
  6
CONTINUOUS
 62
     1
 10
897.0
 20
575.25
 30
0.0
 11
901.155575539
 21
590.758819045
 31
0.0
  0
ARC
  8
0
  6
CONTINUOUS
 62
     1
 10
902.121501365
 20
590.5
 30
0.0
 40
1.0
 50
90.0
 51
165.0
  0
ARC
  8
0
  6
CONTINUOUS
 62
     1
 10
902.121501365
 20
590.5
 30
0.0
 40
1.0
 50
15.0
 51
90.0
  0
LINE
  8
0
  6
CONTINUOUS
 62
     1
 10
905.369721439
 20
582.241180955
 30
0.0
 11
903.087427191
 21
590.758819045
 31
0.0
  0
ARC
  8
0
  6
CONTINUOUS
 62
     1
 10
906.335647265
 20
582.5
 30
0.0
 40
1.0
 50
195.0
 51
270.0
  0
ARC
  8
0
  6
CONTINUOUS
 62
     1
 10
910.549793166
 20
590.5
 30
0.0
 40
1.0
 50
90.0
 51
165.0
  0
LINE
  8
0
  6
CONTINUOUS
 62
     1
 10
907.301573092
 20
582.241180955
 30
0.0
 11
909.583867339
 21
590.758819045
 31
0.0
  0
ARC
  8
0
  6
CONTINUOUS
 62
     1
 10
906.335647265
 20
582.5
 30
0.0
 40
1.0
 50
270.0
 51
345.0
  0
ARC
  8
0
  6
CONTINUOUS
 62
     1
 10
910.549814745
 20
590.5
 30
0.0
 40
1.0
 50
15.0
 51
90.0
  0
LINE
  8
0
  6
CONTINUOUS
 62
     1
 10
913.798034819
 20
582.241180955
 30
0.0
 11
911.515740571
 21
590.758819045
 31
0.0
  0
ARC
  8
0
  6
CONTINUOUS
 62
     1
 10
914.763960645
 20
582.5
 30
0.0
 40
1.0
 50
195.0
 51
270.0
  0
LINE
  8
0
  6
CONTINUOUS
 62
     1
 10
747.0
 20
501.5
 30
0.0
 11
747.0
 21
581.5
 31
0.0
  0
LINE
  8
0
  6
CONTINUOUS
 62
     1
 10
880.0
 20
577.25
 30
0.0
 11
894.0
 21
577.25
 31
0.0
  0
LINE
  8
0
  6
CONTINUOUS
 62
     1
 10
877.0
 20
507.75
 30
0.0
 11
877.0
 21
541.5
 31
0.0
  0
LINE
  8
0
  6
CONTINUOUS
 62
     1
 10
897.0
 20
507.75
 30
0.0
 11
897.0
 21
541.5
 31
0.0
  0
LINE
  8
0
  6
CONTINUOUS
 62
     1
 10
897.0
 20
507.75
 30
0.0
 11
901.155575539
 21
492.241180955
 31
0.0
  0
ARC
  8
0
  6
CONTINUOUS
 62
     1
 10
902.121501365
 20
492.5
 30
0.0
 40
1.0
 50
195.0
 51
270.0
  0
ARC
  8
0
  6
CONTINUOUS
 62
     1
 10
902.121501365
 20
492.5
 30
0.0
 40
1.0
 50
270.0
 51
345.0
  0
LINE
  8
0
  6
CONTINUOUS
 62
     1
 10
905.369721439
 20
500.758819045
 30
0.0
 11
903.087427191
 21
492.241180955
 31
0.0
  0
ARC
  8
0
  6
CONTINUOUS
 62
     1
 10
906.335647265
 20
500.5
 30
0.0
 40
1.0
 50
90.0
 51
165.0
  0
ARC
  8
0
  6
CONTINUOUS
 62
     1
 10
910.549793166
 20
492.5
 30
0.0
 40
1.0
 50
195.0
 51
270.0
  0
LINE
  8
0
  6
CONTINUOUS
 62
     1
 10
907.301573092
 20
500.758819045
 30
0.0
 11
909.583867339
 21
492.241180955
 31
0.0
  0
ARC
  8
0
  6
CONTINUOUS
 62
     1
 10
906.335647265
 20
500.5
 30
0.0
 40
1.0
 50
15.0
 51
90.0
  0
ARC
  8
0
  6
CONTINUOUS
 62
     1
 10
910.549814745
 20
492.5
 30
0.0
 40
1.0
 50
270.0
 51
345.0
  0
LINE
  8
0
  6
CONTINUOUS
 62
     1
 10
913.798034819
 20
500.758819045
 30
0.0
 11
911.515740571
 21
492.241180955
 31
0.0
  0
ARC
  8
0
  6
CONTINUOUS
 62
     1
 10
914.763960645
 20
500.5
 30
0.0
 40
1.0
 50
90.0
 51
165.0
  0
LINE
  8
0
  6
CONTINUOUS
 62
     1
 10
880.0
 20
505.75
 30
0.0
 11
880.0
 21
541.5
 31
0.0
  0
LINE
  8
0
  6
CONTINUOUS
 62
     1
 10
880.0
 20
505.75
 30
0.0
 11
894.0
 21
505.75
 31
0.0
  0
LINE
  8
0
  6
CONTINUOUS
 62
     1
 10
894.0
 20
505.75
 30
0.0
 11
894.0
 21
541.5
 31
0.0
  0
LINE
  8
0
  6
CONTINUOUS
 62
     1
 10
877.0
 20
575.25
 30
0.0
 11
877.0
 21
573.25
 31
0.0
  0
LINE
  8
0
  6
CONTINUOUS
 62
     1
 10
897.0
 20
575.25
 30
0.0
 11
897.0
 21
573.25
 31
0.0
  0
LINE
  8
0
  6
CONTINUOUS
 62
     1
 10
894.0
 20
577.25
 30
0.0
 11
894.0
 21
575.25
 31
0.0
  0
LINE
  8
0
  6
CONTINUOUS
 62
     1
 10
880.0
 20
577.25
 30
0.0
 11
880.0
 21
575.25
 31
0.0
  0
LINE
  8
0
  6
CONTINUOUS
 62
     1
 10
894.0
 20
507.75
 30
0.0
 11
897.0
 21
507.75
 31
0.0
  0
LINE
  8
0
  6
CONTINUOUS
 62
     1
 10
877.0
 20
507.75
 30
0.0
 11
880.0
 21
507.75
 31
0.0
  0
LINE
  8
0
  6
CONTINUOUS
 62
     1
 10
902.121501365
 20
491.5
 30
0.0
 11
902.121501365
 21
541.5
 31
0.0
  0
LINE
  8
0
  6
CONTINUOUS
 62
     1
 10
906.335658055
 20
501.5
 30
0.0
 11
906.335658055
 21
541.5
 31
0.0
  0
LINE
  8
0
  6
CONTINUOUS
 62
     1
 10
910.549814745
 20
491.5
 30
0.0
 11
910.549814745
 21
541.5
 31
0.0
  0
LINE
  8
0
  6
CONTINUOUS
 62
     1
 10
914.763971435
 20
501.5
 30
0.0
 11
914.763971435
 21
541.5
 31
0.0
  0
LINE
  8
0
  6
CONTINUOUS
 62
     1
 10
897.0
 20
573.25
 30
0.0
 11
897.0
 21
541.5
 31
0.0
  0
LINE
  8
0
  6
CONTINUOUS
 62
     2
 10
1077.733854631
 20
319.5
 30
0.0
 11
1075.14566418
 21
309.840741737
 31
0.0
  0
LINE
  8
0
  6
CONTINUOUS
 62
     2
 10
1077.733854631
 20
319.5
 30
0.0
 11
1080.322045082
 21
309.840741737
 31
0.0
  0
LINE
  8
0
  6
CONTINUOUS
 62
     2
 10
1077.833854631
 20
319.5
 30
0.0
 11
1075.24566418
 21
309.840741737
 31
0.0
  0
LINE
  8
0
  6
CONTINUOUS
 62
     2
 10
1077.833854631
 20
319.5
 30
0.0
 11
1080.422045082
 21
309.840741737
 31
0.0
  0
LINE
  8
0
  6
LTYPE3
 62
     2
 10
1022.0
 20
272.6
 30
0.0
 11
1022.0
 21
556.5
 31
0.0
  0
LINE
  8
0
  6
CONTINUOUS
 62
     2
 10
1124.2
 20
291.5
 30
0.0
 11
1126.788190451
 21
301.159258263
 31
0.0
  0
LINE
  8
0
  6
CONTINUOUS
 62
     2
 10
1124.2
 20
291.5
 30
0.0
 11
1121.611809549
 21
301.159258263
 31
0.0
  0
LINE
  8
0
  6
CONTINUOUS
 62
     2
 10
1124.2
 20
291.5
 30
0.0
 11
1124.2
 21
331.5
 31
0.0
  0
LINE
  8
0
  6
CONTINUOUS
 62
     2
 10
1124.2
 20
331.5
 30
0.0
 11
1121.611809549
 21
321.840741737
 31
0.0
  0
LINE
  8
0
  6
CONTINUOUS
 62
     2
 10
1124.2
 20
331.5
 30
0.0
 11
1126.788190451
 21
321.840741737
 31
0.0
  0
LINE
  8
0
  6
CONTINUOUS
 62
     2
 10
1085.833854631
 20
331.5
 30
0.0
 11
1131.0
 21
331.5
 31
0.0
  0
LINE
  8
0
  6
CONTINUOUS
 62
     2
 10
1022.0
 20
556.5
 30
0.0
 11
1022.0
 21
804.5
 31
0.0
  0
LINE
  8
0
  6
CONTINUOUS
 62
     2
 10
1022.0
 20
796.5
 30
0.0
 11
1012.340741737
 21
799.088190451
 31
0.0
  0
LINE
  8
0
  6
CONTINUOUS
 62
     2
 10
1022.0
 20
796.5
 30
0.0
 11
1012.340741737
 21
793.911809549
 31
0.0
  0
LINE
  8
0
  6
CONTINUOUS
 62
     2
 10
1002.0
 20
796.5
 30
0.0
 11
1060.0
 21
796.5
 31
0.0
  0
LINE
  8
0
  6
CONTINUOUS
 62
     2
 10
1040.0
 20
796.5
 30
0.0
 11
1049.659258263
 21
793.911809549
 31
0.0
  0
LINE
  8
0
  6
CONTINUOUS
 62
     2
 10
1040.0
 20
796.5
 30
0.0
 11
1049.659258263
 21
799.088190451
 31
0.0
  0
LINE
  8
0
  6
CONTINUOUS
 62
     2
 10
1022.0
 20
796.5
 30
0.0
 11
1022.0
 21
788.5
 31
0.0
  0
LINE
  8
0
  6
CONTINUOUS
 62
     2
 10
1022.0
 20
796.5
 30
0.0
 11
1012.340741737
 21
799.088190451
 31
0.0
  0
LINE
  8
0
  6
CONTINUOUS
 62
     2
 10
1022.0
 20
796.5
 30
0.0
 11
1012.340741737
 21
793.911809549
 31
0.0
  0
LINE
  8
0
  6
CONTINUOUS
 62
     2
 10
927.0
 20
736.5
 30
0.0
 11
936.659258263
 21
733.911809549
 31
0.0
  0
LINE
  8
0
  6
CONTINUOUS
 62
     2
 10
927.0
 20
736.5
 30
0.0
 11
936.659258263
 21
739.088190451
 31
0.0
  0
LINE
  8
0
  6
CONTINUOUS
 62
     2
 10
927.0
 20
736.5
 30
0.0
 11
987.0
 21
736.5
 31
0.0
  0
LINE
  8
0
  6
CONTINUOUS
 62
     2
 10
987.0
 20
736.5
 30
0.0
 11
977.340741737
 21
739.088190451
 31
0.0
  0
LINE
  8
0
  6
CONTINUOUS
 62
     2
 10
987.0
 20
736.5
 30
0.0
 11
977.340741737
 21
733.911809549
 31
0.0
  0
LINE
  8
0
  6
CONTINUOUS
 62
     2
 10
987.0
 20
736.5
 30
0.0
 11
996.659258263
 21
733.911809549
 31
0.0
  0
LINE
  8
0
  6
CONTINUOUS
 62
     2
 10
987.0
 20
736.5
 30
0.0
 11
996.659258263
 21
739.088190451
 31
0.0
  0
LINE
  8
0
  6
CONTINUOUS
 62
     2
 10
987.0
 20
736.5
 30
0.0
 11
1022.0
 21
736.5
 31
0.0
  0
LINE
  8
0
  6
CONTINUOUS
 62
     2
 10
1022.0
 20
736.5
 30
0.0
 11
1012.340741737
 21
739.088190451
 31
0.0
  0
LINE
  8
0
  6
CONTINUOUS
 62
     2
 10
1022.0
 20
736.5
 30
0.0
 11
1012.340741737
 21
733.911809549
 31
0.0
  0
LINE
  8
0
  6
CONTINUOUS
 62
     2
 10
927.0
 20
573.25
 30
0.0
 11
927.0
 21
741.25
 31
0.0
  0
LINE
  8
0
  6
CONTINUOUS
 62
     2
 10
1077.833854631
 20
331.5
 30
0.0
 11
1080.422045082
 21
341.159258263
 31
0.0
  0
LINE
  8
0
  6
CONTINUOUS
 62
     2
 10
1077.833854631
 20
331.5
 30
0.0
 11
1075.24566418
 21
341.159258263
 31
0.0
  0
LINE
  8
0
  6
CONTINUOUS
 62
     2
 10
1077.733854631
 20
319.5
 30
0.0
 11
1077.733854631
 21
303.5
 31
0.0
  0
LINE
  8
0
  6
CONTINUOUS
 62
     2
 10
1077.733854631
 20
303.5
 30
0.0
 11
1080.322045082
 21
313.159258263
 31
0.0
  0
LINE
  8
0
  6
CONTINUOUS
 62
     2
 10
1077.733854631
 20
303.5
 30
0.0
 11
1075.14566418
 21
313.159258263
 31
0.0
  0
LINE
  8
0
  6
CONTINUOUS
 62
     2
 10
1077.833854631
 20
323.5
 30
0.0
 11
1077.833854631
 21
247.9
 31
0.0
  0
LINE
  8
0
  6
CONTINUOUS
 62
     2
 10
1077.833854631
 20
291.5
 30
0.0
 11
1080.422045082
 21
281.840741737
 31
0.0
  0
LINE
  8
0
  6
CONTINUOUS
 62
     2
 10
1077.833854631
 20
291.5
 30
0.0
 11
1075.24566418
 21
281.840741737
 31
0.0
  0
LINE
  8
0
  6
CONTINUOUS
 62
     2
 10
1085.833854631
 20
291.5
 30
0.0
 11
1132.0
 21
291.5
 31
0.0
  0
LINE
  8
0
  6
CONTINUOUS
 62
     1
 10
1007.0
 20
334.5
 30
0.0
 11
1037.0
 21
334.5
 31
0.0
  0
LINE
  8
0
  6
CONTINUOUS
 62
     1
 10
1007.0
 20
331.5
 30
0.0
 11
1007.0
 21
334.5
 31
0.0
  0
LINE
  8
0
  6
CONTINUOUS
 62
     1
 10
1037.0
 20
331.5
 30
0.0
 11
1037.0
 21
334.5
 31
0.0
  0
LINE
  8
0
  6
CONTINUOUS
 62
     1
 10
1030.0
 20
334.5
 30
0.0
 11
1030.0
 21
342.5
 31
0.0
  0
LINE
  8
0
  6
CONTINUOUS
 62
     1
 10
1014.0
 20
342.5
 30
0.0
 11
1014.0
 21
334.5
 31
0.0
  0
LINE
  8
0
  6
LTYPE1
 62
     2
 10
1014.0
 20
334.5
 30
0.0
 11
1014.0
 21
319.5
 31
0.0
  0
LINE
  8
0
  6
LTYPE1
 62
     2
 10
1030.0
 20
319.5
 30
0.0
 11
1030.0
 21
334.5
 31
0.0
  0
LINE
  8
0
  6
LTYPE2
 62
     2
 10
1017.6
 20
337.15
 30
0.0
 11
1026.0
 21
337.15
 31
0.0
  0
CIRCLE
  8
0
  6
CONTINUOUS
 62
     1
 10
1022.0
 20
337.15
 30
0.0
 40
2.0
  0
LINE
  8
0
  6
CONTINUOUS
 62
     1
 10
1030.0
 20
280.5
 30
0.0
 11
1014.0
 21
280.5
 31
0.0
  0
LINE
  8
0
  6
CONTINUOUS
 62
     1
 10
1007.0
 20
288.5
 30
0.0
 11
1037.0
 21
288.5
 31
0.0
  0
LINE
  8
0
  6
CONTINUOUS
 62
     1
 10
1007.0
 20
291.5
 30
0.0
 11
1007.0
 21
288.5
 31
0.0
  0
LINE
  8
0
  6
CONTINUOUS
 62
     1
 10
1037.0
 20
291.5
 30
0.0
 11
1037.0
 21
288.5
 31
0.0
  0
LINE
  8
0
  6
CONTINUOUS
 62
     1
 10
1030.0
 20
288.5
 30
0.0
 11
1030.0
 21
280.5
 31
0.0
  0
LINE
  8
0
  6
CONTINUOUS
 62
     1
 10
1014.0
 20
280.5
 30
0.0
 11
1014.0
 21
288.5
 31
0.0
  0
LINE
  8
0
  6
LTYPE2
 62
     2
 10
1017.6
 20
285.85
 30
0.0
 11
1026.0
 21
285.85
 31
0.0
  0
CIRCLE
  8
0
  6
CONTINUOUS
 62
     1
 10
1022.0
 20
285.85
 30
0.0
 40
2.0
  0
LINE
  8
0
  6
CONTINUOUS
 62
     1
 10
1014.0
 20
280.5
 30
0.0
 11
1014.0
 21
288.5
 31
0.0
  0
LINE
  8
0
  6
CONTINUOUS
 62
     1
 10
1030.0
 20
288.5
 30
0.0
 11
1030.0
 21
280.5
 31
0.0
  0
LINE
  8
0
  6
LTYPE1
 62
     2
 10
1030.0
 20
303.5
 30
0.0
 11
1030.0
 21
288.5
 31
0.0
  0
LINE
  8
0
  6
LTYPE1
 62
     2
 10
1014.0
 20
288.5
 30
0.0
 11
1014.0
 21
303.5
 31
0.0
  0
LINE
  8
0
  6
LTYPE3
 62
     2
 10
910.0
 20
311.5
 30
0.0
 11
1050.9
 21
311.5
 31
0.0
  0
POINT
  8
0
  6
CONTINUOUS
 62
     1
 10
853.639501379
 20
541.5
 30
0.0
  0
LINE
  8
0
  6
CONTINUOUS
 62
     2
 10
1077.833854631
 20
299.5
 30
0.0
 11
1077.833854631
 21
360.7
 31
0.0
  0
LINE
  8
0
  6
CONTINUOUS
 62
     2
 10
1014.0
 20
369.6
 30
0.0
 11
1004.340741737
 21
372.188190451
 31
0.0
  0
LINE
  8
0
  6
CONTINUOUS
 62
     2
 10
1014.0
 20
369.6
 30
0.0
 11
1004.340741737
 21
367.011809549
 31
0.0
  0
LINE
  8
0
  6
CONTINUOUS
 62
     2
 10
1030.0
 20
369.6
 30
0.0
 11
1039.659258263
 21
367.011809549
 31
0.0
  0
LINE
  8
0
  6
CONTINUOUS
 62
     2
 10
1030.0
 20
369.6
 30
0.0
 11
1039.659258263
 21
372.188190451
 31
0.0
  0
LINE
  8
0
  6
CONTINUOUS
 62
     2
 10
994.0
 20
369.6
 30
0.0
 11
1086.0
 21
369.6
 31
0.0
  0
TEXT
  8
0
  6
CONTINUOUS
 62
     2
 10
1077.75
 20
382.26
 30
0.84
 40
8.4
  1
Ｈ１０
 50
0.0
 41
0.9
 51
0.0
  7
KANJI53
  0
TEXT
  8
0
  6
CONTINUOUS
 62
     2
 10
1077.75
 20
373.86
 30
0.84
 40
8.4
  1
ｈ９
 50
0.0
 41
0.9
 51
0.0
  7
KANJI53
  0
LINE
  8
0
  6
CONTINUOUS
 62
     2
 10
1022.0
 20
381.85
 30
0.0
 11
1022.0
 21
390.35
 31
0.0
  0
LINE
  8
0
  6
CONTINUOUS
 62
     2
 10
1022.0
 20
382.35
 30
0.0
 11
1012.340741737
 21
384.938190451
 31
0.0
  0
LINE
  8
0
  6
CONTINUOUS
 62
     2
 10
1022.0
 20
382.35
 30
0.0
 11
1012.340741737
 21
379.761809549
 31
0.0
  0
LINE
  8
0
  6
CONTINUOUS
 62
     2
 10
1022.0
 20
382.35
 30
0.0
 11
997.0
 21
382.35
 31
0.0
  0
LINE
  8
0
  6
CONTINUOUS
 62
     2
 10
997.0
 20
382.35
 30
0.0
 11
1006.659258263
 21
379.761809549
 31
0.0
  0
LINE
  8
0
  6
CONTINUOUS
 62
     2
 10
997.0
 20
382.35
 30
0.0
 11
1006.659258263
 21
384.938190451
 31
0.0
  0
LINE
  8
0
  6
CONTINUOUS
 62
     2
 10
1069.8
 20
521.5
 30
0.0
 11
1072.388190451
 21
531.159258263
 31
0.0
  0
LINE
  8
0
  6
CONTINUOUS
 62
     2
 10
1069.8
 20
521.5
 30
0.0
 11
1067.211809549
 21
531.159258263
 31
0.0
  0
LINE
  8
0
  6
CONTINUOUS
 62
     2
 10
1069.8
 20
521.5
 30
0.0
 11
1069.8
 21
561.5
 31
0.0
  0
LINE
  8
0
  6
CONTINUOUS
 62
     2
 10
1069.8
 20
561.5
 30
0.0
 11
1067.211809549
 21
551.840741737
 31
0.0
  0
LINE
  8
0
  6
CONTINUOUS
 62
     2
 10
1069.8
 20
561.5
 30
0.0
 11
1072.388190451
 21
551.840741737
 31
0.0
  0
LINE
  8
0
  6
CONTINUOUS
 62
     1
 10
876.999501379
 20
573.25
 30
0.0
 11
927.0
 21
573.25
 31
0.0
  0
CIRCLE
  8
0
  6
CONTINUOUS
 62
     1
 10
641.0
 20
541.5
 30
0.0
 40
20.0
  0
CIRCLE
  8
0
  6
CONTINUOUS
 62
     1
 10
641.0
 20
541.5
 30
0.0
 40
8.0
  0
CIRCLE
  8
0
  6
CONTINUOUS
 62
     1
 10
641.0
 20
541.5
 30
0.0
 40
27.0
  0
LINE
  8
0
  6
CONTINUOUS
 62
     1
 10
665.0
 20
554.0
 30
0.0
 11
665.0
 21
584.5
 31
0.0
  0
LINE
  8
0
  6
CONTINUOUS
 62
     1
 10
665.0
 20
584.5
 30
0.0
 11
739.0
 21
584.5
 31
0.0
  0
LINE
  8
0
  6
CONTINUOUS
 62
     1
 10
579.0
 20
490.5
 30
0.0
 11
579.0
 21
592.5
 31
0.0
  0
LINE
  8
0
  6
CONTINUOUS
 62
     1
 10
582.0
 20
504.5
 30
0.0
 11
739.0
 21
504.5
 31
0.0
  0
LINE
  8
0
  6
CONTINUOUS
 62
     1
 10
582.0
 20
578.5
 30
0.0
 11
665.0
 21
578.5
 31
0.0
  0
ARC
  8
0
  6
CONTINUOUS
 62
     1
 10
582.0
 20
581.5
 30
0.0
 40
3.0
 50
183.814074834
 51
272.952201748
  0
ARC
  8
0
  6
CONTINUOUS
 62
     1
 10
581.8
 20
501.5
 30
0.0
 40
3.0
 50
86.177446273
 51
182.106627847
  0
LINE
  8
0
  6
CONTINUOUS
 62
     1
 10
747.0
 20
501.5
 30
0.0
 11
747.0
 21
581.5
 31
0.0
  0
LINE
  8
0
  6
CONTINUOUS
 62
     1
 10
739.0
 20
501.5
 30
0.0
 11
747.0
 21
501.5
 31
0.0
  0
LINE
  8
0
  6
CONTINUOUS
 62
     1
 10
739.0
 20
581.5
 30
0.0
 11
747.0
 21
581.5
 31
0.0
  0
LINE
  8
0
  6
CONTINUOUS
 62
     1
 10
739.0
 20
578.5
 30
0.0
 11
747.0
 21
578.5
 31
0.0
  0
LINE
  8
0
  6
CONTINUOUS
 62
     1
 10
739.0
 20
504.5
 30
0.0
 11
747.0
 21
504.5
 31
0.0
  0
LINE
  8
0
  6
CONTINUOUS
 62
     1
 10
739.0
 20
540.0
 30
0.0
 11
747.0
 21
540.0
 31
0.0
  0
LINE
  8
0
  6
CONTINUOUS
 62
     1
 10
739.0
 20
543.0
 30
0.0
 11
747.0
 21
543.0
 31
0.0
  0
LINE
  8
0
  6
CONTINUOUS
 62
     1
 10
622.0
 20
630.5
 30
0.0
 11
747.0
 21
630.5
 31
0.0
  0
LINE
  8
0
  6
CONTINUOUS
 62
     1
 10
739.0
 20
501.5
 30
0.0
 11
739.0
 21
586.0
 31
0.0
  0
LINE
  8
0
  6
CONTINUOUS
 62
     1
 10
617.0
 20
629.0
 30
0.0
 11
747.0
 21
629.0
 31
0.0
  0
LINE
  8
0
  6
CONTINUOUS
 62
     1
 10
617.0
 20
586.0
 30
0.0
 11
617.0
 21
629.0
 31
0.0
  0
LINE
  8
0
  6
CONTINUOUS
 62
     1
 10
622.0
 20
586.0
 30
0.0
 11
622.0
 21
635.5
 31
0.0
  0
ARC
  8
0
  6
CONTINUOUS
 62
     1
 10
624.0
 20
635.5
 30
0.0
 40
2.0
 50
90.0
 51
180.0
  0
LINE
  8
0
  6
CONTINUOUS
 62
     1
 10
624.0
 20
637.5
 30
0.0
 11
745.0
 21
637.5
 31
0.0
  0
ARC
  8
0
  6
CONTINUOUS
 62
     1
 10
745.0
 20
635.5
 30
0.0
 40
2.0
 50
0.0
 51
90.0
  0
LINE
  8
0
  6
CONTINUOUS
 62
     1
 10
617.0
 20
586.0
 30
0.0
 11
745.0
 21
586.0
 31
0.0
  0
LINE
  8
0
  6
CONTINUOUS
 62
     1
 10
747.0
 20
588.0
 30
0.0
 11
747.0
 21
635.5
 31
0.0
  0
ARC
  8
0
  6
CONTINUOUS
 62
     1
 10
745.0
 20
588.0
 30
0.0
 40
2.0
 50
270.0
 51
360.0
  0
LINE
  8
0
  6
CONTINUOUS
 62
     1
 10
665.0
 20
564.5
 30
0.0
 11
739.0
 21
564.5
 31
0.0
  0
LINE
  8
0
  6
LTYPE3
 62
     2
 10
641.0
 20
488.5
 30
0.0
 11
641.0
 21
594.5
 31
0.0
  0
LINE
  8
0
  6
LTYPE3
 62
     2
 10
702.0
 20
572.143325909
 30
0.0
 11
702.0
 21
588.5
 31
0.0
  0
LINE
  8
0
  6
LTYPE3
 62
     2
 10
610.0
 20
612.0
 30
0.0
 11
633.0
 21
612.0
 31
0.0
  0
LINE
  8
0
  6
CONTINUOUS
 62
     2
 10
643.7
 20
534.5
 30
0.0
 11
643.669254685
 21
524.500047264
 31
0.0
  0
LINE
  8
0
  6
CONTINUOUS
 62
     2
 10
643.7
 20
534.5
 30
0.0
 11
648.673350144
 21
525.824414236
 31
0.0
  0
LINE
  8
0
  6
CONTINUOUS
 62
     2
 10
617.0
 20
612.0
 30
0.0
 11
614.34257427
 21
621.640440264
 31
0.0
  0
LINE
  8
0
  6
CONTINUOUS
 62
     2
 10
617.0
 20
612.0
 30
0.0
 11
609.878381677
 21
619.020153308
 31
0.0
  0
LINE
  8
0
  6
CONTINUOUS
 62
     2
 10
643.7
 20
534.5
 30
0.0
 11
691.1
 21
355.4
 31
0.0
  0
LINE
  8
0
  6
CONTINUOUS
 62
     2
 10
617.0
 20
612.0
 30
0.0
 11
590.0
 21
658.0
 31
0.0
  0
LINE
  8
0
  6
LTYPE1
 62
     2
 10
617.0
 20
621.3
 30
0.0
 11
627.891504854
 21
621.3
 31
0.0
  0
LINE
  8
0
  6
LTYPE1
 62
     2
 10
617.0
 20
622.5
 30
0.0
 11
627.894417476
 21
622.5
 31
0.0
  0
LINE
  8
0
  6
LTYPE1
 62
     2
 10
617.0
 20
601.5
 30
0.0
 11
627.843446602
 21
601.5
 31
0.0
  0
LINE
  8
0
  6
LTYPE1
 62
     2
 10
617.0
 20
602.7
 30
0.0
 11
627.846359223
 21
602.7
 31
0.0
  0
LINE
  8
0
  6
CONTINUOUS
 62
     2
 10
1022.0
 20
767.0
 30
0.0
 11
1012.340741737
 21
769.588190451
 31
0.0
  0
LINE
  8
0
  6
CONTINUOUS
 62
     2
 10
1022.0
 20
767.0
 30
0.0
 11
1012.340741737
 21
764.411809549
 31
0.0
  0
LINE
  8
0
  6
CONTINUOUS
 62
     2
 10
1022.0
 20
767.0
 30
0.0
 11
641.0
 21
767.0
 31
0.0
  0
LINE
  8
0
  6
CONTINUOUS
 62
     2
 10
641.0
 20
767.0
 30
0.0
 11
650.659258263
 21
764.411809549
 31
0.0
  0
LINE
  8
0
  6
CONTINUOUS
 62
     2
 10
641.0
 20
767.0
 30
0.0
 11
650.659258263
 21
769.588190451
 31
0.0
  0
LINE
  8
0
  6
CONTINUOUS
 62
     2
 10
641.0
 20
600.5
 30
0.0
 11
641.0
 21
773.0
 31
0.0
  0
LINE
  8
0
  6
CONTINUOUS
 62
     2
 10
927.0
 20
736.5
 30
0.0
 11
917.340741737
 21
739.088190451
 31
0.0
  0
LINE
  8
0
  6
CONTINUOUS
 62
     2
 10
927.0
 20
736.5
 30
0.0
 11
917.340741737
 21
733.911809549
 31
0.0
  0
LINE
  8
0
  6
CONTINUOUS
 62
     2
 10
927.0
 20
736.5
 30
0.0
 11
641.0
 21
736.5
 31
0.0
  0
LINE
  8
0
  6
CONTINUOUS
 62
     2
 10
641.0
 20
736.5
 30
0.0
 11
650.659258263
 21
733.911809549
 31
0.0
  0
LINE
  8
0
  6
CONTINUOUS
 62
     2
 10
641.0
 20
736.5
 30
0.0
 11
650.659258263
 21
739.088190451
 31
0.0
  0
LINE
  8
0
  6
CONTINUOUS
 62
     2
 10
1022.0
 20
796.5
 30
0.0
 11
1012.340741737
 21
799.088190451
 31
0.0
  0
LINE
  8
0
  6
CONTINUOUS
 62
     2
 10
1022.0
 20
796.5
 30
0.0
 11
1012.340741737
 21
793.911809549
 31
0.0
  0
LINE
  8
0
  6
CONTINUOUS
 62
     2
 10
704.0
 20
629.4
 30
0.0
 11
711.340707918
 21
636.190729509
 31
0.0
  0
LINE
  8
0
  6
CONTINUOUS
 62
     2
 10
704.0
 20
629.4
 30
0.0
 11
706.961874784
 21
638.951298224
 31
0.0
  0
LINE
  8
0
  6
CONTINUOUS
 62
     2
 10
704.0
 20
629.4
 30
0.0
 11
733.0
 21
675.4
 31
0.0
  0
LINE
  8
0
  6
CONTINUOUS
 62
     1
 10
876.999501379
 20
541.5
 30
0.0
 11
876.999501379
 21
575.25
 31
0.0
  0
LINE
  8
0
  6
CONTINUOUS
 62
     1
 10
782.5
 20
554.0
 30
0.0
 11
807.5
 21
554.0
 31
0.0
  0
LINE
  8
0
  6
CONTINUOUS
 62
     1
 10
807.5
 20
529.0
 30
0.0
 11
807.5
 21
554.0
 31
0.0
  0
LINE
  8
0
  6
CONTINUOUS
 62
     1
 10
782.5
 20
529.0
 30
0.0
 11
807.5
 21
529.0
 31
0.0
  0
LINE
  8
0
  6
CONTINUOUS
 62
     1
 10
782.5
 20
529.0
 30
0.0
 11
782.5
 21
554.0
 31
0.0
  0
CIRCLE
  8
0
  6
CONTINUOUS
 62
     1
 10
795.0
 20
541.5
 30
0.0
 40
12.5
  0
LINE
  8
0
  6
LTYPE3
 62
     2
 10
795.0
 20
560.2
 30
0.0
 11
795.0
 21
520.5
 31
0.0
  0
LINE
  8
0
  6
CONTINUOUS
 62
     2
 10
790.450185255
 20
533.35
 30
0.0
 11
790.260119959
 21
523.351806404
 31
0.0
  0
LINE
  8
0
  6
CONTINUOUS
 62
     2
 10
790.450185255
 20
533.35
 30
0.0
 11
785.286487082
 21
524.786343002
 31
0.0
  0
LINE
  8
0
  6
LTYPE4
 62
     2
 10
780.349814745
 20
504.5
 30
0.0
 11
780.349814745
 21
575.95
 31
0.0
  0
LINE
  8
0
  6
CONTINUOUS
 62
     2
 10
790.450185255
 20
533.35
 30
0.0
 11
769.897884886
 21
462.093820875
 31
0.0
  0
LINE
  8
0
  6
CONTINUOUS
 62
     2
 10
826.2
 20
573.25
 30
0.0
 11
823.611809549
 21
563.590741737
 31
0.0
  0
LINE
  8
0
  6
CONTINUOUS
 62
     2
 10
826.2
 20
573.25
 30
0.0
 11
828.788190451
 21
563.590741737
 31
0.0
  0
LINE
  8
0
  6
CONTINUOUS
 62
     2
 10
826.2
 20
509.75
 30
0.0
 11
826.2
 21
614.3
 31
0.0
  0
LINE
  8
0
  6
CONTINUOUS
 62
     2
 10
826.2
 20
509.75
 30
0.0
 11
828.788190451
 21
519.409258263
 31
0.0
  0
LINE
  8
0
  6
CONTINUOUS
 62
     2
 10
826.2
 20
509.75
 30
0.0
 11
823.611809549
 21
519.409258263
 31
0.0
  0
LINE
  8
0
  6
CONTINUOUS
 62
     1
 10
780.349814745
 20
573.25
 30
0.0
 11
876.999501379
 21
573.25
 31
0.0
  0
LINE
  8
0
  6
CONTINUOUS
 62
     1
 10
780.349814745
 20
509.75
 30
0.0
 11
876.999501379
 21
509.75
 31
0.0
  0
LINE
  8
0
  6
LTYPE4
 62
     2
 10
774.349814745
 20
504.5
 30
0.0
 11
774.349814745
 21
575.95
 31
0.0
  0
LINE
  8
0
  6
CONTINUOUS
 62
     1
 10
747.0
 20
573.25
 30
0.0
 11
774.349814745
 21
573.25
 31
0.0
  0
LINE
  8
0
  6
CONTINUOUS
 62
     1
 10
747.0
 20
509.75
 30
0.0
 11
774.349814745
 21
509.75
 31
0.0
  0
LINE
  8
0
  6
CONTINUOUS
 62
     1
 10
987.0
 20
521.5
 30
0.0
 11
1037.0
 21
521.5
 31
0.0
  0
LINE
  8
0
  6
CONTINUOUS
 62
     1
 10
987.0
 20
521.5
 30
0.0
 11
987.0
 21
561.5
 31
0.0
  0
LINE
  8
0
  6
CONTINUOUS
 62
     1
 10
987.0
 20
561.5
 30
0.0
 11
1037.0
 21
561.5
 31
0.0
  0
LINE
  8
0
  6
CONTINUOUS
 62
     1
 10
927.0
 20
560.5
 30
0.0
 11
987.0
 21
560.5
 31
0.0
  0
LINE
  8
0
  6
CONTINUOUS
 62
     1
 10
970.0
 20
564.5
 30
0.0
 11
984.0
 21
564.5
 31
0.0
  0
LINE
  8
0
  6
CONTINUOUS
 62
     1
 10
984.0
 20
562.5
 30
0.0
 11
987.0
 21
562.5
 31
0.0
  0
LINE
  8
0
  6
CONTINUOUS
 62
     1
 10
967.0
 20
562.5
 30
0.0
 11
959.428072258
 21
590.758819045
 31
0.0
  0
ARC
  8
0
  6
CONTINUOUS
 62
     1
 10
958.462146432
 20
590.5
 30
0.0
 40
1.0
 50
15.0
 51
90.0
  0
ARC
  8
0
  6
CONTINUOUS
 62
     1
 10
958.462146432
 20
590.5
 30
0.0
 40
1.0
 50
90.0
 51
165.0
  0
LINE
  8
0
  6
CONTINUOUS
 62
     1
 10
955.213926358
 20
582.241180955
 30
0.0
 11
957.496220605
 21
590.758819045
 31
0.0
  0
ARC
  8
0
  6
CONTINUOUS
 62
     1
 10
954.248000531
 20
582.5
 30
0.0
 40
1.0
 50
270.0
 51
345.0
  0
ARC
  8
0
  6
CONTINUOUS
 62
     1
 10
954.248000531
 20
582.5
 30
0.0
 40
1.0
 50
195.0
 51
270.0
  0
LINE
  8
0
  6
CONTINUOUS
 62
     1
 10
953.282074705
 20
582.241180955
 30
0.0
 11
950.999780457
 21
590.758819045
 31
0.0
  0
ARC
  8
0
  6
CONTINUOUS
 62
     1
 10
950.033854631
 20
590.5
 30
0.0
 40
1.0
 50
15.0
 51
90.0
  0
ARC
  8
0
  6
CONTINUOUS
 62
     1
 10
945.819708731
 20
582.5
 30
0.0
 40
1.0
 50
270.0
 51
345.0
  0
LINE
  8
0
  6
CONTINUOUS
 62
     1
 10
946.785634557
 20
582.241180955
 30
0.0
 11
949.067928805
 21
590.758819045
 31
0.0
  0
ARC
  8
0
  6
CONTINUOUS
 62
     1
 10
950.033854631
 20
590.5
 30
0.0
 40
1.0
 50
90.0
 51
165.0
  0
LINE
  8
0
  6
CONTINUOUS
 62
     1
 10
967.0
 20
560.5
 30
0.0
 11
967.0
 21
562.5
 31
0.0
  0
LINE
  8
0
  6
CONTINUOUS
 62
     1
 10
970.0
 20
562.5
 30
0.0
 11
970.0
 21
564.5
 31
0.0
  0
LINE
  8
0
  6
CONTINUOUS
 62
     1
 10
984.0
 20
562.5
 30
0.0
 11
984.0
 21
564.5
 31
0.0
  0
LINE
  8
0
  6
CONTINUOUS
 62
     1
 10
967.0
 20
562.5
 30
0.0
 11
984.0
 21
562.5
 31
0.0
  0
LINE
  8
0
  6
CONTINUOUS
 62
     1
 10
987.0
 20
562.5
 30
0.0
 11
987.0
 21
541.5
 31
0.0
  0
LINE
  8
0
  6
CONTINUOUS
 62
     1
 10
987.0
 20
541.5
 30
0.0
 11
987.0
 21
521.5
 31
0.0
  0
LINE
  8
0
  6
CONTINUOUS
 62
     1
 10
970.0
 20
518.5
 30
0.0
 11
984.0
 21
518.5
 31
0.0
  0
LINE
  8
0
  6
CONTINUOUS
 62
     1
 10
984.0
 20
541.5
 30
0.0
 11
984.0
 21
518.5
 31
0.0
  0
LINE
  8
0
  6
CONTINUOUS
 62
     1
 10
967.0
 20
520.5
 30
0.0
 11
970.0
 21
520.5
 31
0.0
  0
LINE
  8
0
  6
CONTINUOUS
 62
     1
 10
967.0
 20
520.5
 30
0.0
 11
959.428072258
 21
492.241180955
 31
0.0
  0
ARC
  8
0
  6
CONTINUOUS
 62
     1
 10
958.462146432
 20
492.5
 30
0.0
 40
1.0
 50
270.0
 51
345.0
  0
ARC
  8
0
  6
CONTINUOUS
 62
     1
 10
958.462146432
 20
492.5
 30
0.0
 40
1.0
 50
195.0
 51
270.0
  0
LINE
  8
0
  6
CONTINUOUS
 62
     1
 10
955.213926358
 20
500.758819045
 30
0.0
 11
957.496220605
 21
492.241180955
 31
0.0
  0
ARC
  8
0
  6
CONTINUOUS
 62
     1
 10
954.248000531
 20
500.5
 30
0.0
 40
1.0
 50
15.0
 51
90.0
  0
ARC
  8
0
  6
CONTINUOUS
 62
     1
 10
954.248000531
 20
500.5
 30
0.0
 40
1.0
 50
90.0
 51
165.0
  0
LINE
  8
0
  6
CONTINUOUS
 62
     1
 10
953.282074705
 20
500.758819045
 30
0.0
 11
950.999780457
 21
492.241180955
 31
0.0
  0
ARC
  8
0
  6
CONTINUOUS
 62
     1
 10
950.033854631
 20
492.5
 30
0.0
 40
1.0
 50
270.0
 51
345.0
  0
ARC
  8
0
  6
CONTINUOUS
 62
     1
 10
945.819708731
 20
500.5
 30
0.0
 40
1.0
 50
15.0
 51
90.0
  0
LINE
  8
0
  6
CONTINUOUS
 62
     1
 10
946.785634557
 20
500.758819045
 30
0.0
 11
949.067928805
 21
492.241180955
 31
0.0
  0
ARC
  8
0
  6
CONTINUOUS
 62
     1
 10
950.033854631
 20
492.5
 30
0.0
 40
1.0
 50
195.0
 51
270.0
  0
LINE
  8
0
  6
CONTINUOUS
 62
     1
 10
950.033854631
 20
491.5
 30
0.0
 11
950.033854631
 21
541.5
 31
0.0
  0
LINE
  8
0
  6
CONTINUOUS
 62
     1
 10
945.619708731
 20
501.5
 30
0.0
 11
945.619708731
 21
541.5
 31
0.0
  0
LINE
  8
0
  6
CONTINUOUS
 62
     1
 10
954.248000531
 20
501.5
 30
0.0
 11
954.248000531
 21
541.5
 31
0.0
  0
LINE
  8
0
  6
CONTINUOUS
 62
     1
 10
958.462146432
 20
541.5
 30
0.0
 11
958.462146432
 21
491.5
 31
0.0
  0
LINE
  8
0
  6
CONTINUOUS
 62
     1
 10
970.0
 20
541.5
 30
0.0
 11
970.0
 21
518.5
 31
0.0
  0
LINE
  8
0
  6
CONTINUOUS
 62
     1
 10
967.0
 20
541.5
 30
0.0
 11
967.0
 21
520.5
 31
0.0
  0
LINE
  8
0
  6
CONTINUOUS
 62
     1
 10
984.0
 20
520.5
 30
0.0
 11
987.0
 21
520.5
 31
0.0
  0
LINE
  8
0
  6
CONTINUOUS
 62
     1
 10
987.0
 20
520.5
 30
0.0
 11
987.0
 21
541.5
 31
0.0
  0
LINE
  8
0
  6
LTYPE5
 62
     2
 10
915.5
 20
491.5
 30
0.0
 11
950.033854631
 21
491.5
 31
0.0
  0
LINE
  8
0
  6
LTYPE5
 62
     2
 10
917.0
 20
501.5
 30
0.0
 11
945.619708731
 21
501.5
 31
0.0
  0
LINE
  8
0
  6
LTYPE5
 62
     2
 10
913.5
 20
591.5
 30
0.0
 11
950.033854631
 21
591.5
 31
0.0
  0
LINE
  8
0
  6
CONTINUOUS
 62
     1
 10
970.0
 20
311.5
 30
0.0
 11
970.0
 21
288.5
 31
0.0
  0
LINE
  8
0
  6
CONTINUOUS
 62
     1
 10
970.0
 20
288.5
 30
0.0
 11
984.0
 21
288.5
 31
0.0
  0
LINE
  8
0
  6
CONTINUOUS
 62
     1
 10
984.0
 20
311.5
 30
0.0
 11
984.0
 21
288.5
 31
0.0
  0
LINE
  8
0
  6
CONTINUOUS
 62
     1
 10
967.0
 20
311.5
 30
0.0
 11
967.0
 21
290.5
 31
0.0
  0
LINE
  8
0
  6
CONTINUOUS
 62
     1
 10
984.0
 20
290.5
 30
0.0
 11
987.0
 21
290.5
 31
0.0
  0
LINE
  8
0
  6
CONTINUOUS
 62
     1
 10
967.0
 20
290.5
 30
0.0
 11
970.0
 21
290.5
 31
0.0
  0
LINE
  8
0
  6
CONTINUOUS
 62
     1
 10
967.0
 20
290.5
 30
0.0
 11
959.428072258
 21
262.241180955
 31
0.0
  0
ARC
  8
0
  6
CONTINUOUS
 62
     1
 10
958.462146432
 20
262.5
 30
0.0
 40
1.0
 50
270.0
 51
345.0
  0
ARC
  8
0
  6
CONTINUOUS
 62
     1
 10
958.462146432
 20
262.5
 30
0.0
 40
1.0
 50
195.0
 51
270.0
  0
LINE
  8
0
  6
CONTINUOUS
 62
     1
 10
955.213926358
 20
270.758819045
 30
0.0
 11
957.496220605
 21
262.241180955
 31
0.0
  0
ARC
  8
0
  6
CONTINUOUS
 62
     1
 10
954.248000531
 20
270.5
 30
0.0
 40
1.0
 50
15.0
 51
90.0
  0
ARC
  8
0
  6
CONTINUOUS
 62
     1
 10
954.248000531
 20
270.5
 30
0.0
 40
1.0
 50
90.0
 51
165.0
  0
LINE
  8
0
  6
CONTINUOUS
 62
     1
 10
953.282074705
 20
270.758819045
 30
0.0
 11
950.999780457
 21
262.241180955
 31
0.0
  0
ARC
  8
0
  6
CONTINUOUS
 62
     1
 10
950.033854631
 20
262.5
 30
0.0
 40
1.0
 50
270.0
 51
345.0
  0
ARC
  8
0
  6
CONTINUOUS
 62
     1
 10
945.819708731
 20
270.5
 30
0.0
 40
1.0
 50
90.0
 51
165.0
  0
ARC
  8
0
  6
CONTINUOUS
 62
     1
 10
945.819708731
 20
270.5
 30
0.0
 40
1.0
 50
15.0
 51
90.0
  0
LINE
  8
0
  6
CONTINUOUS
 62
     1
 10
946.785634557
 20
270.758819045
 30
0.0
 11
949.067928805
 21
262.241180955
 31
0.0
  0
ARC
  8
0
  6
CONTINUOUS
 62
     1
 10
950.033854631
 20
262.5
 30
0.0
 40
1.0
 50
195.0
 51
270.0
  0
LINE
  8
0
  6
CONTINUOUS
 62
     1
 10
970.0
 20
311.5
 30
0.0
 11
970.0
 21
334.5
 31
0.0
  0
LINE
  8
0
  6
CONTINUOUS
 62
     1
 10
970.0
 20
334.5
 30
0.0
 11
984.0
 21
334.5
 31
0.0
  0
LINE
  8
0
  6
CONTINUOUS
 62
     1
 10
984.0
 20
311.5
 30
0.0
 11
984.0
 21
334.5
 31
0.0
  0
LINE
  8
0
  6
CONTINUOUS
 62
     1
 10
967.0
 20
311.5
 30
0.0
 11
967.0
 21
332.5
 31
0.0
  0
LINE
  8
0
  6
CONTINUOUS
 62
     1
 10
984.0
 20
332.5
 30
0.0
 11
987.0
 21
332.5
 31
0.0
  0
LINE
  8
0
  6
CONTINUOUS
 62
     1
 10
967.0
 20
332.5
 30
0.0
 11
970.0
 21
332.5
 31
0.0
  0
LINE
  8
0
  6
CONTINUOUS
 62
     1
 10
967.0
 20
332.5
 30
0.0
 11
959.428072258
 21
360.758819045
 31
0.0
  0
ARC
  8
0
  6
CONTINUOUS
 62
     1
 10
958.462146432
 20
360.5
 30
0.0
 40
1.0
 50
15.0
 51
90.0
  0
ARC
  8
0
  6
CONTINUOUS
 62
     1
 10
958.462146432
 20
360.5
 30
0.0
 40
1.0
 50
90.0
 51
165.0
  0
LINE
  8
0
  6
CONTINUOUS
 62
     1
 10
955.213926358
 20
352.241180955
 30
0.0
 11
957.496220605
 21
360.758819045
 31
0.0
  0
ARC
  8
0
  6
CONTINUOUS
 62
     1
 10
954.248000531
 20
352.5
 30
0.0
 40
1.0
 50
270.0
 51
345.0
  0
LINE
  8
0
  6
CONTINUOUS
 62
     1
 10
954.248000531
 20
351.5
 30
0.0
 11
954.248000531
 21
350.5
 31
0.0
  0
ARC
  8
0
  6
CONTINUOUS
 62
     1
 10
954.248000531
 20
352.5
 30
0.0
 40
1.0
 50
195.0
 51
270.0
  0
LINE
  8
0
  6
CONTINUOUS
 62
     1
 10
953.282074705
 20
352.241180955
 30
0.0
 11
950.999780457
 21
360.758819045
 31
0.0
  0
ARC
  8
0
  6
CONTINUOUS
 62
     1
 10
950.033854631
 20
360.5
 30
0.0
 40
1.0
 50
15.0
 51
90.0
  0
ARC
  8
0
  6
CONTINUOUS
 62
     1
 10
945.819708731
 20
352.5
 30
0.0
 40
1.0
 50
195.0
 51
270.0
  0
ARC
  8
0
  6
CONTINUOUS
 62
     1
 10
945.819708731
 20
352.5
 30
0.0
 40
1.0
 50
270.0
 51
345.0
  0
LINE
  8
0
  6
CONTINUOUS
 62
     1
 10
946.785634557
 20
352.241180955
 30
0.0
 11
949.067928805
 21
360.758819045
 31
0.0
  0
ARC
  8
0
  6
CONTINUOUS
 62
     1
 10
950.033854631
 20
360.5
 30
0.0
 40
1.0
 50
90.0
 51
165.0
  0
LINE
  8
0
  6
CONTINUOUS
 62
     1
 10
958.462146432
 20
361.5
 30
0.0
 11
958.462146432
 21
261.5
 31
0.0
  0
LINE
  8
0
  6
CONTINUOUS
 62
     1
 10
950.033854631
 20
261.5
 30
0.0
 11
950.033854631
 21
361.5
 31
0.0
  0
LINE
  8
0
  6
CONTINUOUS
 62
     1
 10
954.248000531
 20
271.5
 30
0.0
 11
954.248000531
 21
351.5
 31
0.0
  0
LINE
  8
0
  6
CONTINUOUS
 62
     1
 10
945.619708731
 20
271.5
 30
0.0
 11
945.619708731
 21
351.5
 31
0.0
  0
LINE
  8
0
  6
LTYPE5
 62
     2
 10
927.0
 20
351.5
 30
0.0
 11
945.619708731
 21
351.5
 31
0.0
  0
LINE
  8
0
  6
LTYPE5
 62
     2
 10
927.0
 20
271.5
 30
0.0
 11
945.619708731
 21
271.5
 31
0.0
  0
LINE
  8
0
  6
LTYPE5
 62
     2
 10
927.0
 20
361.5
 30
0.0
 11
950.033854631
 21
361.5
 31
0.0
  0
LINE
  8
0
  6
LTYPE5
 62
     2
 10
927.0
 20
261.5
 30
0.0
 11
950.033854631
 21
261.5
 31
0.0
  0
LINE
  8
0
  6
CONTINUOUS
 62
     1
 10
987.0
 20
290.5
 30
0.0
 11
987.0
 21
332.5
 31
0.0
  0
LINE
  8
0
  6
CONTINUOUS
 62
     1
 10
511.0
 20
548.5
 30
0.0
 11
511.0
 21
428.5
 31
0.0
  0
LINE
  8
0
  6
CONTINUOUS
 62
     1
 10
497.0
 20
488.5
 30
0.0
 11
497.0
 21
545.5
 31
0.0
  0
ARC
  8
0
  6
CONTINUOUS
 62
     1
 10
501.5
 20
547.0
 30
0.0
 40
1.5
 50
270.0
 51
0.0
  0
LINE
  8
0
  6
CONTINUOUS
 62
     1
 10
503.0
 20
547.0
 30
0.0
 11
503.0
 21
548.0
 31
0.0
  0
ARC
  8
0
  6
CONTINUOUS
 62
     1
 10
504.5
 20
548.0
 30
0.0
 40
1.5
 50
90.0
 51
180.0
  0
LINE
  8
0
  6
CONTINUOUS
 62
     1
 10
348.0
 20
488.5
 30
0.0
 11
348.0
 21
545.5
 31
0.0
  0
ARC
  8
0
  6
CONTINUOUS
 62
     1
 10
344.5
 20
544.0
 30
0.0
 40
1.5
 50
90.0
 51
180.0
  0
LINE
  8
0
  6
CONTINUOUS
 62
     1
 10
503.0
 20
488.5
 30
0.0
 11
503.0
 21
547.6
 31
0.0
  0
LINE
  8
0
  6
CONTINUOUS
 62
     1
 10
343.0
 20
531.570524155
 30
0.0
 11
343.0
 21
544.0
 31
0.0
  0
ARC
  8
0
  6
CONTINUOUS
 62
     1
 10
341.5
 20
531.570524155
 30
0.0
 40
1.5
 50
288.970407808
 51
0.0
  0
LINE
  8
0
  6
CONTINUOUS
 62
     1
 10
327.0
 20
488.5
 30
0.0
 11
327.0
 21
523.929475845
 31
0.0
  0
LINE
  8
0
  6
CONTINUOUS
 62
     1
 10
328.012380347
 20
525.348005744
 30
0.0
 11
341.987619653
 21
530.151994256
 31
0.0
  0
ARC
  8
0
  6
CONTINUOUS
 62
     1
 10
328.5
 20
523.929475845
 30
0.0
 40
1.5
 50
108.970407808
 51
180.0
  0
LINE
  8
0
  6
CONTINUOUS
 62
     1
 10
343.0
 20
488.5
 30
0.0
 11
343.0
 21
531.570524155
 31
0.0
  0
ARC
  8
0
  6
CONTINUOUS
 62
     1
 10
315.0
 20
505.0
 30
0.0
 40
1.0
 50
90.0
 51
180.0
  0
LINE
  8
0
  6
CONTINUOUS
 62
     1
 10
315.0
 20
506.0
 30
0.0
 11
327.0
 21
506.0
 31
0.0
  0
LINE
  8
0
  6
CONTINUOUS
 62
     1
 10
314.0
 20
488.5
 30
0.0
 11
314.0
 21
505.0
 31
0.0
  0
LINE
  8
0
  6
CONTINUOUS
 62
     1
 10
497.0
 20
488.5
 30
0.0
 11
497.0
 21
431.5
 31
0.0
  0
ARC
  8
0
  6
CONTINUOUS
 62
     1
 10
501.5
 20
430.0
 30
0.0
 40
1.5
 50
0.0
 51
90.0
  0
LINE
  8
0
  6
CONTINUOUS
 62
     1
 10
503.0
 20
430.0
 30
0.0
 11
503.0
 21
429.0
 31
0.0
  0
ARC
  8
0
  6
CONTINUOUS
 62
     1
 10
504.5
 20
429.0
 30
0.0
 40
1.5
 50
180.0
 51
270.0
  0
LINE
  8
0
  6
CONTINUOUS
 62
     1
 10
348.0
 20
488.5
 30
0.0
 11
348.0
 21
431.5
 31
0.0
  0
LINE
  8
0
  6
CONTINUOUS
 62
     1
 10
344.5
 20
431.5
 30
0.0
 11
501.5
 21
431.5
 31
0.0
  0
ARC
  8
0
  6
CONTINUOUS
 62
     1
 10
344.5
 20
433.0
 30
0.0
 40
1.5
 50
180.0
 51
270.0
  0
LINE
  8
0
  6
CONTINUOUS
 62
     1
 10
503.0
 20
488.5
 30
0.0
 11
503.0
 21
429.4
 31
0.0
  0
LINE
  8
0
  6
CONTINUOUS
 62
     1
 10
327.0
 20
488.5
 30
0.0
 11
327.0
 21
453.070524155
 31
0.0
  0
ARC
  8
0
  6
CONTINUOUS
 62
     1
 10
328.5
 20
453.070524155
 30
0.0
 40
1.5
 50
180.0
 51
251.029592192
  0
ARC
  8
0
  6
CONTINUOUS
 62
     1
 10
315.0
 20
472.0
 30
0.0
 40
1.0
 50
180.0
 51
270.0
  0
LINE
  8
0
  6
CONTINUOUS
 62
     1
 10
315.0
 20
471.0
 30
0.0
 11
327.0
 21
471.0
 31
0.0
  0
LINE
  8
0
  6
CONTINUOUS
 62
     1
 10
314.0
 20
488.5
 30
0.0
 11
314.0
 21
472.0
 31
0.0
  0
LINE
  8
0
  6
LTYPE2
 62
     2
 10
335.0
 20
524.562445841
 30
0.0
 11
346.0
 21
524.562445841
 31
0.0
  0
LINE
  8
0
  6
CONTINUOUS
 62
     1
 10
343.0
 20
445.429475845
 30
0.0
 11
343.0
 21
433.0
 31
0.0
  0
LINE
  8
0
  6
CONTINUOUS
 62
     1
 10
328.012380347
 20
451.651994256
 30
0.0
 11
341.987619653
 21
446.848005744
 31
0.0
  0
LINE
  8
0
  6
CONTINUOUS
 62
     1
 10
343.0
 20
488.5
 30
0.0
 11
343.0
 21
445.429475845
 31
0.0
  0
LINE
  8
0
  6
LTYPE2
 62
     2
 10
335.0
 20
452.437554159
 30
0.0
 11
346.0
 21
452.437554159
 31
0.0
  0
ARC
  8
0
  6
CONTINUOUS
 62
     1
 10
484.0
 20
548.5
 30
0.0
 40
3.0
 50
270.0
 51
0.0
  0
LINE
  8
0
  6
CONTINUOUS
 62
     1
 10
344.5
 20
545.5
 30
0.0
 11
501.5
 21
545.5
 31
0.0
  0
ARC
  8
0
  6
CONTINUOUS
 62
     1
 10
444.0
 20
548.5
 30
0.0
 40
3.0
 50
180.0
 51
270.0
  0
LINE
  8
0
  6
LTYPE2
 62
     2
 10
464.0
 20
533.5
 30
0.0
 11
464.0
 21
621.4321338
 31
0.0
  0
LINE
  8
0
  6
CONTINUOUS
 62
     1
 10
299.5
 20
504.0
 30
0.0
 11
314.0
 21
504.0
 31
0.0
  0
ARC
  8
0
  6
CONTINUOUS
 62
     1
 10
299.5
 20
502.5
 30
0.0
 40
1.5
 50
90.0
 51
180.0
  0
LINE
  8
0
  6
CONTINUOUS
 62
     1
 10
299.5
 20
473.0
 30
0.0
 11
314.0
 21
473.0
 31
0.0
  0
LINE
  8
0
  6
CONTINUOUS
 62
     1
 10
298.0
 20
474.5
 30
0.0
 11
298.0
 21
502.5
 31
0.0
  0
ARC
  8
0
  6
CONTINUOUS
 62
     1
 10
299.5
 20
474.5
 30
0.0
 40
1.5
 50
180.0
 51
270.0
  0
LINE
  8
2
  6
CONTINUOUS
 62
     2
 10
303.6
 20
506.0
 30
0.0
 11
304.280459689
 21
515.976821869
 31
0.0
  0
LINE
  8
2
  6
CONTINUOUS
 62
     2
 10
303.6
 20
506.0
 30
0.0
 11
299.200884442
 21
514.980411032
 31
0.0
  0
LINE
  8
2
  6
CONTINUOUS
 62
     2
 10
240.0
 20
427.5
 30
0.0
 11
242.588190451
 21
437.159258263
 31
0.0
  0
LINE
  8
2
  6
CONTINUOUS
 62
     2
 10
240.0
 20
427.5
 30
0.0
 11
237.411809549
 21
437.159258263
 31
0.0
  0
LINE
  8
2
  6
CONTINUOUS
 62
     2
 10
240.0
 20
427.5
 30
0.0
 11
240.0
 21
549.5
 31
0.0
  0
LINE
  8
2
  6
CONTINUOUS
 62
     2
 10
240.0
 20
549.5
 30
0.0
 11
237.411809549
 21
539.840741737
 31
0.0
  0
LINE
  8
2
  6
CONTINUOUS
 62
     2
 10
240.0
 20
549.5
 30
0.0
 11
242.588190451
 21
539.840741737
 31
0.0
  0
LINE
  8
2
  6
CONTINUOUS
 62
     2
 10
275.0
 20
545.5
 30
0.0
 11
272.411809549
 21
535.840741737
 31
0.0
  0
LINE
  8
2
  6
CONTINUOUS
 62
     2
 10
275.0
 20
545.5
 30
0.0
 11
277.588190451
 21
535.840741737
 31
0.0
  0
LINE
  8
2
  6
CONTINUOUS
 62
     2
 10
275.0
 20
545.5
 30
0.0
 11
275.0
 21
431.5
 31
0.0
  0
LINE
  8
2
  6
CONTINUOUS
 62
     2
 10
275.0
 20
431.5
 30
0.0
 11
277.588190451
 21
441.159258263
 31
0.0
  0
LINE
  8
2
  6
CONTINUOUS
 62
     2
 10
275.0
 20
431.5
 30
0.0
 11
272.411809549
 21
441.159258263
 31
0.0
  0
LINE
  8
2
  6
CONTINUOUS
 62
     2
 10
339.0
 20
545.5
 30
0.0
 11
270.5
 21
545.5
 31
0.0
  0
LINE
  8
2
  6
CONTINUOUS
 62
     2
 10
500.500009344
 20
549.5
 30
0.0
 11
235.5
 21
549.5
 31
0.0
  0
LINE
  8
2
  6
CONTINUOUS
 62
     2
 10
500.500012063
 20
427.5
 30
0.0
 11
235.5
 21
427.5
 31
0.0
  0
LINE
  8
2
  6
CONTINUOUS
 62
     2
 10
339.0
 20
431.5
 30
0.0
 11
270.5
 21
431.5
 31
0.0
  0
LINE
  8
0
  6
CONTINUOUS
 62
     1
 10
398.0
 20
566.5
 30
0.0
 11
398.0
 21
600.5
 31
0.0
  0
LINE
  8
0
  6
CONTINUOUS
 62
     1
 10
398.0
 20
566.5
 30
0.0
 11
424.0
 21
566.5
 31
0.0
  0
LINE
  8
0
  6
CONTINUOUS
 62
     1
 10
398.0
 20
600.5
 30
0.0
 11
424.0
 21
600.5
 31
0.0
  0
LINE
  8
0
  6
LTYPE2
 62
     2
 10
391.070524155
 20
583.5
 30
0.0
 11
431.070524155
 21
583.5
 31
0.0
  0
LINE
  8
0
  6
CONTINUOUS
 62
     1
 10
494.0
 20
558.5
 30
0.0
 11
494.0
 21
561.5
 31
0.0
  0
ARC
  8
0
  6
CONTINUOUS
 62
     1
 10
490.0
 20
555.5
 30
0.0
 40
3.0
 50
90.0
 51
180.0
  0
LINE
  8
0
  6
CONTINUOUS
 62
     1
 10
487.0
 20
548.5
 30
0.0
 11
487.0
 21
555.5
 31
0.0
  0
LINE
  8
0
  6
CONTINUOUS
 62
     1
 10
434.0
 20
558.5
 30
0.0
 11
434.0
 21
561.5
 31
0.0
  0
ARC
  8
0
  6
CONTINUOUS
 62
     1
 10
438.0
 20
555.5
 30
0.0
 40
3.0
 50
0.0
 51
90.0
  0
LINE
  8
0
  6
CONTINUOUS
 62
     1
 10
441.0
 20
548.5
 30
0.0
 11
441.0
 21
555.5
 31
0.0
  0
LINE
  8
0
  6
CONTINUOUS
 62
     1
 10
434.0
 20
558.5
 30
0.0
 11
494.0
 21
558.5
 31
0.0
  0
LINE
  8
0
  6
CONTINUOUS
 62
     1
 10
509.087912088
 20
563.5
 30
0.0
 11
417.0
 21
607.520045888
 31
0.0
  0
LINE
  8
0
  6
CONTINUOUS
 62
     1
 10
511.0
 20
567.5
 30
0.0
 11
509.087912088
 21
563.5
 31
0.0
  0
LINE
  8
0
  6
CONTINUOUS
 62
     1
 10
511.0
 20
567.5
 30
0.0
 11
418.912087912
 21
611.520045888
 31
0.0
  0
LINE
  8
0
  6
CONTINUOUS
 62
     1
 10
418.912087912
 20
611.520045888
 30
0.0
 11
417.0
 21
607.520045888
 31
0.0
  0
LINE
  8
0
  6
CONTINUOUS
 62
     1
 10
504.0
 20
570.846153846
 30
0.0
 11
504.0
 21
610.5
 31
0.0
  0
ARC
  8
0
  6
CONTINUOUS
 62
     1
 10
501.0
 20
610.5
 30
0.0
 40
3.0
 50
0.0
 51
90.0
  0
LINE
  8
0
  6
CONTINUOUS
 62
     1
 10
504.0
 20
564.5
 30
0.0
 11
504.0
 21
565.9321338
 31
0.0
  0
ARC
  8
0
  6
CONTINUOUS
 62
     1
 10
501.0
 20
564.5
 30
0.0
 40
3.0
 50
270.0
 51
0.0
  0
LINE
  8
0
  6
CONTINUOUS
 62
     1
 10
424.0
 20
564.5
 30
0.0
 11
424.0
 21
604.173892042
 31
0.0
  0
LINE
  8
0
  6
CONTINUOUS
 62
     1
 10
427.0
 20
561.5
 30
0.0
 11
501.0
 21
561.5
 31
0.0
  0
ARC
  8
0
  6
CONTINUOUS
 62
     1
 10
427.0
 20
564.5
 30
0.0
 40
3.0
 50
180.0
 51
270.0
  0
LINE
  8
0
  6
CONTINUOUS
 62
     1
 10
424.0
 20
609.087912088
 30
0.0
 11
424.0
 21
610.5
 31
0.0
  0
LINE
  8
0
  6
CONTINUOUS
 62
     1
 10
427.0
 20
613.5
 30
0.0
 11
501.0
 21
613.5
 31
0.0
  0
ARC
  8
0
  6
CONTINUOUS
 62
     1
 10
427.0
 20
610.5
 30
0.0
 40
3.0
 50
90.0
 51
180.0
  0
LINE
  8
0
  6
CONTINUOUS
 62
     2
 10
398.0
 20
583.5
 30
0.0
 11
398.619310852
 21
593.48080428
 31
0.0
  0
LINE
  8
0
  6
CONTINUOUS
 62
     2
 10
398.0
 20
583.5
 30
0.0
 11
393.545936791
 21
592.453285482
 31
0.0
  0
LINE
  8
2
  6
CONTINUOUS
 62
     2
 10
303.6
 20
506.0
 30
0.0
 11
299.137353923
 21
528.75
 31
0.0
  0
LINE
  8
0
  6
CONTINUOUS
 62
     1
 10
341.7
 20
524.562445841
 30
0.0
 11
341.7
 21
519.950565841
 31
0.0
  0
LINE
  8
0
  6
CONTINUOUS
 62
     1
 10
341.7
 20
524.562445841
 30
0.0
 11
341.7
 21
529.174325841
 31
0.0
  0
LINE
  8
0
  6
CONTINUOUS
 62
     1
 10
338.1998
 20
521.080005841
 30
0.0
 11
338.851882488
 21
519.950565841
 31
0.0
  0
LINE
  8
0
  6
CONTINUOUS
 62
     1
 10
338.1998
 20
524.562445841
 30
0.0
 11
338.1998
 21
521.080005841
 31
0.0
  0
LINE
  8
0
  6
CONTINUOUS
 62
     1
 10
338.1998
 20
528.044885841
 30
0.0
 11
338.851882488
 21
529.174325841
 31
0.0
  0
LINE
  8
0
  6
CONTINUOUS
 62
     1
 10
338.1998
 20
524.562445841
 30
0.0
 11
338.1998
 21
528.044885841
 31
0.0
  0
ARC
  8
0
  6
CONTINUOUS
 62
     1
 10
342.603054926
 20
524.562445841
 30
0.0
 40
4.403254926
 50
148.419912243
 51
211.580087757
  0
ARC
  8
0
  6
CONTINUOUS
 62
     1
 10
339.544720132
 20
521.103535841
 30
0.0
 40
1.34512595
 50
121.002313915
 51
182.989498403
  0
LINE
  8
0
  6
CONTINUOUS
 62
     1
 10
338.1998
 20
528.044885841
 30
0.0
 11
338.851882488
 21
529.174325841
 31
0.0
  0
ARC
  8
0
  6
CONTINUOUS
 62
     1
 10
339.544720132
 20
528.021355841
 30
0.0
 40
1.34512595
 50
177.010501597
 51
238.997686085
  0
LINE
  8
0
  6
CONTINUOUS
 62
     1
 10
341.7
 20
519.950565841
 30
0.0
 11
338.851882488
 21
519.950565841
 31
0.0
  0
LINE
  8
0
  6
CONTINUOUS
 62
     1
 10
341.7
 20
522.256505841
 30
0.0
 11
338.851882488
 21
522.256505841
 31
0.0
  0
LINE
  8
0
  6
CONTINUOUS
 62
     1
 10
341.7
 20
526.868385841
 30
0.0
 11
338.851882488
 21
526.868385841
 31
0.0
  0
LINE
  8
0
  6
CONTINUOUS
 62
     1
 10
341.7
 20
529.174325841
 30
0.0
 11
338.851882488
 21
529.174325841
 31
0.0
  0
LINE
  8
0
  6
CONTINUOUS
 62
     1
 10
343.0
 20
519.962445841
 30
0.0
 11
341.7
 21
519.962445841
 31
0.0
  0
LINE
  8
0
  6
CONTINUOUS
 62
     1
 10
343.0
 20
524.562445841
 30
0.0
 11
341.700000446
 21
523.262446287
 31
0.0
  0
LINE
  8
0
  6
CONTINUOUS
 62
     1
 10
341.700000446
 20
524.562445841
 30
0.0
 11
343.0
 21
525.862445394
 31
0.0
  0
LINE
  8
0
  6
CONTINUOUS
 62
     1
 10
343.0
 20
529.162445841
 30
0.0
 11
341.7
 21
529.162445841
 31
0.0
  0
LINE
  8
0
  6
CONTINUOUS
 62
     1
 10
313.0
 20
484.7
 30
0.0
 11
314.0
 21
484.7
 31
0.0
  0
LINE
  8
0
  6
CONTINUOUS
 62
     1
 10
310.2
 20
485.0
 30
0.0
 11
310.517542648
 21
484.45
 31
0.0
  0
LINE
  8
0
  6
CONTINUOUS
 62
     1
 10
310.517542648
 20
484.45
 30
0.0
 11
313.0
 21
484.45
 31
0.0
  0
ARC
  8
0
  6
CONTINUOUS
 62
     1
 10
311.972973788
 20
485.4625
 30
0.0
 40
1.772973788
 50
145.174816769
 51
214.825183231
  0
LINE
  8
0
  6
CONTINUOUS
 62
     1
 10
313.0
 20
492.55
 30
0.0
 11
313.0
 21
484.45
 31
0.0
  0
LINE
  8
0
  6
CONTINUOUS
 62
     1
 10
313.0
 20
492.3
 30
0.0
 11
314.0
 21
492.3
 31
0.0
  0
LINE
  8
0
  6
CONTINUOUS
 62
     1
 10
313.0
 20
488.5
 30
0.0
 11
314.0
 21
489.5
 31
0.0
  0
LINE
  8
0
  6
CONTINUOUS
 62
     1
 10
310.517542648
 20
492.55
 30
0.0
 11
313.0
 21
492.55
 31
0.0
  0
LINE
  8
0
  6
CONTINUOUS
 62
     1
 10
310.2
 20
492.0
 30
0.0
 11
310.517542648
 21
492.55
 31
0.0
  0
LINE
  8
0
  6
CONTINUOUS
 62
     1
 10
310.517542648
 20
490.525
 30
0.0
 11
313.0
 21
490.525
 31
0.0
  0
ARC
  8
0
  6
CONTINUOUS
 62
     1
 10
311.972973788
 20
491.5375
 30
0.0
 40
1.772973788
 50
145.174816769
 51
214.825183231
  0
LINE
  8
0
  6
CONTINUOUS
 62
     1
 10
313.0
 20
487.5
 30
0.0
 11
314.0
 21
488.5
 31
0.0
  0
LINE
  8
0
  6
CONTINUOUS
 62
     1
 10
310.517542648
 20
486.475
 30
0.0
 11
313.0
 21
486.475
 31
0.0
  0
LINE
  8
0
  6
CONTINUOUS
 62
     1
 10
310.2
 20
492.0
 30
0.0
 11
310.2
 21
485.0
 31
0.0
  0
ARC
  8
0
  6
CONTINUOUS
 62
     1
 10
316.815581181
 20
488.5
 30
0.0
 40
6.615581181
 50
162.175912681
 51
197.824087319
  0
ARC
  8
0
  6
CONTINUOUS
 62
     1
 10
341.5
 20
445.429475845
 30
0.0
 40
1.5
 50
0.0
 51
71.029592192
  0
LINE
  8
0
  6
CONTINUOUS
 62
     1
 10
341.7
 20
452.437554159
 30
0.0
 11
341.7
 21
457.049434159
 31
0.0
  0
LINE
  8
0
  6
CONTINUOUS
 62
     1
 10
338.1998
 20
455.919994159
 30
0.0
 11
338.851882488
 21
457.049434159
 31
0.0
  0
LINE
  8
0
  6
CONTINUOUS
 62
     1
 10
338.1998
 20
452.437554159
 30
0.0
 11
338.1998
 21
455.919994159
 31
0.0
  0
ARC
  8
0
  6
CONTINUOUS
 62
     1
 10
339.544720132
 20
455.896464159
 30
0.0
 40
1.34512595
 50
177.010501597
 51
238.997686085
  0
LINE
  8
0
  6
CONTINUOUS
 62
     1
 10
341.7
 20
457.049434159
 30
0.0
 11
338.851882488
 21
457.049434159
 31
0.0
  0
LINE
  8
0
  6
CONTINUOUS
 62
     1
 10
343.0
 20
457.037554159
 30
0.0
 11
341.7
 21
457.037554159
 31
0.0
  0
LINE
  8
0
  6
CONTINUOUS
 62
     1
 10
341.7
 20
452.437554159
 30
0.0
 11
341.7
 21
447.825674159
 31
0.0
  0
LINE
  8
0
  6
CONTINUOUS
 62
     1
 10
338.1998
 20
448.955114159
 30
0.0
 11
338.851882488
 21
447.825674159
 31
0.0
  0
LINE
  8
0
  6
CONTINUOUS
 62
     1
 10
338.1998
 20
452.437554159
 30
0.0
 11
338.1998
 21
448.955114159
 31
0.0
  0
ARC
  8
0
  6
CONTINUOUS
 62
     1
 10
342.603054926
 20
452.437554159
 30
0.0
 40
4.403254926
 50
148.419912243
 51
211.580087757
  0
LINE
  8
0
  6
CONTINUOUS
 62
     1
 10
338.1998
 20
448.955114159
 30
0.0
 11
338.851882488
 21
447.825674159
 31
0.0
  0
ARC
  8
0
  6
CONTINUOUS
 62
     1
 10
339.544720132
 20
448.978644159
 30
0.0
 40
1.34512595
 50
121.002313915
 51
182.989498403
  0
LINE
  8
0
  6
CONTINUOUS
 62
     1
 10
341.7
 20
450.131614159
 30
0.0
 11
338.851882488
 21
450.131614159
 31
0.0
  0
LINE
  8
0
  6
CONTINUOUS
 62
     1
 10
341.7
 20
447.825674159
 30
0.0
 11
338.851882488
 21
447.825674159
 31
0.0
  0
LINE
  8
0
  6
CONTINUOUS
 62
     1
 10
343.0
 20
447.837554159
 30
0.0
 11
341.7
 21
447.837554159
 31
0.0
  0
LINE
  8
0
  6
CONTINUOUS
 62
     1
 10
341.7
 20
454.743494159
 30
0.0
 11
338.851882488
 21
454.743494159
 31
0.0
  0
LINE
  8
0
  6
CONTINUOUS
 62
     1
 10
343.0
 20
452.437554159
 30
0.0
 11
341.700000446
 21
453.737553713
 31
0.0
  0
LINE
  8
0
  6
CONTINUOUS
 62
     1
 10
341.700000446
 20
452.437554159
 30
0.0
 11
343.0
 21
451.137554606
 31
0.0
  0
LINE
  8
0
  6
CONTINUOUS
 62
     1
 10
504.5
 20
549.5
 30
0.0
 11
511.0
 21
549.5
 31
0.0
  0
LINE
  8
0
  6
CONTINUOUS
 62
     1
 10
511.0
 20
427.5
 30
0.0
 11
511.0
 21
488.5
 31
0.0
  0
LINE
  8
0
  6
CONTINUOUS
 62
     1
 10
504.499990656
 20
427.5
 30
0.0
 11
511.0
 21
427.5
 31
0.0
  0
LINE
  8
0
  6
CONTINUOUS
 62
     1
 10
511.0
 20
549.5
 30
0.0
 11
511.0
 21
427.5
 31
0.0
  0
LINE
  8
2
  6
CONTINUOUS
 62
     2
 10
372.495317777
 20
488.5
 30
0.0
 11
375.083508228
 21
498.159258263
 31
0.0
  0
LINE
  8
2
  6
CONTINUOUS
 62
     2
 10
372.495317777
 20
488.5
 30
0.0
 11
369.907127326
 21
498.159258263
 31
0.0
  0
LINE
  8
2
  6
CONTINUOUS
 62
     2
 10
372.495317777
 20
488.5
 30
0.0
 11
372.495317777
 21
613.5
 31
0.0
  0
LINE
  8
2
  6
CONTINUOUS
 62
     2
 10
372.495317777
 20
613.5
 30
0.0
 11
369.907127326
 21
603.840741737
 31
0.0
  0
LINE
  8
2
  6
CONTINUOUS
 62
     2
 10
372.495317777
 20
613.5
 30
0.0
 11
375.083508228
 21
603.840741737
 31
0.0
  0
LINE
  8
2
  6
CONTINUOUS
 62
     2
 10
423.0
 20
613.5
 30
0.0
 11
368.495317777
 21
613.5
 31
0.0
  0
LINE
  8
0
  6
LTYPE3
 62
     2
 10
563.9
 20
488.5
 30
0.0
 11
292.0
 21
488.5
 31
0.0
  0
ARC
  8
0
  6
CONTINUOUS
 62
     1
 10
529.0
 20
581.0
 30
0.0
 40
15.0
 50
90.0
 51
180.0
  0
LINE
  8
0
  6
CONTINUOUS
 62
     1
 10
529.0
 20
596.0
 30
0.0
 11
577.000007629
 21
596.0
 31
0.0
  0
LINE
  8
0
  6
CONTINUOUS
 62
     1
 10
511.0
 20
546.0
 30
0.0
 11
512.00001079
 21
546.0
 31
0.0
  0
LINE
  8
0
  6
CONTINUOUS
 62
     1
 10
514.0
 20
581.0
 30
0.0
 11
514.0
 21
548.000007629
 31
0.0
  0
ARC
  8
0
  6
CONTINUOUS
 62
     1
 10
512.0
 20
548.0
 30
0.0
 40
2.0
 50
270.000309099
 51
0.000218566
  0
LINE
  8
0
  6
CONTINUOUS
 62
     1
 10
571.0
 20
488.5
 30
0.0
 11
577.0
 21
488.5
 31
0.0
  0
LINE
  8
2
  6
CONTINUOUS
 62
     2
 10
545.5
 20
541.5
 30
0.0
 11
539.5
 21
541.5
 31
0.0
  0
LINE
  8
2
  6
CONTINUOUS
 62
     2
 10
547.5
 20
541.5
 30
0.0
 11
544.911809549
 21
531.840741737
 31
0.0
  0
LINE
  8
2
  6
CONTINUOUS
 62
     2
 10
547.5
 20
541.5
 30
0.0
 11
550.088190451
 21
531.840741737
 31
0.0
  0
LINE
  8
2
  6
CONTINUOUS
 62
     2
 10
547.5
 20
541.5
 30
0.0
 11
547.5
 21
488.5
 31
0.0
  0
LINE
  8
2
  6
CONTINUOUS
 62
     2
 10
547.5
 20
488.5
 30
0.0
 11
550.088190451
 21
498.159258263
 31
0.0
  0
LINE
  8
2
  6
CONTINUOUS
 62
     2
 10
547.5
 20
488.5
 30
0.0
 11
544.911809549
 21
498.159258263
 31
0.0
  0
LINE
  8
2
  6
CONTINUOUS
 62
     2
 10
544.5
 20
488.5
 30
0.0
 11
539.5
 21
488.5
 31
0.0
  0
LINE
  8
0
  6
CONTINUOUS
 62
     1
 10
526.0
 20
453.5
 30
0.0
 11
568.000007629
 21
453.5
 31
0.0
  0
ARC
  8
0
  6
CONTINUOUS
 62
     1
 10
526.0
 20
450.5
 30
0.0
 40
3.0
 50
90.0
 51
180.0
  0
ARC
  8
0
  6
CONTINUOUS
 62
     1
 10
520.0
 20
431.5
 30
0.0
 40
3.0
 50
270.0
 51
0.0
  0
LINE
  8
0
  6
CONTINUOUS
 62
     1
 10
523.0
 20
450.5
 30
0.0
 11
523.0
 21
431.5
 31
0.0
  0
LINE
  8
0
  6
CONTINUOUS
 62
     1
 10
511.0
 20
428.5
 30
0.0
 11
544.000007629
 21
428.5
 31
0.0
  0
ARC
  8
0
  6
CONTINUOUS
 62
     1
 10
544.0
 20
431.5
 30
0.0
 40
3.0
 50
270.000145711
 51
0.00014571
  0
LINE
  8
0
  6
CONTINUOUS
 62
     1
 10
547.0
 20
450.500007629
 30
0.0
 11
547.0
 21
431.500007629
 31
0.0
  0
ARC
  8
0
  6
CONTINUOUS
 62
     1
 10
550.0
 20
450.5
 30
0.0
 40
3.0
 50
90.0
 51
179.99985429
  0
ARC
  8
0
  6
CONTINUOUS
 62
     1
 10
568.0
 20
456.5
 30
0.0
 40
3.0
 50
270.000145711
 51
0.0
  0
LINE
  8
0
  6
CONTINUOUS
 62
     1
 10
571.0
 20
456.5
 30
0.0
 11
571.0
 21
596.0
 31
0.0
  0
LINE
  8
0
  6
CONTINUOUS
 62
     2
 10
398.0
 20
583.5
 30
0.0
 11
384.930224855
 21
648.032014776
 31
0.0
  0
LINE
  8
0
  6
CONTINUOUS
 62
     2
 10
384.930224855
 20
648.032014776
 30
0.0
 11
330.558072957
 21
648.032014776
 31
0.0
  0
LINE
  8
0
  6
LTYPE3
 62
     2
 10
541.0
 20
541.5
 30
0.0
 11
1046.3
 21
541.5
 31
0.0
  0
LINE
  8
0
  6
CONTINUOUS
 62
     1
 10
579.0
 20
490.5
 30
0.0
 11
579.0
 21
594.00001079
 31
0.0
  0
ARC
  8
0
  6
CONTINUOUS
 62
     1
 10
577.0
 20
594.0
 30
0.0
 40
2.0
 50
0.000309099
 51
89.999781434
  0
LINE
  8
0
  6
CONTINUOUS
 62
     1
 10
529.0
 20
596.0
 30
0.0
 11
577.000007629
 21
596.0
 31
0.0
  0
ARC
  8
0
  6
CONTINUOUS
 62
     1
 10
577.0
 20
490.5
 30
0.0
 40
2.0
 50
270.0
 51
0.0
  0
LINE
  8
0
  6
CONTINUOUS
 62
     1
 10
579.0
 20
490.5
 30
0.0
 11
579.0
 21
594.00001079
 31
0.0
  0
LINE
  8
0
  6
CONTINUOUS
 62
     1
 10
571.0
 20
488.5
 30
0.0
 11
577.0
 21
488.5
 31
0.0
  0
LINE
  8
2
  6
CONTINUOUS
 62
     2
 10
641.0
 20
771.0
 30
0.0
 11
641.0
 21
775.0
 31
0.0
  0
LINE
  8
2
  6
CONTINUOUS
 62
     2
 10
641.0
 20
767.0
 30
0.0
 11
631.340741737
 21
769.588190451
 31
0.0
  0
LINE
  8
2
  6
CONTINUOUS
 62
     2
 10
641.0
 20
767.0
 30
0.0
 11
631.340741737
 21
764.411809549
 31
0.0
  0
LINE
  8
2
  6
CONTINUOUS
 62
     2
 10
641.0
 20
767.0
 30
0.0
 11
298.0
 21
767.0
 31
0.0
  0
LINE
  8
2
  6
CONTINUOUS
 62
     2
 10
298.0
 20
767.0
 30
0.0
 11
307.659258263
 21
764.411809549
 31
0.0
  0
LINE
  8
2
  6
CONTINUOUS
 62
     2
 10
298.0
 20
767.0
 30
0.0
 11
307.659258263
 21
769.588190451
 31
0.0
  0
LINE
  8
2
  6
CONTINUOUS
 62
     2
 10
298.0
 20
506.500007629
 30
0.0
 11
298.0
 21
775.0
 31
0.0
  0
LINE
  8
2
  6
CONTINUOUS
 62
     2
 10
1022.0
 20
788.5
 30
0.0
 11
1022.0
 21
804.5
 31
0.0
  0
LINE
  8
2
  6
CONTINUOUS
 62
     2
 10
1022.0
 20
796.5
 30
0.0
 11
1012.340741737
 21
799.088190451
 31
0.0
  0
LINE
  8
2
  6
CONTINUOUS
 62
     2
 10
1022.0
 20
796.5
 30
0.0
 11
1012.340741737
 21
793.911809549
 31
0.0
  0
LINE
  8
2
  6
CONTINUOUS
 62
     2
 10
1022.0
 20
796.5
 30
0.0
 11
298.0
 21
796.5
 31
0.0
  0
LINE
  8
2
  6
CONTINUOUS
 62
     2
 10
298.0
 20
796.5
 30
0.0
 11
307.659258263
 21
793.911809549
 31
0.0
  0
LINE
  8
2
  6
CONTINUOUS
 62
     2
 10
298.0
 20
796.5
 30
0.0
 11
307.659258263
 21
799.088190451
 31
0.0
  0
LINE
  8
2
  6
CONTINUOUS
 62
     2
 10
298.0
 20
759.5
 30
0.0
 11
298.0
 21
804.5
 31
0.0
  0
TEXT
  8
0
  6
CONTINUOUS
 62
     2
 10
1065.8
 20
530.1
 30
1.2
 40
14.0
  1
４０
 50
90.0
 41
0.857142857
 51
0.0
  7
KANJI54
  0
LINE
  8
0
  6
CONTINUOUS
 62
     2
 10
733.0
 20
675.4
 30
0.0
 11
811.0
 21
675.4
 31
0.0
  0
LINE
  8
0
  6
CONTINUOUS
 62
     2
 10
590.0
 20
658.0
 30
0.0
 11
528.0
 21
658.0
 31
0.0
  0
LINE
  8
0
  6
CONTINUOUS
 62
     2
 10
726.0
 20
462.093820875
 30
0.0
 11
769.897884886
 21
462.093820875
 31
0.0
  0
LINE
  8
0
  6
LTYPE2
 62
     2
 10
1168.9
 20
489.0
 30
0.0
 11
1308.9
 21
489.0
 31
0.0
  0
LINE
  8
0
  6
CONTINUOUS
 62
     2
 10
1314.9
 20
489.0
 30
0.0
 11
1333.8
 21
489.0
 31
0.0
  0
LINE
  8
0
  6
CONTINUOUS
 62
     2
 10
1327.8
 20
428.0
 30
0.0
 11
1330.388190451
 21
437.659258263
 31
0.0
  0
LINE
  8
0
  6
CONTINUOUS
 62
     2
 10
1327.8
 20
428.0
 30
0.0
 11
1325.211809549
 21
437.659258263
 31
0.0
  0
LINE
  8
0
  6
CONTINUOUS
 62
     2
 10
1290.5
 20
428.0
 30
0.0
 11
1333.8
 21
428.0
 31
0.0
  0
LINE
  8
0
  6
CONTINUOUS
 62
     2
 10
1327.8
 20
489.0
 30
0.0
 11
1330.388190451
 21
479.340741737
 31
0.0
  0
LINE
  8
0
  6
CONTINUOUS
 62
     2
 10
1327.8
 20
489.0
 30
0.0
 11
1325.211809549
 21
479.340741737
 31
0.0
  0
LINE
  8
0
  6
CONTINUOUS
 62
     2
 10
1327.8
 20
428.0
 30
0.0
 11
1327.8
 21
489.0
 31
0.0
  0
LINE
  8
0
  6
CONTINUOUS
 62
     2
 10
1237.0
 20
428.0
 30
0.0
 11
1237.0
 21
408.5
 31
0.0
  0
LINE
  8
2
  6
CONTINUOUS
 62
     2
 10
1292.000015259
 20
428.0
 30
0.0
 11
1336.5
 21
428.0
 31
0.0
  0
LINE
  8
2
  6
CONTINUOUS
 62
     2
 10
1326.8
 20
489.0
 30
0.0
 11
1335.8
 21
489.0
 31
0.0
  0
LINE
  8
0
  6
CONTINUOUS
 62
     1
 10
1206.0
 20
550.0
 30
0.0
 11
1206.0
 21
534.0
 31
0.0
  0
LINE
  8
0
  6
CONTINUOUS
 62
     1
 10
1229.0
 20
562.0
 30
0.0
 11
1229.0
 21
522.0
 31
0.0
  0
LINE
  8
0
  6
CONTINUOUS
 62
     1
 10
1217.0
 20
562.0
 30
0.0
 11
1217.0
 21
522.0
 31
0.0
  0
LINE
  8
0
  6
CONTINUOUS
 62
     1
 10
1217.0
 20
562.0
 30
0.0
 11
1237.0
 21
562.0
 31
0.0
  0
LINE
  8
0
  6
CONTINUOUS
 62
     1
 10
1217.0
 20
522.0
 30
0.0
 11
1237.0
 21
522.0
 31
0.0
  0
LINE
  8
0
  6
CONTINUOUS
 62
     1
 10
1229.0
 20
550.0
 30
0.0
 11
1237.0
 21
550.0
 31
0.0
  0
LINE
  8
0
  6
CONTINUOUS
 62
     1
 10
1229.0
 20
534.0
 30
0.0
 11
1237.0
 21
534.0
 31
0.0
  0
LINE
  8
0
  6
CONTINUOUS
 62
     1
 10
1268.0
 20
550.0
 30
0.0
 11
1268.0
 21
534.0
 31
0.0
  0
LINE
  8
0
  6
CONTINUOUS
 62
     1
 10
1245.0
 20
562.0
 30
0.0
 11
1245.0
 21
522.0
 31
0.0
  0
LINE
  8
0
  6
CONTINUOUS
 62
     1
 10
1257.0
 20
562.0
 30
0.0
 11
1257.0
 21
522.0
 31
0.0
  0
LINE
  8
0
  6
CONTINUOUS
 62
     1
 10
1257.0
 20
562.0
 30
0.0
 11
1237.0
 21
562.0
 31
0.0
  0
LINE
  8
0
  6
CONTINUOUS
 62
     1
 10
1257.0
 20
522.0
 30
0.0
 11
1237.0
 21
522.0
 31
0.0
  0
LINE
  8
0
  6
CONTINUOUS
 62
     1
 10
1245.0
 20
550.0
 30
0.0
 11
1237.0
 21
550.0
 31
0.0
  0
LINE
  8
0
  6
CONTINUOUS
 62
     1
 10
1245.0
 20
534.0
 30
0.0
 11
1237.0
 21
534.0
 31
0.0
  0
LINE
  8
0
  6
LTYPE3
 62
     2
 10
1174.6
 20
542.0
 30
0.0
 11
1297.8
 21
542.0
 31
0.0
  0
LINE
  8
0
  6
CONTINUOUS
 62
     1
 10
1214.0
 20
527.0
 30
0.0
 11
1214.0
 21
557.0
 31
0.0
  0
LINE
  8
0
  6
CONTINUOUS
 62
     1
 10
1217.0
 20
527.0
 30
0.0
 11
1214.0
 21
527.0
 31
0.0
  0
LINE
  8
0
  6
CONTINUOUS
 62
     1
 10
1217.0
 20
557.0
 30
0.0
 11
1214.0
 21
557.0
 31
0.0
  0
LINE
  8
0
  6
LTYPE2
 62
     2
 10
1211.35
 20
537.6
 30
0.0
 11
1211.35
 21
546.0
 31
0.0
  0
CIRCLE
  8
0
  6
CONTINUOUS
 62
     1
 10
1211.35
 20
542.0
 30
0.0
 40
2.0
  0
LINE
  8
0
  6
CONTINUOUS
 62
     1
 10
1260.0
 20
557.0
 30
0.0
 11
1260.0
 21
527.0
 31
0.0
  0
LINE
  8
0
  6
CONTINUOUS
 62
     1
 10
1257.0
 20
557.0
 30
0.0
 11
1260.0
 21
557.0
 31
0.0
  0
LINE
  8
0
  6
CONTINUOUS
 62
     1
 10
1257.0
 20
527.0
 30
0.0
 11
1260.0
 21
527.0
 31
0.0
  0
LINE
  8
0
  6
LTYPE2
 62
     2
 10
1262.65
 20
546.4
 30
0.0
 11
1262.65
 21
538.0
 31
0.0
  0
CIRCLE
  8
0
  6
CONTINUOUS
 62
     1
 10
1262.65
 20
542.0
 30
0.0
 40
2.0
  0
LINE
  8
0
  6
CONTINUOUS
 62
     1
 10
1206.0
 20
550.0
 30
0.0
 11
1214.0
 21
550.0
 31
0.0
  0
LINE
  8
0
  6
LTYPE1
 62
     2
 10
1229.0
 20
550.0
 30
0.0
 11
1214.0
 21
550.0
 31
0.0
  0
LINE
  8
0
  6
CONTINUOUS
 62
     1
 10
1206.0
 20
534.0
 30
0.0
 11
1214.0
 21
534.0
 31
0.0
  0
LINE
  8
0
  6
LTYPE1
 62
     2
 10
1229.0
 20
534.0
 30
0.0
 11
1214.0
 21
534.0
 31
0.0
  0
LINE
  8
0
  6
CONTINUOUS
 62
     1
 10
1268.0
 20
550.0
 30
0.0
 11
1260.0
 21
550.0
 31
0.0
  0
LINE
  8
0
  6
CONTINUOUS
 62
     1
 10
1268.0
 20
534.0
 30
0.0
 11
1260.0
 21
534.0
 31
0.0
  0
LINE
  8
0
  6
LTYPE1
 62
     2
 10
1245.0
 20
534.0
 30
0.0
 11
1260.0
 21
534.0
 31
0.0
  0
LINE
  8
0
  6
LTYPE1
 62
     2
 10
1245.0
 20
550.0
 30
0.0
 11
1260.0
 21
550.0
 31
0.0
  0
LINE
  8
0
  6
CONTINUOUS
 62
     1
 10
1282.0
 20
565.0
 30
0.0
 11
1282.0
 21
587.0
 31
0.0
  0
LINE
  8
0
  6
CONTINUOUS
 62
     1
 10
1297.0
 20
522.0
 30
0.0
 11
1297.0
 21
562.0
 31
0.0
  0
LINE
  8
0
  6
CONTINUOUS
 62
     1
 10
1282.0
 20
564.787483461
 30
0.0
 11
1297.0
 21
562.0
 31
0.0
  0
LINE
  8
0
  6
LTYPE1
 62
     2
 10
1275.0
 20
534.0
 30
0.0
 11
1297.0
 21
534.0
 31
0.0
  0
LINE
  8
0
  6
LTYPE1
 62
     2
 10
1275.0
 20
550.0
 30
0.0
 11
1297.0
 21
550.0
 31
0.0
  0
LINE
  8
0
  6
LTYPE1
 62
     2
 10
1275.0
 20
534.0
 30
0.0
 11
1275.0
 21
550.0
 31
0.0
  0
LINE
  8
0
  6
LTYPE1
 62
     2
 10
1199.0
 20
534.0
 30
0.0
 11
1177.0
 21
534.0
 31
0.0
  0
LINE
  8
0
  6
LTYPE1
 62
     2
 10
1199.0
 20
534.0
 30
0.0
 11
1199.0
 21
550.0
 31
0.0
  0
CIRCLE
  8
0
  6
CONTINUOUS
 62
     1
 10
1276.0
 20
503.0
 30
0.0
 40
5.0
  0
LINE
  8
0
  6
CONTINUOUS
 62
     1
 10
1279.008220679
 20
493.935092126
 30
0.0
 11
1243.715102543
 21
489.427122983
 31
0.0
  0
ARC
  8
0
  6
CONTINUOUS
 62
     1
 10
1278.121320344
 20
500.878679656
 30
0.0
 40
7.0
 50
285.275864075
 51
352.721057981
  0
LINE
  8
0
  6
CONTINUOUS
 62
     1
 10
1285.064907874
 20
499.991779321
 30
0.0
 11
1287.677546324
 21
520.446257721
 31
0.0
  0
LINE
  8
0
  6
LTYPE1
 62
     2
 10
1267.915102543
 20
503.0
 30
0.0
 11
1284.415102543
 21
503.0
 31
0.0
  0
LINE
  8
0
  6
LTYPE1
 62
     2
 10
1276.0
 20
495.327122983
 30
0.0
 11
1276.0
 21
511.627122983
 31
0.0
  0
CIRCLE
  8
0
  6
CONTINUOUS
 62
     1
 10
1198.0
 20
503.0
 30
0.0
 40
5.0
  0
LINE
  8
0
  6
CONTINUOUS
 62
     1
 10
1194.991779321
 20
493.935092126
 30
0.0
 11
1230.284897457
 21
489.427122983
 31
0.0
  0
ARC
  8
0
  6
CONTINUOUS
 62
     1
 10
1195.878679656
 20
500.878679656
 30
0.0
 40
7.0
 50
187.278942019
 51
254.724135925
  0
LINE
  8
0
  6
CONTINUOUS
 62
     1
 10
1188.935092126
 20
499.991779321
 30
0.0
 11
1186.322453676
 21
520.446257721
 31
0.0
  0
LINE
  8
0
  6
LTYPE1
 62
     2
 10
1206.084897457
 20
503.0
 30
0.0
 11
1189.584897457
 21
503.0
 31
0.0
  0
LINE
  8
0
  6
LTYPE1
 62
     2
 10
1198.0
 20
495.327122983
 30
0.0
 11
1198.0
 21
511.627122983
 31
0.0
  0
ARC
  8
0
  6
CONTINUOUS
 62
     1
 10
1278.121320344
 20
583.121320344
 30
0.0
 40
7.0
 50
0.0
 51
7.278942019
  0
LINE
  8
0
  6
CONTINUOUS
 62
     1
 10
1285.064907874
 20
584.008220679
 30
0.0
 11
1287.677546324
 21
563.553742279
 31
0.0
  0
LINE
  8
0
  6
LTYPE1
 62
     2
 10
1267.915102543
 20
581.0
 30
0.0
 11
1284.415102543
 21
581.0
 31
0.0
  0
LINE
  8
0
  6
LTYPE1
 62
     2
 10
1276.0
 20
588.672877017
 30
0.0
 11
1276.0
 21
572.372877017
 31
0.0
  0
ARC
  8
0
  6
CONTINUOUS
 62
     1
 10
1195.878679656
 20
583.121320344
 30
0.0
 40
7.0
 50
172.721057981
 51
180.0
  0
LINE
  8
0
  6
LTYPE1
 62
     2
 10
1206.084897457
 20
581.0
 30
0.0
 11
1189.584897457
 21
581.0
 31
0.0
  0
LINE
  8
0
  6
LTYPE1
 62
     2
 10
1198.0
 20
588.672877017
 30
0.0
 11
1198.0
 21
572.372877017
 31
0.0
  0
CIRCLE
  8
0
  6
LTYPE1
 62
     2
 10
1276.0
 20
581.0
 30
0.0
 40
5.0
  0
CIRCLE
  8
0
  6
LTYPE1
 62
     2
 10
1198.0
 20
581.0
 30
0.0
 40
5.0
  0
LINE
  8
0
  6
CONTINUOUS
 62
     1
 10
1190.0
 20
519.833333333
 30
0.0
 11
1177.0
 21
522.0
 31
0.0
  0
LINE
  8
0
  6
CONTINUOUS
 62
     1
 10
1282.0
 20
565.0
 30
0.0
 11
1280.820823288
 21
560.329905793
 31
0.0
  0
LINE
  8
0
  6
CONTINUOUS
 62
     1
 10
1278.515396986
 20
518.919232831
 30
0.0
 11
1297.0
 21
522.0
 31
0.0
  0
LINE
  8
0
  6
CONTINUOUS
 62
     1
 10
1177.0
 20
522.0
 30
0.0
 11
1177.0
 21
562.0
 31
0.0
  0
LINE
  8
0
  6
CONTINUOUS
 62
     1
 10
1192.0
 20
564.787483461
 30
0.0
 11
1177.0
 21
562.0
 31
0.0
  0
LINE
  8
0
  6
CONTINUOUS
 62
     1
 10
1188.935092126
 20
584.008220679
 30
0.0
 11
1186.322453676
 21
563.553742279
 31
0.0
  0
LINE
  8
0
  6
CONTINUOUS
 62
     1
 10
1192.0
 20
565.0
 30
0.0
 11
1192.0
 21
587.0
 31
0.0
  0
LINE
  8
0
  6
CONTINUOUS
 62
     1
 10
1192.0
 20
565.0
 30
0.0
 11
1193.179176712
 21
560.329905793
 31
0.0
  0
LINE
  8
0
  6
LTYPE1
 62
     2
 10
1276.0
 20
588.672877017
 30
0.0
 11
1276.0
 21
572.372877017
 31
0.0
  0
LINE
  8
0
  6
LTYPE1
 62
     2
 10
1198.0
 20
588.672877017
 30
0.0
 11
1198.0
 21
572.372877017
 31
0.0
  0
CIRCLE
  8
0
  6
LTYPE1
 62
     2
 10
1276.0
 20
581.0
 30
0.0
 40
5.0
  0
CIRCLE
  8
0
  6
LTYPE1
 62
     2
 10
1198.0
 20
581.0
 30
0.0
 40
5.0
  0
ARC
  8
0
  6
CONTINUOUS
 62
     1
 10
1189.0
 20
589.0
 30
0.0
 40
3.0
 50
180.0
 51
270.0
  0
ARC
  8
0
  6
CONTINUOUS
 62
     1
 10
1285.0
 20
589.0
 30
0.0
 40
3.0
 50
270.0
 51
0.0
  0
LINE
  8
0
  6
CONTINUOUS
 62
     1
 10
1288.0
 20
635.5
 30
0.0
 11
1288.0
 21
589.0
 31
0.0
  0
ARC
  8
0
  6
CONTINUOUS
 62
     1
 10
1287.0
 20
635.5
 30
0.0
 40
1.0
 50
360.0
 51
90.0
  0
ARC
  8
0
  6
CONTINUOUS
 62
     1
 10
1284.0
 20
636.5
 30
0.0
 40
1.0
 50
360.0
 51
90.0
  0
LINE
  8
0
  6
CONTINUOUS
 62
     1
 10
1186.0
 20
635.5
 30
0.0
 11
1186.0
 21
589.0
 31
0.0
  0
ARC
  8
0
  6
CONTINUOUS
 62
     1
 10
1187.0
 20
635.5
 30
0.0
 40
1.0
 50
90.0
 51
180.0
  0
ARC
  8
0
  6
CONTINUOUS
 62
     1
 10
1190.0
 20
636.5
 30
0.0
 40
1.0
 50
90.0
 51
180.0
  0
LINE
  8
0
  6
CONTINUOUS
 62
     1
 10
1186.0
 20
630.5
 30
0.0
 11
1288.0
 21
630.5
 31
0.0
  0
LINE
  8
0
  6
CONTINUOUS
 62
     1
 10
1186.0
 20
629.0
 30
0.0
 11
1288.0
 21
629.0
 31
0.0
  0
LINE
  8
0
  6
CONTINUOUS
 62
     1
 10
1190.0
 20
637.5
 30
0.0
 11
1284.0
 21
637.5
 31
0.0
  0
LINE
  8
0
  6
CONTINUOUS
 62
     1
 10
1187.0
 20
636.5
 30
0.0
 11
1287.0
 21
636.5
 31
0.0
  0
LINE
  8
0
  6
LTYPE3
 62
     3
 10
1217.1
 20
612.0
 30
0.0
 11
1257.8
 21
612.0
 31
0.0
  0
CIRCLE
  8
0
  6
LTYPE1
 62
     2
 10
1237.0
 20
612.0
 30
0.0
 40
10.4775
  0
CIRCLE
  8
0
  6
LTYPE1
 62
     2
 10
1237.0
 20
612.0
 30
0.0
 40
9.3155
  0
LINE
  8
0
  6
LTYPE3
 62
     2
 10
1237.0
 20
641.2
 30
0.0
 11
1237.0
 21
425.5
 31
0.0
  0
LINE
  8
0
  6
CONTINUOUS
 62
     1
 10
1285.0
 20
586.0
 30
0.0
 11
1255.295530168
 21
586.0
 31
0.0
  0
LINE
  8
0
  6
CONTINUOUS
 62
     1
 10
1218.704469832
 20
586.0
 30
0.0
 11
1189.0
 21
586.0
 31
0.0
  0
LINE
  8
0
  6
LTYPE1
 62
     1
 10
1254.895530168
 20
586.0
 30
0.0
 11
1219.104469832
 21
586.0
 31
0.0
  0
ARC
  8
0
  6
CONTINUOUS
 62
     1
 10
1195.878679656
 20
583.121320344
 30
0.0
 40
7.0
 50
151.513525439
 51
172.721057981
  0
ARC
  8
0
  6
CONTINUOUS
 62
     1
 10
1278.121320344
 20
583.121320344
 30
0.0
 40
7.0
 50
7.278942019
 51
24.68888814
  0
LINE
  8
0
  6
CONTINUOUS
 62
     1
 10
1282.0
 20
565.0
 30
0.0
 11
1282.0
 21
586.0
 31
0.0
  0
CIRCLE
  8
0
  6
CONTINUOUS
 62
     1
 10
1237.0
 20
542.0
 30
0.0
 40
47.5
  0
ARC
  8
0
  6
CONTINUOUS
 62
     1
 10
1237.0
 20
542.0
 30
0.0
 40
53.0
 50
270.0
 51
277.278942019
  0
ARC
  8
0
  6
CONTINUOUS
 62
     1
 10
1237.0
 20
542.0
 30
0.0
 40
53.0
 50
262.721057981
 51
270.0
  0
LINE
  8
2
  6
CONTINUOUS
 62
     2
 10
1327.8
 20
489.0
 30
0.0
 11
1335.8
 21
489.0
 31
0.0
  0
LINE
  8
2
  6
CONTINUOUS
 62
     2
 10
1327.8
 20
489.0
 30
0.0
 11
1330.388190451
 21
498.659258263
 31
0.0
  0
LINE
  8
2
  6
CONTINUOUS
 62
     2
 10
1327.8
 20
489.0
 30
0.0
 11
1325.211809549
 21
498.659258263
 31
0.0
  0
LINE
  8
2
  6
CONTINUOUS
 62
     2
 10
1327.8
 20
489.0
 30
0.0
 11
1327.8
 21
637.5
 31
0.0
  0
LINE
  8
2
  6
CONTINUOUS
 62
     2
 10
1327.8
 20
637.5
 30
0.0
 11
1325.211809549
 21
627.840741737
 31
0.0
  0
LINE
  8
2
  6
CONTINUOUS
 62
     2
 10
1327.8
 20
637.5
 30
0.0
 11
1330.388190451
 21
627.840741737
 31
0.0
  0
LINE
  8
2
  6
CONTINUOUS
 62
     2
 10
1288.0
 20
637.5
 30
0.0
 11
1335.8
 21
637.5
 31
0.0
  0
TEXT
  8
0
  6
CONTINUOUS
 62
     2
 10
1830.75
 20
1247.625
 30
1.0
 40
15.0
  1
ＭＣＳＬＢＢ０１－　　Ｊ
 50
0.0
 41
0.833333333
 51
0.0
  7
KANJI55
  0
TEXT
  8
0
  6
CONTINUOUS
 62
     2
 10
1559.75
 20
212.0
 30
0.0
 40
17.5
  1
ＭＣＳＬＢＢ０１－Ｊ
 50
0.0
 41
0.793650794
 51
0.0
  7
KANJI56
  0
TEXT
  8
0
  6
CONTINUOUS
 62
     2
 10
1655.4166945
 20
131.999995
 30
10.833333333
 40
25.0
  1
３００２３５２
 50
0.0
 41
0.8
 51
0.0
  7
KANJI57
  0
TEXT
  8
2
  6
CONTINUOUS
 62
     3
 10
449.1
 20
771.0
 30
0.0
 40
15.0
  1
３４３
 50
0.0
 41
0.9
 51
0.0
  7
KANJI58
  0
TEXT
  8
0
  6
CONTINUOUS
 62
     2
 10
632.6
 20
800.5
 30
0.0
 40
15.0
  1
ｍｉｎ．ＡＬ
 50
0.0
 41
0.9
 51
0.0
  7
KANJI58
  0
TEXT
  8
0
  6
CONTINUOUS
 62
     2
 10
797.1
 20
771.0
 30
0.0
 40
15.0
  1
ｍｉｎ．Ｌ
 50
0.0
 41
0.9
 51
0.0
  7
KANJI58
  0
TEXT
  8
0
  6
CONTINUOUS
 62
     2
 10
778.6
 20
740.5
 30
0.0
 40
15.0
  1
Ｃ
 50
0.0
 41
0.9
 51
0.0
  7
KANJI58
  0
TEXT
  8
0
  6
CONTINUOUS
 62
     2
 10
992.7
 20
740.5
 30
0.0
 40
15.0
  1
３５
 50
0.0
 41
0.9
 51
0.0
  7
KANJI58
  0
TEXT
  8
0
  6
CONTINUOUS
 62
     2
 10
917.4
 20
740.5
 30
0.0
 40
15.0
  1
ｍｉｎ．Ｐ
 50
0.0
 41
0.9
 51
0.0
  7
KANJI58
  0
TEXT
  8
2
  6
CONTINUOUS
 62
     2
 10
236.0
 20
462.7
 30
0.0
 40
15.0
  1
ロ１２２
 50
90.0
 41
0.9
 51
0.0
  7
KANJI58
  0
TEXT
  8
2
  6
CONTINUOUS
 62
     2
 10
368.658072957
 20
559.532014776
 30
0.0
 40
15.0
  1
１２５
 50
90.0
 41
0.9
 51
0.0
  7
KANJI58
  0
TEXT
  8
2
  6
CONTINUOUS
 62
     3
 10
543.5
 20
501.6
 30
0.0
 40
15.0
  1
５３
 50
90.0
 41
0.9
 51
0.0
  7
KANJI58
  0
TEXT
  8
2
  6
CONTINUOUS
 62
     2
 10
271.0
 20
462.7
 30
0.0
 40
15.0
  1
φ１１４
 50
90.0
 41
0.9
 51
0.0
  7
KANJI58
  0
TEXT
  8
0
  6
CONTINUOUS
 62
     2
 10
733.0
 20
679.4
 30
0.0
 40
15.0
  1
推力リミッタ
 50
0.0
 41
0.9
 51
0.0
  7
KANJI58
  0
TEXT
  8
0
  6
CONTINUOUS
 62
     2
 10
330.558072957
 20
652.032014776
 30
0.0
 40
15.0
  1
ＰＦ３／４
 50
0.0
 41
0.9
 51
0.0
  7
KANJI58
  0
TEXT
  8
0
  6
CONTINUOUS
 62
     2
 10
527.4
 20
662.0
 30
0.0
 40
15.0
  1
ＰＦ１／２
 50
0.0
 41
0.9
 51
0.0
  7
KANJI58
  0
TEXT
  8
0
  6
CONTINUOUS
 62
     2
 10
825.7
 20
579.5
 30
0.0
 40
15.0
  1
φ６４
 50
90.0
 41
0.9
 51
0.0
  7
KANJI58
  0
TEXT
  8
0
  6
CONTINUOUS
 62
     2
 10
727.297884886
 20
464.093820875
 30
0.0
 40
15.0
  1
給脂口
 50
0.0
 41
0.9
 51
0.0
  7
KANJI58
  0
TEXT
  8
0
  6
CONTINUOUS
 62
     2
 10
1073.833854631
 20
260.0
 30
0.0
 40
15.0
  1
１２
 50
90.0
 41
0.9
 51
0.0
  7
KANJI58
  0
TEXT
  8
0
  6
CONTINUOUS
 62
     2
 10
1101.733854631
 20
298.7
 30
0.0
 40
15.0
  1
１６
 50
90.0
 41
0.9
 51
0.0
  7
KANJI58
  0
TEXT
  8
0
  6
CONTINUOUS
 62
     2
 10
1120.2
 20
299.7
 30
0.0
 40
15.0
  1
４０
 50
90.0
 41
0.9
 51
0.0
  7
KANJI58
  0
TEXT
  8
0
  6
CONTINUOUS
 62
     2
 10
1073.333854631
 20
339.0
 30
0.0
 40
15.0
  1
１２
 50
90.0
 41
0.9
 51
0.0
  7
KANJI58
  0
TEXT
  8
0
  6
CONTINUOUS
 62
     2
 10
1039.0
 20
374.6
 30
0.0
 40
15.0
  1
φ１６
 50
0.0
 41
0.9
 51
0.0
  7
KANJI58
  0
TEXT
  8
0
  6
CONTINUOUS
 62
     2
 10
997.7
 20
386.35
 30
0.0
 40
15.0
  1
２５
 50
0.0
 41
0.9
 51
0.0
  7
KANJI58
  0
TEXT
  8
2
  6
CONTINUOUS
 62
     3
 10
1323.8
 20
528.85
 30
0.0
 40
15.0
  1
１４８．５
 50
90.0
 41
0.9
 51
0.0
  7
KANJI58
  0
TEXT
  8
0
  6
CONTINUOUS
 62
     2
 10
1324.3
 20
448.0
 30
0.0
 40
15.0
  1
６１
 50
90.0
 41
0.9
 51
0.0
  7
KANJI58
  0
TEXT
  8
0
  6
CONTINUOUS
 62
     2
 10
1364.25
 20
1111.65
 30
1.2
 40
12.0
  1
　　８５
 50
0.0
 41
0.9
 51
0.0
  7
KANJI44
  0
TEXT
  8
0
  6
CONTINUOUS
 62
     2
 10
1364.25
 20
1083.65
 30
1.2
 40
12.0
  1
　１１２
 50
0.0
 41
0.9
 51
0.0
  7
KANJI44
  0
TEXT
  8
0
  6
CONTINUOUS
 62
     2
 10
1364.25
 20
1055.65
 30
1.2
 40
12.0
  1
　１２８
 50
0.0
 41
0.9
 51
0.0
  7
KANJI44
  0
TEXT
  8
0
  6
CONTINUOUS
 62
     2
 10
1364.25
 20
1027.65
 30
1.2
 40
12.0
  1
　１４８
 50
0.0
 41
0.9
 51
0.0
  7
KANJI44
  0
TEXT
  8
0
  6
CONTINUOUS
 62
     2
 10
1204.25
 20
1027.65
 30
1.2
 40
12.0
  1
１０６１
 50
0.0
 41
0.9
 51
0.0
  7
KANJI44
  0
TEXT
  8
0
  6
CONTINUOUS
 62
     2
 10
1204.25
 20
1055.65
 30
1.2
 40
12.0
  1
　９４１
 50
0.0
 41
0.9
 51
0.0
  7
KANJI44
  0
TEXT
  8
0
  6
CONTINUOUS
 62
     2
 10
1204.25
 20
1083.65
 30
1.2
 40
12.0
  1
　７８５
 50
0.0
 41
0.9
 51
0.0
  7
KANJI44
  0
TEXT
  8
0
  6
CONTINUOUS
 62
     2
 10
1204.25
 20
1111.65
 30
1.2
 40
12.0
  1
　６５８
 50
0.0
 41
0.9
 51
0.0
  7
KANJI44
  0
TEXT
  8
0
  6
CONTINUOUS
 62
     2
 10
1204.25
 20
1139.65
 30
1.2
 40
12.0
  1
　５０８
 50
0.0
 41
0.9
 51
0.0
  7
KANJI44
  0
TEXT
  8
0
  6
CONTINUOUS
 62
     2
 10
1204.25
 20
1167.65
 30
1.2
 40
12.0
  1
　４０８
 50
0.0
 41
0.9
 51
0.0
  7
KANJI44
  0
TEXT
  8
0
  6
CONTINUOUS
 62
     2
 10
1204.25
 20
1195.65
 30
1.2
 40
12.0
  1
　３０８
 50
0.0
 41
0.9
 51
0.0
  7
KANJI44
  0
TEXT
  8
0
  6
CONTINUOUS
 62
     2
 10
1124.25
 20
1111.65
 30
1.2
 40
12.0
  1
１００１
 50
0.0
 41
0.9
 51
0.0
  7
KANJI44
  0
TEXT
  8
0
  6
CONTINUOUS
 62
     2
 10
1124.25
 20
1083.65
 30
1.2
 40
12.0
  1
１１２８
 50
0.0
 41
0.9
 51
0.0
  7
KANJI44
  0
TEXT
  8
0
  6
CONTINUOUS
 62
     2
 10
1124.25
 20
1055.65
 30
1.2
 40
12.0
  1
１２８４
 50
0.0
 41
0.9
 51
0.0
  7
KANJI44
  0
TEXT
  8
0
  6
CONTINUOUS
 62
     2
 10
1124.25
 20
1027.65
 30
1.2
 40
12.0
  1
１４０４
 50
0.0
 41
0.9
 51
0.0
  7
KANJI44
  0
TEXT
  8
0
  6
CONTINUOUS
 62
     2
 10
871.25
 20
1195.35
 30
0.8
 40
12.0
  1
ＭＣＳＬＢＢ０１－　　１Ｊ
 50
0.0
 41
0.833333333
 51
0.0
  7
KANJI59
  0
TEXT
  8
0
  6
CONTINUOUS
 62
     2
 10
871.25
 20
1167.35
 30
0.8
 40
12.0
  1
ＭＣＳＬＢＢ０１－　　２Ｊ
 50
0.0
 41
0.833333333
 51
0.0
  7
KANJI59
  0
TEXT
  8
0
  6
CONTINUOUS
 62
     2
 10
871.25
 20
1139.35
 30
0.8
 40
12.0
  1
ＭＣＳＬＢＢ０１－　　３Ｊ
 50
0.0
 41
0.833333333
 51
0.0
  7
KANJI59
  0
TEXT
  8
0
  6
CONTINUOUS
 62
     2
 10
871.25
 20
1111.35
 30
0.8
 40
12.0
  1
ＭＣＳＬＢＢ０１－　　４Ｊ
 50
0.0
 41
0.833333333
 51
0.0
  7
KANJI59
  0
TEXT
  8
0
  6
CONTINUOUS
 62
     2
 10
871.25
 20
1083.35
 30
0.8
 40
12.0
  1
ＭＣＳＬＢＢ０１－　　５Ｊ
 50
0.0
 41
0.833333333
 51
0.0
  7
KANJI59
  0
TEXT
  8
0
  6
CONTINUOUS
 62
     2
 10
871.25
 20
1055.35
 30
0.8
 40
12.0
  1
ＭＣＳＬＢＢ０１－　　６Ｊ
 50
0.0
 41
0.833333333
 51
0.0
  7
KANJI59
  0
TEXT
  8
0
  6
CONTINUOUS
 62
     2
 10
871.25
 20
1027.35
 30
0.8
 40
12.0
  1
ＭＣＳＬＢＢ０１－　　７Ｊ
 50
0.0
 41
0.833333333
 51
0.0
  7
KANJI59
  0
LINE
  8
0
  6
LTYPE5
 62
     2
 10
914.763971435
 20
581.5
 30
0.0
 11
945.619708731
 21
581.5
 31
0.0
  0
LINE
  8
2
  6
CONTINUOUS
 62
     2
 10
923.0
 20
361.5
 30
0.0
 11
896.0
 21
361.5
 31
0.0
  0
LINE
  8
2
  6
CONTINUOUS
 62
     2
 10
901.0
 20
361.5
 30
0.0
 11
897.764761936
 21
349.425927171
 31
0.0
  0
LINE
  8
2
  6
CONTINUOUS
 62
     2
 10
901.0
 20
361.5
 30
0.0
 11
904.235238064
 21
349.425927171
 31
0.0
  0
LINE
  8
2
  6
CONTINUOUS
 62
     2
 10
901.0
 20
361.5
 30
0.0
 11
901.0
 21
261.5
 31
0.0
  0
LINE
  8
2
  6
CONTINUOUS
 62
     2
 10
901.0
 20
261.5
 30
0.0
 11
904.235238064
 21
273.574072829
 31
0.0
  0
LINE
  8
2
  6
CONTINUOUS
 62
     2
 10
901.0
 20
261.5
 30
0.0
 11
897.764761936
 21
273.574072829
 31
0.0
  0
LINE
  8
2
  6
CONTINUOUS
 62
     2
 10
927.0
 20
261.5
 30
0.0
 11
896.0
 21
261.5
 31
0.0
  0
TEXT
  8
2
  6
CONTINUOUS
 62
     3
 10
896.0
 20
284.5
 30
0.0
 40
15.0
  1
φ９５　
 50
90.0
 41
0.9
 51
0.0
  7
KANJI58
  0
LINE
  8
0
  6
CONTINUOUS
 62
     1
 10
1282.625
 20
1398.0
 30
0.0
 11
1282.625
 21
1297.9
 31
0.0
  0
LINE
  8
0
  6
CONTINUOUS
 62
     2
 10
1224.875
 20
1398.0
 30
0.0
 11
1224.875
 21
1297.9
 31
0.0
  0
LINE
  8
0
  6
CONTINUOUS
 62
     2
 10
1167.125
 20
1398.0
 30
0.0
 11
1167.125
 21
1297.9
 31
0.0
  0
LINE
  8
0
  6
CONTINUOUS
 62
     1
 10
1090.125
 20
1398.0
 30
0.0
 11
1090.125
 21
1297.9
 31
0.0
  0
LINE
  8
0
  6
CONTINUOUS
 62
     1
 10
1090.125
 20
1398.0
 30
0.0
 11
1282.625
 21
1398.0
 31
0.0
  0
LINE
  8
0
  6
CONTINUOUS
 62
     1
 10
1090.125
 20
1367.2
 30
0.0
 11
1282.625
 21
1367.2
 31
0.0
  0
LINE
  8
0
  6
CONTINUOUS
 62
     2
 10
1090.125
 20
1344.1
 30
0.0
 11
1282.625
 21
1344.1
 31
0.0
  0
LINE
  8
0
  6
CONTINUOUS
 62
     2
 10
1090.125
 20
1321.0
 30
0.0
 11
1282.625
 21
1321.0
 31
0.0
  0
LINE
  8
0
  6
CONTINUOUS
 62
     1
 10
1090.125
 20
1297.9
 30
0.0
 11
1282.625
 21
1297.9
 31
0.0
  0
TEXT
  8
0
  6
CONTINUOUS
 62
     2
 10
1232.575
 20
1384.525
 30
1.155
 40
11.55
  1
起動電流
 50
0.0
 41
0.9
 51
0.0
  7
KANJI60
  0
TEXT
  8
0
  6
CONTINUOUS
 62
     2
 10
1232.575
 20
1371.05
 30
1.155
 40
11.55
  1
　　　Ａ
 50
0.0
 41
0.9
 51
0.0
  7
KANJI60
  0
TEXT
  8
0
  6
CONTINUOUS
 62
     2
 10
1174.825
 20
1384.525
 30
1.155
 40
11.55
  1
定格電流
 50
0.0
 41
0.9
 51
0.0
  7
KANJI60
  0
TEXT
  8
0
  6
CONTINUOUS
 62
     2
 10
1174.825
 20
1371.05
 30
1.155
 40
11.55
  1
　　　Ａ
 50
0.0
 41
0.9
 51
0.0
  7
KANJI60
  0
TEXT
  8
0
  6
CONTINUOUS
 62
     2
 10
1096.67
 20
1326.775
 30
1.155
 40
11.55
  1
２００／６０
 50
0.0
 41
0.9
 51
0.0
  7
KANJI60
  0
TEXT
  8
0
  6
CONTINUOUS
 62
     2
 10
1096.67
 20
1384.525
 30
1.155
 40
11.55
  1
電圧／周波数
 50
0.0
 41
0.9
 51
0.0
  7
KANJI60
  0
TEXT
  8
0
  6
CONTINUOUS
 62
     2
 10
1096.67
 20
1371.05
 30
1.155
 40
11.55
  1
　Ｖ／Ｈｚ
 50
0.0
 41
0.9
 51
0.0
  7
KANJI60
  0
TEXT
  8
0
  6
CONTINUOUS
 62
     2
 10
1096.67
 20
1349.875
 30
1.155
 40
11.55
  1
２００／５０
 50
0.0
 41
0.9
 51
0.0
  7
KANJI60
  0
TEXT
  8
0
  6
CONTINUOUS
 62
     2
 10
1096.67
 20
1303.675
 30
1.155
 40
11.55
  1
２２０／６０
 50
0.0
 41
0.9
 51
0.0
  7
KANJI60
  0
LINE
  8
0
  6
CONTINUOUS
 62
     1
 10
1051.625
 20
1398.0
 30
0.0
 11
1051.625
 21
1297.9
 31
0.0
  0
LINE
  8
0
  6
CONTINUOUS
 62
     2
 10
993.875
 20
1398.0
 30
0.0
 11
993.875
 21
1297.9
 31
0.0
  0
LINE
  8
0
  6
CONTINUOUS
 62
     2
 10
936.125
 20
1398.0
 30
0.0
 11
936.125
 21
1297.9
 31
0.0
  0
LINE
  8
0
  6
CONTINUOUS
 62
     1
 10
859.125
 20
1398.0
 30
0.0
 11
859.125
 21
1297.9
 31
0.0
  0
LINE
  8
0
  6
CONTINUOUS
 62
     1
 10
859.125
 20
1398.0
 30
0.0
 11
1051.625
 21
1398.0
 31
0.0
  0
LINE
  8
0
  6
CONTINUOUS
 62
     1
 10
859.125
 20
1367.2
 30
0.0
 11
1051.625
 21
1367.2
 31
0.0
  0
LINE
  8
0
  6
CONTINUOUS
 62
     2
 10
859.125
 20
1344.1
 30
0.0
 11
1051.625
 21
1344.1
 31
0.0
  0
LINE
  8
0
  6
CONTINUOUS
 62
     2
 10
859.125
 20
1321.0
 30
0.0
 11
1051.625
 21
1321.0
 31
0.0
  0
LINE
  8
0
  6
CONTINUOUS
 62
     1
 10
859.125
 20
1297.9
 30
0.0
 11
1051.625
 21
1297.9
 31
0.0
  0
TEXT
  8
0
  6
CONTINUOUS
 62
     2
 10
1001.575
 20
1384.525
 30
1.155
 40
11.55
  1
起動電流
 50
0.0
 41
0.9
 51
0.0
  7
KANJI60
  0
TEXT
  8
0
  6
CONTINUOUS
 62
     2
 10
1001.575
 20
1371.05
 30
1.155
 40
11.55
  1
　　　Ａ
 50
0.0
 41
0.9
 51
0.0
  7
KANJI60
  0
TEXT
  8
0
  6
CONTINUOUS
 62
     2
 10
943.825
 20
1384.525
 30
1.155
 40
11.55
  1
定格電流
 50
0.0
 41
0.9
 51
0.0
  7
KANJI60
  0
TEXT
  8
0
  6
CONTINUOUS
 62
     2
 10
943.825
 20
1371.05
 30
1.155
 40
11.55
  1
　　　Ａ
 50
0.0
 41
0.9
 51
0.0
  7
KANJI60
  0
TEXT
  8
0
  6
CONTINUOUS
 62
     2
 10
865.67
 20
1384.525
 30
1.155
 40
11.55
  1
電圧／周波数
 50
0.0
 41
0.9
 51
0.0
  7
KANJI60
  0
TEXT
  8
0
  6
CONTINUOUS
 62
     2
 10
865.67
 20
1371.05
 30
1.155
 40
11.55
  1
　Ｖ／Ｈｚ
 50
0.0
 41
0.9
 51
0.0
  7
KANJI60
  0
TEXT
  8
0
  6
CONTINUOUS
 62
     2
 10
865.67
 20
1349.875
 30
1.155
 40
11.55
  1
４００／５０
 50
0.0
 41
0.9
 51
0.0
  7
KANJI60
  0
TEXT
  8
0
  6
CONTINUOUS
 62
     2
 10
865.67
 20
1326.775
 30
1.155
 40
11.55
  1
４００／６０
 50
0.0
 41
0.9
 51
0.0
  7
KANJI60
  0
TEXT
  8
0
  6
CONTINUOUS
 62
     2
 10
865.67
 20
1303.675
 30
1.155
 40
11.55
  1
４４０／６０
 50
0.0
 41
0.9
 51
0.0
  7
KANJI60
  0
TEXT
  8
0
  6
CONTINUOUS
 62
     2
 10
943.825
 20
1349.875
 30
1.155
 40
11.55
  1
　２．０
 50
0.0
 41
0.9
 51
0.0
  7
KANJI60
  0
TEXT
  8
0
  6
CONTINUOUS
 62
     2
 10
943.825
 20
1326.775
 30
1.155
 40
11.55
  1
　１．４
 50
0.0
 41
0.9
 51
0.0
  7
KANJI60
  0
TEXT
  8
0
  6
CONTINUOUS
 62
     2
 10
943.825
 20
1303.675
 30
1.155
 40
11.55
  1
　１．７
 50
0.0
 41
0.9
 51
0.0
  7
KANJI60
  0
TEXT
  8
0
  6
CONTINUOUS
 62
     2
 10
1174.825
 20
1349.875
 30
1.155
 40
11.55
  1
　４．０
 50
0.0
 41
0.9
 51
0.0
  7
KANJI60
  0
TEXT
  8
0
  6
CONTINUOUS
 62
     2
 10
1174.825
 20
1326.775
 30
1.155
 40
11.55
  1
　２．８
 50
0.0
 41
0.9
 51
0.0
  7
KANJI60
  0
TEXT
  8
0
  6
CONTINUOUS
 62
     2
 10
1174.825
 20
1303.675
 30
1.155
 40
11.55
  1
　３．３
 50
0.0
 41
0.9
 51
0.0
  7
KANJI60
  0
TEXT
  8
0
  6
CONTINUOUS
 62
     2
 10
1232.575
 20
1349.875
 30
1.155
 40
11.55
  1
　９．２
 50
0.0
 41
0.9
 51
0.0
  7
KANJI60
  0
TEXT
  8
0
  6
CONTINUOUS
 62
     2
 10
1232.575
 20
1326.775
 30
1.155
 40
11.55
  1
　８
 50
0.0
 41
0.9
 51
0.0
  7
KANJI60
  0
TEXT
  8
0
  6
CONTINUOUS
 62
     2
 10
1232.575
 20
1303.675
 30
1.155
 40
11.55
  1
　８．８
 50
0.0
 41
0.9
 51
0.0
  7
KANJI60
  0
TEXT
  8
0
  6
CONTINUOUS
 62
     2
 10
1001.575
 20
1349.875
 30
1.155
 40
11.55
  1
　４．６
 50
0.0
 41
0.9
 51
0.0
  7
KANJI60
  0
TEXT
  8
0
  6
CONTINUOUS
 62
     2
 10
1001.575
 20
1326.775
 30
1.155
 40
11.55
  1
　４
 50
0.0
 41
0.9
 51
0.0
  7
KANJI60
  0
TEXT
  8
0
  6
CONTINUOUS
 62
     2
 10
1001.575
 20
1303.675
 30
1.155
 40
11.55
  1
　４．４
 50
0.0
 41
0.9
 51
0.0
  7
KANJI60
  0
LINE
  8
0
  6
CONTINUOUS
 62
     2
 10
858.25
 20
1188.95
 30
0.0
 11
1506.25
 21
1188.95
 31
0.0
  0
LINE
  8
0
  6
CONTINUOUS
 62
     2
 10
858.25
 20
1160.95
 30
0.0
 11
1506.25
 21
1160.95
 31
0.0
  0
LINE
  8
0
  6
CONTINUOUS
 62
     2
 10
858.25
 20
1132.95
 30
0.0
 11
1506.25
 21
1132.95
 31
0.0
  0
LINE
  8
0
  6
CONTINUOUS
 62
     2
 10
858.25
 20
1076.95
 30
0.0
 11
1506.25
 21
1076.95
 31
0.0
  0
LINE
  8
0
  6
CONTINUOUS
 62
     2
 10
858.25
 20
1104.95
 30
0.0
 11
1506.25
 21
1104.95
 31
0.0
  0
LINE
  8
0
  6
CONTINUOUS
 62
     2
 10
858.25
 20
1020.95
 30
0.0
 11
1506.25
 21
1020.95
 31
0.0
  0
LINE
  8
0
  6
CONTINUOUS
 62
     2
 10
858.25
 20
1048.95
 30
0.0
 11
1506.25
 21
1048.95
 31
0.0
  0
TEXT
  8
0
  6
CONTINUOUS
 62
     2
 10
1444.25
 20
1195.65
 30
1.2
 40
12.0
  1
　　２６
 50
0.0
 41
0.9
 51
0.0
  7
KANJI44
  0
TEXT
  8
0
  6
CONTINUOUS
 62
     2
 10
1444.25
 20
1167.65
 30
1.2
 40
12.0
  1
　　２７
 50
0.0
 41
0.9
 51
0.0
  7
KANJI44
  0
TEXT
  8
0
  6
CONTINUOUS
 62
     2
 10
1444.25
 20
1139.65
 30
1.2
 40
12.0
  1
　　２８
 50
0.0
 41
0.9
 51
0.0
  7
KANJI44
  0
TEXT
  8
0
  6
CONTINUOUS
 62
     2
 10
1444.25
 20
1111.65
 30
1.2
 40
12.0
  1
　　２９
 50
0.0
 41
0.9
 51
0.0
  7
KANJI44
  0
TEXT
  8
0
  6
CONTINUOUS
 62
     2
 10
1444.25
 20
1083.65
 30
1.2
 40
12.0
  1
　　３０
 50
0.0
 41
0.9
 51
0.0
  7
KANJI44
  0
TEXT
  8
0
  6
CONTINUOUS
 62
     2
 10
1444.25
 20
1055.65
 30
1.2
 40
12.0
  1
　　３１
 50
0.0
 41
0.9
 51
0.0
  7
KANJI44
  0
TEXT
  8
0
  6
CONTINUOUS
 62
     2
 10
1444.25
 20
1027.65
 30
1.2
 40
12.0
  1
　　３２
 50
0.0
 41
0.9
 51
0.0
  7
KANJI44
  0
TEXT
  8
0
  6
CONTINUOUS
 62
     6
 10
313.962791539
 20
1139.22382165
 30
0.0
 40
17.740702234
  1
端子台　接続図
 50
0.0
 41
0.880962996
 51
0.0
  7
KANJI61
  0
LINE
  8
0
  6
CONTINUOUS
 62
     2
 10
348.927373465
 20
1190.228121884
 30
0.0
 11
348.927373465
 21
1167.449155128
 31
0.0
  0
LINE
  8
0
  6
CONTINUOUS
 62
     2
 10
375.50283468
 20
1190.228121884
 30
0.0
 11
375.50283468
 21
1167.449155128
 31
0.0
  0
LINE
  8
0
  6
CONTINUOUS
 62
     2
 10
402.078295894
 20
1190.228121884
 30
0.0
 11
402.078295894
 21
1167.449155128
 31
0.0
  0
LINE
  8
0
  6
CONTINUOUS
 62
     2
 10
428.653757109
 20
1190.228121884
 30
0.0
 11
428.653757109
 21
1167.449155128
 31
0.0
  0
CIRCLE
  8
0
  6
CONTINUOUS
 62
     6
 10
420.734269667
 20
1213.707921517
 30
0.0
 40
4.100214016
  0
LINE
  8
0
  6
CONTINUOUS
 62
     6
 10
416.634055651
 20
1213.707921517
 30
0.0
 11
415.366026502
 21
1213.707921517
 31
0.0
  0
LINE
  8
0
  6
CONTINUOUS
 62
     6
 10
441.688027433
 20
1227.394562742
 30
0.0
 11
437.773558096
 21
1205.059507138
 31
0.0
  0
LINE
  8
0
  6
CONTINUOUS
 62
     6
 10
436.961699663
 20
1228.182284037
 30
0.0
 11
433.046922494
 21
1205.847279739
 31
0.0
  0
LINE
  8
0
  6
CONTINUOUS
 62
     6
 10
437.773558096
 20
1205.059507138
 30
0.0
 11
433.046922494
 21
1205.847279739
 31
0.0
  0
CIRCLE
  8
0
  6
CONTINUOUS
 62
     6
 10
441.941487717
 20
1204.239464335
 30
0.0
 40
4.100214016
  0
LINE
  8
0
  6
CONTINUOUS
 62
     6
 10
441.941487717
 20
1200.139250319
 30
0.0
 11
441.941487717
 21
1190.228121884
 31
0.0
  0
LINE
  8
0
  6
CONTINUOUS
 62
     6
 10
415.366026502
 20
1213.707921517
 30
0.0
 11
415.366026502
 21
1190.228121884
 31
0.0
  0
LINE
  8
0
  6
CONTINUOUS
 62
     6
 10
388.790565287
 20
1190.228121884
 30
0.0
 11
388.790565287
 21
1243.933332504
 31
0.0
  0
LINE
  8
0
  6
CONTINUOUS
 62
     6
 10
309.317641926
 20
1227.394562742
 30
0.0
 11
313.232111263
 21
1205.059507138
 31
0.0
  0
LINE
  8
0
  6
CONTINUOUS
 62
     6
 10
314.043969696
 20
1228.182284037
 30
0.0
 11
317.958746865
 21
1205.847279739
 31
0.0
  0
LINE
  8
0
  6
CONTINUOUS
 62
     6
 10
313.232111263
 20
1205.059507138
 30
0.0
 11
317.958746865
 21
1205.847279739
 31
0.0
  0
CIRCLE
  8
0
  6
CONTINUOUS
 62
     6
 10
309.064181642
 20
1204.239464335
 30
0.0
 40
4.100214016
  0
CIRCLE
  8
0
  6
CONTINUOUS
 62
     6
 10
330.271399692
 20
1213.707921517
 30
0.0
 40
4.100214016
  0
LINE
  8
0
  6
CONTINUOUS
 62
     6
 10
334.371613708
 20
1213.707921517
 30
0.0
 11
335.639642857
 21
1213.707921517
 31
0.0
  0
LINE
  8
0
  6
CONTINUOUS
 62
     6
 10
309.064181642
 20
1200.139250319
 30
0.0
 11
309.064181642
 21
1190.228121884
 31
0.0
  0
LINE
  8
0
  6
CONTINUOUS
 62
     6
 10
335.639642857
 20
1213.707921517
 30
0.0
 11
335.639642857
 21
1190.228121884
 31
0.0
  0
LINE
  8
0
  6
CONTINUOUS
 62
     6
 10
362.215104072
 20
1190.228121884
 30
0.0
 11
362.215104072
 21
1243.933332504
 31
0.0
  0
LINE
  8
0
  6
CONTINUOUS
 62
     2
 10
455.229218324
 20
1190.228121884
 30
0.0
 11
455.229218324
 21
1167.449155128
 31
0.0
  0
LINE
  8
0
  6
CONTINUOUS
 62
     2
 10
295.776451035
 20
1190.228121884
 30
0.0
 11
295.776451035
 21
1167.449155128
 31
0.0
  0
LINE
  8
0
  6
CONTINUOUS
 62
     2
 10
322.35191225
 20
1190.228121884
 30
0.0
 11
322.35191225
 21
1167.449155128
 31
0.0
  0
LINE
  8
0
  6
CONTINUOUS
 62
     6
 10
441.941487717
 20
1243.933332504
 30
0.0
 11
388.790565287
 21
1243.933332504
 31
0.0
  0
CIRCLE
  8
0
  6
CONTINUOUS
 62
     6
 10
441.941487717
 20
1231.58941042
 30
0.0
 40
4.100214016
  0
LINE
  8
0
  6
CONTINUOUS
 62
     6
 10
441.688027433
 20
1227.394562742
 30
0.0
 11
436.961699663
 21
1228.182284037
 31
0.0
  0
LINE
  8
0
  6
CONTINUOUS
 62
     6
 10
441.941487717
 20
1235.689624436
 30
0.0
 11
441.941487717
 21
1243.933332504
 31
0.0
  0
CIRCLE
  8
0
  6
CONTINUOUS
 62
     6
 10
309.064181642
 20
1231.58941042
 30
0.0
 40
4.100214016
  0
LINE
  8
0
  6
CONTINUOUS
 62
     6
 10
309.317641926
 20
1227.394562742
 30
0.0
 11
314.043969696
 21
1228.182284037
 31
0.0
  0
LINE
  8
0
  6
CONTINUOUS
 62
     6
 10
309.064181642
 20
1235.689624436
 30
0.0
 11
309.064181642
 21
1243.933332504
 31
0.0
  0
LINE
  8
0
  6
CONTINUOUS
 62
     6
 10
362.215104072
 20
1243.933332504
 30
0.0
 11
309.064181642
 21
1243.933332504
 31
0.0
  0
TEXT
  8
0
  6
CONTINUOUS
 62
     6
 10
313.8272152
 20
1248.452473273
 30
0.819
 40
11.7
  1
ＬＳ０１
 50
0.0
 41
0.8
 51
0.0
  7
KANJI62
  0
TEXT
  8
0
  6
CONTINUOUS
 62
     6
 10
396.447398844
 20
1248.452473273
 30
0.819
 40
11.7
  1
ＬＳ０２
 50
0.0
 41
0.8
 51
0.0
  7
KANJI62
  0
TEXT
  8
0
  6
CONTINUOUS
 62
     3
 10
141.638775989
 20
1171.245649587
 30
0.0
 40
15.0
  1
　　　　　　　　　　　　　　　　　　１　　２　　　３　　　４　　　５　　　６
 50
0.0
 41
0.911
 51
0.0
  7
KANJI63
  0
LINE
  8
0
  6
CONTINUOUS
 62
     2
 10
295.776451035
 20
1190.228121884
 30
0.0
 11
455.229218324
 21
1190.228121884
 31
0.0
  0
LINE
  8
0
  6
CONTINUOUS
 62
     2
 10
295.776451035
 20
1167.449155128
 30
0.0
 11
455.229218324
 21
1167.449155128
 31
0.0
  0
TEXT
  8
0
  6
CONTINUOUS
 62
     6
 10
287.462791539
 20
1278.22382165
 30
0.0
 40
17.740702234
  1
推力リミッタ端子台配列
 50
0.0
 41
0.880962996
 51
0.0
  7
KANJI61
  0
LINE
  8
0
  6
CONTINUOUS
 62
     2
 10
987.0
 20
741.25
 30
0.0
 11
987.0
 21
564.64
 31
0.0
  0
LINE
  8
0
  6
CONTINUOUS
 62
     2
 10
1040.0
 20
562.76
 30
0.0
 11
1040.0
 21
804.5
 31
0.0
  0
LINE
  8
0
  6
CONTINUOUS
 62
     2
 10
1041.79
 20
561.5
 30
0.0
 11
1073.9
 21
561.5
 31
0.0
  0
LINE
  8
0
  6
CONTINUOUS
 62
     2
 10
1041.27
 20
521.5
 30
0.0
 11
1074.3
 21
521.5
 31
0.0
  0
LINE
  8
0
  6
CONTINUOUS
 62
     2
 10
997.0
 20
321.15
 30
0.0
 11
997.0
 21
389.45
 31
0.0
  0
LINE
  8
0
  6
CONTINUOUS
 62
     2
 10
1014.0
 20
344.18
 30
0.0
 11
1014.0
 21
374.7
 31
0.0
  0
LINE
  8
0
  6
CONTINUOUS
 62
     2
 10
1030.0
 20
344.01
 30
0.0
 11
1030.0
 21
375.7
 31
0.0
  0
LINE
  8
0
  6
CONTINUOUS
 62
     2
 10
1041.78
 20
331.5
 30
0.0
 11
1085.833854631
 21
331.5
 31
0.0
  0
LINE
  8
0
  6
CONTINUOUS
 62
     2
 10
1041.78
 20
319.5
 30
0.0
 11
1085.733854631
 21
319.5
 31
0.0
  0
LINE
  8
0
  6
CONTINUOUS
 62
     2
 10
1042.14
 20
303.5
 30
0.0
 11
1085.733854631
 21
303.5
 31
0.0
  0
LINE
  8
0
  6
CONTINUOUS
 62
     2
 10
1042.13
 20
291.5
 30
0.0
 11
1085.833854631
 21
291.5
 31
0.0
  0
LINE
  8
0
  6
CONTINUOUS
 62
     2
 10
884.7275
 20
1276.725
 30
0.0
 11
1271.11
 21
1276.725
 31
0.0
  0
TEXT
  8
0
  6
CONTINUOUS
 62
     2
 10
1502.25
 20
565.5
 30
10.0
 40
20.0
  1
特記事項
 50
0.0
 41
0.9
 51
0.0
  7
KANJI64
  0
TEXT
  8
0
  6
CONTINUOUS
 62
     2
 10
1432.25
 20
525.5
 30
5.142857143
 40
18.0
  1
１。運転時は必ずピストンロッドの回転防止を行って下さい。
 50
0.0
 41
0.857142857
 51
0.0
  7
KANJI65
  0
TEXT
  8
0
  6
CONTINUOUS
 62
     2
 10
1432.25
 20
491.5
 30
5.13
 40
18.0
  1
２。モートル：全閉自冷かご形３０分定格
 50
0.0
 41
0.857222222
 51
0.0
  7
KANJI66
  0
TEXT
  8
0
  6
CONTINUOUS
 62
     2
 10
1431.9165915
 20
457.500003
 30
5.13
 40
18.0
  1
３。呼称ストロークは、機械的ストロークです。
 50
0.0
 41
0.857222222
 51
0.0
  7
KANJI66
  0
TEXT
  8
0
  6
CONTINUOUS
 62
     2
 10
1431.9165915
 20
428.750003
 30
5.13
 40
18.0
  1
　　必ず、常用はストローク両端に余裕を取って下さい。
 50
0.0
 41
0.857222222
 51
0.0
  7
KANJI66
  0
TEXT
  8
0
  6
CONTINUOUS
 62
     2
 10
1432.6765915
 20
395.710003
 30
5.13
 40
18.0
  1
　　前後の推奨余裕寸法は、各々１５ｍｍです。
 50
0.0
 41
0.857222222
 51
0.0
  7
KANJI66
  0
LINE
  8
0
  6
LTYPE1
 62
     2
 10
1199.0
 20
550.0
 30
0.0
 11
1177.0
 21
550.0
 31
0.0
  0
LINE
  8
0
  6
LTYPE2
 62
     2
 10
535.0
 20
460.02
 30
0.0
 11
535.0
 21
421.7
 31
0.0
  0
LINE
  8
0
  6
CONTINUOUS
 62
     2
 10
1177.0
 20
662.47
 30
0.0
 11
1189.074072829
 21
659.234761936
 31
0.0
  0
LINE
  8
0
  6
CONTINUOUS
 62
     2
 10
1177.0
 20
662.47
 30
0.0
 11
1189.074072829
 21
665.705238064
 31
0.0
  0
LINE
  8
0
  6
CONTINUOUS
 62
     2
 10
1177.0
 20
662.47
 30
0.0
 11
1297.0
 21
662.47
 31
0.0
  0
LINE
  8
0
  6
CONTINUOUS
 62
     2
 10
1297.0
 20
662.47
 30
0.0
 11
1284.925927171
 21
665.705238064
 31
0.0
  0
LINE
  8
0
  6
CONTINUOUS
 62
     2
 10
1297.0
 20
662.47
 30
0.0
 11
1284.925927171
 21
659.234761936
 31
0.0
  0
LINE
  8
0
  6
CONTINUOUS
 62
     2
 10
1177.0
 20
567.0
 30
0.0
 11
1177.0
 21
666.998748346
 31
0.0
  0
LINE
  8
0
  6
CONTINUOUS
 62
     2
 10
1297.0
 20
567.0
 30
0.0
 11
1297.0
 21
666.298748346
 31
0.0
  0
LINE
  8
2
  6
CONTINUOUS
 62
     2
 10
1298.0
 20
434.0
 30
0.0
 11
1298.0
 21
343.5
 31
0.0
  0
LINE
  8
2
  6
CONTINUOUS
 62
     2
 10
1176.0
 20
434.0
 30
0.0
 11
1176.0
 21
343.5
 31
0.0
  0
LINE
  8
2
  6
CONTINUOUS
 62
     2
 10
1298.0
 20
434.5
 30
0.0
 11
1298.0
 21
344.0
 31
0.0
  0
LINE
  8
2
  6
CONTINUOUS
 62
     2
 10
1176.0
 20
434.5
 30
0.0
 11
1176.0
 21
344.0
 31
0.0
  0
TEXT
  8
2
  6
CONTINUOUS
 62
     2
 10
1177.6
 20
355.5
 30
0.0
 40
15.0
  1
１２２（モータ幅）
 50
0.0
 41
0.9
 51
0.0
  7
KANJI58
  0
LINE
  8
0
  6
CONTINUOUS
 62
     2
 10
1178.5
 20
433.5
 30
0.0
 11
1178.5
 21
375.39
 31
0.0
  0
LINE
  8
0
  6
CONTINUOUS
 62
     2
 10
1178.5
 20
385.39
 30
0.0
 11
1190.574072829
 21
382.154761936
 31
0.0
  0
LINE
  8
0
  6
CONTINUOUS
 62
     2
 10
1178.5
 20
385.39
 30
0.0
 11
1190.574072829
 21
388.625238064
 31
0.0
  0
LINE
  8
0
  6
CONTINUOUS
 62
     2
 10
1178.5
 20
385.39
 30
0.0
 11
1295.5
 21
385.39
 31
0.0
  0
LINE
  8
0
  6
CONTINUOUS
 62
     2
 10
1295.5
 20
385.39
 30
0.0
 11
1283.425927171
 21
388.625238064
 31
0.0
  0
LINE
  8
0
  6
CONTINUOUS
 62
     2
 10
1295.5
 20
385.39
 30
0.0
 11
1283.425927171
 21
382.154761936
 31
0.0
  0
LINE
  8
0
  6
CONTINUOUS
 62
     2
 10
1295.5
 20
433.5
 30
0.0
 11
1295.5
 21
375.39
 31
0.0
  0
LINE
  8
2
  6
CONTINUOUS
 62
     2
 10
1298.0
 20
351.5
 30
0.0
 11
1288.340741737
 21
354.088190451
 31
0.0
  0
LINE
  8
2
  6
CONTINUOUS
 62
     2
 10
1298.0
 20
351.5
 30
0.0
 11
1288.340741737
 21
348.911809549
 31
0.0
  0
LINE
  8
2
  6
CONTINUOUS
 62
     2
 10
1298.0
 20
351.5
 30
0.0
 11
1176.0
 21
351.5
 31
0.0
  0
LINE
  8
2
  6
CONTINUOUS
 62
     2
 10
1176.0
 20
351.5
 30
0.0
 11
1185.659258263
 21
348.911809549
 31
0.0
  0
LINE
  8
2
  6
CONTINUOUS
 62
     2
 10
1176.0
 20
351.5
 30
0.0
 11
1185.659258263
 21
354.088190451
 31
0.0
  0
LINE
  8
0
  6
CONTINUOUS
 62
     1
 10
1186.0
 20
428.0
 30
0.0
 11
1288.0
 21
428.0
 31
0.0
  0
ARC
  8
0
  6
CONTINUOUS
 62
     1
 10
1186.0
 20
438.0
 30
0.0
 40
10.0
 50
180.0
 51
270.0
  0
LINE
  8
0
  6
CONTINUOUS
 62
     1
 10
1186.0
 20
428.0
 30
0.0
 11
1288.0
 21
428.0
 31
0.0
  0
CIRCLE
  8
0
  6
CONTINUOUS
 62
     1
 10
1186.0
 20
437.5
 30
0.0
 40
4.0
  0
CIRCLE
  8
0
  6
CONTINUOUS
 62
     1
 10
1186.0
 20
437.5
 30
0.0
 40
3.0
  0
LINE
  8
0
  6
CONTINUOUS
 62
     2
 10
1180.0
 20
437.5
 30
0.0
 11
1192.0
 21
437.5
 31
0.0
  0
LINE
  8
0
  6
CONTINUOUS
 62
     2
 10
1186.0
 20
431.5
 30
0.0
 11
1186.0
 21
443.5
 31
0.0
  0
LINE
  8
0
  6
CONTINUOUS
 62
     1
 10
1286.5
 20
429.5
 30
0.0
 11
1187.5
 21
429.5
 31
0.0
  0
ARC
  8
0
  6
CONTINUOUS
 62
     1
 10
1187.5
 20
438.5
 30
0.0
 40
9.0
 50
180.0
 51
270.0
  0
LINE
  8
0
  6
CONTINUOUS
 62
     1
 10
1178.5
 20
521.75
 30
0.0
 11
1178.5
 21
438.5
 31
0.0
  0
LINE
  8
0
  6
CONTINUOUS
 62
     1
 10
1176.0
 20
540.0
 30
0.0
 11
1176.0
 21
438.5
 31
0.0
  0
ARC
  8
0
  6
CONTINUOUS
 62
     1
 10
1230.0
 20
434.5
 30
0.0
 40
5.0
 50
179.999984538
 51
270.0
  0
LINE
  8
0
  6
CONTINUOUS
 62
     1
 10
1225.0
 20
449.500001349
 30
0.0
 11
1225.0
 21
434.500001349
 31
0.0
  0
ARC
  8
0
  6
CONTINUOUS
 62
     1
 10
1183.5
 20
459.5
 30
0.0
 40
5.0
 50
180.0
 51
270.000026769
  0
LINE
  8
0
  6
CONTINUOUS
 62
     1
 10
1290.500002697
 20
454.5
 30
0.0
 11
1183.500002336
 21
454.5
 31
0.0
  0
ARC
  8
0
  6
CONTINUOUS
 62
     1
 10
1220.0
 20
449.5
 30
0.0
 40
5.0
 50
0.000015462
 51
90.0
  0
ARC
  8
0
  6
CONTINUOUS
 62
     1
 10
1288.0
 20
438.0
 30
0.0
 40
10.0
 50
270.0
 51
0.0
  0
CIRCLE
  8
0
  6
CONTINUOUS
 62
     1
 10
1288.0
 20
437.5
 30
0.0
 40
4.0
  0
CIRCLE
  8
0
  6
CONTINUOUS
 62
     1
 10
1288.0
 20
437.5
 30
0.0
 40
3.0
  0
LINE
  8
0
  6
CONTINUOUS
 62
     2
 10
1294.0
 20
437.5
 30
0.0
 11
1282.0
 21
437.5
 31
0.0
  0
LINE
  8
0
  6
CONTINUOUS
 62
     2
 10
1288.0
 20
431.5
 30
0.0
 11
1288.0
 21
443.5
 31
0.0
  0
ARC
  8
0
  6
CONTINUOUS
 62
     1
 10
1286.5
 20
438.5
 30
0.0
 40
9.0
 50
270.0
 51
0.0
  0
LINE
  8
0
  6
CONTINUOUS
 62
     1
 10
1249.0
 20
449.500001349
 30
0.0
 11
1249.0
 21
434.500001349
 31
0.0
  0
ARC
  8
0
  6
CONTINUOUS
 62
     1
 10
1244.0
 20
434.5
 30
0.0
 40
5.0
 50
270.0
 51
0.000015462
  0
ARC
  8
0
  6
CONTINUOUS
 62
     1
 10
1254.0
 20
449.5
 30
0.0
 40
5.0
 50
90.0
 51
179.999984538
  0
ARC
  8
0
  6
CONTINUOUS
 62
     1
 10
1290.5
 20
459.5
 30
0.0
 40
5.0
 50
270.00003091
 51
0.0
  0
LINE
  8
0
  6
CONTINUOUS
 62
     1
 10
1295.5
 20
521.75
 30
0.0
 11
1295.5
 21
438.5
 31
0.0
  0
LINE
  8
0
  6
CONTINUOUS
 62
     1
 10
1298.0
 20
540.0
 30
0.0
 11
1298.0
 21
438.5
 31
0.0
  0
ARC
  8
0
  6
CONTINUOUS
 62
     1
 10
1186.0
 20
540.0
 30
0.0
 40
10.0
 50
154.158067237
 51
180.0
  0
ARC
  8
0
  6
CONTINUOUS
 62
     1
 10
1288.0
 20
540.0
 30
0.0
 40
10.0
 50
0.0
 51
25.841932763
  0
ARC
  8
0
  6
CONTINUOUS
 62
     1
 10
1183.5
 20
591.5
 30
0.0
 40
5.0
 50
90.0
 51
179.999969099
  0
LINE
  8
0
  6
CONTINUOUS
 62
     1
 10
1178.5
 20
591.500002697
 30
0.0
 11
1178.5
 21
562.278748346
 31
0.0
  0
LINE
  8
0
  6
CONTINUOUS
 62
     1
 10
1186.0
 20
596.5
 30
0.0
 11
1183.5
 21
596.5
 31
0.0
  0
ARC
  8
0
  6
CONTINUOUS
 62
     1
 10
1290.5
 20
591.5
 30
0.0
 40
5.0
 50
0.000030901
 51
90.0
  0
LINE
  8
0
  6
CONTINUOUS
 62
     1
 10
1295.5
 20
591.500002697
 30
0.0
 11
1295.5
 21
562.278748346
 31
0.0
  0
LINE
  8
0
  6
CONTINUOUS
 62
     1
 10
1290.5
 20
596.5
 30
0.0
 11
1288.0
 21
596.5
 31
0.0
  0
LINE
  8
0
  6
CONTINUOUS
 62
     1
 10
1186.7
 20
637.5
 30
0.0
 11
1197.3
 21
637.5
 31
0.0
  0
ARC
  8
0
  6
CONTINUOUS
 62
     1
 10
1191.6
 20
636.5
 30
0.0
 40
5.0
 50
92.3
 51
168.5
  0
ARC
  8
0
  6
CONTINUOUS
 62
     1
 10
1192.4
 20
636.5
 30
0.0
 40
5.0
 50
11.5
 51
87.7
  0
LINE
  8
0
  6
CONTINUOUS
 62
     1
 10
1191.4
 20
641.5
 30
0.0
 11
1192.6
 21
641.5
 31
0.0
  0
LINE
  8
0
  6
LTYPE6
 62
     2
 10
1192.0
 20
644.9
 30
0.0
 11
1192.0
 21
631.5
 31
0.0
  0
LINE
  8
0
  6
CONTINUOUS
 62
     1
 10
1276.7
 20
637.5
 30
0.0
 11
1287.3
 21
637.5
 31
0.0
  0
ARC
  8
0
  6
CONTINUOUS
 62
     1
 10
1281.6
 20
636.5
 30
0.0
 40
5.0
 50
92.3
 51
168.5
  0
ARC
  8
0
  6
CONTINUOUS
 62
     1
 10
1282.4
 20
636.5
 30
0.0
 40
5.0
 50
11.5
 51
87.7
  0
LINE
  8
0
  6
CONTINUOUS
 62
     1
 10
1281.4
 20
641.5
 30
0.0
 11
1282.6
 21
641.5
 31
0.0
  0
LINE
  8
0
  6
LTYPE6
 62
     2
 10
1282.0
 20
644.9
 30
0.0
 11
1282.0
 21
631.5
 31
0.0
  0
TEXT
  8
0
  6
CONTINUOUS
 62
     2
 10
650.4
 20
839.7
 30
0.0
 40
20.0
  1
推力リミッタの作動値は、約１１０ｋｇ（設計値）
 50
0.0
 41
0.925
 51
0.0
  7
KANJI67
  0
LINE
  8
0
  6
CONTINUOUS
 62
     1
 10
624.31
 20
637.5
 30
0.0
 11
634.91
 21
637.5
 31
0.0
  0
ARC
  8
0
  6
CONTINUOUS
 62
     1
 10
629.21
 20
636.5
 30
0.0
 40
5.0
 50
92.3
 51
168.5
  0
ARC
  8
0
  6
CONTINUOUS
 62
     1
 10
630.01
 20
636.5
 30
0.0
 40
5.0
 50
11.5
 51
87.7
  0
LINE
  8
0
  6
CONTINUOUS
 62
     1
 10
629.01
 20
641.5
 30
0.0
 11
630.21
 21
641.5
 31
0.0
  0
LINE
  8
0
  6
LTYPE6
 62
     2
 10
629.61
 20
644.9
 30
0.0
 11
629.61
 21
631.5
 31
0.0
  0
LINE
  8
0
  6
CONTINUOUS
 62
     1
 10
734.21
 20
637.5
 30
0.0
 11
744.81
 21
637.5
 31
0.0
  0
ARC
  8
0
  6
CONTINUOUS
 62
     1
 10
739.11
 20
636.5
 30
0.0
 40
5.0
 50
92.3
 51
168.5
  0
ARC
  8
0
  6
CONTINUOUS
 62
     1
 10
739.91
 20
636.5
 30
0.0
 40
5.0
 50
11.5
 51
87.7
  0
LINE
  8
0
  6
CONTINUOUS
 62
     1
 10
738.91
 20
641.5
 30
0.0
 11
740.11
 21
641.5
 31
0.0
  0
LINE
  8
0
  6
LTYPE6
 62
     2
 10
739.51
 20
644.9
 30
0.0
 11
739.51
 21
631.5
 31
0.0
  0
TEXT
  8
0
  6
CONTINUOUS
 62
     2
 10
892.4275
 20
1280.575
 30
1.3475
 40
13.475
  1
注意：サーマルリレー等の選定は、上記の値で選定して下さい。
 50
0.0
 41
0.9
 51
0.0
  7
KANJI68
  0
TEXT
  8
0
  6
CONTINUOUS
 62
     3
 10
1179.42
 20
388.36
 30
-2.5
 40
15.0
  1
１１７（ギヤケース幅）
 50
0.0
 41
0.9
 51
0.0
  7
KANJI69
  0
LINE
  8
0
  6
CONTINUOUS
 62
     2
 10
648.0
 20
832.0
 30
0.0
 11
1071.0
 21
832.0
 31
0.0
  0
CIRCLE
  8
0
  6
CONTINUOUS
 62
     1
 10
1022.0
 20
541.5
 30
0.0
 40
15.0
  0
CIRCLE
  8
0
  6
CONTINUOUS
 62
     1
 10
1021.999984741
 20
552.5
 30
0.0
 40
3.0
  0
LINE
  8
0
  6
CONTINUOUS
 62
     1
 10
1017.8
 20
529.2
 30
0.0
 11
1019.8
 21
528.9
 31
0.0
  0
LINE
  8
0
  6
CONTINUOUS
 62
     1
 10
1020.064615385
 20
532.030769231
 30
0.0
 11
1017.8
 21
529.2
 31
0.0
  0
LINE
  8
0
  6
CONTINUOUS
 62
     1
 10
1022.0
 20
531.6
 30
0.0
 11
1019.8
 21
528.9
 31
0.0
  0
LINE
  8
0
  6
CONTINUOUS
 62
     1
 10
1020.3
 20
533.6
 30
0.0
 11
1020.064615385
 21
532.030769231
 31
0.0
  0
LINE
  8
0
  6
CONTINUOUS
 62
     1
 10
1026.2
 20
529.2
 30
0.0
 11
1024.2
 21
528.9
 31
0.0
  0
LINE
  8
0
  6
CONTINUOUS
 62
     1
 10
1023.935384615
 20
532.030769231
 30
0.0
 11
1026.2
 21
529.2
 31
0.0
  0
LINE
  8
0
  6
CONTINUOUS
 62
     1
 10
1022.0
 20
531.6
 30
0.0
 11
1024.2
 21
528.9
 31
0.0
  0
LINE
  8
0
  6
CONTINUOUS
 62
     1
 10
1023.7
 20
533.6
 30
0.0
 11
1023.935384615
 21
532.030769231
 31
0.0
  0
TEXT
  8
0
  6
CONTINUOUS
 62
     2
 10
276.4
 20
349.7
 30
0.0
 40
20.0
  1
ブレーキ解放装置はありません。
 50
0.0
 41
0.925
 51
0.0
  7
KANJI67
  0
TEXT
  8
0
  6
CONTINUOUS
 62
     2
 10
277.4
 20
324.7
 30
0.0
 40
20.0
  1
そのまま手動操作をして下さい．
 50
0.0
 41
0.925
 51
0.0
  7
KANJI67
  0
TEXT
  8
0
  6
CONTINUOUS
 62
     2
 10
357.9
 20
443.5
 30
0.0
 40
15.0
  1
エコノストップモータ
 50
0.0
 41
0.9
 51
0.0
  7
KANJI58
  0
TEXT
  8
0
  6
CONTINUOUS
 62
     2
 10
360.8
 20
460.5
 30
0.0
 40
15.0
  1
日本電産
 50
0.0
 41
0.9
 51
0.0
  7
KANJI58
  0
LINE
  8
0
  6
CONTINUOUS
 62
     1
 10
414.49
 20
538.54
 30
0.0
 11
414.49
 21
495.54
 31
0.0
  0
TEXT
  8
0
  6
CONTINUOUS
 62
     2
 10
425.49
 20
500.54
 30
5.0
 40
20.0
  1
銘板
 50
0.0
 41
0.925
 51
0.0
  7
KANJI70
  0
LINE
  8
0
  6
CONTINUOUS
 62
     1
 10
414.49
 20
538.54
 30
0.0
 11
484.49
 21
538.54
 31
0.0
  0
LINE
  8
0
  6
CONTINUOUS
 62
     1
 10
484.49
 20
538.54
 30
0.0
 11
484.49
 21
495.54
 31
0.0
  0
LINE
  8
0
  6
CONTINUOUS
 62
     1
 10
414.49
 20
495.54
 30
0.0
 11
484.49
 21
495.54
 31
0.0
  0
TEXT
  8
0
  6
CONTINUOUS
 62
     2
 10
89.6170994
 20
481.878385972
 30
0.0
 40
15.0
  1
前進方向
 50
0.0
 41
0.9
 51
0.0
  7
KANJI58
  0
ARC
  8
0
  6
CONTINUOUS
 62
     2
 10
170.0
 20
486.0
 30
0.0
 40
20.0
 50
203.198590514
 51
128.047042532
  0
LINE
  8
0
  6
CONTINUOUS
 62
     2
 10
151.6170994
 20
478.121614028
 30
0.0
 11
153.91179211
 21
468.284175251
 31
0.0
  0
LINE
  8
0
  6
CONTINUOUS
 62
     2
 10
151.6170994
 20
478.121614028
 30
0.0
 11
159.885260778
 21
473.214277493
 31
0.0
  0
LINE
  8
0
  6
LTYPE2
 62
     6
 10
255.805262694
 20
758.221584891
 30
0.0
 11
255.805262694
 21
853.633317
 31
0.0
  0
LINE
  8
0
  6
CONTINUOUS
 62
     6
 10
146.182750681
 20
782.927404191
 30
0.0
 11
157.481118192
 21
796.048089042
 31
0.0
  0
LINE
  8
0
  6
CONTINUOUS
 62
     6
 10
146.182750681
 20
782.927404191
 30
0.0
 11
129.781894617
 21
782.927404191
 31
0.0
  0
CIRCLE
  8
0
  6
CONTINUOUS
 62
     6
 10
125.408333
 20
782.927404191
 30
0.0
 40
4.373561617
  0
LINE
  8
0
  6
CONTINUOUS
 62
     6
 10
120.38354931
 20
777.902620501
 30
0.0
 11
130.588526417
 21
788.107597607
 31
0.0
  0
LINE
  8
0
  6
LTYPE2
 62
     6
 10
255.805262694
 20
758.221584891
 30
0.0
 11
125.408333
 21
758.221584891
 31
0.0
  0
LINE
  8
0
  6
LTYPE2
 62
     6
 10
125.408333
 20
778.553842574
 30
0.0
 11
125.408333
 21
758.221584891
 31
0.0
  0
TEXT
  8
0
  6
CONTINUOUS
 62
     2
 10
130.503726364
 20
733.012221811
 30
0.0
 40
15.6
  1
モーター結線図
 50
0.0
 41
0.925
 51
0.0
  7
KANJI71
  0
LINE
  8
0
  6
LTYPE2
 62
     6
 10
125.408333
 20
853.633317
 30
0.0
 11
125.408333
 21
837.232460936
 31
0.0
  0
LINE
  8
0
  6
LTYPE2
 62
     6
 10
255.805262694
 20
853.633317
 30
0.0
 11
125.408333
 21
853.633317
 31
0.0
  0
TEXT
  8
0
  6
CONTINUOUS
 62
     6
 10
107.873590591
 20
840.148168681
 30
1.093390404
 40
10.933904043
  1
Ｕ
 50
0.0
 41
0.9
 51
0.0
  7
KANJI72
  0
CIRCLE
  8
0
  6
CONTINUOUS
 62
     6
 10
125.408333
 20
833.952289723
 30
0.0
 40
4.373561617
  0
LINE
  8
0
  6
CONTINUOUS
 62
     6
 10
120.38354931
 20
828.927506033
 30
0.0
 11
130.588526417
 21
839.13248314
 31
0.0
  0
TEXT
  8
0
  6
CONTINUOUS
 62
     6
 10
135.653806047
 20
862.299448352
 30
1.518597784
 40
15.185977837
  1
エコノストップモータ
 50
0.0
 41
0.66671875
 51
0.0
  7
KANJI73
  0
CIRCLE
  8
0
  6
CONTINUOUS
 62
     6
 10
170.237339575
 20
808.439846957
 30
0.0
 40
18.223173404
  0
TEXT
  8
0
  6
CONTINUOUS
 62
     6
 10
162.583606745
 20
799.692723723
 30
1.82231734
 40
18.223173404
  1
Ｍ
 50
0.0
 41
0.9
 51
0.0
  7
KANJI74
  0
LINE
  8
0
  6
CONTINUOUS
 62
     6
 10
146.182750681
 20
833.952289723
 30
0.0
 11
157.481118192
 21
820.831604872
 31
0.0
  0
LINE
  8
0
  6
CONTINUOUS
 62
     6
 10
146.182750681
 20
833.952289723
 30
0.0
 11
129.781894617
 21
833.952289723
 31
0.0
  0
LINE
  8
0
  6
CONTINUOUS
 62
     6
 10
152.378629639
 20
808.439846957
 30
0.0
 11
129.781894617
 21
808.439846957
 31
0.0
  0
TEXT
  8
0
  6
CONTINUOUS
 62
     6
 10
108.966980995
 20
814.271262446
 30
1.093390404
 40
10.933904043
  1
Ｖ
 50
0.0
 41
0.9
 51
0.0
  7
KANJI72
  0
TEXT
  8
0
  6
CONTINUOUS
 62
     6
 10
110.060371399
 20
788.394356212
 30
1.093390404
 40
10.933904043
  1
Ｗ
 50
0.0
 41
0.9
 51
0.0
  7
KANJI72
  0
CIRCLE
  8
0
  6
CONTINUOUS
 62
     6
 10
125.408333
 20
808.439846957
 30
0.0
 40
4.373561617
  0
LINE
  8
0
  6
CONTINUOUS
 62
     6
 10
120.38354931
 20
803.415063267
 30
0.0
 11
130.588526417
 21
813.620040374
 31
0.0
  0
LINE
  8
0
  6
LTYPE2
 62
     6
 10
125.408333
 20
829.943191574
 30
0.0
 11
125.408333
 21
811.72001817
 31
0.0
  0
LINE
  8
0
  6
LTYPE2
 62
     6
 10
125.408333
 20
804.430748808
 30
0.0
 11
125.408333
 21
787.300965808
 31
0.0
  0
TEXT
  8
0
  6
CONTINUOUS
 62
     6
 10
196.162021562
 20
800.184749405
 30
1.457853872
 40
14.578538724
  1
Ｂ
 50
0.0
 41
0.9
 51
0.0
  7
KANJI75
  0
CIRCLE
  8
0
  6
CONTINUOUS
 62
     6
 10
202.722363988
 20
808.439846957
 30
0.0
 40
14.578538724
  0
TEXT
  8
0
  6
CONTINUOUS
 62
     6
 10
389.343715102
 20
1335.371931782
 30
0.0
 40
11.8638
  1
ＡＣ１００Ｖ　１２５Ｖ　２５０Ｖ　－１０Ａ
 50
0.0
 41
0.726495726
 51
0.0
  7
KANJI51
  0
TEXT
  8
0
  6
CONTINUOUS
 62
     3
 10
1171.45
 20
670.66
 30
-1.5
 40
15.0
  1
１２０（トラニオン幅）
 50
0.0
 41
0.9
 51
0.0
  7
KANJI76
  0
LINE
  8
0
  6
CONTINUOUS
 62
     2
 10
486.0
 20
213.0
 30
0.0
 11
493.72740661
 21
210.929447639
 31
0.0
  0
LINE
  8
0
  6
CONTINUOUS
 62
     2
 10
486.0
 20
213.0
 30
0.0
 11
493.72740661
 21
215.070552361
 31
0.0
  0
LINE
  8
0
  6
CONTINUOUS
 62
     2
 10
486.0
 20
213.0
 30
0.0
 11
623.6
 21
213.0
 31
0.0
  0
LINE
  8
0
  6
CONTINUOUS
 62
     2
 10
623.6
 20
213.0
 30
0.0
 11
615.87259339
 21
215.070552361
 31
0.0
  0
LINE
  8
0
  6
CONTINUOUS
 62
     2
 10
623.6
 20
213.0
 30
0.0
 11
615.87259339
 21
210.929447639
 31
0.0
  0
LINE
  8
0
  6
CONTINUOUS
 62
     2
 10
623.6
 20
211.8
 30
0.0
 11
623.6
 21
209.0
 31
0.0
  0
LINE
  8
0
  6
CONTINUOUS
 62
     2
 10
623.6
 20
213.0
 30
0.0
 11
631.32740661
 21
210.929447639
 31
0.0
  0
LINE
  8
0
  6
CONTINUOUS
 62
     2
 10
623.6
 20
213.0
 30
0.0
 11
631.32740661
 21
215.070552361
 31
0.0
  0
LINE
  8
0
  6
CONTINUOUS
 62
     2
 10
623.6
 20
213.0
 30
0.0
 11
826.0
 21
213.0
 31
0.0
  0
LINE
  8
0
  6
CONTINUOUS
 62
     2
 10
826.0
 20
213.0
 30
0.0
 11
818.27259339
 21
215.070552361
 31
0.0
  0
LINE
  8
0
  6
CONTINUOUS
 62
     2
 10
826.0
 20
213.0
 30
0.0
 11
818.27259339
 21
210.929447639
 31
0.0
  0
LINE
  8
0
  6
CONTINUOUS
 62
     2
 10
623.6
 20
186.670552361
 30
0.0
 11
615.87259339
 21
188.741104722
 31
0.0
  0
LINE
  8
0
  6
CONTINUOUS
 62
     2
 10
623.6
 20
186.670552361
 30
0.0
 11
615.87259339
 21
184.6
 31
0.0
  0
LINE
  8
0
  6
CONTINUOUS
 62
     2
 10
611.6
 20
186.670552361
 30
0.0
 11
623.6
 21
186.670552361
 31
0.0
  0
LINE
  8
0
  6
CONTINUOUS
 62
     2
 10
623.6
 20
186.670552361
 30
0.0
 11
644.4
 21
186.670552361
 31
0.0
  0
LINE
  8
0
  6
CONTINUOUS
 62
     2
 10
644.4
 20
186.670552361
 30
0.0
 11
652.12740661
 21
184.6
 31
0.0
  0
LINE
  8
0
  6
CONTINUOUS
 62
     2
 10
644.4
 20
186.670552361
 30
0.0
 11
652.12740661
 21
188.741104722
 31
0.0
  0
LINE
  8
0
  6
CONTINUOUS
 62
     2
 10
486.0
 20
161.4
 30
0.0
 11
486.0
 21
155.4
 31
0.0
  0
LINE
  8
0
  6
CONTINUOUS
 62
     2
 10
486.0
 20
159.4
 30
0.0
 11
493.72740661
 21
157.329447639
 31
0.0
  0
LINE
  8
0
  6
CONTINUOUS
 62
     2
 10
486.0
 20
159.4
 30
0.0
 11
493.72740661
 21
161.470552361
 31
0.0
  0
LINE
  8
0
  6
CONTINUOUS
 62
     2
 10
486.0
 20
159.4
 30
0.0
 11
644.4
 21
159.4
 31
0.0
  0
LINE
  8
0
  6
CONTINUOUS
 62
     2
 10
644.4
 20
159.4
 30
0.0
 11
636.67259339
 21
161.470552361
 31
0.0
  0
LINE
  8
0
  6
CONTINUOUS
 62
     2
 10
644.4
 20
159.4
 30
0.0
 11
636.67259339
 21
157.329447639
 31
0.0
  0
LINE
  8
0
  6
CONTINUOUS
 62
     2
 10
644.4
 20
160.6
 30
0.0
 11
644.4
 21
155.4
 31
0.0
  0
LINE
  8
0
  6
CONTINUOUS
 62
     2
 10
644.4
 20
159.4
 30
0.0
 11
652.12740661
 21
157.329447639
 31
0.0
  0
LINE
  8
0
  6
CONTINUOUS
 62
     2
 10
644.4
 20
159.4
 30
0.0
 11
652.12740661
 21
161.470552361
 31
0.0
  0
LINE
  8
0
  6
CONTINUOUS
 62
     2
 10
826.0
 20
155.8
 30
0.0
 11
826.0
 21
155.4
 31
0.0
  0
LINE
  8
0
  6
CONTINUOUS
 62
     2
 10
486.0
 20
130.2
 30
0.0
 11
493.72740661
 21
128.129447639
 31
0.0
  0
LINE
  8
0
  6
CONTINUOUS
 62
     2
 10
486.0
 20
130.2
 30
0.0
 11
493.72740661
 21
132.270552361
 31
0.0
  0
LINE
  8
0
  6
CONTINUOUS
 62
     2
 10
486.0
 20
130.2
 30
0.0
 11
803.6
 21
130.2
 31
0.0
  0
LINE
  8
0
  6
CONTINUOUS
 62
     2
 10
803.6
 20
130.2
 30
0.0
 11
795.87259339
 21
132.270552361
 31
0.0
  0
LINE
  8
0
  6
CONTINUOUS
 62
     2
 10
803.6
 20
130.2
 30
0.0
 11
795.87259339
 21
128.129447639
 31
0.0
  0
LINE
  8
0
  6
CONTINUOUS
 62
     2
 10
803.6
 20
131.0
 30
0.0
 11
803.6
 21
126.2
 31
0.0
  0
LINE
  8
0
  6
CONTINUOUS
 62
     2
 10
803.6
 20
130.2
 30
0.0
 11
795.87259339
 21
132.270552361
 31
0.0
  0
LINE
  8
0
  6
CONTINUOUS
 62
     2
 10
803.6
 20
130.2
 30
0.0
 11
795.87259339
 21
128.129447639
 31
0.0
  0
LINE
  8
0
  6
CONTINUOUS
 62
     2
 10
791.6
 20
130.2
 30
0.0
 11
803.6
 21
130.2
 31
0.0
  0
LINE
  8
0
  6
CONTINUOUS
 62
     2
 10
803.6
 20
130.2
 30
0.0
 11
826.0
 21
130.2
 31
0.0
  0
LINE
  8
0
  6
CONTINUOUS
 62
     2
 10
826.0
 20
130.2
 30
0.0
 11
833.72740661
 21
128.129447639
 31
0.0
  0
LINE
  8
0
  6
CONTINUOUS
 62
     2
 10
826.0
 20
130.2
 30
0.0
 11
833.72740661
 21
132.270552361
 31
0.0
  0
LINE
  8
0
  6
CONTINUOUS
 62
     2
 10
486.0
 20
223.8
 30
0.0
 11
486.0
 21
209.0
 31
0.0
  0
LINE
  8
0
  6
CONTINUOUS
 62
     2
 10
826.0
 20
223.8
 30
0.0
 11
826.0
 21
209.0
 31
0.0
  0
LINE
  8
0
  6
CONTINUOUS
 62
     2
 10
623.6
 20
212.6
 30
0.0
 11
623.6
 21
223.8
 31
0.0
  0
LINE
  8
0
  6
CONTINUOUS
 62
     2
 10
644.4
 20
199.470552361
 30
0.0
 11
644.4
 21
182.670552361
 31
0.0
  0
LINE
  8
0
  6
CONTINUOUS
 62
     2
 10
486.0
 20
209.0
 30
0.0
 11
486.0
 21
117.0
 31
0.0
  0
LINE
  8
0
  6
CONTINUOUS
 62
     2
 10
826.0
 20
213.0
 30
0.0
 11
826.0
 21
118.2
 31
0.0
  0
LINE
  8
0
  6
CONTINUOUS
 62
     2
 10
644.4
 20
186.670552361
 30
0.0
 11
644.4
 21
150.2
 31
0.0
  0
LINE
  8
0
  6
CONTINUOUS
 62
     2
 10
623.6
 20
213.0
 30
0.0
 11
623.6
 21
177.4
 31
0.0
  0
TEXT
  8
0
  6
CONTINUOUS
 62
     3
 10
527.8
 20
215.0
 30
0.0
 40
15.0
  1
ｍｉｎ．Ｌ
 50
0.0
 41
0.9
 51
0.0
  7
KANJI58
  0
TEXT
  8
0
  6
CONTINUOUS
 62
     3
 10
681.6
 20
215.0
 30
0.0
 40
15.0
  1
機械的ストローク
 50
0.0
 41
0.9
 51
0.0
  7
KANJI58
  0
TEXT
  8
0
  6
CONTINUOUS
 62
     3
 10
656.4
 20
188.670552361
 30
0.0
 40
15.0
  1
余裕
 50
0.0
 41
0.9
 51
0.0
  7
KANJI58
  0
TEXT
  8
0
  6
CONTINUOUS
 62
     3
 10
538.2
 20
161.4
 30
0.0
 40
15.0
  1
常用ｍｉｎ
 50
0.0
 41
0.9
 51
0.0
  7
KANJI58
  0
TEXT
  8
0
  6
CONTINUOUS
 62
     3
 10
697.4
 20
161.4
 30
0.0
 40
15.0
  1
常用ストローク
 50
0.0
 41
0.9
 51
0.0
  7
KANJI58
  0
TEXT
  8
0
  6
CONTINUOUS
 62
     3
 10
617.8
 20
132.2
 30
0.0
 40
15.0
  1
常用ｍａｘ
 50
0.0
 41
0.9
 51
0.0
  7
KANJI58
  0
TEXT
  8
0
  6
CONTINUOUS
 62
     3
 10
838.0
 20
132.2
 30
0.0
 40
15.0
  1
余裕
 50
0.0
 41
0.9
 51
0.0
  7
KANJI58
  0
LINE
  8
0
  6
CONTINUOUS
 62
     2
 10
644.4
 20
186.670552361
 30
0.0
 11
684.5
 21
186.670552361
 31
0.0
  0
LINE
  8
0
  6
CONTINUOUS
 62
     2
 10
826.0
 20
130.2
 30
0.0
 11
868.5
 21
130.2
 31
0.0
  0
LINE
  8
0
  6
CONTINUOUS
 62
     1
 10
858.25
 20
992.95
 30
0.0
 11
1506.25
 21
992.95
 31
0.0
  0
LINE
  8
0
  6
CONTINUOUS
 62
     1
 10
858.25
 20
1244.95
 30
0.0
 11
858.25
 21
992.95
 31
0.0
  0
LINE
  8
0
  6
CONTINUOUS
 62
     1
 10
1026.25
 20
1244.95
 30
0.0
 11
1026.25
 21
992.95
 31
0.0
  0
LINE
  8
0
  6
CONTINUOUS
 62
     2
 10
1106.25
 20
1244.95
 30
0.0
 11
1106.25
 21
992.95
 31
0.0
  0
LINE
  8
0
  6
CONTINUOUS
 62
     2
 10
1186.25
 20
1244.95
 30
0.0
 11
1186.25
 21
992.95
 31
0.0
  0
LINE
  8
0
  6
CONTINUOUS
 62
     2
 10
1266.25
 20
1244.95
 30
0.0
 11
1266.25
 21
992.95
 31
0.0
  0
LINE
  8
0
  6
CONTINUOUS
 62
     2
 10
1346.25
 20
1244.95
 30
0.0
 11
1346.25
 21
992.95
 31
0.0
  0
LINE
  8
0
  6
CONTINUOUS
 62
     2
 10
1426.25
 20
1244.95
 30
0.0
 11
1426.25
 21
992.95
 31
0.0
  0
LINE
  8
0
  6
CONTINUOUS
 62
     1
 10
1506.25
 20
1244.95
 30
0.0
 11
1506.25
 21
992.95
 31
0.0
  0
TEXT
  8
0
  6
CONTINUOUS
 62
     2
 10
871.25
 20
999.35
 30
0.8
 40
12.0
  1
ＭＣＳＬＢＢ０１－　　　Ｊ
 50
0.0
 41
0.833333333
 51
0.0
  7
KANJI59
  0
LINE
  8
0
  6
CONTINUOUS
 62
     2
 10
803.6
 20
172.0
 30
0.0
 11
803.6
 21
117.4
 31
0.0
  0
LINE
  8
0
  6
CONTINUOUS
 62
     2
 10
644.4
 20
159.4
 30
0.0
 11
803.6
 21
159.4
 31
0.0
  0
LINE
  8
0
  6
CONTINUOUS
 62
     2
 10
803.6
 20
159.4
 30
0.0
 11
795.87259339
 21
161.470552361
 31
0.0
  0
LINE
  8
0
  6
CONTINUOUS
 62
     2
 10
803.6
 20
159.4
 30
0.0
 11
795.87259339
 21
157.329447639
 31
0.0
  0
TEXT
  8
2
  6
CONTINUOUS
 62
     2
 10
182.3
 20
629.8
 30
0.0
 40
15.0
  1
手動軸カバー
 50
0.0
 41
0.9
 51
0.0
  7
KANJI58
  0
TEXT
  8
2
  6
CONTINUOUS
 62
     2
 10
182.3
 20
605.8
 30
1.2
 40
16.0
  1
手動軸□１０
 50
0.0
 41
0.925
 51
0.0
  7
KANJI77
  0
POLYLINE
  8
2
  6
CONTINUOUS
 62
     2
 66
     1
  0
VERTEX
  8
2
  6
CONTINUOUS
 62
     2
 10
296.685350584
 20
541.25
 30
0.0
  0
VERTEX
  8
2
  6
CONTINUOUS
 62
     2
 10
280.1
 20
625.8
 30
0.0
  0
VERTEX
  8
2
  6
CONTINUOUS
 62
     2
 10
177.3
 20
625.8
 30
0.0
  0
SEQEND
  0
TEXT
  8
0
  6
CONTINUOUS
 62
     2
 10
1017.2
 20
804.5
 30
0.0
 40
15.0
  1
１８
 50
0.0
 41
0.9
 51
0.0
  7
KANJI58
  0
TEXT
  8
0
  6
CONTINUOUS
 62
     2
 10
691.1
 20
359.4
 30
0.0
 40
15.0
  1
φ１６Ｈ１０深さ２２
 50
0.0
 41
0.9
 51
0.0
  7
KANJI58
  0
LINE
  8
0
  6
CONTINUOUS
 62
     2
 10
691.1
 20
355.4
 30
0.0
 11
826.0
 21
355.4
 31
0.0
  0
TEXT
  8
0
  6
CONTINUOUS
 62
     2
 10
1381.9166945
 20
107.999995
 30
1.5
 40
17.5
  1
０７．１１．０７
 50
0.0
 41
0.571428571
 51
0.0
  7
KANJI78
  0
ENDSEC
  0
EOF
