  0
SECTION
  2
HEADER
  9
$ACADVER
  1
AC1009
  9
$DWGCODEPAGE
  3
dos932
  9
$EXTMIN
 10
0.0
 20
0.0
 30
0.0
  9
$EXTMAX
 10
2100.0
 20
1485.0
 30
0.0
  9
$LIMMIN
 10
0.0
 20
0.0
  9
$LIMMAX
 10
2100.0
 20
1485.0
  9
$LTSCALE
 40
1.0
  9
$PDMODE
 70
     0
  0
ENDSEC
  0
SECTION
  2
TABLES
  0
TABLE
  2
VPORT
 70
     1
  0
VPORT
  2
*ACTIVE
 70
     0
 10
0.0
 20
0.0
 11
1.0
 21
1.0
 12
1050.0
 22
742.5
 13
0.0
 23
0.0
 14
10.0
 24
10.0
 15
10.0
 25
10.0
 16
0.0
 26
0.0
 36
1.0
 17
0.0
 27
0.0
 37
0.0
 40
2100.0
 41
1.414141414
 42
50.0
 43
0.0
 44
0.0
 50
0.0
 51
0.0
 71
     0
 72
  1000
 73
     1
 74
     3
 75
     0
 76
     0
 77
     0
 78
     0
  0
ENDTAB
  0
TABLE
  2
LTYPE
 70
     5
  0
LTYPE
  2
CONTINUOUS
 70
    64
  3
Solid line
 72
    65
 73
     0
 40
0.0
  0
LTYPE
  2
LTYPE1
 70
    64
  3
HIDDEN
 72
    65
 73
     2
 40
15.0
 49
9.0
 49
-6.0
  0
LTYPE
  2
LTYPE2
 70
    64
  3
CENTER
 72
    65
 73
     4
 40
75.0
 49
52.5
 49
-7.5
 49
7.5
 49
-7.5
  0
LTYPE
  2
LTYPE3
 70
    64
  3
CENTER
 72
    65
 73
     4
 40
50.0
 49
35.0
 49
-5.0
 49
5.0
 49
-5.0
  0
LTYPE
  2
LTYPE4
 70
    64
  3
PHANTOM
 72
    65
 73
     6
 40
50.0
 49
37.5
 49
-2.5
 49
2.5
 49
-2.5
 49
2.5
 49
-2.5
  0
ENDTAB
  0
TABLE
  2
LAYER
 70
   128
  0
LAYER
  2
0
 70
     0
 62
     7
  6
CONTINUOUS
  0
LAYER
  2
2
 70
     0
 62
     7
  6
CONTINUOUS
  0
LAYER
  2
3
 70
     0
 62
     7
  6
CONTINUOUS
  0
LAYER
  2
4
 70
     0
 62
     7
  6
CONTINUOUS
  0
LAYER
  2
5
 70
     0
 62
     7
  6
CONTINUOUS
  0
LAYER
  2
6
 70
     0
 62
     7
  6
CONTINUOUS
  0
LAYER
  2
7
 70
     0
 62
     7
  6
CONTINUOUS
  0
LAYER
  2
8
 70
     0
 62
     7
  6
CONTINUOUS
  0
LAYER
  2
9
 70
     0
 62
     7
  6
CONTINUOUS
  0
LAYER
  2
10
 70
     0
 62
     7
  6
CONTINUOUS
  0
LAYER
  2
11
 70
     0
 62
     7
  6
CONTINUOUS
  0
LAYER
  2
12
 70
     0
 62
     7
  6
CONTINUOUS
  0
LAYER
  2
13
 70
     0
 62
     7
  6
CONTINUOUS
  0
LAYER
  2
14
 70
     0
 62
     7
  6
CONTINUOUS
  0
LAYER
  2
15
 70
     0
 62
     7
  6
CONTINUOUS
  0
LAYER
  2
16
 70
     0
 62
     7
  6
CONTINUOUS
  0
LAYER
  2
17
 70
     0
 62
     7
  6
CONTINUOUS
  0
LAYER
  2
18
 70
     0
 62
     7
  6
CONTINUOUS
  0
LAYER
  2
19
 70
     0
 62
     7
  6
CONTINUOUS
  0
LAYER
  2
20
 70
     0
 62
     7
  6
CONTINUOUS
  0
LAYER
  2
21
 70
     0
 62
     7
  6
CONTINUOUS
  0
LAYER
  2
22
 70
     0
 62
     7
  6
CONTINUOUS
  0
LAYER
  2
23
 70
     0
 62
     7
  6
CONTINUOUS
  0
LAYER
  2
24
 70
     0
 62
     7
  6
CONTINUOUS
  0
LAYER
  2
25
 70
     0
 62
     7
  6
CONTINUOUS
  0
LAYER
  2
26
 70
     0
 62
     7
  6
CONTINUOUS
  0
LAYER
  2
27
 70
     0
 62
     7
  6
CONTINUOUS
  0
LAYER
  2
28
 70
     0
 62
     7
  6
CONTINUOUS
  0
LAYER
  2
29
 70
     0
 62
     7
  6
CONTINUOUS
  0
LAYER
  2
30
 70
     0
 62
     7
  6
CONTINUOUS
  0
LAYER
  2
31
 70
     0
 62
     7
  6
CONTINUOUS
  0
LAYER
  2
32
 70
     0
 62
     7
  6
CONTINUOUS
  0
LAYER
  2
33
 70
     0
 62
     7
  6
CONTINUOUS
  0
LAYER
  2
34
 70
     0
 62
     7
  6
CONTINUOUS
  0
LAYER
  2
35
 70
     0
 62
     7
  6
CONTINUOUS
  0
LAYER
  2
36
 70
     0
 62
     7
  6
CONTINUOUS
  0
LAYER
  2
37
 70
     0
 62
     7
  6
CONTINUOUS
  0
LAYER
  2
38
 70
     0
 62
     7
  6
CONTINUOUS
  0
LAYER
  2
39
 70
     0
 62
     7
  6
CONTINUOUS
  0
LAYER
  2
40
 70
     0
 62
     7
  6
CONTINUOUS
  0
LAYER
  2
41
 70
     0
 62
     7
  6
CONTINUOUS
  0
LAYER
  2
42
 70
     0
 62
     7
  6
CONTINUOUS
  0
LAYER
  2
43
 70
     0
 62
     7
  6
CONTINUOUS
  0
LAYER
  2
44
 70
     0
 62
     7
  6
CONTINUOUS
  0
LAYER
  2
45
 70
     0
 62
     7
  6
CONTINUOUS
  0
LAYER
  2
46
 70
     0
 62
     7
  6
CONTINUOUS
  0
LAYER
  2
47
 70
     0
 62
     7
  6
CONTINUOUS
  0
LAYER
  2
48
 70
     0
 62
     7
  6
CONTINUOUS
  0
LAYER
  2
49
 70
     0
 62
     7
  6
CONTINUOUS
  0
LAYER
  2
50
 70
     0
 62
     7
  6
CONTINUOUS
  0
LAYER
  2
51
 70
     0
 62
     7
  6
CONTINUOUS
  0
LAYER
  2
52
 70
     0
 62
     7
  6
CONTINUOUS
  0
LAYER
  2
53
 70
     0
 62
     7
  6
CONTINUOUS
  0
LAYER
  2
54
 70
     0
 62
     7
  6
CONTINUOUS
  0
LAYER
  2
55
 70
     0
 62
     7
  6
CONTINUOUS
  0
LAYER
  2
56
 70
     0
 62
     7
  6
CONTINUOUS
  0
LAYER
  2
57
 70
     0
 62
     7
  6
CONTINUOUS
  0
LAYER
  2
58
 70
     0
 62
     7
  6
CONTINUOUS
  0
LAYER
  2
59
 70
     0
 62
     7
  6
CONTINUOUS
  0
LAYER
  2
60
 70
     0
 62
     7
  6
CONTINUOUS
  0
LAYER
  2
61
 70
     0
 62
     7
  6
CONTINUOUS
  0
LAYER
  2
62
 70
     0
 62
     7
  6
CONTINUOUS
  0
LAYER
  2
63
 70
     0
 62
     7
  6
CONTINUOUS
  0
LAYER
  2
64
 70
     0
 62
     7
  6
CONTINUOUS
  0
LAYER
  2
65
 70
     0
 62
     7
  6
CONTINUOUS
  0
LAYER
  2
66
 70
     0
 62
     7
  6
CONTINUOUS
  0
LAYER
  2
67
 70
     0
 62
     7
  6
CONTINUOUS
  0
LAYER
  2
68
 70
     0
 62
     7
  6
CONTINUOUS
  0
LAYER
  2
69
 70
     0
 62
     7
  6
CONTINUOUS
  0
LAYER
  2
70
 70
     0
 62
     7
  6
CONTINUOUS
  0
LAYER
  2
71
 70
     0
 62
     7
  6
CONTINUOUS
  0
LAYER
  2
72
 70
     0
 62
     7
  6
CONTINUOUS
  0
LAYER
  2
73
 70
     0
 62
     7
  6
CONTINUOUS
  0
LAYER
  2
74
 70
     0
 62
     7
  6
CONTINUOUS
  0
LAYER
  2
75
 70
     0
 62
     7
  6
CONTINUOUS
  0
LAYER
  2
76
 70
     0
 62
     7
  6
CONTINUOUS
  0
LAYER
  2
77
 70
     0
 62
     7
  6
CONTINUOUS
  0
LAYER
  2
78
 70
     0
 62
     7
  6
CONTINUOUS
  0
LAYER
  2
79
 70
     0
 62
     7
  6
CONTINUOUS
  0
LAYER
  2
80
 70
     0
 62
     7
  6
CONTINUOUS
  0
LAYER
  2
81
 70
     0
 62
     7
  6
CONTINUOUS
  0
LAYER
  2
82
 70
     0
 62
     7
  6
CONTINUOUS
  0
LAYER
  2
83
 70
     0
 62
     7
  6
CONTINUOUS
  0
LAYER
  2
84
 70
     0
 62
     7
  6
CONTINUOUS
  0
LAYER
  2
85
 70
     0
 62
     7
  6
CONTINUOUS
  0
LAYER
  2
86
 70
     0
 62
     7
  6
CONTINUOUS
  0
LAYER
  2
87
 70
     0
 62
     7
  6
CONTINUOUS
  0
LAYER
  2
88
 70
     0
 62
     7
  6
CONTINUOUS
  0
LAYER
  2
89
 70
     0
 62
     7
  6
CONTINUOUS
  0
LAYER
  2
90
 70
     0
 62
     7
  6
CONTINUOUS
  0
LAYER
  2
91
 70
     0
 62
     7
  6
CONTINUOUS
  0
LAYER
  2
92
 70
     0
 62
     7
  6
CONTINUOUS
  0
LAYER
  2
93
 70
     0
 62
     7
  6
CONTINUOUS
  0
LAYER
  2
94
 70
     0
 62
     7
  6
CONTINUOUS
  0
LAYER
  2
95
 70
     0
 62
     7
  6
CONTINUOUS
  0
LAYER
  2
96
 70
     0
 62
     7
  6
CONTINUOUS
  0
LAYER
  2
97
 70
     0
 62
     7
  6
CONTINUOUS
  0
LAYER
  2
98
 70
     0
 62
     7
  6
CONTINUOUS
  0
LAYER
  2
99
 70
     0
 62
     7
  6
CONTINUOUS
  0
LAYER
  2
100
 70
     0
 62
     7
  6
CONTINUOUS
  0
LAYER
  2
101
 70
     0
 62
     7
  6
CONTINUOUS
  0
LAYER
  2
102
 70
     0
 62
     7
  6
CONTINUOUS
  0
LAYER
  2
103
 70
     0
 62
     7
  6
CONTINUOUS
  0
LAYER
  2
104
 70
     0
 62
     7
  6
CONTINUOUS
  0
LAYER
  2
105
 70
     0
 62
     7
  6
CONTINUOUS
  0
LAYER
  2
106
 70
     0
 62
     7
  6
CONTINUOUS
  0
LAYER
  2
107
 70
     0
 62
     7
  6
CONTINUOUS
  0
LAYER
  2
108
 70
     0
 62
     7
  6
CONTINUOUS
  0
LAYER
  2
109
 70
     0
 62
     7
  6
CONTINUOUS
  0
LAYER
  2
110
 70
     0
 62
     7
  6
CONTINUOUS
  0
LAYER
  2
111
 70
     0
 62
     7
  6
CONTINUOUS
  0
LAYER
  2
112
 70
     0
 62
     7
  6
CONTINUOUS
  0
LAYER
  2
113
 70
     0
 62
     7
  6
CONTINUOUS
  0
LAYER
  2
114
 70
     0
 62
     7
  6
CONTINUOUS
  0
LAYER
  2
115
 70
     0
 62
     7
  6
CONTINUOUS
  0
LAYER
  2
116
 70
     0
 62
     7
  6
CONTINUOUS
  0
LAYER
  2
117
 70
     0
 62
     7
  6
CONTINUOUS
  0
LAYER
  2
118
 70
     0
 62
     7
  6
CONTINUOUS
  0
LAYER
  2
119
 70
     0
 62
     7
  6
CONTINUOUS
  0
LAYER
  2
120
 70
     0
 62
     7
  6
CONTINUOUS
  0
LAYER
  2
121
 70
     0
 62
     7
  6
CONTINUOUS
  0
LAYER
  2
122
 70
     0
 62
     7
  6
CONTINUOUS
  0
LAYER
  2
123
 70
     0
 62
     7
  6
CONTINUOUS
  0
LAYER
  2
124
 70
     0
 62
     7
  6
CONTINUOUS
  0
LAYER
  2
125
 70
     0
 62
     7
  6
CONTINUOUS
  0
LAYER
  2
126
 70
     0
 62
     7
  6
CONTINUOUS
  0
LAYER
  2
127
 70
     0
 62
     7
  6
CONTINUOUS
  0
LAYER
  2
128
 70
     0
 62
     7
  6
CONTINUOUS
  0
ENDTAB
  0
TABLE
  2
STYLE
 70
    69
  0
STYLE
  2
STANDARD
 70
     0
 40
0.0
 41
1.0
 50
0.0
 71
     0
 42
0.2
  3
txt.shx
  4
extfont.shx
  0
STYLE
  2
KANJI0
 70
     0
 40
9.999997897
 41
0.6
 50
0.0
 71
     0
 42
9.999997897
  3
txt.shx
  4
extfont.shx
  0
STYLE
  2
KANJI1
 70
     0
 40
11.999997477
 41
0.9
 50
0.0
 71
     0
 42
11.999997477
  3
txt.shx
  4
extfont.shx
  0
STYLE
  2
KANJI2
 70
     0
 40
14.999996846
 41
0.9
 50
0.0
 71
     0
 42
14.999996846
  3
txt.shx
  4
extfont.shx
  0
STYLE
  2
KANJI3
 70
     0
 40
12.999999
 41
0.75
 50
0.0
 71
     0
 42
12.999999
  3
txt.shx
  4
extfont.shx
  0
STYLE
  2
KANJI4
 70
     0
 40
8.666666
 41
0.6
 50
0.0
 71
     0
 42
8.666666
  3
txt.shx
  4
extfont.shx
  0
STYLE
  2
KANJI5
 70
     0
 40
10.3999992
 41
0.6
 50
0.0
 71
     0
 42
10.3999992
  3
txt.shx
  4
extfont.shx
  0
STYLE
  2
KANJI6
 70
     0
 40
15.1666655
 41
0.42031746
 50
0.0
 71
     0
 42
15.1666655
  3
txt.shx
  4
extfont.shx
  0
STYLE
  2
KANJI7
 70
     0
 40
25.999998
 41
0.9
 50
0.0
 71
     0
 42
25.999998
  3
txt.shx
  4
extfont.shx
  0
STYLE
  2
KANJI8
 70
     0
 40
8.666666
 41
0.8
 50
0.0
 71
     0
 42
8.666666
  3
txt.shx
  4
extfont.shx
  0
STYLE
  2
KANJI9
 70
     0
 40
10.3999992
 41
0.8
 50
0.0
 71
     0
 42
10.3999992
  3
txt.shx
  4
extfont.shx
  0
STYLE
  2
KANJI10
 70
     0
 40
25.0
 41
1.0
 50
0.0
 71
     0
 42
25.0
  3
txt.shx
  4
extfont.shx
  0
STYLE
  2
KANJI11
 70
     0
 40
25.0
 41
1.0
 50
0.0
 71
     0
 42
25.0
  3
txt.shx
  4
extfont.shx
  0
STYLE
  2
KANJI12
 70
     0
 40
25.0
 41
0.8
 50
0.0
 71
     0
 42
25.0
  3
txt.shx
  4
extfont.shx
  0
STYLE
  2
KANJI13
 70
     0
 40
20.0
 41
1.0
 50
0.0
 71
     0
 42
20.0
  3
txt.shx
  4
extfont.shx
  0
STYLE
  2
KANJI14
 70
     0
 40
17.5
 41
0.857142857
 50
0.0
 71
     0
 42
17.5
  3
txt.shx
  4
extfont.shx
  0
STYLE
  2
KANJI15
 70
     0
 40
22.5
 41
0.666666667
 50
0.0
 71
     0
 42
22.5
  3
txt.shx
  4
extfont.shx
  0
STYLE
  2
KANJI16
 70
     0
 40
18.0
 41
1.111111111
 50
0.0
 71
     0
 42
18.0
  3
txt.shx
  4
extfont.shx
  0
STYLE
  2
KANJI17
 70
     0
 40
12.8
 41
0.9
 50
0.0
 71
     0
 42
12.8
  3
txt.shx
  4
extfont.shx
  0
STYLE
  2
KANJI18
 70
     0
 40
12.0
 41
0.9
 50
0.0
 71
     0
 42
12.0
  3
txt.shx
  4
extfont.shx
  0
STYLE
  2
KANJI19
 70
     0
 40
12.0
 41
0.9
 50
0.0
 71
     0
 42
12.0
  3
txt.shx
  4
extfont.shx
  0
STYLE
  2
KANJI20
 70
     0
 40
14.0
 41
0.9
 50
0.0
 71
     0
 42
14.0
  3
txt.shx
  4
extfont.shx
  0
STYLE
  2
KANJI21
 70
     0
 40
10.8
 41
0.740740741
 50
0.0
 71
     0
 42
10.8
  3
txt.shx
  4
extfont.shx
  0
STYLE
  2
KANJI22
 70
     0
 40
14.0
 41
0.857142857
 50
0.0
 71
     0
 42
14.0
  3
txt.shx
  4
extfont.shx
  0
STYLE
  2
KANJI23
 70
     0
 40
15.0
 41
1.0
 50
0.0
 71
     0
 42
15.0
  3
txt.shx
  4
extfont.shx
  0
STYLE
  2
KANJI24
 70
     0
 40
15.0
 41
0.9
 50
0.0
 71
     0
 42
15.0
  3
txt.shx
  4
extfont.shx
  0
STYLE
  2
KANJI25
 70
     0
 40
11.55
 41
0.9
 50
0.0
 71
     0
 42
11.55
  3
txt.shx
  4
extfont.shx
  0
STYLE
  2
KANJI26
 70
     0
 40
12.0
 41
0.833333333
 50
0.0
 71
     0
 42
12.0
  3
txt.shx
  4
extfont.shx
  0
STYLE
  2
KANJI27
 70
     0
 40
17.5
 41
0.793650794
 50
0.0
 71
     0
 42
17.5
  3
txt.shx
  4
extfont.shx
  0
STYLE
  2
KANJI28
 70
     0
 40
25.0
 41
0.8
 50
0.0
 71
     0
 42
25.0
  3
txt.shx
  4
extfont.shx
  0
STYLE
  2
KANJI29
 70
     0
 40
13.475
 41
0.9
 50
0.0
 71
     0
 42
13.475
  3
txt.shx
  4
extfont.shx
  0
STYLE
  2
KANJI30
 70
     0
 40
20.0
 41
0.925
 50
0.0
 71
     0
 42
20.0
  3
txt.shx
  4
extfont.shx
  0
STYLE
  2
KANJI31
 70
     0
 40
20.0
 41
0.925
 50
0.0
 71
     0
 42
20.0
  3
txt.shx
  4
extfont.shx
  0
STYLE
  2
KANJI32
 70
     0
 40
10.933904043
 41
0.9
 50
0.0
 71
     0
 42
10.933904043
  3
txt.shx
  4
extfont.shx
  0
STYLE
  2
KANJI33
 70
     0
 40
15.185977837
 41
0.66671875
 50
0.0
 71
     0
 42
15.185977837
  3
txt.shx
  4
extfont.shx
  0
STYLE
  2
KANJI34
 70
     0
 40
18.223173404
 41
0.9
 50
0.0
 71
     0
 42
18.223173404
  3
txt.shx
  4
extfont.shx
  0
STYLE
  2
KANJI35
 70
     0
 40
15.6
 41
0.925
 50
0.0
 71
     0
 42
15.6
  3
txt.shx
  4
extfont.shx
  0
STYLE
  2
KANJI36
 70
     0
 40
14.578538724
 41
0.9
 50
0.0
 71
     0
 42
14.578538724
  3
txt.shx
  4
extfont.shx
  0
STYLE
  2
KANJI37
 70
     0
 40
20.0
 41
0.9
 50
0.0
 71
     0
 42
20.0
  3
txt.shx
  4
extfont.shx
  0
STYLE
  2
KANJI38
 70
     0
 40
18.0
 41
0.857142857
 50
0.0
 71
     0
 42
18.0
  3
txt.shx
  4
extfont.shx
  0
STYLE
  2
KANJI39
 70
     0
 40
18.0
 41
0.857222222
 50
0.0
 71
     0
 42
18.0
  3
txt.shx
  4
extfont.shx
  0
STYLE
  2
KANJI40
 70
     0
 40
8.4
 41
0.9
 50
0.0
 71
     0
 42
8.4
  3
txt.shx
  4
extfont.shx
  0
STYLE
  2
KANJI41
 70
     0
 40
17.5
 41
0.9
 50
0.0
 71
     0
 42
17.5
  3
txt.shx
  4
extfont.shx
  0
STYLE
  2
KANJI42
 70
     0
 40
17.5
 41
0.9
 50
0.0
 71
     0
 42
17.5
  3
txt.shx
  4
extfont.shx
  0
STYLE
  2
KANJI43
 70
     0
 40
17.5
 41
0.9
 50
0.0
 71
     0
 42
17.5
  3
txt.shx
  4
extfont.shx
  0
STYLE
  2
KANJI44
 70
     0
 40
17.5
 41
0.9
 50
0.0
 71
     0
 42
17.5
  3
txt.shx
  4
extfont.shx
  0
STYLE
  2
KANJI45
 70
     0
 40
22.5
 41
0.9
 50
0.0
 71
     0
 42
22.5
  3
txt.shx
  4
extfont.shx
  0
STYLE
  2
KANJI46
 70
     0
 40
17.5
 41
0.9
 50
0.0
 71
     0
 42
17.5
  3
txt.shx
  4
extfont.shx
  0
STYLE
  2
KANJI47
 70
     0
 40
17.5
 41
0.9
 50
0.0
 71
     0
 42
17.5
  3
txt.shx
  4
extfont.shx
  0
STYLE
  2
KANJI48
 70
     0
 40
17.5
 41
0.9
 50
0.0
 71
     0
 42
17.5
  3
txt.shx
  4
extfont.shx
  0
STYLE
  2
KANJI49
 70
     0
 40
17.5
 41
0.9
 50
0.0
 71
     0
 42
17.5
  3
txt.shx
  4
extfont.shx
  0
STYLE
  2
KANJI50
 70
     0
 40
17.5
 41
0.9
 50
0.0
 71
     0
 42
17.5
  3
txt.shx
  4
extfont.shx
  0
STYLE
  2
KANJI51
 70
     4
 40
17.5
 41
0.9
 50
0.0
 71
     0
 42
17.5
  3
txt.shx
  4
extfont.shx
  0
STYLE
  2
KANJI52
 70
     4
 40
15.0
 41
0.9
 50
0.0
 71
     0
 42
15.0
  3
txt.shx
  4
extfont.shx
  0
STYLE
  2
KANJI53
 70
     0
 40
12.5
 41
0.8
 50
0.0
 71
     0
 42
12.5
  3
txt.shx
  4
extfont.shx
  0
STYLE
  2
KANJI54
 70
     0
 40
15.0
 41
0.9
 50
0.0
 71
     0
 42
15.0
  3
txt.shx
  4
extfont.shx
  0
STYLE
  2
KANJI55
 70
     0
 40
15.0
 41
0.857142857
 50
0.0
 71
     0
 42
15.0
  3
txt.shx
  4
extfont.shx
  0
STYLE
  2
KANJI56
 70
     0
 40
17.5
 41
0.9
 50
0.0
 71
     0
 42
17.5
  3
txt.shx
  4
extfont.shx
  0
STYLE
  2
KANJI57
 70
     0
 40
14.0
 41
0.9
 50
0.0
 71
     0
 42
14.0
  3
txt.shx
  4
extfont.shx
  0
STYLE
  2
KANJI58
 70
     0
 40
14.0
 41
0.785714286
 50
0.0
 71
     0
 42
14.0
  3
txt.shx
  4
extfont.shx
  0
STYLE
  2
KANJI59
 70
     0
 40
14.0
 41
0.8
 50
0.0
 71
     0
 42
14.0
  3
txt.shx
  4
extfont.shx
  0
STYLE
  2
KANJI60
 70
     0
 40
17.5
 41
0.9
 50
0.0
 71
     0
 42
17.5
  3
txt.shx
  4
extfont.shx
  0
STYLE
  2
KANJI61
 70
     0
 40
15.0
 41
0.8
 50
0.0
 71
     0
 42
15.0
  3
txt.shx
  4
extfont.shx
  0
STYLE
  2
KANJI62
 70
     0
 40
15.0
 41
0.9
 50
0.0
 71
     0
 42
15.0
  3
txt.shx
  4
extfont.shx
  0
STYLE
  2
KANJI63
 70
     0
 40
17.5
 41
0.9
 50
0.0
 71
     0
 42
17.5
  3
txt.shx
  4
extfont.shx
  0
STYLE
  2
KANJI64
 70
     0
 40
15.0
 41
0.833333333
 50
0.0
 71
     0
 42
15.0
  3
txt.shx
  4
extfont.shx
  0
STYLE
  2
KANJI65
 70
     0
 40
17.5
 41
0.9
 50
0.0
 71
     0
 42
17.5
  3
txt.shx
  4
extfont.shx
  0
STYLE
  2
KANJI66
 70
     0
 40
15.0
 41
0.766666667
 50
0.0
 71
     0
 42
15.0
  3
txt.shx
  4
extfont.shx
  0
STYLE
  2
KANJI67
 70
     0
 40
17.5
 41
0.571428571
 50
0.0
 71
     0
 42
17.5
  3
txt.shx
  4
extfont.shx
  0
ENDTAB
  0
TABLE
  2
VIEW
 70
     0
  0
ENDTAB
  0
ENDSEC
  0
SECTION
  2
BLOCKS
  0
ENDSEC
  0
SECTION
  2
ENTITIES
  0
LINE
  8
0
  6
CONTINUOUS
 62
     6
 10
72.25
 20
61.0
 30
0.0
 11
72.25
 21
1406.0
 31
0.0
  0
TEXT
  8
0
  6
CONTINUOUS
 62
     4
 10
87.249996846
 20
85.999994744
 30
0.99999979
 40
9.999997897
  1
ＰＡＲＴＳ　ＬＩＳＴ
 50
0.0
 41
0.6
 51
0.0
  7
KANJI0
  0
TEXT
  8
0
  6
CONTINUOUS
 62
     4
 10
87.249996846
 20
70.999997897
 30
1.199999748
 40
11.999997477
  1
部品表
 50
0.0
 41
0.9
 51
0.0
  7
KANJI1
  0
LINE
  8
0
  6
CONTINUOUS
 62
     6
 10
2007.25
 20
61.0
 30
0.0
 11
72.25
 21
61.0
 31
0.0
  0
LINE
  8
0
  6
CONTINUOUS
 62
     6
 10
77.249998949
 20
135.999984231
 30
0.0
 11
402.249930615
 21
135.999984231
 31
0.0
  0
LINE
  8
0
  6
CONTINUOUS
 62
     6
 10
77.249998949
 20
65.999998949
 30
0.0
 11
402.249930615
 21
65.999998949
 31
0.0
  0
LINE
  8
0
  6
CONTINUOUS
 62
     6
 10
77.249998949
 20
65.999998949
 30
0.0
 11
77.249998949
 21
135.999984231
 31
0.0
  0
LINE
  8
0
  6
CONTINUOUS
 62
     6
 10
77.249998949
 20
100.99999159
 30
0.0
 11
402.249930615
 21
100.99999159
 31
0.0
  0
TEXT
  8
0
  6
CONTINUOUS
 62
     2
 10
87.249996846
 20
110.999989487
 30
1.499999685
 40
14.999996846
  1
ＰＬ
 50
0.0
 41
0.9
 51
0.0
  7
KANJI2
  0
LINE
  8
0
  6
CONTINUOUS
 62
     4
 10
15.333333
 20
65.333333
 30
0.0
 11
67.333329
 21
65.333333
 31
0.0
  0
LINE
  8
0
  6
CONTINUOUS
 62
     4
 10
15.333333
 20
91.333331
 30
0.0
 11
67.333329
 21
91.333331
 31
0.0
  0
LINE
  8
0
  6
CONTINUOUS
 62
     4
 10
15.333333
 20
117.333329
 30
0.0
 11
67.333329
 21
117.333329
 31
0.0
  0
LINE
  8
0
  6
CONTINUOUS
 62
     4
 10
15.333333
 20
143.333327
 30
0.0
 11
67.333329
 21
143.333327
 31
0.0
  0
LINE
  8
0
  6
CONTINUOUS
 62
     4
 10
15.333333
 20
169.333325
 30
0.0
 11
67.333329
 21
169.333325
 31
0.0
  0
LINE
  8
0
  6
CONTINUOUS
 62
     4
 10
15.333333
 20
195.333323
 30
0.0
 11
67.333329
 21
195.333323
 31
0.0
  0
LINE
  8
0
  6
CONTINUOUS
 62
     4
 10
15.333333
 20
221.333321
 30
0.0
 11
67.333329
 21
221.333321
 31
0.0
  0
LINE
  8
0
  6
CONTINUOUS
 62
     4
 10
15.333333
 20
247.333319
 30
0.0
 11
67.333329
 21
247.333319
 31
0.0
  0
LINE
  8
0
  6
CONTINUOUS
 62
     4
 10
15.333333
 20
273.333317
 30
0.0
 11
67.333329
 21
273.333317
 31
0.0
  0
LINE
  8
0
  6
CONTINUOUS
 62
     4
 10
15.333333
 20
299.333315
 30
0.0
 11
67.333329
 21
299.333315
 31
0.0
  0
LINE
  8
0
  6
CONTINUOUS
 62
     4
 10
67.333329
 20
65.333333
 30
0.0
 11
67.333329
 21
299.333315
 31
0.0
  0
LINE
  8
0
  6
CONTINUOUS
 62
     4
 10
41.333331
 20
65.333333
 30
0.0
 11
41.333331
 21
273.333317
 31
0.0
  0
TEXT
  8
0
  6
CONTINUOUS
 62
     4
 10
24.21666565
 20
72.91666575
 30
1.2999999
 40
12.999999
  1
計
 50
0.0
 41
0.75
 51
0.0
  7
KANJI3
  0
TEXT
  8
0
  6
CONTINUOUS
 62
     4
 10
24.21666565
 20
125.34999505
 30
1.2999999
 40
12.999999
  1
設
 50
0.0
 41
0.75
 51
0.0
  7
KANJI3
  0
TEXT
  8
0
  6
CONTINUOUS
 62
     4
 10
24.21666565
 20
150.91665975
 30
1.2999999
 40
12.999999
  1
管
 50
0.0
 41
0.75
 51
0.0
  7
KANJI3
  0
TEXT
  8
0
  6
CONTINUOUS
 62
     4
 10
24.21666565
 20
176.91665775
 30
1.2999999
 40
12.999999
  1
製
 50
0.0
 41
0.75
 51
0.0
  7
KANJI3
  0
TEXT
  8
0
  6
CONTINUOUS
 62
     4
 10
24.21666565
 20
202.91665575
 30
1.2999999
 40
12.999999
  1
資
 50
0.0
 41
0.75
 51
0.0
  7
KANJI3
  0
TEXT
  8
0
  6
CONTINUOUS
 62
     4
 10
24.21666565
 20
228.91665375
 30
1.2999999
 40
12.999999
  1
営
 50
0.0
 41
0.75
 51
0.0
  7
KANJI3
  0
TEXT
  8
0
  6
CONTINUOUS
 62
     4
 10
24.21666565
 20
254.91665175
 30
1.2999999
 40
12.999999
  1
客
 50
0.0
 41
0.75
 51
0.0
  7
KANJI3
  0
TEXT
  8
0
  6
CONTINUOUS
 62
     4
 10
23.999999
 20
281.999983
 30
1.2999999
 40
12.999999
  1
出　図
 50
0.0
 41
0.75
 51
0.0
  7
KANJI3
  0
LINE
  8
0
  6
CONTINUOUS
 62
     4
 10
15.333333
 20
65.333333
 30
0.0
 11
15.333333
 21
299.333315
 31
0.0
  0
TEXT
  8
0
  6
CONTINUOUS
 62
     4
 10
312.249949538
 20
85.999994744
 30
0.99999979
 40
9.999997897
  1
Ｎ０．
 50
0.0
 41
0.6
 51
0.0
  7
KANJI0
  0
TEXT
  8
0
  6
CONTINUOUS
 62
     4
 10
312.249949538
 20
70.999997897
 30
1.199999748
 40
11.999997477
  1
項番
 50
0.0
 41
0.9
 51
0.0
  7
KANJI1
  0
LINE
  8
0
  6
CONTINUOUS
 62
     6
 10
402.249930615
 20
65.999998949
 30
0.0
 11
402.249930615
 21
135.999984231
 31
0.0
  0
LINE
  8
0
  6
CONTINUOUS
 62
     6
 10
302.249951641
 20
65.999998949
 30
0.0
 11
302.249951641
 21
135.999984231
 31
0.0
  0
LINE
  8
0
  6
CONTINUOUS
 62
     4
 10
1335.583385
 20
99.999997
 30
0.0
 11
1493.7500395
 21
99.999997
 31
0.0
  0
TEXT
  8
0
  6
CONTINUOUS
 62
     4
 10
1344.250051
 20
84.8333315
 30
0.8666666
 40
8.666666
  1
ＳＣＡＬＥ
 50
0.0
 41
0.6
 51
0.0
  7
KANJI4
  0
TEXT
  8
0
  6
CONTINUOUS
 62
     4
 10
1344.250051
 20
119.4999955
 30
0.8666666
 40
8.666666
  1
ＤＡＴＥ
 50
0.0
 41
0.6
 51
0.0
  7
KANJI4
  0
TEXT
  8
0
  6
CONTINUOUS
 62
     4
 10
1344.250051
 20
71.8333325
 30
1.03999992
 40
10.3999992
  1
尺度
 50
0.0
 41
0.6
 51
0.0
  7
KANJI5
  0
TEXT
  8
0
  6
CONTINUOUS
 62
     4
 10
1344.250051
 20
106.4999965
 30
1.03999992
 40
10.3999992
  1
日付
 50
0.0
 41
0.6
 51
0.0
  7
KANJI5
  0
TEXT
  8
0
  6
CONTINUOUS
 62
     4
 10
1103.7500695
 20
84.8333315
 30
0.8666666
 40
8.666666
  1
ＢＹ
 50
0.0
 41
0.6
 51
0.0
  7
KANJI4
  0
TEXT
  8
0
  6
CONTINUOUS
 62
     4
 10
1199.0833955
 20
84.8333315
 30
0.8666666
 40
8.666666
  1
ＤＥＳＣＲＩＰＴＩＯＮ
 50
0.0
 41
0.6
 51
0.0
  7
KANJI4
  0
TEXT
  8
0
  6
CONTINUOUS
 62
     4
 10
1103.7500695
 20
71.8333325
 30
1.03999992
 40
10.3999992
  1
担当
 50
0.0
 41
0.6
 51
0.0
  7
KANJI5
  0
TEXT
  8
0
  6
CONTINUOUS
 62
     4
 10
1212.0833945
 20
71.8333325
 30
1.03999992
 40
10.3999992
  1
記　　　　事
 50
0.0
 41
0.6
 51
0.0
  7
KANJI5
  0
LINE
  8
0
  6
CONTINUOUS
 62
     4
 10
1011.66674325
 20
93.4999975
 30
0.0
 11
997.583411
 21
71.8333325
 31
0.0
  0
TEXT
  8
0
  6
CONTINUOUS
 62
     4
 10
1047.4167405
 20
84.8333315
 30
0.8666666
 40
8.666666
  1
ＤＡＴＥ
 50
0.0
 41
0.6
 51
0.0
  7
KANJI4
  0
TEXT
  8
0
  6
CONTINUOUS
 62
     4
 10
1053.91674
 20
71.8333325
 30
1.03999992
 40
10.3999992
  1
日付
 50
0.0
 41
0.6
 51
0.0
  7
KANJI5
  0
LINE
  8
0
  6
CONTINUOUS
 62
     4
 10
997.583411
 20
71.8333325
 30
0.0
 11
1025.7500755
 21
71.8333325
 31
0.0
  0
LINE
  8
0
  6
CONTINUOUS
 62
     4
 10
1011.66674325
 20
93.4999975
 30
0.0
 11
1025.7500755
 21
71.8333325
 31
0.0
  0
LINE
  8
0
  6
CONTINUOUS
 62
     4
 10
1493.7500395
 20
119.4999955
 30
0.0
 11
2002.916667
 21
119.4999955
 31
0.0
  0
LINE
  8
0
  6
LTYPE1
 62
     4
 10
1857.7500115
 20
125.999995
 30
0.0
 11
1857.7500115
 21
160.666659
 31
0.0
  0
LINE
  8
0
  6
LTYPE1
 62
     4
 10
1827.4166805
 20
125.999995
 30
0.0
 11
1827.4166805
 21
160.666659
 31
0.0
  0
LINE
  8
0
  6
LTYPE1
 62
     4
 10
1797.0833495
 20
125.999995
 30
0.0
 11
1797.0833495
 21
160.666659
 31
0.0
  0
LINE
  8
0
  6
LTYPE1
 62
     4
 10
1766.7500185
 20
125.999995
 30
0.0
 11
1766.7500185
 21
160.666659
 31
0.0
  0
LINE
  8
0
  6
LTYPE1
 62
     4
 10
1736.4166875
 20
125.999995
 30
0.0
 11
1736.4166875
 21
160.666659
 31
0.0
  0
LINE
  8
0
  6
LTYPE1
 62
     4
 10
1706.0833565
 20
125.999995
 30
0.0
 11
1706.0833565
 21
160.666659
 31
0.0
  0
LINE
  8
0
  6
LTYPE1
 62
     4
 10
1675.7500255
 20
125.999995
 30
0.0
 11
1675.7500255
 21
160.666659
 31
0.0
  0
LINE
  8
0
  6
LTYPE1
 62
     4
 10
1645.4166945
 20
125.999995
 30
0.0
 11
1645.4166945
 21
160.666659
 31
0.0
  0
LINE
  8
0
  6
LTYPE1
 62
     4
 10
1645.4166945
 20
125.999995
 30
0.0
 11
1857.7500115
 21
125.999995
 31
0.0
  0
LINE
  8
0
  6
CONTINUOUS
 62
     6
 10
2007.25
 20
1406.0
 30
0.0
 11
2007.25
 21
61.0
 31
0.0
  0
LINE
  8
0
  6
CONTINUOUS
 62
     6
 10
993.250078
 20
99.999997
 30
0.0
 11
1335.583385
 21
99.999997
 31
0.0
  0
LINE
  8
0
  6
CONTINUOUS
 62
     6
 10
993.250078
 20
65.333333
 30
0.0
 11
2002.916667
 21
65.333333
 31
0.0
  0
TEXT
  8
0
  6
CONTINUOUS
 62
     6
 10
1498.0833725
 20
84.8333315
 30
0.0
 40
15.1666655
  1
ＵＮＩＴＥＣ　ＩＮＤＵＳＴＲＹ　ＣＯ．，ＬＴＤ．
 50
0.0
 41
0.42031746
 51
0.0
  7
KANJI6
  0
TEXT
  8
0
  6
CONTINUOUS
 62
     6
 10
1710.795856138
 20
79.1999986
 30
2.5999998
 40
25.999998
  1
ユニテック工業株式会社
 50
0.0
 41
0.9
 51
0.0
  7
KANJI7
  0
LINE
  8
0
  6
CONTINUOUS
 62
     6
 10
993.250078
 20
65.333333
 30
0.0
 11
993.250078
 21
99.999997
 31
0.0
  0
LINE
  8
0
  6
CONTINUOUS
 62
     4
 10
1030.0834085
 20
65.333333
 30
0.0
 11
1030.0834085
 21
99.999997
 31
0.0
  0
LINE
  8
0
  6
CONTINUOUS
 62
     4
 10
1090.7500705
 20
65.333333
 30
0.0
 11
1090.7500705
 21
99.999997
 31
0.0
  0
LINE
  8
0
  6
CONTINUOUS
 62
     4
 10
1129.7500675
 20
65.333333
 30
0.0
 11
1129.7500675
 21
99.999997
 31
0.0
  0
LINE
  8
0
  6
CONTINUOUS
 62
     6
 10
1335.583385
 20
65.333333
 30
0.0
 11
1335.583385
 21
342.666645
 31
0.0
  0
LINE
  8
0
  6
CONTINUOUS
 62
     6
 10
2002.916667
 20
65.333333
 30
0.0
 11
2002.916667
 21
342.666645
 31
0.0
  0
LINE
  8
0
  6
CONTINUOUS
 62
     4
 10
1493.7500395
 20
65.333333
 30
0.0
 11
1493.7500395
 21
342.666645
 31
0.0
  0
LINE
  8
0
  6
CONTINUOUS
 62
     6
 10
1676.129192138
 20
88.2999979
 30
0.0
 11
1664.689193018
 21
88.2999979
 31
0.0
  0
LINE
  8
0
  6
CONTINUOUS
 62
     6
 10
1676.129192138
 20
90.37999774
 30
0.0
 11
1664.689193018
 21
90.37999774
 31
0.0
  0
LINE
  8
0
  6
CONTINUOUS
 62
     6
 10
1676.129192138
 20
88.2999979
 30
0.0
 11
1687.569191258
 21
88.2999979
 31
0.0
  0
LINE
  8
0
  6
CONTINUOUS
 62
     6
 10
1676.129192138
 20
90.37999774
 30
0.0
 11
1687.569191258
 21
90.37999774
 31
0.0
  0
LINE
  8
0
  6
CONTINUOUS
 62
     6
 10
1687.569191258
 20
90.37999774
 30
0.0
 11
1687.569191258
 21
88.2999979
 31
0.0
  0
ARC
  8
0
  6
CONTINUOUS
 62
     6
 10
1690.169191058
 20
89.33999782
 30
0.0
 40
10.3999992
 50
185.739170477
 51
90.0
  0
ARC
  8
0
  6
CONTINUOUS
 62
     6
 10
1690.169191058
 20
89.33999782
 30
0.0
 40
12.47999904
 50
184.780191847
 51
90.0
  0
LINE
  8
0
  6
CONTINUOUS
 62
     6
 10
1664.689193018
 20
88.2999979
 30
0.0
 11
1664.689193018
 21
90.37999774
 31
0.0
  0
LINE
  8
0
  6
CONTINUOUS
 62
     6
 10
1674.569192258
 20
101.81999686
 30
0.0
 11
1662.089193218
 21
101.81999686
 31
0.0
  0
LINE
  8
0
  6
CONTINUOUS
 62
     6
 10
1677.689192018
 20
101.81999686
 30
0.0
 11
1690.169191058
 21
101.81999686
 31
0.0
  0
ARC
  8
0
  6
CONTINUOUS
 62
     6
 10
1662.089193218
 20
89.33999782
 30
0.0
 40
10.3999992
 50
90.0
 51
354.260829523
  0
ARC
  8
0
  6
CONTINUOUS
 62
     6
 10
1662.089193218
 20
89.33999782
 30
0.0
 40
12.47999904
 50
90.0
 51
355.219808153
  0
LINE
  8
0
  6
CONTINUOUS
 62
     6
 10
1674.569192258
 20
101.81999686
 30
0.0
 11
1674.569192258
 21
99.73999702
 31
0.0
  0
LINE
  8
0
  6
CONTINUOUS
 62
     6
 10
1662.089193218
 20
99.73999702
 30
0.0
 11
1674.569192258
 21
99.73999702
 31
0.0
  0
LINE
  8
0
  6
CONTINUOUS
 62
     6
 10
1677.689192018
 20
101.81999686
 30
0.0
 11
1677.689192018
 21
99.73999702
 31
0.0
  0
LINE
  8
0
  6
CONTINUOUS
 62
     6
 10
1690.169191058
 20
99.73999702
 30
0.0
 11
1677.689192018
 21
99.73999702
 31
0.0
  0
TEXT
  8
0
  6
CONTINUOUS
 62
     4
 10
1344.250051
 20
154.1666595
 30
0.8666666
 40
8.666666
  1
ＤＲＡＷＮ
 50
0.0
 41
0.6
 51
0.0
  7
KANJI4
  0
TEXT
  8
0
  6
CONTINUOUS
 62
     4
 10
1344.250051
 20
188.8333235
 30
0.8666666
 40
8.666666
  1
ＤＥＳＩＧＮ
 50
0.0
 41
0.6
 51
0.0
  7
KANJI4
  0
TEXT
  8
0
  6
CONTINUOUS
 62
     4
 10
1344.250051
 20
223.4999875
 30
0.8666666
 40
8.666666
  1
ＣＨＥＣＫ
 50
0.0
 41
0.6
 51
0.0
  7
KANJI4
  0
LINE
  8
0
  6
CONTINUOUS
 62
     4
 10
1335.583385
 20
203.999989
 30
0.0
 11
1493.7500395
 21
203.999989
 31
0.0
  0
LINE
  8
0
  6
CONTINUOUS
 62
     4
 10
1335.583385
 20
169.333325
 30
0.0
 11
1493.7500395
 21
169.333325
 31
0.0
  0
LINE
  8
0
  6
CONTINUOUS
 62
     4
 10
1335.583385
 20
238.666653
 30
0.0
 11
1493.7500395
 21
238.666653
 31
0.0
  0
TEXT
  8
0
  6
CONTINUOUS
 62
     4
 10
1344.250051
 20
175.8333245
 30
1.03999992
 40
10.3999992
  1
設計
 50
0.0
 41
0.6
 51
0.0
  7
KANJI5
  0
TEXT
  8
0
  6
CONTINUOUS
 62
     4
 10
1344.250051
 20
210.4999885
 30
1.03999992
 40
10.3999992
  1
検図
 50
0.0
 41
0.6
 51
0.0
  7
KANJI5
  0
TEXT
  8
0
  6
CONTINUOUS
 62
     4
 10
1344.250051
 20
245.1666525
 30
1.03999992
 40
10.3999992
  1
分類
 50
0.0
 41
0.6
 51
0.0
  7
KANJI5
  0
LINE
  8
0
  6
CONTINUOUS
 62
     4
 10
1506.53337185
 20
238.666653
 30
0.0
 11
2002.916667
 21
238.666653
 31
0.0
  0
LINE
  8
0
  6
CONTINUOUS
 62
     4
 10
1493.7500395
 20
169.333325
 30
0.0
 11
2002.916667
 21
169.333325
 31
0.0
  0
TEXT
  8
0
  6
CONTINUOUS
 62
     4
 10
1502.4167055
 20
154.1666595
 30
0.8666666
 40
8.666666
  1
ＤＲＡＷＩＮＧ　ＮＯ．
 50
0.0
 41
0.8
 51
0.0
  7
KANJI8
  0
TEXT
  8
0
  6
CONTINUOUS
 62
     4
 10
1502.4167055
 20
188.8333235
 30
0.8666666
 40
8.666666
  1
ＭＦＧ　ＮＯ．
 50
0.0
 41
0.8
 51
0.0
  7
KANJI8
  0
TEXT
  8
0
  6
CONTINUOUS
 62
     4
 10
1502.4167055
 20
223.4999875
 30
0.8666666
 40
8.666666
  1
ＴＹＰＥ
 50
0.0
 41
0.8
 51
0.0
  7
KANJI8
  0
LINE
  8
0
  6
CONTINUOUS
 62
     4
 10
1506.7500385
 20
203.999989
 30
0.0
 11
1706.0833565
 21
203.999989
 31
0.0
  0
TEXT
  8
0
  6
CONTINUOUS
 62
     4
 10
1502.4167055
 20
138.999994
 30
1.03999992
 40
10.3999992
  1
図　面　番　号
 50
0.0
 41
0.8
 51
0.0
  7
KANJI9
  0
TEXT
  8
0
  6
CONTINUOUS
 62
     4
 10
1502.4167055
 20
173.666658
 30
1.03999992
 40
10.3999992
  1
製番
 50
0.0
 41
0.8
 51
0.0
  7
KANJI9
  0
TEXT
  8
0
  6
CONTINUOUS
 62
     4
 10
1502.4167055
 20
208.333322
 30
1.03999992
 40
10.3999992
  1
機種
 50
0.0
 41
0.8
 51
0.0
  7
KANJI9
  0
LINE
  8
0
  6
CONTINUOUS
 62
     4
 10
1335.583385
 20
134.666661
 30
0.0
 11
1493.7500395
 21
134.666661
 31
0.0
  0
TEXT
  8
0
  6
CONTINUOUS
 62
     4
 10
1344.250051
 20
141.1666605
 30
1.03999992
 40
10.3999992
  1
作図
 50
0.0
 41
0.6
 51
0.0
  7
KANJI5
  0
LINE
  8
0
  6
LTYPE1
 62
     4
 10
1645.4166945
 20
160.666659
 30
0.0
 11
1857.7500115
 21
160.666659
 31
0.0
  0
LINE
  8
0
  6
CONTINUOUS
 62
     4
 10
1875.0833435
 20
144.41666025
 30
0.0
 11
1883.7500095
 21
144.41666025
 31
0.0
  0
LINE
  8
0
  6
CONTINUOUS
 62
     4
 10
1929.250006
 20
131.41666125
 30
0.0
 11
1898.916675
 21
131.41666125
 31
0.0
  0
LINE
  8
0
  6
CONTINUOUS
 62
     4
 10
1898.916675
 20
131.41666125
 30
0.0
 11
1914.0833405
 21
157.41665925
 31
0.0
  0
LINE
  8
0
  6
CONTINUOUS
 62
     4
 10
1914.0833405
 20
157.41665925
 30
0.0
 11
1929.250006
 21
131.41666125
 31
0.0
  0
TEXT
  8
0
  6
CONTINUOUS
 62
     4
 10
1719.0833555
 20
223.4999875
 30
0.8666666
 40
8.666666
  1
ＴＩＴＬＥ
 50
0.0
 41
0.8
 51
0.0
  7
KANJI8
  0
TEXT
  8
0
  6
CONTINUOUS
 62
     4
 10
1719.0833555
 20
208.333322
 30
1.03999992
 40
10.3999992
  1
名称
 50
0.0
 41
0.8
 51
0.0
  7
KANJI9
  0
TEXT
  8
0
  6
CONTINUOUS
 62
     2
 10
1789.75
 20
176.0
 30
12.5
 40
25.0
  1
外形寸法図
 50
0.0
 41
1.0
 51
0.0
  7
KANJI10
  0
TEXT
  8
0
  6
CONTINUOUS
 62
     2
 10
1759.75
 20
206.0
 30
3.571428571
 40
25.0
  1
マイティシリンダ
 50
0.0
 41
1.0
 51
0.0
  7
KANJI11
  0
TEXT
  8
0
  6
CONTINUOUS
 62
     2
 10
1619.1666945
 20
130.999995
 30
1.5
 40
25.0
  1
Ａ
 50
0.0
 41
0.8
 51
0.0
  7
KANJI12
  0
CIRCLE
  8
0
  6
CONTINUOUS
 62
     2
 10
1586.6666945
 20
184.749995
 30
0.0
 40
12.5
  0
TEXT
  8
0
  6
CONTINUOUS
 62
     2
 10
1577.2916945
 20
175.374995
 30
1.5
 40
20.0
  1
Ｓ
 50
0.0
 41
1.0
 51
0.0
  7
KANJI13
  0
TEXT
  8
0
  6
CONTINUOUS
 62
     2
 10
1391.4166945
 20
143.499995
 30
5.0
 40
17.5
  1
岡田
 50
0.0
 41
0.857142857
 51
0.0
  7
KANJI14
  0
TEXT
  8
0
  6
CONTINUOUS
 62
     2
 10
1427.25
 20
71.0
 30
1.5
 40
22.5
  1
１／５
 50
0.0
 41
0.666666667
 51
0.0
  7
KANJI15
  0
TEXT
  8
0
  6
CONTINUOUS
 62
     4
 10
1344.250051
 20
258.1666515
 30
0.8666666
 40
8.666666
  1
ＣＯＤＥ
 50
0.0
 41
0.6
 51
0.0
  7
KANJI4
  0
LINE
  8
0
  6
CONTINUOUS
 62
     4
 10
1335.583385
 20
273.333317
 30
0.0
 11
2002.916667
 21
273.333317
 31
0.0
  0
LINE
  8
0
  6
CONTINUOUS
 62
     4
 10
2002.916667
 20
307.999981
 30
0.0
 11
2002.916667
 21
342.666645
 31
0.0
  0
LINE
  8
0
  6
CONTINUOUS
 62
     6
 10
1336.208385
 20
307.999981
 30
0.0
 11
2003.541667
 21
307.999981
 31
0.0
  0
LINE
  8
0
  6
CONTINUOUS
 62
     6
 10
1335.583385
 20
342.666645
 30
0.0
 11
2002.916667
 21
342.666645
 31
0.0
  0
TEXT
  8
0
  6
CONTINUOUS
 62
     4
 10
1351.0
 20
313.166664
 30
5.0
 40
18.0
  1
ご用途
 50
0.0
 41
1.111111111
 51
0.0
  7
KANJI16
  0
TEXT
  8
0
  6
CONTINUOUS
 62
     4
 10
1351.0
 20
278.5
 30
5.0
 40
18.0
  1
ご注文主
 50
0.0
 41
1.111111111
 51
0.0
  7
KANJI16
  0
LINE
  8
0
  6
CONTINUOUS
 62
     6
 10
72.25
 20
1406.0
 30
0.0
 11
2007.25
 21
1406.0
 31
0.0
  0
LINE
  8
0
  6
CONTINUOUS
 62
     1
 10
853.25
 20
1243.95
 30
0.0
 11
1501.25
 21
1243.95
 31
0.0
  0
LINE
  8
0
  6
CONTINUOUS
 62
     1
 10
853.25
 20
1215.95
 30
0.0
 11
1501.25
 21
1215.95
 31
0.0
  0
LINE
  8
0
  6
CONTINUOUS
 62
     2
 10
853.25
 20
1187.95
 30
0.0
 11
1501.25
 21
1187.95
 31
0.0
  0
LINE
  8
0
  6
CONTINUOUS
 62
     2
 10
853.25
 20
1159.95
 30
0.0
 11
1501.25
 21
1159.95
 31
0.0
  0
LINE
  8
0
  6
CONTINUOUS
 62
     2
 10
853.25
 20
1131.95
 30
0.0
 11
1501.25
 21
1131.95
 31
0.0
  0
TEXT
  8
0
  6
CONTINUOUS
 62
     2
 10
893.25
 20
1223.95
 30
1.28
 40
12.8
  1
形
 50
0.0
 41
0.9
 51
0.0
  7
KANJI17
  0
TEXT
  8
0
  6
CONTINUOUS
 62
     2
 10
971.25
 20
1223.95
 30
1.28
 40
12.8
  1
式
 50
0.0
 41
0.9
 51
0.0
  7
KANJI17
  0
TEXT
  8
0
  6
CONTINUOUS
 62
     2
 10
1031.65
 20
1223.15
 30
1.2
 40
12.0
  1
ストローク
 50
0.0
 41
0.9
 51
0.0
  7
KANJI18
  0
TEXT
  8
0
  6
CONTINUOUS
 62
     2
 10
1108.45
 20
1222.35
 30
0.0
 40
12.0
  1
ｍｉｎ　
 50
0.0
 41
0.9
 51
0.0
  7
KANJI19
  0
TEXT
  8
0
  6
CONTINUOUS
 62
     2
 10
1188.45
 20
1222.35
 30
0.0
 40
12.0
  1
ｍｉｎ　
 50
0.0
 41
0.9
 51
0.0
  7
KANJI19
  0
TEXT
  8
0
  6
CONTINUOUS
 62
     2
 10
1348.45
 20
1222.35
 30
0.0
 40
12.0
  1
ｍｉｎ　
 50
0.0
 41
0.9
 51
0.0
  7
KANJI19
  0
TEXT
  8
0
  6
CONTINUOUS
 62
     2
 10
1149.25
 20
1223.15
 30
1.4
 40
14.0
  1
ＡＬ
 50
0.0
 41
0.9
 51
0.0
  7
KANJI20
  0
TEXT
  8
0
  6
CONTINUOUS
 62
     2
 10
1229.25
 20
1223.15
 30
1.4
 40
14.0
  1
Ｌ
 50
0.0
 41
0.9
 51
0.0
  7
KANJI20
  0
TEXT
  8
0
  6
CONTINUOUS
 62
     2
 10
1297.25
 20
1223.15
 30
1.4
 40
14.0
  1
Ｃ
 50
0.0
 41
0.9
 51
0.0
  7
KANJI20
  0
TEXT
  8
0
  6
CONTINUOUS
 62
     2
 10
1389.25
 20
1223.15
 30
1.4
 40
14.0
  1
Ｐ
 50
0.0
 41
0.9
 51
0.0
  7
KANJI20
  0
TEXT
  8
0
  6
CONTINUOUS
 62
     2
 10
1471.55
 20
1222.85
 30
0.0
 40
10.8
  1
（ｋｇ）
 50
0.0
 41
0.740740741
 51
0.0
  7
KANJI21
  0
TEXT
  8
0
  6
CONTINUOUS
 62
     2
 10
1423.55
 20
1222.65
 30
1.2
 40
14.0
  1
概算重量
 50
0.0
 41
0.857142857
 51
0.0
  7
KANJI22
  0
TEXT
  8
0
  6
CONTINUOUS
 62
     2
 10
1039.25
 20
1194.65
 30
1.2
 40
12.0
  1
　１００
 50
0.0
 41
0.9
 51
0.0
  7
KANJI18
  0
TEXT
  8
0
  6
CONTINUOUS
 62
     2
 10
1039.25
 20
1166.65
 30
1.2
 40
12.0
  1
　２００
 50
0.0
 41
0.9
 51
0.0
  7
KANJI18
  0
TEXT
  8
0
  6
CONTINUOUS
 62
     2
 10
1039.25
 20
1138.65
 30
1.2
 40
12.0
  1
　３００
 50
0.0
 41
0.9
 51
0.0
  7
KANJI18
  0
TEXT
  8
0
  6
CONTINUOUS
 62
     2
 10
1359.25
 20
1138.65
 30
1.2
 40
12.0
  1
　　３５
 50
0.0
 41
0.9
 51
0.0
  7
KANJI18
  0
TEXT
  8
0
  6
CONTINUOUS
 62
     2
 10
1359.25
 20
1166.65
 30
1.2
 40
12.0
  1
　　３５
 50
0.0
 41
0.9
 51
0.0
  7
KANJI18
  0
TEXT
  8
0
  6
CONTINUOUS
 62
     2
 10
1359.25
 20
1194.65
 30
1.2
 40
12.0
  1
　　３５
 50
0.0
 41
0.9
 51
0.0
  7
KANJI18
  0
TEXT
  8
0
  6
CONTINUOUS
 62
     2
 10
1039.25
 20
1026.65
 30
1.2
 40
12.0
  1
　７００
 50
0.0
 41
0.9
 51
0.0
  7
KANJI18
  0
LINE
  8
0
  6
CONTINUOUS
 62
     2
 10
853.25
 20
1075.95
 30
0.0
 11
1501.25
 21
1075.95
 31
0.0
  0
LINE
  8
0
  6
CONTINUOUS
 62
     2
 10
853.25
 20
1103.95
 30
0.0
 11
1501.25
 21
1103.95
 31
0.0
  0
LINE
  8
0
  6
CONTINUOUS
 62
     2
 10
853.25
 20
1019.95
 30
0.0
 11
1501.25
 21
1019.95
 31
0.0
  0
LINE
  8
0
  6
CONTINUOUS
 62
     2
 10
853.25
 20
1047.95
 30
0.0
 11
1501.25
 21
1047.95
 31
0.0
  0
TEXT
  8
0
  6
CONTINUOUS
 62
     2
 10
1039.25
 20
1082.65
 30
1.2
 40
12.0
  1
　５００
 50
0.0
 41
0.9
 51
0.0
  7
KANJI18
  0
TEXT
  8
0
  6
CONTINUOUS
 62
     2
 10
1039.25
 20
1110.65
 30
1.2
 40
12.0
  1
　４００
 50
0.0
 41
0.9
 51
0.0
  7
KANJI18
  0
TEXT
  8
0
  6
CONTINUOUS
 62
     2
 10
1039.25
 20
1054.65
 30
1.2
 40
12.0
  1
　６００
 50
0.0
 41
0.9
 51
0.0
  7
KANJI18
  0
TEXT
  8
0
  6
CONTINUOUS
 62
     2
 10
1359.25
 20
1110.65
 30
1.2
 40
12.0
  1
　　３５
 50
0.0
 41
0.9
 51
0.0
  7
KANJI18
  0
TEXT
  8
0
  6
CONTINUOUS
 62
     2
 10
1359.25
 20
1082.65
 30
1.2
 40
12.0
  1
　　３５
 50
0.0
 41
0.9
 51
0.0
  7
KANJI18
  0
TEXT
  8
0
  6
CONTINUOUS
 62
     2
 10
1359.25
 20
1054.65
 30
1.2
 40
12.0
  1
　　３５
 50
0.0
 41
0.9
 51
0.0
  7
KANJI18
  0
TEXT
  8
0
  6
CONTINUOUS
 62
     2
 10
1359.25
 20
1026.65
 30
1.2
 40
12.0
  1
　　３５
 50
0.0
 41
0.9
 51
0.0
  7
KANJI18
  0
TEXT
  8
0
  6
CONTINUOUS
 62
     2
 10
1279.25
 20
1194.65
 30
1.2
 40
12.0
  1
　１９８
 50
0.0
 41
0.9
 51
0.0
  7
KANJI18
  0
TEXT
  8
0
  6
CONTINUOUS
 62
     2
 10
1279.25
 20
1166.65
 30
1.2
 40
12.0
  1
　２９８
 50
0.0
 41
0.9
 51
0.0
  7
KANJI18
  0
TEXT
  8
0
  6
CONTINUOUS
 62
     2
 10
1279.25
 20
1138.65
 30
1.2
 40
12.0
  1
　３９８
 50
0.0
 41
0.9
 51
0.0
  7
KANJI18
  0
TEXT
  8
0
  6
CONTINUOUS
 62
     2
 10
1279.25
 20
1110.65
 30
1.2
 40
12.0
  1
　４９８
 50
0.0
 41
0.9
 51
0.0
  7
KANJI18
  0
TEXT
  8
0
  6
CONTINUOUS
 62
     2
 10
1279.25
 20
1082.65
 30
1.2
 40
12.0
  1
　５９８
 50
0.0
 41
0.9
 51
0.0
  7
KANJI18
  0
TEXT
  8
0
  6
CONTINUOUS
 62
     2
 10
1279.25
 20
1054.65
 30
1.2
 40
12.0
  1
　７３８
 50
0.0
 41
0.9
 51
0.0
  7
KANJI18
  0
TEXT
  8
0
  6
CONTINUOUS
 62
     2
 10
1279.25
 20
1026.65
 30
1.2
 40
12.0
  1
　８３８
 50
0.0
 41
0.9
 51
0.0
  7
KANJI18
  0
TEXT
  8
0
  6
CONTINUOUS
 62
     2
 10
1199.25
 20
1194.65
 30
1.2
 40
12.0
  1
　２６８
 50
0.0
 41
0.9
 51
0.0
  7
KANJI18
  0
TEXT
  8
0
  6
CONTINUOUS
 62
     2
 10
1199.25
 20
1166.65
 30
1.2
 40
12.0
  1
　３６８
 50
0.0
 41
0.9
 51
0.0
  7
KANJI18
  0
TEXT
  8
0
  6
CONTINUOUS
 62
     2
 10
1199.25
 20
1138.65
 30
1.2
 40
12.0
  1
　４６８
 50
0.0
 41
0.9
 51
0.0
  7
KANJI18
  0
TEXT
  8
0
  6
CONTINUOUS
 62
     2
 10
1199.25
 20
1110.65
 30
1.2
 40
12.0
  1
　５６８
 50
0.0
 41
0.9
 51
0.0
  7
KANJI18
  0
TEXT
  8
0
  6
CONTINUOUS
 62
     2
 10
1199.25
 20
1082.65
 30
1.2
 40
12.0
  1
　６６８
 50
0.0
 41
0.9
 51
0.0
  7
KANJI18
  0
TEXT
  8
0
  6
CONTINUOUS
 62
     2
 10
1199.25
 20
1054.65
 30
1.2
 40
12.0
  1
　８０８
 50
0.0
 41
0.9
 51
0.0
  7
KANJI18
  0
TEXT
  8
0
  6
CONTINUOUS
 62
     2
 10
1199.25
 20
1026.65
 30
1.2
 40
12.0
  1
　９０８
 50
0.0
 41
0.9
 51
0.0
  7
KANJI18
  0
TEXT
  8
0
  6
CONTINUOUS
 62
     2
 10
129.75
 20
28.5
 30
1.5
 40
15.0
  1
ＦＤ　Ｎｏ．ＭＣ１８６
 50
0.0
 41
1.0
 51
0.0
  7
KANJI23
  0
TEXT
  8
0
  6
CONTINUOUS
 62
     2
 10
1119.25
 20
1194.65
 30
1.2
 40
12.0
  1
　５７１
 50
0.0
 41
0.9
 51
0.0
  7
KANJI18
  0
TEXT
  8
0
  6
CONTINUOUS
 62
     2
 10
1119.25
 20
1166.65
 30
1.2
 40
12.0
  1
　６７１
 50
0.0
 41
0.9
 51
0.0
  7
KANJI18
  0
TEXT
  8
0
  6
CONTINUOUS
 62
     2
 10
1119.25
 20
1138.65
 30
1.2
 40
12.0
  1
　７７１
 50
0.0
 41
0.9
 51
0.0
  7
KANJI18
  0
TEXT
  8
0
  6
CONTINUOUS
 62
     2
 10
1119.25
 20
1110.65
 30
1.2
 40
12.0
  1
　８７１
 50
0.0
 41
0.9
 51
0.0
  7
KANJI18
  0
TEXT
  8
0
  6
CONTINUOUS
 62
     2
 10
1119.25
 20
1082.65
 30
1.2
 40
12.0
  1
　９７１
 50
0.0
 41
0.9
 51
0.0
  7
KANJI18
  0
TEXT
  8
0
  6
CONTINUOUS
 62
     2
 10
1119.25
 20
1054.65
 30
1.2
 40
12.0
  1
１１１１
 50
0.0
 41
0.9
 51
0.0
  7
KANJI18
  0
TEXT
  8
0
  6
CONTINUOUS
 62
     2
 10
1119.25
 20
1026.65
 30
1.2
 40
12.0
  1
１２１１
 50
0.0
 41
0.9
 51
0.0
  7
KANJI18
  0
CIRCLE
  8
0
  6
CONTINUOUS
 62
     1
 10
617.0
 20
607.5
 30
0.0
 40
20.0
  0
CIRCLE
  8
0
  6
CONTINUOUS
 62
     1
 10
617.0
 20
607.5
 30
0.0
 40
8.0
  0
LINE
  8
0
  6
CONTINUOUS
 62
     1
 10
658.0
 20
606.3
 30
0.0
 11
666.0
 21
606.3
 31
0.0
  0
LINE
  8
0
  6
CONTINUOUS
 62
     1
 10
658.0
 20
609.3
 30
0.0
 11
666.0
 21
609.3
 31
0.0
  0
LINE
  8
0
  6
CONTINUOUS
 62
     1
 10
658.0
 20
644.8
 30
0.0
 11
666.0
 21
644.8
 31
0.0
  0
LINE
  8
0
  6
CONTINUOUS
 62
     1
 10
666.0
 20
567.8
 30
0.0
 11
666.0
 21
647.8
 31
0.0
  0
LINE
  8
0
  6
CONTINUOUS
 62
     1
 10
658.0
 20
570.8
 30
0.0
 11
666.0
 21
570.8
 31
0.0
  0
LINE
  8
0
  6
CONTINUOUS
 62
     1
 10
658.0
 20
567.8
 30
0.0
 11
658.0
 21
647.8
 31
0.0
  0
LINE
  8
0
  6
LTYPE2
 62
     2
 10
617.0
 20
551.895571327
 30
0.0
 11
617.0
 21
655.795571327
 31
0.0
  0
LINE
  8
0
  6
CONTINUOUS
 62
     1
 10
1054.1
 20
590.3
 30
0.0
 11
1054.1
 21
607.3
 31
0.0
  0
LINE
  8
0
  6
CONTINUOUS
 62
     1
 10
1051.1
 20
587.3
 30
0.0
 11
1054.1
 21
590.3
 31
0.0
  0
LINE
  8
0
  6
CONTINUOUS
 62
     1
 10
1054.1
 20
624.3
 30
0.0
 11
1054.1
 21
607.3
 31
0.0
  0
LINE
  8
0
  6
CONTINUOUS
 62
     1
 10
1051.1
 20
627.3
 30
0.0
 11
1054.1
 21
624.3
 31
0.0
  0
CIRCLE
  8
0
  6
CONTINUOUS
 62
     1
 10
1036.1
 20
607.3
 30
0.0
 40
8.0
  0
LINE
  8
0
  6
LTYPE1
 62
     1
 10
1011.1
 20
587.3
 30
0.0
 11
1011.1
 21
607.3
 31
0.0
  0
LINE
  8
0
  6
LTYPE1
 62
     1
 10
1011.1
 20
627.3
 30
0.0
 11
1011.1
 21
607.3
 31
0.0
  0
POINT
  8
0
  6
CONTINUOUS
 62
     1
 10
867.739501379
 20
607.3
 30
0.0
  0
LINE
  8
0
  6
CONTINUOUS
 62
     1
 10
749.5
 20
620.0
 30
0.0
 11
774.5
 21
620.0
 31
0.0
  0
LINE
  8
0
  6
CONTINUOUS
 62
     1
 10
774.5
 20
595.0
 30
0.0
 11
774.5
 21
620.0
 31
0.0
  0
LINE
  8
0
  6
CONTINUOUS
 62
     1
 10
749.5
 20
595.0
 30
0.0
 11
749.5
 21
620.0
 31
0.0
  0
CIRCLE
  8
0
  6
CONTINUOUS
 62
     1
 10
762.0
 20
607.5
 30
0.0
 40
12.5
  0
LINE
  8
0
  6
LTYPE3
 62
     2
 10
762.0
 20
626.2
 30
0.0
 11
762.0
 21
586.5
 31
0.0
  0
LINE
  8
0
  6
CONTINUOUS
 62
     1
 10
749.5
 20
595.0
 30
0.0
 11
774.5
 21
595.0
 31
0.0
  0
LINE
  8
0
  6
LTYPE4
 62
     2
 10
788.349814745
 20
570.5
 30
0.0
 11
788.349814745
 21
641.95
 31
0.0
  0
LINE
  8
0
  6
LTYPE4
 62
     2
 10
791.349814745
 20
570.5
 30
0.0
 11
791.349814745
 21
641.95
 31
0.0
  0
LINE
  8
2
  6
CONTINUOUS
 62
     2
 10
762.0
 20
607.5
 30
0.0
 11
755.841754421
 21
599.621166877
 31
0.0
  0
LINE
  8
2
  6
CONTINUOUS
 62
     2
 10
762.0
 20
607.5
 30
0.0
 11
760.606219447
 21
597.597607573
 31
0.0
  0
LINE
  8
2
  6
CONTINUOUS
 62
     2
 10
762.0
 20
607.5
 30
0.0
 11
724.2
 21
518.5
 31
0.0
  0
LINE
  8
2
  6
CONTINUOUS
 62
     2
 10
617.0
 20
608.3
 30
0.0
 11
624.830111779
 21
614.520076328
 31
0.0
  0
LINE
  8
2
  6
CONTINUOUS
 62
     2
 10
617.0
 20
608.3
 30
0.0
 11
620.671037551
 21
617.601800003
 31
0.0
  0
LINE
  8
2
  6
CONTINUOUS
 62
     2
 10
617.0
 20
608.3
 30
0.0
 11
678.5
 21
691.3
 31
0.0
  0
LINE
  8
0
  6
CONTINUOUS
 62
     2
 10
724.6
 20
575.75
 30
0.0
 11
724.6
 21
639.25
 31
0.0
  0
LINE
  8
0
  6
CONTINUOUS
 62
     2
 10
724.6
 20
639.25
 30
0.0
 11
722.011809549
 21
629.590741737
 31
0.0
  0
LINE
  8
0
  6
CONTINUOUS
 62
     2
 10
724.6
 20
639.25
 30
0.0
 11
727.188190451
 21
629.590741737
 31
0.0
  0
LINE
  8
0
  6
CONTINUOUS
 62
     2
 10
724.6
 20
575.75
 30
0.0
 11
727.188190451
 21
585.409258263
 31
0.0
  0
LINE
  8
0
  6
CONTINUOUS
 62
     2
 10
724.6
 20
575.75
 30
0.0
 11
722.011809549
 21
585.409258263
 31
0.0
  0
LINE
  8
0
  6
LTYPE2
 62
     2
 10
1036.1
 20
569.3
 30
0.0
 11
1036.1
 21
645.3
 31
0.0
  0
LINE
  8
0
  6
LTYPE3
 62
     2
 10
1036.1
 20
283.8
 30
0.0
 11
1036.1
 21
569.3
 31
0.0
  0
LINE
  8
2
  6
CONTINUOUS
 62
     2
 10
1036.1
 20
815.7
 30
0.0
 11
1026.440741737
 21
818.288190451
 31
0.0
  0
LINE
  8
2
  6
CONTINUOUS
 62
     2
 10
1036.1
 20
815.7
 30
0.0
 11
1026.440741737
 21
813.111809549
 31
0.0
  0
LINE
  8
2
  6
CONTINUOUS
 62
     2
 10
617.0
 20
648.5
 30
0.0
 11
617.0
 21
793.2
 31
0.0
  0
LINE
  8
2
  6
CONTINUOUS
 62
     2
 10
617.0
 20
785.2
 30
0.0
 11
626.659258263
 21
782.611809549
 31
0.0
  0
LINE
  8
2
  6
CONTINUOUS
 62
     2
 10
617.0
 20
785.2
 30
0.0
 11
626.659258263
 21
787.788190451
 31
0.0
  0
LINE
  8
2
  6
CONTINUOUS
 62
     2
 10
617.0
 20
785.2
 30
0.0
 11
1036.1
 21
785.2
 31
0.0
  0
LINE
  8
2
  6
CONTINUOUS
 62
     2
 10
1036.1
 20
785.2
 30
0.0
 11
1026.440741737
 21
787.788190451
 31
0.0
  0
LINE
  8
2
  6
CONTINUOUS
 62
     2
 10
1036.1
 20
785.2
 30
0.0
 11
1026.440741737
 21
782.611809549
 31
0.0
  0
LINE
  8
2
  6
CONTINUOUS
 62
     2
 10
1036.1
 20
811.7
 30
0.0
 11
1036.1
 21
777.2
 31
0.0
  0
LINE
  8
2
  6
CONTINUOUS
 62
     2
 10
617.0
 20
781.2
 30
0.0
 11
617.0
 21
745.0
 31
0.0
  0
LINE
  8
2
  6
CONTINUOUS
 62
     2
 10
617.0
 20
753.0
 30
0.0
 11
626.659258263
 21
750.411809549
 31
0.0
  0
LINE
  8
2
  6
CONTINUOUS
 62
     2
 10
617.0
 20
753.0
 30
0.0
 11
626.659258263
 21
755.588190451
 31
0.0
  0
LINE
  8
2
  6
CONTINUOUS
 62
     2
 10
1001.1
 20
753.0
 30
0.0
 11
991.440741737
 21
755.588190451
 31
0.0
  0
LINE
  8
2
  6
CONTINUOUS
 62
     2
 10
1001.1
 20
753.0
 30
0.0
 11
991.440741737
 21
750.411809549
 31
0.0
  0
LINE
  8
2
  6
CONTINUOUS
 62
     2
 10
1001.1
 20
753.0
 30
0.0
 11
1010.759258263
 21
750.411809549
 31
0.0
  0
LINE
  8
2
  6
CONTINUOUS
 62
     2
 10
1001.1
 20
753.0
 30
0.0
 11
1010.759258263
 21
755.588190451
 31
0.0
  0
LINE
  8
2
  6
CONTINUOUS
 62
     2
 10
1001.1
 20
753.0
 30
0.0
 11
1036.1
 21
753.0
 31
0.0
  0
LINE
  8
2
  6
CONTINUOUS
 62
     2
 10
1036.1
 20
753.0
 30
0.0
 11
1026.440741737
 21
755.588190451
 31
0.0
  0
LINE
  8
2
  6
CONTINUOUS
 62
     2
 10
1036.1
 20
753.0
 30
0.0
 11
1026.440741737
 21
750.411809549
 31
0.0
  0
LINE
  8
2
  6
CONTINUOUS
 62
     2
 10
1036.1
 20
781.2
 30
0.0
 11
1036.1
 21
745.0
 31
0.0
  0
LINE
  8
2
  6
CONTINUOUS
 62
     2
 10
1054.1
 20
815.7
 30
0.0
 11
1063.759258263
 21
818.288190451
 31
0.0
  0
LINE
  8
2
  6
CONTINUOUS
 62
     2
 10
1054.1
 20
815.7
 30
0.0
 11
1063.759258263
 21
813.111809549
 31
0.0
  0
LINE
  8
0
  6
CONTINUOUS
 62
     1
 10
1252.9
 20
587.5
 30
0.0
 11
1272.9
 21
587.5
 31
0.0
  0
LINE
  8
0
  6
CONTINUOUS
 62
     1
 10
1264.9
 20
599.5
 30
0.0
 11
1272.9
 21
599.5
 31
0.0
  0
LINE
  8
0
  6
CONTINUOUS
 62
     1
 10
1292.9
 20
587.5
 30
0.0
 11
1272.9
 21
587.5
 31
0.0
  0
LINE
  8
0
  6
CONTINUOUS
 62
     1
 10
1280.9
 20
599.5
 30
0.0
 11
1272.9
 21
599.5
 31
0.0
  0
LINE
  8
0
  6
LTYPE3
 62
     2
 10
1210.5
 20
607.5
 30
0.0
 11
1333.7
 21
607.5
 31
0.0
  0
LINE
  8
0
  6
CONTINUOUS
 62
     1
 10
1252.9
 20
607.5
 30
0.0
 11
1252.9
 21
587.5
 31
0.0
  0
LINE
  8
0
  6
CONTINUOUS
 62
     1
 10
1264.9
 20
607.5
 30
0.0
 11
1264.9
 21
587.5
 31
0.0
  0
LINE
  8
0
  6
CONTINUOUS
 62
     1
 10
1280.9
 20
607.0
 30
0.0
 11
1280.9
 21
587.5
 31
0.0
  0
LINE
  8
0
  6
CONTINUOUS
 62
     1
 10
1292.9
 20
607.5
 30
0.0
 11
1292.9
 21
587.5
 31
0.0
  0
LINE
  8
0
  6
CONTINUOUS
 62
     1
 10
1252.9
 20
627.5
 30
0.0
 11
1272.9
 21
627.5
 31
0.0
  0
LINE
  8
0
  6
CONTINUOUS
 62
     1
 10
1264.9
 20
615.5
 30
0.0
 11
1272.9
 21
615.5
 31
0.0
  0
LINE
  8
0
  6
CONTINUOUS
 62
     1
 10
1292.9
 20
627.5
 30
0.0
 11
1272.9
 21
627.5
 31
0.0
  0
LINE
  8
0
  6
CONTINUOUS
 62
     1
 10
1280.9
 20
615.5
 30
0.0
 11
1272.9
 21
615.5
 31
0.0
  0
LINE
  8
0
  6
CONTINUOUS
 62
     1
 10
1292.9
 20
607.5
 30
0.0
 11
1292.9
 21
627.5
 31
0.0
  0
LINE
  8
0
  6
CONTINUOUS
 62
     1
 10
1280.9
 20
607.5
 30
0.0
 11
1280.9
 21
627.5
 31
0.0
  0
LINE
  8
0
  6
CONTINUOUS
 62
     1
 10
1264.9
 20
607.5
 30
0.0
 11
1264.9
 21
627.5
 31
0.0
  0
LINE
  8
0
  6
CONTINUOUS
 62
     1
 10
1252.9
 20
607.5
 30
0.0
 11
1252.9
 21
627.5
 31
0.0
  0
LINE
  8
0
  6
LTYPE1
 62
     2
 10
1212.9
 20
615.5
 30
0.0
 11
1234.9
 21
615.5
 31
0.0
  0
LINE
  8
0
  6
LTYPE1
 62
     2
 10
1212.9
 20
599.5
 30
0.0
 11
1234.9
 21
599.5
 31
0.0
  0
LINE
  8
0
  6
LTYPE1
 62
     2
 10
1310.9
 20
607.5
 30
0.0
 11
1310.9
 21
599.5
 31
0.0
  0
LINE
  8
0
  6
LTYPE1
 62
     2
 10
1332.9
 20
615.5
 30
0.0
 11
1310.9
 21
615.5
 31
0.0
  0
LINE
  8
0
  6
LTYPE1
 62
     2
 10
1332.9
 20
599.5
 30
0.0
 11
1310.9
 21
599.5
 31
0.0
  0
LINE
  8
0
  6
LTYPE1
 62
     2
 10
1234.9
 20
607.5
 30
0.0
 11
1234.9
 21
615.5
 31
0.0
  0
LINE
  8
0
  6
LTYPE1
 62
     2
 10
1310.9
 20
607.5
 30
0.0
 11
1310.9
 21
615.5
 31
0.0
  0
LINE
  8
0
  6
CONTINUOUS
 62
     1
 10
666.0
 20
639.25
 30
0.0
 11
788.349814745
 21
639.25
 31
0.0
  0
LINE
  8
0
  6
CONTINUOUS
 62
     1
 10
666.0
 20
575.75
 30
0.0
 11
788.349814745
 21
575.75
 31
0.0
  0
LINE
  8
0
  6
CONTINUOUS
 62
     1
 10
658.0
 20
647.8
 30
0.0
 11
666.0
 21
647.8
 31
0.0
  0
LINE
  8
0
  6
CONTINUOUS
 62
     1
 10
658.0
 20
567.8
 30
0.0
 11
666.0
 21
567.8
 31
0.0
  0
LINE
  8
0
  6
CONTINUOUS
 62
     1
 10
1275.9
 20
644.690341615
 30
0.0
 11
1269.9
 21
644.690341615
 31
0.0
  0
LINE
  8
0
  6
CONTINUOUS
 62
     1
 10
1275.9
 20
570.309658385
 30
0.0
 11
1269.9
 21
570.309658385
 31
0.0
  0
LINE
  8
0
  6
CONTINUOUS
 62
     1
 10
1269.9
 20
647.38734135
 30
0.0
 11
1269.9
 21
644.690341615
 31
0.0
  0
LINE
  8
0
  6
CONTINUOUS
 62
     1
 10
1269.9
 20
567.61265865
 30
0.0
 11
1269.9
 21
570.309658385
 31
0.0
  0
LINE
  8
0
  6
CONTINUOUS
 62
     1
 10
1312.78734135
 20
604.5
 30
0.0
 11
1310.090341615
 21
604.5
 31
0.0
  0
LINE
  8
0
  6
CONTINUOUS
 62
     1
 10
1310.090341615
 20
610.5
 30
0.0
 11
1310.090341615
 21
604.5
 31
0.0
  0
LINE
  8
0
  6
CONTINUOUS
 62
     1
 10
1312.78734135
 20
610.5
 30
0.0
 11
1310.090341615
 21
610.5
 31
0.0
  0
LINE
  8
0
  6
LTYPE1
 62
     2
 10
1234.9
 20
607.5
 30
0.0
 11
1234.9
 21
599.5
 31
0.0
  0
LINE
  8
0
  6
CONTINUOUS
 62
     2
 10
1272.9
 20
494.5
 30
0.0
 11
1272.9
 21
475.0
 31
0.0
  0
LINE
  8
0
  6
LTYPE3
 62
     2
 10
1272.9
 20
710.2
 30
0.0
 11
1272.9
 21
494.5
 31
0.0
  0
LINE
  8
0
  6
CONTINUOUS
 62
     2
 10
1272.9
 20
494.0
 30
0.0
 11
1272.9
 21
474.5
 31
0.0
  0
LINE
  8
2
  6
CONTINUOUS
 62
     2
 10
617.0
 20
774.2
 30
0.0
 11
617.0
 21
793.2
 31
0.0
  0
LINE
  8
2
  6
CONTINUOUS
 62
     2
 10
617.0
 20
785.2
 30
0.0
 11
607.340741737
 21
787.788190451
 31
0.0
  0
LINE
  8
2
  6
CONTINUOUS
 62
     2
 10
617.0
 20
785.2
 30
0.0
 11
607.340741737
 21
782.611809549
 31
0.0
  0
LINE
  8
2
  6
CONTINUOUS
 62
     2
 10
1036.1
 20
815.7
 30
0.0
 11
1026.440741737
 21
818.288190451
 31
0.0
  0
LINE
  8
2
  6
CONTINUOUS
 62
     2
 10
1036.1
 20
815.7
 30
0.0
 11
1026.440741737
 21
813.111809549
 31
0.0
  0
LINE
  8
0
  6
CONTINUOUS
 62
     1
 10
527.0
 20
614.5
 30
0.0
 11
527.0
 21
494.5
 31
0.0
  0
LINE
  8
0
  6
CONTINUOUS
 62
     1
 10
513.0
 20
554.5
 30
0.0
 11
513.0
 21
611.5
 31
0.0
  0
ARC
  8
0
  6
CONTINUOUS
 62
     1
 10
517.5
 20
613.0
 30
0.0
 40
1.5
 50
270.0
 51
0.0
  0
LINE
  8
0
  6
CONTINUOUS
 62
     1
 10
519.0
 20
613.0
 30
0.0
 11
519.0
 21
614.0
 31
0.0
  0
ARC
  8
0
  6
CONTINUOUS
 62
     1
 10
520.5
 20
614.0
 30
0.0
 40
1.5
 50
90.0
 51
180.0
  0
LINE
  8
0
  6
CONTINUOUS
 62
     1
 10
364.0
 20
554.5
 30
0.0
 11
364.0
 21
611.5
 31
0.0
  0
ARC
  8
0
  6
CONTINUOUS
 62
     1
 10
360.5
 20
610.0
 30
0.0
 40
1.5
 50
90.0
 51
180.0
  0
LINE
  8
0
  6
CONTINUOUS
 62
     1
 10
519.0
 20
554.5
 30
0.0
 11
519.0
 21
613.6
 31
0.0
  0
LINE
  8
0
  6
CONTINUOUS
 62
     1
 10
359.0
 20
597.570524155
 30
0.0
 11
359.0
 21
610.0
 31
0.0
  0
ARC
  8
0
  6
CONTINUOUS
 62
     1
 10
357.5
 20
597.570524155
 30
0.0
 40
1.5
 50
288.970407808
 51
0.0
  0
LINE
  8
0
  6
CONTINUOUS
 62
     1
 10
343.0
 20
554.5
 30
0.0
 11
343.0
 21
589.929475845
 31
0.0
  0
LINE
  8
0
  6
CONTINUOUS
 62
     1
 10
344.012380347
 20
591.348005744
 30
0.0
 11
357.987619653
 21
596.151994256
 31
0.0
  0
ARC
  8
0
  6
CONTINUOUS
 62
     1
 10
344.5
 20
589.929475845
 30
0.0
 40
1.5
 50
108.970407808
 51
180.0
  0
LINE
  8
0
  6
CONTINUOUS
 62
     1
 10
359.0
 20
554.5
 30
0.0
 11
359.0
 21
597.570524155
 31
0.0
  0
ARC
  8
0
  6
CONTINUOUS
 62
     1
 10
331.0
 20
571.0
 30
0.0
 40
1.0
 50
90.0
 51
180.0
  0
LINE
  8
0
  6
CONTINUOUS
 62
     1
 10
331.0
 20
572.0
 30
0.0
 11
343.0
 21
572.0
 31
0.0
  0
LINE
  8
0
  6
CONTINUOUS
 62
     1
 10
330.0
 20
554.5
 30
0.0
 11
330.0
 21
571.0
 31
0.0
  0
LINE
  8
0
  6
CONTINUOUS
 62
     1
 10
513.0
 20
554.5
 30
0.0
 11
513.0
 21
497.5
 31
0.0
  0
ARC
  8
0
  6
CONTINUOUS
 62
     1
 10
517.5
 20
496.0
 30
0.0
 40
1.5
 50
0.0
 51
90.0
  0
LINE
  8
0
  6
CONTINUOUS
 62
     1
 10
519.0
 20
496.0
 30
0.0
 11
519.0
 21
495.0
 31
0.0
  0
ARC
  8
0
  6
CONTINUOUS
 62
     1
 10
520.5
 20
495.0
 30
0.0
 40
1.5
 50
180.0
 51
270.0
  0
LINE
  8
0
  6
CONTINUOUS
 62
     1
 10
364.0
 20
554.5
 30
0.0
 11
364.0
 21
497.5
 31
0.0
  0
LINE
  8
0
  6
CONTINUOUS
 62
     1
 10
360.5
 20
497.5
 30
0.0
 11
517.5
 21
497.5
 31
0.0
  0
ARC
  8
0
  6
CONTINUOUS
 62
     1
 10
360.5
 20
499.0
 30
0.0
 40
1.5
 50
180.0
 51
270.0
  0
LINE
  8
0
  6
CONTINUOUS
 62
     1
 10
519.0
 20
554.5
 30
0.0
 11
519.0
 21
495.4
 31
0.0
  0
LINE
  8
0
  6
CONTINUOUS
 62
     1
 10
343.0
 20
554.5
 30
0.0
 11
343.0
 21
519.070524155
 31
0.0
  0
ARC
  8
0
  6
CONTINUOUS
 62
     1
 10
344.5
 20
519.070524155
 30
0.0
 40
1.5
 50
180.0
 51
251.029592192
  0
ARC
  8
0
  6
CONTINUOUS
 62
     1
 10
331.0
 20
538.0
 30
0.0
 40
1.0
 50
180.0
 51
270.0
  0
LINE
  8
0
  6
CONTINUOUS
 62
     1
 10
331.0
 20
537.0
 30
0.0
 11
343.0
 21
537.0
 31
0.0
  0
LINE
  8
0
  6
CONTINUOUS
 62
     1
 10
330.0
 20
554.5
 30
0.0
 11
330.0
 21
538.0
 31
0.0
  0
LINE
  8
0
  6
LTYPE2
 62
     2
 10
351.0
 20
590.562445841
 30
0.0
 11
362.0
 21
590.562445841
 31
0.0
  0
LINE
  8
0
  6
CONTINUOUS
 62
     1
 10
359.0
 20
511.429475845
 30
0.0
 11
359.0
 21
499.0
 31
0.0
  0
LINE
  8
0
  6
CONTINUOUS
 62
     1
 10
344.012380347
 20
517.651994256
 30
0.0
 11
357.987619653
 21
512.848005744
 31
0.0
  0
LINE
  8
0
  6
CONTINUOUS
 62
     1
 10
359.0
 20
554.5
 30
0.0
 11
359.0
 21
511.429475845
 31
0.0
  0
LINE
  8
0
  6
LTYPE2
 62
     2
 10
351.0
 20
518.43755416
 30
0.0
 11
362.0
 21
518.43755416
 31
0.0
  0
ARC
  8
0
  6
CONTINUOUS
 62
     1
 10
500.0
 20
614.5
 30
0.0
 40
3.0
 50
270.0
 51
0.0
  0
LINE
  8
0
  6
CONTINUOUS
 62
     1
 10
360.5
 20
611.5
 30
0.0
 11
517.5
 21
611.5
 31
0.0
  0
ARC
  8
0
  6
CONTINUOUS
 62
     1
 10
460.0
 20
614.5
 30
0.0
 40
3.0
 50
180.0
 51
270.0
  0
LINE
  8
0
  6
LTYPE2
 62
     2
 10
480.0
 20
599.5
 30
0.0
 11
480.0
 21
687.4321338
 31
0.0
  0
LINE
  8
0
  6
CONTINUOUS
 62
     1
 10
315.5
 20
570.0
 30
0.0
 11
330.0
 21
570.0
 31
0.0
  0
ARC
  8
0
  6
CONTINUOUS
 62
     1
 10
315.5
 20
568.5
 30
0.0
 40
1.5
 50
90.0
 51
180.0
  0
LINE
  8
0
  6
CONTINUOUS
 62
     1
 10
315.5
 20
539.0
 30
0.0
 11
330.0
 21
539.0
 31
0.0
  0
LINE
  8
0
  6
CONTINUOUS
 62
     1
 10
314.0
 20
540.5
 30
0.0
 11
314.0
 21
568.5
 31
0.0
  0
ARC
  8
0
  6
CONTINUOUS
 62
     1
 10
315.5
 20
540.5
 30
0.0
 40
1.5
 50
180.0
 51
270.0
  0
LINE
  8
0
  6
CONTINUOUS
 62
     1
 10
414.0
 20
632.5
 30
0.0
 11
414.0
 21
666.5
 31
0.0
  0
LINE
  8
0
  6
CONTINUOUS
 62
     1
 10
414.0
 20
632.5
 30
0.0
 11
440.0
 21
632.5
 31
0.0
  0
LINE
  8
0
  6
CONTINUOUS
 62
     1
 10
414.0
 20
666.5
 30
0.0
 11
440.0
 21
666.5
 31
0.0
  0
LINE
  8
0
  6
LTYPE2
 62
     2
 10
407.070524155
 20
649.5
 30
0.0
 11
447.070524155
 21
649.5
 31
0.0
  0
LINE
  8
0
  6
CONTINUOUS
 62
     1
 10
510.0
 20
624.5
 30
0.0
 11
510.0
 21
627.5
 31
0.0
  0
ARC
  8
0
  6
CONTINUOUS
 62
     1
 10
506.0
 20
621.5
 30
0.0
 40
3.0
 50
90.0
 51
180.0
  0
LINE
  8
0
  6
CONTINUOUS
 62
     1
 10
503.0
 20
614.5
 30
0.0
 11
503.0
 21
621.5
 31
0.0
  0
LINE
  8
0
  6
CONTINUOUS
 62
     1
 10
450.0
 20
624.5
 30
0.0
 11
450.0
 21
627.5
 31
0.0
  0
ARC
  8
0
  6
CONTINUOUS
 62
     1
 10
454.0
 20
621.5
 30
0.0
 40
3.0
 50
0.0
 51
90.0
  0
LINE
  8
0
  6
CONTINUOUS
 62
     1
 10
457.0
 20
614.5
 30
0.0
 11
457.0
 21
621.5
 31
0.0
  0
LINE
  8
0
  6
CONTINUOUS
 62
     1
 10
450.0
 20
624.5
 30
0.0
 11
510.0
 21
624.5
 31
0.0
  0
LINE
  8
0
  6
CONTINUOUS
 62
     1
 10
525.087912088
 20
629.5
 30
0.0
 11
433.0
 21
673.520045888
 31
0.0
  0
LINE
  8
0
  6
CONTINUOUS
 62
     1
 10
527.0
 20
633.5
 30
0.0
 11
525.087912088
 21
629.5
 31
0.0
  0
LINE
  8
0
  6
CONTINUOUS
 62
     1
 10
527.0
 20
633.5
 30
0.0
 11
434.912087912
 21
677.520045888
 31
0.0
  0
LINE
  8
0
  6
CONTINUOUS
 62
     1
 10
434.912087912
 20
677.520045888
 30
0.0
 11
433.0
 21
673.520045888
 31
0.0
  0
LINE
  8
0
  6
CONTINUOUS
 62
     1
 10
520.0
 20
636.846153846
 30
0.0
 11
520.0
 21
676.5
 31
0.0
  0
ARC
  8
0
  6
CONTINUOUS
 62
     1
 10
517.0
 20
676.5
 30
0.0
 40
3.0
 50
0.0
 51
90.0
  0
LINE
  8
0
  6
CONTINUOUS
 62
     1
 10
520.0
 20
630.5
 30
0.0
 11
520.0
 21
631.9321338
 31
0.0
  0
ARC
  8
0
  6
CONTINUOUS
 62
     1
 10
517.0
 20
630.5
 30
0.0
 40
3.0
 50
270.0
 51
0.0
  0
LINE
  8
0
  6
CONTINUOUS
 62
     1
 10
440.0
 20
630.5
 30
0.0
 11
440.0
 21
670.173892042
 31
0.0
  0
LINE
  8
0
  6
CONTINUOUS
 62
     1
 10
443.0
 20
627.5
 30
0.0
 11
517.0
 21
627.5
 31
0.0
  0
ARC
  8
0
  6
CONTINUOUS
 62
     1
 10
443.0
 20
630.5
 30
0.0
 40
3.0
 50
180.0
 51
270.0
  0
LINE
  8
0
  6
CONTINUOUS
 62
     1
 10
440.0
 20
675.087912088
 30
0.0
 11
440.0
 21
676.5
 31
0.0
  0
LINE
  8
0
  6
CONTINUOUS
 62
     1
 10
443.0
 20
679.5
 30
0.0
 11
517.0
 21
679.5
 31
0.0
  0
ARC
  8
0
  6
CONTINUOUS
 62
     1
 10
443.0
 20
676.5
 30
0.0
 40
3.0
 50
90.0
 51
180.0
  0
LINE
  8
0
  6
CONTINUOUS
 62
     2
 10
414.0
 20
649.5
 30
0.0
 11
414.619310852
 21
659.48080428
 31
0.0
  0
LINE
  8
0
  6
CONTINUOUS
 62
     2
 10
414.0
 20
649.5
 30
0.0
 11
409.545936791
 21
658.453285482
 31
0.0
  0
LINE
  8
0
  6
CONTINUOUS
 62
     1
 10
357.7
 20
590.562445841
 30
0.0
 11
357.7
 21
585.950565841
 31
0.0
  0
LINE
  8
0
  6
CONTINUOUS
 62
     1
 10
357.7
 20
590.562445841
 30
0.0
 11
357.7
 21
595.174325841
 31
0.0
  0
LINE
  8
0
  6
CONTINUOUS
 62
     1
 10
354.1998
 20
587.080005841
 30
0.0
 11
354.851882488
 21
585.950565841
 31
0.0
  0
LINE
  8
0
  6
CONTINUOUS
 62
     1
 10
354.1998
 20
590.562445841
 30
0.0
 11
354.1998
 21
587.080005841
 31
0.0
  0
LINE
  8
0
  6
CONTINUOUS
 62
     1
 10
354.1998
 20
594.044885841
 30
0.0
 11
354.851882488
 21
595.174325841
 31
0.0
  0
LINE
  8
0
  6
CONTINUOUS
 62
     1
 10
354.1998
 20
590.562445841
 30
0.0
 11
354.1998
 21
594.044885841
 31
0.0
  0
ARC
  8
0
  6
CONTINUOUS
 62
     1
 10
358.603054926
 20
590.562445841
 30
0.0
 40
4.403254926
 50
148.419912243
 51
211.580087757
  0
ARC
  8
0
  6
CONTINUOUS
 62
     1
 10
355.544720132
 20
587.103535841
 30
0.0
 40
1.34512595
 50
121.002313915
 51
182.989498403
  0
LINE
  8
0
  6
CONTINUOUS
 62
     1
 10
354.1998
 20
594.044885841
 30
0.0
 11
354.851882488
 21
595.174325841
 31
0.0
  0
ARC
  8
0
  6
CONTINUOUS
 62
     1
 10
355.544720132
 20
594.021355841
 30
0.0
 40
1.34512595
 50
177.010501597
 51
238.997686085
  0
LINE
  8
0
  6
CONTINUOUS
 62
     1
 10
357.7
 20
585.950565841
 30
0.0
 11
354.851882488
 21
585.950565841
 31
0.0
  0
LINE
  8
0
  6
CONTINUOUS
 62
     1
 10
357.7
 20
588.256505841
 30
0.0
 11
354.851882488
 21
588.256505841
 31
0.0
  0
LINE
  8
0
  6
CONTINUOUS
 62
     1
 10
357.7
 20
592.868385841
 30
0.0
 11
354.851882488
 21
592.868385841
 31
0.0
  0
LINE
  8
0
  6
CONTINUOUS
 62
     1
 10
357.7
 20
595.174325841
 30
0.0
 11
354.851882488
 21
595.174325841
 31
0.0
  0
LINE
  8
0
  6
CONTINUOUS
 62
     1
 10
359.0
 20
585.962445841
 30
0.0
 11
357.7
 21
585.962445841
 31
0.0
  0
LINE
  8
0
  6
CONTINUOUS
 62
     1
 10
359.0
 20
590.562445841
 30
0.0
 11
357.700000446
 21
589.262446287
 31
0.0
  0
LINE
  8
0
  6
CONTINUOUS
 62
     1
 10
357.700000446
 20
590.562445841
 30
0.0
 11
359.0
 21
591.862445394
 31
0.0
  0
LINE
  8
0
  6
CONTINUOUS
 62
     1
 10
359.0
 20
595.162445841
 30
0.0
 11
357.7
 21
595.162445841
 31
0.0
  0
LINE
  8
0
  6
CONTINUOUS
 62
     1
 10
329.0
 20
550.7
 30
0.0
 11
330.0
 21
550.7
 31
0.0
  0
LINE
  8
0
  6
CONTINUOUS
 62
     1
 10
326.2
 20
551.0
 30
0.0
 11
326.517542648
 21
550.45
 31
0.0
  0
LINE
  8
0
  6
CONTINUOUS
 62
     1
 10
326.517542648
 20
550.45
 30
0.0
 11
329.0
 21
550.45
 31
0.0
  0
ARC
  8
0
  6
CONTINUOUS
 62
     1
 10
327.972973788
 20
551.4625
 30
0.0
 40
1.772973788
 50
145.174816769
 51
214.825183231
  0
LINE
  8
0
  6
CONTINUOUS
 62
     1
 10
329.0
 20
558.55
 30
0.0
 11
329.0
 21
550.45
 31
0.0
  0
LINE
  8
0
  6
CONTINUOUS
 62
     1
 10
329.0
 20
558.3
 30
0.0
 11
330.0
 21
558.3
 31
0.0
  0
LINE
  8
0
  6
CONTINUOUS
 62
     1
 10
329.0
 20
554.5
 30
0.0
 11
330.0
 21
555.5
 31
0.0
  0
LINE
  8
0
  6
CONTINUOUS
 62
     1
 10
326.517542648
 20
558.55
 30
0.0
 11
329.0
 21
558.55
 31
0.0
  0
LINE
  8
0
  6
CONTINUOUS
 62
     1
 10
326.2
 20
558.0
 30
0.0
 11
326.517542648
 21
558.55
 31
0.0
  0
LINE
  8
0
  6
CONTINUOUS
 62
     1
 10
326.517542648
 20
556.525
 30
0.0
 11
329.0
 21
556.525
 31
0.0
  0
ARC
  8
0
  6
CONTINUOUS
 62
     1
 10
327.972973788
 20
557.5375
 30
0.0
 40
1.772973788
 50
145.174816769
 51
214.825183231
  0
LINE
  8
0
  6
CONTINUOUS
 62
     1
 10
329.0
 20
553.5
 30
0.0
 11
330.0
 21
554.5
 31
0.0
  0
LINE
  8
0
  6
CONTINUOUS
 62
     1
 10
326.517542648
 20
552.475
 30
0.0
 11
329.0
 21
552.475
 31
0.0
  0
LINE
  8
0
  6
CONTINUOUS
 62
     1
 10
326.2
 20
558.0
 30
0.0
 11
326.2
 21
551.0
 31
0.0
  0
ARC
  8
0
  6
CONTINUOUS
 62
     1
 10
332.815581181
 20
554.5
 30
0.0
 40
6.615581181
 50
162.175912681
 51
197.824087319
  0
ARC
  8
0
  6
CONTINUOUS
 62
     1
 10
357.5
 20
511.429475845
 30
0.0
 40
1.5
 50
0.0
 51
71.029592192
  0
LINE
  8
0
  6
CONTINUOUS
 62
     1
 10
357.7
 20
518.43755416
 30
0.0
 11
357.7
 21
523.04943416
 31
0.0
  0
LINE
  8
0
  6
CONTINUOUS
 62
     1
 10
354.1998
 20
521.91999416
 30
0.0
 11
354.851882488
 21
523.04943416
 31
0.0
  0
LINE
  8
0
  6
CONTINUOUS
 62
     1
 10
354.1998
 20
518.43755416
 30
0.0
 11
354.1998
 21
521.91999416
 31
0.0
  0
ARC
  8
0
  6
CONTINUOUS
 62
     1
 10
355.544720132
 20
521.89646416
 30
0.0
 40
1.34512595
 50
177.010501597
 51
238.997686085
  0
LINE
  8
0
  6
CONTINUOUS
 62
     1
 10
357.7
 20
523.04943416
 30
0.0
 11
354.851882488
 21
523.04943416
 31
0.0
  0
LINE
  8
0
  6
CONTINUOUS
 62
     1
 10
359.0
 20
523.03755416
 30
0.0
 11
357.7
 21
523.03755416
 31
0.0
  0
LINE
  8
0
  6
CONTINUOUS
 62
     1
 10
357.7
 20
518.43755416
 30
0.0
 11
357.7
 21
513.82567416
 31
0.0
  0
LINE
  8
0
  6
CONTINUOUS
 62
     1
 10
354.1998
 20
514.95511416
 30
0.0
 11
354.851882488
 21
513.82567416
 31
0.0
  0
LINE
  8
0
  6
CONTINUOUS
 62
     1
 10
354.1998
 20
518.43755416
 30
0.0
 11
354.1998
 21
514.95511416
 31
0.0
  0
ARC
  8
0
  6
CONTINUOUS
 62
     1
 10
358.603054926
 20
518.43755416
 30
0.0
 40
4.403254926
 50
148.419912243
 51
211.580087757
  0
LINE
  8
0
  6
CONTINUOUS
 62
     1
 10
354.1998
 20
514.95511416
 30
0.0
 11
354.851882488
 21
513.82567416
 31
0.0
  0
ARC
  8
0
  6
CONTINUOUS
 62
     1
 10
355.544720132
 20
514.97864416
 30
0.0
 40
1.34512595
 50
121.002313915
 51
182.989498403
  0
LINE
  8
0
  6
CONTINUOUS
 62
     1
 10
357.7
 20
516.13161416
 30
0.0
 11
354.851882488
 21
516.13161416
 31
0.0
  0
LINE
  8
0
  6
CONTINUOUS
 62
     1
 10
357.7
 20
513.82567416
 30
0.0
 11
354.851882488
 21
513.82567416
 31
0.0
  0
LINE
  8
0
  6
CONTINUOUS
 62
     1
 10
359.0
 20
513.83755416
 30
0.0
 11
357.7
 21
513.83755416
 31
0.0
  0
LINE
  8
0
  6
CONTINUOUS
 62
     1
 10
357.7
 20
520.74349416
 30
0.0
 11
354.851882488
 21
520.74349416
 31
0.0
  0
LINE
  8
0
  6
CONTINUOUS
 62
     1
 10
359.0
 20
518.43755416
 30
0.0
 11
357.700000446
 21
519.737553713
 31
0.0
  0
LINE
  8
0
  6
CONTINUOUS
 62
     1
 10
357.700000446
 20
518.43755416
 30
0.0
 11
359.0
 21
517.137554606
 31
0.0
  0
LINE
  8
0
  6
CONTINUOUS
 62
     1
 10
520.5
 20
615.5
 30
0.0
 11
527.0
 21
615.5
 31
0.0
  0
LINE
  8
0
  6
CONTINUOUS
 62
     1
 10
527.0
 20
493.5
 30
0.0
 11
527.0
 21
554.5
 31
0.0
  0
LINE
  8
0
  6
CONTINUOUS
 62
     1
 10
520.499990656
 20
493.5
 30
0.0
 11
527.0
 21
493.5
 31
0.0
  0
LINE
  8
0
  6
CONTINUOUS
 62
     1
 10
527.0
 20
615.5
 30
0.0
 11
527.0
 21
493.5
 31
0.0
  0
LINE
  8
0
  6
LTYPE3
 62
     2
 10
579.9
 20
554.5
 30
0.0
 11
308.0
 21
554.5
 31
0.0
  0
ARC
  8
0
  6
CONTINUOUS
 62
     1
 10
545.0
 20
647.0
 30
0.0
 40
15.0
 50
90.0
 51
180.0
  0
LINE
  8
0
  6
CONTINUOUS
 62
     1
 10
527.0
 20
612.0
 30
0.0
 11
528.00001079
 21
612.0
 31
0.0
  0
LINE
  8
0
  6
CONTINUOUS
 62
     1
 10
530.0
 20
647.0
 30
0.0
 11
530.0
 21
614.000007629
 31
0.0
  0
ARC
  8
0
  6
CONTINUOUS
 62
     1
 10
528.0
 20
614.0
 30
0.0
 40
2.0
 50
270.000309099
 51
0.000218566
  0
LINE
  8
2
  6
CONTINUOUS
 62
     2
 10
561.5
 20
607.5
 30
0.0
 11
555.5
 21
607.5
 31
0.0
  0
LINE
  8
2
  6
CONTINUOUS
 62
     2
 10
563.5
 20
607.5
 30
0.0
 11
560.911809549
 21
597.840741737
 31
0.0
  0
LINE
  8
2
  6
CONTINUOUS
 62
     2
 10
563.5
 20
607.5
 30
0.0
 11
566.088190451
 21
597.840741737
 31
0.0
  0
LINE
  8
2
  6
CONTINUOUS
 62
     2
 10
563.5
 20
607.5
 30
0.0
 11
563.5
 21
554.5
 31
0.0
  0
LINE
  8
2
  6
CONTINUOUS
 62
     2
 10
563.5
 20
554.5
 30
0.0
 11
566.088190451
 21
564.159258263
 31
0.0
  0
LINE
  8
2
  6
CONTINUOUS
 62
     2
 10
563.5
 20
554.5
 30
0.0
 11
560.911809549
 21
564.159258263
 31
0.0
  0
LINE
  8
2
  6
CONTINUOUS
 62
     2
 10
560.5
 20
554.5
 30
0.0
 11
555.5
 21
554.5
 31
0.0
  0
LINE
  8
0
  6
CONTINUOUS
 62
     1
 10
542.0
 20
519.5
 30
0.0
 11
584.000007629
 21
519.5
 31
0.0
  0
ARC
  8
0
  6
CONTINUOUS
 62
     1
 10
542.0
 20
516.5
 30
0.0
 40
3.0
 50
90.0
 51
180.0
  0
ARC
  8
0
  6
CONTINUOUS
 62
     1
 10
536.0
 20
497.5
 30
0.0
 40
3.0
 50
270.0
 51
0.0
  0
LINE
  8
0
  6
CONTINUOUS
 62
     1
 10
539.0
 20
516.5
 30
0.0
 11
539.0
 21
497.5
 31
0.0
  0
LINE
  8
0
  6
CONTINUOUS
 62
     1
 10
527.0
 20
494.5
 30
0.0
 11
560.000007629
 21
494.5
 31
0.0
  0
ARC
  8
0
  6
CONTINUOUS
 62
     1
 10
560.0
 20
497.5
 30
0.0
 40
3.0
 50
270.000145711
 51
0.00014571
  0
LINE
  8
0
  6
CONTINUOUS
 62
     1
 10
563.0
 20
516.500007629
 30
0.0
 11
563.0
 21
497.500007629
 31
0.0
  0
ARC
  8
0
  6
CONTINUOUS
 62
     1
 10
566.0
 20
516.5
 30
0.0
 40
3.0
 50
90.0
 51
179.99985429
  0
ARC
  8
0
  6
CONTINUOUS
 62
     1
 10
584.0
 20
522.5
 30
0.0
 40
3.0
 50
270.000145711
 51
0.0
  0
LINE
  8
0
  6
CONTINUOUS
 62
     1
 10
587.0
 20
522.5
 30
0.0
 11
587.0
 21
662.0
 31
0.0
  0
LINE
  8
0
  6
CONTINUOUS
 62
     1
 10
545.0
 20
662.0
 30
0.0
 11
593.0
 21
662.0
 31
0.0
  0
LINE
  8
0
  6
CONTINUOUS
 62
     1
 10
587.0
 20
554.5
 30
0.0
 11
593.0
 21
554.5
 31
0.0
  0
ARC
  8
0
  6
CONTINUOUS
 62
     1
 10
593.0
 20
556.5
 30
0.0
 40
2.0
 50
270.0
 51
0.0
  0
LINE
  8
0
  6
CONTINUOUS
 62
     2
 10
414.0
 20
649.5
 30
0.0
 11
400.930224855
 21
714.032014776
 31
0.0
  0
LINE
  8
2
  6
CONTINUOUS
 62
     2
 10
322.100004265
 20
570.0
 30
0.0
 11
322.639879399
 21
579.985416108
 31
0.0
  0
LINE
  8
2
  6
CONTINUOUS
 62
     2
 10
322.100004265
 20
570.0
 30
0.0
 11
317.574841792
 21
578.917561583
 31
0.0
  0
LINE
  8
0
  6
CONTINUOUS
 62
     1
 10
595.0
 20
556.5
 30
0.0
 11
595.0
 21
660.0
 31
0.0
  0
ARC
  8
0
  6
CONTINUOUS
 62
     1
 10
593.0
 20
660.0
 30
0.0
 40
2.0
 50
0.0
 51
90.0
  0
LINE
  8
2
  6
CONTINUOUS
 62
     2
 10
314.0
 20
572.5
 30
0.0
 11
314.0
 21
793.2
 31
0.0
  0
LINE
  8
0
  6
CONTINUOUS
 62
     1
 10
598.000013214
 20
644.5
 30
0.0
 11
658.0
 21
644.5
 31
0.0
  0
ARC
  8
0
  6
CONTINUOUS
 62
     1
 10
598.0
 20
647.5
 30
0.0
 40
3.0
 50
183.814074834
 51
270.000252378
  0
LINE
  8
0
  6
CONTINUOUS
 62
     1
 10
597.800009344
 20
570.5
 30
0.0
 11
658.0
 21
570.5
 31
0.0
  0
ARC
  8
0
  6
CONTINUOUS
 62
     1
 10
597.8
 20
567.5
 30
0.0
 40
3.0
 50
89.999821542
 51
182.106627847
  0
ARC
  8
0
  6
CONTINUOUS
 62
     1
 10
617.0
 20
607.5
 30
0.0
 40
27.0
 50
215.430944687
 51
144.569055313
  0
LINE
  8
2
  6
CONTINUOUS
 62
     2
 10
314.0
 20
785.2
 30
0.0
 11
323.659258263
 21
782.611809549
 31
0.0
  0
LINE
  8
2
  6
CONTINUOUS
 62
     2
 10
314.0
 20
785.2
 30
0.0
 11
323.659258263
 21
787.788190451
 31
0.0
  0
LINE
  8
2
  6
CONTINUOUS
 62
     2
 10
314.0
 20
815.7
 30
0.0
 11
323.659258263
 21
813.111809549
 31
0.0
  0
LINE
  8
2
  6
CONTINUOUS
 62
     2
 10
314.0
 20
815.7
 30
0.0
 11
323.659258263
 21
818.288190451
 31
0.0
  0
LINE
  8
2
  6
CONTINUOUS
 62
     2
 10
314.0
 20
766.038620668
 30
0.0
 11
314.0
 21
823.7
 31
0.0
  0
LINE
  8
2
  6
CONTINUOUS
 62
     2
 10
617.0
 20
785.2
 30
0.0
 11
314.0
 21
785.2
 31
0.0
  0
LINE
  8
2
  6
CONTINUOUS
 62
     2
 10
1036.1
 20
815.7
 30
0.0
 11
314.0
 21
815.7
 31
0.0
  0
LINE
  8
0
  6
CONTINUOUS
 62
     2
 10
400.930224855
 20
714.032014776
 30
0.0
 11
346.558072957
 21
714.032014776
 31
0.0
  0
LINE
  8
2
  6
CONTINUOUS
 62
     2
 10
360.0
 20
611.5
 30
0.0
 11
284.0
 21
611.5
 31
0.0
  0
LINE
  8
2
  6
CONTINUOUS
 62
     2
 10
292.0
 20
611.5
 30
0.0
 11
289.411809549
 21
601.840741737
 31
0.0
  0
LINE
  8
2
  6
CONTINUOUS
 62
     2
 10
292.0
 20
611.5
 30
0.0
 11
294.588190451
 21
601.840741737
 31
0.0
  0
LINE
  8
2
  6
CONTINUOUS
 62
     2
 10
292.0
 20
611.5
 30
0.0
 11
292.0
 21
497.5
 31
0.0
  0
LINE
  8
2
  6
CONTINUOUS
 62
     2
 10
292.0
 20
497.5
 30
0.0
 11
294.588190451
 21
507.159258263
 31
0.0
  0
LINE
  8
2
  6
CONTINUOUS
 62
     2
 10
292.0
 20
497.5
 30
0.0
 11
289.411809549
 21
507.159258263
 31
0.0
  0
LINE
  8
2
  6
CONTINUOUS
 62
     2
 10
360.0
 20
497.5
 30
0.0
 11
284.0
 21
497.5
 31
0.0
  0
LINE
  8
2
  6
CONTINUOUS
 62
     2
 10
516.5
 20
615.5
 30
0.0
 11
253.5
 21
615.5
 31
0.0
  0
LINE
  8
2
  6
CONTINUOUS
 62
     2
 10
261.5
 20
615.5
 30
0.0
 11
258.911809549
 21
605.840741737
 31
0.0
  0
LINE
  8
2
  6
CONTINUOUS
 62
     2
 10
261.5
 20
615.5
 30
0.0
 11
264.088190451
 21
605.840741737
 31
0.0
  0
LINE
  8
2
  6
CONTINUOUS
 62
     2
 10
261.5
 20
615.5
 30
0.0
 11
261.5
 21
493.5
 31
0.0
  0
LINE
  8
2
  6
CONTINUOUS
 62
     2
 10
261.5
 20
493.5
 30
0.0
 11
264.088190451
 21
503.159258263
 31
0.0
  0
LINE
  8
2
  6
CONTINUOUS
 62
     2
 10
261.5
 20
493.5
 30
0.0
 11
258.911809549
 21
503.159258263
 31
0.0
  0
LINE
  8
2
  6
CONTINUOUS
 62
     2
 10
516.500007629
 20
493.5
 30
0.0
 11
253.5
 21
493.5
 31
0.0
  0
LINE
  8
2
  6
CONTINUOUS
 62
     2
 10
1327.900015259
 20
494.0
 30
0.0
 11
1371.400015259
 21
494.0
 31
0.0
  0
LINE
  8
2
  6
CONTINUOUS
 62
     2
 10
1363.400015259
 20
494.0
 30
0.0
 11
1365.98820571
 21
503.659258263
 31
0.0
  0
LINE
  8
2
  6
CONTINUOUS
 62
     2
 10
1363.400015259
 20
494.0
 30
0.0
 11
1360.811824808
 21
503.659258263
 31
0.0
  0
LINE
  8
2
  6
CONTINUOUS
 62
     2
 10
1363.400015259
 20
494.0
 30
0.0
 11
1363.400015259
 21
555.0
 31
0.0
  0
LINE
  8
2
  6
CONTINUOUS
 62
     2
 10
1363.400015259
 20
555.0
 30
0.0
 11
1360.811824808
 21
545.340741737
 31
0.0
  0
LINE
  8
2
  6
CONTINUOUS
 62
     2
 10
1363.400015259
 20
555.0
 30
0.0
 11
1365.98820571
 21
545.340741737
 31
0.0
  0
LINE
  8
2
  6
CONTINUOUS
 62
     2
 10
1347.400015259
 20
555.0
 30
0.0
 11
1371.400015259
 21
555.0
 31
0.0
  0
LINE
  8
2
  6
CONTINUOUS
 62
     2
 10
1356.900015259
 20
555.0
 30
0.0
 11
1371.400015259
 21
555.0
 31
0.0
  0
LINE
  8
2
  6
CONTINUOUS
 62
     2
 10
1363.400015259
 20
555.0
 30
0.0
 11
1365.98820571
 21
564.659258263
 31
0.0
  0
LINE
  8
2
  6
CONTINUOUS
 62
     2
 10
1363.400015259
 20
555.0
 30
0.0
 11
1360.811824808
 21
564.659258263
 31
0.0
  0
LINE
  8
2
  6
CONTINUOUS
 62
     2
 10
1363.400015259
 20
555.0
 30
0.0
 11
1363.400015259
 21
680.0
 31
0.0
  0
LINE
  8
2
  6
CONTINUOUS
 62
     2
 10
1363.400015259
 20
680.0
 30
0.0
 11
1360.811824808
 21
670.340741737
 31
0.0
  0
LINE
  8
2
  6
CONTINUOUS
 62
     2
 10
1363.400015259
 20
680.0
 30
0.0
 11
1365.98820571
 21
670.340741737
 31
0.0
  0
LINE
  8
2
  6
CONTINUOUS
 62
     2
 10
1310.9
 20
680.0
 30
0.0
 11
1371.400015259
 21
680.0
 31
0.0
  0
LINE
  8
2
  6
CONTINUOUS
 62
     2
 10
1367.400015259
 20
680.0
 30
0.0
 11
1400.4
 21
680.0
 31
0.0
  0
LINE
  8
2
  6
CONTINUOUS
 62
     2
 10
1392.4
 20
680.0
 30
0.0
 11
1389.811809549
 21
670.340741737
 31
0.0
  0
LINE
  8
2
  6
CONTINUOUS
 62
     2
 10
1392.4
 20
680.0
 30
0.0
 11
1394.988190451
 21
670.340741737
 31
0.0
  0
LINE
  8
2
  6
CONTINUOUS
 62
     2
 10
1392.4
 20
680.0
 30
0.0
 11
1392.4
 21
494.0
 31
0.0
  0
LINE
  8
2
  6
CONTINUOUS
 62
     2
 10
1392.4
 20
494.0
 30
0.0
 11
1394.988190451
 21
503.659258263
 31
0.0
  0
LINE
  8
2
  6
CONTINUOUS
 62
     2
 10
1392.4
 20
494.0
 30
0.0
 11
1389.811809549
 21
503.659258263
 31
0.0
  0
LINE
  8
2
  6
CONTINUOUS
 62
     2
 10
1371.400015259
 20
494.0
 30
0.0
 11
1400.4
 21
494.0
 31
0.0
  0
TEXT
  8
2
  6
CONTINUOUS
 62
     3
 10
436.1
 20
789.2
 30
0.0
 40
15.0
  1
３０３
 50
0.0
 41
0.9
 51
0.0
  7
KANJI24
  0
TEXT
  8
2
  6
CONTINUOUS
 62
     3
 10
559.5
 20
567.6
 30
0.0
 40
15.0
  1
５３
 50
90.0
 41
0.9
 51
0.0
  7
KANJI24
  0
TEXT
  8
0
  6
CONTINUOUS
 62
     2
 10
347.700004265
 20
718.5
 30
0.0
 40
15.0
  1
ＰＦ３／４
 50
0.0
 41
0.9
 51
0.0
  7
KANJI24
  0
TEXT
  8
2
  6
CONTINUOUS
 62
     3
 10
257.5
 20
527.1
 30
0.0
 40
15.0
  1
□１２２
 50
90.0
 41
0.9
 51
0.0
  7
KANJI24
  0
TEXT
  8
2
  6
CONTINUOUS
 62
     3
 10
288.0
 20
527.1
 30
0.0
 40
15.0
  1
φ１１４
 50
90.0
 41
0.9
 51
0.0
  7
KANJI24
  0
TEXT
  8
2
  6
CONTINUOUS
 62
     2
 10
763.8
 20
762.8
 30
0.0
 40
15.0
  1
Ｃ
 50
0.0
 41
0.9
 51
0.0
  7
KANJI24
  0
TEXT
  8
2
  6
CONTINUOUS
 62
     2
 10
798.1
 20
789.4
 30
0.0
 40
15.0
  1
ｍｉｎ．Ｌ
 50
0.0
 41
0.9
 51
0.0
  7
KANJI24
  0
TEXT
  8
2
  6
CONTINUOUS
 62
     2
 10
1030.0
 20
822.6
 30
0.0
 40
15.0
  1
１８
 50
0.0
 41
0.9
 51
0.0
  7
KANJI24
  0
TEXT
  8
2
  6
CONTINUOUS
 62
     2
 10
917.6
 20
763.1
 30
0.0
 40
15.0
  1
ｍｉｎ．Ｐ
 50
0.0
 41
0.9
 51
0.0
  7
KANJI24
  0
TEXT
  8
2
  6
CONTINUOUS
 62
     2
 10
1004.3
 20
762.9
 30
0.0
 40
15.0
  1
３５
 50
0.0
 41
0.9
 51
0.0
  7
KANJI24
  0
TEXT
  8
2
  6
CONTINUOUS
 62
     2
 10
637.6
 20
821.4
 30
0.0
 40
15.0
  1
ｍｉｎ．ＡＬ
 50
0.0
 41
0.9
 51
0.0
  7
KANJI24
  0
TEXT
  8
0
  6
CONTINUOUS
 62
     2
 10
720.6
 20
589.5
 30
0.0
 40
15.0
  1
φ６４
 50
90.0
 41
0.9
 51
0.0
  7
KANJI24
  0
TEXT
  8
2
  6
CONTINUOUS
 62
     3
 10
1359.400015259
 20
511.1
 30
0.0
 40
15.0
  1
６１
 50
90.0
 41
0.9
 51
0.0
  7
KANJI24
  0
TEXT
  8
2
  6
CONTINUOUS
 62
     3
 10
1359.400015259
 20
597.1
 30
0.0
 40
15.0
  1
１２５
 50
90.0
 41
0.9
 51
0.0
  7
KANJI24
  0
TEXT
  8
2
  6
CONTINUOUS
 62
     3
 10
1388.4
 20
566.6
 30
0.0
 40
15.0
  1
１８６
 50
90.0
 41
0.9
 51
0.0
  7
KANJI24
  0
LINE
  8
0
  6
LTYPE3
 62
     2
 10
723.0
 20
607.5
 30
0.0
 11
1080.0
 21
607.5
 31
0.0
  0
LINE
  8
0
  6
LTYPE3
 62
     2
 10
554.3
 20
607.5
 30
0.0
 11
704.0
 21
607.5
 31
0.0
  0
TEXT
  8
0
  6
CONTINUOUS
 62
     2
 10
372.9
 20
509.5
 30
0.0
 40
15.0
  1
エコノストップモータ
 50
0.0
 41
0.9
 51
0.0
  7
KANJI24
  0
TEXT
  8
0
  6
CONTINUOUS
 62
     2
 10
375.8
 20
526.5
 30
0.0
 40
15.0
  1
日本電産
 50
0.0
 41
0.9
 51
0.0
  7
KANJI24
  0
TEXT
  8
2
  6
CONTINUOUS
 62
     2
 10
685.4
 20
522.5
 30
0.0
 40
15.0
  1
給脂口
 50
0.0
 41
0.9
 51
0.0
  7
KANJI24
  0
LINE
  8
2
  6
CONTINUOUS
 62
     2
 10
724.2
 20
518.5
 30
0.0
 11
680.0
 21
518.5
 31
0.0
  0
LINE
  8
0
  6
CONTINUOUS
 62
     1
 10
1277.625
 20
1397.0
 30
0.0
 11
1277.625
 21
1296.9
 31
0.0
  0
LINE
  8
0
  6
CONTINUOUS
 62
     2
 10
1219.875
 20
1397.0
 30
0.0
 11
1219.875
 21
1296.9
 31
0.0
  0
LINE
  8
0
  6
CONTINUOUS
 62
     2
 10
1162.125
 20
1397.0
 30
0.0
 11
1162.125
 21
1296.9
 31
0.0
  0
LINE
  8
0
  6
CONTINUOUS
 62
     1
 10
1085.125
 20
1397.0
 30
0.0
 11
1085.125
 21
1296.9
 31
0.0
  0
LINE
  8
0
  6
CONTINUOUS
 62
     1
 10
1085.125
 20
1397.0
 30
0.0
 11
1277.625
 21
1397.0
 31
0.0
  0
LINE
  8
0
  6
CONTINUOUS
 62
     1
 10
1085.125
 20
1366.2
 30
0.0
 11
1277.625
 21
1366.2
 31
0.0
  0
LINE
  8
0
  6
CONTINUOUS
 62
     2
 10
1085.125
 20
1343.1
 30
0.0
 11
1277.625
 21
1343.1
 31
0.0
  0
LINE
  8
0
  6
CONTINUOUS
 62
     2
 10
1085.125
 20
1320.0
 30
0.0
 11
1277.625
 21
1320.0
 31
0.0
  0
LINE
  8
0
  6
CONTINUOUS
 62
     1
 10
1085.125
 20
1296.9
 30
0.0
 11
1277.625
 21
1296.9
 31
0.0
  0
TEXT
  8
0
  6
CONTINUOUS
 62
     2
 10
1227.575
 20
1383.525
 30
1.155
 40
11.55
  1
起動電流
 50
0.0
 41
0.9
 51
0.0
  7
KANJI25
  0
TEXT
  8
0
  6
CONTINUOUS
 62
     2
 10
1227.575
 20
1370.05
 30
1.155
 40
11.55
  1
　　　Ａ
 50
0.0
 41
0.9
 51
0.0
  7
KANJI25
  0
TEXT
  8
0
  6
CONTINUOUS
 62
     2
 10
1169.825
 20
1383.525
 30
1.155
 40
11.55
  1
定格電流
 50
0.0
 41
0.9
 51
0.0
  7
KANJI25
  0
TEXT
  8
0
  6
CONTINUOUS
 62
     2
 10
1169.825
 20
1370.05
 30
1.155
 40
11.55
  1
　　　Ａ
 50
0.0
 41
0.9
 51
0.0
  7
KANJI25
  0
TEXT
  8
0
  6
CONTINUOUS
 62
     2
 10
1091.67
 20
1325.775
 30
1.155
 40
11.55
  1
２００／６０
 50
0.0
 41
0.9
 51
0.0
  7
KANJI25
  0
TEXT
  8
0
  6
CONTINUOUS
 62
     2
 10
1091.67
 20
1383.525
 30
1.155
 40
11.55
  1
電圧／周波数
 50
0.0
 41
0.9
 51
0.0
  7
KANJI25
  0
TEXT
  8
0
  6
CONTINUOUS
 62
     2
 10
1091.67
 20
1370.05
 30
1.155
 40
11.55
  1
　Ｖ／Ｈｚ
 50
0.0
 41
0.9
 51
0.0
  7
KANJI25
  0
TEXT
  8
0
  6
CONTINUOUS
 62
     2
 10
1091.67
 20
1348.875
 30
1.155
 40
11.55
  1
２００／５０
 50
0.0
 41
0.9
 51
0.0
  7
KANJI25
  0
TEXT
  8
0
  6
CONTINUOUS
 62
     2
 10
1091.67
 20
1302.675
 30
1.155
 40
11.55
  1
２２０／６０
 50
0.0
 41
0.9
 51
0.0
  7
KANJI25
  0
LINE
  8
0
  6
CONTINUOUS
 62
     1
 10
1046.625
 20
1397.0
 30
0.0
 11
1046.625
 21
1296.9
 31
0.0
  0
LINE
  8
0
  6
CONTINUOUS
 62
     2
 10
988.875
 20
1397.0
 30
0.0
 11
988.875
 21
1296.9
 31
0.0
  0
LINE
  8
0
  6
CONTINUOUS
 62
     2
 10
931.125
 20
1397.0
 30
0.0
 11
931.125
 21
1296.9
 31
0.0
  0
LINE
  8
0
  6
CONTINUOUS
 62
     1
 10
854.125
 20
1397.0
 30
0.0
 11
854.125
 21
1296.9
 31
0.0
  0
LINE
  8
0
  6
CONTINUOUS
 62
     1
 10
854.125
 20
1397.0
 30
0.0
 11
1046.625
 21
1397.0
 31
0.0
  0
LINE
  8
0
  6
CONTINUOUS
 62
     1
 10
854.125
 20
1366.2
 30
0.0
 11
1046.625
 21
1366.2
 31
0.0
  0
LINE
  8
0
  6
CONTINUOUS
 62
     2
 10
854.125
 20
1343.1
 30
0.0
 11
1046.625
 21
1343.1
 31
0.0
  0
LINE
  8
0
  6
CONTINUOUS
 62
     2
 10
854.125
 20
1320.0
 30
0.0
 11
1046.625
 21
1320.0
 31
0.0
  0
LINE
  8
0
  6
CONTINUOUS
 62
     1
 10
854.125
 20
1296.9
 30
0.0
 11
1046.625
 21
1296.9
 31
0.0
  0
TEXT
  8
0
  6
CONTINUOUS
 62
     2
 10
996.575
 20
1383.525
 30
1.155
 40
11.55
  1
起動電流
 50
0.0
 41
0.9
 51
0.0
  7
KANJI25
  0
TEXT
  8
0
  6
CONTINUOUS
 62
     2
 10
996.575
 20
1370.05
 30
1.155
 40
11.55
  1
　　　Ａ
 50
0.0
 41
0.9
 51
0.0
  7
KANJI25
  0
TEXT
  8
0
  6
CONTINUOUS
 62
     2
 10
938.825
 20
1383.525
 30
1.155
 40
11.55
  1
定格電流
 50
0.0
 41
0.9
 51
0.0
  7
KANJI25
  0
TEXT
  8
0
  6
CONTINUOUS
 62
     2
 10
938.825
 20
1370.05
 30
1.155
 40
11.55
  1
　　　Ａ
 50
0.0
 41
0.9
 51
0.0
  7
KANJI25
  0
TEXT
  8
0
  6
CONTINUOUS
 62
     2
 10
860.67
 20
1383.525
 30
1.155
 40
11.55
  1
電圧／周波数
 50
0.0
 41
0.9
 51
0.0
  7
KANJI25
  0
TEXT
  8
0
  6
CONTINUOUS
 62
     2
 10
860.67
 20
1370.05
 30
1.155
 40
11.55
  1
　Ｖ／Ｈｚ
 50
0.0
 41
0.9
 51
0.0
  7
KANJI25
  0
TEXT
  8
0
  6
CONTINUOUS
 62
     2
 10
860.67
 20
1348.875
 30
1.155
 40
11.55
  1
４００／５０
 50
0.0
 41
0.9
 51
0.0
  7
KANJI25
  0
TEXT
  8
0
  6
CONTINUOUS
 62
     2
 10
860.67
 20
1325.775
 30
1.155
 40
11.55
  1
４００／６０
 50
0.0
 41
0.9
 51
0.0
  7
KANJI25
  0
TEXT
  8
0
  6
CONTINUOUS
 62
     2
 10
860.67
 20
1302.675
 30
1.155
 40
11.55
  1
４４０／６０
 50
0.0
 41
0.9
 51
0.0
  7
KANJI25
  0
LINE
  8
0
  6
CONTINUOUS
 62
     2
 10
879.7275
 20
1275.725
 30
0.0
 11
1241.6275
 21
1275.725
 31
0.0
  0
TEXT
  8
0
  6
CONTINUOUS
 62
     2
 10
938.825
 20
1348.875
 30
1.155
 40
11.55
  1
　２．０
 50
0.0
 41
0.9
 51
0.0
  7
KANJI25
  0
TEXT
  8
0
  6
CONTINUOUS
 62
     2
 10
938.825
 20
1325.775
 30
1.155
 40
11.55
  1
　１．４
 50
0.0
 41
0.9
 51
0.0
  7
KANJI25
  0
TEXT
  8
0
  6
CONTINUOUS
 62
     2
 10
938.825
 20
1302.675
 30
1.155
 40
11.55
  1
　１．７
 50
0.0
 41
0.9
 51
0.0
  7
KANJI25
  0
TEXT
  8
0
  6
CONTINUOUS
 62
     2
 10
1169.825
 20
1348.875
 30
1.155
 40
11.55
  1
　４．０
 50
0.0
 41
0.9
 51
0.0
  7
KANJI25
  0
TEXT
  8
0
  6
CONTINUOUS
 62
     2
 10
1169.825
 20
1325.775
 30
1.155
 40
11.55
  1
　２．８
 50
0.0
 41
0.9
 51
0.0
  7
KANJI25
  0
TEXT
  8
0
  6
CONTINUOUS
 62
     2
 10
1169.825
 20
1302.675
 30
1.155
 40
11.55
  1
　３．３
 50
0.0
 41
0.9
 51
0.0
  7
KANJI25
  0
TEXT
  8
0
  6
CONTINUOUS
 62
     2
 10
1227.575
 20
1348.875
 30
1.155
 40
11.55
  1
　９．２
 50
0.0
 41
0.9
 51
0.0
  7
KANJI25
  0
TEXT
  8
0
  6
CONTINUOUS
 62
     2
 10
1227.575
 20
1325.775
 30
1.155
 40
11.55
  1
　８
 50
0.0
 41
0.9
 51
0.0
  7
KANJI25
  0
TEXT
  8
0
  6
CONTINUOUS
 62
     2
 10
1227.575
 20
1302.675
 30
1.155
 40
11.55
  1
　８．８
 50
0.0
 41
0.9
 51
0.0
  7
KANJI25
  0
TEXT
  8
0
  6
CONTINUOUS
 62
     2
 10
996.575
 20
1348.875
 30
1.155
 40
11.55
  1
　４．６
 50
0.0
 41
0.9
 51
0.0
  7
KANJI25
  0
TEXT
  8
0
  6
CONTINUOUS
 62
     2
 10
996.575
 20
1325.775
 30
1.155
 40
11.55
  1
　４
 50
0.0
 41
0.9
 51
0.0
  7
KANJI25
  0
TEXT
  8
0
  6
CONTINUOUS
 62
     2
 10
996.575
 20
1302.675
 30
1.155
 40
11.55
  1
　４．４
 50
0.0
 41
0.9
 51
0.0
  7
KANJI25
  0
LINE
  8
0
  6
CONTINUOUS
 62
     1
 10
1001.1
 20
627.3
 30
0.0
 11
1051.1
 21
627.3
 31
0.0
  0
LINE
  8
0
  6
CONTINUOUS
 62
     1
 10
1001.1
 20
587.3
 30
0.0
 11
1001.1
 21
627.3
 31
0.0
  0
LINE
  8
0
  6
CONTINUOUS
 62
     1
 10
1001.1
 20
587.3
 30
0.0
 11
1051.1
 21
587.3
 31
0.0
  0
LINE
  8
0
  6
CONTINUOUS
 62
     2
 10
1097.5
 20
587.3
 30
0.0
 11
1100.088190451
 21
596.959258263
 31
0.0
  0
LINE
  8
0
  6
CONTINUOUS
 62
     2
 10
1097.5
 20
587.3
 30
0.0
 11
1094.911809549
 21
596.959258263
 31
0.0
  0
LINE
  8
0
  6
CONTINUOUS
 62
     2
 10
1097.5
 20
587.3
 30
0.0
 11
1097.5
 21
627.3
 31
0.0
  0
LINE
  8
0
  6
CONTINUOUS
 62
     2
 10
1097.5
 20
627.3
 30
0.0
 11
1094.911809549
 21
617.640741737
 31
0.0
  0
LINE
  8
0
  6
CONTINUOUS
 62
     2
 10
1097.5
 20
627.3
 30
0.0
 11
1100.088190451
 21
617.640741737
 31
0.0
  0
TEXT
  8
0
  6
CONTINUOUS
 62
     2
 10
1093.5
 20
595.5
 30
0.0
 40
15.0
  1
４０
 50
90.0
 41
0.9
 51
0.0
  7
KANJI24
  0
LINE
  8
2
  6
CONTINUOUS
 62
     2
 10
956.1
 20
753.0
 30
0.0
 11
946.440741737
 21
750.411809549
 31
0.0
  0
LINE
  8
2
  6
CONTINUOUS
 62
     2
 10
956.1
 20
753.0
 30
0.0
 11
965.759258263
 21
750.411809549
 31
0.0
  0
LINE
  8
2
  6
CONTINUOUS
 62
     2
 10
956.1
 20
641.5
 30
0.0
 11
956.1
 21
761.0
 31
0.0
  0
LINE
  8
2
  6
CONTINUOUS
 62
     2
 10
956.1
 20
753.0
 30
0.0
 11
946.440741737
 21
755.588190451
 31
0.0
  0
LINE
  8
2
  6
CONTINUOUS
 62
     2
 10
956.1
 20
753.0
 30
0.0
 11
965.759258263
 21
755.588190451
 31
0.0
  0
LINE
  8
0
  6
CONTINUOUS
 62
     1
 10
926.1
 20
639.25
 30
0.0
 11
926.1
 21
575.75
 31
0.0
  0
LINE
  8
0
  6
CONTINUOUS
 62
     1
 10
791.349814745
 20
639.25
 30
0.0
 11
956.1
 21
639.25
 31
0.0
  0
LINE
  8
0
  6
CONTINUOUS
 62
     1
 10
956.1
 20
639.25
 30
0.0
 11
956.1
 21
575.75
 31
0.0
  0
LINE
  8
0
  6
CONTINUOUS
 62
     1
 10
791.349814745
 20
575.75
 30
0.0
 11
956.1
 21
575.75
 31
0.0
  0
LINE
  8
0
  6
CONTINUOUS
 62
     1
 10
956.1
 20
626.5
 30
0.0
 11
1001.1
 21
626.5
 31
0.0
  0
LINE
  8
0
  6
CONTINUOUS
 62
     1
 10
956.1
 20
588.5
 30
0.0
 11
985.0
 21
588.5
 31
0.0
  0
LINE
  8
0
  6
CONTINUOUS
 62
     1
 10
1235.709658385
 20
604.5
 30
0.0
 11
1235.709658385
 21
610.5
 31
0.0
  0
ARC
  8
0
  6
CONTINUOUS
 62
     1
 10
1272.9
 20
607.5
 30
0.0
 40
40.0
 50
4.310625825
 51
85.698777695
  0
LINE
  8
0
  6
CONTINUOUS
 62
     1
 10
1275.9
 20
647.38734135
 30
0.0
 11
1275.9
 21
644.690341615
 31
0.0
  0
ARC
  8
0
  6
CONTINUOUS
 62
     1
 10
1272.9
 20
607.5
 30
0.0
 40
40.0
 50
94.320116859
 51
175.698777695
  0
LINE
  8
0
  6
CONTINUOUS
 62
     1
 10
1233.01265865
 20
610.5
 30
0.0
 11
1235.709658385
 21
610.5
 31
0.0
  0
LINE
  8
0
  6
CONTINUOUS
 62
     1
 10
1233.01265865
 20
604.5
 30
0.0
 11
1235.709658385
 21
604.5
 31
0.0
  0
ARC
  8
0
  6
CONTINUOUS
 62
     1
 10
1272.9
 20
607.5
 30
0.0
 40
40.0
 50
184.301222305
 51
265.679883141
  0
LINE
  8
0
  6
CONTINUOUS
 62
     1
 10
1275.9
 20
567.61265865
 30
0.0
 11
1275.9
 21
570.309658385
 31
0.0
  0
ARC
  8
0
  6
CONTINUOUS
 62
     1
 10
1272.9
 20
607.5
 30
0.0
 40
40.0
 50
274.301222305
 51
355.689374175
  0
LINE
  8
2
  6
CONTINUOUS
 62
     2
 10
1054.1
 20
815.7
 30
0.0
 11
1074.3
 21
815.7
 31
0.0
  0
LINE
  8
2
  6
CONTINUOUS
 62
     2
 10
1036.1
 20
815.7
 30
0.0
 11
1053.1
 21
815.7
 31
0.0
  0
TEXT
  8
0
  6
CONTINUOUS
 62
     2
 10
866.25
 20
1194.35
 30
0.8
 40
12.0
  1
ＭＣＳＤＢＢ０３－　　１
 50
0.0
 41
0.833333333
 51
0.0
  7
KANJI26
  0
TEXT
  8
0
  6
CONTINUOUS
 62
     2
 10
866.25
 20
1166.35
 30
0.8
 40
12.0
  1
ＭＣＳＤＢＢ０３－　　２
 50
0.0
 41
0.833333333
 51
0.0
  7
KANJI26
  0
TEXT
  8
0
  6
CONTINUOUS
 62
     2
 10
866.25
 20
1138.35
 30
0.8
 40
12.0
  1
ＭＣＳＤＢＢ０３－　　３
 50
0.0
 41
0.833333333
 51
0.0
  7
KANJI26
  0
TEXT
  8
0
  6
CONTINUOUS
 62
     2
 10
866.25
 20
1110.35
 30
0.8
 40
12.0
  1
ＭＣＳＤＢＢ０３－　　４
 50
0.0
 41
0.833333333
 51
0.0
  7
KANJI26
  0
TEXT
  8
0
  6
CONTINUOUS
 62
     2
 10
866.25
 20
1082.35
 30
0.8
 40
12.0
  1
ＭＣＳＤＢＢ０３－　　５
 50
0.0
 41
0.833333333
 51
0.0
  7
KANJI26
  0
TEXT
  8
0
  6
CONTINUOUS
 62
     2
 10
866.25
 20
1054.35
 30
0.8
 40
12.0
  1
ＭＣＳＤＢＢ０３－　　６
 50
0.0
 41
0.833333333
 51
0.0
  7
KANJI26
  0
TEXT
  8
0
  6
CONTINUOUS
 62
     2
 10
866.25
 20
1026.35
 30
0.8
 40
12.0
  1
ＭＣＳＤＢＢ０３－　　７
 50
0.0
 41
0.833333333
 51
0.0
  7
KANJI26
  0
TEXT
  8
0
  6
CONTINUOUS
 62
     2
 10
1448.25
 20
1194.65
 30
1.2
 40
12.0
  1
１９
 50
0.0
 41
0.9
 51
0.0
  7
KANJI18
  0
TEXT
  8
0
  6
CONTINUOUS
 62
     2
 10
1448.25
 20
1166.65
 30
1.2
 40
12.0
  1
２０
 50
0.0
 41
0.9
 51
0.0
  7
KANJI18
  0
TEXT
  8
0
  6
CONTINUOUS
 62
     2
 10
1448.25
 20
1138.65
 30
1.2
 40
12.0
  1
２１
 50
0.0
 41
0.9
 51
0.0
  7
KANJI18
  0
TEXT
  8
0
  6
CONTINUOUS
 62
     2
 10
1448.25
 20
1110.65
 30
1.2
 40
12.0
  1
２２
 50
0.0
 41
0.9
 51
0.0
  7
KANJI18
  0
TEXT
  8
0
  6
CONTINUOUS
 62
     2
 10
1448.25
 20
1082.65
 30
1.2
 40
12.0
  1
２３
 50
0.0
 41
0.9
 51
0.0
  7
KANJI18
  0
TEXT
  8
0
  6
CONTINUOUS
 62
     2
 10
1448.25
 20
1054.65
 30
1.2
 40
12.0
  1
２４
 50
0.0
 41
0.9
 51
0.0
  7
KANJI18
  0
TEXT
  8
0
  6
CONTINUOUS
 62
     2
 10
1448.25
 20
1026.65
 30
1.2
 40
12.0
  1
２５
 50
0.0
 41
0.9
 51
0.0
  7
KANJI18
  0
TEXT
  8
0
  6
CONTINUOUS
 62
     2
 10
1554.75
 20
211.0
 30
0.0
 40
17.5
  1
ＭＣＳＤＢＢ０３－
 50
0.0
 41
0.793650794
 51
0.0
  7
KANJI27
  0
TEXT
  8
0
  6
CONTINUOUS
 62
     2
 10
1650.4166945
 20
130.999995
 30
10.833333333
 40
25.0
  1
３００２３５５
 50
0.0
 41
0.8
 51
0.0
  7
KANJI28
  0
TEXT
  8
0
  6
CONTINUOUS
 62
     2
 10
887.4275
 20
1279.575
 30
1.3475
 40
13.475
  1
注意：サーマルリレー等の選定は、上記の値で選定して下さい。
 50
0.0
 41
0.9
 51
0.0
  7
KANJI29
  0
LINE
  8
0
  6
CONTINUOUS
 62
     1
 10
431.0
 20
604.0
 30
0.0
 11
431.0
 21
561.0
 31
0.0
  0
TEXT
  8
0
  6
CONTINUOUS
 62
     2
 10
442.0
 20
566.0
 30
5.0
 40
20.0
  1
銘板
 50
0.0
 41
0.925
 51
0.0
  7
KANJI30
  0
LINE
  8
0
  6
CONTINUOUS
 62
     1
 10
501.0
 20
604.0
 30
0.0
 11
501.0
 21
561.0
 31
0.0
  0
LINE
  8
0
  6
CONTINUOUS
 62
     1
 10
431.0
 20
561.0
 30
0.0
 11
501.0
 21
561.0
 31
0.0
  0
LINE
  8
0
  6
CONTINUOUS
 62
     1
 10
431.0
 20
604.0
 30
0.0
 11
501.0
 21
604.0
 31
0.0
  0
ARC
  8
0
  6
CONTINUOUS
 62
     2
 10
204.45
 20
551.65
 30
0.0
 40
20.0
 50
203.198590514
 51
128.047042532
  0
LINE
  8
0
  6
CONTINUOUS
 62
     2
 10
186.0670994
 20
543.771614028
 30
0.0
 11
194.335260778
 21
538.864277493
 31
0.0
  0
LINE
  8
0
  6
CONTINUOUS
 62
     2
 10
186.0670994
 20
543.771614028
 30
0.0
 11
188.36179211
 21
533.934175251
 31
0.0
  0
TEXT
  8
0
  6
CONTINUOUS
 62
     2
 10
124.0670994
 20
547.528385972
 30
0.0
 40
15.0
  1
前進方向
 50
0.0
 41
0.9
 51
0.0
  7
KANJI24
  0
TEXT
  8
0
  6
CONTINUOUS
 62
     2
 10
288.9
 20
415.7
 30
0.0
 40
20.0
  1
ブレーキ解放装置はありません。
 50
0.0
 41
0.925
 51
0.0
  7
KANJI31
  0
TEXT
  8
0
  6
CONTINUOUS
 62
     2
 10
289.9
 20
390.7
 30
0.0
 40
20.0
  1
そのまま手動操作をして下さい．
 50
0.0
 41
0.925
 51
0.0
  7
KANJI31
  0
LINE
  8
0
  6
LTYPE2
 62
     6
 10
150.408333
 20
981.833317
 30
0.0
 11
150.408333
 21
965.432460936
 31
0.0
  0
LINE
  8
0
  6
LTYPE2
 62
     6
 10
280.805262694
 20
981.833317
 30
0.0
 11
150.408333
 21
981.833317
 31
0.0
  0
TEXT
  8
0
  6
CONTINUOUS
 62
     6
 10
132.873590591
 20
968.348168681
 30
1.093390404
 40
10.933904043
  1
Ｕ
 50
0.0
 41
0.9
 51
0.0
  7
KANJI32
  0
CIRCLE
  8
0
  6
CONTINUOUS
 62
     6
 10
150.408333
 20
962.152289723
 30
0.0
 40
4.373561617
  0
LINE
  8
0
  6
CONTINUOUS
 62
     6
 10
145.38354931
 20
957.127506033
 30
0.0
 11
155.588526417
 21
967.33248314
 31
0.0
  0
TEXT
  8
0
  6
CONTINUOUS
 62
     6
 10
160.653806047
 20
990.499448352
 30
1.518597784
 40
15.185977837
  1
エコノストップモータ
 50
0.0
 41
0.66671875
 51
0.0
  7
KANJI33
  0
LINE
  8
0
  6
LTYPE2
 62
     6
 10
280.805262694
 20
886.421584891
 30
0.0
 11
280.805262694
 21
981.833317
 31
0.0
  0
CIRCLE
  8
0
  6
CONTINUOUS
 62
     6
 10
195.237339575
 20
936.639846957
 30
0.0
 40
18.223173404
  0
TEXT
  8
0
  6
CONTINUOUS
 62
     6
 10
187.583606745
 20
927.892723723
 30
1.82231734
 40
18.223173404
  1
Ｍ
 50
0.0
 41
0.9
 51
0.0
  7
KANJI34
  0
LINE
  8
0
  6
CONTINUOUS
 62
     6
 10
171.182750681
 20
911.127404191
 30
0.0
 11
182.481118192
 21
924.248089042
 31
0.0
  0
LINE
  8
0
  6
CONTINUOUS
 62
     6
 10
171.182750681
 20
962.152289723
 30
0.0
 11
182.481118192
 21
949.031604872
 31
0.0
  0
LINE
  8
0
  6
CONTINUOUS
 62
     6
 10
171.182750681
 20
962.152289723
 30
0.0
 11
154.781894617
 21
962.152289723
 31
0.0
  0
LINE
  8
0
  6
CONTINUOUS
 62
     6
 10
177.378629639
 20
936.639846957
 30
0.0
 11
154.781894617
 21
936.639846957
 31
0.0
  0
LINE
  8
0
  6
CONTINUOUS
 62
     6
 10
171.182750681
 20
911.127404191
 30
0.0
 11
154.781894617
 21
911.127404191
 31
0.0
  0
TEXT
  8
0
  6
CONTINUOUS
 62
     6
 10
133.966980995
 20
942.471262446
 30
1.093390404
 40
10.933904043
  1
Ｖ
 50
0.0
 41
0.9
 51
0.0
  7
KANJI32
  0
TEXT
  8
0
  6
CONTINUOUS
 62
     6
 10
135.060371399
 20
916.594356212
 30
1.093390404
 40
10.933904043
  1
Ｗ
 50
0.0
 41
0.9
 51
0.0
  7
KANJI32
  0
CIRCLE
  8
0
  6
CONTINUOUS
 62
     6
 10
150.408333
 20
936.639846957
 30
0.0
 40
4.373561617
  0
LINE
  8
0
  6
CONTINUOUS
 62
     6
 10
145.38354931
 20
931.615063267
 30
0.0
 11
155.588526417
 21
941.820040374
 31
0.0
  0
LINE
  8
0
  6
LTYPE2
 62
     6
 10
150.408333
 20
958.143191574
 30
0.0
 11
150.408333
 21
939.92001817
 31
0.0
  0
CIRCLE
  8
0
  6
CONTINUOUS
 62
     6
 10
150.408333
 20
911.127404191
 30
0.0
 40
4.373561617
  0
LINE
  8
0
  6
CONTINUOUS
 62
     6
 10
145.38354931
 20
906.102620501
 30
0.0
 11
155.588526417
 21
916.307597607
 31
0.0
  0
LINE
  8
0
  6
LTYPE2
 62
     6
 10
150.408333
 20
932.630748808
 30
0.0
 11
150.408333
 21
915.500965808
 31
0.0
  0
LINE
  8
0
  6
LTYPE2
 62
     6
 10
280.805262694
 20
886.421584891
 30
0.0
 11
150.408333
 21
886.421584891
 31
0.0
  0
LINE
  8
0
  6
LTYPE2
 62
     6
 10
150.408333
 20
906.753842574
 30
0.0
 11
150.408333
 21
886.421584891
 31
0.0
  0
TEXT
  8
0
  6
CONTINUOUS
 62
     2
 10
155.503726364
 20
861.212221811
 30
0.0
 40
15.6
  1
モーター結線図
 50
0.0
 41
0.925
 51
0.0
  7
KANJI35
  0
TEXT
  8
0
  6
CONTINUOUS
 62
     6
 10
221.478709277
 20
928.384749405
 30
1.457853872
 40
14.578538724
  1
Ｂ
 50
0.0
 41
0.9
 51
0.0
  7
KANJI36
  0
CIRCLE
  8
0
  6
CONTINUOUS
 62
     6
 10
228.039051703
 20
936.639846957
 30
0.0
 40
14.578538724
  0
TEXT
  8
0
  6
CONTINUOUS
 62
     2
 10
1497.25
 20
564.5
 30
10.0
 40
20.0
  1
特記事項
 50
0.0
 41
0.9
 51
0.0
  7
KANJI37
  0
TEXT
  8
0
  6
CONTINUOUS
 62
     2
 10
1427.25
 20
524.5
 30
5.142857143
 40
18.0
  1
１。運転時は必ずピストンロッドの回転防止を行って下さい。
 50
0.0
 41
0.857142857
 51
0.0
  7
KANJI38
  0
TEXT
  8
0
  6
CONTINUOUS
 62
     2
 10
1427.25
 20
490.5
 30
5.13
 40
18.0
  1
２。モートル：全閉自冷かご形３０分定格
 50
0.0
 41
0.857222222
 51
0.0
  7
KANJI39
  0
TEXT
  8
0
  6
CONTINUOUS
 62
     2
 10
1426.9165915
 20
456.500003
 30
5.13
 40
18.0
  1
３。呼称ストロークは、機械的ストロークです。
 50
0.0
 41
0.857222222
 51
0.0
  7
KANJI39
  0
TEXT
  8
0
  6
CONTINUOUS
 62
     2
 10
1426.9165915
 20
427.750003
 30
5.13
 40
18.0
  1
　　必ず、常用はストローク両端に余裕を取って下さい。
 50
0.0
 41
0.857222222
 51
0.0
  7
KANJI39
  0
TEXT
  8
0
  6
CONTINUOUS
 62
     2
 10
1427.6765915
 20
394.710003
 30
5.13
 40
18.0
  1
　　前後の推奨余裕寸法は、各々１５ｍｍです。
 50
0.0
 41
0.857222222
 51
0.0
  7
KANJI39
  0
LINE
  8
0
  6
CONTINUOUS
 62
     2
 10
1484.75
 20
556.5
 30
0.0
 11
1603.75
 21
556.5
 31
0.0
  0
LINE
  8
0
  6
CONTINUOUS
 62
     1
 10
956.1
 20
588.5
 30
0.0
 11
1001.1
 21
588.5
 31
0.0
  0
LINE
  8
2
  6
CONTINUOUS
 62
     2
 10
956.1
 20
753.0
 30
0.0
 11
1001.1
 21
753.0
 31
0.0
  0
LINE
  8
2
  6
CONTINUOUS
 62
     2
 10
617.0
 20
753.0
 30
0.0
 11
956.1
 21
753.0
 31
0.0
  0
LINE
  8
0
  6
CONTINUOUS
 62
     2
 10
1054.1
 20
587.3
 30
0.0
 11
1105.5
 21
587.3
 31
0.0
  0
LINE
  8
0
  6
CONTINUOUS
 62
     2
 10
1054.1
 20
627.3
 30
0.0
 11
1105.5
 21
627.3
 31
0.0
  0
LINE
  8
0
  6
CONTINUOUS
 62
     1
 10
1031.9
 20
595.2
 30
0.0
 11
1033.9
 21
594.9
 31
0.0
  0
LINE
  8
0
  6
CONTINUOUS
 62
     1
 10
1034.4
 20
599.6
 30
0.0
 11
1034.164615385
 21
598.030769231
 31
0.0
  0
LINE
  8
0
  6
CONTINUOUS
 62
     1
 10
1034.164615385
 20
598.030769231
 30
0.0
 11
1031.9
 21
595.2
 31
0.0
  0
LINE
  8
0
  6
CONTINUOUS
 62
     1
 10
1036.1
 20
597.6
 30
0.0
 11
1033.9
 21
594.9
 31
0.0
  0
LINE
  8
0
  6
CONTINUOUS
 62
     1
 10
1040.3
 20
595.2
 30
0.0
 11
1038.3
 21
594.9
 31
0.0
  0
LINE
  8
0
  6
CONTINUOUS
 62
     1
 10
1037.8
 20
599.6
 30
0.0
 11
1038.035384615
 21
598.030769231
 31
0.0
  0
LINE
  8
0
  6
CONTINUOUS
 62
     1
 10
1038.035384615
 20
598.030769231
 30
0.0
 11
1040.3
 21
595.2
 31
0.0
  0
LINE
  8
0
  6
CONTINUOUS
 62
     1
 10
1036.1
 20
597.6
 30
0.0
 11
1038.3
 21
594.9
 31
0.0
  0
CIRCLE
  8
0
  6
CONTINUOUS
 62
     1
 10
1036.099984741
 20
618.5
 30
0.0
 40
3.0
  0
CIRCLE
  8
0
  6
CONTINUOUS
 62
     1
 10
1036.1
 20
607.5
 30
0.0
 40
15.0
  0
LINE
  8
0
  6
CONTINUOUS
 62
     1
 10
1031.9
 20
595.2
 30
0.0
 11
1033.9
 21
594.9
 31
0.0
  0
LINE
  8
0
  6
CONTINUOUS
 62
     1
 10
1034.4
 20
599.6
 30
0.0
 11
1034.164615385
 21
598.030769231
 31
0.0
  0
LINE
  8
0
  6
CONTINUOUS
 62
     1
 10
1034.164615385
 20
598.030769231
 30
0.0
 11
1031.9
 21
595.2
 31
0.0
  0
LINE
  8
0
  6
CONTINUOUS
 62
     1
 10
1036.1
 20
597.6
 30
0.0
 11
1033.9
 21
594.9
 31
0.0
  0
LINE
  8
0
  6
CONTINUOUS
 62
     1
 10
1040.3
 20
595.2
 30
0.0
 11
1038.3
 21
594.9
 31
0.0
  0
LINE
  8
0
  6
CONTINUOUS
 62
     1
 10
1037.8
 20
599.6
 30
0.0
 11
1038.035384615
 21
598.030769231
 31
0.0
  0
LINE
  8
0
  6
CONTINUOUS
 62
     1
 10
1038.035384615
 20
598.030769231
 30
0.0
 11
1040.3
 21
595.2
 31
0.0
  0
LINE
  8
0
  6
CONTINUOUS
 62
     1
 10
1036.1
 20
597.6
 30
0.0
 11
1038.3
 21
594.9
 31
0.0
  0
CIRCLE
  8
0
  6
CONTINUOUS
 62
     1
 10
1036.099984741
 20
618.5
 30
0.0
 40
3.0
  0
CIRCLE
  8
0
  6
CONTINUOUS
 62
     1
 10
1036.1
 20
607.5
 30
0.0
 40
15.0
  0
ARC
  8
0
  6
CONTINUOUS
 62
     1
 10
1326.4
 20
657.0
 30
0.0
 40
5.0
 50
0.000030901
 51
90.0
  0
LINE
  8
0
  6
CONTINUOUS
 62
     1
 10
1326.4
 20
662.0
 30
0.0
 11
1316.9
 21
662.0
 31
0.0
  0
ARC
  8
0
  6
CONTINUOUS
 62
     1
 10
1272.9
 20
607.5
 30
0.0
 40
65.0
 50
35.374590447
 51
54.625409553
  0
LINE
  8
0
  6
CONTINUOUS
 62
     1
 10
1235.270224556
 20
660.5
 30
0.0
 11
1310.529775444
 21
660.5
 31
0.0
  0
LINE
  8
0
  6
CONTINUOUS
 62
     1
 10
1298.507695155
 20
660.2
 30
0.0
 11
1298.507695155
 21
680.0
 31
0.0
  0
LINE
  8
0
  6
CONTINUOUS
 62
     1
 10
1308.9
 20
660.7
 30
0.0
 11
1308.9
 21
678.0
 31
0.0
  0
LINE
  8
0
  6
CONTINUOUS
 62
     1
 10
1316.9
 20
653.9
 30
0.0
 11
1316.9
 21
676.020045888
 31
0.0
  0
LINE
  8
0
  6
CONTINUOUS
 62
     2
 10
1332.9
 20
632.5
 30
0.0
 11
1332.9
 21
749.5
 31
0.0
  0
ARC
  8
0
  6
CONTINUOUS
 62
     1
 10
1306.9
 20
678.0
 30
0.0
 40
2.0
 50
0.0
 51
90.0
  0
LINE
  8
0
  6
CONTINUOUS
 62
     1
 10
1314.9
 20
678.020045888
 30
0.0
 11
1308.9
 21
678.020045888
 31
0.0
  0
ARC
  8
0
  6
CONTINUOUS
 62
     1
 10
1314.9
 20
676.020045888
 30
0.0
 40
2.0
 50
0.0
 51
90.0
  0
ARC
  8
0
  6
CONTINUOUS
 62
     1
 10
1299.507695155
 20
679.0
 30
0.0
 40
1.0
 50
90.0
 51
180.0
  0
ARC
  8
0
  6
CONTINUOUS
 62
     1
 10
1297.507695155
 20
679.0
 30
0.0
 40
1.0
 50
0.0
 51
90.0
  0
LINE
  8
0
  6
CONTINUOUS
 62
     1
 10
1306.9
 20
680.0
 30
0.0
 11
1238.9
 21
680.0
 31
0.0
  0
LINE
  8
0
  6
LTYPE3
 62
     2
 10
1240.709127035
 20
639.690872965
 30
0.0
 11
1227.609127035
 21
652.790872965
 31
0.0
  0
ARC
  8
0
  6
LTYPE3
 62
     2
 10
1272.9
 20
607.5
 30
0.0
 40
55.0
 50
124.150984485
 51
144.573837847
  0
LINE
  8
0
  6
CONTINUOUS
 62
     1
 10
1237.078740284
 20
678.020045888
 30
0.0
 11
1230.9
 21
678.020045888
 31
0.0
  0
ARC
  8
0
  6
CONTINUOUS
 62
     1
 10
1230.9
 20
676.020045888
 30
0.0
 40
2.0
 50
90.0
 51
180.0
  0
ARC
  8
0
  6
CONTINUOUS
 62
     1
 10
1238.9
 20
678.0
 30
0.0
 40
2.0
 50
90.0
 51
180.0
  0
ARC
  8
0
  6
CONTINUOUS
 62
     1
 10
1246.292304845
 20
679.0
 30
0.0
 40
1.0
 50
0.0
 51
90.0
  0
ARC
  8
0
  6
CONTINUOUS
 62
     1
 10
1248.292304845
 20
679.0
 30
0.0
 40
1.0
 50
90.0
 51
180.0
  0
CIRCLE
  8
0
  6
CONTINUOUS
 62
     1
 10
1234.009127035
 20
646.390872965
 30
0.0
 40
5.0
  0
LINE
  8
0
  6
CONTINUOUS
 62
     1
 10
1228.9
 20
662.0
 30
0.0
 11
1219.4
 21
662.0
 31
0.0
  0
ARC
  8
0
  6
CONTINUOUS
 62
     1
 10
1272.9
 20
607.5
 30
0.0
 40
65.0
 50
125.374590447
 51
144.625409553
  0
LINE
  8
0
  6
CONTINUOUS
 62
     1
 10
1228.9
 20
655.1
 30
0.0
 11
1228.9
 21
676.020045888
 31
0.0
  0
LINE
  8
0
  6
CONTINUOUS
 62
     1
 10
1236.9
 20
660.6
 30
0.0
 11
1236.9
 21
678.0
 31
0.0
  0
LINE
  8
0
  6
CONTINUOUS
 62
     1
 10
1247.292304845
 20
661.0
 30
0.0
 11
1247.292304845
 21
679.0
 31
0.0
  0
ARC
  8
0
  6
CONTINUOUS
 62
     1
 10
1219.4
 20
657.0
 30
0.0
 40
5.0
 50
90.0
 51
179.999969099
  0
LINE
  8
0
  6
CONTINUOUS
 62
     1
 10
1214.4
 20
657.000002697
 30
0.0
 11
1214.4
 21
627.778748346
 31
0.0
  0
LINE
  8
0
  6
CONTINUOUS
 62
     1
 10
1219.9
 20
645.129775444
 30
0.0
 11
1219.9
 21
627.7
 31
0.0
  0
LINE
  8
0
  6
CONTINUOUS
 62
     1
 10
1212.9
 20
627.5
 30
0.0
 11
1238.7
 21
627.5
 31
0.0
  0
LINE
  8
0
  6
CONTINUOUS
 62
     1
 10
1212.9
 20
587.5
 30
0.0
 11
1212.9
 21
627.5
 31
0.0
  0
LINE
  8
0
  6
CONTINUOUS
 62
     1
 10
1214.4
 20
587.25
 30
0.0
 11
1214.4
 21
504.0
 31
0.0
  0
LINE
  8
0
  6
CONTINUOUS
 62
     1
 10
1211.9
 20
605.5
 30
0.0
 11
1211.9
 21
504.0
 31
0.0
  0
LINE
  8
0
  6
CONTINUOUS
 62
     1
 10
1219.9
 20
587.5
 30
0.0
 11
1219.9
 21
569.870224556
 31
0.0
  0
LINE
  8
0
  6
CONTINUOUS
 62
     1
 10
1212.9
 20
587.5
 30
0.0
 11
1238.2
 21
587.5
 31
0.0
  0
ARC
  8
0
  6
CONTINUOUS
 62
     1
 10
1221.9
 20
605.5
 30
0.0
 40
10.0
 50
154.158067237
 51
180.0
  0
ARC
  8
0
  6
CONTINUOUS
 62
     1
 10
1272.9
 20
607.5
 30
0.0
 40
65.0
 50
215.374590447
 51
234.625409553
  0
LINE
  8
0
  6
LTYPE2
 62
     2
 10
1210.5
 20
554.5
 30
0.0
 11
1333.7
 21
554.5
 31
0.0
  0
LINE
  8
0
  6
CONTINUOUS
 62
     1
 10
1235.270224556
 20
554.5
 30
0.0
 11
1310.529775444
 21
554.5
 31
0.0
  0
LINE
  8
2
  6
CONTINUOUS
 62
     2
 10
1211.9
 20
500.0
 30
0.0
 11
1211.9
 21
399.641101056
 31
0.0
  0
LINE
  8
0
  6
CONTINUOUS
 62
     1
 10
1221.9
 20
493.5
 30
0.0
 11
1323.9
 21
493.5
 31
0.0
  0
ARC
  8
0
  6
CONTINUOUS
 62
     1
 10
1221.9
 20
503.5
 30
0.0
 40
10.0
 50
180.0
 51
270.0
  0
LINE
  8
0
  6
CONTINUOUS
 62
     1
 10
1221.9
 20
493.5
 30
0.0
 11
1323.9
 21
493.5
 31
0.0
  0
CIRCLE
  8
0
  6
CONTINUOUS
 62
     1
 10
1221.9
 20
503.0
 30
0.0
 40
4.0
  0
CIRCLE
  8
0
  6
CONTINUOUS
 62
     1
 10
1221.9
 20
503.0
 30
0.0
 40
3.0
  0
LINE
  8
0
  6
CONTINUOUS
 62
     1
 10
1322.4
 20
495.0
 30
0.0
 11
1223.4
 21
495.0
 31
0.0
  0
ARC
  8
0
  6
CONTINUOUS
 62
     1
 10
1223.4
 20
504.0
 30
0.0
 40
9.0
 50
180.0
 51
270.0
  0
ARC
  8
0
  6
CONTINUOUS
 62
     1
 10
1265.9
 20
500.0
 30
0.0
 40
5.0
 50
179.999984538
 51
270.0
  0
LINE
  8
0
  6
CONTINUOUS
 62
     1
 10
1260.9
 20
515.000001349
 30
0.0
 11
1260.9
 21
500.000001349
 31
0.0
  0
ARC
  8
0
  6
CONTINUOUS
 62
     1
 10
1219.4
 20
525.0
 30
0.0
 40
5.0
 50
180.0
 51
270.000026769
  0
LINE
  8
0
  6
CONTINUOUS
 62
     1
 10
1326.400002697
 20
520.0
 30
0.0
 11
1219.400002336
 21
520.0
 31
0.0
  0
ARC
  8
0
  6
CONTINUOUS
 62
     1
 10
1255.9
 20
515.0
 30
0.0
 40
5.0
 50
0.000015462
 51
90.0
  0
LINE
  8
0
  6
CONTINUOUS
 62
     2
 10
1215.9
 20
503.0
 30
0.0
 11
1227.9
 21
503.0
 31
0.0
  0
LINE
  8
0
  6
CONTINUOUS
 62
     2
 10
1221.9
 20
497.0
 30
0.0
 11
1221.9
 21
509.0
 31
0.0
  0
LINE
  8
0
  6
CONTINUOUS
 62
     2
 10
1214.4
 20
499.000007629
 30
0.0
 11
1214.4
 21
445.4
 31
0.0
  0
LINE
  8
2
  6
CONTINUOUS
 62
     2
 10
1333.9
 20
500.0
 30
0.0
 11
1333.9
 21
399.641101056
 31
0.0
  0
ARC
  8
0
  6
CONTINUOUS
 62
     1
 10
1323.9
 20
503.5
 30
0.0
 40
10.0
 50
270.0
 51
0.0
  0
CIRCLE
  8
0
  6
CONTINUOUS
 62
     1
 10
1323.9
 20
503.0
 30
0.0
 40
4.0
  0
CIRCLE
  8
0
  6
CONTINUOUS
 62
     1
 10
1323.9
 20
503.0
 30
0.0
 40
3.0
  0
ARC
  8
0
  6
CONTINUOUS
 62
     1
 10
1322.4
 20
504.0
 30
0.0
 40
9.0
 50
270.0
 51
0.0
  0
LINE
  8
0
  6
CONTINUOUS
 62
     1
 10
1284.9
 20
515.000001349
 30
0.0
 11
1284.9
 21
500.000001349
 31
0.0
  0
ARC
  8
0
  6
CONTINUOUS
 62
     1
 10
1279.9
 20
500.0
 30
0.0
 40
5.0
 50
270.0
 51
0.000015462
  0
ARC
  8
0
  6
CONTINUOUS
 62
     1
 10
1289.9
 20
515.0
 30
0.0
 40
5.0
 50
90.0
 51
179.999984538
  0
ARC
  8
0
  6
CONTINUOUS
 62
     1
 10
1326.4
 20
525.0
 30
0.0
 40
5.0
 50
270.00003091
 51
0.0
  0
LINE
  8
0
  6
CONTINUOUS
 62
     1
 10
1331.4
 20
587.25
 30
0.0
 11
1331.4
 21
504.0
 31
0.0
  0
LINE
  8
0
  6
CONTINUOUS
 62
     1
 10
1333.9
 20
605.5
 30
0.0
 11
1333.9
 21
504.0
 31
0.0
  0
LINE
  8
0
  6
CONTINUOUS
 62
     2
 10
1329.9
 20
503.0
 30
0.0
 11
1317.9
 21
503.0
 31
0.0
  0
LINE
  8
0
  6
CONTINUOUS
 62
     2
 10
1323.9
 20
497.0
 30
0.0
 11
1323.9
 21
509.0
 31
0.0
  0
LINE
  8
0
  6
CONTINUOUS
 62
     2
 10
1331.4
 20
499.000007629
 30
0.0
 11
1331.4
 21
445.4
 31
0.0
  0
LINE
  8
2
  6
CONTINUOUS
 62
     2
 10
1211.9
 20
407.641101056
 30
0.0
 11
1221.559258263
 21
405.052910605
 31
0.0
  0
LINE
  8
2
  6
CONTINUOUS
 62
     2
 10
1211.9
 20
407.641101056
 30
0.0
 11
1221.559258263
 21
410.229291507
 31
0.0
  0
LINE
  8
2
  6
CONTINUOUS
 62
     2
 10
1211.9
 20
407.641101056
 30
0.0
 11
1333.9
 21
407.641101056
 31
0.0
  0
LINE
  8
2
  6
CONTINUOUS
 62
     2
 10
1333.9
 20
407.641101056
 30
0.0
 11
1324.240741737
 21
410.229291507
 31
0.0
  0
LINE
  8
2
  6
CONTINUOUS
 62
     2
 10
1333.9
 20
407.641101056
 30
0.0
 11
1324.240741737
 21
405.052910605
 31
0.0
  0
LINE
  8
0
  6
CONTINUOUS
 62
     2
 10
1331.4
 20
450.4
 30
0.0
 11
1321.740741737
 21
452.988190451
 31
0.0
  0
LINE
  8
0
  6
CONTINUOUS
 62
     2
 10
1331.4
 20
450.4
 30
0.0
 11
1321.740741737
 21
447.811809549
 31
0.0
  0
LINE
  8
0
  6
CONTINUOUS
 62
     2
 10
1331.4
 20
450.4
 30
0.0
 11
1214.4
 21
450.4
 31
0.0
  0
LINE
  8
0
  6
CONTINUOUS
 62
     2
 10
1214.4
 20
450.4
 30
0.0
 11
1224.059258263
 21
447.811809549
 31
0.0
  0
LINE
  8
0
  6
CONTINUOUS
 62
     2
 10
1214.4
 20
450.4
 30
0.0
 11
1224.059258263
 21
452.988190451
 31
0.0
  0
TEXT
  8
0
  6
CONTINUOUS
 62
     3
 10
1252.65
 20
451.9
 30
0.0
 40
15.0
  1
１１７
 50
0.0
 41
0.9
 51
0.0
  7
KANJI24
  0
TEXT
  8
2
  6
CONTINUOUS
 62
     3
 10
1252.5
 20
410.141101056
 30
0.0
 40
15.0
  1
１２２
 50
0.0
 41
0.9
 51
0.0
  7
KANJI24
  0
TEXT
  8
2
  6
CONTINUOUS
 62
     3
 10
1237.0
 20
390.141101056
 30
0.0
 40
15.0
  1
（モータ幅）
 50
0.0
 41
0.9
 51
0.0
  7
KANJI24
  0
TEXT
  8
0
  6
CONTINUOUS
 62
     3
 10
1216.65
 20
433.9
 30
0.0
 40
15.0
  1
（ギヤケース幅）
 50
0.0
 41
0.9
 51
0.0
  7
KANJI24
  0
ARC
  8
0
  6
CONTINUOUS
 62
     1
 10
1272.9
 20
607.5
 30
0.0
 40
65.0
 50
305.374590447
 51
324.625409553
  0
LINE
  8
0
  6
CONTINUOUS
 62
     1
 10
1325.9
 20
587.6
 30
0.0
 11
1325.9
 21
569.870224556
 31
0.0
  0
LINE
  8
0
  6
CONTINUOUS
 62
     1
 10
1332.9
 20
587.5
 30
0.0
 11
1332.9
 21
627.5
 31
0.0
  0
LINE
  8
0
  6
CONTINUOUS
 62
     1
 10
1307.2
 20
587.5
 30
0.0
 11
1332.9
 21
587.5
 31
0.0
  0
ARC
  8
0
  6
CONTINUOUS
 62
     1
 10
1323.9
 20
605.5
 30
0.0
 40
10.0
 50
0.0
 51
24.981239606
  0
LINE
  8
0
  6
CONTINUOUS
 62
     1
 10
1331.4
 20
657.000002697
 30
0.0
 11
1331.4
 21
627.778748346
 31
0.0
  0
LINE
  8
0
  6
CONTINUOUS
 62
     1
 10
1325.9
 20
645.129775444
 30
0.0
 11
1325.9
 21
627.6
 31
0.0
  0
LINE
  8
0
  6
CONTINUOUS
 62
     1
 10
1307.2
 20
627.5
 30
0.0
 11
1332.9
 21
627.5
 31
0.0
  0
LINE
  8
0
  6
CONTINUOUS
 62
     2
 10
1212.9
 20
632.5
 30
0.0
 11
1212.9
 21
749.5
 31
0.0
  0
LINE
  8
0
  6
CONTINUOUS
 62
     2
 10
1212.9
 20
744.5
 30
0.0
 11
1222.559258263
 21
741.911809549
 31
0.0
  0
LINE
  8
0
  6
CONTINUOUS
 62
     2
 10
1212.9
 20
744.5
 30
0.0
 11
1222.559258263
 21
747.088190451
 31
0.0
  0
LINE
  8
0
  6
CONTINUOUS
 62
     2
 10
1212.9
 20
744.5
 30
0.0
 11
1332.9
 21
744.5
 31
0.0
  0
LINE
  8
0
  6
CONTINUOUS
 62
     2
 10
1332.9
 20
744.5
 30
0.0
 11
1323.240741737
 21
747.088190451
 31
0.0
  0
LINE
  8
0
  6
CONTINUOUS
 62
     2
 10
1332.9
 20
744.5
 30
0.0
 11
1323.240741737
 21
741.911809549
 31
0.0
  0
CIRCLE
  8
0
  6
CONTINUOUS
 62
     1
 10
1234.009127035
 20
568.609127035
 30
0.0
 40
5.0
  0
LINE
  8
0
  6
LTYPE3
 62
     2
 10
1240.709127035
 20
575.309127035
 30
0.0
 11
1227.609127035
 21
562.209127035
 31
0.0
  0
ARC
  8
0
  6
LTYPE3
 62
     2
 10
1272.9
 20
607.5
 30
0.0
 40
55.0
 50
215.426162153
 51
235.849015515
  0
CIRCLE
  8
0
  6
CONTINUOUS
 62
     1
 10
1311.790872965
 20
646.390872965
 30
0.0
 40
5.0
  0
LINE
  8
0
  6
LTYPE3
 62
     2
 10
1305.090872965
 20
639.690872965
 30
0.0
 11
1318.190872965
 21
652.790872965
 31
0.0
  0
ARC
  8
0
  6
LTYPE3
 62
     2
 10
1272.9
 20
607.5
 30
0.0
 40
55.0
 50
35.426162153
 51
55.849015515
  0
CIRCLE
  8
0
  6
CONTINUOUS
 62
     1
 10
1311.790872965
 20
568.609127035
 30
0.0
 40
5.0
  0
LINE
  8
0
  6
LTYPE3
 62
     2
 10
1305.090872965
 20
575.309127035
 30
0.0
 11
1318.190872965
 21
562.209127035
 31
0.0
  0
ARC
  8
0
  6
LTYPE3
 62
     2
 10
1272.9
 20
607.5
 30
0.0
 40
55.0
 50
304.150984485
 51
324.573837847
  0
LINE
  8
0
  6
CONTINUOUS
 62
     2
 10
1147.45
 20
676.5
 30
0.0
 11
1135.375927171
 21
679.735238064
 31
0.0
  0
LINE
  8
0
  6
CONTINUOUS
 62
     2
 10
1147.45
 20
676.5
 30
0.0
 11
1135.375927171
 21
673.264761936
 31
0.0
  0
LINE
  8
0
  6
CONTINUOUS
 62
     2
 10
1147.45
 20
676.5
 30
0.0
 11
1106.45
 21
676.5
 31
0.0
  0
TEXT
  8
0
  6
CONTINUOUS
 62
     3
 10
1113.45
 20
686.5
 30
0.0
 40
20.0
  1
前進
 50
0.0
 41
0.925
 51
0.0
  7
KANJI31
  0
LINE
  8
0
  6
CONTINUOUS
 62
     2
 10
481.0
 20
212.0
 30
0.0
 11
488.72740661
 21
209.929447639
 31
0.0
  0
LINE
  8
0
  6
CONTINUOUS
 62
     2
 10
481.0
 20
212.0
 30
0.0
 11
488.72740661
 21
214.070552361
 31
0.0
  0
LINE
  8
0
  6
CONTINUOUS
 62
     2
 10
481.0
 20
212.0
 30
0.0
 11
618.6
 21
212.0
 31
0.0
  0
LINE
  8
0
  6
CONTINUOUS
 62
     2
 10
618.6
 20
212.0
 30
0.0
 11
610.87259339
 21
214.070552361
 31
0.0
  0
LINE
  8
0
  6
CONTINUOUS
 62
     2
 10
618.6
 20
212.0
 30
0.0
 11
610.87259339
 21
209.929447639
 31
0.0
  0
LINE
  8
0
  6
CONTINUOUS
 62
     2
 10
618.6
 20
210.8
 30
0.0
 11
618.6
 21
208.0
 31
0.0
  0
LINE
  8
0
  6
CONTINUOUS
 62
     2
 10
618.6
 20
212.0
 30
0.0
 11
626.32740661
 21
209.929447639
 31
0.0
  0
LINE
  8
0
  6
CONTINUOUS
 62
     2
 10
618.6
 20
212.0
 30
0.0
 11
626.32740661
 21
214.070552361
 31
0.0
  0
LINE
  8
0
  6
CONTINUOUS
 62
     2
 10
618.6
 20
212.0
 30
0.0
 11
821.0
 21
212.0
 31
0.0
  0
LINE
  8
0
  6
CONTINUOUS
 62
     2
 10
821.0
 20
212.0
 30
0.0
 11
813.27259339
 21
214.070552361
 31
0.0
  0
LINE
  8
0
  6
CONTINUOUS
 62
     2
 10
821.0
 20
212.0
 30
0.0
 11
813.27259339
 21
209.929447639
 31
0.0
  0
LINE
  8
0
  6
CONTINUOUS
 62
     2
 10
618.6
 20
185.670552361
 30
0.0
 11
610.87259339
 21
187.741104722
 31
0.0
  0
LINE
  8
0
  6
CONTINUOUS
 62
     2
 10
618.6
 20
185.670552361
 30
0.0
 11
610.87259339
 21
183.6
 31
0.0
  0
LINE
  8
0
  6
CONTINUOUS
 62
     2
 10
606.6
 20
185.670552361
 30
0.0
 11
618.6
 21
185.670552361
 31
0.0
  0
LINE
  8
0
  6
CONTINUOUS
 62
     2
 10
618.6
 20
185.670552361
 30
0.0
 11
639.4
 21
185.670552361
 31
0.0
  0
LINE
  8
0
  6
CONTINUOUS
 62
     2
 10
639.4
 20
185.670552361
 30
0.0
 11
647.12740661
 21
183.6
 31
0.0
  0
LINE
  8
0
  6
CONTINUOUS
 62
     2
 10
639.4
 20
185.670552361
 30
0.0
 11
647.12740661
 21
187.741104722
 31
0.0
  0
LINE
  8
0
  6
CONTINUOUS
 62
     2
 10
481.0
 20
160.4
 30
0.0
 11
481.0
 21
154.4
 31
0.0
  0
LINE
  8
0
  6
CONTINUOUS
 62
     2
 10
481.0
 20
158.4
 30
0.0
 11
488.72740661
 21
156.329447639
 31
0.0
  0
LINE
  8
0
  6
CONTINUOUS
 62
     2
 10
481.0
 20
158.4
 30
0.0
 11
488.72740661
 21
160.470552361
 31
0.0
  0
LINE
  8
0
  6
CONTINUOUS
 62
     2
 10
481.0
 20
158.4
 30
0.0
 11
639.4
 21
158.4
 31
0.0
  0
LINE
  8
0
  6
CONTINUOUS
 62
     2
 10
639.4
 20
158.4
 30
0.0
 11
631.67259339
 21
160.470552361
 31
0.0
  0
LINE
  8
0
  6
CONTINUOUS
 62
     2
 10
639.4
 20
158.4
 30
0.0
 11
631.67259339
 21
156.329447639
 31
0.0
  0
LINE
  8
0
  6
CONTINUOUS
 62
     2
 10
639.4
 20
159.6
 30
0.0
 11
639.4
 21
154.4
 31
0.0
  0
LINE
  8
0
  6
CONTINUOUS
 62
     2
 10
639.4
 20
158.4
 30
0.0
 11
647.12740661
 21
156.329447639
 31
0.0
  0
LINE
  8
0
  6
CONTINUOUS
 62
     2
 10
639.4
 20
158.4
 30
0.0
 11
647.12740661
 21
160.470552361
 31
0.0
  0
LINE
  8
0
  6
CONTINUOUS
 62
     2
 10
821.0
 20
154.8
 30
0.0
 11
821.0
 21
154.4
 31
0.0
  0
LINE
  8
0
  6
CONTINUOUS
 62
     2
 10
481.0
 20
129.2
 30
0.0
 11
488.72740661
 21
127.129447639
 31
0.0
  0
LINE
  8
0
  6
CONTINUOUS
 62
     2
 10
481.0
 20
129.2
 30
0.0
 11
488.72740661
 21
131.270552361
 31
0.0
  0
LINE
  8
0
  6
CONTINUOUS
 62
     2
 10
481.0
 20
129.2
 30
0.0
 11
798.6
 21
129.2
 31
0.0
  0
LINE
  8
0
  6
CONTINUOUS
 62
     2
 10
798.6
 20
129.2
 30
0.0
 11
790.87259339
 21
131.270552361
 31
0.0
  0
LINE
  8
0
  6
CONTINUOUS
 62
     2
 10
798.6
 20
129.2
 30
0.0
 11
790.87259339
 21
127.129447639
 31
0.0
  0
LINE
  8
0
  6
CONTINUOUS
 62
     2
 10
798.6
 20
130.0
 30
0.0
 11
798.6
 21
125.2
 31
0.0
  0
LINE
  8
0
  6
CONTINUOUS
 62
     2
 10
798.6
 20
129.2
 30
0.0
 11
790.87259339
 21
131.270552361
 31
0.0
  0
LINE
  8
0
  6
CONTINUOUS
 62
     2
 10
798.6
 20
129.2
 30
0.0
 11
790.87259339
 21
127.129447639
 31
0.0
  0
LINE
  8
0
  6
CONTINUOUS
 62
     2
 10
786.6
 20
129.2
 30
0.0
 11
798.6
 21
129.2
 31
0.0
  0
LINE
  8
0
  6
CONTINUOUS
 62
     2
 10
798.6
 20
129.2
 30
0.0
 11
821.0
 21
129.2
 31
0.0
  0
LINE
  8
0
  6
CONTINUOUS
 62
     2
 10
821.0
 20
129.2
 30
0.0
 11
828.72740661
 21
127.129447639
 31
0.0
  0
LINE
  8
0
  6
CONTINUOUS
 62
     2
 10
821.0
 20
129.2
 30
0.0
 11
828.72740661
 21
131.270552361
 31
0.0
  0
LINE
  8
0
  6
CONTINUOUS
 62
     2
 10
481.0
 20
222.8
 30
0.0
 11
481.0
 21
208.0
 31
0.0
  0
LINE
  8
0
  6
CONTINUOUS
 62
     2
 10
821.0
 20
222.8
 30
0.0
 11
821.0
 21
208.0
 31
0.0
  0
LINE
  8
0
  6
CONTINUOUS
 62
     2
 10
618.6
 20
211.6
 30
0.0
 11
618.6
 21
222.8
 31
0.0
  0
LINE
  8
0
  6
CONTINUOUS
 62
     2
 10
639.4
 20
198.470552361
 30
0.0
 11
639.4
 21
181.670552361
 31
0.0
  0
LINE
  8
0
  6
CONTINUOUS
 62
     2
 10
481.0
 20
208.0
 30
0.0
 11
481.0
 21
116.0
 31
0.0
  0
LINE
  8
0
  6
CONTINUOUS
 62
     2
 10
821.0
 20
212.0
 30
0.0
 11
821.0
 21
117.2
 31
0.0
  0
LINE
  8
0
  6
CONTINUOUS
 62
     2
 10
639.4
 20
185.670552361
 30
0.0
 11
639.4
 21
149.2
 31
0.0
  0
LINE
  8
0
  6
CONTINUOUS
 62
     2
 10
618.6
 20
212.0
 30
0.0
 11
618.6
 21
176.4
 31
0.0
  0
TEXT
  8
0
  6
CONTINUOUS
 62
     3
 10
522.8
 20
214.0
 30
0.0
 40
15.0
  1
ｍｉｎ．Ｌ
 50
0.0
 41
0.9
 51
0.0
  7
KANJI24
  0
TEXT
  8
0
  6
CONTINUOUS
 62
     3
 10
676.6
 20
214.0
 30
0.0
 40
15.0
  1
機械的ストローク
 50
0.0
 41
0.9
 51
0.0
  7
KANJI24
  0
TEXT
  8
0
  6
CONTINUOUS
 62
     3
 10
651.4
 20
187.670552361
 30
0.0
 40
15.0
  1
余裕
 50
0.0
 41
0.9
 51
0.0
  7
KANJI24
  0
TEXT
  8
0
  6
CONTINUOUS
 62
     3
 10
533.2
 20
160.4
 30
0.0
 40
15.0
  1
常用ｍｉｎ
 50
0.0
 41
0.9
 51
0.0
  7
KANJI24
  0
TEXT
  8
0
  6
CONTINUOUS
 62
     3
 10
612.8
 20
131.2
 30
0.0
 40
15.0
  1
常用ｍａｘ
 50
0.0
 41
0.9
 51
0.0
  7
KANJI24
  0
TEXT
  8
0
  6
CONTINUOUS
 62
     3
 10
833.0
 20
131.2
 30
0.0
 40
15.0
  1
余裕
 50
0.0
 41
0.9
 51
0.0
  7
KANJI24
  0
LINE
  8
0
  6
CONTINUOUS
 62
     2
 10
639.4
 20
185.670552361
 30
0.0
 11
679.5
 21
185.670552361
 31
0.0
  0
LINE
  8
0
  6
CONTINUOUS
 62
     2
 10
821.0
 20
129.2
 30
0.0
 11
863.5
 21
129.2
 31
0.0
  0
TEXT
  8
0
  6
CONTINUOUS
 62
     3
 10
1203.65
 20
752.5
 30
0.0
 40
15.0
  1
１２０（トラニオン幅）
 50
0.0
 41
0.9
 51
0.0
  7
KANJI24
  0
LINE
  8
0
  6
CONTINUOUS
 62
     1
 10
853.25
 20
991.95
 30
0.0
 11
1501.25
 21
991.95
 31
0.0
  0
LINE
  8
0
  6
CONTINUOUS
 62
     1
 10
853.25
 20
1243.95
 30
0.0
 11
853.25
 21
991.95
 31
0.0
  0
LINE
  8
0
  6
CONTINUOUS
 62
     1
 10
1021.25
 20
1243.95
 30
0.0
 11
1021.25
 21
991.95
 31
0.0
  0
LINE
  8
0
  6
CONTINUOUS
 62
     2
 10
1101.25
 20
1243.95
 30
0.0
 11
1101.25
 21
991.95
 31
0.0
  0
LINE
  8
0
  6
CONTINUOUS
 62
     2
 10
1181.25
 20
1243.95
 30
0.0
 11
1181.25
 21
991.95
 31
0.0
  0
LINE
  8
0
  6
CONTINUOUS
 62
     2
 10
1261.25
 20
1243.95
 30
0.0
 11
1261.25
 21
991.95
 31
0.0
  0
LINE
  8
0
  6
CONTINUOUS
 62
     2
 10
1341.25
 20
1243.95
 30
0.0
 11
1341.25
 21
991.95
 31
0.0
  0
LINE
  8
0
  6
CONTINUOUS
 62
     2
 10
1421.25
 20
1243.95
 30
0.0
 11
1421.25
 21
991.95
 31
0.0
  0
LINE
  8
0
  6
CONTINUOUS
 62
     1
 10
1501.25
 20
1243.95
 30
0.0
 11
1501.25
 21
991.95
 31
0.0
  0
TEXT
  8
0
  6
CONTINUOUS
 62
     2
 10
866.25
 20
998.35
 30
0.8
 40
12.0
  1
ＭＣＳＤＢＢ０３－　　　
 50
0.0
 41
0.833333333
 51
0.0
  7
KANJI26
  0
LINE
  8
0
  6
CONTINUOUS
 62
     1
 10
1028.1
 20
352.0
 30
0.0
 11
1028.1
 21
360.0
 31
0.0
  0
LINE
  8
0
  6
CONTINUOUS
 62
     1
 10
1011.1
 20
360.0
 30
0.0
 11
1011.1
 21
352.0
 31
0.0
  0
LINE
  8
0
  6
CONTINUOUS
 62
     1
 10
1011.1
 20
352.0
 30
0.0
 11
1054.1
 21
352.0
 31
0.0
  0
LINE
  8
0
  6
CONTINUOUS
 62
     1
 10
1028.1
 20
368.0
 30
0.0
 11
1028.1
 21
360.0
 31
0.0
  0
LINE
  8
0
  6
CONTINUOUS
 62
     1
 10
1011.1
 20
360.0
 30
0.0
 11
1011.1
 21
368.0
 31
0.0
  0
LINE
  8
0
  6
CONTINUOUS
 62
     1
 10
1011.1
 20
368.0
 30
0.0
 11
1054.1
 21
368.0
 31
0.0
  0
LINE
  8
0
  6
LTYPE3
 62
     2
 10
924.1
 20
360.0
 30
0.0
 11
1065.0
 21
360.0
 31
0.0
  0
LINE
  8
0
  6
CONTINUOUS
 62
     2
 10
1028.1
 20
418.1
 30
0.0
 11
1018.440741737
 21
420.688190451
 31
0.0
  0
LINE
  8
0
  6
CONTINUOUS
 62
     2
 10
1028.1
 20
418.1
 30
0.0
 11
1018.440741737
 21
415.511809549
 31
0.0
  0
LINE
  8
0
  6
CONTINUOUS
 62
     2
 10
1008.1
 20
418.1
 30
0.0
 11
1100.1
 21
418.1
 31
0.0
  0
LINE
  8
0
  6
CONTINUOUS
 62
     2
 10
1028.1
 20
391.0
 30
0.0
 11
1028.1
 21
423.2
 31
0.0
  0
LINE
  8
0
  6
CONTINUOUS
 62
     2
 10
1036.1
 20
430.85
 30
0.0
 11
1026.440741737
 21
433.438190451
 31
0.0
  0
LINE
  8
0
  6
CONTINUOUS
 62
     2
 10
1036.1
 20
430.85
 30
0.0
 11
1026.440741737
 21
428.261809549
 31
0.0
  0
LINE
  8
0
  6
CONTINUOUS
 62
     2
 10
1036.1
 20
430.85
 30
0.0
 11
1011.1
 21
430.85
 31
0.0
  0
LINE
  8
0
  6
CONTINUOUS
 62
     2
 10
1011.1
 20
430.85
 30
0.0
 11
1020.759258263
 21
428.261809549
 31
0.0
  0
LINE
  8
0
  6
CONTINUOUS
 62
     2
 10
1011.1
 20
430.85
 30
0.0
 11
1020.759258263
 21
433.438190451
 31
0.0
  0
LINE
  8
0
  6
CONTINUOUS
 62
     2
 10
1011.1
 20
367.85
 30
0.0
 11
1011.1
 21
437.95
 31
0.0
  0
LINE
  8
0
  6
CONTINUOUS
 62
     1
 10
1001.1
 20
380.0
 30
0.0
 11
1054.1
 21
380.0
 31
0.0
  0
LINE
  8
0
  6
CONTINUOUS
 62
     1
 10
1001.1
 20
340.0
 30
0.0
 11
1001.1
 21
380.0
 31
0.0
  0
LINE
  8
0
  6
CONTINUOUS
 62
     1
 10
1001.1
 20
340.0
 30
0.0
 11
1054.1
 21
340.0
 31
0.0
  0
TEXT
  8
0
  6
CONTINUOUS
 62
     2
 10
1011.8
 20
434.85
 30
0.0
 40
15.0
  1
２５
 50
0.0
 41
0.9
 51
0.0
  7
KANJI24
  0
LINE
  8
0
  6
CONTINUOUS
 62
     1
 10
1044.1
 20
360.0
 30
0.0
 11
1044.1
 21
352.0
 31
0.0
  0
LINE
  8
0
  6
CONTINUOUS
 62
     1
 10
1054.1
 20
352.0
 30
0.0
 11
1054.1
 21
340.0
 31
0.0
  0
LINE
  8
0
  6
CONTINUOUS
 62
     1
 10
1044.1
 20
360.0
 30
0.0
 11
1044.1
 21
368.0
 31
0.0
  0
LINE
  8
0
  6
CONTINUOUS
 62
     1
 10
1054.1
 20
368.0
 30
0.0
 11
1054.1
 21
380.0
 31
0.0
  0
LINE
  8
0
  6
CONTINUOUS
 62
     2
 10
1054.1
 20
368.0
 30
0.0
 11
1099.833854631
 21
368.0
 31
0.0
  0
LINE
  8
0
  6
CONTINUOUS
 62
     2
 10
1091.833854631
 20
368.0
 30
0.0
 11
1089.24566418
 21
358.340741737
 31
0.0
  0
LINE
  8
0
  6
CONTINUOUS
 62
     2
 10
1091.833854631
 20
368.0
 30
0.0
 11
1094.422045082
 21
358.340741737
 31
0.0
  0
LINE
  8
0
  6
CONTINUOUS
 62
     2
 10
1091.933854631
 20
368.0
 30
0.0
 11
1089.34566418
 21
358.340741737
 31
0.0
  0
LINE
  8
0
  6
CONTINUOUS
 62
     2
 10
1091.933854631
 20
368.0
 30
0.0
 11
1094.522045082
 21
358.340741737
 31
0.0
  0
LINE
  8
0
  6
CONTINUOUS
 62
     2
 10
1054.1
 20
380.0
 30
0.0
 11
1099.933854631
 21
380.0
 31
0.0
  0
LINE
  8
0
  6
CONTINUOUS
 62
     2
 10
1138.3
 20
340.0
 30
0.0
 11
1140.888190451
 21
349.659258263
 31
0.0
  0
LINE
  8
0
  6
CONTINUOUS
 62
     2
 10
1138.3
 20
340.0
 30
0.0
 11
1135.711809549
 21
349.659258263
 31
0.0
  0
LINE
  8
0
  6
CONTINUOUS
 62
     2
 10
1138.3
 20
340.0
 30
0.0
 11
1138.3
 21
380.0
 31
0.0
  0
LINE
  8
0
  6
CONTINUOUS
 62
     2
 10
1138.3
 20
380.0
 30
0.0
 11
1135.711809549
 21
370.340741737
 31
0.0
  0
LINE
  8
0
  6
CONTINUOUS
 62
     2
 10
1138.3
 20
380.0
 30
0.0
 11
1140.888190451
 21
370.340741737
 31
0.0
  0
LINE
  8
0
  6
CONTINUOUS
 62
     2
 10
1099.933854631
 20
380.0
 30
0.0
 11
1145.1
 21
380.0
 31
0.0
  0
LINE
  8
0
  6
CONTINUOUS
 62
     2
 10
1091.933854631
 20
380.0
 30
0.0
 11
1094.522045082
 21
389.659258263
 31
0.0
  0
LINE
  8
0
  6
CONTINUOUS
 62
     2
 10
1091.933854631
 20
380.0
 30
0.0
 11
1089.34566418
 21
389.659258263
 31
0.0
  0
LINE
  8
0
  6
CONTINUOUS
 62
     2
 10
1091.833854631
 20
368.0
 30
0.0
 11
1091.833854631
 21
352.0
 31
0.0
  0
LINE
  8
0
  6
CONTINUOUS
 62
     2
 10
1091.833854631
 20
352.0
 30
0.0
 11
1094.422045082
 21
361.659258263
 31
0.0
  0
LINE
  8
0
  6
CONTINUOUS
 62
     2
 10
1091.833854631
 20
352.0
 30
0.0
 11
1089.24566418
 21
361.659258263
 31
0.0
  0
LINE
  8
0
  6
CONTINUOUS
 62
     2
 10
1054.1
 20
352.0
 30
0.0
 11
1099.833854631
 21
352.0
 31
0.0
  0
LINE
  8
0
  6
CONTINUOUS
 62
     2
 10
1091.933854631
 20
372.0
 30
0.0
 11
1091.933854631
 21
296.4
 31
0.0
  0
LINE
  8
0
  6
CONTINUOUS
 62
     2
 10
1091.933854631
 20
340.0
 30
0.0
 11
1094.522045082
 21
330.340741737
 31
0.0
  0
LINE
  8
0
  6
CONTINUOUS
 62
     2
 10
1091.933854631
 20
340.0
 30
0.0
 11
1089.34566418
 21
330.340741737
 31
0.0
  0
LINE
  8
0
  6
CONTINUOUS
 62
     2
 10
1054.1
 20
340.0
 30
0.0
 11
1099.933854631
 21
340.0
 31
0.0
  0
LINE
  8
0
  6
CONTINUOUS
 62
     2
 10
1099.933854631
 20
340.0
 30
0.0
 11
1146.1
 21
340.0
 31
0.0
  0
LINE
  8
0
  6
CONTINUOUS
 62
     2
 10
1091.933854631
 20
348.0
 30
0.0
 11
1091.933854631
 21
409.2
 31
0.0
  0
LINE
  8
0
  6
CONTINUOUS
 62
     2
 10
1044.1
 20
418.1
 30
0.0
 11
1053.759258263
 21
415.511809549
 31
0.0
  0
LINE
  8
0
  6
CONTINUOUS
 62
     2
 10
1044.1
 20
418.1
 30
0.0
 11
1053.759258263
 21
420.688190451
 31
0.0
  0
LINE
  8
0
  6
CONTINUOUS
 62
     2
 10
1044.1
 20
391.0
 30
0.0
 11
1044.1
 21
424.2
 31
0.0
  0
TEXT
  8
0
  6
CONTINUOUS
 62
     2
 10
1091.85
 20
430.76
 30
0.84
 40
8.4
  1
Ｈ１０
 50
0.0
 41
0.9
 51
0.0
  7
KANJI40
  0
TEXT
  8
0
  6
CONTINUOUS
 62
     2
 10
1091.85
 20
422.36
 30
0.84
 40
8.4
  1
ｈ９
 50
0.0
 41
0.9
 51
0.0
  7
KANJI40
  0
TEXT
  8
0
  6
CONTINUOUS
 62
     2
 10
1053.1
 20
423.1
 30
0.0
 40
15.0
  1
φ１６
 50
0.0
 41
0.9
 51
0.0
  7
KANJI24
  0
TEXT
  8
0
  6
CONTINUOUS
 62
     2
 10
1087.433854631
 20
387.5
 30
0.0
 40
15.0
  1
１２
 50
90.0
 41
0.9
 51
0.0
  7
KANJI24
  0
TEXT
  8
0
  6
CONTINUOUS
 62
     2
 10
1087.933854631
 20
308.5
 30
0.0
 40
15.0
  1
１２
 50
90.0
 41
0.9
 51
0.0
  7
KANJI24
  0
TEXT
  8
0
  6
CONTINUOUS
 62
     2
 10
1115.833854631
 20
347.2
 30
0.0
 40
15.0
  1
１６
 50
90.0
 41
0.9
 51
0.0
  7
KANJI24
  0
TEXT
  8
0
  6
CONTINUOUS
 62
     2
 10
1134.3
 20
348.2
 30
0.0
 40
15.0
  1
４０
 50
90.0
 41
0.9
 51
0.0
  7
KANJI24
  0
CIRCLE
  8
0
  6
CONTINUOUS
 62
     1
 10
1272.9
 20
607.5
 30
0.0
 40
32.0
  0
LINE
  8
0
  6
CONTINUOUS
 62
     1
 10
1249.9
 20
592.5
 30
0.0
 11
1249.9
 21
622.5
 31
0.0
  0
LINE
  8
0
  6
CONTINUOUS
 62
     1
 10
1252.9
 20
622.5
 30
0.0
 11
1249.9
 21
622.5
 31
0.0
  0
LINE
  8
0
  6
LTYPE2
 62
     2
 10
1247.25
 20
603.1
 30
0.0
 11
1247.25
 21
611.5
 31
0.0
  0
LINE
  8
0
  6
CONTINUOUS
 62
     1
 10
1241.9
 20
615.5
 30
0.0
 11
1249.9
 21
615.5
 31
0.0
  0
LINE
  8
0
  6
LTYPE1
 62
     2
 10
1264.9
 20
615.5
 30
0.0
 11
1249.9
 21
615.5
 31
0.0
  0
LINE
  8
0
  6
CONTINUOUS
 62
     1
 10
1241.9
 20
615.5
 30
0.0
 11
1241.9
 21
599.5
 31
0.0
  0
CIRCLE
  8
0
  6
CONTINUOUS
 62
     1
 10
1247.25
 20
607.5
 30
0.0
 40
2.0
  0
LINE
  8
0
  6
CONTINUOUS
 62
     1
 10
1252.9
 20
592.5
 30
0.0
 11
1249.9
 21
592.5
 31
0.0
  0
LINE
  8
0
  6
CONTINUOUS
 62
     1
 10
1241.9
 20
599.5
 30
0.0
 11
1249.9
 21
599.5
 31
0.0
  0
LINE
  8
0
  6
LTYPE1
 62
     2
 10
1264.9
 20
599.5
 30
0.0
 11
1249.9
 21
599.5
 31
0.0
  0
LINE
  8
0
  6
CONTINUOUS
 62
     1
 10
1303.9
 20
615.5
 30
0.0
 11
1303.9
 21
599.5
 31
0.0
  0
LINE
  8
0
  6
CONTINUOUS
 62
     1
 10
1295.9
 20
622.5
 30
0.0
 11
1295.9
 21
592.5
 31
0.0
  0
LINE
  8
0
  6
CONTINUOUS
 62
     1
 10
1292.9
 20
592.5
 30
0.0
 11
1295.9
 21
592.5
 31
0.0
  0
LINE
  8
0
  6
LTYPE2
 62
     2
 10
1298.55
 20
611.9
 30
0.0
 11
1298.55
 21
603.5
 31
0.0
  0
CIRCLE
  8
0
  6
CONTINUOUS
 62
     1
 10
1298.55
 20
607.5
 30
0.0
 40
2.0
  0
LINE
  8
0
  6
CONTINUOUS
 62
     1
 10
1303.9
 20
599.5
 30
0.0
 11
1295.9
 21
599.5
 31
0.0
  0
LINE
  8
0
  6
LTYPE1
 62
     2
 10
1280.9
 20
599.5
 30
0.0
 11
1295.9
 21
599.5
 31
0.0
  0
LINE
  8
0
  6
CONTINUOUS
 62
     1
 10
1303.9
 20
615.5
 30
0.0
 11
1295.9
 21
615.5
 31
0.0
  0
LINE
  8
0
  6
CONTINUOUS
 62
     1
 10
1292.9
 20
622.5
 30
0.0
 11
1295.9
 21
622.5
 31
0.0
  0
LINE
  8
0
  6
LTYPE1
 62
     2
 10
1280.9
 20
615.5
 30
0.0
 11
1295.9
 21
615.5
 31
0.0
  0
LINE
  8
0
  6
CONTINUOUS
 62
     1
 10
1044.1
 20
391.0
 30
0.0
 11
1028.1
 21
391.0
 31
0.0
  0
LINE
  8
0
  6
CONTINUOUS
 62
     1
 10
1021.1
 20
383.0
 30
0.0
 11
1051.1
 21
383.0
 31
0.0
  0
LINE
  8
0
  6
LTYPE2
 62
     2
 10
1031.7
 20
385.65
 30
0.0
 11
1040.1
 21
385.65
 31
0.0
  0
CIRCLE
  8
0
  6
CONTINUOUS
 62
     1
 10
1036.1
 20
385.65
 30
0.0
 40
2.0
  0
LINE
  8
0
  6
CONTINUOUS
 62
     1
 10
1021.1
 20
380.0
 30
0.0
 11
1021.1
 21
383.0
 31
0.0
  0
LINE
  8
0
  6
CONTINUOUS
 62
     1
 10
1028.1
 20
391.0
 30
0.0
 11
1028.1
 21
383.0
 31
0.0
  0
LINE
  8
0
  6
LTYPE1
 62
     2
 10
1028.1
 20
383.0
 30
0.0
 11
1028.1
 21
368.0
 31
0.0
  0
LINE
  8
0
  6
CONTINUOUS
 62
     1
 10
1051.1
 20
380.0
 30
0.0
 11
1051.1
 21
383.0
 31
0.0
  0
LINE
  8
0
  6
CONTINUOUS
 62
     1
 10
1044.1
 20
383.0
 30
0.0
 11
1044.1
 21
391.0
 31
0.0
  0
LINE
  8
0
  6
LTYPE1
 62
     2
 10
1044.1
 20
368.0
 30
0.0
 11
1044.1
 21
383.0
 31
0.0
  0
LINE
  8
0
  6
CONTINUOUS
 62
     1
 10
1044.1
 20
329.0
 30
0.0
 11
1028.1
 21
329.0
 31
0.0
  0
LINE
  8
0
  6
CONTINUOUS
 62
     1
 10
1044.1
 20
329.0
 30
0.0
 11
1028.1
 21
329.0
 31
0.0
  0
LINE
  8
0
  6
CONTINUOUS
 62
     1
 10
1021.1
 20
337.0
 30
0.0
 11
1051.1
 21
337.0
 31
0.0
  0
LINE
  8
0
  6
CONTINUOUS
 62
     1
 10
1021.1
 20
340.0
 30
0.0
 11
1021.1
 21
337.0
 31
0.0
  0
LINE
  8
0
  6
CONTINUOUS
 62
     1
 10
1028.1
 20
329.0
 30
0.0
 11
1028.1
 21
337.0
 31
0.0
  0
LINE
  8
0
  6
LTYPE2
 62
     2
 10
1031.7
 20
334.35
 30
0.0
 11
1040.1
 21
334.35
 31
0.0
  0
LINE
  8
0
  6
CONTINUOUS
 62
     1
 10
1028.1
 20
329.0
 30
0.0
 11
1028.1
 21
337.0
 31
0.0
  0
LINE
  8
0
  6
LTYPE1
 62
     2
 10
1028.1
 20
337.0
 30
0.0
 11
1028.1
 21
352.0
 31
0.0
  0
LINE
  8
0
  6
CONTINUOUS
 62
     1
 10
1051.1
 20
340.0
 30
0.0
 11
1051.1
 21
337.0
 31
0.0
  0
LINE
  8
0
  6
CONTINUOUS
 62
     1
 10
1044.1
 20
337.0
 30
0.0
 11
1044.1
 21
329.0
 31
0.0
  0
LINE
  8
0
  6
CONTINUOUS
 62
     1
 10
1044.1
 20
337.0
 30
0.0
 11
1044.1
 21
329.0
 31
0.0
  0
LINE
  8
0
  6
LTYPE1
 62
     2
 10
1044.1
 20
352.0
 30
0.0
 11
1044.1
 21
337.0
 31
0.0
  0
CIRCLE
  8
0
  6
CONTINUOUS
 62
     1
 10
1036.1
 20
334.35
 30
0.0
 40
2.0
  0
LINE
  8
0
  6
CONTINUOUS
 62
     2
 10
798.6
 20
172.0
 30
0.0
 11
798.6
 21
116.4
 31
0.0
  0
LINE
  8
0
  6
CONTINUOUS
 62
     2
 10
639.4
 20
158.4
 30
0.0
 11
798.6
 21
158.4
 31
0.0
  0
LINE
  8
0
  6
CONTINUOUS
 62
     2
 10
798.6
 20
158.4
 30
0.0
 11
790.87259339
 21
160.470552361
 31
0.0
  0
LINE
  8
0
  6
CONTINUOUS
 62
     2
 10
798.6
 20
158.4
 30
0.0
 11
790.87259339
 21
156.329447639
 31
0.0
  0
TEXT
  8
0
  6
CONTINUOUS
 62
     3
 10
676.4
 20
160.4
 30
0.0
 40
15.0
  1
常用ストローク
 50
0.0
 41
0.9
 51
0.0
  7
KANJI24
  0
TEXT
  8
2
  6
CONTINUOUS
 62
     2
 10
218.3
 20
669.3
 30
0.0
 40
15.0
  1
手動軸カバー
 50
0.0
 41
0.9
 51
0.0
  7
KANJI24
  0
TEXT
  8
2
  6
CONTINUOUS
 62
     2
 10
220.8
 20
648.5
 30
0.0
 40
15.0
  1
手動軸□１０
 50
0.0
 41
0.9
 51
0.0
  7
KANJI24
  0
POLYLINE
  8
2
  6
CONTINUOUS
 62
     2
 66
     1
  0
VERTEX
  8
2
  6
CONTINUOUS
 62
     2
 10
322.100004265
 20
570.0
 30
0.0
  0
VERTEX
  8
2
  6
CONTINUOUS
 62
     2
 10
301.797215094
 20
666.3
 30
0.0
  0
VERTEX
  8
2
  6
CONTINUOUS
 62
     2
 10
217.500007629
 20
666.3
 30
0.0
  0
SEQEND
  0
LINE
  8
0
  6
CONTINUOUS
 62
     1
 10
956.1
 20
379.0
 30
0.0
 11
1001.1
 21
379.0
 31
0.0
  0
LINE
  8
0
  6
CONTINUOUS
 62
     1
 10
956.1
 20
341.0
 30
0.0
 11
1001.1
 21
341.0
 31
0.0
  0
LINE
  8
2
  6
CONTINUOUS
 62
     2
 10
1036.1
 20
631.5
 30
0.0
 11
1036.1
 21
818.288190451
 31
0.0
  0
LINE
  8
2
  6
CONTINUOUS
 62
     2
 10
1054.1
 20
631.5
 30
0.0
 11
1054.1
 21
818.288190451
 31
0.0
  0
LINE
  8
2
  6
CONTINUOUS
 62
     2
 10
1001.1
 20
630.7
 30
0.0
 11
1001.1
 21
761.0
 31
0.0
  0
TEXT
  8
0
  6
CONTINUOUS
 62
     2
 10
1607.25
 20
1282.5
 30
138.5
 40
17.5
  1
形式
 50
0.0
 41
0.9
 51
0.0
  7
KANJI41
  0
TEXT
  8
0
  6
CONTINUOUS
 62
     2
 10
1607.25
 20
1247.5
 30
138.5
 40
17.5
  1
推力
 50
0.0
 41
0.9
 51
0.0
  7
KANJI41
  0
TEXT
  8
0
  6
CONTINUOUS
 62
     2
 10
1607.25
 20
1107.5
 30
138.5
 40
17.5
  1
構造
 50
0.0
 41
0.9
 51
0.0
  7
KANJI41
  0
TEXT
  8
0
  6
CONTINUOUS
 62
     2
 10
1607.25
 20
687.5
 30
138.5
 40
17.5
  1
台数
 50
0.0
 41
0.9
 51
0.0
  7
KANJI41
  0
TEXT
  8
0
  6
CONTINUOUS
 62
     2
 10
1607.25
 20
722.5
 30
61.375
 40
17.5
  1
付属品
 50
0.0
 41
0.9
 51
0.0
  7
KANJI42
  0
TEXT
  8
0
  6
CONTINUOUS
 62
     2
 10
1607.25
 20
1037.5
 30
61.375
 40
17.5
  1
塗装色
 50
0.0
 41
0.9
 51
0.0
  7
KANJI42
  0
TEXT
  8
0
  6
CONTINUOUS
 62
     2
 10
1607.25
 20
1212.5
 30
22.8125
 40
17.5
  1
ストローク
 50
0.0
 41
0.9
 51
0.0
  7
KANJI43
  0
TEXT
  8
0
  6
CONTINUOUS
 62
     2
 10
1607.25
 20
1072.5
 30
9.958
 40
17.5
  1
過負荷安全装置
 50
0.0
 41
0.9
 51
0.0
  7
KANJI44
  0
TEXT
  8
0
  6
CONTINUOUS
 62
     2
 10
1632.25
 20
1322.0
 30
14.2497
 40
22.5
  1
マイティシリンダ仕様
 50
0.0
 41
0.9
 51
0.0
  7
KANJI45
  0
TEXT
  8
0
  6
CONTINUOUS
 62
     2
 10
1632.25
 20
1002.5
 30
15.3125
 40
17.5
  1
出力　極数
 50
0.0
 41
0.9
 51
0.0
  7
KANJI46
  0
TEXT
  8
0
  6
CONTINUOUS
 62
     2
 10
1632.25
 20
967.5
 30
25.6665
 40
17.5
  1
電源電圧
 50
0.0
 41
0.9
 51
0.0
  7
KANJI47
  0
TEXT
  8
0
  6
CONTINUOUS
 62
     2
 10
1632.25
 20
932.5
 30
46.375
 40
17.5
  1
周波数
 50
0.0
 41
0.9
 51
0.0
  7
KANJI48
  0
TEXT
  8
0
  6
CONTINUOUS
 62
     2
 10
1632.25
 20
862.5
 30
46.375
 40
17.5
  1
絶縁級
 50
0.0
 41
0.9
 51
0.0
  7
KANJI48
  0
TEXT
  8
0
  6
CONTINUOUS
 62
     2
 10
1632.25
 20
897.5
 30
108.5
 40
17.5
  1
電流
 50
0.0
 41
0.9
 51
0.0
  7
KANJI49
  0
TEXT
  8
0
  6
CONTINUOUS
 62
     2
 10
1632.25
 20
792.5
 30
108.5
 40
17.5
  1
形式
 50
0.0
 41
0.9
 51
0.0
  7
KANJI49
  0
TEXT
  8
0
  6
CONTINUOUS
 62
     2
 10
1632.25
 20
757.5
 30
25.6665
 40
17.5
  1
操作方式
 50
0.0
 41
0.9
 51
0.0
  7
KANJI47
  0
TEXT
  8
0
  6
CONTINUOUS
 62
     2
 10
1592.25
 20
1142.5
 30
1.5
 40
17.5
  1
ピストンロッド回転トルク
 50
0.0
 41
0.9
 51
0.0
  7
KANJI50
  0
TEXT
  8
0
  6
CONTINUOUS
 62
     2
 10
1590.125
 20
1006.0
 30
11.0
 40
17.5
  1
モ　トル仕様
 50
0.0
 41
0.9
 51
0.0
  7
KANJI51
  0
TEXT
  8
0
  6
CONTINUOUS
 62
     2
 10
1589.0
 20
816.0
 30
0.857142857
 40
15.0
  1
ブレ　キ
 50
0.0
 41
0.9
 51
0.0
  7
KANJI52
  0
LINE
  8
0
  6
CONTINUOUS
 62
     2
 10
1588.75
 20
781.5
 30
0.0
 11
1588.75
 21
771.0
 31
0.0
  0
LINE
  8
0
  6
CONTINUOUS
 62
     2
 10
1588.75
 20
978.0
 30
0.0
 11
1588.75
 21
966.5
 31
0.0
  0
TEXT
  8
0
  6
CONTINUOUS
 62
     2
 10
1944.75
 20
1181.0
 30
0.1
 40
12.5
  1
ｍｍ／ｓｅｃ
 50
0.0
 41
0.8
 51
0.0
  7
KANJI53
  0
TEXT
  8
0
  6
CONTINUOUS
 62
     2
 10
1982.25
 20
1214.5
 30
0.1
 40
12.5
  1
ｍｍ
 50
0.0
 41
0.8
 51
0.0
  7
KANJI53
  0
TEXT
  8
0
  6
CONTINUOUS
 62
     2
 10
1989.25
 20
1002.5
 30
10.982142857
 40
15.0
  1
Ｐ
 50
0.0
 41
0.9
 51
0.0
  7
KANJI54
  0
TEXT
  8
0
  6
CONTINUOUS
 62
     2
 10
1906.25
 20
1002.5
 30
1.0
 40
15.0
  1
ＫＷ
 50
0.0
 41
0.857142857
 51
0.0
  7
KANJI55
  0
TEXT
  8
0
  6
CONTINUOUS
 62
     2
 10
1964.25
 20
1002.5
 30
12.8125
 40
17.5
  1
４
 50
0.0
 41
0.9
 51
0.0
  7
KANJI56
  0
TEXT
  8
0
  6
CONTINUOUS
 62
     2
 10
1828.75
 20
1039.0
 30
0.5
 40
14.0
  1
マンセル
 50
0.0
 41
0.9
 51
0.0
  7
KANJI57
  0
TEXT
  8
0
  6
CONTINUOUS
 62
     2
 10
1887.25
 20
1040.0
 30
0.2
 40
14.0
  1
７．５ＧＹ５／４．５
 50
0.0
 41
0.785714286
 51
0.0
  7
KANJI58
  0
TEXT
  8
0
  6
CONTINUOUS
 62
     2
 10
1824.75
 20
793.0
 30
1.5
 40
14.0
  1
スプリング制動式電磁ブレーキ
 50
0.0
 41
0.8
 51
0.0
  7
KANJI59
  0
TEXT
  8
0
  6
CONTINUOUS
 62
     2
 10
1859.75
 20
757.5
 30
10.0
 40
17.5
  1
同時切り
 50
0.0
 41
0.9
 51
0.0
  7
KANJI60
  0
TEXT
  8
0
  6
CONTINUOUS
 62
     2
 10
1989.75
 20
967.5
 30
0.18
 40
15.0
  1
Ｖ
 50
0.0
 41
0.8
 51
0.0
  7
KANJI61
  0
TEXT
  8
0
  6
CONTINUOUS
 62
     2
 10
1980.75
 20
932.5
 30
0.18
 40
15.0
  1
Ｈｚ
 50
0.0
 41
0.8
 51
0.0
  7
KANJI61
  0
TEXT
  8
0
  6
CONTINUOUS
 62
     2
 10
1990.875
 20
898.625
 30
1.5
 40
15.0
  1
Ａ
 50
0.0
 41
0.9
 51
0.0
  7
KANJI62
  0
TEXT
  8
0
  6
CONTINUOUS
 62
     2
 10
1912.125
 20
864.875
 30
1.5
 40
15.0
  1
Ｅ
 50
0.0
 41
0.9
 51
0.0
  7
KANJI62
  0
LINE
  8
0
  6
CONTINUOUS
 62
     2
 10
1569.75
 20
748.5
 30
0.0
 11
2007.25
 21
748.5
 31
0.0
  0
LINE
  8
0
  6
CONTINUOUS
 62
     2
 10
1569.75
 20
1028.5
 30
0.0
 11
2007.25
 21
1028.5
 31
0.0
  0
LINE
  8
0
  6
CONTINUOUS
 62
     2
 10
1569.75
 20
818.5
 30
0.0
 11
2007.25
 21
818.5
 31
0.0
  0
LINE
  8
0
  6
CONTINUOUS
 62
     2
 10
1609.75
 20
783.5
 30
0.0
 11
2007.25
 21
783.5
 31
0.0
  0
LINE
  8
0
  6
CONTINUOUS
 62
     2
 10
1609.75
 20
853.5
 30
0.0
 11
2007.25
 21
853.5
 31
0.0
  0
LINE
  8
0
  6
CONTINUOUS
 62
     2
 10
1609.75
 20
888.5
 30
0.0
 11
2007.25
 21
888.5
 31
0.0
  0
LINE
  8
0
  6
CONTINUOUS
 62
     2
 10
1609.75
 20
958.5
 30
0.0
 11
2007.25
 21
958.5
 31
0.0
  0
LINE
  8
0
  6
CONTINUOUS
 62
     2
 10
1609.75
 20
923.5
 30
0.0
 11
2007.25
 21
923.5
 31
0.0
  0
LINE
  8
0
  6
CONTINUOUS
 62
     2
 10
1609.75
 20
993.5
 30
0.0
 11
2007.25
 21
993.5
 31
0.0
  0
LINE
  8
0
  6
CONTINUOUS
 62
     2
 10
1569.75
 20
1308.5
 30
0.0
 11
2007.25
 21
1308.5
 31
0.0
  0
LINE
  8
0
  6
CONTINUOUS
 62
     2
 10
1569.75
 20
1273.5
 30
0.0
 11
2007.25
 21
1273.5
 31
0.0
  0
LINE
  8
0
  6
CONTINUOUS
 62
     2
 10
1569.75
 20
1238.5
 30
0.0
 11
2007.25
 21
1238.5
 31
0.0
  0
LINE
  8
0
  6
CONTINUOUS
 62
     2
 10
1569.75
 20
1203.5
 30
0.0
 11
2007.25
 21
1203.5
 31
0.0
  0
LINE
  8
0
  6
CONTINUOUS
 62
     2
 10
1569.75
 20
1168.5
 30
0.0
 11
2007.25
 21
1168.5
 31
0.0
  0
LINE
  8
0
  6
CONTINUOUS
 62
     2
 10
1569.75
 20
1133.5
 30
0.0
 11
2007.25
 21
1133.5
 31
0.0
  0
LINE
  8
0
  6
CONTINUOUS
 62
     2
 10
1569.75
 20
1098.5
 30
0.0
 11
2007.25
 21
1098.5
 31
0.0
  0
LINE
  8
0
  6
CONTINUOUS
 62
     2
 10
1569.75
 20
1063.5
 30
0.0
 11
2007.25
 21
1063.5
 31
0.0
  0
LINE
  8
0
  6
CONTINUOUS
 62
     2
 10
1609.75
 20
1028.5
 30
0.0
 11
1609.75
 21
748.5
 31
0.0
  0
LINE
  8
0
  6
CONTINUOUS
 62
     1
 10
1569.75
 20
1358.5
 30
0.0
 11
2007.25
 21
1358.5
 31
0.0
  0
LINE
  8
0
  6
CONTINUOUS
 62
     2
 10
1569.75
 20
713.5
 30
0.0
 11
2007.25
 21
713.5
 31
0.0
  0
TEXT
  8
0
  6
CONTINUOUS
 62
     2
 10
1867.75
 20
968.0
 30
1.5
 40
15.0
  1
　　　／　
 50
0.0
 41
0.9
 51
0.0
  7
KANJI62
  0
TEXT
  8
0
  6
CONTINUOUS
 62
     2
 10
1882.125
 20
932.375
 30
1.5
 40
15.0
  1
　５０／６０
 50
0.0
 41
0.9
 51
0.0
  7
KANJI62
  0
TEXT
  8
0
  6
CONTINUOUS
 62
     2
 10
1848.375
 20
1003.625
 30
1.5
 40
15.0
  1
０．３
 50
0.0
 41
0.9
 51
0.0
  7
KANJI62
  0
TEXT
  8
0
  6
CONTINUOUS
 62
     2
 10
1607.25
 20
1177.5
 30
5.0
 40
17.5
  1
公称速度（５０／６０Ｈｚ）
 50
0.0
 41
0.9
 51
0.0
  7
KANJI63
  0
TEXT
  8
0
  6
CONTINUOUS
 62
     2
 10
1856.75
 20
1108.0
 30
12.8125
 40
17.5
  1
全閉屋内形
 50
0.0
 41
0.9
 51
0.0
  7
KANJI56
  0
TEXT
  8
0
  6
CONTINUOUS
 62
     2
 10
1834.25
 20
1247.5
 30
1.5
 40
15.0
  1
２９４０Ｎ（３００ｋｇ）
 50
0.0
 41
0.9
 51
0.0
  7
KANJI62
  0
TEXT
  8
0
  6
CONTINUOUS
 62
     2
 10
1837.125
 20
1177.375
 30
1.5
 40
15.0
  1
　２５／３０
 50
0.0
 41
0.9
 51
0.0
  7
KANJI62
  0
TEXT
  8
0
  6
CONTINUOUS
 62
     2
 10
1825.75
 20
1281.625
 30
1.0
 40
15.0
  1
ＭＣＳＤＢＢ０３－　
 50
0.0
 41
0.833333333
 51
0.0
  7
KANJI64
  0
LINE
  8
0
  6
CONTINUOUS
 62
     2
 10
1884.0
 20
1078.0
 30
0.0
 11
1916.0
 21
1078.0
 31
0.0
  0
LINE
  8
0
  6
CONTINUOUS
 62
     2
 10
1819.75
 20
1308.5
 30
0.0
 11
1819.75
 21
643.5
 31
0.0
  0
LINE
  8
0
  6
CONTINUOUS
 62
     1
 10
1569.75
 20
1358.5
 30
0.0
 11
1569.75
 21
643.5
 31
0.0
  0
LINE
  8
0
  6
CONTINUOUS
 62
     1
 10
1569.75
 20
643.5
 30
0.0
 11
2007.25
 21
643.5
 31
0.0
  0
TEXT
  8
0
  6
CONTINUOUS
 62
     2
 10
1607.25
 20
652.5
 30
5.0
 40
17.5
  1
概算重量（１台当り）
 50
0.0
 41
0.857142857
 51
0.0
  7
KANJI14
  0
LINE
  8
0
  6
CONTINUOUS
 62
     2
 10
1569.75
 20
678.5
 30
0.0
 11
2007.25
 21
678.5
 31
0.0
  0
TEXT
  8
0
  6
CONTINUOUS
 62
     2
 10
1961.25
 20
653.65
 30
0.0
 40
17.5
  1
ｋｇ
 50
0.0
 41
0.9
 51
0.0
  7
KANJI65
  0
TEXT
  8
0
  6
CONTINUOUS
 62
     2
 10
1827.875
 20
1142.375
 30
0.0
 40
15.0
  1
８．３Ｎ・ｍ（０．８５ｋｇ・ｍ）
 50
0.0
 41
0.766666667
 51
0.0
  7
KANJI66
  0
TEXT
  8
2
  6
CONTINUOUS
 62
     2
 10
678.5
 20
695.3
 30
0.0
 40
15.0
  1
φ１６Ｈ１０深さ２２
 50
0.0
 41
0.9
 51
0.0
  7
KANJI24
  0
LINE
  8
2
  6
CONTINUOUS
 62
     2
 10
678.5
 20
691.3
 30
0.0
 11
810.0
 21
691.3
 31
0.0
  0
TEXT
  8
0
  6
CONTINUOUS
 62
     2
 10
1376.9166945
 20
106.999995
 30
1.5
 40
17.5
  1
０７．１１．０７
 50
0.0
 41
0.571428571
 51
0.0
  7
KANJI67
  0
ENDSEC
  0
EOF
