  0
SECTION
  2
HEADER
  9
$ACADVER
  1
AC1009
  9
$DWGCODEPAGE
  3
dos932
  9
$EXTMIN
 10
0.0
 20
0.0
 30
0.0
  9
$EXTMAX
 10
2100.0
 20
1485.0
 30
0.0
  9
$LIMMIN
 10
0.0
 20
0.0
  9
$LIMMAX
 10
2100.0
 20
1485.0
  9
$LTSCALE
 40
1.0
  9
$PDMODE
 70
     0
  0
ENDSEC
  0
SECTION
  2
TABLES
  0
TABLE
  2
VPORT
 70
     1
  0
VPORT
  2
*ACTIVE
 70
     0
 10
0.0
 20
0.0
 11
1.0
 21
1.0
 12
1050.0
 22
742.5
 13
0.0
 23
0.0
 14
10.0
 24
10.0
 15
10.0
 25
10.0
 16
0.0
 26
0.0
 36
1.0
 17
0.0
 27
0.0
 37
0.0
 40
2100.0
 41
1.414141414
 42
50.0
 43
0.0
 44
0.0
 50
0.0
 51
0.0
 71
     0
 72
  1000
 73
     1
 74
     3
 75
     0
 76
     0
 77
     0
 78
     0
  0
ENDTAB
  0
TABLE
  2
LTYPE
 70
     6
  0
LTYPE
  2
CONTINUOUS
 70
    64
  3
Solid line
 72
    65
 73
     0
 40
0.0
  0
LTYPE
  2
LTYPE1
 70
    64
  3
HIDDEN
 72
    65
 73
     2
 40
15.0
 49
9.0
 49
-6.0
  0
LTYPE
  2
LTYPE2
 70
    64
  3
CENTER
 72
    65
 73
     4
 40
75.0
 49
52.5
 49
-7.5
 49
7.5
 49
-7.5
  0
LTYPE
  2
LTYPE3
 70
    64
  3
CENTER
 72
    65
 73
     4
 40
50.0
 49
35.0
 49
-5.0
 49
5.0
 49
-5.0
  0
LTYPE
  2
LTYPE4
 70
    64
  3
PHANTOM
 72
    65
 73
     6
 40
50.0
 49
37.5
 49
-2.5
 49
2.5
 49
-2.5
 49
2.5
 49
-2.5
  0
LTYPE
  2
LTYPE5
 70
    64
  3
CENTER
 72
    65
 73
     4
 40
100.0
 49
70.0
 49
-10.0
 49
10.0
 49
-10.0
  0
ENDTAB
  0
TABLE
  2
LAYER
 70
   128
  0
LAYER
  2
0
 70
     0
 62
     7
  6
CONTINUOUS
  0
LAYER
  2
2
 70
     0
 62
     7
  6
CONTINUOUS
  0
LAYER
  2
3
 70
     0
 62
     7
  6
CONTINUOUS
  0
LAYER
  2
4
 70
     0
 62
     7
  6
CONTINUOUS
  0
LAYER
  2
5
 70
     0
 62
     7
  6
CONTINUOUS
  0
LAYER
  2
6
 70
     0
 62
     7
  6
CONTINUOUS
  0
LAYER
  2
7
 70
     0
 62
     7
  6
CONTINUOUS
  0
LAYER
  2
8
 70
     0
 62
     7
  6
CONTINUOUS
  0
LAYER
  2
9
 70
     0
 62
     7
  6
CONTINUOUS
  0
LAYER
  2
10
 70
     0
 62
     7
  6
CONTINUOUS
  0
LAYER
  2
11
 70
     0
 62
     7
  6
CONTINUOUS
  0
LAYER
  2
12
 70
     0
 62
     7
  6
CONTINUOUS
  0
LAYER
  2
13
 70
     0
 62
     7
  6
CONTINUOUS
  0
LAYER
  2
14
 70
     0
 62
     7
  6
CONTINUOUS
  0
LAYER
  2
15
 70
     0
 62
     7
  6
CONTINUOUS
  0
LAYER
  2
16
 70
     0
 62
     7
  6
CONTINUOUS
  0
LAYER
  2
17
 70
     0
 62
     7
  6
CONTINUOUS
  0
LAYER
  2
18
 70
     0
 62
     7
  6
CONTINUOUS
  0
LAYER
  2
19
 70
     0
 62
     7
  6
CONTINUOUS
  0
LAYER
  2
20
 70
     0
 62
     7
  6
CONTINUOUS
  0
LAYER
  2
21
 70
     0
 62
     7
  6
CONTINUOUS
  0
LAYER
  2
22
 70
     0
 62
     7
  6
CONTINUOUS
  0
LAYER
  2
23
 70
     0
 62
     7
  6
CONTINUOUS
  0
LAYER
  2
24
 70
     0
 62
     7
  6
CONTINUOUS
  0
LAYER
  2
25
 70
     0
 62
     7
  6
CONTINUOUS
  0
LAYER
  2
26
 70
     0
 62
     7
  6
CONTINUOUS
  0
LAYER
  2
27
 70
     0
 62
     7
  6
CONTINUOUS
  0
LAYER
  2
28
 70
     0
 62
     7
  6
CONTINUOUS
  0
LAYER
  2
29
 70
     0
 62
     7
  6
CONTINUOUS
  0
LAYER
  2
30
 70
     0
 62
     7
  6
CONTINUOUS
  0
LAYER
  2
31
 70
     0
 62
     7
  6
CONTINUOUS
  0
LAYER
  2
32
 70
     0
 62
     7
  6
CONTINUOUS
  0
LAYER
  2
33
 70
     0
 62
     7
  6
CONTINUOUS
  0
LAYER
  2
34
 70
     0
 62
     7
  6
CONTINUOUS
  0
LAYER
  2
35
 70
     0
 62
     7
  6
CONTINUOUS
  0
LAYER
  2
36
 70
     0
 62
     7
  6
CONTINUOUS
  0
LAYER
  2
37
 70
     0
 62
     7
  6
CONTINUOUS
  0
LAYER
  2
38
 70
     0
 62
     7
  6
CONTINUOUS
  0
LAYER
  2
39
 70
     0
 62
     7
  6
CONTINUOUS
  0
LAYER
  2
40
 70
     0
 62
     7
  6
CONTINUOUS
  0
LAYER
  2
41
 70
     0
 62
     7
  6
CONTINUOUS
  0
LAYER
  2
42
 70
     0
 62
     7
  6
CONTINUOUS
  0
LAYER
  2
43
 70
     0
 62
     7
  6
CONTINUOUS
  0
LAYER
  2
44
 70
     0
 62
     7
  6
CONTINUOUS
  0
LAYER
  2
45
 70
     0
 62
     7
  6
CONTINUOUS
  0
LAYER
  2
46
 70
     0
 62
     7
  6
CONTINUOUS
  0
LAYER
  2
47
 70
     0
 62
     7
  6
CONTINUOUS
  0
LAYER
  2
48
 70
     0
 62
     7
  6
CONTINUOUS
  0
LAYER
  2
49
 70
     0
 62
     7
  6
CONTINUOUS
  0
LAYER
  2
50
 70
     0
 62
     7
  6
CONTINUOUS
  0
LAYER
  2
51
 70
     0
 62
     7
  6
CONTINUOUS
  0
LAYER
  2
52
 70
     0
 62
     7
  6
CONTINUOUS
  0
LAYER
  2
53
 70
     0
 62
     7
  6
CONTINUOUS
  0
LAYER
  2
54
 70
     0
 62
     7
  6
CONTINUOUS
  0
LAYER
  2
55
 70
     0
 62
     7
  6
CONTINUOUS
  0
LAYER
  2
56
 70
     0
 62
     7
  6
CONTINUOUS
  0
LAYER
  2
57
 70
     0
 62
     7
  6
CONTINUOUS
  0
LAYER
  2
58
 70
     0
 62
     7
  6
CONTINUOUS
  0
LAYER
  2
59
 70
     0
 62
     7
  6
CONTINUOUS
  0
LAYER
  2
60
 70
     0
 62
     7
  6
CONTINUOUS
  0
LAYER
  2
61
 70
     0
 62
     7
  6
CONTINUOUS
  0
LAYER
  2
62
 70
     0
 62
     7
  6
CONTINUOUS
  0
LAYER
  2
63
 70
     0
 62
     7
  6
CONTINUOUS
  0
LAYER
  2
64
 70
     0
 62
     7
  6
CONTINUOUS
  0
LAYER
  2
65
 70
     0
 62
     7
  6
CONTINUOUS
  0
LAYER
  2
66
 70
     0
 62
     7
  6
CONTINUOUS
  0
LAYER
  2
67
 70
     0
 62
     7
  6
CONTINUOUS
  0
LAYER
  2
68
 70
     0
 62
     7
  6
CONTINUOUS
  0
LAYER
  2
69
 70
     0
 62
     7
  6
CONTINUOUS
  0
LAYER
  2
70
 70
     0
 62
     7
  6
CONTINUOUS
  0
LAYER
  2
71
 70
     0
 62
     7
  6
CONTINUOUS
  0
LAYER
  2
72
 70
     0
 62
     7
  6
CONTINUOUS
  0
LAYER
  2
73
 70
     0
 62
     7
  6
CONTINUOUS
  0
LAYER
  2
74
 70
     0
 62
     7
  6
CONTINUOUS
  0
LAYER
  2
75
 70
     0
 62
     7
  6
CONTINUOUS
  0
LAYER
  2
76
 70
     0
 62
     7
  6
CONTINUOUS
  0
LAYER
  2
77
 70
     0
 62
     7
  6
CONTINUOUS
  0
LAYER
  2
78
 70
     0
 62
     7
  6
CONTINUOUS
  0
LAYER
  2
79
 70
     0
 62
     7
  6
CONTINUOUS
  0
LAYER
  2
80
 70
     0
 62
     7
  6
CONTINUOUS
  0
LAYER
  2
81
 70
     0
 62
     7
  6
CONTINUOUS
  0
LAYER
  2
82
 70
     0
 62
     7
  6
CONTINUOUS
  0
LAYER
  2
83
 70
     0
 62
     7
  6
CONTINUOUS
  0
LAYER
  2
84
 70
     0
 62
     7
  6
CONTINUOUS
  0
LAYER
  2
85
 70
     0
 62
     7
  6
CONTINUOUS
  0
LAYER
  2
86
 70
     0
 62
     7
  6
CONTINUOUS
  0
LAYER
  2
87
 70
     0
 62
     7
  6
CONTINUOUS
  0
LAYER
  2
88
 70
     0
 62
     7
  6
CONTINUOUS
  0
LAYER
  2
89
 70
     0
 62
     7
  6
CONTINUOUS
  0
LAYER
  2
90
 70
     0
 62
     7
  6
CONTINUOUS
  0
LAYER
  2
91
 70
     0
 62
     7
  6
CONTINUOUS
  0
LAYER
  2
92
 70
     0
 62
     7
  6
CONTINUOUS
  0
LAYER
  2
93
 70
     0
 62
     7
  6
CONTINUOUS
  0
LAYER
  2
94
 70
     0
 62
     7
  6
CONTINUOUS
  0
LAYER
  2
95
 70
     0
 62
     7
  6
CONTINUOUS
  0
LAYER
  2
96
 70
     0
 62
     7
  6
CONTINUOUS
  0
LAYER
  2
97
 70
     0
 62
     7
  6
CONTINUOUS
  0
LAYER
  2
98
 70
     0
 62
     7
  6
CONTINUOUS
  0
LAYER
  2
99
 70
     0
 62
     7
  6
CONTINUOUS
  0
LAYER
  2
100
 70
     0
 62
     7
  6
CONTINUOUS
  0
LAYER
  2
101
 70
     0
 62
     7
  6
CONTINUOUS
  0
LAYER
  2
102
 70
     0
 62
     7
  6
CONTINUOUS
  0
LAYER
  2
103
 70
     0
 62
     7
  6
CONTINUOUS
  0
LAYER
  2
104
 70
     0
 62
     7
  6
CONTINUOUS
  0
LAYER
  2
105
 70
     0
 62
     7
  6
CONTINUOUS
  0
LAYER
  2
106
 70
     0
 62
     7
  6
CONTINUOUS
  0
LAYER
  2
107
 70
     0
 62
     7
  6
CONTINUOUS
  0
LAYER
  2
108
 70
     0
 62
     7
  6
CONTINUOUS
  0
LAYER
  2
109
 70
     0
 62
     7
  6
CONTINUOUS
  0
LAYER
  2
110
 70
     0
 62
     7
  6
CONTINUOUS
  0
LAYER
  2
111
 70
     0
 62
     7
  6
CONTINUOUS
  0
LAYER
  2
112
 70
     0
 62
     7
  6
CONTINUOUS
  0
LAYER
  2
113
 70
     0
 62
     7
  6
CONTINUOUS
  0
LAYER
  2
114
 70
     0
 62
     7
  6
CONTINUOUS
  0
LAYER
  2
115
 70
     0
 62
     7
  6
CONTINUOUS
  0
LAYER
  2
116
 70
     0
 62
     7
  6
CONTINUOUS
  0
LAYER
  2
117
 70
     0
 62
     7
  6
CONTINUOUS
  0
LAYER
  2
118
 70
     0
 62
     7
  6
CONTINUOUS
  0
LAYER
  2
119
 70
     0
 62
     7
  6
CONTINUOUS
  0
LAYER
  2
120
 70
     0
 62
     7
  6
CONTINUOUS
  0
LAYER
  2
121
 70
     0
 62
     7
  6
CONTINUOUS
  0
LAYER
  2
122
 70
     0
 62
     7
  6
CONTINUOUS
  0
LAYER
  2
123
 70
     0
 62
     7
  6
CONTINUOUS
  0
LAYER
  2
124
 70
     0
 62
     7
  6
CONTINUOUS
  0
LAYER
  2
125
 70
     0
 62
     7
  6
CONTINUOUS
  0
LAYER
  2
126
 70
     0
 62
     7
  6
CONTINUOUS
  0
LAYER
  2
127
 70
     0
 62
     7
  6
CONTINUOUS
  0
LAYER
  2
128
 70
     0
 62
     7
  6
CONTINUOUS
  0
ENDTAB
  0
TABLE
  2
STYLE
 70
    70
  0
STYLE
  2
STANDARD
 70
     0
 40
0.0
 41
1.0
 50
0.0
 71
     0
 42
0.2
  3
txt.shx
  4
extfont.shx
  0
STYLE
  2
KANJI0
 70
     0
 40
9.999997897
 41
0.6
 50
0.0
 71
     0
 42
9.999997897
  3
txt.shx
  4
extfont.shx
  0
STYLE
  2
KANJI1
 70
     0
 40
11.999997477
 41
0.9
 50
0.0
 71
     0
 42
11.999997477
  3
txt.shx
  4
extfont.shx
  0
STYLE
  2
KANJI2
 70
     0
 40
14.999996846
 41
0.9
 50
0.0
 71
     0
 42
14.999996846
  3
txt.shx
  4
extfont.shx
  0
STYLE
  2
KANJI3
 70
     0
 40
12.999999
 41
0.75
 50
0.0
 71
     0
 42
12.999999
  3
txt.shx
  4
extfont.shx
  0
STYLE
  2
KANJI4
 70
     0
 40
8.666666
 41
0.6
 50
0.0
 71
     0
 42
8.666666
  3
txt.shx
  4
extfont.shx
  0
STYLE
  2
KANJI5
 70
     0
 40
10.3999992
 41
0.6
 50
0.0
 71
     0
 42
10.3999992
  3
txt.shx
  4
extfont.shx
  0
STYLE
  2
KANJI6
 70
     0
 40
15.1666655
 41
0.42031746
 50
0.0
 71
     0
 42
15.1666655
  3
txt.shx
  4
extfont.shx
  0
STYLE
  2
KANJI7
 70
     0
 40
25.999998
 41
0.9
 50
0.0
 71
     0
 42
25.999998
  3
txt.shx
  4
extfont.shx
  0
STYLE
  2
KANJI8
 70
     0
 40
8.666666
 41
0.8
 50
0.0
 71
     0
 42
8.666666
  3
txt.shx
  4
extfont.shx
  0
STYLE
  2
KANJI9
 70
     0
 40
10.3999992
 41
0.8
 50
0.0
 71
     0
 42
10.3999992
  3
txt.shx
  4
extfont.shx
  0
STYLE
  2
KANJI10
 70
     0
 40
25.0
 41
1.0
 50
0.0
 71
     0
 42
25.0
  3
txt.shx
  4
extfont.shx
  0
STYLE
  2
KANJI11
 70
     0
 40
25.0
 41
1.0
 50
0.0
 71
     0
 42
25.0
  3
txt.shx
  4
extfont.shx
  0
STYLE
  2
KANJI12
 70
     0
 40
25.0
 41
0.8
 50
0.0
 71
     0
 42
25.0
  3
txt.shx
  4
extfont.shx
  0
STYLE
  2
KANJI13
 70
     0
 40
20.0
 41
1.0
 50
0.0
 71
     0
 42
20.0
  3
txt.shx
  4
extfont.shx
  0
STYLE
  2
KANJI14
 70
     0
 40
17.5
 41
0.857142857
 50
0.0
 71
     0
 42
17.5
  3
txt.shx
  4
extfont.shx
  0
STYLE
  2
KANJI15
 70
     0
 40
22.5
 41
0.666666667
 50
0.0
 71
     0
 42
22.5
  3
txt.shx
  4
extfont.shx
  0
STYLE
  2
KANJI16
 70
     0
 40
18.0
 41
1.111111111
 50
0.0
 71
     0
 42
18.0
  3
txt.shx
  4
extfont.shx
  0
STYLE
  2
KANJI17
 70
     0
 40
12.8
 41
0.9
 50
0.0
 71
     0
 42
12.8
  3
txt.shx
  4
extfont.shx
  0
STYLE
  2
KANJI18
 70
     0
 40
12.0
 41
0.9
 50
0.0
 71
     0
 42
12.0
  3
txt.shx
  4
extfont.shx
  0
STYLE
  2
KANJI19
 70
     0
 40
12.0
 41
0.9
 50
0.0
 71
     0
 42
12.0
  3
txt.shx
  4
extfont.shx
  0
STYLE
  2
KANJI20
 70
     0
 40
14.0
 41
0.9
 50
0.0
 71
     0
 42
14.0
  3
txt.shx
  4
extfont.shx
  0
STYLE
  2
KANJI21
 70
     0
 40
10.8
 41
0.740740741
 50
0.0
 71
     0
 42
10.8
  3
txt.shx
  4
extfont.shx
  0
STYLE
  2
KANJI22
 70
     0
 40
14.0
 41
0.857142857
 50
0.0
 71
     0
 42
14.0
  3
txt.shx
  4
extfont.shx
  0
STYLE
  2
KANJI23
 70
     0
 40
15.0
 41
1.0
 50
0.0
 71
     0
 42
15.0
  3
txt.shx
  4
extfont.shx
  0
STYLE
  2
KANJI24
 70
     0
 40
12.0
 41
0.833333333
 50
0.0
 71
     0
 42
12.0
  3
txt.shx
  4
extfont.shx
  0
STYLE
  2
KANJI25
 70
     0
 40
17.5
 41
0.793650794
 50
0.0
 71
     0
 42
17.5
  3
txt.shx
  4
extfont.shx
  0
STYLE
  2
KANJI26
 70
     0
 40
25.0
 41
0.8
 50
0.0
 71
     0
 42
25.0
  3
txt.shx
  4
extfont.shx
  0
STYLE
  2
KANJI27
 70
     0
 40
11.55
 41
0.9
 50
0.0
 71
     0
 42
11.55
  3
txt.shx
  4
extfont.shx
  0
STYLE
  2
KANJI28
 70
     0
 40
13.475
 41
0.9
 50
0.0
 71
     0
 42
13.475
  3
txt.shx
  4
extfont.shx
  0
STYLE
  2
KANJI29
 70
     0
 40
10.933904043
 41
0.9
 50
0.0
 71
     0
 42
10.933904043
  3
txt.shx
  4
extfont.shx
  0
STYLE
  2
KANJI30
 70
     0
 40
15.185977837
 41
0.66671875
 50
0.0
 71
     0
 42
15.185977837
  3
txt.shx
  4
extfont.shx
  0
STYLE
  2
KANJI31
 70
     0
 40
18.223173404
 41
0.9
 50
0.0
 71
     0
 42
18.223173404
  3
txt.shx
  4
extfont.shx
  0
STYLE
  2
KANJI32
 70
     0
 40
15.6
 41
0.925
 50
0.0
 71
     0
 42
15.6
  3
txt.shx
  4
extfont.shx
  0
STYLE
  2
KANJI33
 70
     0
 40
14.578538724
 41
0.9
 50
0.0
 71
     0
 42
14.578538724
  3
txt.shx
  4
extfont.shx
  0
STYLE
  2
KANJI34
 70
     0
 40
15.0
 41
0.9
 50
0.0
 71
     0
 42
15.0
  3
txt.shx
  4
extfont.shx
  0
STYLE
  2
KANJI35
 70
     0
 40
20.0
 41
0.9
 50
0.0
 71
     0
 42
20.0
  3
txt.shx
  4
extfont.shx
  0
STYLE
  2
KANJI36
 70
     0
 40
17.5
 41
0.857142857
 50
0.0
 71
     0
 42
17.5
  3
txt.shx
  4
extfont.shx
  0
STYLE
  2
KANJI37
 70
     0
 40
20.0
 41
0.925
 50
0.0
 71
     0
 42
20.0
  3
txt.shx
  4
extfont.shx
  0
STYLE
  2
KANJI38
 70
     0
 40
8.4
 41
0.9
 50
0.0
 71
     0
 42
8.4
  3
txt.shx
  4
extfont.shx
  0
STYLE
  2
KANJI39
 70
     0
 40
20.0
 41
0.925
 50
0.0
 71
     0
 42
20.0
  3
txt.shx
  4
extfont.shx
  0
STYLE
  2
KANJI40
 70
     0
 40
10.0
 41
0.85
 50
0.0
 71
     0
 42
10.0
  3
txt.shx
  4
extfont.shx
  0
STYLE
  2
KANJI41
 70
     0
 40
10.0
 41
0.75
 50
0.0
 71
     0
 42
10.0
  3
txt.shx
  4
extfont.shx
  0
STYLE
  2
KANJI42
 70
     0
 40
17.5
 41
0.9
 50
0.0
 71
     0
 42
17.5
  3
txt.shx
  4
extfont.shx
  0
STYLE
  2
KANJI43
 70
     0
 40
17.5
 41
0.9
 50
0.0
 71
     0
 42
17.5
  3
txt.shx
  4
extfont.shx
  0
STYLE
  2
KANJI44
 70
     0
 40
17.5
 41
0.9
 50
0.0
 71
     0
 42
17.5
  3
txt.shx
  4
extfont.shx
  0
STYLE
  2
KANJI45
 70
     0
 40
17.5
 41
0.9
 50
0.0
 71
     0
 42
17.5
  3
txt.shx
  4
extfont.shx
  0
STYLE
  2
KANJI46
 70
     0
 40
22.5
 41
0.9
 50
0.0
 71
     0
 42
22.5
  3
txt.shx
  4
extfont.shx
  0
STYLE
  2
KANJI47
 70
     0
 40
17.5
 41
0.9
 50
0.0
 71
     0
 42
17.5
  3
txt.shx
  4
extfont.shx
  0
STYLE
  2
KANJI48
 70
     0
 40
17.5
 41
0.9
 50
0.0
 71
     0
 42
17.5
  3
txt.shx
  4
extfont.shx
  0
STYLE
  2
KANJI49
 70
     0
 40
17.5
 41
0.9
 50
0.0
 71
     0
 42
17.5
  3
txt.shx
  4
extfont.shx
  0
STYLE
  2
KANJI50
 70
     0
 40
17.5
 41
0.9
 50
0.0
 71
     0
 42
17.5
  3
txt.shx
  4
extfont.shx
  0
STYLE
  2
KANJI51
 70
     0
 40
17.5
 41
0.9
 50
0.0
 71
     0
 42
17.5
  3
txt.shx
  4
extfont.shx
  0
STYLE
  2
KANJI52
 70
     4
 40
17.5
 41
0.9
 50
0.0
 71
     0
 42
17.5
  3
txt.shx
  4
extfont.shx
  0
STYLE
  2
KANJI53
 70
     4
 40
15.0
 41
0.9
 50
0.0
 71
     0
 42
15.0
  3
txt.shx
  4
extfont.shx
  0
STYLE
  2
KANJI54
 70
     0
 40
12.5
 41
0.8
 50
0.0
 71
     0
 42
12.5
  3
txt.shx
  4
extfont.shx
  0
STYLE
  2
KANJI55
 70
     0
 40
15.0
 41
0.9
 50
0.0
 71
     0
 42
15.0
  3
txt.shx
  4
extfont.shx
  0
STYLE
  2
KANJI56
 70
     0
 40
15.0
 41
0.857142857
 50
0.0
 71
     0
 42
15.0
  3
txt.shx
  4
extfont.shx
  0
STYLE
  2
KANJI57
 70
     0
 40
17.5
 41
0.9
 50
0.0
 71
     0
 42
17.5
  3
txt.shx
  4
extfont.shx
  0
STYLE
  2
KANJI58
 70
     0
 40
14.0
 41
0.9
 50
0.0
 71
     0
 42
14.0
  3
txt.shx
  4
extfont.shx
  0
STYLE
  2
KANJI59
 70
     0
 40
14.0
 41
0.785714286
 50
0.0
 71
     0
 42
14.0
  3
txt.shx
  4
extfont.shx
  0
STYLE
  2
KANJI60
 70
     0
 40
14.0
 41
0.8
 50
0.0
 71
     0
 42
14.0
  3
txt.shx
  4
extfont.shx
  0
STYLE
  2
KANJI61
 70
     0
 40
17.5
 41
0.9
 50
0.0
 71
     0
 42
17.5
  3
txt.shx
  4
extfont.shx
  0
STYLE
  2
KANJI62
 70
     0
 40
15.0
 41
0.8
 50
0.0
 71
     0
 42
15.0
  3
txt.shx
  4
extfont.shx
  0
STYLE
  2
KANJI63
 70
     0
 40
15.0
 41
0.9
 50
0.0
 71
     0
 42
15.0
  3
txt.shx
  4
extfont.shx
  0
STYLE
  2
KANJI64
 70
     0
 40
17.5
 41
0.9
 50
0.0
 71
     0
 42
17.5
  3
txt.shx
  4
extfont.shx
  0
STYLE
  2
KANJI65
 70
     0
 40
15.0
 41
0.833333333
 50
0.0
 71
     0
 42
15.0
  3
txt.shx
  4
extfont.shx
  0
STYLE
  2
KANJI66
 70
     0
 40
17.5
 41
0.9
 50
0.0
 71
     0
 42
17.5
  3
txt.shx
  4
extfont.shx
  0
STYLE
  2
KANJI67
 70
     0
 40
15.0
 41
0.766666667
 50
0.0
 71
     0
 42
15.0
  3
txt.shx
  4
extfont.shx
  0
STYLE
  2
KANJI68
 70
     0
 40
17.5
 41
0.571428571
 50
0.0
 71
     0
 42
17.5
  3
txt.shx
  4
extfont.shx
  0
ENDTAB
  0
TABLE
  2
VIEW
 70
     0
  0
ENDTAB
  0
ENDSEC
  0
SECTION
  2
BLOCKS
  0
ENDSEC
  0
SECTION
  2
ENTITIES
  0
LINE
  8
0
  6
CONTINUOUS
 62
     6
 10
72.25
 20
61.0
 30
0.0
 11
72.25
 21
1406.0
 31
0.0
  0
TEXT
  8
0
  6
CONTINUOUS
 62
     4
 10
87.249996846
 20
85.999994744
 30
0.99999979
 40
9.999997897
  1
ＰＡＲＴＳ　ＬＩＳＴ
 50
0.0
 41
0.6
 51
0.0
  7
KANJI0
  0
TEXT
  8
0
  6
CONTINUOUS
 62
     4
 10
87.249996846
 20
70.999997897
 30
1.199999748
 40
11.999997477
  1
部品表
 50
0.0
 41
0.9
 51
0.0
  7
KANJI1
  0
LINE
  8
0
  6
CONTINUOUS
 62
     6
 10
2007.25
 20
61.0
 30
0.0
 11
72.25
 21
61.0
 31
0.0
  0
LINE
  8
0
  6
CONTINUOUS
 62
     6
 10
77.249998949
 20
135.999984231
 30
0.0
 11
402.249930615
 21
135.999984231
 31
0.0
  0
LINE
  8
0
  6
CONTINUOUS
 62
     6
 10
77.249998949
 20
65.999998949
 30
0.0
 11
402.249930615
 21
65.999998949
 31
0.0
  0
LINE
  8
0
  6
CONTINUOUS
 62
     6
 10
77.249998949
 20
65.999998949
 30
0.0
 11
77.249998949
 21
135.999984231
 31
0.0
  0
LINE
  8
0
  6
CONTINUOUS
 62
     6
 10
77.249998949
 20
100.99999159
 30
0.0
 11
402.249930615
 21
100.99999159
 31
0.0
  0
TEXT
  8
0
  6
CONTINUOUS
 62
     2
 10
87.249996846
 20
110.999989487
 30
1.499999685
 40
14.999996846
  1
ＰＬ
 50
0.0
 41
0.9
 51
0.0
  7
KANJI2
  0
LINE
  8
0
  6
CONTINUOUS
 62
     4
 10
15.333333
 20
65.333333
 30
0.0
 11
67.333329
 21
65.333333
 31
0.0
  0
LINE
  8
0
  6
CONTINUOUS
 62
     4
 10
15.333333
 20
91.333331
 30
0.0
 11
67.333329
 21
91.333331
 31
0.0
  0
LINE
  8
0
  6
CONTINUOUS
 62
     4
 10
15.333333
 20
117.333329
 30
0.0
 11
67.333329
 21
117.333329
 31
0.0
  0
LINE
  8
0
  6
CONTINUOUS
 62
     4
 10
15.333333
 20
143.333327
 30
0.0
 11
67.333329
 21
143.333327
 31
0.0
  0
LINE
  8
0
  6
CONTINUOUS
 62
     4
 10
15.333333
 20
169.333325
 30
0.0
 11
67.333329
 21
169.333325
 31
0.0
  0
LINE
  8
0
  6
CONTINUOUS
 62
     4
 10
15.333333
 20
195.333323
 30
0.0
 11
67.333329
 21
195.333323
 31
0.0
  0
LINE
  8
0
  6
CONTINUOUS
 62
     4
 10
15.333333
 20
221.333321
 30
0.0
 11
67.333329
 21
221.333321
 31
0.0
  0
LINE
  8
0
  6
CONTINUOUS
 62
     4
 10
15.333333
 20
247.333319
 30
0.0
 11
67.333329
 21
247.333319
 31
0.0
  0
LINE
  8
0
  6
CONTINUOUS
 62
     4
 10
15.333333
 20
273.333317
 30
0.0
 11
67.333329
 21
273.333317
 31
0.0
  0
LINE
  8
0
  6
CONTINUOUS
 62
     4
 10
15.333333
 20
299.333315
 30
0.0
 11
67.333329
 21
299.333315
 31
0.0
  0
LINE
  8
0
  6
CONTINUOUS
 62
     4
 10
67.333329
 20
65.333333
 30
0.0
 11
67.333329
 21
299.333315
 31
0.0
  0
LINE
  8
0
  6
CONTINUOUS
 62
     4
 10
41.333331
 20
65.333333
 30
0.0
 11
41.333331
 21
273.333317
 31
0.0
  0
TEXT
  8
0
  6
CONTINUOUS
 62
     4
 10
24.21666565
 20
72.91666575
 30
1.2999999
 40
12.999999
  1
計
 50
0.0
 41
0.75
 51
0.0
  7
KANJI3
  0
TEXT
  8
0
  6
CONTINUOUS
 62
     4
 10
24.21666565
 20
125.34999505
 30
1.2999999
 40
12.999999
  1
設
 50
0.0
 41
0.75
 51
0.0
  7
KANJI3
  0
TEXT
  8
0
  6
CONTINUOUS
 62
     4
 10
24.21666565
 20
150.91665975
 30
1.2999999
 40
12.999999
  1
管
 50
0.0
 41
0.75
 51
0.0
  7
KANJI3
  0
TEXT
  8
0
  6
CONTINUOUS
 62
     4
 10
24.21666565
 20
176.91665775
 30
1.2999999
 40
12.999999
  1
製
 50
0.0
 41
0.75
 51
0.0
  7
KANJI3
  0
TEXT
  8
0
  6
CONTINUOUS
 62
     4
 10
24.21666565
 20
202.91665575
 30
1.2999999
 40
12.999999
  1
資
 50
0.0
 41
0.75
 51
0.0
  7
KANJI3
  0
TEXT
  8
0
  6
CONTINUOUS
 62
     4
 10
24.21666565
 20
228.91665375
 30
1.2999999
 40
12.999999
  1
営
 50
0.0
 41
0.75
 51
0.0
  7
KANJI3
  0
TEXT
  8
0
  6
CONTINUOUS
 62
     4
 10
24.21666565
 20
254.91665175
 30
1.2999999
 40
12.999999
  1
客
 50
0.0
 41
0.75
 51
0.0
  7
KANJI3
  0
TEXT
  8
0
  6
CONTINUOUS
 62
     4
 10
23.999999
 20
281.999983
 30
1.2999999
 40
12.999999
  1
出　図
 50
0.0
 41
0.75
 51
0.0
  7
KANJI3
  0
LINE
  8
0
  6
CONTINUOUS
 62
     4
 10
15.333333
 20
65.333333
 30
0.0
 11
15.333333
 21
299.333315
 31
0.0
  0
TEXT
  8
0
  6
CONTINUOUS
 62
     4
 10
312.249949538
 20
85.999994744
 30
0.99999979
 40
9.999997897
  1
Ｎ０．
 50
0.0
 41
0.6
 51
0.0
  7
KANJI0
  0
TEXT
  8
0
  6
CONTINUOUS
 62
     4
 10
312.249949538
 20
70.999997897
 30
1.199999748
 40
11.999997477
  1
項番
 50
0.0
 41
0.9
 51
0.0
  7
KANJI1
  0
LINE
  8
0
  6
CONTINUOUS
 62
     6
 10
402.249930615
 20
65.999998949
 30
0.0
 11
402.249930615
 21
135.999984231
 31
0.0
  0
LINE
  8
0
  6
CONTINUOUS
 62
     6
 10
302.249951641
 20
65.999998949
 30
0.0
 11
302.249951641
 21
135.999984231
 31
0.0
  0
LINE
  8
0
  6
CONTINUOUS
 62
     4
 10
1335.583385
 20
99.999997
 30
0.0
 11
1493.7500395
 21
99.999997
 31
0.0
  0
TEXT
  8
0
  6
CONTINUOUS
 62
     4
 10
1344.250051
 20
84.8333315
 30
0.8666666
 40
8.666666
  1
ＳＣＡＬＥ
 50
0.0
 41
0.6
 51
0.0
  7
KANJI4
  0
TEXT
  8
0
  6
CONTINUOUS
 62
     4
 10
1344.250051
 20
119.4999955
 30
0.8666666
 40
8.666666
  1
ＤＡＴＥ
 50
0.0
 41
0.6
 51
0.0
  7
KANJI4
  0
TEXT
  8
0
  6
CONTINUOUS
 62
     4
 10
1344.250051
 20
71.8333325
 30
1.03999992
 40
10.3999992
  1
尺度
 50
0.0
 41
0.6
 51
0.0
  7
KANJI5
  0
TEXT
  8
0
  6
CONTINUOUS
 62
     4
 10
1344.250051
 20
106.4999965
 30
1.03999992
 40
10.3999992
  1
日付
 50
0.0
 41
0.6
 51
0.0
  7
KANJI5
  0
TEXT
  8
0
  6
CONTINUOUS
 62
     4
 10
1103.7500695
 20
84.8333315
 30
0.8666666
 40
8.666666
  1
ＢＹ
 50
0.0
 41
0.6
 51
0.0
  7
KANJI4
  0
TEXT
  8
0
  6
CONTINUOUS
 62
     4
 10
1199.0833955
 20
84.8333315
 30
0.8666666
 40
8.666666
  1
ＤＥＳＣＲＩＰＴＩＯＮ
 50
0.0
 41
0.6
 51
0.0
  7
KANJI4
  0
TEXT
  8
0
  6
CONTINUOUS
 62
     4
 10
1103.7500695
 20
71.8333325
 30
1.03999992
 40
10.3999992
  1
担当
 50
0.0
 41
0.6
 51
0.0
  7
KANJI5
  0
TEXT
  8
0
  6
CONTINUOUS
 62
     4
 10
1212.0833945
 20
71.8333325
 30
1.03999992
 40
10.3999992
  1
記　　　　事
 50
0.0
 41
0.6
 51
0.0
  7
KANJI5
  0
LINE
  8
0
  6
CONTINUOUS
 62
     4
 10
1011.66674325
 20
93.4999975
 30
0.0
 11
997.583411
 21
71.8333325
 31
0.0
  0
TEXT
  8
0
  6
CONTINUOUS
 62
     4
 10
1047.4167405
 20
84.8333315
 30
0.8666666
 40
8.666666
  1
ＤＡＴＥ
 50
0.0
 41
0.6
 51
0.0
  7
KANJI4
  0
TEXT
  8
0
  6
CONTINUOUS
 62
     4
 10
1053.91674
 20
71.8333325
 30
1.03999992
 40
10.3999992
  1
日付
 50
0.0
 41
0.6
 51
0.0
  7
KANJI5
  0
LINE
  8
0
  6
CONTINUOUS
 62
     4
 10
997.583411
 20
71.8333325
 30
0.0
 11
1025.7500755
 21
71.8333325
 31
0.0
  0
LINE
  8
0
  6
CONTINUOUS
 62
     4
 10
1011.66674325
 20
93.4999975
 30
0.0
 11
1025.7500755
 21
71.8333325
 31
0.0
  0
LINE
  8
0
  6
CONTINUOUS
 62
     4
 10
1493.7500395
 20
119.4999955
 30
0.0
 11
2002.916667
 21
119.4999955
 31
0.0
  0
LINE
  8
0
  6
LTYPE1
 62
     4
 10
1857.7500115
 20
125.999995
 30
0.0
 11
1857.7500115
 21
160.666659
 31
0.0
  0
LINE
  8
0
  6
LTYPE1
 62
     4
 10
1827.4166805
 20
125.999995
 30
0.0
 11
1827.4166805
 21
160.666659
 31
0.0
  0
LINE
  8
0
  6
LTYPE1
 62
     4
 10
1797.0833495
 20
125.999995
 30
0.0
 11
1797.0833495
 21
160.666659
 31
0.0
  0
LINE
  8
0
  6
LTYPE1
 62
     4
 10
1766.7500185
 20
125.999995
 30
0.0
 11
1766.7500185
 21
160.666659
 31
0.0
  0
LINE
  8
0
  6
LTYPE1
 62
     4
 10
1736.4166875
 20
125.999995
 30
0.0
 11
1736.4166875
 21
160.666659
 31
0.0
  0
LINE
  8
0
  6
LTYPE1
 62
     4
 10
1706.0833565
 20
125.999995
 30
0.0
 11
1706.0833565
 21
160.666659
 31
0.0
  0
LINE
  8
0
  6
LTYPE1
 62
     4
 10
1675.7500255
 20
125.999995
 30
0.0
 11
1675.7500255
 21
160.666659
 31
0.0
  0
LINE
  8
0
  6
LTYPE1
 62
     4
 10
1645.4166945
 20
125.999995
 30
0.0
 11
1645.4166945
 21
160.666659
 31
0.0
  0
LINE
  8
0
  6
LTYPE1
 62
     4
 10
1645.4166945
 20
125.999995
 30
0.0
 11
1857.7500115
 21
125.999995
 31
0.0
  0
LINE
  8
0
  6
CONTINUOUS
 62
     6
 10
2007.25
 20
1406.0
 30
0.0
 11
2007.25
 21
61.0
 31
0.0
  0
LINE
  8
0
  6
CONTINUOUS
 62
     6
 10
993.250078
 20
99.999997
 30
0.0
 11
1335.583385
 21
99.999997
 31
0.0
  0
LINE
  8
0
  6
CONTINUOUS
 62
     6
 10
993.250078
 20
65.333333
 30
0.0
 11
2002.916667
 21
65.333333
 31
0.0
  0
TEXT
  8
0
  6
CONTINUOUS
 62
     6
 10
1498.0833725
 20
84.8333315
 30
0.0
 40
15.1666655
  1
ＵＮＩＴＥＣ　ＩＮＤＵＳＴＲＹ　ＣＯ．，ＬＴＤ．
 50
0.0
 41
0.42031746
 51
0.0
  7
KANJI6
  0
TEXT
  8
0
  6
CONTINUOUS
 62
     6
 10
1710.795856138
 20
79.1999986
 30
2.5999998
 40
25.999998
  1
ユニテック工業株式会社
 50
0.0
 41
0.9
 51
0.0
  7
KANJI7
  0
LINE
  8
0
  6
CONTINUOUS
 62
     6
 10
993.250078
 20
65.333333
 30
0.0
 11
993.250078
 21
99.999997
 31
0.0
  0
LINE
  8
0
  6
CONTINUOUS
 62
     4
 10
1030.0834085
 20
65.333333
 30
0.0
 11
1030.0834085
 21
99.999997
 31
0.0
  0
LINE
  8
0
  6
CONTINUOUS
 62
     4
 10
1090.7500705
 20
65.333333
 30
0.0
 11
1090.7500705
 21
99.999997
 31
0.0
  0
LINE
  8
0
  6
CONTINUOUS
 62
     4
 10
1129.7500675
 20
65.333333
 30
0.0
 11
1129.7500675
 21
99.999997
 31
0.0
  0
LINE
  8
0
  6
CONTINUOUS
 62
     6
 10
1335.583385
 20
65.333333
 30
0.0
 11
1335.583385
 21
342.666645
 31
0.0
  0
LINE
  8
0
  6
CONTINUOUS
 62
     6
 10
2002.916667
 20
65.333333
 30
0.0
 11
2002.916667
 21
342.666645
 31
0.0
  0
LINE
  8
0
  6
CONTINUOUS
 62
     4
 10
1493.7500395
 20
65.333333
 30
0.0
 11
1493.7500395
 21
342.666645
 31
0.0
  0
LINE
  8
0
  6
CONTINUOUS
 62
     6
 10
1676.129192138
 20
88.2999979
 30
0.0
 11
1664.689193018
 21
88.2999979
 31
0.0
  0
LINE
  8
0
  6
CONTINUOUS
 62
     6
 10
1676.129192138
 20
90.37999774
 30
0.0
 11
1664.689193018
 21
90.37999774
 31
0.0
  0
LINE
  8
0
  6
CONTINUOUS
 62
     6
 10
1676.129192138
 20
88.2999979
 30
0.0
 11
1687.569191258
 21
88.2999979
 31
0.0
  0
LINE
  8
0
  6
CONTINUOUS
 62
     6
 10
1676.129192138
 20
90.37999774
 30
0.0
 11
1687.569191258
 21
90.37999774
 31
0.0
  0
LINE
  8
0
  6
CONTINUOUS
 62
     6
 10
1687.569191258
 20
90.37999774
 30
0.0
 11
1687.569191258
 21
88.2999979
 31
0.0
  0
ARC
  8
0
  6
CONTINUOUS
 62
     6
 10
1690.169191058
 20
89.33999782
 30
0.0
 40
10.3999992
 50
185.739170477
 51
90.0
  0
ARC
  8
0
  6
CONTINUOUS
 62
     6
 10
1690.169191058
 20
89.33999782
 30
0.0
 40
12.47999904
 50
184.780191847
 51
90.0
  0
LINE
  8
0
  6
CONTINUOUS
 62
     6
 10
1664.689193018
 20
88.2999979
 30
0.0
 11
1664.689193018
 21
90.37999774
 31
0.0
  0
LINE
  8
0
  6
CONTINUOUS
 62
     6
 10
1674.569192258
 20
101.81999686
 30
0.0
 11
1662.089193218
 21
101.81999686
 31
0.0
  0
LINE
  8
0
  6
CONTINUOUS
 62
     6
 10
1677.689192018
 20
101.81999686
 30
0.0
 11
1690.169191058
 21
101.81999686
 31
0.0
  0
ARC
  8
0
  6
CONTINUOUS
 62
     6
 10
1662.089193218
 20
89.33999782
 30
0.0
 40
10.3999992
 50
90.0
 51
354.260829523
  0
ARC
  8
0
  6
CONTINUOUS
 62
     6
 10
1662.089193218
 20
89.33999782
 30
0.0
 40
12.47999904
 50
90.0
 51
355.219808153
  0
LINE
  8
0
  6
CONTINUOUS
 62
     6
 10
1674.569192258
 20
101.81999686
 30
0.0
 11
1674.569192258
 21
99.73999702
 31
0.0
  0
LINE
  8
0
  6
CONTINUOUS
 62
     6
 10
1662.089193218
 20
99.73999702
 30
0.0
 11
1674.569192258
 21
99.73999702
 31
0.0
  0
LINE
  8
0
  6
CONTINUOUS
 62
     6
 10
1677.689192018
 20
101.81999686
 30
0.0
 11
1677.689192018
 21
99.73999702
 31
0.0
  0
LINE
  8
0
  6
CONTINUOUS
 62
     6
 10
1690.169191058
 20
99.73999702
 30
0.0
 11
1677.689192018
 21
99.73999702
 31
0.0
  0
TEXT
  8
0
  6
CONTINUOUS
 62
     4
 10
1344.250051
 20
154.1666595
 30
0.8666666
 40
8.666666
  1
ＤＲＡＷＮ
 50
0.0
 41
0.6
 51
0.0
  7
KANJI4
  0
TEXT
  8
0
  6
CONTINUOUS
 62
     4
 10
1344.250051
 20
188.8333235
 30
0.8666666
 40
8.666666
  1
ＤＥＳＩＧＮ
 50
0.0
 41
0.6
 51
0.0
  7
KANJI4
  0
TEXT
  8
0
  6
CONTINUOUS
 62
     4
 10
1344.250051
 20
223.4999875
 30
0.8666666
 40
8.666666
  1
ＣＨＥＣＫ
 50
0.0
 41
0.6
 51
0.0
  7
KANJI4
  0
LINE
  8
0
  6
CONTINUOUS
 62
     4
 10
1335.583385
 20
203.999989
 30
0.0
 11
1493.7500395
 21
203.999989
 31
0.0
  0
LINE
  8
0
  6
CONTINUOUS
 62
     4
 10
1335.583385
 20
169.333325
 30
0.0
 11
1493.7500395
 21
169.333325
 31
0.0
  0
LINE
  8
0
  6
CONTINUOUS
 62
     4
 10
1335.583385
 20
238.666653
 30
0.0
 11
1493.7500395
 21
238.666653
 31
0.0
  0
TEXT
  8
0
  6
CONTINUOUS
 62
     4
 10
1344.250051
 20
175.8333245
 30
1.03999992
 40
10.3999992
  1
設計
 50
0.0
 41
0.6
 51
0.0
  7
KANJI5
  0
TEXT
  8
0
  6
CONTINUOUS
 62
     4
 10
1344.250051
 20
210.4999885
 30
1.03999992
 40
10.3999992
  1
検図
 50
0.0
 41
0.6
 51
0.0
  7
KANJI5
  0
TEXT
  8
0
  6
CONTINUOUS
 62
     4
 10
1344.250051
 20
245.1666525
 30
1.03999992
 40
10.3999992
  1
分類
 50
0.0
 41
0.6
 51
0.0
  7
KANJI5
  0
LINE
  8
0
  6
CONTINUOUS
 62
     4
 10
1506.53337185
 20
238.666653
 30
0.0
 11
2002.916667
 21
238.666653
 31
0.0
  0
LINE
  8
0
  6
CONTINUOUS
 62
     4
 10
1493.7500395
 20
169.333325
 30
0.0
 11
2002.916667
 21
169.333325
 31
0.0
  0
TEXT
  8
0
  6
CONTINUOUS
 62
     4
 10
1502.4167055
 20
154.1666595
 30
0.8666666
 40
8.666666
  1
ＤＲＡＷＩＮＧ　ＮＯ．
 50
0.0
 41
0.8
 51
0.0
  7
KANJI8
  0
TEXT
  8
0
  6
CONTINUOUS
 62
     4
 10
1502.4167055
 20
188.8333235
 30
0.8666666
 40
8.666666
  1
ＭＦＧ　ＮＯ．
 50
0.0
 41
0.8
 51
0.0
  7
KANJI8
  0
TEXT
  8
0
  6
CONTINUOUS
 62
     4
 10
1502.4167055
 20
223.4999875
 30
0.8666666
 40
8.666666
  1
ＴＹＰＥ
 50
0.0
 41
0.8
 51
0.0
  7
KANJI8
  0
LINE
  8
0
  6
CONTINUOUS
 62
     4
 10
1506.7500385
 20
203.999989
 30
0.0
 11
1706.0833565
 21
203.999989
 31
0.0
  0
TEXT
  8
0
  6
CONTINUOUS
 62
     4
 10
1502.4167055
 20
138.999994
 30
1.03999992
 40
10.3999992
  1
図　面　番　号
 50
0.0
 41
0.8
 51
0.0
  7
KANJI9
  0
TEXT
  8
0
  6
CONTINUOUS
 62
     4
 10
1502.4167055
 20
173.666658
 30
1.03999992
 40
10.3999992
  1
製番
 50
0.0
 41
0.8
 51
0.0
  7
KANJI9
  0
TEXT
  8
0
  6
CONTINUOUS
 62
     4
 10
1502.4167055
 20
208.333322
 30
1.03999992
 40
10.3999992
  1
機種
 50
0.0
 41
0.8
 51
0.0
  7
KANJI9
  0
LINE
  8
0
  6
CONTINUOUS
 62
     4
 10
1335.583385
 20
134.666661
 30
0.0
 11
1493.7500395
 21
134.666661
 31
0.0
  0
TEXT
  8
0
  6
CONTINUOUS
 62
     4
 10
1344.250051
 20
141.1666605
 30
1.03999992
 40
10.3999992
  1
作図
 50
0.0
 41
0.6
 51
0.0
  7
KANJI5
  0
LINE
  8
0
  6
LTYPE1
 62
     4
 10
1645.4166945
 20
160.666659
 30
0.0
 11
1857.7500115
 21
160.666659
 31
0.0
  0
LINE
  8
0
  6
CONTINUOUS
 62
     4
 10
1875.0833435
 20
144.41666025
 30
0.0
 11
1883.7500095
 21
144.41666025
 31
0.0
  0
LINE
  8
0
  6
CONTINUOUS
 62
     4
 10
1929.250006
 20
131.41666125
 30
0.0
 11
1898.916675
 21
131.41666125
 31
0.0
  0
LINE
  8
0
  6
CONTINUOUS
 62
     4
 10
1898.916675
 20
131.41666125
 30
0.0
 11
1914.0833405
 21
157.41665925
 31
0.0
  0
LINE
  8
0
  6
CONTINUOUS
 62
     4
 10
1914.0833405
 20
157.41665925
 30
0.0
 11
1929.250006
 21
131.41666125
 31
0.0
  0
TEXT
  8
0
  6
CONTINUOUS
 62
     4
 10
1719.0833555
 20
223.4999875
 30
0.8666666
 40
8.666666
  1
ＴＩＴＬＥ
 50
0.0
 41
0.8
 51
0.0
  7
KANJI8
  0
TEXT
  8
0
  6
CONTINUOUS
 62
     4
 10
1719.0833555
 20
208.333322
 30
1.03999992
 40
10.3999992
  1
名称
 50
0.0
 41
0.8
 51
0.0
  7
KANJI9
  0
TEXT
  8
0
  6
CONTINUOUS
 62
     2
 10
1789.75
 20
176.0
 30
12.5
 40
25.0
  1
外形寸法図
 50
0.0
 41
1.0
 51
0.0
  7
KANJI10
  0
TEXT
  8
0
  6
CONTINUOUS
 62
     2
 10
1759.75
 20
206.0
 30
3.571428571
 40
25.0
  1
マイティシリンダ
 50
0.0
 41
1.0
 51
0.0
  7
KANJI11
  0
TEXT
  8
0
  6
CONTINUOUS
 62
     2
 10
1619.1666945
 20
130.999995
 30
1.5
 40
25.0
  1
Ａ
 50
0.0
 41
0.8
 51
0.0
  7
KANJI12
  0
CIRCLE
  8
0
  6
CONTINUOUS
 62
     2
 10
1586.6666945
 20
184.749995
 30
0.0
 40
12.5
  0
TEXT
  8
0
  6
CONTINUOUS
 62
     2
 10
1577.2916945
 20
175.374995
 30
1.5
 40
20.0
  1
Ｓ
 50
0.0
 41
1.0
 51
0.0
  7
KANJI13
  0
TEXT
  8
0
  6
CONTINUOUS
 62
     2
 10
1391.4166945
 20
143.499995
 30
5.0
 40
17.5
  1
岡田
 50
0.0
 41
0.857142857
 51
0.0
  7
KANJI14
  0
TEXT
  8
0
  6
CONTINUOUS
 62
     2
 10
1427.25
 20
71.0
 30
1.5
 40
22.5
  1
１／５
 50
0.0
 41
0.666666667
 51
0.0
  7
KANJI15
  0
TEXT
  8
0
  6
CONTINUOUS
 62
     4
 10
1344.250051
 20
258.1666515
 30
0.8666666
 40
8.666666
  1
ＣＯＤＥ
 50
0.0
 41
0.6
 51
0.0
  7
KANJI4
  0
LINE
  8
0
  6
CONTINUOUS
 62
     4
 10
1335.583385
 20
273.333317
 30
0.0
 11
2002.916667
 21
273.333317
 31
0.0
  0
LINE
  8
0
  6
CONTINUOUS
 62
     4
 10
2002.916667
 20
307.999981
 30
0.0
 11
2002.916667
 21
342.666645
 31
0.0
  0
LINE
  8
0
  6
CONTINUOUS
 62
     6
 10
1336.208385
 20
307.999981
 30
0.0
 11
2003.541667
 21
307.999981
 31
0.0
  0
LINE
  8
0
  6
CONTINUOUS
 62
     6
 10
1335.583385
 20
342.666645
 30
0.0
 11
2002.916667
 21
342.666645
 31
0.0
  0
TEXT
  8
0
  6
CONTINUOUS
 62
     4
 10
1351.0
 20
313.166664
 30
5.0
 40
18.0
  1
ご用途
 50
0.0
 41
1.111111111
 51
0.0
  7
KANJI16
  0
TEXT
  8
0
  6
CONTINUOUS
 62
     4
 10
1351.0
 20
278.5
 30
5.0
 40
18.0
  1
ご注文主
 50
0.0
 41
1.111111111
 51
0.0
  7
KANJI16
  0
LINE
  8
0
  6
CONTINUOUS
 62
     6
 10
72.25
 20
1406.0
 30
0.0
 11
2007.25
 21
1406.0
 31
0.0
  0
LINE
  8
0
  6
CONTINUOUS
 62
     1
 10
853.25
 20
1243.95
 30
0.0
 11
1501.25
 21
1243.95
 31
0.0
  0
LINE
  8
0
  6
CONTINUOUS
 62
     1
 10
853.25
 20
1215.95
 30
0.0
 11
1501.25
 21
1215.95
 31
0.0
  0
TEXT
  8
0
  6
CONTINUOUS
 62
     2
 10
893.25
 20
1223.95
 30
1.28
 40
12.8
  1
形
 50
0.0
 41
0.9
 51
0.0
  7
KANJI17
  0
TEXT
  8
0
  6
CONTINUOUS
 62
     2
 10
971.25
 20
1223.95
 30
1.28
 40
12.8
  1
式
 50
0.0
 41
0.9
 51
0.0
  7
KANJI17
  0
TEXT
  8
0
  6
CONTINUOUS
 62
     2
 10
1031.65
 20
1223.15
 30
1.2
 40
12.0
  1
ストローク
 50
0.0
 41
0.9
 51
0.0
  7
KANJI18
  0
TEXT
  8
0
  6
CONTINUOUS
 62
     2
 10
1108.45
 20
1222.35
 30
0.0
 40
12.0
  1
ｍｉｎ　
 50
0.0
 41
0.9
 51
0.0
  7
KANJI19
  0
TEXT
  8
0
  6
CONTINUOUS
 62
     2
 10
1188.45
 20
1222.35
 30
0.0
 40
12.0
  1
ｍｉｎ　
 50
0.0
 41
0.9
 51
0.0
  7
KANJI19
  0
TEXT
  8
0
  6
CONTINUOUS
 62
     2
 10
1348.45
 20
1222.35
 30
0.0
 40
12.0
  1
ｍｉｎ　
 50
0.0
 41
0.9
 51
0.0
  7
KANJI19
  0
TEXT
  8
0
  6
CONTINUOUS
 62
     2
 10
1149.25
 20
1223.15
 30
1.4
 40
14.0
  1
ＡＬ
 50
0.0
 41
0.9
 51
0.0
  7
KANJI20
  0
TEXT
  8
0
  6
CONTINUOUS
 62
     2
 10
1229.25
 20
1223.15
 30
1.4
 40
14.0
  1
Ｌ
 50
0.0
 41
0.9
 51
0.0
  7
KANJI20
  0
TEXT
  8
0
  6
CONTINUOUS
 62
     2
 10
1297.25
 20
1223.15
 30
1.4
 40
14.0
  1
Ｃ
 50
0.0
 41
0.9
 51
0.0
  7
KANJI20
  0
TEXT
  8
0
  6
CONTINUOUS
 62
     2
 10
1389.25
 20
1223.15
 30
1.4
 40
14.0
  1
Ｐ
 50
0.0
 41
0.9
 51
0.0
  7
KANJI20
  0
TEXT
  8
0
  6
CONTINUOUS
 62
     2
 10
1471.55
 20
1222.85
 30
0.0
 40
10.8
  1
（ｋｇ）
 50
0.0
 41
0.740740741
 51
0.0
  7
KANJI21
  0
TEXT
  8
0
  6
CONTINUOUS
 62
     2
 10
1423.55
 20
1222.65
 30
1.2
 40
14.0
  1
概算重量
 50
0.0
 41
0.857142857
 51
0.0
  7
KANJI22
  0
TEXT
  8
0
  6
CONTINUOUS
 62
     2
 10
1039.25
 20
1194.65
 30
1.2
 40
12.0
  1
　１００
 50
0.0
 41
0.9
 51
0.0
  7
KANJI18
  0
TEXT
  8
0
  6
CONTINUOUS
 62
     2
 10
1039.25
 20
1166.65
 30
1.2
 40
12.0
  1
　２００
 50
0.0
 41
0.9
 51
0.0
  7
KANJI18
  0
TEXT
  8
0
  6
CONTINUOUS
 62
     2
 10
1039.25
 20
1138.65
 30
1.2
 40
12.0
  1
　３００
 50
0.0
 41
0.9
 51
0.0
  7
KANJI18
  0
TEXT
  8
0
  6
CONTINUOUS
 62
     2
 10
1359.25
 20
1138.65
 30
1.2
 40
12.0
  1
　　３５
 50
0.0
 41
0.9
 51
0.0
  7
KANJI18
  0
TEXT
  8
0
  6
CONTINUOUS
 62
     2
 10
1359.25
 20
1166.65
 30
1.2
 40
12.0
  1
　　３５
 50
0.0
 41
0.9
 51
0.0
  7
KANJI18
  0
TEXT
  8
0
  6
CONTINUOUS
 62
     2
 10
1359.25
 20
1194.65
 30
1.2
 40
12.0
  1
　　３５
 50
0.0
 41
0.9
 51
0.0
  7
KANJI18
  0
TEXT
  8
0
  6
CONTINUOUS
 62
     2
 10
1039.25
 20
1026.65
 30
1.2
 40
12.0
  1
　７００
 50
0.0
 41
0.9
 51
0.0
  7
KANJI18
  0
TEXT
  8
0
  6
CONTINUOUS
 62
     2
 10
1039.25
 20
1082.65
 30
1.2
 40
12.0
  1
　５００
 50
0.0
 41
0.9
 51
0.0
  7
KANJI18
  0
TEXT
  8
0
  6
CONTINUOUS
 62
     2
 10
1039.25
 20
1110.65
 30
1.2
 40
12.0
  1
　４００
 50
0.0
 41
0.9
 51
0.0
  7
KANJI18
  0
TEXT
  8
0
  6
CONTINUOUS
 62
     2
 10
1039.25
 20
1054.65
 30
1.2
 40
12.0
  1
　６００
 50
0.0
 41
0.9
 51
0.0
  7
KANJI18
  0
TEXT
  8
0
  6
CONTINUOUS
 62
     2
 10
1359.25
 20
1110.65
 30
1.2
 40
12.0
  1
　　３５
 50
0.0
 41
0.9
 51
0.0
  7
KANJI18
  0
TEXT
  8
0
  6
CONTINUOUS
 62
     2
 10
1359.25
 20
1082.65
 30
1.2
 40
12.0
  1
　　３５
 50
0.0
 41
0.9
 51
0.0
  7
KANJI18
  0
TEXT
  8
0
  6
CONTINUOUS
 62
     2
 10
1359.25
 20
1054.65
 30
1.2
 40
12.0
  1
　　３５
 50
0.0
 41
0.9
 51
0.0
  7
KANJI18
  0
TEXT
  8
0
  6
CONTINUOUS
 62
     2
 10
1359.25
 20
1026.65
 30
1.2
 40
12.0
  1
　　３５
 50
0.0
 41
0.9
 51
0.0
  7
KANJI18
  0
TEXT
  8
0
  6
CONTINUOUS
 62
     2
 10
1279.25
 20
1194.65
 30
1.2
 40
12.0
  1
　１９８
 50
0.0
 41
0.9
 51
0.0
  7
KANJI18
  0
TEXT
  8
0
  6
CONTINUOUS
 62
     2
 10
1279.25
 20
1166.65
 30
1.2
 40
12.0
  1
　２９８
 50
0.0
 41
0.9
 51
0.0
  7
KANJI18
  0
TEXT
  8
0
  6
CONTINUOUS
 62
     2
 10
1279.25
 20
1138.65
 30
1.2
 40
12.0
  1
　３９８
 50
0.0
 41
0.9
 51
0.0
  7
KANJI18
  0
TEXT
  8
0
  6
CONTINUOUS
 62
     2
 10
1279.25
 20
1110.65
 30
1.2
 40
12.0
  1
　４９８
 50
0.0
 41
0.9
 51
0.0
  7
KANJI18
  0
TEXT
  8
0
  6
CONTINUOUS
 62
     2
 10
1279.25
 20
1082.65
 30
1.2
 40
12.0
  1
　５９８
 50
0.0
 41
0.9
 51
0.0
  7
KANJI18
  0
TEXT
  8
0
  6
CONTINUOUS
 62
     2
 10
1279.25
 20
1054.65
 30
1.2
 40
12.0
  1
　７３８
 50
0.0
 41
0.9
 51
0.0
  7
KANJI18
  0
TEXT
  8
0
  6
CONTINUOUS
 62
     2
 10
1279.25
 20
1026.65
 30
1.2
 40
12.0
  1
　８３８
 50
0.0
 41
0.9
 51
0.0
  7
KANJI18
  0
TEXT
  8
0
  6
CONTINUOUS
 62
     2
 10
1199.25
 20
1194.65
 30
1.2
 40
12.0
  1
　２６８
 50
0.0
 41
0.9
 51
0.0
  7
KANJI18
  0
TEXT
  8
0
  6
CONTINUOUS
 62
     2
 10
1199.25
 20
1166.65
 30
1.2
 40
12.0
  1
　３６８
 50
0.0
 41
0.9
 51
0.0
  7
KANJI18
  0
TEXT
  8
0
  6
CONTINUOUS
 62
     2
 10
1199.25
 20
1138.65
 30
1.2
 40
12.0
  1
　４６８
 50
0.0
 41
0.9
 51
0.0
  7
KANJI18
  0
TEXT
  8
0
  6
CONTINUOUS
 62
     2
 10
1199.25
 20
1110.65
 30
1.2
 40
12.0
  1
　５６８
 50
0.0
 41
0.9
 51
0.0
  7
KANJI18
  0
TEXT
  8
0
  6
CONTINUOUS
 62
     2
 10
1199.25
 20
1082.65
 30
1.2
 40
12.0
  1
　６６８
 50
0.0
 41
0.9
 51
0.0
  7
KANJI18
  0
TEXT
  8
0
  6
CONTINUOUS
 62
     2
 10
1199.25
 20
1054.65
 30
1.2
 40
12.0
  1
　８０８
 50
0.0
 41
0.9
 51
0.0
  7
KANJI18
  0
TEXT
  8
0
  6
CONTINUOUS
 62
     2
 10
1199.25
 20
1026.65
 30
1.2
 40
12.0
  1
　９０８
 50
0.0
 41
0.9
 51
0.0
  7
KANJI18
  0
TEXT
  8
0
  6
CONTINUOUS
 62
     2
 10
129.75
 20
28.5
 30
1.5
 40
15.0
  1
ＦＤ　Ｎｏ．ＭＣ１８６
 50
0.0
 41
1.0
 51
0.0
  7
KANJI23
  0
TEXT
  8
0
  6
CONTINUOUS
 62
     2
 10
1119.25
 20
1194.65
 30
1.2
 40
12.0
  1
　５７１
 50
0.0
 41
0.9
 51
0.0
  7
KANJI18
  0
TEXT
  8
0
  6
CONTINUOUS
 62
     2
 10
1119.25
 20
1166.65
 30
1.2
 40
12.0
  1
　６７１
 50
0.0
 41
0.9
 51
0.0
  7
KANJI18
  0
TEXT
  8
0
  6
CONTINUOUS
 62
     2
 10
1119.25
 20
1138.65
 30
1.2
 40
12.0
  1
　７７１
 50
0.0
 41
0.9
 51
0.0
  7
KANJI18
  0
TEXT
  8
0
  6
CONTINUOUS
 62
     2
 10
1119.25
 20
1110.65
 30
1.2
 40
12.0
  1
　８７１
 50
0.0
 41
0.9
 51
0.0
  7
KANJI18
  0
TEXT
  8
0
  6
CONTINUOUS
 62
     2
 10
1119.25
 20
1082.65
 30
1.2
 40
12.0
  1
　９７１
 50
0.0
 41
0.9
 51
0.0
  7
KANJI18
  0
TEXT
  8
0
  6
CONTINUOUS
 62
     2
 10
1119.25
 20
1054.65
 30
1.2
 40
12.0
  1
１１１１
 50
0.0
 41
0.9
 51
0.0
  7
KANJI18
  0
TEXT
  8
0
  6
CONTINUOUS
 62
     2
 10
1119.25
 20
1026.65
 30
1.2
 40
12.0
  1
１２１１
 50
0.0
 41
0.9
 51
0.0
  7
KANJI18
  0
TEXT
  8
0
  6
CONTINUOUS
 62
     2
 10
866.25
 20
1194.35
 30
0.8
 40
12.0
  1
ＭＣＳＤＢＢ０３－　　１Ｌ
 50
0.0
 41
0.833333333
 51
0.0
  7
KANJI24
  0
TEXT
  8
0
  6
CONTINUOUS
 62
     2
 10
866.25
 20
1166.35
 30
0.8
 40
12.0
  1
ＭＣＳＤＢＢ０３－　　２Ｌ
 50
0.0
 41
0.833333333
 51
0.0
  7
KANJI24
  0
TEXT
  8
0
  6
CONTINUOUS
 62
     2
 10
866.25
 20
1138.35
 30
0.8
 40
12.0
  1
ＭＣＳＤＢＢ０３－　　３Ｌ
 50
0.0
 41
0.833333333
 51
0.0
  7
KANJI24
  0
TEXT
  8
0
  6
CONTINUOUS
 62
     2
 10
866.25
 20
1110.35
 30
0.8
 40
12.0
  1
ＭＣＳＤＢＢ０３－　　４Ｌ
 50
0.0
 41
0.833333333
 51
0.0
  7
KANJI24
  0
TEXT
  8
0
  6
CONTINUOUS
 62
     2
 10
866.25
 20
1082.35
 30
0.8
 40
12.0
  1
ＭＣＳＤＢＢ０３－　　５Ｌ
 50
0.0
 41
0.833333333
 51
0.0
  7
KANJI24
  0
TEXT
  8
0
  6
CONTINUOUS
 62
     2
 10
866.25
 20
1054.35
 30
0.8
 40
12.0
  1
ＭＣＳＤＢＢ０３－　　６Ｌ
 50
0.0
 41
0.833333333
 51
0.0
  7
KANJI24
  0
TEXT
  8
0
  6
CONTINUOUS
 62
     2
 10
866.25
 20
1026.35
 30
0.8
 40
12.0
  1
ＭＣＳＤＢＢ０３－　　７Ｌ
 50
0.0
 41
0.833333333
 51
0.0
  7
KANJI24
  0
TEXT
  8
0
  6
CONTINUOUS
 62
     2
 10
1554.75
 20
211.0
 30
0.0
 40
17.5
  1
ＭＣＳＤＢＢ０３－Ｌ
 50
0.0
 41
0.793650794
 51
0.0
  7
KANJI25
  0
TEXT
  8
0
  6
CONTINUOUS
 62
     2
 10
1650.4166945
 20
130.999995
 30
10.833333333
 40
25.0
  1
３００２３５７
 50
0.0
 41
0.8
 51
0.0
  7
KANJI26
  0
LINE
  8
0
  6
CONTINUOUS
 62
     1
 10
1277.625
 20
1397.0
 30
0.0
 11
1277.625
 21
1296.9
 31
0.0
  0
LINE
  8
0
  6
CONTINUOUS
 62
     2
 10
1219.875
 20
1397.0
 30
0.0
 11
1219.875
 21
1296.9
 31
0.0
  0
LINE
  8
0
  6
CONTINUOUS
 62
     2
 10
1162.125
 20
1397.0
 30
0.0
 11
1162.125
 21
1296.9
 31
0.0
  0
LINE
  8
0
  6
CONTINUOUS
 62
     1
 10
1085.125
 20
1397.0
 30
0.0
 11
1085.125
 21
1296.9
 31
0.0
  0
LINE
  8
0
  6
CONTINUOUS
 62
     1
 10
1085.125
 20
1397.0
 30
0.0
 11
1277.625
 21
1397.0
 31
0.0
  0
LINE
  8
0
  6
CONTINUOUS
 62
     1
 10
1085.125
 20
1366.2
 30
0.0
 11
1277.625
 21
1366.2
 31
0.0
  0
LINE
  8
0
  6
CONTINUOUS
 62
     2
 10
1085.125
 20
1343.1
 30
0.0
 11
1277.625
 21
1343.1
 31
0.0
  0
LINE
  8
0
  6
CONTINUOUS
 62
     2
 10
1085.125
 20
1320.0
 30
0.0
 11
1277.625
 21
1320.0
 31
0.0
  0
LINE
  8
0
  6
CONTINUOUS
 62
     1
 10
1085.125
 20
1296.9
 30
0.0
 11
1277.625
 21
1296.9
 31
0.0
  0
TEXT
  8
0
  6
CONTINUOUS
 62
     2
 10
1227.575
 20
1383.525
 30
1.155
 40
11.55
  1
起動電流
 50
0.0
 41
0.9
 51
0.0
  7
KANJI27
  0
TEXT
  8
0
  6
CONTINUOUS
 62
     2
 10
1227.575
 20
1370.05
 30
1.155
 40
11.55
  1
　　　Ａ
 50
0.0
 41
0.9
 51
0.0
  7
KANJI27
  0
TEXT
  8
0
  6
CONTINUOUS
 62
     2
 10
1169.825
 20
1383.525
 30
1.155
 40
11.55
  1
定格電流
 50
0.0
 41
0.9
 51
0.0
  7
KANJI27
  0
TEXT
  8
0
  6
CONTINUOUS
 62
     2
 10
1169.825
 20
1370.05
 30
1.155
 40
11.55
  1
　　　Ａ
 50
0.0
 41
0.9
 51
0.0
  7
KANJI27
  0
TEXT
  8
0
  6
CONTINUOUS
 62
     2
 10
1091.67
 20
1325.775
 30
1.155
 40
11.55
  1
２００／６０
 50
0.0
 41
0.9
 51
0.0
  7
KANJI27
  0
TEXT
  8
0
  6
CONTINUOUS
 62
     2
 10
1091.67
 20
1383.525
 30
1.155
 40
11.55
  1
電圧／周波数
 50
0.0
 41
0.9
 51
0.0
  7
KANJI27
  0
TEXT
  8
0
  6
CONTINUOUS
 62
     2
 10
1091.67
 20
1370.05
 30
1.155
 40
11.55
  1
　Ｖ／Ｈｚ
 50
0.0
 41
0.9
 51
0.0
  7
KANJI27
  0
TEXT
  8
0
  6
CONTINUOUS
 62
     2
 10
1091.67
 20
1348.875
 30
1.155
 40
11.55
  1
２００／５０
 50
0.0
 41
0.9
 51
0.0
  7
KANJI27
  0
TEXT
  8
0
  6
CONTINUOUS
 62
     2
 10
1091.67
 20
1302.675
 30
1.155
 40
11.55
  1
２２０／６０
 50
0.0
 41
0.9
 51
0.0
  7
KANJI27
  0
LINE
  8
0
  6
CONTINUOUS
 62
     1
 10
1046.625
 20
1397.0
 30
0.0
 11
1046.625
 21
1296.9
 31
0.0
  0
LINE
  8
0
  6
CONTINUOUS
 62
     2
 10
988.875
 20
1397.0
 30
0.0
 11
988.875
 21
1296.9
 31
0.0
  0
LINE
  8
0
  6
CONTINUOUS
 62
     2
 10
931.125
 20
1397.0
 30
0.0
 11
931.125
 21
1296.9
 31
0.0
  0
LINE
  8
0
  6
CONTINUOUS
 62
     1
 10
854.125
 20
1397.0
 30
0.0
 11
854.125
 21
1296.9
 31
0.0
  0
LINE
  8
0
  6
CONTINUOUS
 62
     1
 10
854.125
 20
1397.0
 30
0.0
 11
1046.625
 21
1397.0
 31
0.0
  0
LINE
  8
0
  6
CONTINUOUS
 62
     1
 10
854.125
 20
1366.2
 30
0.0
 11
1046.625
 21
1366.2
 31
0.0
  0
LINE
  8
0
  6
CONTINUOUS
 62
     2
 10
854.125
 20
1343.1
 30
0.0
 11
1046.625
 21
1343.1
 31
0.0
  0
LINE
  8
0
  6
CONTINUOUS
 62
     2
 10
854.125
 20
1320.0
 30
0.0
 11
1046.625
 21
1320.0
 31
0.0
  0
LINE
  8
0
  6
CONTINUOUS
 62
     1
 10
854.125
 20
1296.9
 30
0.0
 11
1046.625
 21
1296.9
 31
0.0
  0
TEXT
  8
0
  6
CONTINUOUS
 62
     2
 10
996.575
 20
1383.525
 30
1.155
 40
11.55
  1
起動電流
 50
0.0
 41
0.9
 51
0.0
  7
KANJI27
  0
TEXT
  8
0
  6
CONTINUOUS
 62
     2
 10
996.575
 20
1370.05
 30
1.155
 40
11.55
  1
　　　Ａ
 50
0.0
 41
0.9
 51
0.0
  7
KANJI27
  0
TEXT
  8
0
  6
CONTINUOUS
 62
     2
 10
938.825
 20
1383.525
 30
1.155
 40
11.55
  1
定格電流
 50
0.0
 41
0.9
 51
0.0
  7
KANJI27
  0
TEXT
  8
0
  6
CONTINUOUS
 62
     2
 10
938.825
 20
1370.05
 30
1.155
 40
11.55
  1
　　　Ａ
 50
0.0
 41
0.9
 51
0.0
  7
KANJI27
  0
TEXT
  8
0
  6
CONTINUOUS
 62
     2
 10
860.67
 20
1383.525
 30
1.155
 40
11.55
  1
電圧／周波数
 50
0.0
 41
0.9
 51
0.0
  7
KANJI27
  0
TEXT
  8
0
  6
CONTINUOUS
 62
     2
 10
860.67
 20
1370.05
 30
1.155
 40
11.55
  1
　Ｖ／Ｈｚ
 50
0.0
 41
0.9
 51
0.0
  7
KANJI27
  0
TEXT
  8
0
  6
CONTINUOUS
 62
     2
 10
860.67
 20
1348.875
 30
1.155
 40
11.55
  1
４００／５０
 50
0.0
 41
0.9
 51
0.0
  7
KANJI27
  0
TEXT
  8
0
  6
CONTINUOUS
 62
     2
 10
860.67
 20
1325.775
 30
1.155
 40
11.55
  1
４００／６０
 50
0.0
 41
0.9
 51
0.0
  7
KANJI27
  0
TEXT
  8
0
  6
CONTINUOUS
 62
     2
 10
860.67
 20
1302.675
 30
1.155
 40
11.55
  1
４４０／６０
 50
0.0
 41
0.9
 51
0.0
  7
KANJI27
  0
LINE
  8
0
  6
CONTINUOUS
 62
     2
 10
879.7275
 20
1275.725
 30
0.0
 11
1241.6275
 21
1275.725
 31
0.0
  0
TEXT
  8
0
  6
CONTINUOUS
 62
     2
 10
938.825
 20
1348.875
 30
1.155
 40
11.55
  1
　２．０
 50
0.0
 41
0.9
 51
0.0
  7
KANJI27
  0
TEXT
  8
0
  6
CONTINUOUS
 62
     2
 10
938.825
 20
1325.775
 30
1.155
 40
11.55
  1
　１．４
 50
0.0
 41
0.9
 51
0.0
  7
KANJI27
  0
TEXT
  8
0
  6
CONTINUOUS
 62
     2
 10
938.825
 20
1302.675
 30
1.155
 40
11.55
  1
　１．７
 50
0.0
 41
0.9
 51
0.0
  7
KANJI27
  0
TEXT
  8
0
  6
CONTINUOUS
 62
     2
 10
1169.825
 20
1348.875
 30
1.155
 40
11.55
  1
　４．０
 50
0.0
 41
0.9
 51
0.0
  7
KANJI27
  0
TEXT
  8
0
  6
CONTINUOUS
 62
     2
 10
1169.825
 20
1325.775
 30
1.155
 40
11.55
  1
　２．８
 50
0.0
 41
0.9
 51
0.0
  7
KANJI27
  0
TEXT
  8
0
  6
CONTINUOUS
 62
     2
 10
1169.825
 20
1302.675
 30
1.155
 40
11.55
  1
　３．３
 50
0.0
 41
0.9
 51
0.0
  7
KANJI27
  0
TEXT
  8
0
  6
CONTINUOUS
 62
     2
 10
1227.575
 20
1348.875
 30
1.155
 40
11.55
  1
　９．２
 50
0.0
 41
0.9
 51
0.0
  7
KANJI27
  0
TEXT
  8
0
  6
CONTINUOUS
 62
     2
 10
1227.575
 20
1325.775
 30
1.155
 40
11.55
  1
　８
 50
0.0
 41
0.9
 51
0.0
  7
KANJI27
  0
TEXT
  8
0
  6
CONTINUOUS
 62
     2
 10
1227.575
 20
1302.675
 30
1.155
 40
11.55
  1
　８．８
 50
0.0
 41
0.9
 51
0.0
  7
KANJI27
  0
TEXT
  8
0
  6
CONTINUOUS
 62
     2
 10
996.575
 20
1348.875
 30
1.155
 40
11.55
  1
　４．６
 50
0.0
 41
0.9
 51
0.0
  7
KANJI27
  0
TEXT
  8
0
  6
CONTINUOUS
 62
     2
 10
996.575
 20
1325.775
 30
1.155
 40
11.55
  1
　４
 50
0.0
 41
0.9
 51
0.0
  7
KANJI27
  0
TEXT
  8
0
  6
CONTINUOUS
 62
     2
 10
996.575
 20
1302.675
 30
1.155
 40
11.55
  1
　４．４
 50
0.0
 41
0.9
 51
0.0
  7
KANJI27
  0
LINE
  8
0
  6
CONTINUOUS
 62
     2
 10
853.25
 20
1187.95
 30
0.0
 11
1501.25
 21
1187.95
 31
0.0
  0
LINE
  8
0
  6
CONTINUOUS
 62
     2
 10
853.25
 20
1159.95
 30
0.0
 11
1501.25
 21
1159.95
 31
0.0
  0
LINE
  8
0
  6
CONTINUOUS
 62
     2
 10
853.25
 20
1131.95
 30
0.0
 11
1501.25
 21
1131.95
 31
0.0
  0
LINE
  8
0
  6
CONTINUOUS
 62
     2
 10
853.25
 20
1075.95
 30
0.0
 11
1501.25
 21
1075.95
 31
0.0
  0
LINE
  8
0
  6
CONTINUOUS
 62
     2
 10
853.25
 20
1103.95
 30
0.0
 11
1501.25
 21
1103.95
 31
0.0
  0
LINE
  8
0
  6
CONTINUOUS
 62
     2
 10
853.25
 20
1019.95
 30
0.0
 11
1501.25
 21
1019.95
 31
0.0
  0
LINE
  8
0
  6
CONTINUOUS
 62
     2
 10
853.25
 20
1047.95
 30
0.0
 11
1501.25
 21
1047.95
 31
0.0
  0
TEXT
  8
0
  6
CONTINUOUS
 62
     2
 10
1448.25
 20
1194.65
 30
1.2
 40
12.0
  1
２２
 50
0.0
 41
0.9
 51
0.0
  7
KANJI18
  0
TEXT
  8
0
  6
CONTINUOUS
 62
     2
 10
1448.25
 20
1166.65
 30
1.2
 40
12.0
  1
２３
 50
0.0
 41
0.9
 51
0.0
  7
KANJI18
  0
TEXT
  8
0
  6
CONTINUOUS
 62
     2
 10
1448.25
 20
1138.65
 30
1.2
 40
12.0
  1
２４
 50
0.0
 41
0.9
 51
0.0
  7
KANJI18
  0
TEXT
  8
0
  6
CONTINUOUS
 62
     2
 10
1448.25
 20
1110.65
 30
1.2
 40
12.0
  1
２５
 50
0.0
 41
0.9
 51
0.0
  7
KANJI18
  0
TEXT
  8
0
  6
CONTINUOUS
 62
     2
 10
1448.25
 20
1082.65
 30
1.2
 40
12.0
  1
２６
 50
0.0
 41
0.9
 51
0.0
  7
KANJI18
  0
TEXT
  8
0
  6
CONTINUOUS
 62
     2
 10
1448.25
 20
1054.65
 30
1.2
 40
12.0
  1
２７
 50
0.0
 41
0.9
 51
0.0
  7
KANJI18
  0
TEXT
  8
0
  6
CONTINUOUS
 62
     2
 10
1448.25
 20
1026.65
 30
1.2
 40
12.0
  1
２８
 50
0.0
 41
0.9
 51
0.0
  7
KANJI18
  0
TEXT
  8
0
  6
CONTINUOUS
 62
     2
 10
887.4275
 20
1279.575
 30
1.3475
 40
13.475
  1
注意：サーマルリレー等の選定は、上記の値で選定して下さい。
 50
0.0
 41
0.9
 51
0.0
  7
KANJI28
  0
LINE
  8
0
  6
LTYPE2
 62
     6
 10
150.408333
 20
981.833317
 30
0.0
 11
150.408333
 21
965.432460936
 31
0.0
  0
LINE
  8
0
  6
LTYPE2
 62
     6
 10
280.805262694
 20
981.833317
 30
0.0
 11
150.408333
 21
981.833317
 31
0.0
  0
TEXT
  8
0
  6
CONTINUOUS
 62
     6
 10
132.873590591
 20
968.348168681
 30
1.093390404
 40
10.933904043
  1
Ｕ
 50
0.0
 41
0.9
 51
0.0
  7
KANJI29
  0
CIRCLE
  8
0
  6
CONTINUOUS
 62
     6
 10
150.408333
 20
962.152289723
 30
0.0
 40
4.373561617
  0
LINE
  8
0
  6
CONTINUOUS
 62
     6
 10
145.38354931
 20
957.127506033
 30
0.0
 11
155.588526417
 21
967.33248314
 31
0.0
  0
TEXT
  8
0
  6
CONTINUOUS
 62
     6
 10
160.653806047
 20
990.499448352
 30
1.518597784
 40
15.185977837
  1
エコノストップモータ
 50
0.0
 41
0.66671875
 51
0.0
  7
KANJI30
  0
LINE
  8
0
  6
LTYPE2
 62
     6
 10
280.805262694
 20
886.421584891
 30
0.0
 11
280.805262694
 21
981.833317
 31
0.0
  0
CIRCLE
  8
0
  6
CONTINUOUS
 62
     6
 10
195.237339575
 20
936.639846957
 30
0.0
 40
18.223173404
  0
TEXT
  8
0
  6
CONTINUOUS
 62
     6
 10
187.583606745
 20
927.892723723
 30
1.82231734
 40
18.223173404
  1
Ｍ
 50
0.0
 41
0.9
 51
0.0
  7
KANJI31
  0
LINE
  8
0
  6
CONTINUOUS
 62
     6
 10
171.182750681
 20
911.127404191
 30
0.0
 11
182.481118192
 21
924.248089042
 31
0.0
  0
LINE
  8
0
  6
CONTINUOUS
 62
     6
 10
171.182750681
 20
962.152289723
 30
0.0
 11
182.481118192
 21
949.031604872
 31
0.0
  0
LINE
  8
0
  6
CONTINUOUS
 62
     6
 10
171.182750681
 20
962.152289723
 30
0.0
 11
154.781894617
 21
962.152289723
 31
0.0
  0
LINE
  8
0
  6
CONTINUOUS
 62
     6
 10
177.378629639
 20
936.639846957
 30
0.0
 11
154.781894617
 21
936.639846957
 31
0.0
  0
LINE
  8
0
  6
CONTINUOUS
 62
     6
 10
171.182750681
 20
911.127404191
 30
0.0
 11
154.781894617
 21
911.127404191
 31
0.0
  0
TEXT
  8
0
  6
CONTINUOUS
 62
     6
 10
133.966980995
 20
942.471262446
 30
1.093390404
 40
10.933904043
  1
Ｖ
 50
0.0
 41
0.9
 51
0.0
  7
KANJI29
  0
TEXT
  8
0
  6
CONTINUOUS
 62
     6
 10
135.060371399
 20
916.594356212
 30
1.093390404
 40
10.933904043
  1
Ｗ
 50
0.0
 41
0.9
 51
0.0
  7
KANJI29
  0
CIRCLE
  8
0
  6
CONTINUOUS
 62
     6
 10
150.408333
 20
936.639846957
 30
0.0
 40
4.373561617
  0
LINE
  8
0
  6
CONTINUOUS
 62
     6
 10
145.38354931
 20
931.615063267
 30
0.0
 11
155.588526417
 21
941.820040374
 31
0.0
  0
LINE
  8
0
  6
LTYPE2
 62
     6
 10
150.408333
 20
958.143191574
 30
0.0
 11
150.408333
 21
939.92001817
 31
0.0
  0
CIRCLE
  8
0
  6
CONTINUOUS
 62
     6
 10
150.408333
 20
911.127404191
 30
0.0
 40
4.373561617
  0
LINE
  8
0
  6
CONTINUOUS
 62
     6
 10
145.38354931
 20
906.102620501
 30
0.0
 11
155.588526417
 21
916.307597607
 31
0.0
  0
LINE
  8
0
  6
LTYPE2
 62
     6
 10
150.408333
 20
932.630748808
 30
0.0
 11
150.408333
 21
915.500965808
 31
0.0
  0
LINE
  8
0
  6
LTYPE2
 62
     6
 10
280.805262694
 20
886.421584891
 30
0.0
 11
150.408333
 21
886.421584891
 31
0.0
  0
LINE
  8
0
  6
LTYPE2
 62
     6
 10
150.408333
 20
906.753842574
 30
0.0
 11
150.408333
 21
886.421584891
 31
0.0
  0
TEXT
  8
0
  6
CONTINUOUS
 62
     2
 10
155.503726364
 20
861.212221811
 30
0.0
 40
15.6
  1
モーター結線図
 50
0.0
 41
0.925
 51
0.0
  7
KANJI32
  0
TEXT
  8
0
  6
CONTINUOUS
 62
     6
 10
221.478709277
 20
928.384749405
 30
1.457853872
 40
14.578538724
  1
Ｂ
 50
0.0
 41
0.9
 51
0.0
  7
KANJI33
  0
CIRCLE
  8
0
  6
CONTINUOUS
 62
     6
 10
228.039051703
 20
936.639846957
 30
0.0
 40
14.578538724
  0
ARC
  8
0
  6
CONTINUOUS
 62
     2
 10
158.95
 20
588.15
 30
0.0
 40
20.0
 50
203.198590514
 51
128.047042532
  0
LINE
  8
0
  6
CONTINUOUS
 62
     2
 10
140.5670994
 20
580.271614028
 30
0.0
 11
148.835260778
 21
575.364277493
 31
0.0
  0
LINE
  8
0
  6
CONTINUOUS
 62
     2
 10
140.5670994
 20
580.271614028
 30
0.0
 11
142.86179211
 21
570.434175251
 31
0.0
  0
TEXT
  8
0
  6
CONTINUOUS
 62
     2
 10
78.5670994
 20
584.028385972
 30
0.0
 40
15.0
  1
前進方向
 50
0.0
 41
0.9
 51
0.0
  7
KANJI34
  0
LINE
  8
0
  6
CONTINUOUS
 62
     2
 10
1449.25
 20
590.0
 30
0.0
 11
1569.25
 21
590.0
 31
0.0
  0
TEXT
  8
0
  6
CONTINUOUS
 62
     2
 10
1459.75
 20
597.0
 30
10.0
 40
20.0
  1
特記事項
 50
0.0
 41
0.9
 51
0.0
  7
KANJI35
  0
TEXT
  8
0
  6
CONTINUOUS
 62
     2
 10
1454.75
 20
447.25
 30
1.5
 40
17.5
  1
　　ストローク７００ｍｍ以上の場合２ロッド方式となります。
 50
0.0
 41
0.857142857
 51
0.0
  7
KANJI36
  0
TEXT
  8
0
  6
CONTINUOUS
 62
     2
 10
1454.75
 20
497.25
 30
1.5
 40
17.5
  1
３．ＬＳユニット
 50
0.0
 41
0.857142857
 51
0.0
  7
KANJI36
  0
TEXT
  8
0
  6
CONTINUOUS
 62
     2
 10
1454.75
 20
559.75
 30
1.5
 40
17.5
  1
１．運転時は必ずピストンロッドの回転防止を行って下さい。
 50
0.0
 41
0.857142857
 51
0.0
  7
KANJI36
  0
TEXT
  8
0
  6
CONTINUOUS
 62
     2
 10
1454.75
 20
472.25
 30
1.5
 40
17.5
  1
　　リミットスイッチ：１ＬＳ１－Ｊｘ２ケ（山武）
 50
0.0
 41
0.857142857
 51
0.0
  7
KANJI36
  0
TEXT
  8
0
  6
CONTINUOUS
 62
     2
 10
1454.75
 20
528.5
 30
1.5
 40
17.5
  1
２．モートル：全閉自冷かご形３０分定格
 50
0.0
 41
0.857142857
 51
0.0
  7
KANJI36
  0
TEXT
  8
0
  6
CONTINUOUS
 62
     2
 10
1454.75
 20
419.75
 30
1.5
 40
17.5
  1
４．呼称ストロークは、機械的ストロークです。
 50
0.0
 41
0.857142857
 51
0.0
  7
KANJI36
  0
TEXT
  8
0
  6
CONTINUOUS
 62
     2
 10
1454.75
 20
388.95
 30
1.5
 40
17.5
  1
　　必ず、常用はストローク両端に必ず余裕を取って下さい。
 50
0.0
 41
0.857142857
 51
0.0
  7
KANJI36
  0
TEXT
  8
0
  6
CONTINUOUS
 62
     2
 10
1454.75
 20
357.47
 30
1.5
 40
17.5
  1
　　前後の推奨余裕寸法は、各々１５ｍｍです。
 50
0.0
 41
0.857142857
 51
0.0
  7
KANJI36
  0
LINE
  8
0
  6
CONTINUOUS
 62
     1
 10
312.0
 20
554.5
 30
0.0
 11
312.0
 21
611.5
 31
0.0
  0
ARC
  8
0
  6
CONTINUOUS
 62
     1
 10
308.5
 20
610.0
 30
0.0
 40
1.5
 50
90.0
 51
180.0
  0
LINE
  8
0
  6
CONTINUOUS
 62
     1
 10
307.0
 20
597.570524155
 30
0.0
 11
307.0
 21
610.0
 31
0.0
  0
ARC
  8
0
  6
CONTINUOUS
 62
     1
 10
305.5
 20
597.570524155
 30
0.0
 40
1.5
 50
288.970407808
 51
0.0
  0
LINE
  8
0
  6
CONTINUOUS
 62
     1
 10
291.0
 20
554.5
 30
0.0
 11
291.0
 21
589.929475845
 31
0.0
  0
LINE
  8
0
  6
CONTINUOUS
 62
     1
 10
292.012380347
 20
591.348005744
 30
0.0
 11
305.987619653
 21
596.151994256
 31
0.0
  0
ARC
  8
0
  6
CONTINUOUS
 62
     1
 10
292.5
 20
589.929475845
 30
0.0
 40
1.5
 50
108.970407808
 51
180.0
  0
LINE
  8
0
  6
CONTINUOUS
 62
     1
 10
307.0
 20
554.5
 30
0.0
 11
307.0
 21
597.570524155
 31
0.0
  0
ARC
  8
0
  6
CONTINUOUS
 62
     1
 10
279.0
 20
571.0
 30
0.0
 40
1.0
 50
90.0
 51
180.0
  0
LINE
  8
0
  6
CONTINUOUS
 62
     1
 10
279.0
 20
572.0
 30
0.0
 11
291.0
 21
572.0
 31
0.0
  0
LINE
  8
0
  6
CONTINUOUS
 62
     1
 10
278.0
 20
554.5
 30
0.0
 11
278.0
 21
571.0
 31
0.0
  0
LINE
  8
0
  6
CONTINUOUS
 62
     1
 10
312.0
 20
554.5
 30
0.0
 11
312.0
 21
497.5
 31
0.0
  0
LINE
  8
0
  6
CONTINUOUS
 62
     1
 10
308.5
 20
497.5
 30
0.0
 11
465.5
 21
497.5
 31
0.0
  0
ARC
  8
0
  6
CONTINUOUS
 62
     1
 10
308.5
 20
499.0
 30
0.0
 40
1.5
 50
180.0
 51
270.0
  0
LINE
  8
0
  6
CONTINUOUS
 62
     1
 10
291.0
 20
554.5
 30
0.0
 11
291.0
 21
519.070524155
 31
0.0
  0
ARC
  8
0
  6
CONTINUOUS
 62
     1
 10
292.5
 20
519.070524155
 30
0.0
 40
1.5
 50
180.0
 51
251.029592192
  0
ARC
  8
0
  6
CONTINUOUS
 62
     1
 10
279.0
 20
538.0
 30
0.0
 40
1.0
 50
180.0
 51
270.0
  0
LINE
  8
0
  6
CONTINUOUS
 62
     1
 10
279.0
 20
537.0
 30
0.0
 11
291.0
 21
537.0
 31
0.0
  0
LINE
  8
0
  6
CONTINUOUS
 62
     1
 10
278.0
 20
554.5
 30
0.0
 11
278.0
 21
538.0
 31
0.0
  0
LINE
  8
0
  6
LTYPE2
 62
     2
 10
299.0
 20
590.562445841
 30
0.0
 11
310.0
 21
590.562445841
 31
0.0
  0
LINE
  8
0
  6
CONTINUOUS
 62
     1
 10
307.0
 20
511.429475845
 30
0.0
 11
307.0
 21
499.0
 31
0.0
  0
LINE
  8
0
  6
CONTINUOUS
 62
     1
 10
292.012380347
 20
517.651994256
 30
0.0
 11
305.987619653
 21
512.848005744
 31
0.0
  0
LINE
  8
0
  6
CONTINUOUS
 62
     1
 10
307.0
 20
554.5
 30
0.0
 11
307.0
 21
511.429475845
 31
0.0
  0
LINE
  8
0
  6
LTYPE2
 62
     2
 10
299.0
 20
518.43755416
 30
0.0
 11
310.0
 21
518.43755416
 31
0.0
  0
LINE
  8
0
  6
CONTINUOUS
 62
     1
 10
308.5
 20
611.5
 30
0.0
 11
465.5
 21
611.5
 31
0.0
  0
LINE
  8
0
  6
CONTINUOUS
 62
     1
 10
263.5
 20
570.0
 30
0.0
 11
278.0
 21
570.0
 31
0.0
  0
ARC
  8
0
  6
CONTINUOUS
 62
     1
 10
263.5
 20
568.5
 30
0.0
 40
1.5
 50
90.0
 51
180.0
  0
LINE
  8
0
  6
CONTINUOUS
 62
     1
 10
263.5
 20
539.0
 30
0.0
 11
278.0
 21
539.0
 31
0.0
  0
LINE
  8
0
  6
CONTINUOUS
 62
     1
 10
262.0
 20
540.5
 30
0.0
 11
262.0
 21
568.5
 31
0.0
  0
ARC
  8
0
  6
CONTINUOUS
 62
     1
 10
263.5
 20
540.5
 30
0.0
 40
1.5
 50
180.0
 51
270.0
  0
LINE
  8
0
  6
CONTINUOUS
 62
     1
 10
305.7
 20
590.562445841
 30
0.0
 11
305.7
 21
585.950565841
 31
0.0
  0
LINE
  8
0
  6
CONTINUOUS
 62
     1
 10
305.7
 20
590.562445841
 30
0.0
 11
305.7
 21
595.174325841
 31
0.0
  0
LINE
  8
0
  6
CONTINUOUS
 62
     1
 10
302.1998
 20
587.080005841
 30
0.0
 11
302.851882488
 21
585.950565841
 31
0.0
  0
LINE
  8
0
  6
CONTINUOUS
 62
     1
 10
302.1998
 20
590.562445841
 30
0.0
 11
302.1998
 21
587.080005841
 31
0.0
  0
LINE
  8
0
  6
CONTINUOUS
 62
     1
 10
302.1998
 20
594.044885841
 30
0.0
 11
302.851882488
 21
595.174325841
 31
0.0
  0
LINE
  8
0
  6
CONTINUOUS
 62
     1
 10
302.1998
 20
590.562445841
 30
0.0
 11
302.1998
 21
594.044885841
 31
0.0
  0
ARC
  8
0
  6
CONTINUOUS
 62
     1
 10
306.603054926
 20
590.562445841
 30
0.0
 40
4.403254926
 50
148.419912243
 51
211.580087757
  0
ARC
  8
0
  6
CONTINUOUS
 62
     1
 10
303.544720132
 20
587.103535841
 30
0.0
 40
1.34512595
 50
121.002313915
 51
182.989498403
  0
LINE
  8
0
  6
CONTINUOUS
 62
     1
 10
302.1998
 20
594.044885841
 30
0.0
 11
302.851882488
 21
595.174325841
 31
0.0
  0
ARC
  8
0
  6
CONTINUOUS
 62
     1
 10
303.544720132
 20
594.021355841
 30
0.0
 40
1.34512595
 50
177.010501597
 51
238.997686085
  0
LINE
  8
0
  6
CONTINUOUS
 62
     1
 10
305.7
 20
585.950565841
 30
0.0
 11
302.851882488
 21
585.950565841
 31
0.0
  0
LINE
  8
0
  6
CONTINUOUS
 62
     1
 10
305.7
 20
588.256505841
 30
0.0
 11
302.851882488
 21
588.256505841
 31
0.0
  0
LINE
  8
0
  6
CONTINUOUS
 62
     1
 10
305.7
 20
592.868385841
 30
0.0
 11
302.851882488
 21
592.868385841
 31
0.0
  0
LINE
  8
0
  6
CONTINUOUS
 62
     1
 10
305.7
 20
595.174325841
 30
0.0
 11
302.851882488
 21
595.174325841
 31
0.0
  0
LINE
  8
0
  6
CONTINUOUS
 62
     1
 10
307.0
 20
585.962445841
 30
0.0
 11
305.7
 21
585.962445841
 31
0.0
  0
LINE
  8
0
  6
CONTINUOUS
 62
     1
 10
307.0
 20
590.562445841
 30
0.0
 11
305.700000446
 21
589.262446287
 31
0.0
  0
LINE
  8
0
  6
CONTINUOUS
 62
     1
 10
305.700000446
 20
590.562445841
 30
0.0
 11
307.0
 21
591.862445394
 31
0.0
  0
LINE
  8
0
  6
CONTINUOUS
 62
     1
 10
307.0
 20
595.162445841
 30
0.0
 11
305.7
 21
595.162445841
 31
0.0
  0
LINE
  8
0
  6
CONTINUOUS
 62
     1
 10
277.0
 20
550.7
 30
0.0
 11
278.0
 21
550.7
 31
0.0
  0
LINE
  8
0
  6
CONTINUOUS
 62
     1
 10
274.2
 20
551.0
 30
0.0
 11
274.517542648
 21
550.45
 31
0.0
  0
LINE
  8
0
  6
CONTINUOUS
 62
     1
 10
274.517542648
 20
550.45
 30
0.0
 11
277.0
 21
550.45
 31
0.0
  0
ARC
  8
0
  6
CONTINUOUS
 62
     1
 10
275.972973788
 20
551.4625
 30
0.0
 40
1.772973788
 50
145.174816769
 51
214.825183231
  0
LINE
  8
0
  6
CONTINUOUS
 62
     1
 10
277.0
 20
558.55
 30
0.0
 11
277.0
 21
550.45
 31
0.0
  0
LINE
  8
0
  6
CONTINUOUS
 62
     1
 10
277.0
 20
558.3
 30
0.0
 11
278.0
 21
558.3
 31
0.0
  0
LINE
  8
0
  6
CONTINUOUS
 62
     1
 10
277.0
 20
554.5
 30
0.0
 11
278.0
 21
555.5
 31
0.0
  0
LINE
  8
0
  6
CONTINUOUS
 62
     1
 10
274.517542648
 20
558.55
 30
0.0
 11
277.0
 21
558.55
 31
0.0
  0
LINE
  8
0
  6
CONTINUOUS
 62
     1
 10
274.2
 20
558.0
 30
0.0
 11
274.517542648
 21
558.55
 31
0.0
  0
LINE
  8
0
  6
CONTINUOUS
 62
     1
 10
274.517542648
 20
556.525
 30
0.0
 11
277.0
 21
556.525
 31
0.0
  0
ARC
  8
0
  6
CONTINUOUS
 62
     1
 10
275.972973788
 20
557.5375
 30
0.0
 40
1.772973788
 50
145.174816769
 51
214.825183231
  0
LINE
  8
0
  6
CONTINUOUS
 62
     1
 10
277.0
 20
553.5
 30
0.0
 11
278.0
 21
554.5
 31
0.0
  0
LINE
  8
0
  6
CONTINUOUS
 62
     1
 10
274.517542648
 20
552.475
 30
0.0
 11
277.0
 21
552.475
 31
0.0
  0
LINE
  8
0
  6
CONTINUOUS
 62
     1
 10
274.2
 20
558.0
 30
0.0
 11
274.2
 21
551.0
 31
0.0
  0
ARC
  8
0
  6
CONTINUOUS
 62
     1
 10
280.815581181
 20
554.5
 30
0.0
 40
6.615581181
 50
162.175912681
 51
197.824087319
  0
ARC
  8
0
  6
CONTINUOUS
 62
     1
 10
305.5
 20
511.429475845
 30
0.0
 40
1.5
 50
0.0
 51
71.029592192
  0
LINE
  8
0
  6
CONTINUOUS
 62
     1
 10
305.7
 20
518.43755416
 30
0.0
 11
305.7
 21
523.04943416
 31
0.0
  0
LINE
  8
0
  6
CONTINUOUS
 62
     1
 10
302.1998
 20
521.91999416
 30
0.0
 11
302.851882488
 21
523.04943416
 31
0.0
  0
LINE
  8
0
  6
CONTINUOUS
 62
     1
 10
302.1998
 20
518.43755416
 30
0.0
 11
302.1998
 21
521.91999416
 31
0.0
  0
ARC
  8
0
  6
CONTINUOUS
 62
     1
 10
303.544720132
 20
521.89646416
 30
0.0
 40
1.34512595
 50
177.010501597
 51
238.997686085
  0
LINE
  8
0
  6
CONTINUOUS
 62
     1
 10
305.7
 20
523.04943416
 30
0.0
 11
302.851882488
 21
523.04943416
 31
0.0
  0
LINE
  8
0
  6
CONTINUOUS
 62
     1
 10
307.0
 20
523.03755416
 30
0.0
 11
305.7
 21
523.03755416
 31
0.0
  0
LINE
  8
0
  6
CONTINUOUS
 62
     1
 10
305.7
 20
518.43755416
 30
0.0
 11
305.7
 21
513.82567416
 31
0.0
  0
LINE
  8
0
  6
CONTINUOUS
 62
     1
 10
302.1998
 20
514.95511416
 30
0.0
 11
302.851882488
 21
513.82567416
 31
0.0
  0
LINE
  8
0
  6
CONTINUOUS
 62
     1
 10
302.1998
 20
518.43755416
 30
0.0
 11
302.1998
 21
514.95511416
 31
0.0
  0
ARC
  8
0
  6
CONTINUOUS
 62
     1
 10
306.603054926
 20
518.43755416
 30
0.0
 40
4.403254926
 50
148.419912243
 51
211.580087757
  0
LINE
  8
0
  6
CONTINUOUS
 62
     1
 10
302.1998
 20
514.95511416
 30
0.0
 11
302.851882488
 21
513.82567416
 31
0.0
  0
ARC
  8
0
  6
CONTINUOUS
 62
     1
 10
303.544720132
 20
514.97864416
 30
0.0
 40
1.34512595
 50
121.002313915
 51
182.989498403
  0
LINE
  8
0
  6
CONTINUOUS
 62
     1
 10
305.7
 20
516.13161416
 30
0.0
 11
302.851882488
 21
516.13161416
 31
0.0
  0
LINE
  8
0
  6
CONTINUOUS
 62
     1
 10
305.7
 20
513.82567416
 30
0.0
 11
302.851882488
 21
513.82567416
 31
0.0
  0
LINE
  8
0
  6
CONTINUOUS
 62
     1
 10
307.0
 20
513.83755416
 30
0.0
 11
305.7
 21
513.83755416
 31
0.0
  0
LINE
  8
0
  6
CONTINUOUS
 62
     1
 10
305.7
 20
520.74349416
 30
0.0
 11
302.851882488
 21
520.74349416
 31
0.0
  0
LINE
  8
0
  6
CONTINUOUS
 62
     1
 10
307.0
 20
518.43755416
 30
0.0
 11
305.700000446
 21
519.737553713
 31
0.0
  0
LINE
  8
0
  6
CONTINUOUS
 62
     1
 10
305.700000446
 20
518.43755416
 30
0.0
 11
307.0
 21
517.137554606
 31
0.0
  0
LINE
  8
0
  6
LTYPE3
 62
     2
 10
527.9
 20
554.5
 30
0.0
 11
256.0
 21
554.5
 31
0.0
  0
LINE
  8
2
  6
CONTINUOUS
 62
     2
 10
270.100004265
 20
570.0
 30
0.0
 11
270.639879399
 21
579.985416108
 31
0.0
  0
LINE
  8
2
  6
CONTINUOUS
 62
     2
 10
270.100004265
 20
570.0
 30
0.0
 11
265.574841792
 21
578.917561583
 31
0.0
  0
LINE
  8
2
  6
CONTINUOUS
 62
     2
 10
262.0
 20
572.5
 30
0.0
 11
262.0
 21
793.2
 31
0.0
  0
LINE
  8
2
  6
CONTINUOUS
 62
     2
 10
262.0
 20
785.2
 30
0.0
 11
271.659258263
 21
782.611809549
 31
0.0
  0
LINE
  8
2
  6
CONTINUOUS
 62
     2
 10
262.0
 20
785.2
 30
0.0
 11
271.659258263
 21
787.788190451
 31
0.0
  0
LINE
  8
2
  6
CONTINUOUS
 62
     2
 10
262.0
 20
815.7
 30
0.0
 11
271.659258263
 21
813.111809549
 31
0.0
  0
LINE
  8
2
  6
CONTINUOUS
 62
     2
 10
262.0
 20
815.7
 30
0.0
 11
271.659258263
 21
818.288190451
 31
0.0
  0
LINE
  8
2
  6
CONTINUOUS
 62
     2
 10
262.0
 20
766.038620668
 30
0.0
 11
262.0
 21
823.7
 31
0.0
  0
LINE
  8
2
  6
CONTINUOUS
 62
     2
 10
565.0
 20
785.2
 30
0.0
 11
262.0
 21
785.2
 31
0.0
  0
LINE
  8
0
  6
CONTINUOUS
 62
     2
 10
348.930224855
 20
714.032014776
 30
0.0
 11
294.558072957
 21
714.032014776
 31
0.0
  0
LINE
  8
2
  6
CONTINUOUS
 62
     2
 10
308.0
 20
611.5
 30
0.0
 11
232.0
 21
611.5
 31
0.0
  0
LINE
  8
2
  6
CONTINUOUS
 62
     2
 10
240.0
 20
611.5
 30
0.0
 11
237.411809549
 21
601.840741737
 31
0.0
  0
LINE
  8
2
  6
CONTINUOUS
 62
     2
 10
240.0
 20
611.5
 30
0.0
 11
242.588190451
 21
601.840741737
 31
0.0
  0
LINE
  8
2
  6
CONTINUOUS
 62
     2
 10
240.0
 20
611.5
 30
0.0
 11
240.0
 21
497.5
 31
0.0
  0
LINE
  8
2
  6
CONTINUOUS
 62
     2
 10
240.0
 20
497.5
 30
0.0
 11
242.588190451
 21
507.159258263
 31
0.0
  0
LINE
  8
2
  6
CONTINUOUS
 62
     2
 10
240.0
 20
497.5
 30
0.0
 11
237.411809549
 21
507.159258263
 31
0.0
  0
LINE
  8
2
  6
CONTINUOUS
 62
     2
 10
308.0
 20
497.5
 30
0.0
 11
232.0
 21
497.5
 31
0.0
  0
LINE
  8
2
  6
CONTINUOUS
 62
     2
 10
464.5
 20
615.5
 30
0.0
 11
201.5
 21
615.5
 31
0.0
  0
LINE
  8
2
  6
CONTINUOUS
 62
     2
 10
209.5
 20
615.5
 30
0.0
 11
206.911809549
 21
605.840741737
 31
0.0
  0
LINE
  8
2
  6
CONTINUOUS
 62
     2
 10
209.5
 20
615.5
 30
0.0
 11
212.088190451
 21
605.840741737
 31
0.0
  0
LINE
  8
2
  6
CONTINUOUS
 62
     2
 10
209.5
 20
615.5
 30
0.0
 11
209.5
 21
493.5
 31
0.0
  0
LINE
  8
2
  6
CONTINUOUS
 62
     2
 10
209.5
 20
493.5
 30
0.0
 11
212.088190451
 21
503.159258263
 31
0.0
  0
LINE
  8
2
  6
CONTINUOUS
 62
     2
 10
209.5
 20
493.5
 30
0.0
 11
206.911809549
 21
503.159258263
 31
0.0
  0
LINE
  8
2
  6
CONTINUOUS
 62
     2
 10
464.500007629
 20
493.5
 30
0.0
 11
201.5
 21
493.5
 31
0.0
  0
TEXT
  8
0
  6
CONTINUOUS
 62
     2
 10
295.700004265
 20
718.5
 30
0.0
 40
15.0
  1
ＰＦ３／４
 50
0.0
 41
0.9
 51
0.0
  7
KANJI34
  0
TEXT
  8
2
  6
CONTINUOUS
 62
     3
 10
205.5
 20
527.1
 30
0.0
 40
15.0
  1
□１２２
 50
90.0
 41
0.9
 51
0.0
  7
KANJI34
  0
TEXT
  8
2
  6
CONTINUOUS
 62
     3
 10
236.0
 20
527.1
 30
0.0
 40
15.0
  1
φ１１４
 50
90.0
 41
0.9
 51
0.0
  7
KANJI34
  0
TEXT
  8
0
  6
CONTINUOUS
 62
     2
 10
320.9
 20
509.5
 30
0.0
 40
15.0
  1
エコノストップモータ
 50
0.0
 41
0.9
 51
0.0
  7
KANJI34
  0
TEXT
  8
0
  6
CONTINUOUS
 62
     2
 10
323.8
 20
526.5
 30
0.0
 40
15.0
  1
日本電産
 50
0.0
 41
0.9
 51
0.0
  7
KANJI34
  0
LINE
  8
0
  6
CONTINUOUS
 62
     1
 10
475.0
 20
614.5
 30
0.0
 11
475.0
 21
494.5
 31
0.0
  0
LINE
  8
0
  6
CONTINUOUS
 62
     1
 10
461.0
 20
554.5
 30
0.0
 11
461.0
 21
611.5
 31
0.0
  0
ARC
  8
0
  6
CONTINUOUS
 62
     1
 10
465.5
 20
613.0
 30
0.0
 40
1.5
 50
270.0
 51
0.0
  0
LINE
  8
0
  6
CONTINUOUS
 62
     1
 10
467.0
 20
613.0
 30
0.0
 11
467.0
 21
614.0
 31
0.0
  0
ARC
  8
0
  6
CONTINUOUS
 62
     1
 10
468.5
 20
614.0
 30
0.0
 40
1.5
 50
90.0
 51
180.0
  0
LINE
  8
0
  6
CONTINUOUS
 62
     1
 10
467.0
 20
554.5
 30
0.0
 11
467.0
 21
613.6
 31
0.0
  0
LINE
  8
0
  6
CONTINUOUS
 62
     1
 10
461.0
 20
554.5
 30
0.0
 11
461.0
 21
497.5
 31
0.0
  0
LINE
  8
0
  6
CONTINUOUS
 62
     1
 10
467.0
 20
554.5
 30
0.0
 11
467.0
 21
495.4
 31
0.0
  0
ARC
  8
0
  6
CONTINUOUS
 62
     1
 10
448.0
 20
614.5
 30
0.0
 40
3.0
 50
270.0
 51
0.0
  0
ARC
  8
0
  6
CONTINUOUS
 62
     1
 10
408.0
 20
614.5
 30
0.0
 40
3.0
 50
180.0
 51
270.0
  0
LINE
  8
0
  6
LTYPE2
 62
     2
 10
428.0
 20
599.5
 30
0.0
 11
428.0
 21
687.4321338
 31
0.0
  0
LINE
  8
0
  6
CONTINUOUS
 62
     1
 10
362.0
 20
632.5
 30
0.0
 11
362.0
 21
666.5
 31
0.0
  0
LINE
  8
0
  6
CONTINUOUS
 62
     1
 10
362.0
 20
632.5
 30
0.0
 11
388.0
 21
632.5
 31
0.0
  0
LINE
  8
0
  6
CONTINUOUS
 62
     1
 10
362.0
 20
666.5
 30
0.0
 11
388.0
 21
666.5
 31
0.0
  0
LINE
  8
0
  6
LTYPE2
 62
     2
 10
355.070524155
 20
649.5
 30
0.0
 11
395.070524155
 21
649.5
 31
0.0
  0
LINE
  8
0
  6
CONTINUOUS
 62
     1
 10
458.0
 20
624.5
 30
0.0
 11
458.0
 21
627.5
 31
0.0
  0
ARC
  8
0
  6
CONTINUOUS
 62
     1
 10
454.0
 20
621.5
 30
0.0
 40
3.0
 50
90.0
 51
180.0
  0
LINE
  8
0
  6
CONTINUOUS
 62
     1
 10
451.0
 20
614.5
 30
0.0
 11
451.0
 21
621.5
 31
0.0
  0
LINE
  8
0
  6
CONTINUOUS
 62
     1
 10
398.0
 20
624.5
 30
0.0
 11
398.0
 21
627.5
 31
0.0
  0
ARC
  8
0
  6
CONTINUOUS
 62
     1
 10
402.0
 20
621.5
 30
0.0
 40
3.0
 50
0.0
 51
90.0
  0
LINE
  8
0
  6
CONTINUOUS
 62
     1
 10
405.0
 20
614.5
 30
0.0
 11
405.0
 21
621.5
 31
0.0
  0
LINE
  8
0
  6
CONTINUOUS
 62
     1
 10
398.0
 20
624.5
 30
0.0
 11
458.0
 21
624.5
 31
0.0
  0
LINE
  8
0
  6
CONTINUOUS
 62
     1
 10
473.087912088
 20
629.5
 30
0.0
 11
381.0
 21
673.520045888
 31
0.0
  0
LINE
  8
0
  6
CONTINUOUS
 62
     1
 10
475.0
 20
633.5
 30
0.0
 11
473.087912088
 21
629.5
 31
0.0
  0
LINE
  8
0
  6
CONTINUOUS
 62
     1
 10
475.0
 20
633.5
 30
0.0
 11
382.912087912
 21
677.520045888
 31
0.0
  0
LINE
  8
0
  6
CONTINUOUS
 62
     1
 10
382.912087912
 20
677.520045888
 30
0.0
 11
381.0
 21
673.520045888
 31
0.0
  0
LINE
  8
0
  6
CONTINUOUS
 62
     1
 10
468.0
 20
636.846153846
 30
0.0
 11
468.0
 21
676.5
 31
0.0
  0
ARC
  8
0
  6
CONTINUOUS
 62
     1
 10
465.0
 20
676.5
 30
0.0
 40
3.0
 50
0.0
 51
90.0
  0
LINE
  8
0
  6
CONTINUOUS
 62
     1
 10
468.0
 20
630.5
 30
0.0
 11
468.0
 21
631.9321338
 31
0.0
  0
ARC
  8
0
  6
CONTINUOUS
 62
     1
 10
465.0
 20
630.5
 30
0.0
 40
3.0
 50
270.0
 51
0.0
  0
LINE
  8
0
  6
CONTINUOUS
 62
     1
 10
388.0
 20
630.5
 30
0.0
 11
388.0
 21
670.173892042
 31
0.0
  0
LINE
  8
0
  6
CONTINUOUS
 62
     1
 10
391.0
 20
627.5
 30
0.0
 11
465.0
 21
627.5
 31
0.0
  0
ARC
  8
0
  6
CONTINUOUS
 62
     1
 10
391.0
 20
630.5
 30
0.0
 40
3.0
 50
180.0
 51
270.0
  0
LINE
  8
0
  6
CONTINUOUS
 62
     1
 10
388.0
 20
675.087912088
 30
0.0
 11
388.0
 21
676.5
 31
0.0
  0
LINE
  8
0
  6
CONTINUOUS
 62
     1
 10
391.0
 20
679.5
 30
0.0
 11
465.0
 21
679.5
 31
0.0
  0
ARC
  8
0
  6
CONTINUOUS
 62
     1
 10
391.0
 20
676.5
 30
0.0
 40
3.0
 50
90.0
 51
180.0
  0
LINE
  8
0
  6
CONTINUOUS
 62
     2
 10
362.0
 20
649.5
 30
0.0
 11
362.619310852
 21
659.48080428
 31
0.0
  0
LINE
  8
0
  6
CONTINUOUS
 62
     2
 10
362.0
 20
649.5
 30
0.0
 11
357.545936791
 21
658.453285482
 31
0.0
  0
LINE
  8
0
  6
CONTINUOUS
 62
     1
 10
468.5
 20
615.5
 30
0.0
 11
475.0
 21
615.5
 31
0.0
  0
LINE
  8
0
  6
CONTINUOUS
 62
     1
 10
475.0
 20
493.5
 30
0.0
 11
475.0
 21
554.5
 31
0.0
  0
LINE
  8
0
  6
CONTINUOUS
 62
     1
 10
475.0
 20
615.5
 30
0.0
 11
475.0
 21
493.5
 31
0.0
  0
ARC
  8
0
  6
CONTINUOUS
 62
     1
 10
493.0
 20
647.0
 30
0.0
 40
15.0
 50
90.0
 51
180.0
  0
LINE
  8
0
  6
CONTINUOUS
 62
     1
 10
475.0
 20
612.0
 30
0.0
 11
476.00001079
 21
612.0
 31
0.0
  0
LINE
  8
0
  6
CONTINUOUS
 62
     1
 10
478.0
 20
647.0
 30
0.0
 11
478.0
 21
614.000007629
 31
0.0
  0
ARC
  8
0
  6
CONTINUOUS
 62
     1
 10
476.0
 20
614.0
 30
0.0
 40
2.0
 50
270.000309099
 51
0.000218566
  0
LINE
  8
2
  6
CONTINUOUS
 62
     2
 10
509.5
 20
607.5
 30
0.0
 11
503.5
 21
607.5
 31
0.0
  0
LINE
  8
2
  6
CONTINUOUS
 62
     2
 10
511.5
 20
607.5
 30
0.0
 11
508.911809549
 21
597.840741737
 31
0.0
  0
LINE
  8
2
  6
CONTINUOUS
 62
     2
 10
511.5
 20
607.5
 30
0.0
 11
514.088190451
 21
597.840741737
 31
0.0
  0
LINE
  8
2
  6
CONTINUOUS
 62
     2
 10
511.5
 20
607.5
 30
0.0
 11
511.5
 21
554.5
 31
0.0
  0
LINE
  8
2
  6
CONTINUOUS
 62
     2
 10
511.5
 20
554.5
 30
0.0
 11
514.088190451
 21
564.159258263
 31
0.0
  0
LINE
  8
2
  6
CONTINUOUS
 62
     2
 10
511.5
 20
554.5
 30
0.0
 11
508.911809549
 21
564.159258263
 31
0.0
  0
LINE
  8
2
  6
CONTINUOUS
 62
     2
 10
508.5
 20
554.5
 30
0.0
 11
503.5
 21
554.5
 31
0.0
  0
LINE
  8
0
  6
CONTINUOUS
 62
     1
 10
493.0
 20
662.0
 30
0.0
 11
541.0
 21
662.0
 31
0.0
  0
LINE
  8
0
  6
CONTINUOUS
 62
     2
 10
362.0
 20
649.5
 30
0.0
 11
348.930224855
 21
714.032014776
 31
0.0
  0
TEXT
  8
2
  6
CONTINUOUS
 62
     3
 10
507.5
 20
567.6
 30
0.0
 40
15.0
  1
５３
 50
90.0
 41
0.9
 51
0.0
  7
KANJI34
  0
LINE
  8
0
  6
LTYPE3
 62
     2
 10
502.3
 20
607.5
 30
0.0
 11
652.0
 21
607.5
 31
0.0
  0
TEXT
  8
2
  6
CONTINUOUS
 62
     3
 10
384.1
 20
789.2
 30
0.0
 40
15.0
  1
３０３
 50
0.0
 41
0.9
 51
0.0
  7
KANJI34
  0
LINE
  8
2
  6
CONTINUOUS
 62
     2
 10
565.0
 20
785.2
 30
0.0
 11
555.340741737
 21
787.788190451
 31
0.0
  0
LINE
  8
2
  6
CONTINUOUS
 62
     2
 10
565.0
 20
785.2
 30
0.0
 11
555.340741737
 21
782.611809549
 31
0.0
  0
LINE
  8
2
  6
CONTINUOUS
 62
     2
 10
565.0
 20
648.5
 30
0.0
 11
565.0
 21
793.2
 31
0.0
  0
LINE
  8
2
  6
CONTINUOUS
 62
     2
 10
565.0
 20
781.2
 30
0.0
 11
565.0
 21
745.0
 31
0.0
  0
LINE
  8
2
  6
CONTINUOUS
 62
     2
 10
565.0
 20
774.2
 30
0.0
 11
565.0
 21
793.2
 31
0.0
  0
LINE
  8
2
  6
CONTINUOUS
 62
     2
 10
565.0
 20
785.2
 30
0.0
 11
574.659258263
 21
782.611809549
 31
0.0
  0
LINE
  8
2
  6
CONTINUOUS
 62
     2
 10
565.0
 20
785.2
 30
0.0
 11
574.659258263
 21
787.788190451
 31
0.0
  0
LINE
  8
2
  6
CONTINUOUS
 62
     2
 10
565.0
 20
753.0
 30
0.0
 11
574.659258263
 21
755.588190451
 31
0.0
  0
LINE
  8
2
  6
CONTINUOUS
 62
     2
 10
565.0
 20
753.0
 30
0.0
 11
574.659258263
 21
750.411809549
 31
0.0
  0
LINE
  8
0
  6
CONTINUOUS
 62
     1
 10
535.0
 20
522.5
 30
0.0
 11
535.0
 21
662.0
 31
0.0
  0
LINE
  8
0
  6
CONTINUOUS
 62
     1
 10
543.0
 20
556.5
 30
0.0
 11
543.0
 21
660.0
 31
0.0
  0
ARC
  8
0
  6
CONTINUOUS
 62
     1
 10
541.0
 20
660.0
 30
0.0
 40
2.0
 50
0.0
 51
90.0
  0
LINE
  8
0
  6
CONTINUOUS
 62
     1
 10
546.000013214
 20
644.5
 30
0.0
 11
606.0
 21
644.5
 31
0.0
  0
ARC
  8
0
  6
CONTINUOUS
 62
     1
 10
546.0
 20
647.5
 30
0.0
 40
3.0
 50
183.814074834
 51
270.000252378
  0
CIRCLE
  8
0
  6
CONTINUOUS
 62
     1
 10
565.0
 20
607.5
 30
0.0
 40
20.0
  0
CIRCLE
  8
0
  6
CONTINUOUS
 62
     1
 10
565.0
 20
607.5
 30
0.0
 40
8.0
  0
LINE
  8
0
  6
LTYPE2
 62
     2
 10
565.0
 20
551.895571327
 30
0.0
 11
565.0
 21
655.795571327
 31
0.0
  0
LINE
  8
2
  6
CONTINUOUS
 62
     2
 10
565.0
 20
608.3
 30
0.0
 11
572.830111779
 21
614.520076328
 31
0.0
  0
LINE
  8
2
  6
CONTINUOUS
 62
     2
 10
565.0
 20
608.3
 30
0.0
 11
568.671037551
 21
617.601800003
 31
0.0
  0
LINE
  8
2
  6
CONTINUOUS
 62
     2
 10
565.0
 20
608.3
 30
0.0
 11
626.5
 21
691.3
 31
0.0
  0
ARC
  8
0
  6
CONTINUOUS
 62
     1
 10
565.0
 20
607.5
 30
0.0
 40
27.0
 50
215.430944687
 51
144.569055313
  0
LINE
  8
0
  6
CONTINUOUS
 62
     1
 10
606.0
 20
644.8
 30
0.0
 11
614.0
 21
644.8
 31
0.0
  0
LINE
  8
0
  6
CONTINUOUS
 62
     1
 10
606.0
 20
567.8
 30
0.0
 11
606.0
 21
647.8
 31
0.0
  0
LINE
  8
0
  6
CONTINUOUS
 62
     1
 10
606.0
 20
647.8
 30
0.0
 11
614.0
 21
647.8
 31
0.0
  0
LINE
  8
0
  6
CONTINUOUS
 62
     1
 10
606.0
 20
609.3
 30
0.0
 11
614.0
 21
609.3
 31
0.0
  0
LINE
  8
0
  6
CONTINUOUS
 62
     1
 10
614.0
 20
567.8
 30
0.0
 11
614.0
 21
647.8
 31
0.0
  0
LINE
  8
0
  6
CONTINUOUS
 62
     1
 10
606.0
 20
606.3
 30
0.0
 11
614.0
 21
606.3
 31
0.0
  0
LINE
  8
0
  6
CONTINUOUS
 62
     1
 10
606.0
 20
570.8
 30
0.0
 11
614.0
 21
570.8
 31
0.0
  0
LINE
  8
0
  6
CONTINUOUS
 62
     1
 10
606.0
 20
567.8
 30
0.0
 11
614.0
 21
567.8
 31
0.0
  0
LINE
  8
0
  6
CONTINUOUS
 62
     1
 10
545.800009344
 20
570.5
 30
0.0
 11
606.0
 21
570.5
 31
0.0
  0
LINE
  8
0
  6
CONTINUOUS
 62
     1
 10
535.0
 20
554.5
 30
0.0
 11
541.0
 21
554.5
 31
0.0
  0
ARC
  8
0
  6
CONTINUOUS
 62
     1
 10
541.0
 20
556.5
 30
0.0
 40
2.0
 50
270.0
 51
0.0
  0
ARC
  8
0
  6
CONTINUOUS
 62
     1
 10
545.8
 20
567.5
 30
0.0
 40
3.0
 50
89.999821542
 51
182.106627847
  0
LINE
  8
0
  6
CONTINUOUS
 62
     1
 10
490.0
 20
519.5
 30
0.0
 11
532.000007629
 21
519.5
 31
0.0
  0
ARC
  8
0
  6
CONTINUOUS
 62
     1
 10
490.0
 20
516.5
 30
0.0
 40
3.0
 50
90.0
 51
180.0
  0
LINE
  8
0
  6
CONTINUOUS
 62
     1
 10
487.0
 20
516.5
 30
0.0
 11
487.0
 21
497.5
 31
0.0
  0
LINE
  8
0
  6
CONTINUOUS
 62
     1
 10
511.0
 20
516.500007629
 30
0.0
 11
511.0
 21
497.500007629
 31
0.0
  0
ARC
  8
0
  6
CONTINUOUS
 62
     1
 10
514.0
 20
516.5
 30
0.0
 40
3.0
 50
90.0
 51
179.99985429
  0
ARC
  8
0
  6
CONTINUOUS
 62
     1
 10
532.0
 20
522.5
 30
0.0
 40
3.0
 50
270.000145711
 51
0.0
  0
ARC
  8
0
  6
CONTINUOUS
 62
     1
 10
465.5
 20
496.0
 30
0.0
 40
1.5
 50
0.0
 51
90.0
  0
LINE
  8
0
  6
CONTINUOUS
 62
     1
 10
467.0
 20
496.0
 30
0.0
 11
467.0
 21
495.0
 31
0.0
  0
ARC
  8
0
  6
CONTINUOUS
 62
     1
 10
468.5
 20
495.0
 30
0.0
 40
1.5
 50
180.0
 51
270.0
  0
LINE
  8
0
  6
CONTINUOUS
 62
     1
 10
468.499990656
 20
493.5
 30
0.0
 11
475.0
 21
493.5
 31
0.0
  0
ARC
  8
0
  6
CONTINUOUS
 62
     1
 10
484.0
 20
497.5
 30
0.0
 40
3.0
 50
270.0
 51
0.0
  0
LINE
  8
0
  6
CONTINUOUS
 62
     1
 10
475.0
 20
494.5
 30
0.0
 11
508.000007629
 21
494.5
 31
0.0
  0
ARC
  8
0
  6
CONTINUOUS
 62
     1
 10
508.0
 20
497.5
 30
0.0
 40
3.0
 50
270.000145711
 51
0.00014571
  0
TEXT
  8
0
  6
CONTINUOUS
 62
     2
 10
668.6
 20
589.5
 30
0.0
 40
15.0
  1
φ６４
 50
90.0
 41
0.9
 51
0.0
  7
KANJI34
  0
LINE
  8
0
  6
CONTINUOUS
 62
     2
 10
672.6
 20
575.75
 30
0.0
 11
672.6
 21
639.25
 31
0.0
  0
LINE
  8
0
  6
CONTINUOUS
 62
     2
 10
672.6
 20
639.25
 30
0.0
 11
670.011809549
 21
629.590741737
 31
0.0
  0
LINE
  8
0
  6
CONTINUOUS
 62
     2
 10
672.6
 20
639.25
 30
0.0
 11
675.188190451
 21
629.590741737
 31
0.0
  0
LINE
  8
0
  6
CONTINUOUS
 62
     2
 10
672.6
 20
575.75
 30
0.0
 11
670.011809549
 21
585.409258263
 31
0.0
  0
LINE
  8
0
  6
CONTINUOUS
 62
     2
 10
672.6
 20
575.75
 30
0.0
 11
675.188190451
 21
585.409258263
 31
0.0
  0
LINE
  8
0
  6
CONTINUOUS
 62
     1
 10
1018.0
 20
587.5
 30
0.0
 11
1018.0
 21
607.5
 31
0.0
  0
LINE
  8
0
  6
CONTINUOUS
 62
     1
 10
1018.0
 20
607.5
 30
0.0
 11
1018.0
 21
587.5
 31
0.0
  0
LINE
  8
0
  6
CONTINUOUS
 62
     1
 10
1018.0
 20
607.5
 30
0.0
 11
1018.0
 21
587.5
 31
0.0
  0
LINE
  8
0
  6
CONTINUOUS
 62
     1
 10
1018.0
 20
586.5
 30
0.0
 11
1018.0
 21
607.5
 31
0.0
  0
LINE
  8
0
  6
CONTINUOUS
 62
     1
 10
1018.1
 20
587.3
 30
0.0
 11
1018.1
 21
607.3
 31
0.0
  0
LINE
  8
0
  6
CONTINUOUS
 62
     1
 10
1018.1
 20
607.3
 30
0.0
 11
1018.1
 21
587.3
 31
0.0
  0
POINT
  8
0
  6
CONTINUOUS
 62
     1
 10
900.739501379
 20
607.3
 30
0.0
  0
LINE
  8
0
  6
LTYPE2
 62
     2
 10
1069.1
 20
569.3
 30
0.0
 11
1069.1
 21
645.3
 31
0.0
  0
LINE
  8
0
  6
LTYPE3
 62
     2
 10
1069.1
 20
283.8
 30
0.0
 11
1069.1
 21
569.3
 31
0.0
  0
LINE
  8
2
  6
CONTINUOUS
 62
     2
 10
1069.1
 20
815.7
 30
0.0
 11
1059.440741737
 21
818.288190451
 31
0.0
  0
LINE
  8
2
  6
CONTINUOUS
 62
     2
 10
1069.1
 20
815.7
 30
0.0
 11
1059.440741737
 21
813.111809549
 31
0.0
  0
LINE
  8
2
  6
CONTINUOUS
 62
     2
 10
1069.1
 20
785.2
 30
0.0
 11
1059.440741737
 21
787.788190451
 31
0.0
  0
LINE
  8
2
  6
CONTINUOUS
 62
     2
 10
1069.1
 20
785.2
 30
0.0
 11
1059.440741737
 21
782.611809549
 31
0.0
  0
LINE
  8
2
  6
CONTINUOUS
 62
     2
 10
1069.1
 20
811.7
 30
0.0
 11
1069.1
 21
777.2
 31
0.0
  0
LINE
  8
2
  6
CONTINUOUS
 62
     2
 10
1034.1
 20
753.0
 30
0.0
 11
1024.440741737
 21
755.588190451
 31
0.0
  0
LINE
  8
2
  6
CONTINUOUS
 62
     2
 10
1034.1
 20
753.0
 30
0.0
 11
1024.440741737
 21
750.411809549
 31
0.0
  0
LINE
  8
2
  6
CONTINUOUS
 62
     2
 10
1034.1
 20
641.3
 30
0.0
 11
1034.1
 21
761.0
 31
0.0
  0
LINE
  8
2
  6
CONTINUOUS
 62
     2
 10
1034.1
 20
753.0
 30
0.0
 11
1043.759258263
 21
750.411809549
 31
0.0
  0
LINE
  8
2
  6
CONTINUOUS
 62
     2
 10
1034.1
 20
753.0
 30
0.0
 11
1043.759258263
 21
755.588190451
 31
0.0
  0
LINE
  8
2
  6
CONTINUOUS
 62
     2
 10
1034.1
 20
753.0
 30
0.0
 11
1069.1
 21
753.0
 31
0.0
  0
LINE
  8
2
  6
CONTINUOUS
 62
     2
 10
1069.1
 20
753.0
 30
0.0
 11
1059.440741737
 21
755.588190451
 31
0.0
  0
LINE
  8
2
  6
CONTINUOUS
 62
     2
 10
1069.1
 20
753.0
 30
0.0
 11
1059.440741737
 21
750.411809549
 31
0.0
  0
LINE
  8
2
  6
CONTINUOUS
 62
     2
 10
1069.1
 20
781.2
 30
0.0
 11
1069.1
 21
745.0
 31
0.0
  0
LINE
  8
2
  6
CONTINUOUS
 62
     2
 10
1087.1
 20
815.7
 30
0.0
 11
1096.759258263
 21
818.288190451
 31
0.0
  0
LINE
  8
2
  6
CONTINUOUS
 62
     2
 10
1087.1
 20
815.7
 30
0.0
 11
1096.759258263
 21
813.111809549
 31
0.0
  0
LINE
  8
2
  6
CONTINUOUS
 62
     2
 10
1069.1
 20
815.7
 30
0.0
 11
1059.440741737
 21
818.288190451
 31
0.0
  0
LINE
  8
2
  6
CONTINUOUS
 62
     2
 10
1069.1
 20
815.7
 30
0.0
 11
1059.440741737
 21
813.111809549
 31
0.0
  0
LINE
  8
0
  6
CONTINUOUS
 62
     2
 10
1041.1
 20
382.8
 30
0.0
 11
1133.1
 21
382.8
 31
0.0
  0
LINE
  8
0
  6
CONTINUOUS
 62
     2
 10
1061.1
 20
355.3
 30
0.0
 11
1061.1
 21
390.8
 31
0.0
  0
LINE
  8
0
  6
CONTINUOUS
 62
     2
 10
1061.1
 20
382.8
 30
0.0
 11
1051.440741737
 21
385.388190451
 31
0.0
  0
LINE
  8
0
  6
CONTINUOUS
 62
     2
 10
1061.1
 20
382.8
 30
0.0
 11
1051.440741737
 21
380.211809549
 31
0.0
  0
LINE
  8
0
  6
CONTINUOUS
 62
     2
 10
1077.1
 20
382.8
 30
0.0
 11
1086.759258263
 21
380.211809549
 31
0.0
  0
LINE
  8
0
  6
CONTINUOUS
 62
     2
 10
1077.1
 20
382.8
 30
0.0
 11
1086.759258263
 21
385.388190451
 31
0.0
  0
LINE
  8
0
  6
CONTINUOUS
 62
     2
 10
1077.1
 20
355.3
 30
0.0
 11
1077.1
 21
390.8
 31
0.0
  0
LINE
  8
0
  6
CONTINUOUS
 62
     2
 10
1044.1
 20
332.75
 30
0.0
 11
1044.1
 21
415.15
 31
0.0
  0
LINE
  8
0
  6
CONTINUOUS
 62
     2
 10
1068.8
 20
409.15
 30
0.0
 11
1059.140741737
 21
411.738190451
 31
0.0
  0
LINE
  8
0
  6
CONTINUOUS
 62
     2
 10
1068.8
 20
409.15
 30
0.0
 11
1059.140741737
 21
406.561809549
 31
0.0
  0
LINE
  8
0
  6
CONTINUOUS
 62
     2
 10
1068.8
 20
409.15
 30
0.0
 11
1043.8
 21
409.15
 31
0.0
  0
LINE
  8
0
  6
CONTINUOUS
 62
     2
 10
1044.1
 20
409.15
 30
0.0
 11
1053.759258263
 21
406.561809549
 31
0.0
  0
LINE
  8
0
  6
CONTINUOUS
 62
     2
 10
1044.1
 20
409.15
 30
0.0
 11
1053.759258263
 21
411.738190451
 31
0.0
  0
TEXT
  8
2
  6
CONTINUOUS
 62
     2
 10
796.8
 20
762.8
 30
0.0
 40
15.0
  1
Ｃ
 50
0.0
 41
0.9
 51
0.0
  7
KANJI34
  0
TEXT
  8
2
  6
CONTINUOUS
 62
     2
 10
831.1
 20
789.4
 30
0.0
 40
15.0
  1
ｍｉｎ．Ｌ
 50
0.0
 41
0.9
 51
0.0
  7
KANJI34
  0
TEXT
  8
2
  6
CONTINUOUS
 62
     2
 10
1063.0
 20
822.6
 30
0.0
 40
15.0
  1
１８
 50
0.0
 41
0.9
 51
0.0
  7
KANJI34
  0
TEXT
  8
2
  6
CONTINUOUS
 62
     2
 10
950.6
 20
763.1
 30
0.0
 40
15.0
  1
ｍｉｎ．Ｐ
 50
0.0
 41
0.9
 51
0.0
  7
KANJI34
  0
TEXT
  8
2
  6
CONTINUOUS
 62
     2
 10
1037.3
 20
762.9
 30
0.0
 40
15.0
  1
３５
 50
0.0
 41
0.9
 51
0.0
  7
KANJI34
  0
TEXT
  8
2
  6
CONTINUOUS
 62
     2
 10
670.6
 20
821.4
 30
0.0
 40
15.0
  1
ｍｉｎ．ＡＬ
 50
0.0
 41
0.9
 51
0.0
  7
KANJI34
  0
TEXT
  8
0
  6
CONTINUOUS
 62
     2
 10
1120.933854631
 20
350.3
 30
0.0
 40
15.0
  1
１２
 50
90.0
 41
0.9
 51
0.0
  7
KANJI34
  0
TEXT
  8
0
  6
CONTINUOUS
 62
     2
 10
1042.5
 20
413.15
 30
0.0
 40
15.0
  1
２５
 50
0.0
 41
0.9
 51
0.0
  7
KANJI34
  0
TEXT
  8
0
  6
CONTINUOUS
 62
     2
 10
1095.1
 20
386.8
 30
0.0
 40
15.0
  1
φ１６
 50
0.0
 41
0.9
 51
0.0
  7
KANJI34
  0
TEXT
  8
0
  6
CONTINUOUS
 62
     2
 10
321.9
 20
415.7
 30
0.0
 40
20.0
  1
ブレーキ解放装置はありません。
 50
0.0
 41
0.925
 51
0.0
  7
KANJI37
  0
TEXT
  8
0
  6
CONTINUOUS
 62
     2
 10
322.9
 20
390.7
 30
0.0
 40
20.0
  1
そのまま手動操作をして下さい．
 50
0.0
 41
0.925
 51
0.0
  7
KANJI37
  0
LINE
  8
2
  6
CONTINUOUS
 62
     2
 10
1087.1
 20
815.7
 30
0.0
 11
1105.0
 21
815.7
 31
0.0
  0
LINE
  8
2
  6
CONTINUOUS
 62
     2
 10
1069.1
 20
815.7
 30
0.0
 11
1087.1
 21
815.7
 31
0.0
  0
LINE
  8
0
  6
CONTINUOUS
 62
     1
 10
923.999501379
 20
639.25
 30
0.0
 11
974.0
 21
639.25
 31
0.0
  0
LINE
  8
0
  6
CONTINUOUS
 62
     1
 10
924.0
 20
575.75
 30
0.0
 11
974.0
 21
575.75
 31
0.0
  0
LINE
  8
0
  6
LTYPE2
 62
     2
 10
885.999501379
 20
212.5
 30
0.0
 11
885.999501379
 21
523.5
 31
0.0
  0
LINE
  8
0
  6
LTYPE3
 62
     2
 10
885.999501379
 20
456.5
 30
0.0
 11
885.999501379
 21
521.8
 31
0.0
  0
LINE
  8
0
  6
CONTINUOUS
 62
     1
 10
944.0
 20
639.25
 30
0.0
 11
944.0
 21
575.75
 31
0.0
  0
LINE
  8
0
  6
CONTINUOUS
 62
     1
 10
974.0
 20
639.25
 30
0.0
 11
974.0
 21
575.75
 31
0.0
  0
LINE
  8
2
  6
CONTINUOUS
 62
     2
 10
974.0
 20
641.5
 30
0.0
 11
974.0
 21
761.0
 31
0.0
  0
LINE
  8
2
  6
CONTINUOUS
 62
     2
 10
974.0
 20
753.0
 30
0.0
 11
964.340741737
 21
750.411809549
 31
0.0
  0
LINE
  8
2
  6
CONTINUOUS
 62
     2
 10
974.0
 20
753.0
 30
0.0
 11
983.659258263
 21
750.411809549
 31
0.0
  0
LINE
  8
2
  6
CONTINUOUS
 62
     2
 10
974.0
 20
753.0
 30
0.0
 11
964.340741737
 21
755.588190451
 31
0.0
  0
LINE
  8
2
  6
CONTINUOUS
 62
     2
 10
974.0
 20
753.0
 30
0.0
 11
983.659258263
 21
755.588190451
 31
0.0
  0
LINE
  8
0
  6
CONTINUOUS
 62
     1
 10
974.0
 20
626.5
 30
0.0
 11
1018.1
 21
626.5
 31
0.0
  0
LINE
  8
0
  6
CONTINUOUS
 62
     1
 10
974.0
 20
588.5
 30
0.0
 11
1018.0
 21
588.5
 31
0.0
  0
LINE
  8
0
  6
CONTINUOUS
 62
     1
 10
974.0
 20
588.5
 30
0.0
 11
1018.0
 21
588.5
 31
0.0
  0
LINE
  8
2
  6
CONTINUOUS
 62
     2
 10
974.0
 20
753.0
 30
0.0
 11
1034.1
 21
753.0
 31
0.0
  0
LINE
  8
0
  6
LTYPE4
 62
     2
 10
760.849814745
 20
570.5
 30
0.0
 11
760.849814745
 21
641.95
 31
0.0
  0
LINE
  8
0
  6
LTYPE4
 62
     2
 10
761.849814745
 20
570.5
 30
0.0
 11
761.849814745
 21
641.95
 31
0.0
  0
LINE
  8
0
  6
CONTINUOUS
 62
     1
 10
614.0
 20
639.25
 30
0.0
 11
760.849814745
 21
639.25
 31
0.0
  0
LINE
  8
0
  6
CONTINUOUS
 62
     1
 10
614.0
 20
575.75
 30
0.0
 11
760.849814745
 21
575.75
 31
0.0
  0
LINE
  8
0
  6
CONTINUOUS
 62
     1
 10
761.849814745
 20
639.25
 30
0.0
 11
847.999501379
 21
639.25
 31
0.0
  0
LINE
  8
0
  6
CONTINUOUS
 62
     1
 10
761.849814745
 20
575.75
 30
0.0
 11
847.999501379
 21
575.75
 31
0.0
  0
LINE
  8
2
  6
CONTINUOUS
 62
     2
 10
565.0
 20
753.0
 30
0.0
 11
974.0
 21
753.0
 31
0.0
  0
LINE
  8
2
  6
CONTINUOUS
 62
     2
 10
565.0
 20
785.2
 30
0.0
 11
1069.1
 21
785.2
 31
0.0
  0
LINE
  8
0
  6
LTYPE3
 62
     2
 10
674.5
 20
607.5
 30
0.0
 11
1113.0
 21
607.5
 31
0.0
  0
LINE
  8
0
  6
CONTINUOUS
 62
     1
 10
719.5
 20
595.0
 30
0.0
 11
719.5
 21
620.0
 31
0.0
  0
CIRCLE
  8
0
  6
CONTINUOUS
 62
     1
 10
732.0
 20
607.5
 30
0.0
 40
12.5
  0
LINE
  8
0
  6
LTYPE3
 62
     2
 10
732.0
 20
626.2
 30
0.0
 11
732.0
 21
586.5
 31
0.0
  0
LINE
  8
0
  6
CONTINUOUS
 62
     1
 10
719.5
 20
620.0
 30
0.0
 11
744.5
 21
620.0
 31
0.0
  0
LINE
  8
0
  6
CONTINUOUS
 62
     1
 10
744.5
 20
595.0
 30
0.0
 11
744.5
 21
620.0
 31
0.0
  0
LINE
  8
0
  6
CONTINUOUS
 62
     1
 10
719.5
 20
595.0
 30
0.0
 11
744.5
 21
595.0
 31
0.0
  0
LINE
  8
2
  6
CONTINUOUS
 62
     2
 10
1069.1
 20
815.7
 30
0.0
 11
262.0
 21
815.7
 31
0.0
  0
LINE
  8
0
  6
CONTINUOUS
 62
     2
 10
1111.0
 20
607.5
 30
0.0
 11
1112.5
 21
607.5
 31
0.0
  0
LINE
  8
0
  6
CONTINUOUS
 62
     2
 10
1107.5
 20
607.5
 30
0.0
 11
1104.911809549
 21
597.840741737
 31
0.0
  0
LINE
  8
0
  6
CONTINUOUS
 62
     2
 10
1107.5
 20
607.5
 30
0.0
 11
1110.088190451
 21
597.840741737
 31
0.0
  0
LINE
  8
0
  6
CONTINUOUS
 62
     2
 10
1107.5
 20
607.5
 30
0.0
 11
1107.5
 21
454.5
 31
0.0
  0
LINE
  8
0
  6
CONTINUOUS
 62
     2
 10
1107.5
 20
454.5
 30
0.0
 11
1110.088190451
 21
464.159258263
 31
0.0
  0
LINE
  8
0
  6
CONTINUOUS
 62
     2
 10
1107.5
 20
454.5
 30
0.0
 11
1104.911809549
 21
464.159258263
 31
0.0
  0
TEXT
  8
0
  6
CONTINUOUS
 62
     3
 10
1102.5
 20
510.75
 30
0.0
 40
15.0
  1
１５３
 50
90.0
 41
0.9
 51
0.0
  7
KANJI34
  0
LINE
  8
0
  6
CONTINUOUS
 62
     1
 10
1018.0
 20
637.3
 30
0.0
 11
1034.0
 21
637.3
 31
0.0
  0
LINE
  8
0
  6
CONTINUOUS
 62
     1
 10
1034.1
 20
627.5
 30
0.0
 11
1084.1
 21
627.5
 31
0.0
  0
LINE
  8
0
  6
LTYPE1
 62
     1
 10
1044.1
 20
627.5
 30
0.0
 11
1044.1
 21
607.5
 31
0.0
  0
LINE
  8
0
  6
CONTINUOUS
 62
     1
 10
1087.1
 20
624.5
 30
0.0
 11
1087.1
 21
607.5
 31
0.0
  0
LINE
  8
0
  6
CONTINUOUS
 62
     1
 10
1084.1
 20
627.5
 30
0.0
 11
1087.1
 21
624.5
 31
0.0
  0
CIRCLE
  8
0
  6
CONTINUOUS
 62
     1
 10
1069.1
 20
607.5
 30
0.0
 40
8.0
  0
LINE
  8
0
  6
CONTINUOUS
 62
     1
 10
1034.1
 20
587.5
 30
0.0
 11
1084.1
 21
587.5
 31
0.0
  0
LINE
  8
0
  6
CONTINUOUS
 62
     1
 10
1087.1
 20
590.5
 30
0.0
 11
1087.1
 21
607.5
 31
0.0
  0
LINE
  8
0
  6
CONTINUOUS
 62
     1
 10
1084.1
 20
587.5
 30
0.0
 11
1087.1
 21
590.5
 31
0.0
  0
LINE
  8
0
  6
LTYPE1
 62
     1
 10
1044.1
 20
587.5
 30
0.0
 11
1044.1
 21
607.5
 31
0.0
  0
LINE
  8
0
  6
CONTINUOUS
 62
     2
 10
1089.1
 20
627.5
 30
0.0
 11
1132.4
 21
627.5
 31
0.0
  0
LINE
  8
0
  6
CONTINUOUS
 62
     2
 10
1089.1
 20
587.5
 30
0.0
 11
1132.4
 21
587.5
 31
0.0
  0
TEXT
  8
0
  6
CONTINUOUS
 62
     3
 10
1124.9
 20
594.0
 30
0.0
 40
15.0
  1
４０
 50
90.0
 41
0.9
 51
0.0
  7
KANJI34
  0
LINE
  8
0
  6
CONTINUOUS
 62
     1
 10
869.999501379
 20
262.6
 30
0.0
 11
901.999501379
 21
262.6
 31
0.0
  0
LINE
  8
0
  6
CONTINUOUS
 62
     1
 10
869.999501379
 20
230.6
 30
0.0
 11
869.999501379
 21
262.6
 31
0.0
  0
ARC
  8
0
  6
CONTINUOUS
 62
     1
 10
830.999501379
 20
319.1
 30
0.0
 40
10.0
 50
90.0
 51
180.0
  0
LINE
  8
0
  6
CONTINUOUS
 62
     1
 10
950.999501379
 20
317.3
 30
0.0
 11
950.999501379
 21
319.1
 31
0.0
  0
LINE
  8
0
  6
CONTINUOUS
 62
     1
 10
830.999501379
 20
329.1
 30
0.0
 11
940.999501379
 21
329.1
 31
0.0
  0
ARC
  8
0
  6
CONTINUOUS
 62
     1
 10
940.999501379
 20
319.1
 30
0.0
 40
10.0
 50
0.0
 51
90.0
  0
LINE
  8
0
  6
LTYPE3
 62
     2
 10
952.260522596
 20
304.6
 30
0.0
 11
860.999501379
 21
304.6
 31
0.0
  0
LINE
  8
0
  6
CONTINUOUS
 62
     1
 10
901.999501379
 20
230.6
 30
0.0
 11
869.999501379
 21
230.6
 31
0.0
  0
LINE
  8
0
  6
LTYPE3
 62
     2
 10
896.499501379
 20
203.7
 30
0.0
 11
907.399501379
 21
203.7
 31
0.0
  0
LINE
  8
0
  6
LTYPE3
 62
     2
 10
902.399501379
 20
197.68
 30
0.0
 11
902.399501379
 21
207.6
 31
0.0
  0
LINE
  8
0
  6
LTYPE3
 62
     2
 10
895.959501379
 20
173.5
 30
0.0
 11
907.399501379
 21
173.5
 31
0.0
  0
LINE
  8
0
  6
LTYPE3
 62
     2
 10
902.399501379
 20
169.6
 30
0.0
 11
902.399501379
 21
178.58
 31
0.0
  0
LINE
  8
0
  6
LTYPE3
 62
     2
 10
838.699501379
 20
173.5
 30
0.0
 11
848.659501379
 21
173.5
 31
0.0
  0
LINE
  8
0
  6
LTYPE3
 62
     2
 10
843.699501379
 20
169.6
 30
0.0
 11
843.699501379
 21
177.48
 31
0.0
  0
LINE
  8
0
  6
LTYPE3
 62
     2
 10
838.699501379
 20
203.7
 30
0.0
 11
848.499501379
 21
203.7
 31
0.0
  0
LINE
  8
0
  6
LTYPE3
 62
     2
 10
843.699501379
 20
197.58
 30
0.0
 11
843.699501379
 21
207.6
 31
0.0
  0
LINE
  8
0
  6
LTYPE3
 62
     2
 10
839.999501379
 20
226.6
 30
0.0
 11
816.999501379
 21
226.6
 31
0.0
  0
ARC
  8
0
  6
CONTINUOUS
 62
     1
 10
840.699501379
 20
170.6
 30
0.0
 40
2.0
 50
180.0
 51
270.0
  0
LINE
  8
0
  6
CONTINUOUS
 62
     1
 10
815.299501379
 20
175.9
 30
0.0
 11
838.699501379
 21
175.9
 31
0.0
  0
ARC
  8
0
  6
CONTINUOUS
 62
     1
 10
815.299501379
 20
177.9
 30
0.0
 40
2.0
 50
180.0
 51
270.0
  0
LINE
  8
0
  6
CONTINUOUS
 62
     1
 10
813.299501379
 20
177.9
 30
0.0
 11
813.299501379
 21
199.3
 31
0.0
  0
ARC
  8
0
  6
CONTINUOUS
 62
     1
 10
815.299501379
 20
199.3
 30
0.0
 40
2.0
 50
90.0
 51
180.0
  0
LINE
  8
0
  6
CONTINUOUS
 62
     1
 10
838.699501379
 20
170.6
 30
0.0
 11
838.699501379
 21
206.6
 31
0.0
  0
ARC
  8
0
  6
CONTINUOUS
 62
     1
 10
840.699501379
 20
206.6
 30
0.0
 40
2.0
 50
90.0
 51
180.0
  0
LINE
  8
0
  6
CONTINUOUS
 62
     1
 10
840.699501379
 20
208.6
 30
0.0
 11
905.399501379
 21
208.6
 31
0.0
  0
ARC
  8
0
  6
CONTINUOUS
 62
     1
 10
905.399501379
 20
206.6
 30
0.0
 40
2.0
 50
0.0
 51
90.0
  0
LINE
  8
0
  6
CONTINUOUS
 62
     1
 10
840.699501379
 20
168.6
 30
0.0
 11
905.399501379
 21
168.6
 31
0.0
  0
LINE
  8
0
  6
CONTINUOUS
 62
     1
 10
907.399501379
 20
170.6
 30
0.0
 11
907.399501379
 21
206.6
 31
0.0
  0
ARC
  8
0
  6
CONTINUOUS
 62
     1
 10
905.399501379
 20
170.6
 30
0.0
 40
2.0
 50
270.0
 51
0.0
  0
ARC
  8
0
  6
CONTINUOUS
 62
     1
 10
940.999501379
 20
174.1
 30
0.0
 40
10.0
 50
270.0
 51
0.0
  0
LINE
  8
0
  6
CONTINUOUS
 62
     1
 10
820.999501379
 20
175.9
 30
0.0
 11
820.999501379
 21
174.1
 31
0.0
  0
LINE
  8
0
  6
CONTINUOUS
 62
     1
 10
940.999501379
 20
164.1
 30
0.0
 11
830.999501379
 21
164.1
 31
0.0
  0
ARC
  8
0
  6
CONTINUOUS
 62
     1
 10
830.999501379
 20
174.1
 30
0.0
 40
10.0
 50
180.0
 51
270.0
  0
LINE
  8
0
  6
CONTINUOUS
 62
     1
 10
823.007817392
 20
188.915789474
 30
0.0
 11
825.005045388
 21
226.810526316
 31
0.0
  0
LINE
  8
0
  6
CONTINUOUS
 62
     1
 10
834.991185367
 20
188.915789474
 30
0.0
 11
832.993957371
 21
226.810526316
 31
0.0
  0
ARC
  8
0
  6
CONTINUOUS
 62
     1
 10
828.999501379
 20
226.6
 30
0.0
 40
4.0
 50
356.983042101
 51
183.016952287
  0
ARC
  8
0
  6
CONTINUOUS
 62
     1
 10
828.999501379
 20
226.6
 30
0.0
 40
8.75
 50
300.219855722
 51
239.780144278
  0
ARC
  8
0
  6
CONTINUOUS
 62
     1
 10
828.999501379
 20
188.6
 30
0.0
 40
6.0
 50
176.983045121
 51
3.016954879
  0
LINE
  8
0
  6
CONTINUOUS
 62
     1
 10
834.338480162
 20
201.3
 30
0.0
 11
838.699501379
 21
201.3
 31
0.0
  0
LINE
  8
0
  6
CONTINUOUS
 62
     1
 10
815.299501379
 20
201.3
 30
0.0
 11
823.660522596
 21
201.3
 31
0.0
  0
LINE
  8
0
  6
LTYPE3
 62
     2
 10
828.999501379
 20
179.5
 30
0.0
 11
828.999501379
 21
237.0
 31
0.0
  0
LINE
  8
0
  6
LTYPE3
 62
     2
 10
819.738480162
 20
188.6
 30
0.0
 11
910.999501379
 21
188.6
 31
0.0
  0
LINE
  8
0
  6
CONTINUOUS
 62
     1
 10
901.999501379
 20
230.6
 30
0.0
 11
901.999501379
 21
262.6
 31
0.0
  0
LINE
  8
0
  6
CONTINUOUS
 62
     1
 10
820.999501379
 20
223.05563828
 30
0.0
 11
820.999501379
 21
201.25
 31
0.0
  0
LINE
  8
0
  6
CONTINUOUS
 62
     1
 10
820.999501379
 20
238.6
 30
0.0
 11
820.999501379
 21
230.14436172
 31
0.0
  0
LINE
  8
0
  6
CONTINUOUS
 62
     1
 10
950.999501379
 20
270.14436172
 30
0.0
 11
950.999501379
 21
291.95
 31
0.0
  0
LINE
  8
0
  6
CONTINUOUS
 62
     1
 10
950.999501379
 20
254.6
 30
0.0
 11
950.999501379
 21
263.05563828
 31
0.0
  0
LINE
  8
0
  6
CONTINUOUS
 62
     1
 10
804.620444363
 20
238.6
 30
0.0
 11
869.999501379
 21
238.6
 31
0.0
  0
LINE
  8
0
  6
CONTINUOUS
 62
     1
 10
869.999501379
 20
254.6
 30
0.0
 11
804.690079342
 21
254.6
 31
0.0
  0
ARC
  8
0
  6
CONTINUOUS
 62
     1
 10
810.244969957
 20
250.6
 30
0.0
 40
6.845203412
 50
144.242860688
 51
215.757139312
  0
ARC
  8
0
  6
CONTINUOUS
 62
     1
 10
799.135188727
 20
250.6
 30
0.0
 40
6.845203412
 50
324.242860688
 51
35.757139312
  0
ARC
  8
0
  6
CONTINUOUS
 62
     1
 10
799.135188727
 20
242.6
 30
0.0
 40
6.845203412
 50
324.242860688
 51
35.757139312
  0
LINE
  8
0
  6
LTYPE2
 62
     2
 10
1034.499501379
 20
246.6
 30
0.0
 11
799.655261852
 21
246.6
 31
0.0
  0
LINE
  8
7
  6
CONTINUOUS
 62
     2
 10
907.399501379
 20
188.6
 30
0.0
 11
915.766808964
 21
194.076144975
 31
0.0
  0
LINE
  8
7
  6
CONTINUOUS
 62
     2
 10
907.399501379
 20
188.6
 30
0.0
 11
911.907729822
 21
197.526134455
 31
0.0
  0
LINE
  8
7
  6
CONTINUOUS
 62
     2
 10
907.399501379
 20
188.6
 30
0.0
 11
920.049501379
 21
202.75
 31
0.0
  0
LINE
  8
7
  6
CONTINUOUS
 62
     2
 10
920.049501379
 20
202.75
 30
0.0
 11
978.849501379
 21
202.75
 31
0.0
  0
TEXT
  8
7
  6
CONTINUOUS
 62
     2
 10
920.049501379
 20
206.75
 30
1.2
 40
12.0
  1
ＰＦ１／２
 50
0.0
 41
0.9
 51
0.0
  7
KANJI18
  0
LINE
  8
7
  6
CONTINUOUS
 62
     2
 10
864.599501379
 20
304.6
 30
0.0
 11
856.29102349
 21
299.035002681
 31
0.0
  0
LINE
  8
7
  6
CONTINUOUS
 62
     2
 10
864.599501379
 20
304.6
 30
0.0
 11
860.18664712
 21
295.626332005
 31
0.0
  0
LINE
  8
7
  6
CONTINUOUS
 62
     2
 10
864.599501379
 20
304.6
 30
0.0
 11
853.399501379
 21
291.8
 31
0.0
  0
LINE
  8
7
  6
CONTINUOUS
 62
     2
 10
853.399501379
 20
291.8
 30
0.0
 11
794.599501379
 21
291.8
 31
0.0
  0
TEXT
  8
7
  6
CONTINUOUS
 62
     2
 10
794.599501379
 20
295.8
 30
1.2
 40
12.0
  1
ＰＦ１／２
 50
0.0
 41
0.9
 51
0.0
  7
KANJI18
  0
LINE
  8
0
  6
CONTINUOUS
 62
     1
 10
820.999501379
 20
308.8
 30
0.0
 11
820.999501379
 21
319.1
 31
0.0
  0
LINE
  8
0
  6
CONTINUOUS
 62
     1
 10
820.999501379
 20
254.6
 30
0.0
 11
820.999501379
 21
288.8
 31
0.0
  0
LINE
  8
0
  6
CONTINUOUS
 62
     1
 10
950.999501379
 20
199.8
 30
0.0
 11
950.999501379
 21
174.1
 31
0.0
  0
LINE
  8
0
  6
LTYPE3
 62
     2
 10
876.039501379
 20
319.7
 30
0.0
 11
864.599501379
 21
319.7
 31
0.0
  0
LINE
  8
0
  6
LTYPE3
 62
     2
 10
869.599501379
 20
323.6
 30
0.0
 11
869.599501379
 21
314.62
 31
0.0
  0
LINE
  8
0
  6
CONTINUOUS
 62
     1
 10
931.299501379
 20
324.6
 30
0.0
 11
866.599501379
 21
324.6
 31
0.0
  0
LINE
  8
0
  6
CONTINUOUS
 62
     1
 10
864.599501379
 20
322.6
 30
0.0
 11
864.599501379
 21
286.6
 31
0.0
  0
ARC
  8
0
  6
CONTINUOUS
 62
     1
 10
866.599501379
 20
322.6
 30
0.0
 40
2.0
 50
90.0
 51
180.0
  0
LINE
  8
0
  6
LTYPE3
 62
     2
 10
875.499501379
 20
289.5
 30
0.0
 11
864.599501379
 21
289.5
 31
0.0
  0
LINE
  8
0
  6
LTYPE3
 62
     2
 10
869.599501379
 20
295.52
 30
0.0
 11
869.599501379
 21
285.6
 31
0.0
  0
LINE
  8
0
  6
CONTINUOUS
 62
     1
 10
931.299501379
 20
284.6
 30
0.0
 11
866.599501379
 21
284.6
 31
0.0
  0
ARC
  8
0
  6
CONTINUOUS
 62
     1
 10
866.599501379
 20
286.6
 30
0.0
 40
2.0
 50
180.0
 51
270.0
  0
LINE
  8
0
  6
LTYPE3
 62
     2
 10
933.299501379
 20
319.7
 30
0.0
 11
923.339501379
 21
319.7
 31
0.0
  0
LINE
  8
0
  6
LTYPE3
 62
     2
 10
928.299501379
 20
323.6
 30
0.0
 11
928.299501379
 21
315.72
 31
0.0
  0
ARC
  8
0
  6
CONTINUOUS
 62
     1
 10
931.299501379
 20
322.6
 30
0.0
 40
2.0
 50
0.0
 51
90.0
  0
LINE
  8
0
  6
CONTINUOUS
 62
     1
 10
956.699501379
 20
317.3
 30
0.0
 11
933.299501379
 21
317.3
 31
0.0
  0
LINE
  8
0
  6
CONTINUOUS
 62
     1
 10
933.299501379
 20
322.6
 30
0.0
 11
933.299501379
 21
286.6
 31
0.0
  0
LINE
  8
0
  6
LTYPE3
 62
     2
 10
933.299501379
 20
289.5
 30
0.0
 11
923.499501379
 21
289.5
 31
0.0
  0
LINE
  8
0
  6
LTYPE3
 62
     2
 10
928.299501379
 20
295.62
 30
0.0
 11
928.299501379
 21
285.6
 31
0.0
  0
ARC
  8
0
  6
CONTINUOUS
 62
     1
 10
931.299501379
 20
286.6
 30
0.0
 40
2.0
 50
270.0
 51
0.0
  0
LINE
  8
0
  6
CONTINUOUS
 62
     1
 10
937.660522596
 20
291.9
 30
0.0
 11
933.299501379
 21
291.9
 31
0.0
  0
ARC
  8
0
  6
CONTINUOUS
 62
     1
 10
956.699501379
 20
315.3
 30
0.0
 40
2.0
 50
0.0
 51
90.0
  0
LINE
  8
0
  6
CONTINUOUS
 62
     1
 10
958.699501379
 20
315.3
 30
0.0
 11
958.699501379
 21
293.9
 31
0.0
  0
ARC
  8
0
  6
CONTINUOUS
 62
     1
 10
942.999501379
 20
304.6
 30
0.0
 40
6.0
 50
356.983045121
 51
183.016954879
  0
LINE
  8
0
  6
LTYPE3
 62
     2
 10
942.999501379
 20
313.7
 30
0.0
 11
942.999501379
 21
256.2
 31
0.0
  0
LINE
  8
0
  6
CONTINUOUS
 62
     1
 10
948.991185367
 20
304.284210526
 30
0.0
 11
946.993957371
 21
266.389473684
 31
0.0
  0
LINE
  8
0
  6
CONTINUOUS
 62
     1
 10
937.007817392
 20
304.284210526
 30
0.0
 11
939.005045388
 21
266.389473684
 31
0.0
  0
ARC
  8
0
  6
CONTINUOUS
 62
     1
 10
956.699501379
 20
293.9
 30
0.0
 40
2.0
 50
270.0
 51
0.0
  0
LINE
  8
0
  6
CONTINUOUS
 62
     1
 10
956.699501379
 20
291.9
 30
0.0
 11
948.338480162
 21
291.9
 31
0.0
  0
LINE
  8
0
  6
LTYPE3
 62
     2
 10
931.999501379
 20
266.6
 30
0.0
 11
954.999501379
 21
266.6
 31
0.0
  0
ARC
  8
0
  6
CONTINUOUS
 62
     1
 10
942.999501379
 20
266.6
 30
0.0
 40
8.75
 50
120.219855722
 51
59.780144278
  0
ARC
  8
0
  6
CONTINUOUS
 62
     1
 10
942.999501379
 20
266.6
 30
0.0
 40
4.0
 50
176.983042101
 51
3.016952287
  0
CIRCLE
  8
0
  6
CONTINUOUS
 62
     2
 10
982.499501379
 20
246.6
 30
0.0
 40
5.0
  0
LINE
  8
0
  6
LTYPE2
 62
     2
 10
982.499501379
 20
236.6
 30
0.0
 11
982.499501379
 21
256.6
 31
0.0
  0
CIRCLE
  8
0
  6
CONTINUOUS
 62
     2
 10
982.499501379
 20
246.6
 30
0.0
 40
4.0
  0
LINE
  8
0
  6
CONTINUOUS
 62
     2
 10
820.999501379
 20
170.9
 30
0.0
 11
820.999501379
 21
114.5
 31
0.0
  0
LINE
  8
0
  6
CONTINUOUS
 62
     2
 10
820.999501379
 20
119.5
 30
0.0
 11
830.658759642
 21
116.911809549
 31
0.0
  0
LINE
  8
0
  6
CONTINUOUS
 62
     2
 10
820.999501379
 20
119.5
 30
0.0
 11
830.658759642
 21
122.088190451
 31
0.0
  0
LINE
  8
0
  6
CONTINUOUS
 62
     2
 10
820.999501379
 20
119.5
 30
0.0
 11
950.999501379
 21
119.5
 31
0.0
  0
LINE
  8
0
  6
CONTINUOUS
 62
     2
 10
950.999501379
 20
119.5
 30
0.0
 11
941.340243116
 21
122.088190451
 31
0.0
  0
LINE
  8
0
  6
CONTINUOUS
 62
     2
 10
950.999501379
 20
119.5
 30
0.0
 11
941.340243116
 21
116.911809549
 31
0.0
  0
LINE
  8
0
  6
CONTINUOUS
 62
     2
 10
950.999501379
 20
169.100009344
 30
0.0
 11
950.999501379
 21
114.5
 31
0.0
  0
TEXT
  8
0
  6
CONTINUOUS
 62
     3
 10
865.749501379
 20
124.5
 30
0.0
 40
15.0
  1
１３０
 50
0.0
 41
0.9
 51
0.0
  7
KANJI34
  0
LINE
  8
0
  6
CONTINUOUS
 62
     2
 10
825.999501379
 20
329.1
 30
0.0
 11
754.499501379
 21
329.1
 31
0.0
  0
LINE
  8
0
  6
CONTINUOUS
 62
     2
 10
759.499501379
 20
329.1
 30
0.0
 11
756.911310928
 21
319.440741737
 31
0.0
  0
LINE
  8
0
  6
CONTINUOUS
 62
     2
 10
759.499501379
 20
329.1
 30
0.0
 11
762.08769183
 21
319.440741737
 31
0.0
  0
LINE
  8
0
  6
CONTINUOUS
 62
     2
 10
759.499501379
 20
329.1
 30
0.0
 11
759.499501379
 21
164.1
 31
0.0
  0
LINE
  8
0
  6
CONTINUOUS
 62
     2
 10
759.499501379
 20
164.1
 30
0.0
 11
762.08769183
 21
173.759258263
 31
0.0
  0
LINE
  8
0
  6
CONTINUOUS
 62
     2
 10
759.499501379
 20
164.1
 30
0.0
 11
756.911310928
 21
173.759258263
 31
0.0
  0
LINE
  8
0
  6
CONTINUOUS
 62
     2
 10
825.999501379
 20
164.1
 30
0.0
 11
754.499501379
 21
164.1
 31
0.0
  0
TEXT
  8
0
  6
CONTINUOUS
 62
     3
 10
754.499501379
 20
226.35
 30
0.0
 40
15.0
  1
１６５
 50
90.0
 41
0.9
 51
0.0
  7
KANJI34
  0
TEXT
  8
0
  6
CONTINUOUS
 62
     2
 10
1137.0
 20
391.5
 30
0.84
 40
8.4
  1
Ｈ１０
 50
0.0
 41
0.9
 51
0.0
  7
KANJI38
  0
TEXT
  8
0
  6
CONTINUOUS
 62
     2
 10
1137.0
 20
383.1
 30
0.84
 40
8.4
  1
ｈ９
 50
0.0
 41
0.9
 51
0.0
  7
KANJI38
  0
LINE
  8
0
  6
CONTINUOUS
 62
     1
 10
1077.1
 20
324.3
 30
0.0
 11
1077.1
 21
316.3
 31
0.0
  0
LINE
  8
0
  6
CONTINUOUS
 62
     1
 10
1061.1
 20
316.3
 30
0.0
 11
1061.1
 21
324.3
 31
0.0
  0
LINE
  8
0
  6
CONTINUOUS
 62
     1
 10
1087.1
 20
316.3
 30
0.0
 11
1087.1
 21
304.3
 31
0.0
  0
LINE
  8
0
  6
CONTINUOUS
 62
     1
 10
1034.1
 20
324.3
 30
0.0
 11
1034.1
 21
304.3
 31
0.0
  0
LINE
  8
0
  6
CONTINUOUS
 62
     1
 10
1034.1
 20
304.3
 30
0.0
 11
1087.1
 21
304.3
 31
0.0
  0
LINE
  8
0
  6
CONTINUOUS
 62
     1
 10
1044.1
 20
324.3
 30
0.0
 11
1044.1
 21
316.3
 31
0.0
  0
LINE
  8
0
  6
CONTINUOUS
 62
     1
 10
1044.1
 20
316.3
 30
0.0
 11
1087.1
 21
316.3
 31
0.0
  0
LINE
  8
0
  6
CONTINUOUS
 62
     1
 10
1077.1
 20
324.3
 30
0.0
 11
1077.1
 21
332.3
 31
0.0
  0
LINE
  8
0
  6
CONTINUOUS
 62
     1
 10
1061.1
 20
332.3
 30
0.0
 11
1061.1
 21
324.3
 31
0.0
  0
LINE
  8
0
  6
CONTINUOUS
 62
     1
 10
1087.1
 20
332.3
 30
0.0
 11
1087.1
 21
344.3
 31
0.0
  0
LINE
  8
0
  6
CONTINUOUS
 62
     1
 10
1034.1
 20
324.3
 30
0.0
 11
1034.1
 21
344.3
 31
0.0
  0
LINE
  8
0
  6
CONTINUOUS
 62
     1
 10
1034.1
 20
344.3
 30
0.0
 11
1087.1
 21
344.3
 31
0.0
  0
LINE
  8
0
  6
CONTINUOUS
 62
     1
 10
1044.1
 20
324.3
 30
0.0
 11
1044.1
 21
332.3
 31
0.0
  0
LINE
  8
0
  6
CONTINUOUS
 62
     1
 10
1044.1
 20
332.3
 30
0.0
 11
1087.1
 21
332.3
 31
0.0
  0
LINE
  8
0
  6
CONTINUOUS
 62
     2
 10
1087.1
 20
332.3
 30
0.0
 11
1132.833854631
 21
332.3
 31
0.0
  0
LINE
  8
0
  6
CONTINUOUS
 62
     2
 10
1167.3
 20
304.3
 30
0.0
 11
1169.888190451
 21
313.959258263
 31
0.0
  0
LINE
  8
0
  6
CONTINUOUS
 62
     2
 10
1167.3
 20
304.3
 30
0.0
 11
1164.711809549
 21
313.959258263
 31
0.0
  0
LINE
  8
0
  6
CONTINUOUS
 62
     2
 10
1167.3
 20
304.3
 30
0.0
 11
1167.3
 21
344.3
 31
0.0
  0
LINE
  8
0
  6
CONTINUOUS
 62
     2
 10
1167.3
 20
344.3
 30
0.0
 11
1164.711809549
 21
334.640741737
 31
0.0
  0
LINE
  8
0
  6
CONTINUOUS
 62
     2
 10
1167.3
 20
344.3
 30
0.0
 11
1169.888190451
 21
334.640741737
 31
0.0
  0
LINE
  8
0
  6
CONTINUOUS
 62
     2
 10
1124.933854631
 20
344.3
 30
0.0
 11
1127.522045082
 21
353.959258263
 31
0.0
  0
LINE
  8
0
  6
CONTINUOUS
 62
     2
 10
1124.933854631
 20
344.3
 30
0.0
 11
1122.34566418
 21
353.959258263
 31
0.0
  0
LINE
  8
0
  6
CONTINUOUS
 62
     2
 10
1087.1
 20
344.3
 30
0.0
 11
1132.933854631
 21
344.3
 31
0.0
  0
LINE
  8
0
  6
CONTINUOUS
 62
     2
 10
1132.933854631
 20
344.3
 30
0.0
 11
1173.6
 21
344.3
 31
0.0
  0
LINE
  8
0
  6
CONTINUOUS
 62
     2
 10
1124.833854631
 20
332.3
 30
0.0
 11
1122.24566418
 21
322.640741737
 31
0.0
  0
LINE
  8
0
  6
CONTINUOUS
 62
     2
 10
1124.833854631
 20
332.3
 30
0.0
 11
1127.422045082
 21
322.640741737
 31
0.0
  0
LINE
  8
0
  6
CONTINUOUS
 62
     2
 10
1124.833854631
 20
332.3
 30
0.0
 11
1124.833854631
 21
316.3
 31
0.0
  0
LINE
  8
0
  6
CONTINUOUS
 62
     2
 10
1124.833854631
 20
316.3
 30
0.0
 11
1127.422045082
 21
325.959258263
 31
0.0
  0
LINE
  8
0
  6
CONTINUOUS
 62
     2
 10
1124.833854631
 20
316.3
 30
0.0
 11
1122.24566418
 21
325.959258263
 31
0.0
  0
LINE
  8
0
  6
CONTINUOUS
 62
     2
 10
1087.1
 20
316.3
 30
0.0
 11
1132.833854631
 21
316.3
 31
0.0
  0
LINE
  8
0
  6
CONTINUOUS
 62
     2
 10
1124.933854631
 20
332.3
 30
0.0
 11
1122.34566418
 21
322.640741737
 31
0.0
  0
LINE
  8
0
  6
CONTINUOUS
 62
     2
 10
1124.933854631
 20
332.3
 30
0.0
 11
1127.522045082
 21
322.640741737
 31
0.0
  0
LINE
  8
0
  6
CONTINUOUS
 62
     2
 10
1124.933854631
 20
304.3
 30
0.0
 11
1127.522045082
 21
294.640741737
 31
0.0
  0
LINE
  8
0
  6
CONTINUOUS
 62
     2
 10
1124.933854631
 20
304.3
 30
0.0
 11
1122.34566418
 21
294.640741737
 31
0.0
  0
LINE
  8
0
  6
CONTINUOUS
 62
     2
 10
1087.1
 20
304.3
 30
0.0
 11
1132.933854631
 21
304.3
 31
0.0
  0
LINE
  8
0
  6
CONTINUOUS
 62
     2
 10
1132.933854631
 20
304.3
 30
0.0
 11
1173.1
 21
304.3
 31
0.0
  0
LINE
  8
0
  6
CONTINUOUS
 62
     2
 10
1124.933854631
 20
336.3
 30
0.0
 11
1124.933854631
 21
270.7
 31
0.0
  0
LINE
  8
0
  6
CONTINUOUS
 62
     2
 10
1124.933854631
 20
312.3
 30
0.0
 11
1124.933854631
 21
372.9
 31
0.0
  0
LINE
  8
0
  6
LTYPE3
 62
     2
 10
1098.0
 20
324.3
 30
0.0
 11
1034.1
 21
324.3
 31
0.0
  0
LINE
  8
0
  6
CONTINUOUS
 62
     1
 10
1034.1
 20
324.3
 30
0.0
 11
1034.1
 21
344.3
 31
0.0
  0
LINE
  8
0
  6
CONTINUOUS
 62
     1
 10
1034.1
 20
344.3
 30
0.0
 11
1034.1
 21
324.3
 31
0.0
  0
LINE
  8
0
  6
CONTINUOUS
 62
     1
 10
1034.1
 20
324.3
 30
0.0
 11
1034.1
 21
344.3
 31
0.0
  0
LINE
  8
0
  6
CONTINUOUS
 62
     1
 10
1034.1
 20
324.3
 30
0.0
 11
1034.1
 21
304.3
 31
0.0
  0
LINE
  8
0
  6
CONTINUOUS
 62
     1
 10
1034.1
 20
304.3
 30
0.0
 11
1034.1
 21
324.3
 31
0.0
  0
LINE
  8
0
  6
CONTINUOUS
 62
     1
 10
1034.1
 20
324.3
 30
0.0
 11
1034.1
 21
304.3
 31
0.0
  0
LINE
  8
0
  6
CONTINUOUS
 62
     1
 10
1018.1
 20
349.05
 30
0.0
 11
1018.1
 21
301.55
 31
0.0
  0
LINE
  8
0
  6
CONTINUOUS
 62
     1
 10
1018.1
 20
289.3
 30
0.0
 11
1034.1
 21
289.3
 31
0.0
  0
LINE
  8
0
  6
CONTINUOUS
 62
     1
 10
1018.1
 20
359.3
 30
0.0
 11
1018.1
 21
289.3
 31
0.0
  0
LINE
  8
0
  6
CONTINUOUS
 62
     1
 10
1018.1
 20
359.3
 30
0.0
 11
1034.1
 21
359.3
 31
0.0
  0
LINE
  8
0
  6
CONTINUOUS
 62
     1
 10
1034.1
 20
359.3
 30
0.0
 11
1034.1
 21
289.3
 31
0.0
  0
LINE
  8
0
  6
LTYPE2
 62
     2
 10
1026.1
 20
357.3
 30
0.0
 11
1026.1
 21
343.3
 31
0.0
  0
LINE
  8
0
  6
LTYPE2
 62
     2
 10
1020.1
 20
350.3
 30
0.0
 11
1032.1
 21
350.3
 31
0.0
  0
LINE
  8
0
  6
LTYPE2
 62
     2
 10
1026.1
 20
291.3
 30
0.0
 11
1026.1
 21
305.3
 31
0.0
  0
LINE
  8
0
  6
LTYPE2
 62
     2
 10
1020.1
 20
298.3
 30
0.0
 11
1032.1
 21
298.3
 31
0.0
  0
LINE
  8
0
  6
LTYPE2
 62
     2
 10
1018.1
 20
324.3
 30
0.0
 11
1034.1
 21
324.3
 31
0.0
  0
TEXT
  8
0
  6
CONTINUOUS
 62
     2
 10
1120.933854631
 20
274.8
 30
0.0
 40
15.0
  1
１２
 50
90.0
 41
0.9
 51
0.0
  7
KANJI34
  0
TEXT
  8
0
  6
CONTINUOUS
 62
     2
 10
1163.3
 20
312.5
 30
0.0
 40
15.0
  1
４０
 50
90.0
 41
0.9
 51
0.0
  7
KANJI34
  0
TEXT
  8
0
  6
CONTINUOUS
 62
     2
 10
1143.833854631
 20
315.0
 30
0.0
 40
15.0
  1
１６
 50
90.0
 41
0.9
 51
0.0
  7
KANJI34
  0
ARC
  8
0
  6
CONTINUOUS
 62
     1
 10
1024.254032801
 20
250.6
 30
0.0
 40
6.845203412
 50
324.242860688
 51
35.757139312
  0
ARC
  8
0
  6
CONTINUOUS
 62
     1
 10
1035.363814032
 20
250.6
 30
0.0
 40
6.845203412
 50
144.242860688
 51
215.757139312
  0
ARC
  8
0
  6
CONTINUOUS
 62
     1
 10
1035.363814032
 20
242.6
 30
0.0
 40
6.845203412
 50
144.242860688
 51
215.757139312
  0
LINE
  8
0
  6
CONTINUOUS
 62
     2
 10
1127.4
 20
627.5
 30
0.0
 11
1124.811809549
 21
617.840741737
 31
0.0
  0
LINE
  8
0
  6
CONTINUOUS
 62
     2
 10
1127.4
 20
627.5
 30
0.0
 11
1129.988190451
 21
617.840741737
 31
0.0
  0
LINE
  8
0
  6
CONTINUOUS
 62
     2
 10
1127.4
 20
627.5
 30
0.0
 11
1127.4
 21
587.5
 31
0.0
  0
LINE
  8
0
  6
CONTINUOUS
 62
     2
 10
1127.4
 20
587.5
 30
0.0
 11
1129.988190451
 21
597.159258263
 31
0.0
  0
LINE
  8
0
  6
CONTINUOUS
 62
     2
 10
1127.4
 20
587.5
 30
0.0
 11
1124.811809549
 21
597.159258263
 31
0.0
  0
LINE
  8
0
  6
CONTINUOUS
 62
     2
 10
1143.45
 20
673.8
 30
0.0
 11
1131.375927171
 21
677.035238064
 31
0.0
  0
LINE
  8
0
  6
CONTINUOUS
 62
     2
 10
1143.45
 20
673.8
 30
0.0
 11
1131.375927171
 21
670.564761936
 31
0.0
  0
LINE
  8
0
  6
CONTINUOUS
 62
     2
 10
1143.45
 20
673.8
 30
0.0
 11
1102.45
 21
673.8
 31
0.0
  0
TEXT
  8
0
  6
CONTINUOUS
 62
     3
 10
1109.45
 20
683.8
 30
0.0
 40
20.0
  1
前進
 50
0.0
 41
0.925
 51
0.0
  7
KANJI37
  0
LINE
  8
0
  6
CONTINUOUS
 62
     1
 10
1296.9
 20
587.5
 30
0.0
 11
1316.9
 21
587.5
 31
0.0
  0
LINE
  8
0
  6
CONTINUOUS
 62
     1
 10
1308.9
 20
599.5
 30
0.0
 11
1316.9
 21
599.5
 31
0.0
  0
LINE
  8
0
  6
CONTINUOUS
 62
     1
 10
1336.9
 20
587.5
 30
0.0
 11
1316.9
 21
587.5
 31
0.0
  0
LINE
  8
0
  6
CONTINUOUS
 62
     1
 10
1324.9
 20
599.5
 30
0.0
 11
1316.9
 21
599.5
 31
0.0
  0
LINE
  8
0
  6
LTYPE3
 62
     2
 10
1254.5
 20
607.5
 30
0.0
 11
1377.7
 21
607.5
 31
0.0
  0
LINE
  8
0
  6
CONTINUOUS
 62
     1
 10
1296.9
 20
607.5
 30
0.0
 11
1296.9
 21
587.5
 31
0.0
  0
LINE
  8
0
  6
CONTINUOUS
 62
     1
 10
1308.9
 20
607.5
 30
0.0
 11
1308.9
 21
587.5
 31
0.0
  0
LINE
  8
0
  6
CONTINUOUS
 62
     1
 10
1324.9
 20
607.0
 30
0.0
 11
1324.9
 21
587.5
 31
0.0
  0
LINE
  8
0
  6
CONTINUOUS
 62
     1
 10
1336.9
 20
607.5
 30
0.0
 11
1336.9
 21
587.5
 31
0.0
  0
LINE
  8
0
  6
CONTINUOUS
 62
     1
 10
1296.9
 20
627.5
 30
0.0
 11
1316.9
 21
627.5
 31
0.0
  0
LINE
  8
0
  6
CONTINUOUS
 62
     1
 10
1308.9
 20
615.5
 30
0.0
 11
1316.9
 21
615.5
 31
0.0
  0
LINE
  8
0
  6
CONTINUOUS
 62
     1
 10
1336.9
 20
627.5
 30
0.0
 11
1316.9
 21
627.5
 31
0.0
  0
LINE
  8
0
  6
CONTINUOUS
 62
     1
 10
1324.9
 20
615.5
 30
0.0
 11
1316.9
 21
615.5
 31
0.0
  0
LINE
  8
0
  6
CONTINUOUS
 62
     1
 10
1336.9
 20
607.5
 30
0.0
 11
1336.9
 21
627.5
 31
0.0
  0
LINE
  8
0
  6
CONTINUOUS
 62
     1
 10
1324.9
 20
607.5
 30
0.0
 11
1324.9
 21
627.5
 31
0.0
  0
LINE
  8
0
  6
CONTINUOUS
 62
     1
 10
1308.9
 20
607.5
 30
0.0
 11
1308.9
 21
627.5
 31
0.0
  0
LINE
  8
0
  6
CONTINUOUS
 62
     1
 10
1296.9
 20
607.5
 30
0.0
 11
1296.9
 21
627.5
 31
0.0
  0
LINE
  8
0
  6
LTYPE1
 62
     2
 10
1256.9
 20
615.5
 30
0.0
 11
1278.9
 21
615.5
 31
0.0
  0
LINE
  8
0
  6
LTYPE1
 62
     2
 10
1256.9
 20
599.5
 30
0.0
 11
1278.9
 21
599.5
 31
0.0
  0
LINE
  8
0
  6
LTYPE1
 62
     2
 10
1354.9
 20
607.5
 30
0.0
 11
1354.9
 21
599.5
 31
0.0
  0
LINE
  8
0
  6
LTYPE1
 62
     2
 10
1376.9
 20
615.5
 30
0.0
 11
1354.9
 21
615.5
 31
0.0
  0
LINE
  8
0
  6
LTYPE1
 62
     2
 10
1376.9
 20
599.5
 30
0.0
 11
1354.9
 21
599.5
 31
0.0
  0
LINE
  8
0
  6
LTYPE1
 62
     2
 10
1278.9
 20
607.5
 30
0.0
 11
1278.9
 21
615.5
 31
0.0
  0
LINE
  8
0
  6
CONTINUOUS
 62
     1
 10
1356.78734135
 20
604.5
 30
0.0
 11
1354.090341615
 21
604.5
 31
0.0
  0
LINE
  8
0
  6
LTYPE1
 62
     2
 10
1279.709658385
 20
604.5
 30
0.0
 11
1279.709658385
 21
610.5
 31
0.0
  0
LINE
  8
0
  6
LTYPE1
 62
     2
 10
1277.01265865
 20
610.5
 30
0.0
 11
1279.709658385
 21
610.5
 31
0.0
  0
LINE
  8
0
  6
LTYPE1
 62
     2
 10
1278.9
 20
607.5
 30
0.0
 11
1278.9
 21
599.5
 31
0.0
  0
LINE
  8
0
  6
LTYPE1
 62
     2
 10
1277.01265865
 20
604.5
 30
0.0
 11
1279.709658385
 21
604.5
 31
0.0
  0
LINE
  8
2
  6
CONTINUOUS
 62
     2
 10
1371.900015259
 20
494.0
 30
0.0
 11
1415.400015259
 21
494.0
 31
0.0
  0
LINE
  8
2
  6
CONTINUOUS
 62
     2
 10
1391.400015259
 20
555.0
 30
0.0
 11
1415.400015259
 21
555.0
 31
0.0
  0
LINE
  8
2
  6
CONTINUOUS
 62
     2
 10
1354.9
 20
680.0
 30
0.0
 11
1415.400015259
 21
680.0
 31
0.0
  0
TEXT
  8
2
  6
CONTINUOUS
 62
     3
 10
1403.400015259
 20
511.1
 30
0.0
 40
15.0
  1
６１
 50
90.0
 41
0.9
 51
0.0
  7
KANJI34
  0
TEXT
  8
2
  6
CONTINUOUS
 62
     3
 10
1403.400015259
 20
597.1
 30
0.0
 40
15.0
  1
１２５
 50
90.0
 41
0.9
 51
0.0
  7
KANJI34
  0
ARC
  8
0
  6
CONTINUOUS
 62
     1
 10
1370.4
 20
657.0
 30
0.0
 40
5.0
 50
0.000030901
 51
90.0
  0
LINE
  8
0
  6
CONTINUOUS
 62
     1
 10
1370.4
 20
662.0
 30
0.0
 11
1360.9
 21
662.0
 31
0.0
  0
ARC
  8
0
  6
CONTINUOUS
 62
     1
 10
1316.9
 20
607.5
 30
0.0
 40
65.0
 50
35.374590447
 51
54.625409553
  0
LINE
  8
0
  6
CONTINUOUS
 62
     1
 10
1342.507695155
 20
660.2
 30
0.0
 11
1342.507695155
 21
680.0
 31
0.0
  0
LINE
  8
0
  6
CONTINUOUS
 62
     1
 10
1352.9
 20
660.7
 30
0.0
 11
1352.9
 21
678.0
 31
0.0
  0
LINE
  8
0
  6
CONTINUOUS
 62
     1
 10
1360.9
 20
653.9
 30
0.0
 11
1360.9
 21
676.020045888
 31
0.0
  0
ARC
  8
0
  6
CONTINUOUS
 62
     1
 10
1350.9
 20
678.0
 30
0.0
 40
2.0
 50
0.0
 51
90.0
  0
LINE
  8
0
  6
CONTINUOUS
 62
     1
 10
1358.9
 20
678.020045888
 30
0.0
 11
1352.9
 21
678.020045888
 31
0.0
  0
ARC
  8
0
  6
CONTINUOUS
 62
     1
 10
1358.9
 20
676.020045888
 30
0.0
 40
2.0
 50
0.0
 51
90.0
  0
ARC
  8
0
  6
CONTINUOUS
 62
     1
 10
1343.507695155
 20
679.0
 30
0.0
 40
1.0
 50
90.0
 51
180.0
  0
ARC
  8
0
  6
CONTINUOUS
 62
     1
 10
1341.507695155
 20
679.0
 30
0.0
 40
1.0
 50
0.0
 51
90.0
  0
LINE
  8
0
  6
LTYPE3
 62
     2
 10
1284.709127035
 20
639.690872965
 30
0.0
 11
1271.609127035
 21
652.790872965
 31
0.0
  0
ARC
  8
0
  6
LTYPE3
 62
     2
 10
1316.9
 20
607.5
 30
0.0
 40
55.0
 50
124.150984485
 51
144.573837847
  0
LINE
  8
0
  6
CONTINUOUS
 62
     1
 10
1258.4
 20
587.25
 30
0.0
 11
1258.4
 21
504.0
 31
0.0
  0
LINE
  8
0
  6
CONTINUOUS
 62
     1
 10
1255.9
 20
605.5
 30
0.0
 11
1255.9
 21
504.0
 31
0.0
  0
LINE
  8
0
  6
CONTINUOUS
 62
     1
 10
1263.9
 20
587.5
 30
0.0
 11
1263.9
 21
569.870224556
 31
0.0
  0
ARC
  8
0
  6
CONTINUOUS
 62
     1
 10
1265.9
 20
605.5
 30
0.0
 40
10.0
 50
154.158067237
 51
180.0
  0
ARC
  8
0
  6
CONTINUOUS
 62
     1
 10
1316.9
 20
607.5
 30
0.0
 40
65.0
 50
215.374590447
 51
234.625409553
  0
LINE
  8
0
  6
LTYPE2
 62
     2
 10
1254.5
 20
554.5
 30
0.0
 11
1377.7
 21
554.5
 31
0.0
  0
LINE
  8
0
  6
CONTINUOUS
 62
     1
 10
1279.270224556
 20
554.5
 30
0.0
 11
1354.529775444
 21
554.5
 31
0.0
  0
LINE
  8
2
  6
CONTINUOUS
 62
     2
 10
1255.9
 20
500.0
 30
0.0
 11
1255.9
 21
399.641101056
 31
0.0
  0
LINE
  8
0
  6
CONTINUOUS
 62
     1
 10
1265.9
 20
493.5
 30
0.0
 11
1367.9
 21
493.5
 31
0.0
  0
ARC
  8
0
  6
CONTINUOUS
 62
     1
 10
1265.9
 20
503.5
 30
0.0
 40
10.0
 50
180.0
 51
270.0
  0
LINE
  8
0
  6
CONTINUOUS
 62
     1
 10
1265.9
 20
493.5
 30
0.0
 11
1367.9
 21
493.5
 31
0.0
  0
CIRCLE
  8
0
  6
CONTINUOUS
 62
     1
 10
1265.9
 20
503.0
 30
0.0
 40
4.0
  0
CIRCLE
  8
0
  6
CONTINUOUS
 62
     1
 10
1265.9
 20
503.0
 30
0.0
 40
3.0
  0
LINE
  8
0
  6
CONTINUOUS
 62
     1
 10
1366.4
 20
495.0
 30
0.0
 11
1267.4
 21
495.0
 31
0.0
  0
ARC
  8
0
  6
CONTINUOUS
 62
     1
 10
1267.4
 20
504.0
 30
0.0
 40
9.0
 50
180.0
 51
270.0
  0
ARC
  8
0
  6
CONTINUOUS
 62
     1
 10
1309.9
 20
500.0
 30
0.0
 40
5.0
 50
179.999984538
 51
270.0
  0
LINE
  8
0
  6
CONTINUOUS
 62
     1
 10
1304.9
 20
515.000001349
 30
0.0
 11
1304.9
 21
500.000001349
 31
0.0
  0
ARC
  8
0
  6
CONTINUOUS
 62
     1
 10
1263.4
 20
525.0
 30
0.0
 40
5.0
 50
180.0
 51
270.000026769
  0
LINE
  8
0
  6
CONTINUOUS
 62
     1
 10
1370.400002697
 20
520.0
 30
0.0
 11
1263.400002336
 21
520.0
 31
0.0
  0
ARC
  8
0
  6
CONTINUOUS
 62
     1
 10
1299.9
 20
515.0
 30
0.0
 40
5.0
 50
0.000015462
 51
90.0
  0
LINE
  8
0
  6
CONTINUOUS
 62
     2
 10
1259.9
 20
503.0
 30
0.0
 11
1271.9
 21
503.0
 31
0.0
  0
LINE
  8
0
  6
CONTINUOUS
 62
     2
 10
1265.9
 20
497.0
 30
0.0
 11
1265.9
 21
509.0
 31
0.0
  0
LINE
  8
0
  6
CONTINUOUS
 62
     2
 10
1258.4
 20
499.000007629
 30
0.0
 11
1258.4
 21
445.4
 31
0.0
  0
LINE
  8
2
  6
CONTINUOUS
 62
     2
 10
1377.9
 20
500.0
 30
0.0
 11
1377.9
 21
399.641101056
 31
0.0
  0
ARC
  8
0
  6
CONTINUOUS
 62
     1
 10
1367.9
 20
503.5
 30
0.0
 40
10.0
 50
270.0
 51
0.0
  0
CIRCLE
  8
0
  6
CONTINUOUS
 62
     1
 10
1367.9
 20
503.0
 30
0.0
 40
4.0
  0
CIRCLE
  8
0
  6
CONTINUOUS
 62
     1
 10
1367.9
 20
503.0
 30
0.0
 40
3.0
  0
ARC
  8
0
  6
CONTINUOUS
 62
     1
 10
1366.4
 20
504.0
 30
0.0
 40
9.0
 50
270.0
 51
0.0
  0
LINE
  8
0
  6
CONTINUOUS
 62
     1
 10
1328.9
 20
515.000001349
 30
0.0
 11
1328.9
 21
500.000001349
 31
0.0
  0
ARC
  8
0
  6
CONTINUOUS
 62
     1
 10
1323.9
 20
500.0
 30
0.0
 40
5.0
 50
270.0
 51
0.000015462
  0
ARC
  8
0
  6
CONTINUOUS
 62
     1
 10
1333.9
 20
515.0
 30
0.0
 40
5.0
 50
90.0
 51
179.999984538
  0
ARC
  8
0
  6
CONTINUOUS
 62
     1
 10
1370.4
 20
525.0
 30
0.0
 40
5.0
 50
270.00003091
 51
0.0
  0
LINE
  8
0
  6
CONTINUOUS
 62
     1
 10
1375.4
 20
587.25
 30
0.0
 11
1375.4
 21
504.0
 31
0.0
  0
LINE
  8
0
  6
CONTINUOUS
 62
     1
 10
1377.9
 20
605.5
 30
0.0
 11
1377.9
 21
504.0
 31
0.0
  0
LINE
  8
0
  6
CONTINUOUS
 62
     2
 10
1373.9
 20
503.0
 30
0.0
 11
1361.9
 21
503.0
 31
0.0
  0
LINE
  8
0
  6
CONTINUOUS
 62
     2
 10
1367.9
 20
497.0
 30
0.0
 11
1367.9
 21
509.0
 31
0.0
  0
LINE
  8
0
  6
CONTINUOUS
 62
     2
 10
1375.4
 20
499.000007629
 30
0.0
 11
1375.4
 21
445.4
 31
0.0
  0
LINE
  8
2
  6
CONTINUOUS
 62
     2
 10
1255.9
 20
407.641101056
 30
0.0
 11
1265.559258263
 21
405.052910605
 31
0.0
  0
LINE
  8
2
  6
CONTINUOUS
 62
     2
 10
1255.9
 20
407.641101056
 30
0.0
 11
1265.559258263
 21
410.229291507
 31
0.0
  0
LINE
  8
2
  6
CONTINUOUS
 62
     2
 10
1255.9
 20
407.641101056
 30
0.0
 11
1377.9
 21
407.641101056
 31
0.0
  0
LINE
  8
2
  6
CONTINUOUS
 62
     2
 10
1377.9
 20
407.641101056
 30
0.0
 11
1368.240741737
 21
410.229291507
 31
0.0
  0
LINE
  8
2
  6
CONTINUOUS
 62
     2
 10
1377.9
 20
407.641101056
 30
0.0
 11
1368.240741737
 21
405.052910605
 31
0.0
  0
LINE
  8
0
  6
CONTINUOUS
 62
     2
 10
1375.4
 20
450.4
 30
0.0
 11
1365.740741737
 21
452.988190451
 31
0.0
  0
LINE
  8
0
  6
CONTINUOUS
 62
     2
 10
1375.4
 20
450.4
 30
0.0
 11
1365.740741737
 21
447.811809549
 31
0.0
  0
LINE
  8
0
  6
CONTINUOUS
 62
     2
 10
1375.4
 20
450.4
 30
0.0
 11
1258.4
 21
450.4
 31
0.0
  0
LINE
  8
0
  6
CONTINUOUS
 62
     2
 10
1258.4
 20
450.4
 30
0.0
 11
1268.059258263
 21
447.811809549
 31
0.0
  0
LINE
  8
0
  6
CONTINUOUS
 62
     2
 10
1258.4
 20
450.4
 30
0.0
 11
1268.059258263
 21
452.988190451
 31
0.0
  0
TEXT
  8
0
  6
CONTINUOUS
 62
     3
 10
1296.65
 20
451.9
 30
0.0
 40
15.0
  1
１１７
 50
0.0
 41
0.9
 51
0.0
  7
KANJI34
  0
TEXT
  8
2
  6
CONTINUOUS
 62
     3
 10
1296.5
 20
410.141101056
 30
0.0
 40
15.0
  1
１２２
 50
0.0
 41
0.9
 51
0.0
  7
KANJI34
  0
TEXT
  8
2
  6
CONTINUOUS
 62
     3
 10
1281.0
 20
390.141101056
 30
0.0
 40
15.0
  1
（モータ幅）
 50
0.0
 41
0.9
 51
0.0
  7
KANJI34
  0
TEXT
  8
0
  6
CONTINUOUS
 62
     3
 10
1260.65
 20
433.9
 30
0.0
 40
15.0
  1
（ギヤケース幅）
 50
0.0
 41
0.9
 51
0.0
  7
KANJI34
  0
ARC
  8
0
  6
CONTINUOUS
 62
     1
 10
1316.9
 20
607.5
 30
0.0
 40
65.0
 50
305.374590447
 51
324.625409553
  0
LINE
  8
0
  6
CONTINUOUS
 62
     1
 10
1369.9
 20
587.6
 30
0.0
 11
1369.9
 21
569.870224556
 31
0.0
  0
LINE
  8
0
  6
CONTINUOUS
 62
     1
 10
1376.9
 20
587.5
 30
0.0
 11
1376.9
 21
627.5
 31
0.0
  0
LINE
  8
0
  6
CONTINUOUS
 62
     1
 10
1351.2
 20
587.5
 30
0.0
 11
1376.9
 21
587.5
 31
0.0
  0
ARC
  8
0
  6
CONTINUOUS
 62
     1
 10
1367.9
 20
605.5
 30
0.0
 40
10.0
 50
0.0
 51
24.981239606
  0
LINE
  8
0
  6
CONTINUOUS
 62
     1
 10
1375.4
 20
657.000002697
 30
0.0
 11
1375.4
 21
627.778748346
 31
0.0
  0
LINE
  8
0
  6
CONTINUOUS
 62
     1
 10
1369.9
 20
645.129775444
 30
0.0
 11
1369.9
 21
627.6
 31
0.0
  0
LINE
  8
0
  6
CONTINUOUS
 62
     1
 10
1351.2
 20
627.5
 30
0.0
 11
1376.9
 21
627.5
 31
0.0
  0
CIRCLE
  8
0
  6
CONTINUOUS
 62
     1
 10
1278.009127035
 20
568.609127035
 30
0.0
 40
5.0
  0
LINE
  8
0
  6
LTYPE3
 62
     2
 10
1284.709127035
 20
575.309127035
 30
0.0
 11
1271.609127035
 21
562.209127035
 31
0.0
  0
ARC
  8
0
  6
LTYPE3
 62
     2
 10
1316.9
 20
607.5
 30
0.0
 40
55.0
 50
215.426162153
 51
235.849015515
  0
CIRCLE
  8
0
  6
CONTINUOUS
 62
     1
 10
1355.790872965
 20
646.390872965
 30
0.0
 40
5.0
  0
LINE
  8
0
  6
LTYPE3
 62
     2
 10
1349.090872965
 20
639.690872965
 30
0.0
 11
1362.190872965
 21
652.790872965
 31
0.0
  0
ARC
  8
0
  6
LTYPE3
 62
     2
 10
1316.9
 20
607.5
 30
0.0
 40
55.0
 50
35.426162153
 51
55.849015515
  0
CIRCLE
  8
0
  6
CONTINUOUS
 62
     1
 10
1355.790872965
 20
568.609127035
 30
0.0
 40
5.0
  0
LINE
  8
0
  6
LTYPE3
 62
     2
 10
1349.090872965
 20
575.309127035
 30
0.0
 11
1362.190872965
 21
562.209127035
 31
0.0
  0
ARC
  8
0
  6
LTYPE3
 62
     2
 10
1316.9
 20
607.5
 30
0.0
 40
55.0
 50
304.150984485
 51
324.573837847
  0
LINE
  8
0
  6
CONTINUOUS
 62
     2
 10
1165.225595435
 20
674.543416229
 30
0.0
 11
1165.225595435
 21
799.072652293
 31
0.0
  0
LINE
  8
0
  6
CONTINUOUS
 62
     2
 10
1316.9
 20
795.072652293
 30
0.0
 11
1165.225595435
 21
795.072652293
 31
0.0
  0
LINE
  8
0
  6
CONTINUOUS
 62
     2
 10
1165.225595435
 20
795.072652293
 30
0.0
 11
1176.09290757
 21
792.363127062
 31
0.0
  0
LINE
  8
0
  6
CONTINUOUS
 62
     2
 10
1165.225595435
 20
795.072652293
 30
0.0
 11
1176.09290757
 21
797.782177523
 31
0.0
  0
LINE
  8
0
  6
CONTINUOUS
 62
     2
 10
1316.9
 20
795.072652293
 30
0.0
 11
1306.032687866
 21
797.782177523
 31
0.0
  0
LINE
  8
0
  6
CONTINUOUS
 62
     2
 10
1316.9
 20
795.072652293
 30
0.0
 11
1306.032687866
 21
792.363127062
 31
0.0
  0
LINE
  8
0
  6
LTYPE5
 62
     2
 10
1201.783016023
 20
686.130274068
 30
0.0
 11
1237.138355082
 21
721.485613127
 31
0.0
  0
ARC
  8
0
  6
LTYPE1
 62
     1
 10
1220.026370977
 20
704.373629023
 30
0.0
 40
16.0
 50
225.0
 51
99.340912304
  0
ARC
  8
0
  6
CONTINUOUS
 62
     1
 10
1220.026370977
 20
704.373629023
 30
0.0
 40
16.0
 50
99.340912304
 51
170.659087696
  0
LINE
  8
0
  6
CONTINUOUS
 62
     1
 10
1205.405465137
 20
694.702470651
 30
0.0
 11
1197.222177284
 21
686.519182798
 31
0.0
  0
LINE
  8
0
  6
CONTINUOUS
 62
     1
 10
1200.072701496
 20
701.390522289
 30
0.0
 11
1165.225595435
 21
666.543416229
 31
0.0
  0
LINE
  8
0
  6
CONTINUOUS
 62
     1
 10
1204.492118878
 20
694.496231173
 30
0.0
 11
1196.868623894
 21
686.872736188
 31
0.0
  0
LINE
  8
0
  6
LTYPE3
 62
     2
 10
1196.550425842
 20
699.56530291
 30
0.0
 11
1210.126876041
 21
685.988852712
 31
0.0
  0
LINE
  8
0
  6
LTYPE1
 62
     2
 10
1209.596545955
 20
698.893551468
 30
0.0
 11
1214.546293423
 21
693.943804
 31
0.0
  0
LINE
  8
0
  6
LTYPE1
 62
     2
 10
1214.546293423
 20
693.943804
 30
0.0
 11
1209.220895477
 21
688.618406054
 31
0.0
  0
ARC
  8
0
  6
LTYPE1
 62
     1
 10
1220.026370977
 20
704.373629023
 30
0.0
 40
16.0
 50
170.659087696
 51
225.0
  0
LINE
  8
0
  6
LTYPE1
 62
     2
 10
1209.596545955
 20
698.893551468
 30
0.0
 11
1205.405465137
 21
694.702470651
 31
0.0
  0
LINE
  8
0
  6
LTYPE1
 62
     1
 10
1200.934487885
 20
702.252308679
 30
0.0
 11
1200.072701496
 21
701.390522289
 31
0.0
  0
LINE
  8
0
  6
LTYPE1
 62
     1
 10
1206.591342135
 20
696.59545443
 30
0.0
 11
1204.492118878
 21
694.496231173
 31
0.0
  0
LINE
  8
0
  6
LTYPE5
 62
     2
 10
1207.439870272
 20
716.960129728
 30
0.0
 11
1322.144043872
 21
602.255956128
 31
0.0
  0
LINE
  8
0
  6
CONTINUOUS
 62
     1
 10
1201.641594667
 20
704.373629023
 30
0.0
 11
1277.302020254
 21
594.772077939
 31
0.0
  0
LINE
  8
0
  6
CONTINUOUS
 62
     1
 10
1201.641594667
 20
704.373629023
 30
0.0
 11
1220.026370977
 21
722.758405333
 31
0.0
  0
LINE
  8
0
  6
LTYPE1
 62
     1
 10
1200.934487885
 20
702.252308679
 30
0.0
 11
1207.946630132
 21
695.240166432
 31
0.0
  0
CIRCLE
  8
0
  6
CONTINUOUS
 62
     1
 10
1220.026370977
 20
704.373629023
 30
0.0
 40
6.49995
  0
LINE
  8
0
  6
CONTINUOUS
 62
     1
 10
1221.972979378
 20
711.619338067
 30
0.0
 11
1214.727270333
 21
709.672729667
 31
0.0
  0
CIRCLE
  8
0
  6
LTYPE1
 62
     2
 10
1220.026370977
 20
704.373629023
 30
0.0
 40
3.2
  0
CIRCLE
  8
0
  6
CONTINUOUS
 62
     1
 10
1220.026370977
 20
704.373629023
 30
0.0
 40
4.0
  0
LINE
  8
0
  6
CONTINUOUS
 62
     1
 10
1227.272080022
 20
706.320237423
 30
0.0
 11
1225.325471622
 21
699.074528378
 31
0.0
  0
LINE
  8
0
  6
CONTINUOUS
 62
     1
 10
1227.272080022
 20
706.320237423
 30
0.0
 11
1221.972979378
 21
711.619338067
 31
0.0
  0
LINE
  8
0
  6
LTYPE3
 62
     2
 10
1223.137640815
 20
729.546630433
 30
0.0
 11
1238.411147288
 21
714.273123959
 31
0.0
  0
LINE
  8
0
  6
LTYPE1
 62
     2
 10
1225.506448532
 20
714.803454045
 30
0.0
 11
1230.456196
 21
709.853706577
 31
0.0
  0
LINE
  8
0
  6
LTYPE1
 62
     2
 10
1235.781593946
 20
715.179104523
 30
0.0
 11
1230.456196
 21
709.853706577
 31
0.0
  0
LINE
  8
0
  6
CONTINUOUS
 62
     1
 10
1229.903768827
 20
719.907881122
 30
0.0
 11
1237.527263812
 21
727.531376106
 31
0.0
  0
LINE
  8
0
  6
LTYPE1
 62
     1
 10
1227.80454557
 20
717.808657865
 30
0.0
 11
1229.903768827
 21
719.907881122
 31
0.0
  0
LINE
  8
0
  6
CONTINUOUS
 62
     1
 10
1218.079762577
 20
697.127919978
 30
0.0
 11
1212.780661933
 21
702.427020622
 31
0.0
  0
LINE
  8
0
  6
CONTINUOUS
 62
     1
 10
1212.780661933
 20
702.427020622
 30
0.0
 11
1214.727270333
 21
709.672729667
 31
0.0
  0
LINE
  8
0
  6
CONTINUOUS
 62
     1
 10
1218.079762577
 20
697.127919978
 30
0.0
 11
1225.325471622
 21
699.074528378
 31
0.0
  0
LINE
  8
0
  6
LTYPE1
 62
     1
 10
1222.147691321
 20
723.465512115
 30
0.0
 11
1229.159833568
 21
716.453369868
 31
0.0
  0
LINE
  8
0
  6
CONTINUOUS
 62
     1
 10
1237.880817202
 20
727.177822716
 30
0.0
 11
1228.158098961
 21
717.455104475
 31
0.0
  0
LINE
  8
0
  6
LTYPE1
 62
     2
 10
1229.697529349
 20
718.994534863
 30
0.0
 11
1228.158098961
 21
717.455104475
 31
0.0
  0
LINE
  8
0
  6
CONTINUOUS
 62
     1
 10
1197.222177284
 20
686.519182798
 30
0.0
 11
1202.171924752
 21
681.569435329
 31
0.0
  0
LINE
  8
0
  6
CONTINUOUS
 62
     1
 10
1196.797913215
 20
686.943446866
 30
0.0
 11
1191.74209973
 21
678.9177849
 31
0.0
  0
LINE
  8
0
  6
LTYPE3
 62
     2
 10
1199.732406357
 20
621.288582233
 30
0.0
 11
1166.498387642
 21
654.522600949
 31
0.0
  0
LINE
  8
0
  6
LTYPE3
 62
     2
 10
1188.560119215
 20
675.17011896
 30
0.0
 11
1221.79413793
 21
641.936100244
 31
0.0
  0
LINE
  8
0
  6
CONTINUOUS
 62
     1
 10
1222.147691321
 20
648.512193309
 30
0.0
 11
1193.863420074
 21
620.227922061
 31
0.0
  0
LINE
  8
0
  6
CONTINUOUS
 62
     1
 10
1193.863420074
 20
620.227922061
 30
0.0
 11
1193.934130752
 21
620.157211383
 31
0.0
  0
LINE
  8
0
  6
CONTINUOUS
 62
     1
 10
1165.579148826
 20
648.512193309
 30
0.0
 11
1193.863420074
 21
620.227922061
 31
0.0
  0
LINE
  8
0
  6
CONTINUOUS
 62
     1
 10
1222.147691321
 20
648.512193309
 30
0.0
 11
1193.863420074
 21
676.796464556
 31
0.0
  0
LINE
  8
0
  6
LTYPE3
 62
     2
 10
1167.983311882
 20
674.3923015
 30
0.0
 11
1208.995505191
 21
633.380108191
 31
0.0
  0
LINE
  8
0
  6
CONTINUOUS
 62
     1
 10
1191.74209973
 20
678.9177849
 30
0.0
 11
1182.903264965
 21
670.078950135
 31
0.0
  0
LINE
  8
0
  6
CONTINUOUS
 62
     1
 10
1197.328243301
 20
660.179455198
 30
0.0
 11
1182.196158184
 21
645.047370081
 31
0.0
  0
ARC
  8
0
  6
CONTINUOUS
 62
     1
 10
1198.742456864
 20
658.765241636
 30
0.0
 40
2.0
 50
45.0
 51
135.0
  0
LINE
  8
0
  6
CONTINUOUS
 62
     1
 10
1182.196158184
 20
642.218942956
 30
0.0
 11
1197.328243301
 21
627.086857839
 31
0.0
  0
ARC
  8
0
  6
CONTINUOUS
 62
     1
 10
1198.742456864
 20
628.501071401
 30
0.0
 40
2.0
 50
225.0
 51
315.0
  0
LINE
  8
0
  6
LTYPE3
 62
     2
 10
1188.772251249
 20
633.662950904
 30
0.0
 11
1208.854083835
 21
653.74478349
 31
0.0
  0
LINE
  8
0
  6
CONTINUOUS
 62
     1
 10
1175.832197153
 20
677.150017947
 30
0.0
 11
1195.065501602
 21
657.916713499
 31
0.0
  0
LINE
  8
0
  6
CONTINUOUS
 62
     1
 10
1197.398953979
 20
673.26093065
 30
0.0
 11
1188.489408537
 21
664.351385207
 31
0.0
  0
LINE
  8
0
  6
CONTINUOUS
 62
     1
 10
1193.863420074
 20
676.796464556
 30
0.0
 11
1185.024585309
 21
667.957629791
 31
0.0
  0
LINE
  8
0
  6
CONTINUOUS
 62
     1
 10
1209.220895477
 20
688.618406054
 30
0.0
 11
1202.171924752
 21
681.569435329
 31
0.0
  0
LINE
  8
0
  6
CONTINUOUS
 62
     1
 10
1200.156670426
 20
660.179455198
 30
0.0
 11
1215.288755543
 21
645.047370081
 31
0.0
  0
LINE
  8
0
  6
CONTINUOUS
 62
     1
 10
1215.288755543
 20
642.218942956
 30
0.0
 11
1200.156670426
 21
627.086857839
 31
0.0
  0
LINE
  8
0
  6
CONTINUOUS
 62
     1
 10
1236.295224706
 20
654.17444532
 30
0.0
 11
1194.924080245
 21
612.803300859
 31
0.0
  0
LINE
  8
0
  6
CONTINUOUS
 62
     1
 10
1190.681439558
 20
617.045941546
 30
0.0
 11
1232.829861702
 21
659.19436369
 31
0.0
  0
ARC
  8
0
  6
CONTINUOUS
 62
     1
 10
1213.874541981
 20
643.633156519
 30
0.0
 40
2.0
 50
315.0
 51
45.0
  0
LINE
  8
0
  6
CONTINUOUS
 62
     1
 10
1228.511652352
 20
646.390872965
 30
0.0
 11
1248.664195616
 21
626.238329701
 31
0.0
  0
LINE
  8
0
  6
CONTINUOUS
 62
     1
 10
1329.627922061
 20
647.097979746
 30
0.0
 11
1220.026370977
 21
722.758405333
 31
0.0
  0
LINE
  8
0
  6
CONTINUOUS
 62
     1
 10
1201.641594667
 20
704.373629023
 30
0.0
 11
1220.026370977
 21
722.758405333
 31
0.0
  0
LINE
  8
0
  6
CONTINUOUS
 62
     1
 10
1242.830564671
 20
722.228075248
 30
0.0
 11
1233.831146496
 21
713.228657072
 31
0.0
  0
LINE
  8
0
  6
CONTINUOUS
 62
     1
 10
1182.903264965
 20
670.078950135
 30
0.0
 11
1172.296663247
 21
659.472348417
 31
0.0
  0
ARC
  8
0
  6
CONTINUOUS
 62
     1
 10
1183.610371746
 20
643.633156519
 30
0.0
 40
2.0
 50
135.0
 51
225.0
  0
LINE
  8
0
  6
CONTINUOUS
 62
     1
 10
1177.953517497
 20
653.815494168
 30
0.0
 11
1169.114682732
 21
644.976659403
 31
0.0
  0
LINE
  8
0
  6
CONTINUOUS
 62
     1
 10
1174.347272913
 20
657.280317396
 30
0.0
 11
1165.579148826
 21
648.512193309
 31
0.0
  0
LINE
  8
0
  6
CONTINUOUS
 62
     1
 10
1165.225595435
 20
666.543416229
 30
0.0
 11
1184.458899884
 21
647.310111781
 31
0.0
  0
ARC
  8
0
  6
CONTINUOUS
 62
     1
 10
1250.078409178
 20
627.652543264
 30
0.0
 40
2.0
 50
225.0
 51
315.0
  0
LINE
  8
0
  6
CONTINUOUS
 62
     1
 10
1253.613943084
 20
628.359650045
 30
0.0
 11
1251.49262274
 21
626.238329701
 31
0.0
  0
LINE
  8
0
  6
CONTINUOUS
 62
     1
 10
1190.681439558
 20
617.045941546
 30
0.0
 11
1194.924080245
 21
612.803300859
 31
0.0
  0
LINE
  8
0
  6
LTYPE1
 62
     1
 10
1222.147691321
 20
723.465512115
 30
0.0
 11
1223.009477711
 21
724.327298504
 31
0.0
  0
LINE
  8
0
  6
CONTINUOUS
 62
     1
 10
1223.009477711
 20
724.327298504
 30
0.0
 11
1257.856583771
 21
759.174404565
 31
0.0
  0
LINE
  8
0
  6
CONTINUOUS
 62
     1
 10
1237.880817202
 20
727.177822716
 30
0.0
 11
1242.830564671
 21
722.228075248
 31
0.0
  0
LINE
  8
0
  6
CONTINUOUS
 62
     1
 10
1237.456553134
 20
727.602086785
 30
0.0
 11
1245.4822151
 21
732.65790027
 31
0.0
  0
LINE
  8
0
  6
CONTINUOUS
 62
     1
 10
1247.249982053
 20
748.567802847
 30
0.0
 11
1256.442370209
 21
739.375414691
 31
0.0
  0
LINE
  8
0
  6
CONTINUOUS
 62
     1
 10
1245.4822151
 20
732.65790027
 30
0.0
 11
1254.321049865
 21
741.496735035
 31
0.0
  0
LINE
  8
0
  6
LTYPE3
 62
     2
 10
1248.593484937
 20
757.83090168
 30
0.0
 11
1289.605678246
 21
716.818708371
 31
0.0
  0
LINE
  8
0
  6
CONTINUOUS
 62
     1
 10
1279.423340597
 20
755.285317268
 30
0.0
 11
1251.13906935
 21
727.001046021
 31
0.0
  0
LINE
  8
0
  6
CONTINUOUS
 62
     1
 10
1275.837938583
 20
751.699915254
 30
0.0
 11
1251.13906935
 21
727.001046021
 31
0.0
  0
LINE
  8
0
  6
CONTINUOUS
 62
     1
 10
1275.887806691
 20
758.820851174
 30
0.0
 11
1247.603535444
 21
730.536579926
 31
0.0
  0
LINE
  8
0
  6
CONTINUOUS
 62
     1
 10
1257.856583771
 20
759.174404565
 30
0.0
 11
1267.048971926
 21
749.982016409
 31
0.0
  0
LINE
  8
0
  6
LTYPE3
 62
     2
 10
1270.584505832
 20
757.194505577
 30
0.0
 11
1303.818524548
 21
723.960486861
 31
0.0
  0
LINE
  8
0
  6
CONTINUOUS
 62
     1
 10
1304.172077939
 20
730.536579926
 30
0.0
 11
1275.887806691
 21
758.820851174
 31
0.0
  0
CIRCLE
  8
0
  6
CONTINUOUS
 62
     1
 10
1274.756435841
 20
731.667950776
 30
0.0
 40
9.36
  0
LINE
  8
0
  6
LTYPE3
 62
     2
 10
1283.948823997
 20
740.860338932
 30
0.0
 11
1265.564047686
 21
722.475562621
 31
0.0
  0
CIRCLE
  8
0
  6
CONTINUOUS
 62
     2
 10
1274.756435841
 20
731.667950776
 30
0.0
 40
10.47
  0
LINE
  8
0
  6
LTYPE3
 62
     2
 10
1281.756792975
 20
703.312968851
 30
0.0
 11
1248.522774259
 21
736.546987567
 31
0.0
  0
LINE
  8
0
  6
CONTINUOUS
 62
     1
 10
1247.603535444
 20
730.536579926
 30
0.0
 11
1275.887806691
 21
702.252308679
 31
0.0
  0
LINE
  8
0
  6
CONTINUOUS
 62
     1
 10
1272.705826176
 20
723.111958724
 30
0.0
 11
1281.898214331
 21
713.919570569
 31
0.0
  0
LINE
  8
0
  6
CONTINUOUS
 62
     1
 10
1265.20563631
 20
691.570138298
 30
0.0
 11
1307.354058454
 21
733.718560442
 31
0.0
  0
LINE
  8
0
  6
CONTINUOUS
 62
     1
 10
1307.354058454
 20
733.718560442
 30
0.0
 11
1311.596699141
 21
729.475919755
 31
0.0
  0
LINE
  8
0
  6
CONTINUOUS
 62
     1
 10
1311.596699141
 20
729.475919755
 30
0.0
 11
1270.22555468
 21
688.104775294
 31
0.0
  0
LINE
  8
0
  6
CONTINUOUS
 62
     1
 10
1301.343650814
 20
733.365007051
 30
0.0
 11
1273.059379566
 21
705.080735804
 31
0.0
  0
LINE
  8
0
  6
CONTINUOUS
 62
     1
 10
1283.312427894
 20
733.718560442
 30
0.0
 11
1292.504816049
 21
724.526172286
 31
0.0
  0
LINE
  8
0
  6
CONTINUOUS
 62
     1
 10
1270.938059223
 20
707.202056147
 30
0.0
 11
1279.776893988
 21
716.040890912
 31
0.0
  0
LINE
  8
0
  6
CONTINUOUS
 62
     1
 10
1278.009127035
 20
695.888347648
 30
0.0
 11
1298.161670299
 21
675.735804385
 31
0.0
  0
ARC
  8
0
  6
CONTINUOUS
 62
     1
 10
1296.747456736
 20
674.321590822
 30
0.0
 40
2.0
 50
315.0
 51
45.0
  0
LINE
  8
0
  6
CONTINUOUS
 62
     1
 10
1296.040349955
 20
670.786056916
 30
0.0
 11
1298.161670299
 21
672.90737726
 31
0.0
  0
LINE
  8
0
  6
CONTINUOUS
 62
     1
 10
1326.445941546
 20
663.007882323
 30
0.0
 11
1337.759650045
 21
651.694173824
 31
0.0
  0
ARC
  8
0
  6
CONTINUOUS
 62
     1
 10
1325.031727984
 20
661.593668761
 30
0.0
 40
2.0
 50
45.0
 51
135.0
  0
LINE
  8
0
  6
CONTINUOUS
 62
     1
 10
1316.696991924
 20
656.087359826
 30
0.0
 11
1323.617514421
 21
663.007882323
 31
0.0
  0
LINE
  8
0
  6
CONTINUOUS
 62
     1
 10
1332.809902577
 20
643.915999231
 30
0.0
 11
1337.759650045
 21
648.865746699
 31
0.0
  0
LINE
  8
0
  6
CONTINUOUS
 62
     1
 10
1342.002290732
 20
634.723611076
 30
0.0
 11
1329.627922061
 21
647.097979746
 31
0.0
  0
LINE
  8
0
  6
CONTINUOUS
 62
     1
 10
1335.107999616
 20
646.21409627
 30
0.0
 11
1345.361047943
 21
635.961047943
 31
0.0
  0
LINE
  8
0
  6
LTYPE1
 62
     2
 10
1280.484000769
 20
591.590097423
 30
0.0
 11
1333.107999616
 21
644.21409627
 31
0.0
  0
LINE
  8
0
  6
LTYPE5
 62
     2
 10
1347.447012947
 20
638.047012947
 30
0.0
 11
1272.352272785
 21
562.952272785
 31
0.0
  0
LINE
  8
0
  6
LTYPE5
 62
     2
 10
1347.447012947
 20
638.047012947
 30
0.0
 11
1272.352272785
 21
562.952272785
 31
0.0
  0
ARC
  8
0
  6
CONTINUOUS
 62
     1
 10
1316.9
 20
607.5
 30
0.0
 40
40.25
 50
21.817360174
 51
45.0
  0
LINE
  8
0
  6
CONTINUOUS
 62
     1
 10
1342.002290732
 20
634.723611076
 30
0.0
 11
1337.759650045
 21
630.480970389
 31
0.0
  0
LINE
  8
0
  6
CONTINUOUS
 62
     1
 10
1361.447727215
 20
615.278174593
 30
0.0
 11
1344.123611076
 21
632.602290732
 31
0.0
  0
LINE
  8
0
  6
CONTINUOUS
 62
     1
 10
1344.123611076
 20
632.602290732
 30
0.0
 11
1339.880970389
 21
628.359650045
 31
0.0
  0
LINE
  8
0
  6
CONTINUOUS
 62
     1
 10
1309.121825407
 20
562.952272785
 30
0.0
 11
1291.797709268
 21
580.276388924
 31
0.0
  0
ARC
  8
0
  6
CONTINUOUS
 62
     1
 10
1316.9
 20
607.5
 30
0.0
 40
40.25
 50
225.000030718
 51
248.182639826
  0
LINE
  8
0
  6
CONTINUOUS
 62
     1
 10
1278.18590373
 20
589.292000384
 30
0.0
 11
1288.438967316
 21
579.038936798
 31
0.0
  0
LINE
  8
0
  6
CONTINUOUS
 62
     1
 10
1289.676388924
 20
582.397709268
 30
0.0
 11
1277.302020254
 21
594.772077939
 31
0.0
  0
LINE
  8
0
  6
CONTINUOUS
 62
     1
 10
1293.919029611
 20
586.640349955
 30
0.0
 11
1289.676388924
 21
582.397709268
 31
0.0
  0
LINE
  8
0
  6
CONTINUOUS
 62
     1
 10
1296.040349955
 20
584.519029611
 30
0.0
 11
1291.797709268
 21
580.276388924
 31
0.0
  0
LINE
  8
0
  6
CONTINUOUS
 62
     1
 10
1275.534253301
 20
586.640349955
 30
0.0
 11
1280.484000769
 21
591.590097423
 31
0.0
  0
LINE
  8
0
  6
CONTINUOUS
 62
     1
 10
1261.392117677
 20
597.954058454
 30
0.0
 11
1272.705826176
 21
586.640349955
 31
0.0
  0
ARC
  8
0
  6
CONTINUOUS
 62
     1
 10
1274.120039738
 20
588.054563517
 30
0.0
 40
2.0
 50
225.0
 51
315.0
  0
LINE
  8
0
  6
CONTINUOUS
 62
     1
 10
1268.082337765
 20
607.472705667
 30
0.0
 11
1261.392117677
 21
600.782485579
 31
0.0
  0
ARC
  8
0
  6
CONTINUOUS
 62
     1
 10
1262.806331239
 20
599.368272016
 30
0.0
 40
2.0
 50
135.0
 51
225.0
  0
LINE
  8
0
  6
LTYPE1
 62
     2
 10
1329.451145366
 20
640.55724202
 30
0.0
 11
1339.704215272
 21
630.304172114
 31
0.0
  0
LINE
  8
0
  6
LTYPE1
 62
     2
 10
1283.84275798
 20
594.948854634
 30
0.0
 11
1294.095806307
 21
584.695806307
 31
0.0
  0
ARC
  8
0
  6
CONTINUOUS
 62
     1
 10
1316.9
 20
607.5
 30
0.0
 40
40.0
 50
274.301222305
 51
355.689374175
  0
LINE
  8
0
  6
CONTINUOUS
 62
     1
 10
1319.9
 20
567.61265865
 30
0.0
 11
1319.9
 21
570.309658385
 31
0.0
  0
ARC
  8
0
  6
LTYPE1
 62
     2
 10
1316.9
 20
607.5
 30
0.0
 40
40.0
 50
94.301222305
 51
175.824842809
  0
LINE
  8
0
  6
LTYPE1
 62
     2
 10
1319.9
 20
644.690341615
 30
0.0
 11
1313.9
 21
644.690341615
 31
0.0
  0
LINE
  8
0
  6
LTYPE1
 62
     2
 10
1313.9
 20
647.38734135
 30
0.0
 11
1313.9
 21
644.690341615
 31
0.0
  0
LINE
  8
0
  6
LTYPE1
 62
     2
 10
1319.9
 20
647.38734135
 30
0.0
 11
1319.9
 21
644.690341615
 31
0.0
  0
ARC
  8
0
  6
LTYPE1
 62
     2
 10
1316.9
 20
607.5
 30
0.0
 40
40.0
 50
4.301222305
 51
85.690693445
  0
LINE
  8
0
  6
LTYPE1
 62
     2
 10
1354.9
 20
607.5
 30
0.0
 11
1354.9
 21
615.5
 31
0.0
  0
LINE
  8
0
  6
LTYPE1
 62
     2
 10
1356.78734135
 20
610.5
 30
0.0
 11
1354.090341615
 21
610.5
 31
0.0
  0
LINE
  8
0
  6
LTYPE1
 62
     2
 10
1256.9
 20
627.5
 30
0.0
 11
1282.7
 21
627.5
 31
0.0
  0
ARC
  8
0
  6
LTYPE1
 62
     2
 10
1316.9
 20
607.5
 30
0.0
 40
40.0
 50
226.023030189
 51
265.679883141
  0
LINE
  8
0
  6
LTYPE1
 62
     2
 10
1313.9
 20
567.61265865
 30
0.0
 11
1313.9
 21
570.309658385
 31
0.0
  0
LINE
  8
0
  6
CONTINUOUS
 62
     1
 10
1319.9
 20
570.309658385
 30
0.0
 11
1317.0
 21
570.309658385
 31
0.0
  0
LINE
  8
0
  6
CONTINUOUS
 62
     1
 10
1354.090341615
 20
608.0
 30
0.0
 11
1354.090341615
 21
604.5
 31
0.0
  0
LINE
  8
0
  6
LTYPE1
 62
     2
 10
1354.090341615
 20
610.5
 30
0.0
 11
1354.090341615
 21
608.0
 31
0.0
  0
LINE
  8
0
  6
LTYPE1
 62
     2
 10
1316.9
 20
570.309658385
 30
0.0
 11
1313.9
 21
570.309658385
 31
0.0
  0
LINE
  8
0
  6
CONTINUOUS
 62
     1
 10
1256.9
 20
587.5
 30
0.0
 11
1271.9
 21
587.5
 31
0.0
  0
LINE
  8
0
  6
CONTINUOUS
 62
     1
 10
1276.7
 20
587.5
 30
0.0
 11
1279.4
 21
587.5
 31
0.0
  0
LINE
  8
0
  6
LTYPE1
 62
     2
 10
1272.3
 20
587.5
 30
0.0
 11
1275.7
 21
587.5
 31
0.0
  0
LINE
  8
0
  6
LTYPE1
 62
     2
 10
1279.4
 20
587.5
 30
0.0
 11
1282.2
 21
587.5
 31
0.0
  0
ARC
  8
0
  6
LTYPE1
 62
     2
 10
1316.9
 20
607.5
 30
0.0
 40
40.0
 50
184.175157191
 51
227.5791475
  0
LINE
  8
0
  6
CONTINUOUS
 62
     1
 10
1256.9
 20
587.5
 30
0.0
 11
1256.9
 21
624.6
 31
0.0
  0
LINE
  8
0
  6
LTYPE1
 62
     2
 10
1256.9
 20
624.6
 30
0.0
 11
1256.9
 21
627.5
 31
0.0
  0
ARC
  8
0
  6
LTYPE1
 62
     2
 10
1263.4
 20
657.0
 30
0.0
 40
5.0
 50
90.0
 51
179.999969099
  0
LINE
  8
0
  6
LTYPE1
 62
     2
 10
1258.4
 20
657.000002697
 30
0.0
 11
1258.4
 21
627.778748346
 31
0.0
  0
LINE
  8
0
  6
LTYPE1
 62
     2
 10
1272.9
 20
662.0
 30
0.0
 11
1263.4
 21
662.0
 31
0.0
  0
ARC
  8
0
  6
LTYPE1
 62
     2
 10
1274.9
 20
676.020045888
 30
0.0
 40
2.0
 50
90.0
 51
180.0
  0
LINE
  8
0
  6
LTYPE1
 62
     2
 10
1272.9
 20
655.1
 30
0.0
 11
1272.9
 21
676.020045888
 31
0.0
  0
ARC
  8
0
  6
LTYPE1
 62
     2
 10
1282.9
 20
678.0
 30
0.0
 40
2.0
 50
90.0
 51
180.0
  0
LINE
  8
0
  6
LTYPE1
 62
     2
 10
1280.9
 20
660.6
 30
0.0
 11
1280.9
 21
678.0
 31
0.0
  0
LINE
  8
0
  6
LTYPE1
 62
     2
 10
1281.078740284
 20
678.020045888
 30
0.0
 11
1274.9
 21
678.020045888
 31
0.0
  0
LINE
  8
0
  6
LTYPE1
 62
     2
 10
1291.292304845
 20
661.0
 30
0.0
 11
1291.292304845
 21
673.9
 31
0.0
  0
ARC
  8
0
  6
CONTINUOUS
 62
     1
 10
1336.345436483
 20
650.279960262
 30
0.0
 40
2.0
 50
315.0
 51
45.0
  0
LINE
  8
0
  6
CONTINUOUS
 62
     2
 10
1256.9
 20
764.5
 30
0.0
 11
1376.9
 21
764.5
 31
0.0
  0
LINE
  8
0
  6
CONTINUOUS
 62
     2
 10
1376.9
 20
764.5
 30
0.0
 11
1367.240741737
 21
767.088190451
 31
0.0
  0
LINE
  8
0
  6
CONTINUOUS
 62
     2
 10
1376.9
 20
764.5
 30
0.0
 11
1367.240741737
 21
761.911809549
 31
0.0
  0
LINE
  8
0
  6
CONTINUOUS
 62
     2
 10
1256.9
 20
764.5
 30
0.0
 11
1266.559258263
 21
761.911809549
 31
0.0
  0
LINE
  8
0
  6
CONTINUOUS
 62
     2
 10
1256.9
 20
764.5
 30
0.0
 11
1266.559258263
 21
767.088190451
 31
0.0
  0
LINE
  8
0
  6
CONTINUOUS
 62
     2
 10
1256.9
 20
632.5
 30
0.0
 11
1256.9
 21
768.5
 31
0.0
  0
LINE
  8
0
  6
CONTINUOUS
 62
     2
 10
1376.9
 20
632.5
 30
0.0
 11
1376.9
 21
769.0
 31
0.0
  0
LINE
  8
0
  6
CONTINUOUS
 62
     2
 10
1316.9
 20
785.4
 30
0.0
 11
1316.9
 21
799.072652293
 31
0.0
  0
LINE
  8
0
  6
LTYPE3
 62
     2
 10
1316.9
 20
764.2
 30
0.0
 11
1316.9
 21
494.5
 31
0.0
  0
LINE
  8
2
  6
CONTINUOUS
 62
     2
 10
1407.400015259
 20
494.0
 30
0.0
 11
1409.98820571
 21
503.659258263
 31
0.0
  0
LINE
  8
2
  6
CONTINUOUS
 62
     2
 10
1407.400015259
 20
494.0
 30
0.0
 11
1404.811824808
 21
503.659258263
 31
0.0
  0
LINE
  8
2
  6
CONTINUOUS
 62
     2
 10
1407.400015259
 20
494.0
 30
0.0
 11
1407.400015259
 21
555.0
 31
0.0
  0
LINE
  8
2
  6
CONTINUOUS
 62
     2
 10
1407.400015259
 20
555.0
 30
0.0
 11
1404.811824808
 21
545.340741737
 31
0.0
  0
LINE
  8
2
  6
CONTINUOUS
 62
     2
 10
1407.400015259
 20
555.0
 30
0.0
 11
1409.98820571
 21
545.340741737
 31
0.0
  0
LINE
  8
2
  6
CONTINUOUS
 62
     2
 10
1400.900015259
 20
555.0
 30
0.0
 11
1415.400015259
 21
555.0
 31
0.0
  0
LINE
  8
2
  6
CONTINUOUS
 62
     2
 10
1407.400015259
 20
555.0
 30
0.0
 11
1409.98820571
 21
564.659258263
 31
0.0
  0
LINE
  8
2
  6
CONTINUOUS
 62
     2
 10
1407.400015259
 20
555.0
 30
0.0
 11
1404.811824808
 21
564.659258263
 31
0.0
  0
LINE
  8
2
  6
CONTINUOUS
 62
     2
 10
1407.400015259
 20
555.0
 30
0.0
 11
1407.400015259
 21
680.0
 31
0.0
  0
LINE
  8
2
  6
CONTINUOUS
 62
     2
 10
1407.400015259
 20
680.0
 30
0.0
 11
1404.811824808
 21
670.340741737
 31
0.0
  0
LINE
  8
2
  6
CONTINUOUS
 62
     2
 10
1407.400015259
 20
680.0
 30
0.0
 11
1409.98820571
 21
670.340741737
 31
0.0
  0
LINE
  8
2
  6
CONTINUOUS
 62
     2
 10
1411.400015259
 20
680.0
 30
0.0
 11
1444.4
 21
680.0
 31
0.0
  0
LINE
  8
2
  6
CONTINUOUS
 62
     2
 10
1436.4
 20
680.0
 30
0.0
 11
1433.811809549
 21
670.340741737
 31
0.0
  0
LINE
  8
2
  6
CONTINUOUS
 62
     2
 10
1436.4
 20
680.0
 30
0.0
 11
1438.988190451
 21
670.340741737
 31
0.0
  0
LINE
  8
2
  6
CONTINUOUS
 62
     2
 10
1436.4
 20
680.0
 30
0.0
 11
1436.4
 21
494.0
 31
0.0
  0
LINE
  8
2
  6
CONTINUOUS
 62
     2
 10
1436.4
 20
494.0
 30
0.0
 11
1438.988190451
 21
503.659258263
 31
0.0
  0
LINE
  8
2
  6
CONTINUOUS
 62
     2
 10
1436.4
 20
494.0
 30
0.0
 11
1433.811809549
 21
503.659258263
 31
0.0
  0
LINE
  8
2
  6
CONTINUOUS
 62
     2
 10
1415.400015259
 20
494.0
 30
0.0
 11
1444.4
 21
494.0
 31
0.0
  0
TEXT
  8
2
  6
CONTINUOUS
 62
     3
 10
1432.4
 20
566.6
 30
0.0
 40
15.0
  1
１８６
 50
90.0
 41
0.9
 51
0.0
  7
KANJI34
  0
CIRCLE
  8
0
  6
CONTINUOUS
 62
     1
 10
1069.099984741
 20
618.5
 30
0.0
 40
3.0
  0
CIRCLE
  8
0
  6
CONTINUOUS
 62
     1
 10
1069.1
 20
607.5
 30
0.0
 40
15.0
  0
LINE
  8
0
  6
CONTINUOUS
 62
     1
 10
1064.9
 20
595.2
 30
0.0
 11
1066.9
 21
594.9
 31
0.0
  0
LINE
  8
0
  6
CONTINUOUS
 62
     1
 10
1067.164615385
 20
598.030769231
 30
0.0
 11
1064.9
 21
595.2
 31
0.0
  0
LINE
  8
0
  6
CONTINUOUS
 62
     1
 10
1069.1
 20
597.6
 30
0.0
 11
1066.9
 21
594.9
 31
0.0
  0
LINE
  8
0
  6
CONTINUOUS
 62
     1
 10
1067.4
 20
599.6
 30
0.0
 11
1067.164615385
 21
598.030769231
 31
0.0
  0
LINE
  8
0
  6
CONTINUOUS
 62
     1
 10
1073.3
 20
595.2
 30
0.0
 11
1071.3
 21
594.9
 31
0.0
  0
LINE
  8
0
  6
CONTINUOUS
 62
     1
 10
1070.8
 20
599.6
 30
0.0
 11
1071.035384615
 21
598.030769231
 31
0.0
  0
LINE
  8
0
  6
CONTINUOUS
 62
     1
 10
1071.035384615
 20
598.030769231
 30
0.0
 11
1073.3
 21
595.2
 31
0.0
  0
LINE
  8
0
  6
CONTINUOUS
 62
     1
 10
1069.1
 20
597.6
 30
0.0
 11
1071.3
 21
594.9
 31
0.0
  0
LINE
  8
0
  6
LTYPE2
 62
     2
 10
527.35
 20
498.5
 30
0.0
 11
866.61
 21
498.5
 31
0.0
  0
LINE
  8
0
  6
LTYPE3
 62
     2
 10
547.85
 20
470.5
 30
0.0
 11
1081.0
 21
470.5
 31
0.0
  0
LINE
  8
0
  6
LTYPE3
 62
     2
 10
565.85
 20
498.5
 30
0.0
 11
577.35
 21
498.5
 31
0.0
  0
LINE
  8
0
  6
LTYPE1
 62
     2
 10
546.85
 20
507.7
 30
0.0
 11
544.35
 21
507.7
 31
0.0
  0
LINE
  8
0
  6
LTYPE1
 62
     2
 10
562.85
 20
508.9
 30
0.0
 11
569.35
 21
508.9
 31
0.0
  0
ARC
  8
0
  6
LTYPE1
 62
     2
 10
566.45
 20
506.3
 30
0.0
 40
3.9
 50
317.9
 51
42.1
  0
LINE
  8
0
  6
LTYPE1
 62
     2
 10
569.35
 20
503.7
 30
0.0
 11
562.85
 21
503.7
 31
0.0
  0
LINE
  8
0
  6
LTYPE1
 62
     2
 10
554.85
 20
508.5
 30
0.0
 11
554.85
 21
524.5
 31
0.0
  0
LINE
  8
0
  6
LTYPE1
 62
     2
 10
570.35
 20
502.5
 30
0.0
 11
577.85
 21
502.5
 31
0.0
  0
LINE
  8
0
  6
LTYPE1
 62
     2
 10
609.85
 20
510.5
 30
0.0
 11
577.85
 21
510.5
 31
0.0
  0
LINE
  8
0
  6
LTYPE1
 62
     2
 10
577.85
 20
502.5
 30
0.0
 11
582.85
 21
502.5
 31
0.0
  0
LINE
  8
0
  6
LTYPE1
 62
     2
 10
609.85
 20
504.5
 30
0.0
 11
577.85
 21
504.5
 31
0.0
  0
LINE
  8
0
  6
LTYPE1
 62
     2
 10
570.35
 20
501.5
 30
0.0
 11
577.85
 21
501.5
 31
0.0
  0
LINE
  8
0
  6
LTYPE1
 62
     2
 10
577.85
 20
501.5
 30
0.0
 11
582.85
 21
501.5
 31
0.0
  0
LINE
  8
0
  6
LTYPE1
 62
     2
 10
544.350000004
 20
498.5
 30
0.0
 11
546.85
 21
500.999999996
 31
0.0
  0
LINE
  8
0
  6
LTYPE1
 62
     2
 10
562.85
 20
488.1
 30
0.0
 11
569.35
 21
488.1
 31
0.0
  0
ARC
  8
0
  6
LTYPE1
 62
     2
 10
566.45
 20
490.7
 30
0.0
 40
3.9
 50
317.9
 51
42.1
  0
LINE
  8
0
  6
LTYPE1
 62
     2
 10
562.85
 20
493.3
 30
0.0
 11
569.35
 21
493.3
 31
0.0
  0
LINE
  8
0
  6
LTYPE1
 62
     2
 10
570.35
 20
495.5
 30
0.0
 11
577.85
 21
495.5
 31
0.0
  0
LINE
  8
0
  6
LTYPE1
 62
     2
 10
570.35
 20
494.5
 30
0.0
 11
577.85
 21
494.5
 31
0.0
  0
LINE
  8
0
  6
LTYPE1
 62
     2
 10
577.85
 20
494.5
 30
0.0
 11
582.85
 21
494.5
 31
0.0
  0
LINE
  8
0
  6
LTYPE1
 62
     2
 10
577.85
 20
495.5
 30
0.0
 11
582.85
 21
495.5
 31
0.0
  0
LINE
  8
0
  6
LTYPE1
 62
     2
 10
577.85
 20
492.5
 30
0.0
 11
609.85
 21
492.5
 31
0.0
  0
LINE
  8
0
  6
LTYPE1
 62
     2
 10
562.85
 20
485.5
 30
0.0
 11
562.85
 21
512.5
 31
0.0
  0
LINE
  8
0
  6
LTYPE1
 62
     2
 10
562.85
 20
508.9
 30
0.0
 11
562.85
 21
488.1
 31
0.0
  0
ARC
  8
0
  6
LTYPE1
 62
     2
 10
556.35
 20
498.5
 30
0.0
 40
14.0
 50
338.2
 51
21.8
  0
LINE
  8
0
  6
LTYPE1
 62
     2
 10
570.35
 20
490.7
 30
0.0
 11
570.35
 21
506.3
 31
0.0
  0
LINE
  8
0
  6
LTYPE1
 62
     2
 10
546.85
 20
485.5
 30
0.0
 11
562.85
 21
485.5
 31
0.0
  0
LINE
  8
0
  6
LTYPE1
 62
     2
 10
546.85
 20
498.5
 30
0.0
 11
544.350000004
 21
496.000000004
 31
0.0
  0
LINE
  8
0
  6
LTYPE1
 62
     2
 10
546.85
 20
489.3
 30
0.0
 11
544.35
 21
489.3
 31
0.0
  0
LINE
  8
0
  6
LTYPE1
 62
     2
 10
546.85
 20
485.5
 30
0.0
 11
546.85
 21
518.5
 31
0.0
  0
LINE
  8
0
  6
LTYPE1
 62
     2
 10
575.35
 20
480.3
 30
0.0
 11
569.735640646
 21
480.3
 31
0.0
  0
LINE
  8
0
  6
LTYPE1
 62
     2
 10
568.35
 20
477.9
 30
0.0
 11
569.735640646
 21
480.3
 31
0.0
  0
LINE
  8
0
  6
LTYPE1
 62
     2
 10
568.35
 20
477.9
 30
0.0
 11
569.735640646
 21
480.3
 31
0.0
  0
LINE
  8
0
  6
LTYPE1
 62
     2
 10
577.85
 20
479.7
 30
0.0
 11
575.35
 21
479.7
 31
0.0
  0
LINE
  8
0
  6
LTYPE1
 62
     2
 10
568.35
 20
470.5
 30
0.0
 11
568.35
 21
477.9
 31
0.0
  0
LINE
  8
0
  6
LTYPE1
 62
     2
 10
575.35
 20
475.4
 30
0.0
 11
569.735640646
 21
475.4
 31
0.0
  0
ARC
  8
0
  6
LTYPE1
 62
     2
 10
571.207883832
 20
477.85
 30
0.0
 40
2.858321186
 50
177.010501597
 51
238.997686085
  0
LINE
  8
0
  6
LTYPE1
 62
     2
 10
575.35
 20
470.5
 30
0.0
 11
575.35
 21
480.3
 31
0.0
  0
LINE
  8
0
  6
LTYPE1
 62
     2
 10
559.85
 20
474.5
 30
0.0
 11
568.35
 21
474.5
 31
0.0
  0
ARC
  8
0
  6
LTYPE1
 62
     2
 10
577.7066828
 20
470.5
 30
0.0
 40
9.3566828
 50
148.419912243
 51
211.580087757
  0
LINE
  8
0
  6
LTYPE1
 62
     2
 10
559.85
 20
466.5
 30
0.0
 11
559.85
 21
474.5
 31
0.0
  0
LINE
  8
0
  6
LTYPE1
 62
     2
 10
577.85
 20
457.5
 30
0.0
 11
577.85
 21
510.5
 31
0.0
  0
LINE
  8
0
  6
LTYPE1
 62
     2
 10
577.85
 20
457.5
 30
0.0
 11
609.85
 21
457.5
 31
0.0
  0
LINE
  8
0
  6
LTYPE1
 62
     2
 10
575.35
 20
470.5
 30
0.0
 11
575.35
 21
460.7
 31
0.0
  0
LINE
  8
0
  6
LTYPE1
 62
     2
 10
575.35
 20
460.7
 30
0.0
 11
569.735640646
 21
460.7
 31
0.0
  0
LINE
  8
0
  6
LTYPE1
 62
     2
 10
568.35
 20
463.1
 30
0.0
 11
569.735640646
 21
460.7
 31
0.0
  0
LINE
  8
0
  6
LTYPE1
 62
     2
 10
568.35
 20
470.5
 30
0.0
 11
568.35
 21
463.1
 31
0.0
  0
LINE
  8
0
  6
LTYPE1
 62
     2
 10
575.35
 20
465.6
 30
0.0
 11
569.735640646
 21
465.6
 31
0.0
  0
ARC
  8
0
  6
LTYPE1
 62
     2
 10
571.207883832
 20
463.15
 30
0.0
 40
2.858321186
 50
121.002313915
 51
182.989498403
  0
LINE
  8
0
  6
LTYPE1
 62
     2
 10
577.85
 20
461.3
 30
0.0
 11
575.35
 21
461.3
 31
0.0
  0
LINE
  8
0
  6
LTYPE1
 62
     2
 10
577.85
 20
470.5
 30
0.0
 11
575.350000004
 21
468.000000004
 31
0.0
  0
LINE
  8
0
  6
LTYPE1
 62
     2
 10
559.85
 20
466.5
 30
0.0
 11
568.35
 21
466.5
 31
0.0
  0
LINE
  8
0
  6
LTYPE1
 62
     2
 10
559.85
 20
467.5
 30
0.0
 11
568.35
 21
467.5
 31
0.0
  0
LINE
  8
0
  6
LTYPE1
 62
     2
 10
575.350000004
 20
470.5
 30
0.0
 11
577.85
 21
472.999999996
 31
0.0
  0
LINE
  8
0
  6
LTYPE1
 62
     2
 10
559.85
 20
473.5
 30
0.0
 11
568.35
 21
473.5
 31
0.0
  0
LINE
  8
0
  6
LTYPE1
 62
     2
 10
609.85
 20
506.5
 30
0.0
 11
827.3
 21
506.5
 31
0.0
  0
LINE
  8
0
  6
LTYPE1
 62
     2
 10
609.85
 20
490.5
 30
0.0
 11
827.3
 21
490.5
 31
0.0
  0
LINE
  8
0
  6
LTYPE1
 62
     2
 10
609.85
 20
457.5
 30
0.0
 11
609.85
 21
510.5
 31
0.0
  0
LINE
  8
0
  6
LTYPE1
 62
     2
 10
582.85
 20
492.5
 30
0.0
 11
582.85
 21
504.5
 31
0.0
  0
LINE
  8
0
  6
LTYPE2
 62
     2
 10
630.85
 20
460.5
 30
0.0
 11
630.85
 21
480.5
 31
0.0
  0
CIRCLE
  8
0
  6
CONTINUOUS
 62
     2
 10
630.85
 20
470.5
 30
0.0
 40
5.0
  0
CIRCLE
  8
0
  6
CONTINUOUS
 62
     2
 10
630.85
 20
470.5
 30
0.0
 40
4.0
  0
LINE
  8
0
  6
LTYPE1
 62
     2
 10
781.85
 20
512.5
 30
0.0
 11
546.85
 21
512.5
 31
0.0
  0
LINE
  8
0
  6
LTYPE1
 62
     2
 10
781.85
 20
518.5
 30
0.0
 11
546.85
 21
518.5
 31
0.0
  0
LINE
  8
0
  6
LTYPE1
 62
     2
 10
549.19122
 20
523.9999
 30
0.0
 11
547.35594
 21
522.940300598
 31
0.0
  0
LINE
  8
0
  6
LTYPE1
 62
     2
 10
554.85
 20
523.9999
 30
0.0
 11
549.19122
 21
523.9999
 31
0.0
  0
ARC
  8
0
  6
LTYPE1
 62
     2
 10
549.229455
 20
521.814476233
 30
0.0
 40
2.185758211
 50
31.002313915
 51
92.989498403
  0
ARC
  8
0
  6
LTYPE1
 62
     2
 10
554.85
 20
516.844844663
 30
0.0
 40
7.155055337
 50
58.419912243
 51
121.580087757
  0
LINE
  8
0
  6
LTYPE1
 62
     2
 10
547.35594
 20
518.5
 30
0.0
 11
547.35594
 21
522.940300598
 31
0.0
  0
LINE
  8
0
  6
LTYPE1
 62
     2
 10
551.10297
 20
518.5
 30
0.0
 11
551.10297
 21
522.940300598
 31
0.0
  0
LINE
  8
0
  6
LTYPE1
 62
     2
 10
560.50878
 20
523.9999
 30
0.0
 11
562.34406
 21
522.940300598
 31
0.0
  0
LINE
  8
0
  6
LTYPE1
 62
     2
 10
554.85
 20
523.9999
 30
0.0
 11
560.50878
 21
523.9999
 31
0.0
  0
LINE
  8
0
  6
LTYPE1
 62
     2
 10
560.50878
 20
523.9999
 30
0.0
 11
562.34406
 21
522.940300598
 31
0.0
  0
ARC
  8
0
  6
LTYPE1
 62
     2
 10
560.470545
 20
521.814476233
 30
0.0
 40
2.185758211
 50
87.010501597
 51
148.997686085
  0
LINE
  8
0
  6
LTYPE1
 62
     2
 10
558.59703
 20
518.5
 30
0.0
 11
558.59703
 21
522.940300598
 31
0.0
  0
LINE
  8
0
  6
LTYPE1
 62
     2
 10
562.34406
 20
518.5
 30
0.0
 11
562.34406
 21
522.940300598
 31
0.0
  0
LINE
  8
0
  6
CONTINUOUS
 62
     1
 10
596.35
 20
479.05
 30
0.0
 11
596.35
 21
463.05
 31
0.0
  0
LINE
  8
0
  6
CONTINUOUS
 62
     1
 10
596.35
 20
479.05
 30
0.0
 11
609.85
 21
479.05
 31
0.0
  0
LINE
  8
0
  6
CONTINUOUS
 62
     1
 10
609.85
 20
481.5
 30
0.0
 11
618.510254038
 21
486.5
 31
0.0
  0
LINE
  8
0
  6
CONTINUOUS
 62
     1
 10
609.85
 20
459.5
 30
0.0
 11
609.85
 21
481.5
 31
0.0
  0
LINE
  8
0
  6
CONTINUOUS
 62
     1
 10
618.5
 20
454.5
 30
0.0
 11
618.5
 21
486.5
 31
0.0
  0
LINE
  8
0
  6
CONTINUOUS
 62
     1
 10
643.2
 20
454.5
 30
0.0
 11
643.2
 21
486.5
 31
0.0
  0
LINE
  8
0
  6
CONTINUOUS
 62
     1
 10
618.5
 20
454.5
 30
0.0
 11
643.2
 21
454.5
 31
0.0
  0
LINE
  8
0
  6
CONTINUOUS
 62
     1
 10
651.85
 20
459.5
 30
0.0
 11
643.189745962
 21
454.5
 31
0.0
  0
LINE
  8
0
  6
CONTINUOUS
 62
     1
 10
609.85
 20
459.5
 30
0.0
 11
618.510254038
 21
454.5
 31
0.0
  0
LINE
  8
0
  6
CONTINUOUS
 62
     1
 10
596.35
 20
463.05
 30
0.0
 11
609.85
 21
463.05
 31
0.0
  0
LINE
  8
0
  6
CONTINUOUS
 62
     1
 10
618.5
 20
486.5
 30
0.0
 11
643.2
 21
486.5
 31
0.0
  0
LINE
  8
0
  6
CONTINUOUS
 62
     1
 10
651.85
 20
481.5
 30
0.0
 11
643.189745962
 21
486.5
 31
0.0
  0
LINE
  8
0
  6
CONTINUOUS
 62
     1
 10
651.85
 20
459.5
 30
0.0
 11
651.85
 21
481.5
 31
0.0
  0
LINE
  8
0
  6
CONTINUOUS
 62
     1
 10
651.85
 20
478.5
 30
0.0
 11
837.7
 21
478.5
 31
0.0
  0
LINE
  8
0
  6
CONTINUOUS
 62
     1
 10
651.85
 20
462.5
 30
0.0
 11
869.0
 21
462.5
 31
0.0
  0
LINE
  8
0
  6
LTYPE1
 62
     2
 10
544.35
 20
508.3
 30
0.0
 11
538.735640646
 21
508.3
 31
0.0
  0
LINE
  8
0
  6
LTYPE1
 62
     2
 10
544.35
 20
503.4
 30
0.0
 11
538.735640646
 21
503.4
 31
0.0
  0
LINE
  8
0
  6
LTYPE1
 62
     2
 10
544.35
 20
498.5
 30
0.0
 11
544.35
 21
508.3
 31
0.0
  0
LINE
  8
0
  6
LTYPE1
 62
     2
 10
544.35
 20
488.7
 30
0.0
 11
538.735640646
 21
488.7
 31
0.0
  0
LINE
  8
0
  6
LTYPE1
 62
     2
 10
544.35
 20
493.6
 30
0.0
 11
538.735640646
 21
493.6
 31
0.0
  0
LINE
  8
0
  6
LTYPE1
 62
     2
 10
544.35
 20
498.5
 30
0.0
 11
544.35
 21
488.7
 31
0.0
  0
LINE
  8
0
  6
LTYPE1
 62
     2
 10
537.35
 20
498.5
 30
0.0
 11
537.35
 21
505.9
 31
0.0
  0
LINE
  8
0
  6
LTYPE1
 62
     2
 10
537.35
 20
505.9
 30
0.0
 11
538.735640646
 21
508.3
 31
0.0
  0
LINE
  8
0
  6
LTYPE1
 62
     2
 10
537.35
 20
505.9
 30
0.0
 11
538.735640646
 21
508.3
 31
0.0
  0
ARC
  8
0
  6
LTYPE1
 62
     2
 10
540.207883832
 20
505.85
 30
0.0
 40
2.858321186
 50
177.010501597
 51
238.997686085
  0
LINE
  8
0
  6
LTYPE1
 62
     2
 10
532.85
 20
502.5
 30
0.0
 11
537.35
 21
502.5
 31
0.0
  0
LINE
  8
0
  6
LTYPE1
 62
     2
 10
532.85
 20
501.5
 30
0.0
 11
537.35
 21
501.5
 31
0.0
  0
LINE
  8
0
  6
LTYPE1
 62
     2
 10
537.35
 20
491.1
 30
0.0
 11
538.735640646
 21
488.7
 31
0.0
  0
LINE
  8
0
  6
LTYPE1
 62
     2
 10
537.35
 20
498.5
 30
0.0
 11
537.35
 21
491.1
 31
0.0
  0
ARC
  8
0
  6
LTYPE1
 62
     2
 10
540.207883832
 20
491.15
 30
0.0
 40
2.858321186
 50
121.002313915
 51
182.989498403
  0
LINE
  8
0
  6
LTYPE1
 62
     2
 10
532.85
 20
494.5
 30
0.0
 11
537.35
 21
494.5
 31
0.0
  0
LINE
  8
0
  6
LTYPE1
 62
     2
 10
532.85
 20
495.5
 30
0.0
 11
537.35
 21
495.5
 31
0.0
  0
ARC
  8
0
  6
LTYPE1
 62
     2
 10
546.7066828
 20
498.5
 30
0.0
 40
9.3566828
 50
148.419912243
 51
211.580087757
  0
LINE
  8
0
  6
LTYPE1
 62
     2
 10
781.85
 20
512.5
 30
0.0
 11
781.85
 21
588.0
 31
0.0
  0
LINE
  8
0
  6
LTYPE1
 62
     2
 10
781.35
 20
512.5
 30
0.0
 11
781.35
 21
507.9
 31
0.0
  0
LINE
  8
0
  6
LTYPE1
 62
     2
 10
781.35
 20
512.5
 30
0.0
 11
766.35
 21
512.5
 31
0.0
  0
LINE
  8
0
  6
LTYPE1
 62
     2
 10
766.35
 20
512.5
 30
0.0
 11
766.35
 21
507.9
 31
0.0
  0
LINE
  8
0
  6
LTYPE1
 62
     2
 10
770.05
 20
512.5
 30
0.0
 11
770.05
 21
507.9
 31
0.0
  0
LINE
  8
0
  6
LTYPE1
 62
     2
 10
777.65
 20
512.5
 30
0.0
 11
777.65
 21
507.9
 31
0.0
  0
ARC
  8
0
  6
LTYPE1
 62
     2
 10
768.15
 20
510.0
 30
0.0
 40
2.8
 50
228.5
 51
311.5
  0
ARC
  8
0
  6
LTYPE1
 62
     2
 10
773.85
 20
517.9
 30
0.0
 40
10.7
 50
249.1
 51
290.9
  0
ARC
  8
0
  6
LTYPE1
 62
     2
 10
779.55
 20
510.0
 30
0.0
 40
2.8
 50
228.5
 51
311.5
  0
LINE
  8
0
  6
LTYPE1
 62
     2
 10
773.85
 20
503.7
 30
0.0
 11
773.85
 21
515.5
 31
0.0
  0
LINE
  8
0
  6
LTYPE2
 62
     2
 10
773.85
 20
499.85
 30
0.0
 11
773.85
 21
524.15
 31
0.0
  0
LINE
  8
0
  6
LTYPE1
 62
     2
 10
779.55
 20
507.2
 30
0.0
 11
768.15
 21
507.2
 31
0.0
  0
LINE
  8
0
  6
LTYPE1
 62
     2
 10
767.85
 20
519.0
 30
0.0
 11
767.85
 21
588.0
 31
0.0
  0
LINE
  8
0
  6
LTYPE3
 62
     2
 10
774.85
 20
557.75
 30
0.0
 11
774.85
 21
651.75
 31
0.0
  0
LINE
  8
0
  6
LTYPE1
 62
     2
 10
767.85
 20
568.0
 30
0.0
 11
781.85
 21
568.0
 31
0.0
  0
LINE
  8
0
  6
LTYPE1
 62
     2
 10
778.85
 20
588.0
 30
0.0
 11
778.85
 21
643.75
 31
0.0
  0
LINE
  8
0
  6
LTYPE1
 62
     2
 10
767.85
 20
588.0
 30
0.0
 11
781.85
 21
588.0
 31
0.0
  0
LINE
  8
0
  6
LTYPE1
 62
     2
 10
770.85
 20
588.0
 30
0.0
 11
770.85
 21
643.75
 31
0.0
  0
ARC
  8
0
  6
LTYPE1
 62
     2
 10
774.85
 20
643.75
 30
0.0
 40
4.0
 50
0.0
 51
180.0
  0
LINE
  8
0
  6
CONTINUOUS
 62
     1
 10
851.0
 20
588.0
 30
0.0
 11
851.0
 21
643.75
 31
0.0
  0
LINE
  8
0
  6
LTYPE3
 62
     2
 10
855.0
 20
557.75
 30
0.0
 11
855.0
 21
651.75
 31
0.0
  0
LINE
  8
0
  6
CONTINUOUS
 62
     1
 10
859.0
 20
588.0
 30
0.0
 11
859.0
 21
643.75
 31
0.0
  0
ARC
  8
0
  6
CONTINUOUS
 62
     1
 10
855.0
 20
643.75
 30
0.0
 40
4.0
 50
0.0
 51
180.0
  0
LINE
  8
0
  6
CONTINUOUS
 62
     1
 10
859.0
 20
639.25
 30
0.0
 11
911.0
 21
639.25
 31
0.0
  0
LINE
  8
0
  6
CONTINUOUS
 62
     1
 10
911.0
 20
588.0
 30
0.0
 11
911.0
 21
643.75
 31
0.0
  0
LINE
  8
0
  6
LTYPE3
 62
     2
 10
915.0
 20
557.75
 30
0.0
 11
915.0
 21
651.75
 31
0.0
  0
ARC
  8
0
  6
CONTINUOUS
 62
     1
 10
915.0
 20
643.75
 30
0.0
 40
4.0
 50
0.0
 51
180.0
  0
LINE
  8
0
  6
CONTINUOUS
 62
     1
 10
919.0
 20
588.0
 30
0.0
 11
919.0
 21
643.75
 31
0.0
  0
LINE
  8
0
  6
CONTINUOUS
 62
     1
 10
908.0
 20
519.0
 30
0.0
 11
908.0
 21
588.0
 31
0.0
  0
LINE
  8
0
  6
CONTINUOUS
 62
     1
 10
908.0
 20
588.0
 30
0.0
 11
922.0
 21
588.0
 31
0.0
  0
LINE
  8
0
  6
CONTINUOUS
 62
     1
 10
922.0
 20
519.0
 30
0.0
 11
922.0
 21
588.0
 31
0.0
  0
LINE
  8
0
  6
CONTINUOUS
 62
     1
 10
862.0
 20
519.0
 30
0.0
 11
862.0
 21
588.0
 31
0.0
  0
LINE
  8
0
  6
CONTINUOUS
 62
     1
 10
848.0
 20
519.0
 30
0.0
 11
848.0
 21
588.0
 31
0.0
  0
LINE
  8
0
  6
CONTINUOUS
 62
     1
 10
848.0
 20
588.0
 30
0.0
 11
862.0
 21
588.0
 31
0.0
  0
LINE
  8
0
  6
CONTINUOUS
 62
     1
 10
862.0
 20
575.75
 30
0.0
 11
908.0
 21
575.75
 31
0.0
  0
LINE
  8
0
  6
CONTINUOUS
 62
     1
 10
908.0
 20
568.0
 30
0.0
 11
922.0
 21
568.0
 31
0.0
  0
LINE
  8
0
  6
CONTINUOUS
 62
     1
 10
848.0
 20
568.0
 30
0.0
 11
862.0
 21
568.0
 31
0.0
  0
LINE
  8
0
  6
CONTINUOUS
 62
     1
 10
869.0
 20
458.0
 30
0.0
 11
901.0
 21
458.0
 31
0.0
  0
LINE
  8
0
  6
CONTINUOUS
 62
     1
 10
863.6
 20
479.0
 30
0.0
 11
932.3
 21
479.0
 31
0.0
  0
LINE
  8
0
  6
CONTINUOUS
 62
     1
 10
863.6
 20
473.0
 30
0.0
 11
932.3
 21
473.0
 31
0.0
  0
LINE
  8
0
  6
CONTINUOUS
 62
     1
 10
820.0
 20
519.0
 30
0.0
 11
950.0
 21
519.0
 31
0.0
  0
LINE
  8
0
  6
CONTINUOUS
 62
     1
 10
820.0
 20
513.0
 30
0.0
 11
950.0
 21
513.0
 31
0.0
  0
LINE
  8
0
  6
CONTINUOUS
 62
     1
 10
863.6
 20
513.0
 30
0.0
 11
863.6
 21
473.0
 31
0.0
  0
LINE
  8
0
  6
CONTINUOUS
 62
     1
 10
812.3
 20
512.0
 30
0.0
 11
812.3
 21
486.6
 31
0.0
  0
LINE
  8
0
  6
CONTINUOUS
 62
     1
 10
837.7
 20
486.6
 30
0.0
 11
812.3
 21
486.6
 31
0.0
  0
LINE
  8
0
  6
CONTINUOUS
 62
     1
 10
837.7
 20
513.0
 30
0.0
 11
837.7
 21
473.0
 31
0.0
  0
LINE
  8
0
  6
CONTINUOUS
 62
     1
 10
869.0
 20
458.0
 30
0.0
 11
869.0
 21
473.0
 31
0.0
  0
LINE
  8
0
  6
LTYPE5
 62
     2
 10
873.1
 20
491.7
 30
0.0
 11
856.1
 21
491.7
 31
0.0
  0
LINE
  8
0
  6
CONTINUOUS
 62
     1
 10
820.0
 20
513.0
 30
0.0
 11
820.0
 21
519.0
 31
0.0
  0
LINE
  8
0
  6
CONTINUOUS
 62
     1
 10
837.7
 20
512.0
 30
0.0
 11
812.3
 21
512.0
 31
0.0
  0
LINE
  8
0
  6
CONTINUOUS
 62
     1
 10
837.7
 20
479.0
 30
0.0
 11
863.6
 21
479.0
 31
0.0
  0
LINE
  8
0
  6
CONTINUOUS
 62
     1
 10
837.7
 20
473.0
 30
0.0
 11
863.6
 21
473.0
 31
0.0
  0
LINE
  8
0
  6
LTYPE3
 62
     2
 10
885.999501379
 20
454.0
 30
0.0
 11
885.999501379
 21
542.3
 31
0.0
  0
LINE
  8
0
  6
CONTINUOUS
 62
     1
 10
957.7
 20
512.0
 30
0.0
 11
957.7
 21
486.6
 31
0.0
  0
LINE
  8
0
  6
CONTINUOUS
 62
     1
 10
932.3
 20
486.6
 30
0.0
 11
957.7
 21
486.6
 31
0.0
  0
LINE
  8
0
  6
CONTINUOUS
 62
     1
 10
932.3
 20
513.0
 30
0.0
 11
932.3
 21
473.0
 31
0.0
  0
LINE
  8
0
  6
CONTINUOUS
 62
     1
 10
901.0
 20
458.0
 30
0.0
 11
901.0
 21
473.0
 31
0.0
  0
LINE
  8
0
  6
CONTINUOUS
 62
     1
 10
932.3
 20
512.0
 30
0.0
 11
957.7
 21
512.0
 31
0.0
  0
LINE
  8
0
  6
CONTINUOUS
 62
     1
 10
950.0
 20
513.0
 30
0.0
 11
950.0
 21
519.0
 31
0.0
  0
LINE
  8
0
  6
CONTINUOUS
 62
     1
 10
932.3
 20
478.5
 30
0.0
 11
968.0
 21
478.5
 31
0.0
  0
LINE
  8
0
  6
CONTINUOUS
 62
     1
 10
901.0
 20
462.5
 30
0.0
 11
968.0
 21
462.5
 31
0.0
  0
CIRCLE
  8
0
  6
CONTINUOUS
 62
     2
 10
989.0
 20
470.5
 30
0.0
 40
5.0
  0
CIRCLE
  8
0
  6
CONTINUOUS
 62
     2
 10
989.0
 20
470.5
 30
0.0
 40
4.0
  0
LINE
  8
0
  6
LTYPE2
 62
     2
 10
989.0
 20
460.5
 30
0.0
 11
989.0
 21
480.5
 31
0.0
  0
LINE
  8
0
  6
CONTINUOUS
 62
     1
 10
1010.0
 20
478.5
 30
0.0
 11
1018.0
 21
478.5
 31
0.0
  0
LINE
  8
0
  6
CONTINUOUS
 62
     1
 10
1010.0
 20
462.5
 30
0.0
 11
1018.0
 21
462.5
 31
0.0
  0
LINE
  8
0
  6
CONTINUOUS
 62
     1
 10
1018.0
 20
457.5
 30
0.0
 11
1034.0
 21
457.5
 31
0.0
  0
LINE
  8
0
  6
CONTINUOUS
 62
     1
 10
1037.0
 20
470.5
 30
0.0
 11
1037.0
 21
459.55046
 31
0.0
  0
LINE
  8
0
  6
CONTINUOUS
 62
     1
 10
1037.0
 20
465.02523
 30
0.0
 11
1043.472923706
 21
465.02523
 31
0.0
  0
LINE
  8
0
  6
CONTINUOUS
 62
     1
 10
1037.0
 20
459.55046
 30
0.0
 11
1043.472923706
 21
459.55046
 31
0.0
  0
LINE
  8
0
  6
CONTINUOUS
 62
     1
 10
1034.0
 20
459.75
 30
0.0
 11
1037.0
 21
459.75
 31
0.0
  0
LINE
  8
0
  6
CONTINUOUS
 62
     1
 10
1037.0
 20
470.5
 30
0.0
 11
1037.0
 21
481.44954
 31
0.0
  0
LINE
  8
0
  6
CONTINUOUS
 62
     1
 10
1045.0211
 20
478.76802
 30
0.0
 11
1043.472923706
 21
481.44954
 31
0.0
  0
LINE
  8
0
  6
CONTINUOUS
 62
     1
 10
1045.0211
 20
470.5
 30
0.0
 11
1045.0211
 21
478.76802
 31
0.0
  0
LINE
  8
0
  6
CONTINUOUS
 62
     1
 10
1045.0211
 20
470.5
 30
0.0
 11
1045.0211
 21
462.23198
 31
0.0
  0
ARC
  8
0
  6
CONTINUOUS
 62
     1
 10
1034.566878307
 20
470.5
 30
0.0
 40
10.454221693
 50
328.419912243
 51
31.580087757
  0
ARC
  8
0
  6
CONTINUOUS
 62
     1
 10
1041.827986394
 20
478.712155
 30
0.0
 40
3.193602261
 50
301.002313915
 51
2.989498403
  0
ARC
  8
0
  6
CONTINUOUS
 62
     1
 10
1041.827986394
 20
462.287845
 30
0.0
 40
3.193602261
 50
357.010501597
 51
58.997686085
  0
LINE
  8
0
  6
CONTINUOUS
 62
     1
 10
1037.0
 20
481.44954
 30
0.0
 11
1043.472923706
 21
481.44954
 31
0.0
  0
LINE
  8
0
  6
CONTINUOUS
 62
     1
 10
1037.0
 20
475.97477
 30
0.0
 11
1043.472923706
 21
475.97477
 31
0.0
  0
LINE
  8
0
  6
CONTINUOUS
 62
     1
 10
1034.0
 20
481.25
 30
0.0
 11
1037.0
 21
481.25
 31
0.0
  0
LINE
  8
0
  6
CONTINUOUS
 62
     1
 10
1034.0
 20
470.5
 30
0.0
 11
1037.000254073
 21
473.500254073
 31
0.0
  0
LINE
  8
0
  6
CONTINUOUS
 62
     1
 10
1037.000254073
 20
470.5
 30
0.0
 11
1034.0
 21
467.499745927
 31
0.0
  0
LINE
  8
0
  6
CONTINUOUS
 62
     1
 10
1045.0211
 20
464.5
 30
0.0
 11
1058.0
 21
464.5
 31
0.0
  0
LINE
  8
0
  6
CONTINUOUS
 62
     1
 10
1045.0211
 20
476.5
 30
0.0
 11
1058.0
 21
476.5
 31
0.0
  0
LINE
  8
0
  6
CONTINUOUS
 62
     1
 10
1058.0
 20
464.5
 30
0.0
 11
1058.0
 21
476.5
 31
0.0
  0
LINE
  8
0
  6
CONTINUOUS
 62
     1
 10
1045.0211
 20
462.23198
 30
0.0
 11
1043.472923706
 21
459.55046
 31
0.0
  0
LINE
  8
0
  6
CONTINUOUS
 62
     1
 10
1045.0211
 20
462.23198
 30
0.0
 11
1043.472923706
 21
459.55046
 31
0.0
  0
LINE
  8
0
  6
CONTINUOUS
 62
     1
 10
1018.0
 20
457.5
 30
0.0
 11
1018.0
 21
637.3
 31
0.0
  0
LINE
  8
0
  6
CONTINUOUS
 62
     2
 10
1006.35
 20
454.5
 30
0.0
 11
1112.5
 21
454.5
 31
0.0
  0
LINE
  8
0
  6
CONTINUOUS
 62
     1
 10
1034.0
 20
457.5
 30
0.0
 11
1034.0
 21
637.3
 31
0.0
  0
TEXT
  8
0
  6
CONTINUOUS
 62
     2
 10
390.0
 20
566.0
 30
5.0
 40
20.0
  1
銘板
 50
0.0
 41
0.925
 51
0.0
  7
KANJI39
  0
LINE
  8
0
  6
CONTINUOUS
 62
     1
 10
379.0
 20
561.0
 30
0.0
 11
449.0
 21
561.0
 31
0.0
  0
LINE
  8
0
  6
CONTINUOUS
 62
     1
 10
379.0
 20
604.0
 30
0.0
 11
379.0
 21
561.0
 31
0.0
  0
LINE
  8
0
  6
CONTINUOUS
 62
     1
 10
379.0
 20
604.0
 30
0.0
 11
449.0
 21
604.0
 31
0.0
  0
LINE
  8
0
  6
CONTINUOUS
 62
     1
 10
449.0
 20
604.0
 30
0.0
 11
449.0
 21
561.0
 31
0.0
  0
LINE
  8
0
  6
CONTINUOUS
 62
     2
 10
115.0
 20
285.8
 30
0.0
 11
122.72740661
 21
283.729447639
 31
0.0
  0
LINE
  8
0
  6
CONTINUOUS
 62
     2
 10
115.0
 20
285.8
 30
0.0
 11
122.72740661
 21
287.870552361
 31
0.0
  0
LINE
  8
0
  6
CONTINUOUS
 62
     2
 10
115.0
 20
285.8
 30
0.0
 11
252.6
 21
285.8
 31
0.0
  0
LINE
  8
0
  6
CONTINUOUS
 62
     2
 10
252.6
 20
285.8
 30
0.0
 11
244.87259339
 21
287.870552361
 31
0.0
  0
LINE
  8
0
  6
CONTINUOUS
 62
     2
 10
252.6
 20
285.8
 30
0.0
 11
244.87259339
 21
283.729447639
 31
0.0
  0
LINE
  8
0
  6
CONTINUOUS
 62
     2
 10
252.6
 20
284.6
 30
0.0
 11
252.6
 21
281.8
 31
0.0
  0
LINE
  8
0
  6
CONTINUOUS
 62
     2
 10
252.6
 20
285.8
 30
0.0
 11
260.32740661
 21
283.729447639
 31
0.0
  0
LINE
  8
0
  6
CONTINUOUS
 62
     2
 10
252.6
 20
285.8
 30
0.0
 11
260.32740661
 21
287.870552361
 31
0.0
  0
LINE
  8
0
  6
CONTINUOUS
 62
     2
 10
252.6
 20
285.8
 30
0.0
 11
455.0
 21
285.8
 31
0.0
  0
LINE
  8
0
  6
CONTINUOUS
 62
     2
 10
455.0
 20
285.8
 30
0.0
 11
447.27259339
 21
287.870552361
 31
0.0
  0
LINE
  8
0
  6
CONTINUOUS
 62
     2
 10
455.0
 20
285.8
 30
0.0
 11
447.27259339
 21
283.729447639
 31
0.0
  0
LINE
  8
0
  6
CONTINUOUS
 62
     2
 10
252.6
 20
259.470552361
 30
0.0
 11
244.87259339
 21
261.541104722
 31
0.0
  0
LINE
  8
0
  6
CONTINUOUS
 62
     2
 10
252.6
 20
259.470552361
 30
0.0
 11
244.87259339
 21
257.4
 31
0.0
  0
LINE
  8
0
  6
CONTINUOUS
 62
     2
 10
240.6
 20
259.470552361
 30
0.0
 11
252.6
 21
259.470552361
 31
0.0
  0
LINE
  8
0
  6
CONTINUOUS
 62
     2
 10
252.6
 20
259.470552361
 30
0.0
 11
273.4
 21
259.470552361
 31
0.0
  0
LINE
  8
0
  6
CONTINUOUS
 62
     2
 10
273.4
 20
259.470552361
 30
0.0
 11
281.12740661
 21
257.4
 31
0.0
  0
LINE
  8
0
  6
CONTINUOUS
 62
     2
 10
273.4
 20
259.470552361
 30
0.0
 11
281.12740661
 21
261.541104722
 31
0.0
  0
LINE
  8
0
  6
CONTINUOUS
 62
     2
 10
115.0
 20
234.2
 30
0.0
 11
115.0
 21
228.2
 31
0.0
  0
LINE
  8
0
  6
CONTINUOUS
 62
     2
 10
115.0
 20
232.2
 30
0.0
 11
122.72740661
 21
230.129447639
 31
0.0
  0
LINE
  8
0
  6
CONTINUOUS
 62
     2
 10
115.0
 20
232.2
 30
0.0
 11
122.72740661
 21
234.270552361
 31
0.0
  0
LINE
  8
0
  6
CONTINUOUS
 62
     2
 10
115.0
 20
232.2
 30
0.0
 11
273.4
 21
232.2
 31
0.0
  0
LINE
  8
0
  6
CONTINUOUS
 62
     2
 10
273.4
 20
232.2
 30
0.0
 11
265.67259339
 21
234.270552361
 31
0.0
  0
LINE
  8
0
  6
CONTINUOUS
 62
     2
 10
273.4
 20
232.2
 30
0.0
 11
265.67259339
 21
230.129447639
 31
0.0
  0
LINE
  8
0
  6
CONTINUOUS
 62
     2
 10
273.4
 20
233.4
 30
0.0
 11
273.4
 21
228.2
 31
0.0
  0
LINE
  8
0
  6
CONTINUOUS
 62
     2
 10
273.4
 20
232.2
 30
0.0
 11
281.12740661
 21
230.129447639
 31
0.0
  0
LINE
  8
0
  6
CONTINUOUS
 62
     2
 10
273.4
 20
232.2
 30
0.0
 11
281.12740661
 21
234.270552361
 31
0.0
  0
LINE
  8
0
  6
CONTINUOUS
 62
     2
 10
455.0
 20
228.6
 30
0.0
 11
455.0
 21
228.2
 31
0.0
  0
LINE
  8
0
  6
CONTINUOUS
 62
     2
 10
115.0
 20
203.0
 30
0.0
 11
122.72740661
 21
200.929447639
 31
0.0
  0
LINE
  8
0
  6
CONTINUOUS
 62
     2
 10
115.0
 20
203.0
 30
0.0
 11
122.72740661
 21
205.070552361
 31
0.0
  0
LINE
  8
0
  6
CONTINUOUS
 62
     2
 10
115.0
 20
203.0
 30
0.0
 11
432.6
 21
203.0
 31
0.0
  0
LINE
  8
0
  6
CONTINUOUS
 62
     2
 10
432.6
 20
203.0
 30
0.0
 11
424.87259339
 21
205.070552361
 31
0.0
  0
LINE
  8
0
  6
CONTINUOUS
 62
     2
 10
432.6
 20
203.0
 30
0.0
 11
424.87259339
 21
200.929447639
 31
0.0
  0
LINE
  8
0
  6
CONTINUOUS
 62
     2
 10
432.6
 20
203.8
 30
0.0
 11
432.6
 21
199.0
 31
0.0
  0
LINE
  8
0
  6
CONTINUOUS
 62
     2
 10
432.6
 20
203.0
 30
0.0
 11
424.87259339
 21
205.070552361
 31
0.0
  0
LINE
  8
0
  6
CONTINUOUS
 62
     2
 10
432.6
 20
203.0
 30
0.0
 11
424.87259339
 21
200.929447639
 31
0.0
  0
LINE
  8
0
  6
CONTINUOUS
 62
     2
 10
420.6
 20
203.0
 30
0.0
 11
432.6
 21
203.0
 31
0.0
  0
LINE
  8
0
  6
CONTINUOUS
 62
     2
 10
432.6
 20
203.0
 30
0.0
 11
455.0
 21
203.0
 31
0.0
  0
LINE
  8
0
  6
CONTINUOUS
 62
     2
 10
455.0
 20
203.0
 30
0.0
 11
462.72740661
 21
200.929447639
 31
0.0
  0
LINE
  8
0
  6
CONTINUOUS
 62
     2
 10
455.0
 20
203.0
 30
0.0
 11
462.72740661
 21
205.070552361
 31
0.0
  0
LINE
  8
0
  6
CONTINUOUS
 62
     2
 10
115.0
 20
296.6
 30
0.0
 11
115.0
 21
281.8
 31
0.0
  0
LINE
  8
0
  6
CONTINUOUS
 62
     2
 10
455.0
 20
296.6
 30
0.0
 11
455.0
 21
281.8
 31
0.0
  0
LINE
  8
0
  6
CONTINUOUS
 62
     2
 10
252.6
 20
285.4
 30
0.0
 11
252.6
 21
296.6
 31
0.0
  0
LINE
  8
0
  6
CONTINUOUS
 62
     2
 10
273.4
 20
272.270552361
 30
0.0
 11
273.4
 21
255.470552361
 31
0.0
  0
LINE
  8
0
  6
CONTINUOUS
 62
     2
 10
115.0
 20
281.8
 30
0.0
 11
115.0
 21
189.8
 31
0.0
  0
LINE
  8
0
  6
CONTINUOUS
 62
     2
 10
455.0
 20
285.8
 30
0.0
 11
455.0
 21
191.0
 31
0.0
  0
LINE
  8
0
  6
CONTINUOUS
 62
     2
 10
273.4
 20
259.470552361
 30
0.0
 11
273.4
 21
223.0
 31
0.0
  0
LINE
  8
0
  6
CONTINUOUS
 62
     2
 10
252.6
 20
285.8
 30
0.0
 11
252.6
 21
250.2
 31
0.0
  0
TEXT
  8
0
  6
CONTINUOUS
 62
     3
 10
156.8
 20
287.8
 30
0.0
 40
15.0
  1
ｍｉｎ．Ｌ
 50
0.0
 41
0.9
 51
0.0
  7
KANJI34
  0
TEXT
  8
0
  6
CONTINUOUS
 62
     3
 10
310.6
 20
287.8
 30
0.0
 40
15.0
  1
機械的ストローク
 50
0.0
 41
0.9
 51
0.0
  7
KANJI34
  0
TEXT
  8
0
  6
CONTINUOUS
 62
     3
 10
285.4
 20
261.470552361
 30
0.0
 40
15.0
  1
余裕
 50
0.0
 41
0.9
 51
0.0
  7
KANJI34
  0
TEXT
  8
0
  6
CONTINUOUS
 62
     3
 10
167.2
 20
234.2
 30
0.0
 40
15.0
  1
常用ｍｉｎ
 50
0.0
 41
0.9
 51
0.0
  7
KANJI34
  0
TEXT
  8
0
  6
CONTINUOUS
 62
     3
 10
246.8
 20
205.0
 30
0.0
 40
15.0
  1
常用ｍａｘ
 50
0.0
 41
0.9
 51
0.0
  7
KANJI34
  0
TEXT
  8
0
  6
CONTINUOUS
 62
     3
 10
467.0
 20
205.0
 30
0.0
 40
15.0
  1
余裕
 50
0.0
 41
0.9
 51
0.0
  7
KANJI34
  0
LINE
  8
0
  6
CONTINUOUS
 62
     2
 10
273.4
 20
259.470552361
 30
0.0
 11
313.5
 21
259.470552361
 31
0.0
  0
LINE
  8
0
  6
CONTINUOUS
 62
     2
 10
455.0
 20
203.0
 30
0.0
 11
497.5
 21
203.0
 31
0.0
  0
LINE
  8
0
  6
CONTINUOUS
 62
     1
 10
585.299501379
 20
289.1
 30
0.0
 11
585.299501379
 21
224.4
 31
0.0
  0
ARC
  8
0
  6
CONTINUOUS
 62
     1
 10
587.299501379
 20
224.4
 30
0.0
 40
2.0
 50
180.0
 51
270.0
  0
ARC
  8
0
  6
CONTINUOUS
 62
     1
 10
587.299501379
 20
289.1
 30
0.0
 40
2.0
 50
90.0
 51
180.0
  0
LINE
  8
0
  6
CONTINUOUS
 62
     1
 10
592.599501379
 20
314.5
 30
0.0
 11
592.599501379
 21
291.1
 31
0.0
  0
LINE
  8
0
  6
CONTINUOUS
 62
     1
 10
587.299501379
 20
291.1
 30
0.0
 11
623.299501379
 21
291.1
 31
0.0
  0
ARC
  8
0
  6
CONTINUOUS
 62
     1
 10
594.599501379
 20
314.5
 30
0.0
 40
2.0
 50
90.0
 51
180.0
  0
LINE
  8
0
  6
CONTINUOUS
 62
     1
 10
594.599501379
 20
316.5
 30
0.0
 11
613.776692944
 21
316.5
 31
0.0
  0
LINE
  8
0
  6
LTYPE2
 62
     2
 10
590.424501379
 20
267.6
 30
0.0
 11
620.424501379
 21
267.6
 31
0.0
  0
LINE
  8
0
  6
LTYPE2
 62
     2
 10
620.424501379
 20
277.1
 30
0.0
 11
590.424501379
 21
277.1
 31
0.0
  0
LINE
  8
0
  6
LTYPE2
 62
     2
 10
590.424501379
 20
277.1
 30
0.0
 11
590.424501379
 21
267.6
 31
0.0
  0
LINE
  8
0
  6
CONTINUOUS
 62
     1
 10
590.424501379
 20
237.6
 30
0.0
 11
620.424501379
 21
237.6
 31
0.0
  0
LINE
  8
0
  6
CONTINUOUS
 62
     1
 10
620.424501379
 20
247.1
 30
0.0
 11
590.424501379
 21
247.1
 31
0.0
  0
LINE
  8
0
  6
CONTINUOUS
 62
     1
 10
590.424501379
 20
247.1
 30
0.0
 11
590.424501379
 21
237.6
 31
0.0
  0
TEXT
  8
0
  6
CONTINUOUS
 62
     2
 10
589.199501379
 20
280.4
 30
0.0
 40
10.0
  1
４
 50
0.0
 41
0.85
 51
0.0
  7
KANJI40
  0
POLYLINE
  8
0
  6
CONTINUOUS
 62
     2
 66
     1
 70
     1
  0
VERTEX
  8
0
  6
CONTINUOUS
 62
     2
 10
600.199501379
 20
279.65
 30
0.0
 42
0.021820078
  0
VERTEX
  8
0
  6
CONTINUOUS
 62
     2
 10
600.19093945
 20
279.846100421
 30
0.0
 42
0.021820078
  0
VERTEX
  8
0
  6
CONTINUOUS
 62
     2
 10
600.165318824
 20
280.0407084
 30
0.0
 42
0.021820078
  0
VERTEX
  8
0
  6
CONTINUOUS
 62
     2
 10
600.122834489
 20
280.232342851
 30
0.0
 42
0.021820078
  0
VERTEX
  8
0
  6
CONTINUOUS
 62
     2
 10
600.063809776
 20
280.419545322
 30
0.0
 42
0.021820078
  0
VERTEX
  8
0
  6
CONTINUOUS
 62
     2
 10
599.9886939
 20
280.600891089
 30
0.0
 42
0.021820078
  0
VERTEX
  8
0
  6
CONTINUOUS
 62
     2
 10
599.898058538
 20
280.775
 30
0.0
 42
0.021820078
  0
VERTEX
  8
0
  6
CONTINUOUS
 62
     2
 10
599.792593479
 20
280.940546982
 30
0.0
 42
0.021820078
  0
VERTEX
  8
0
  6
CONTINUOUS
 62
     2
 10
599.673101376
 20
281.096272122
 30
0.0
 42
0.021820078
  0
VERTEX
  8
0
  6
CONTINUOUS
 62
     2
 10
599.540491637
 20
281.240990258
 30
0.0
 42
0.021820078
  0
VERTEX
  8
0
  6
CONTINUOUS
 62
     2
 10
599.395773501
 20
281.373599997
 30
0.0
 42
0.021820078
  0
VERTEX
  8
0
  6
CONTINUOUS
 62
     2
 10
599.240048361
 20
281.4930921
 30
0.0
 42
0.021820078
  0
VERTEX
  8
0
  6
CONTINUOUS
 62
     2
 10
599.074501379
 20
281.598557159
 30
0.0
 42
0.021820078
  0
VERTEX
  8
0
  6
CONTINUOUS
 62
     2
 10
598.900392468
 20
281.689192521
 30
0.0
 42
0.021820078
  0
VERTEX
  8
0
  6
CONTINUOUS
 62
     2
 10
598.719046702
 20
281.764308397
 30
0.0
 42
0.021820078
  0
VERTEX
  8
0
  6
CONTINUOUS
 62
     2
 10
598.531844231
 20
281.823333109
 30
0.0
 42
0.021820078
  0
VERTEX
  8
0
  6
CONTINUOUS
 62
     2
 10
598.340209779
 20
281.865817444
 30
0.0
 42
0.021820078
  0
VERTEX
  8
0
  6
CONTINUOUS
 62
     2
 10
598.145601801
 20
281.891438071
 30
0.0
 42
0.021820078
  0
VERTEX
  8
0
  6
CONTINUOUS
 62
     2
 10
597.949501379
 20
281.9
 30
0.0
 42
0.021820078
  0
VERTEX
  8
0
  6
CONTINUOUS
 62
     2
 10
597.753400958
 20
281.891438071
 30
0.0
 42
0.021820078
  0
VERTEX
  8
0
  6
CONTINUOUS
 62
     2
 10
597.55879298
 20
281.865817444
 30
0.0
 42
0.021820078
  0
VERTEX
  8
0
  6
CONTINUOUS
 62
     2
 10
597.367158528
 20
281.823333109
 30
0.0
 42
0.021820078
  0
VERTEX
  8
0
  6
CONTINUOUS
 62
     2
 10
597.179956057
 20
281.764308397
 30
0.0
 42
0.021820078
  0
VERTEX
  8
0
  6
CONTINUOUS
 62
     2
 10
596.99861029
 20
281.689192521
 30
0.0
 42
0.021820078
  0
VERTEX
  8
0
  6
CONTINUOUS
 62
     2
 10
596.824501379
 20
281.598557159
 30
0.0
 42
0.021820078
  0
VERTEX
  8
0
  6
CONTINUOUS
 62
     2
 10
596.658954398
 20
281.4930921
 30
0.0
 42
0.021820078
  0
VERTEX
  8
0
  6
CONTINUOUS
 62
     2
 10
596.503229258
 20
281.373599997
 30
0.0
 42
0.021820078
  0
VERTEX
  8
0
  6
CONTINUOUS
 62
     2
 10
596.358511122
 20
281.240990258
 30
0.0
 42
0.021820078
  0
VERTEX
  8
0
  6
CONTINUOUS
 62
     2
 10
596.225901382
 20
281.096272122
 30
0.0
 42
0.021820078
  0
VERTEX
  8
0
  6
CONTINUOUS
 62
     2
 10
596.10640928
 20
280.940546982
 30
0.0
 42
0.021820078
  0
VERTEX
  8
0
  6
CONTINUOUS
 62
     2
 10
596.000944221
 20
280.775
 30
0.0
 42
0.021820078
  0
VERTEX
  8
0
  6
CONTINUOUS
 62
     2
 10
595.910308859
 20
280.600891089
 30
0.0
 42
0.021820078
  0
VERTEX
  8
0
  6
CONTINUOUS
 62
     2
 10
595.835192983
 20
280.419545322
 30
0.0
 42
0.021820078
  0
VERTEX
  8
0
  6
CONTINUOUS
 62
     2
 10
595.77616827
 20
280.232342851
 30
0.0
 42
0.021820078
  0
VERTEX
  8
0
  6
CONTINUOUS
 62
     2
 10
595.733683935
 20
280.0407084
 30
0.0
 42
0.021820078
  0
VERTEX
  8
0
  6
CONTINUOUS
 62
     2
 10
595.708063309
 20
279.846100421
 30
0.0
 42
0.021820078
  0
VERTEX
  8
0
  6
CONTINUOUS
 62
     2
 10
595.699501379
 20
279.65
 30
0.0
 42
0.021820078
  0
VERTEX
  8
0
  6
CONTINUOUS
 62
     2
 10
595.708063309
 20
279.453899579
 30
0.0
 42
0.021820078
  0
VERTEX
  8
0
  6
CONTINUOUS
 62
     2
 10
595.733683935
 20
279.2592916
 30
0.0
 42
0.021820078
  0
VERTEX
  8
0
  6
CONTINUOUS
 62
     2
 10
595.77616827
 20
279.067657149
 30
0.0
 42
0.021820078
  0
VERTEX
  8
0
  6
CONTINUOUS
 62
     2
 10
595.835192983
 20
278.880454678
 30
0.0
 42
0.021820078
  0
VERTEX
  8
0
  6
CONTINUOUS
 62
     2
 10
595.910308859
 20
278.699108911
 30
0.0
 42
0.021820078
  0
VERTEX
  8
0
  6
CONTINUOUS
 62
     2
 10
596.000944221
 20
278.525
 30
0.0
 42
0.021820078
  0
VERTEX
  8
0
  6
CONTINUOUS
 62
     2
 10
596.10640928
 20
278.359453018
 30
0.0
 42
0.021820078
  0
VERTEX
  8
0
  6
CONTINUOUS
 62
     2
 10
596.225901382
 20
278.203727878
 30
0.0
 42
0.021820078
  0
VERTEX
  8
0
  6
CONTINUOUS
 62
     2
 10
596.358511122
 20
278.059009742
 30
0.0
 42
0.021820078
  0
VERTEX
  8
0
  6
CONTINUOUS
 62
     2
 10
596.503229258
 20
277.926400003
 30
0.0
 42
0.021820078
  0
VERTEX
  8
0
  6
CONTINUOUS
 62
     2
 10
596.658954398
 20
277.8069079
 30
0.0
 42
0.021820078
  0
VERTEX
  8
0
  6
CONTINUOUS
 62
     2
 10
596.824501379
 20
277.701442841
 30
0.0
 42
0.021820078
  0
VERTEX
  8
0
  6
CONTINUOUS
 62
     2
 10
596.99861029
 20
277.610807479
 30
0.0
 42
0.021820078
  0
VERTEX
  8
0
  6
CONTINUOUS
 62
     2
 10
597.179956057
 20
277.535691603
 30
0.0
 42
0.021820078
  0
VERTEX
  8
0
  6
CONTINUOUS
 62
     2
 10
597.367158528
 20
277.476666891
 30
0.0
 42
0.021820078
  0
VERTEX
  8
0
  6
CONTINUOUS
 62
     2
 10
597.55879298
 20
277.434182556
 30
0.0
 42
0.021820078
  0
VERTEX
  8
0
  6
CONTINUOUS
 62
     2
 10
597.753400958
 20
277.408561929
 30
0.0
 42
0.021820078
  0
VERTEX
  8
0
  6
CONTINUOUS
 62
     2
 10
597.949501379
 20
277.4
 30
0.0
 42
0.021820078
  0
VERTEX
  8
0
  6
CONTINUOUS
 62
     2
 10
598.145601801
 20
277.408561929
 30
0.0
 42
0.021820078
  0
VERTEX
  8
0
  6
CONTINUOUS
 62
     2
 10
598.340209779
 20
277.434182556
 30
0.0
 42
0.021820078
  0
VERTEX
  8
0
  6
CONTINUOUS
 62
     2
 10
598.531844231
 20
277.476666891
 30
0.0
 42
0.021820078
  0
VERTEX
  8
0
  6
CONTINUOUS
 62
     2
 10
598.719046702
 20
277.535691603
 30
0.0
 42
0.021820078
  0
VERTEX
  8
0
  6
CONTINUOUS
 62
     2
 10
598.900392468
 20
277.610807479
 30
0.0
 42
0.021820078
  0
VERTEX
  8
0
  6
CONTINUOUS
 62
     2
 10
599.074501379
 20
277.701442841
 30
0.0
 42
0.021820078
  0
VERTEX
  8
0
  6
CONTINUOUS
 62
     2
 10
599.240048361
 20
277.8069079
 30
0.0
 42
0.021820078
  0
VERTEX
  8
0
  6
CONTINUOUS
 62
     2
 10
599.395773501
 20
277.926400003
 30
0.0
 42
0.021820078
  0
VERTEX
  8
0
  6
CONTINUOUS
 62
     2
 10
599.540491637
 20
278.059009742
 30
0.0
 42
0.021820078
  0
VERTEX
  8
0
  6
CONTINUOUS
 62
     2
 10
599.673101376
 20
278.203727878
 30
0.0
 42
0.021820078
  0
VERTEX
  8
0
  6
CONTINUOUS
 62
     2
 10
599.792593479
 20
278.359453018
 30
0.0
 42
0.021820078
  0
VERTEX
  8
0
  6
CONTINUOUS
 62
     2
 10
599.898058538
 20
278.525
 30
0.0
 42
0.021820078
  0
VERTEX
  8
0
  6
CONTINUOUS
 62
     2
 10
599.9886939
 20
278.699108911
 30
0.0
 42
0.021820078
  0
VERTEX
  8
0
  6
CONTINUOUS
 62
     2
 10
600.063809776
 20
278.880454678
 30
0.0
 42
0.021820078
  0
VERTEX
  8
0
  6
CONTINUOUS
 62
     2
 10
600.122834489
 20
279.067657149
 30
0.0
 42
0.021820078
  0
VERTEX
  8
0
  6
CONTINUOUS
 62
     2
 10
600.165318824
 20
279.2592916
 30
0.0
 42
0.021820078
  0
VERTEX
  8
0
  6
CONTINUOUS
 62
     2
 10
600.19093945
 20
279.453899579
 30
0.0
 42
0.021820078
  0
SEQEND
  8
0
  6
CONTINUOUS
 62
     2
  0
POLYLINE
  8
0
  6
CONTINUOUS
 62
     2
 66
     1
 70
     1
  0
VERTEX
  8
0
  6
CONTINUOUS
 62
     2
 10
600.199501379
 20
235.3
 30
0.0
 42
-0.021820078
  0
VERTEX
  8
0
  6
CONTINUOUS
 62
     2
 10
600.19093945
 20
235.103899579
 30
0.0
 42
-0.021820078
  0
VERTEX
  8
0
  6
CONTINUOUS
 62
     2
 10
600.165318824
 20
234.9092916
 30
0.0
 42
-0.021820078
  0
VERTEX
  8
0
  6
CONTINUOUS
 62
     2
 10
600.122834489
 20
234.717657149
 30
0.0
 42
-0.021820078
  0
VERTEX
  8
0
  6
CONTINUOUS
 62
     2
 10
600.063809776
 20
234.530454678
 30
0.0
 42
-0.021820078
  0
VERTEX
  8
0
  6
CONTINUOUS
 62
     2
 10
599.9886939
 20
234.349108911
 30
0.0
 42
-0.021820078
  0
VERTEX
  8
0
  6
CONTINUOUS
 62
     2
 10
599.898058538
 20
234.175
 30
0.0
 42
-0.021820078
  0
VERTEX
  8
0
  6
CONTINUOUS
 62
     2
 10
599.792593479
 20
234.009453018
 30
0.0
 42
-0.021820078
  0
VERTEX
  8
0
  6
CONTINUOUS
 62
     2
 10
599.673101376
 20
233.853727878
 30
0.0
 42
-0.021820078
  0
VERTEX
  8
0
  6
CONTINUOUS
 62
     2
 10
599.540491637
 20
233.709009742
 30
0.0
 42
-0.021820078
  0
VERTEX
  8
0
  6
CONTINUOUS
 62
     2
 10
599.395773501
 20
233.576400003
 30
0.0
 42
-0.021820078
  0
VERTEX
  8
0
  6
CONTINUOUS
 62
     2
 10
599.240048361
 20
233.4569079
 30
0.0
 42
-0.021820078
  0
VERTEX
  8
0
  6
CONTINUOUS
 62
     2
 10
599.074501379
 20
233.351442841
 30
0.0
 42
-0.021820078
  0
VERTEX
  8
0
  6
CONTINUOUS
 62
     2
 10
598.900392468
 20
233.260807479
 30
0.0
 42
-0.021820078
  0
VERTEX
  8
0
  6
CONTINUOUS
 62
     2
 10
598.719046702
 20
233.185691603
 30
0.0
 42
-0.021820078
  0
VERTEX
  8
0
  6
CONTINUOUS
 62
     2
 10
598.531844231
 20
233.126666891
 30
0.0
 42
-0.021820078
  0
VERTEX
  8
0
  6
CONTINUOUS
 62
     2
 10
598.340209779
 20
233.084182556
 30
0.0
 42
-0.021820078
  0
VERTEX
  8
0
  6
CONTINUOUS
 62
     2
 10
598.145601801
 20
233.058561929
 30
0.0
 42
-0.021820078
  0
VERTEX
  8
0
  6
CONTINUOUS
 62
     2
 10
597.949501379
 20
233.05
 30
0.0
 42
-0.021820078
  0
VERTEX
  8
0
  6
CONTINUOUS
 62
     2
 10
597.753400958
 20
233.058561929
 30
0.0
 42
-0.021820078
  0
VERTEX
  8
0
  6
CONTINUOUS
 62
     2
 10
597.55879298
 20
233.084182556
 30
0.0
 42
-0.021820078
  0
VERTEX
  8
0
  6
CONTINUOUS
 62
     2
 10
597.367158528
 20
233.126666891
 30
0.0
 42
-0.021820078
  0
VERTEX
  8
0
  6
CONTINUOUS
 62
     2
 10
597.179956057
 20
233.185691603
 30
0.0
 42
-0.021820078
  0
VERTEX
  8
0
  6
CONTINUOUS
 62
     2
 10
596.99861029
 20
233.260807479
 30
0.0
 42
-0.021820078
  0
VERTEX
  8
0
  6
CONTINUOUS
 62
     2
 10
596.824501379
 20
233.351442841
 30
0.0
 42
-0.021820078
  0
VERTEX
  8
0
  6
CONTINUOUS
 62
     2
 10
596.658954398
 20
233.4569079
 30
0.0
 42
-0.021820078
  0
VERTEX
  8
0
  6
CONTINUOUS
 62
     2
 10
596.503229258
 20
233.576400003
 30
0.0
 42
-0.021820078
  0
VERTEX
  8
0
  6
CONTINUOUS
 62
     2
 10
596.358511122
 20
233.709009742
 30
0.0
 42
-0.021820078
  0
VERTEX
  8
0
  6
CONTINUOUS
 62
     2
 10
596.225901382
 20
233.853727878
 30
0.0
 42
-0.021820078
  0
VERTEX
  8
0
  6
CONTINUOUS
 62
     2
 10
596.10640928
 20
234.009453018
 30
0.0
 42
-0.021820078
  0
VERTEX
  8
0
  6
CONTINUOUS
 62
     2
 10
596.000944221
 20
234.175
 30
0.0
 42
-0.021820078
  0
VERTEX
  8
0
  6
CONTINUOUS
 62
     2
 10
595.910308859
 20
234.349108911
 30
0.0
 42
-0.021820078
  0
VERTEX
  8
0
  6
CONTINUOUS
 62
     2
 10
595.835192983
 20
234.530454678
 30
0.0
 42
-0.021820078
  0
VERTEX
  8
0
  6
CONTINUOUS
 62
     2
 10
595.77616827
 20
234.717657149
 30
0.0
 42
-0.021820078
  0
VERTEX
  8
0
  6
CONTINUOUS
 62
     2
 10
595.733683935
 20
234.9092916
 30
0.0
 42
-0.021820078
  0
VERTEX
  8
0
  6
CONTINUOUS
 62
     2
 10
595.708063309
 20
235.103899579
 30
0.0
 42
-0.021820078
  0
VERTEX
  8
0
  6
CONTINUOUS
 62
     2
 10
595.699501379
 20
235.3
 30
0.0
 42
-0.021820078
  0
VERTEX
  8
0
  6
CONTINUOUS
 62
     2
 10
595.708063309
 20
235.496100421
 30
0.0
 42
-0.021820078
  0
VERTEX
  8
0
  6
CONTINUOUS
 62
     2
 10
595.733683935
 20
235.6907084
 30
0.0
 42
-0.021820078
  0
VERTEX
  8
0
  6
CONTINUOUS
 62
     2
 10
595.77616827
 20
235.882342851
 30
0.0
 42
-0.021820078
  0
VERTEX
  8
0
  6
CONTINUOUS
 62
     2
 10
595.835192983
 20
236.069545322
 30
0.0
 42
-0.021820078
  0
VERTEX
  8
0
  6
CONTINUOUS
 62
     2
 10
595.910308859
 20
236.250891089
 30
0.0
 42
-0.021820078
  0
VERTEX
  8
0
  6
CONTINUOUS
 62
     2
 10
596.000944221
 20
236.425
 30
0.0
 42
-0.021820078
  0
VERTEX
  8
0
  6
CONTINUOUS
 62
     2
 10
596.10640928
 20
236.590546982
 30
0.0
 42
-0.021820078
  0
VERTEX
  8
0
  6
CONTINUOUS
 62
     2
 10
596.225901382
 20
236.746272122
 30
0.0
 42
-0.021820078
  0
VERTEX
  8
0
  6
CONTINUOUS
 62
     2
 10
596.358511122
 20
236.890990258
 30
0.0
 42
-0.021820078
  0
VERTEX
  8
0
  6
CONTINUOUS
 62
     2
 10
596.503229258
 20
237.023599997
 30
0.0
 42
-0.021820078
  0
VERTEX
  8
0
  6
CONTINUOUS
 62
     2
 10
596.658954398
 20
237.1430921
 30
0.0
 42
-0.021820078
  0
VERTEX
  8
0
  6
CONTINUOUS
 62
     2
 10
596.824501379
 20
237.248557159
 30
0.0
 42
-0.021820078
  0
VERTEX
  8
0
  6
CONTINUOUS
 62
     2
 10
596.99861029
 20
237.339192521
 30
0.0
 42
-0.021820078
  0
VERTEX
  8
0
  6
CONTINUOUS
 62
     2
 10
597.179956057
 20
237.414308397
 30
0.0
 42
-0.021820078
  0
VERTEX
  8
0
  6
CONTINUOUS
 62
     2
 10
597.367158528
 20
237.473333109
 30
0.0
 42
-0.021820078
  0
VERTEX
  8
0
  6
CONTINUOUS
 62
     2
 10
597.55879298
 20
237.515817444
 30
0.0
 42
-0.021820078
  0
VERTEX
  8
0
  6
CONTINUOUS
 62
     2
 10
597.753400958
 20
237.541438071
 30
0.0
 42
-0.021820078
  0
VERTEX
  8
0
  6
CONTINUOUS
 62
     2
 10
597.949501379
 20
237.55
 30
0.0
 42
-0.021820078
  0
VERTEX
  8
0
  6
CONTINUOUS
 62
     2
 10
598.145601801
 20
237.541438071
 30
0.0
 42
-0.021820078
  0
VERTEX
  8
0
  6
CONTINUOUS
 62
     2
 10
598.340209779
 20
237.515817444
 30
0.0
 42
-0.021820078
  0
VERTEX
  8
0
  6
CONTINUOUS
 62
     2
 10
598.531844231
 20
237.473333109
 30
0.0
 42
-0.021820078
  0
VERTEX
  8
0
  6
CONTINUOUS
 62
     2
 10
598.719046702
 20
237.414308397
 30
0.0
 42
-0.021820078
  0
VERTEX
  8
0
  6
CONTINUOUS
 62
     2
 10
598.900392468
 20
237.339192521
 30
0.0
 42
-0.021820078
  0
VERTEX
  8
0
  6
CONTINUOUS
 62
     2
 10
599.074501379
 20
237.248557159
 30
0.0
 42
-0.021820078
  0
VERTEX
  8
0
  6
CONTINUOUS
 62
     2
 10
599.240048361
 20
237.1430921
 30
0.0
 42
-0.021820078
  0
VERTEX
  8
0
  6
CONTINUOUS
 62
     2
 10
599.395773501
 20
237.023599997
 30
0.0
 42
-0.021820078
  0
VERTEX
  8
0
  6
CONTINUOUS
 62
     2
 10
599.540491637
 20
236.890990258
 30
0.0
 42
-0.021820078
  0
VERTEX
  8
0
  6
CONTINUOUS
 62
     2
 10
599.673101376
 20
236.746272122
 30
0.0
 42
-0.021820078
  0
VERTEX
  8
0
  6
CONTINUOUS
 62
     2
 10
599.792593479
 20
236.590546982
 30
0.0
 42
-0.021820078
  0
VERTEX
  8
0
  6
CONTINUOUS
 62
     2
 10
599.898058538
 20
236.425
 30
0.0
 42
-0.021820078
  0
VERTEX
  8
0
  6
CONTINUOUS
 62
     2
 10
599.9886939
 20
236.250891089
 30
0.0
 42
-0.021820078
  0
VERTEX
  8
0
  6
CONTINUOUS
 62
     2
 10
600.063809776
 20
236.069545322
 30
0.0
 42
-0.021820078
  0
VERTEX
  8
0
  6
CONTINUOUS
 62
     2
 10
600.122834489
 20
235.882342851
 30
0.0
 42
-0.021820078
  0
VERTEX
  8
0
  6
CONTINUOUS
 62
     2
 10
600.165318824
 20
235.6907084
 30
0.0
 42
-0.021820078
  0
VERTEX
  8
0
  6
CONTINUOUS
 62
     2
 10
600.19093945
 20
235.496100421
 30
0.0
 42
-0.021820078
  0
SEQEND
  8
0
  6
CONTINUOUS
 62
     2
  0
TEXT
  8
0
  6
CONTINUOUS
 62
     2
 10
589.199501379
 20
224.9
 30
0.0
 40
10.0
  1
１
 50
0.0
 41
0.85
 51
0.0
  7
KANJI40
  0
TEXT
  8
0
  6
CONTINUOUS
 62
     2
 10
557.299501379
 20
279.6
 30
0.0
 40
10.0
  1
（ＮＯ）
 50
0.0
 41
0.75
 51
0.0
  7
KANJI41
  0
TEXT
  8
0
  6
CONTINUOUS
 62
     2
 10
557.299501379
 20
222.1
 30
0.0
 40
10.0
  1
（ＮＣ）
 50
0.0
 41
0.75
 51
0.0
  7
KANJI41
  0
LINE
  8
0
  6
CONTINUOUS
 62
     2
 10
682.924501379
 20
350.35
 30
0.0
 11
529.674501379
 21
350.35
 31
0.0
  0
LINE
  8
0
  6
CONTINUOUS
 62
     2
 10
529.674501379
 20
350.35
 30
0.0
 11
529.674501379
 21
180.6
 31
0.0
  0
LINE
  8
0
  6
CONTINUOUS
 62
     1
 10
625.299501379
 20
289.1
 30
0.0
 11
625.299501379
 21
224.4
 31
0.0
  0
ARC
  8
0
  6
CONTINUOUS
 62
     1
 10
623.299501379
 20
224.4
 30
0.0
 40
2.0
 50
270.0
 51
0.0
  0
ARC
  8
0
  6
CONTINUOUS
 62
     1
 10
623.299501379
 20
289.1
 30
0.0
 40
2.0
 50
0.0
 51
90.0
  0
ARC
  8
0
  6
CONTINUOUS
 62
     1
 10
605.299501379
 20
300.8
 30
0.0
 40
6.0
 50
131.983045121
 51
318.016954879
  0
LINE
  8
0
  6
LTYPE3
 62
     2
 10
598.864829671
 20
294.365328291
 30
0.0
 11
639.523469589
 21
335.023968209
 31
0.0
  0
LINE
  8
0
  6
CONTINUOUS
 62
     1
 10
601.286037879
 20
305.260057257
 30
0.0
 11
629.493916731
 21
330.64342919
 31
0.0
  0
LINE
  8
0
  6
CONTINUOUS
 62
     1
 10
609.759558636
 20
296.7865365
 30
0.0
 11
635.142930569
 21
324.994415352
 31
0.0
  0
LINE
  8
0
  6
LTYPE3
 62
     2
 10
639.947733658
 20
319.891883092
 30
0.0
 11
623.68427769
 21
336.155339059
 31
0.0
  0
ARC
  8
0
  6
CONTINUOUS
 62
     1
 10
632.169559064
 20
327.670057685
 30
0.0
 40
8.75
 50
255.219855722
 51
194.780144278
  0
ARC
  8
0
  6
CONTINUOUS
 62
     1
 10
632.169559064
 20
327.670057685
 30
0.0
 40
4.0
 50
311.983042101
 51
138.016952287
  0
LINE
  8
0
  6
CONTINUOUS
 62
     1
 10
617.999501379
 20
305.94336985
 30
0.0
 11
617.999501379
 21
291.1
 31
0.0
  0
LINE
  8
0
  6
LTYPE2
 62
     2
 10
620.424501379
 20
267.6
 30
0.0
 11
620.424501379
 21
277.1
 31
0.0
  0
LINE
  8
0
  6
CONTINUOUS
 62
     1
 10
620.424501379
 20
237.6
 30
0.0
 11
620.424501379
 21
247.1
 31
0.0
  0
TEXT
  8
0
  6
CONTINUOUS
 62
     2
 10
614.199501379
 20
280.4
 30
0.0
 40
10.0
  1
３
 50
0.0
 41
0.85
 51
0.0
  7
KANJI40
  0
POLYLINE
  8
0
  6
CONTINUOUS
 62
     2
 66
     1
 70
     1
  0
VERTEX
  8
0
  6
CONTINUOUS
 62
     2
 10
615.199501379
 20
279.65
 30
0.0
 42
0.021820078
  0
VERTEX
  8
0
  6
CONTINUOUS
 62
     2
 10
615.19093945
 20
279.846100421
 30
0.0
 42
0.021820078
  0
VERTEX
  8
0
  6
CONTINUOUS
 62
     2
 10
615.165318824
 20
280.0407084
 30
0.0
 42
0.021820078
  0
VERTEX
  8
0
  6
CONTINUOUS
 62
     2
 10
615.122834489
 20
280.232342851
 30
0.0
 42
0.021820078
  0
VERTEX
  8
0
  6
CONTINUOUS
 62
     2
 10
615.063809776
 20
280.419545322
 30
0.0
 42
0.021820078
  0
VERTEX
  8
0
  6
CONTINUOUS
 62
     2
 10
614.9886939
 20
280.600891089
 30
0.0
 42
0.021820078
  0
VERTEX
  8
0
  6
CONTINUOUS
 62
     2
 10
614.898058538
 20
280.775
 30
0.0
 42
0.021820078
  0
VERTEX
  8
0
  6
CONTINUOUS
 62
     2
 10
614.792593479
 20
280.940546982
 30
0.0
 42
0.021820078
  0
VERTEX
  8
0
  6
CONTINUOUS
 62
     2
 10
614.673101376
 20
281.096272122
 30
0.0
 42
0.021820078
  0
VERTEX
  8
0
  6
CONTINUOUS
 62
     2
 10
614.540491637
 20
281.240990258
 30
0.0
 42
0.021820078
  0
VERTEX
  8
0
  6
CONTINUOUS
 62
     2
 10
614.395773501
 20
281.373599997
 30
0.0
 42
0.021820078
  0
VERTEX
  8
0
  6
CONTINUOUS
 62
     2
 10
614.240048361
 20
281.4930921
 30
0.0
 42
0.021820078
  0
VERTEX
  8
0
  6
CONTINUOUS
 62
     2
 10
614.074501379
 20
281.598557159
 30
0.0
 42
0.021820078
  0
VERTEX
  8
0
  6
CONTINUOUS
 62
     2
 10
613.900392468
 20
281.689192521
 30
0.0
 42
0.021820078
  0
VERTEX
  8
0
  6
CONTINUOUS
 62
     2
 10
613.719046702
 20
281.764308397
 30
0.0
 42
0.021820078
  0
VERTEX
  8
0
  6
CONTINUOUS
 62
     2
 10
613.531844231
 20
281.823333109
 30
0.0
 42
0.021820078
  0
VERTEX
  8
0
  6
CONTINUOUS
 62
     2
 10
613.340209779
 20
281.865817444
 30
0.0
 42
0.021820078
  0
VERTEX
  8
0
  6
CONTINUOUS
 62
     2
 10
613.145601801
 20
281.891438071
 30
0.0
 42
0.021820078
  0
VERTEX
  8
0
  6
CONTINUOUS
 62
     2
 10
612.949501379
 20
281.9
 30
0.0
 42
0.021820078
  0
VERTEX
  8
0
  6
CONTINUOUS
 62
     2
 10
612.753400958
 20
281.891438071
 30
0.0
 42
0.021820078
  0
VERTEX
  8
0
  6
CONTINUOUS
 62
     2
 10
612.55879298
 20
281.865817444
 30
0.0
 42
0.021820078
  0
VERTEX
  8
0
  6
CONTINUOUS
 62
     2
 10
612.367158528
 20
281.823333109
 30
0.0
 42
0.021820078
  0
VERTEX
  8
0
  6
CONTINUOUS
 62
     2
 10
612.179956057
 20
281.764308397
 30
0.0
 42
0.021820078
  0
VERTEX
  8
0
  6
CONTINUOUS
 62
     2
 10
611.99861029
 20
281.689192521
 30
0.0
 42
0.021820078
  0
VERTEX
  8
0
  6
CONTINUOUS
 62
     2
 10
611.824501379
 20
281.598557159
 30
0.0
 42
0.021820078
  0
VERTEX
  8
0
  6
CONTINUOUS
 62
     2
 10
611.658954398
 20
281.4930921
 30
0.0
 42
0.021820078
  0
VERTEX
  8
0
  6
CONTINUOUS
 62
     2
 10
611.503229258
 20
281.373599997
 30
0.0
 42
0.021820078
  0
VERTEX
  8
0
  6
CONTINUOUS
 62
     2
 10
611.358511122
 20
281.240990258
 30
0.0
 42
0.021820078
  0
VERTEX
  8
0
  6
CONTINUOUS
 62
     2
 10
611.225901382
 20
281.096272122
 30
0.0
 42
0.021820078
  0
VERTEX
  8
0
  6
CONTINUOUS
 62
     2
 10
611.10640928
 20
280.940546982
 30
0.0
 42
0.021820078
  0
VERTEX
  8
0
  6
CONTINUOUS
 62
     2
 10
611.000944221
 20
280.775
 30
0.0
 42
0.021820078
  0
VERTEX
  8
0
  6
CONTINUOUS
 62
     2
 10
610.910308859
 20
280.600891089
 30
0.0
 42
0.021820078
  0
VERTEX
  8
0
  6
CONTINUOUS
 62
     2
 10
610.835192983
 20
280.419545322
 30
0.0
 42
0.021820078
  0
VERTEX
  8
0
  6
CONTINUOUS
 62
     2
 10
610.77616827
 20
280.232342851
 30
0.0
 42
0.021820078
  0
VERTEX
  8
0
  6
CONTINUOUS
 62
     2
 10
610.733683935
 20
280.0407084
 30
0.0
 42
0.021820078
  0
VERTEX
  8
0
  6
CONTINUOUS
 62
     2
 10
610.708063309
 20
279.846100421
 30
0.0
 42
0.021820078
  0
VERTEX
  8
0
  6
CONTINUOUS
 62
     2
 10
610.699501379
 20
279.65
 30
0.0
 42
0.021820078
  0
VERTEX
  8
0
  6
CONTINUOUS
 62
     2
 10
610.708063309
 20
279.453899579
 30
0.0
 42
0.021820078
  0
VERTEX
  8
0
  6
CONTINUOUS
 62
     2
 10
610.733683935
 20
279.2592916
 30
0.0
 42
0.021820078
  0
VERTEX
  8
0
  6
CONTINUOUS
 62
     2
 10
610.77616827
 20
279.067657149
 30
0.0
 42
0.021820078
  0
VERTEX
  8
0
  6
CONTINUOUS
 62
     2
 10
610.835192983
 20
278.880454678
 30
0.0
 42
0.021820078
  0
VERTEX
  8
0
  6
CONTINUOUS
 62
     2
 10
610.910308859
 20
278.699108911
 30
0.0
 42
0.021820078
  0
VERTEX
  8
0
  6
CONTINUOUS
 62
     2
 10
611.000944221
 20
278.525
 30
0.0
 42
0.021820078
  0
VERTEX
  8
0
  6
CONTINUOUS
 62
     2
 10
611.10640928
 20
278.359453018
 30
0.0
 42
0.021820078
  0
VERTEX
  8
0
  6
CONTINUOUS
 62
     2
 10
611.225901382
 20
278.203727878
 30
0.0
 42
0.021820078
  0
VERTEX
  8
0
  6
CONTINUOUS
 62
     2
 10
611.358511122
 20
278.059009742
 30
0.0
 42
0.021820078
  0
VERTEX
  8
0
  6
CONTINUOUS
 62
     2
 10
611.503229258
 20
277.926400003
 30
0.0
 42
0.021820078
  0
VERTEX
  8
0
  6
CONTINUOUS
 62
     2
 10
611.658954398
 20
277.8069079
 30
0.0
 42
0.021820078
  0
VERTEX
  8
0
  6
CONTINUOUS
 62
     2
 10
611.824501379
 20
277.701442841
 30
0.0
 42
0.021820078
  0
VERTEX
  8
0
  6
CONTINUOUS
 62
     2
 10
611.99861029
 20
277.610807479
 30
0.0
 42
0.021820078
  0
VERTEX
  8
0
  6
CONTINUOUS
 62
     2
 10
612.179956057
 20
277.535691603
 30
0.0
 42
0.021820078
  0
VERTEX
  8
0
  6
CONTINUOUS
 62
     2
 10
612.367158528
 20
277.476666891
 30
0.0
 42
0.021820078
  0
VERTEX
  8
0
  6
CONTINUOUS
 62
     2
 10
612.55879298
 20
277.434182556
 30
0.0
 42
0.021820078
  0
VERTEX
  8
0
  6
CONTINUOUS
 62
     2
 10
612.753400958
 20
277.408561929
 30
0.0
 42
0.021820078
  0
VERTEX
  8
0
  6
CONTINUOUS
 62
     2
 10
612.949501379
 20
277.4
 30
0.0
 42
0.021820078
  0
VERTEX
  8
0
  6
CONTINUOUS
 62
     2
 10
613.145601801
 20
277.408561929
 30
0.0
 42
0.021820078
  0
VERTEX
  8
0
  6
CONTINUOUS
 62
     2
 10
613.340209779
 20
277.434182556
 30
0.0
 42
0.021820078
  0
VERTEX
  8
0
  6
CONTINUOUS
 62
     2
 10
613.531844231
 20
277.476666891
 30
0.0
 42
0.021820078
  0
VERTEX
  8
0
  6
CONTINUOUS
 62
     2
 10
613.719046702
 20
277.535691603
 30
0.0
 42
0.021820078
  0
VERTEX
  8
0
  6
CONTINUOUS
 62
     2
 10
613.900392468
 20
277.610807479
 30
0.0
 42
0.021820078
  0
VERTEX
  8
0
  6
CONTINUOUS
 62
     2
 10
614.074501379
 20
277.701442841
 30
0.0
 42
0.021820078
  0
VERTEX
  8
0
  6
CONTINUOUS
 62
     2
 10
614.240048361
 20
277.8069079
 30
0.0
 42
0.021820078
  0
VERTEX
  8
0
  6
CONTINUOUS
 62
     2
 10
614.395773501
 20
277.926400003
 30
0.0
 42
0.021820078
  0
VERTEX
  8
0
  6
CONTINUOUS
 62
     2
 10
614.540491637
 20
278.059009742
 30
0.0
 42
0.021820078
  0
VERTEX
  8
0
  6
CONTINUOUS
 62
     2
 10
614.673101376
 20
278.203727878
 30
0.0
 42
0.021820078
  0
VERTEX
  8
0
  6
CONTINUOUS
 62
     2
 10
614.792593479
 20
278.359453018
 30
0.0
 42
0.021820078
  0
VERTEX
  8
0
  6
CONTINUOUS
 62
     2
 10
614.898058538
 20
278.525
 30
0.0
 42
0.021820078
  0
VERTEX
  8
0
  6
CONTINUOUS
 62
     2
 10
614.9886939
 20
278.699108911
 30
0.0
 42
0.021820078
  0
VERTEX
  8
0
  6
CONTINUOUS
 62
     2
 10
615.063809776
 20
278.880454678
 30
0.0
 42
0.021820078
  0
VERTEX
  8
0
  6
CONTINUOUS
 62
     2
 10
615.122834489
 20
279.067657149
 30
0.0
 42
0.021820078
  0
VERTEX
  8
0
  6
CONTINUOUS
 62
     2
 10
615.165318824
 20
279.2592916
 30
0.0
 42
0.021820078
  0
VERTEX
  8
0
  6
CONTINUOUS
 62
     2
 10
615.19093945
 20
279.453899579
 30
0.0
 42
0.021820078
  0
SEQEND
  8
0
  6
CONTINUOUS
 62
     2
  0
POLYLINE
  8
0
  6
CONTINUOUS
 62
     2
 66
     1
 70
     1
  0
VERTEX
  8
0
  6
CONTINUOUS
 62
     2
 10
615.199501379
 20
235.3
 30
0.0
 42
-0.021820078
  0
VERTEX
  8
0
  6
CONTINUOUS
 62
     2
 10
615.19093945
 20
235.103899579
 30
0.0
 42
-0.021820078
  0
VERTEX
  8
0
  6
CONTINUOUS
 62
     2
 10
615.165318824
 20
234.9092916
 30
0.0
 42
-0.021820078
  0
VERTEX
  8
0
  6
CONTINUOUS
 62
     2
 10
615.122834489
 20
234.717657149
 30
0.0
 42
-0.021820078
  0
VERTEX
  8
0
  6
CONTINUOUS
 62
     2
 10
615.063809776
 20
234.530454678
 30
0.0
 42
-0.021820078
  0
VERTEX
  8
0
  6
CONTINUOUS
 62
     2
 10
614.9886939
 20
234.349108911
 30
0.0
 42
-0.021820078
  0
VERTEX
  8
0
  6
CONTINUOUS
 62
     2
 10
614.898058538
 20
234.175
 30
0.0
 42
-0.021820078
  0
VERTEX
  8
0
  6
CONTINUOUS
 62
     2
 10
614.792593479
 20
234.009453018
 30
0.0
 42
-0.021820078
  0
VERTEX
  8
0
  6
CONTINUOUS
 62
     2
 10
614.673101376
 20
233.853727878
 30
0.0
 42
-0.021820078
  0
VERTEX
  8
0
  6
CONTINUOUS
 62
     2
 10
614.540491637
 20
233.709009742
 30
0.0
 42
-0.021820078
  0
VERTEX
  8
0
  6
CONTINUOUS
 62
     2
 10
614.395773501
 20
233.576400003
 30
0.0
 42
-0.021820078
  0
VERTEX
  8
0
  6
CONTINUOUS
 62
     2
 10
614.240048361
 20
233.4569079
 30
0.0
 42
-0.021820078
  0
VERTEX
  8
0
  6
CONTINUOUS
 62
     2
 10
614.074501379
 20
233.351442841
 30
0.0
 42
-0.021820078
  0
VERTEX
  8
0
  6
CONTINUOUS
 62
     2
 10
613.900392468
 20
233.260807479
 30
0.0
 42
-0.021820078
  0
VERTEX
  8
0
  6
CONTINUOUS
 62
     2
 10
613.719046702
 20
233.185691603
 30
0.0
 42
-0.021820078
  0
VERTEX
  8
0
  6
CONTINUOUS
 62
     2
 10
613.531844231
 20
233.126666891
 30
0.0
 42
-0.021820078
  0
VERTEX
  8
0
  6
CONTINUOUS
 62
     2
 10
613.340209779
 20
233.084182556
 30
0.0
 42
-0.021820078
  0
VERTEX
  8
0
  6
CONTINUOUS
 62
     2
 10
613.145601801
 20
233.058561929
 30
0.0
 42
-0.021820078
  0
VERTEX
  8
0
  6
CONTINUOUS
 62
     2
 10
612.949501379
 20
233.05
 30
0.0
 42
-0.021820078
  0
VERTEX
  8
0
  6
CONTINUOUS
 62
     2
 10
612.753400958
 20
233.058561929
 30
0.0
 42
-0.021820078
  0
VERTEX
  8
0
  6
CONTINUOUS
 62
     2
 10
612.55879298
 20
233.084182556
 30
0.0
 42
-0.021820078
  0
VERTEX
  8
0
  6
CONTINUOUS
 62
     2
 10
612.367158528
 20
233.126666891
 30
0.0
 42
-0.021820078
  0
VERTEX
  8
0
  6
CONTINUOUS
 62
     2
 10
612.179956057
 20
233.185691603
 30
0.0
 42
-0.021820078
  0
VERTEX
  8
0
  6
CONTINUOUS
 62
     2
 10
611.99861029
 20
233.260807479
 30
0.0
 42
-0.021820078
  0
VERTEX
  8
0
  6
CONTINUOUS
 62
     2
 10
611.824501379
 20
233.351442841
 30
0.0
 42
-0.021820078
  0
VERTEX
  8
0
  6
CONTINUOUS
 62
     2
 10
611.658954398
 20
233.4569079
 30
0.0
 42
-0.021820078
  0
VERTEX
  8
0
  6
CONTINUOUS
 62
     2
 10
611.503229258
 20
233.576400003
 30
0.0
 42
-0.021820078
  0
VERTEX
  8
0
  6
CONTINUOUS
 62
     2
 10
611.358511122
 20
233.709009742
 30
0.0
 42
-0.021820078
  0
VERTEX
  8
0
  6
CONTINUOUS
 62
     2
 10
611.225901382
 20
233.853727878
 30
0.0
 42
-0.021820078
  0
VERTEX
  8
0
  6
CONTINUOUS
 62
     2
 10
611.10640928
 20
234.009453018
 30
0.0
 42
-0.021820078
  0
VERTEX
  8
0
  6
CONTINUOUS
 62
     2
 10
611.000944221
 20
234.175
 30
0.0
 42
-0.021820078
  0
VERTEX
  8
0
  6
CONTINUOUS
 62
     2
 10
610.910308859
 20
234.349108911
 30
0.0
 42
-0.021820078
  0
VERTEX
  8
0
  6
CONTINUOUS
 62
     2
 10
610.835192983
 20
234.530454678
 30
0.0
 42
-0.021820078
  0
VERTEX
  8
0
  6
CONTINUOUS
 62
     2
 10
610.77616827
 20
234.717657149
 30
0.0
 42
-0.021820078
  0
VERTEX
  8
0
  6
CONTINUOUS
 62
     2
 10
610.733683935
 20
234.9092916
 30
0.0
 42
-0.021820078
  0
VERTEX
  8
0
  6
CONTINUOUS
 62
     2
 10
610.708063309
 20
235.103899579
 30
0.0
 42
-0.021820078
  0
VERTEX
  8
0
  6
CONTINUOUS
 62
     2
 10
610.699501379
 20
235.3
 30
0.0
 42
-0.021820078
  0
VERTEX
  8
0
  6
CONTINUOUS
 62
     2
 10
610.708063309
 20
235.496100421
 30
0.0
 42
-0.021820078
  0
VERTEX
  8
0
  6
CONTINUOUS
 62
     2
 10
610.733683935
 20
235.6907084
 30
0.0
 42
-0.021820078
  0
VERTEX
  8
0
  6
CONTINUOUS
 62
     2
 10
610.77616827
 20
235.882342851
 30
0.0
 42
-0.021820078
  0
VERTEX
  8
0
  6
CONTINUOUS
 62
     2
 10
610.835192983
 20
236.069545322
 30
0.0
 42
-0.021820078
  0
VERTEX
  8
0
  6
CONTINUOUS
 62
     2
 10
610.910308859
 20
236.250891089
 30
0.0
 42
-0.021820078
  0
VERTEX
  8
0
  6
CONTINUOUS
 62
     2
 10
611.000944221
 20
236.425
 30
0.0
 42
-0.021820078
  0
VERTEX
  8
0
  6
CONTINUOUS
 62
     2
 10
611.10640928
 20
236.590546982
 30
0.0
 42
-0.021820078
  0
VERTEX
  8
0
  6
CONTINUOUS
 62
     2
 10
611.225901382
 20
236.746272122
 30
0.0
 42
-0.021820078
  0
VERTEX
  8
0
  6
CONTINUOUS
 62
     2
 10
611.358511122
 20
236.890990258
 30
0.0
 42
-0.021820078
  0
VERTEX
  8
0
  6
CONTINUOUS
 62
     2
 10
611.503229258
 20
237.023599997
 30
0.0
 42
-0.021820078
  0
VERTEX
  8
0
  6
CONTINUOUS
 62
     2
 10
611.658954398
 20
237.1430921
 30
0.0
 42
-0.021820078
  0
VERTEX
  8
0
  6
CONTINUOUS
 62
     2
 10
611.824501379
 20
237.248557159
 30
0.0
 42
-0.021820078
  0
VERTEX
  8
0
  6
CONTINUOUS
 62
     2
 10
611.99861029
 20
237.339192521
 30
0.0
 42
-0.021820078
  0
VERTEX
  8
0
  6
CONTINUOUS
 62
     2
 10
612.179956057
 20
237.414308397
 30
0.0
 42
-0.021820078
  0
VERTEX
  8
0
  6
CONTINUOUS
 62
     2
 10
612.367158528
 20
237.473333109
 30
0.0
 42
-0.021820078
  0
VERTEX
  8
0
  6
CONTINUOUS
 62
     2
 10
612.55879298
 20
237.515817444
 30
0.0
 42
-0.021820078
  0
VERTEX
  8
0
  6
CONTINUOUS
 62
     2
 10
612.753400958
 20
237.541438071
 30
0.0
 42
-0.021820078
  0
VERTEX
  8
0
  6
CONTINUOUS
 62
     2
 10
612.949501379
 20
237.55
 30
0.0
 42
-0.021820078
  0
VERTEX
  8
0
  6
CONTINUOUS
 62
     2
 10
613.145601801
 20
237.541438071
 30
0.0
 42
-0.021820078
  0
VERTEX
  8
0
  6
CONTINUOUS
 62
     2
 10
613.340209779
 20
237.515817444
 30
0.0
 42
-0.021820078
  0
VERTEX
  8
0
  6
CONTINUOUS
 62
     2
 10
613.531844231
 20
237.473333109
 30
0.0
 42
-0.021820078
  0
VERTEX
  8
0
  6
CONTINUOUS
 62
     2
 10
613.719046702
 20
237.414308397
 30
0.0
 42
-0.021820078
  0
VERTEX
  8
0
  6
CONTINUOUS
 62
     2
 10
613.900392468
 20
237.339192521
 30
0.0
 42
-0.021820078
  0
VERTEX
  8
0
  6
CONTINUOUS
 62
     2
 10
614.074501379
 20
237.248557159
 30
0.0
 42
-0.021820078
  0
VERTEX
  8
0
  6
CONTINUOUS
 62
     2
 10
614.240048361
 20
237.1430921
 30
0.0
 42
-0.021820078
  0
VERTEX
  8
0
  6
CONTINUOUS
 62
     2
 10
614.395773501
 20
237.023599997
 30
0.0
 42
-0.021820078
  0
VERTEX
  8
0
  6
CONTINUOUS
 62
     2
 10
614.540491637
 20
236.890990258
 30
0.0
 42
-0.021820078
  0
VERTEX
  8
0
  6
CONTINUOUS
 62
     2
 10
614.673101376
 20
236.746272122
 30
0.0
 42
-0.021820078
  0
VERTEX
  8
0
  6
CONTINUOUS
 62
     2
 10
614.792593479
 20
236.590546982
 30
0.0
 42
-0.021820078
  0
VERTEX
  8
0
  6
CONTINUOUS
 62
     2
 10
614.898058538
 20
236.425
 30
0.0
 42
-0.021820078
  0
VERTEX
  8
0
  6
CONTINUOUS
 62
     2
 10
614.9886939
 20
236.250891089
 30
0.0
 42
-0.021820078
  0
VERTEX
  8
0
  6
CONTINUOUS
 62
     2
 10
615.063809776
 20
236.069545322
 30
0.0
 42
-0.021820078
  0
VERTEX
  8
0
  6
CONTINUOUS
 62
     2
 10
615.122834489
 20
235.882342851
 30
0.0
 42
-0.021820078
  0
VERTEX
  8
0
  6
CONTINUOUS
 62
     2
 10
615.165318824
 20
235.6907084
 30
0.0
 42
-0.021820078
  0
VERTEX
  8
0
  6
CONTINUOUS
 62
     2
 10
615.19093945
 20
235.496100421
 30
0.0
 42
-0.021820078
  0
SEQEND
  8
0
  6
CONTINUOUS
 62
     2
  0
TEXT
  8
0
  6
CONTINUOUS
 62
     2
 10
614.199501379
 20
224.9
 30
0.0
 40
10.0
  1
２
 50
0.0
 41
0.85
 51
0.0
  7
KANJI40
  0
TEXT
  8
0
  6
CONTINUOUS
 62
     2
 10
623.299501379
 20
279.6
 30
0.0
 40
10.0
  1
（ＮＯ）
 50
0.0
 41
0.75
 51
0.0
  7
KANJI41
  0
TEXT
  8
0
  6
CONTINUOUS
 62
     2
 10
623.299501379
 20
222.1
 30
0.0
 40
10.0
  1
（ＮＣ）
 50
0.0
 41
0.75
 51
0.0
  7
KANJI41
  0
LINE
  8
0
  6
CONTINUOUS
 62
     2
 10
682.924501379
 20
180.6
 30
0.0
 11
682.924501379
 21
350.35
 31
0.0
  0
LINE
  8
0
  6
CONTINUOUS
 62
     1
 10
587.299501379
 20
222.4
 30
0.0
 11
623.299501379
 21
222.4
 31
0.0
  0
TEXT
  8
0
  6
CONTINUOUS
 62
     2
 10
541.174501379
 20
193.1
 30
0.0
 40
15.0
  1
外部ＬＳリミットＳＷ
 50
0.0
 41
0.9
 51
0.0
  7
KANJI34
  0
TEXT
  8
0
  6
CONTINUOUS
 62
     2
 10
578.424501379
 20
174.1
 30
0.0
 40
15.0
  1
端子符号
 50
0.0
 41
0.9
 51
0.0
  7
KANJI34
  0
LINE
  8
0
  6
CONTINUOUS
 62
     2
 10
529.674501379
 20
180.6
 30
0.0
 11
568.674501379
 21
180.6
 31
0.0
  0
LINE
  8
0
  6
CONTINUOUS
 62
     2
 10
637.924501379
 20
180.6
 30
0.0
 11
682.924501379
 21
180.6
 31
0.0
  0
TEXT
  8
0
  6
CONTINUOUS
 62
     3
 10
1296.65
 20
769.5
 30
0.0
 40
15.0
  1
１２０（トラニオン幅）
 50
0.0
 41
0.9
 51
0.0
  7
KANJI34
  0
LINE
  8
0
  6
CONTINUOUS
 62
     1
 10
968.0
 20
459.5
 30
0.0
 11
976.660254038
 21
454.5
 31
0.0
  0
LINE
  8
0
  6
CONTINUOUS
 62
     1
 10
976.65
 20
454.5
 30
0.0
 11
976.65
 21
486.5
 31
0.0
  0
LINE
  8
0
  6
CONTINUOUS
 62
     1
 10
976.65
 20
454.5
 30
0.0
 11
1001.35
 21
454.5
 31
0.0
  0
LINE
  8
0
  6
CONTINUOUS
 62
     1
 10
968.0
 20
481.5
 30
0.0
 11
976.660254038
 21
486.5
 31
0.0
  0
LINE
  8
0
  6
CONTINUOUS
 62
     1
 10
968.0
 20
459.5
 30
0.0
 11
968.0
 21
481.5
 31
0.0
  0
LINE
  8
0
  6
CONTINUOUS
 62
     1
 10
976.65
 20
486.5
 30
0.0
 11
1001.35
 21
486.5
 31
0.0
  0
LINE
  8
0
  6
CONTINUOUS
 62
     1
 10
1010.0
 20
481.5
 30
0.0
 11
1001.339745962
 21
486.5
 31
0.0
  0
LINE
  8
0
  6
CONTINUOUS
 62
     1
 10
1001.35
 20
454.5
 30
0.0
 11
1001.35
 21
486.5
 31
0.0
  0
LINE
  8
0
  6
CONTINUOUS
 62
     1
 10
1010.0
 20
459.5
 30
0.0
 11
1010.0
 21
481.5
 31
0.0
  0
LINE
  8
0
  6
CONTINUOUS
 62
     1
 10
1010.0
 20
459.5
 30
0.0
 11
1001.339745962
 21
454.5
 31
0.0
  0
LINE
  8
0
  6
CONTINUOUS
 62
     1
 10
961.499501379
 20
235.6
 30
0.0
 11
970.159755417
 21
230.6
 31
0.0
  0
LINE
  8
0
  6
CONTINUOUS
 62
     1
 10
970.149501379
 20
230.6
 30
0.0
 11
970.149501379
 21
262.6
 31
0.0
  0
LINE
  8
0
  6
CONTINUOUS
 62
     1
 10
970.149501379
 20
230.6
 30
0.0
 11
994.849501379
 21
230.6
 31
0.0
  0
LINE
  8
0
  6
CONTINUOUS
 62
     1
 10
961.499501379
 20
257.6
 30
0.0
 11
970.159755417
 21
262.6
 31
0.0
  0
LINE
  8
0
  6
CONTINUOUS
 62
     1
 10
961.499501379
 20
235.6
 30
0.0
 11
961.499501379
 21
257.6
 31
0.0
  0
LINE
  8
0
  6
CONTINUOUS
 62
     1
 10
970.149501379
 20
262.6
 30
0.0
 11
994.849501379
 21
262.6
 31
0.0
  0
LINE
  8
0
  6
CONTINUOUS
 62
     1
 10
1003.499501379
 20
257.6
 30
0.0
 11
994.839247342
 21
262.6
 31
0.0
  0
LINE
  8
0
  6
CONTINUOUS
 62
     1
 10
994.849501379
 20
230.6
 30
0.0
 11
994.849501379
 21
262.6
 31
0.0
  0
LINE
  8
0
  6
CONTINUOUS
 62
     1
 10
1003.499501379
 20
235.6
 30
0.0
 11
1003.499501379
 21
257.6
 31
0.0
  0
LINE
  8
0
  6
CONTINUOUS
 62
     1
 10
1003.499501379
 20
235.6
 30
0.0
 11
994.839247342
 21
230.6
 31
0.0
  0
LINE
  8
0
  6
CONTINUOUS
 62
     1
 10
901.999501379
 20
254.6
 30
0.0
 11
961.499501379
 21
254.6
 31
0.0
  0
LINE
  8
0
  6
CONTINUOUS
 62
     1
 10
961.499501379
 20
238.6
 30
0.0
 11
901.999501379
 21
238.6
 31
0.0
  0
LINE
  8
0
  6
CONTINUOUS
 62
     1
 10
1003.499501379
 20
254.6
 30
0.0
 11
1029.808923417
 21
254.6
 31
0.0
  0
LINE
  8
0
  6
CONTINUOUS
 62
     1
 10
1029.808923417
 20
238.6
 30
0.0
 11
1003.499501379
 21
238.6
 31
0.0
  0
LINE
  8
0
  6
CONTINUOUS
 62
     1
 10
1077.1
 20
355.3
 30
0.0
 11
1061.1
 21
355.3
 31
0.0
  0
LINE
  8
0
  6
CONTINUOUS
 62
     1
 10
1054.1
 20
347.3
 30
0.0
 11
1084.1
 21
347.3
 31
0.0
  0
LINE
  8
0
  6
LTYPE2
 62
     2
 10
1064.7
 20
349.95
 30
0.0
 11
1073.1
 21
349.95
 31
0.0
  0
CIRCLE
  8
0
  6
CONTINUOUS
 62
     1
 10
1069.1
 20
349.95
 30
0.0
 40
2.0
  0
LINE
  8
0
  6
CONTINUOUS
 62
     1
 10
1054.1
 20
344.3
 30
0.0
 11
1054.1
 21
347.3
 31
0.0
  0
LINE
  8
0
  6
CONTINUOUS
 62
     1
 10
1061.1
 20
355.3
 30
0.0
 11
1061.1
 21
347.3
 31
0.0
  0
LINE
  8
0
  6
LTYPE1
 62
     2
 10
1061.1
 20
347.3
 30
0.0
 11
1061.1
 21
332.3
 31
0.0
  0
LINE
  8
0
  6
CONTINUOUS
 62
     1
 10
1084.1
 20
344.3
 30
0.0
 11
1084.1
 21
347.3
 31
0.0
  0
LINE
  8
0
  6
CONTINUOUS
 62
     1
 10
1077.1
 20
347.3
 30
0.0
 11
1077.1
 21
355.3
 31
0.0
  0
LINE
  8
0
  6
LTYPE1
 62
     2
 10
1077.1
 20
332.3
 30
0.0
 11
1077.1
 21
347.3
 31
0.0
  0
LINE
  8
0
  6
CONTINUOUS
 62
     1
 10
1077.1
 20
293.3
 30
0.0
 11
1061.1
 21
293.3
 31
0.0
  0
LINE
  8
0
  6
CONTINUOUS
 62
     1
 10
1077.1
 20
293.3
 30
0.0
 11
1061.1
 21
293.3
 31
0.0
  0
LINE
  8
0
  6
CONTINUOUS
 62
     1
 10
1054.1
 20
301.3
 30
0.0
 11
1084.1
 21
301.3
 31
0.0
  0
LINE
  8
0
  6
CONTINUOUS
 62
     1
 10
1054.1
 20
304.3
 30
0.0
 11
1054.1
 21
301.3
 31
0.0
  0
LINE
  8
0
  6
CONTINUOUS
 62
     1
 10
1061.1
 20
293.3
 30
0.0
 11
1061.1
 21
301.3
 31
0.0
  0
LINE
  8
0
  6
LTYPE2
 62
     2
 10
1064.7
 20
298.65
 30
0.0
 11
1073.1
 21
298.65
 31
0.0
  0
LINE
  8
0
  6
CONTINUOUS
 62
     1
 10
1061.1
 20
293.3
 30
0.0
 11
1061.1
 21
301.3
 31
0.0
  0
LINE
  8
0
  6
LTYPE1
 62
     2
 10
1061.1
 20
301.3
 30
0.0
 11
1061.1
 21
316.3
 31
0.0
  0
LINE
  8
0
  6
CONTINUOUS
 62
     1
 10
1084.1
 20
304.3
 30
0.0
 11
1084.1
 21
301.3
 31
0.0
  0
LINE
  8
0
  6
CONTINUOUS
 62
     1
 10
1077.1
 20
301.3
 30
0.0
 11
1077.1
 21
293.3
 31
0.0
  0
LINE
  8
0
  6
CONTINUOUS
 62
     1
 10
1077.1
 20
301.3
 30
0.0
 11
1077.1
 21
293.3
 31
0.0
  0
LINE
  8
0
  6
LTYPE1
 62
     2
 10
1077.1
 20
316.3
 30
0.0
 11
1077.1
 21
301.3
 31
0.0
  0
CIRCLE
  8
0
  6
CONTINUOUS
 62
     1
 10
1069.1
 20
298.65
 30
0.0
 40
2.0
  0
LINE
  8
0
  6
CONTINUOUS
 62
     1
 10
1293.9
 20
592.5
 30
0.0
 11
1293.9
 21
622.5
 31
0.0
  0
LINE
  8
0
  6
CONTINUOUS
 62
     1
 10
1296.9
 20
622.5
 30
0.0
 11
1293.9
 21
622.5
 31
0.0
  0
LINE
  8
0
  6
LTYPE2
 62
     2
 10
1291.25
 20
603.1
 30
0.0
 11
1291.25
 21
611.5
 31
0.0
  0
LINE
  8
0
  6
CONTINUOUS
 62
     1
 10
1285.9
 20
615.5
 30
0.0
 11
1293.9
 21
615.5
 31
0.0
  0
LINE
  8
0
  6
LTYPE1
 62
     2
 10
1308.9
 20
615.5
 30
0.0
 11
1293.9
 21
615.5
 31
0.0
  0
LINE
  8
0
  6
CONTINUOUS
 62
     1
 10
1285.9
 20
615.5
 30
0.0
 11
1285.9
 21
599.5
 31
0.0
  0
CIRCLE
  8
0
  6
CONTINUOUS
 62
     1
 10
1291.25
 20
607.5
 30
0.0
 40
2.0
  0
LINE
  8
0
  6
CONTINUOUS
 62
     1
 10
1296.9
 20
592.5
 30
0.0
 11
1293.9
 21
592.5
 31
0.0
  0
LINE
  8
0
  6
CONTINUOUS
 62
     1
 10
1285.9
 20
599.5
 30
0.0
 11
1293.9
 21
599.5
 31
0.0
  0
LINE
  8
0
  6
LTYPE1
 62
     2
 10
1308.9
 20
599.5
 30
0.0
 11
1293.9
 21
599.5
 31
0.0
  0
LINE
  8
0
  6
CONTINUOUS
 62
     1
 10
1347.9
 20
615.5
 30
0.0
 11
1347.9
 21
599.5
 31
0.0
  0
LINE
  8
0
  6
CONTINUOUS
 62
     1
 10
1339.9
 20
622.5
 30
0.0
 11
1339.9
 21
592.5
 31
0.0
  0
LINE
  8
0
  6
CONTINUOUS
 62
     1
 10
1336.9
 20
592.5
 30
0.0
 11
1339.9
 21
592.5
 31
0.0
  0
LINE
  8
0
  6
LTYPE2
 62
     2
 10
1342.55
 20
611.9
 30
0.0
 11
1342.55
 21
603.5
 31
0.0
  0
CIRCLE
  8
0
  6
CONTINUOUS
 62
     1
 10
1342.55
 20
607.5
 30
0.0
 40
2.0
  0
LINE
  8
0
  6
CONTINUOUS
 62
     1
 10
1347.9
 20
599.5
 30
0.0
 11
1339.9
 21
599.5
 31
0.0
  0
LINE
  8
0
  6
LTYPE1
 62
     2
 10
1324.9
 20
599.5
 30
0.0
 11
1339.9
 21
599.5
 31
0.0
  0
LINE
  8
0
  6
CONTINUOUS
 62
     1
 10
1347.9
 20
615.5
 30
0.0
 11
1339.9
 21
615.5
 31
0.0
  0
LINE
  8
0
  6
CONTINUOUS
 62
     1
 10
1336.9
 20
622.5
 30
0.0
 11
1339.9
 21
622.5
 31
0.0
  0
LINE
  8
0
  6
LTYPE1
 62
     2
 10
1324.9
 20
615.5
 30
0.0
 11
1339.9
 21
615.5
 31
0.0
  0
ARC
  8
0
  6
CONTINUOUS
 62
     1
 10
1316.9
 20
607.5
 30
0.0
 40
32.0
 50
279.340912304
 51
349.457045617
  0
ARC
  8
0
  6
LTYPE1
 62
     2
 10
1316.9
 20
607.5
 30
0.0
 40
32.0
 50
0.0
 51
279.340912304
  0
ARC
  8
0
  6
LTYPE1
 62
     2
 10
1316.9
 20
607.5
 30
0.0
 40
32.0
 50
350.659087696
 51
0.0
  0
LINE
  8
0
  6
CONTINUOUS
 62
     1
 10
1345.669552622
 20
599.5
 30
0.0
 11
1309.121825407
 21
562.952272785
 31
0.0
  0
LINE
  8
0
  6
CONTINUOUS
 62
     1
 10
1361.447727215
 20
615.278174593
 30
0.0
 11
1347.814428913
 21
601.644876291
 31
0.0
  0
CIRCLE
  8
0
  6
LTYPE1
 62
     2
 10
1278.009127035
 20
646.390872965
 30
0.0
 40
5.0
  0
LINE
  8
0
  6
LTYPE1
 62
     2
 10
1263.9
 20
645.129775444
 30
0.0
 11
1263.9
 21
627.7
 31
0.0
  0
ARC
  8
0
  6
LTYPE1
 62
     2
 10
1316.9
 20
607.5
 30
0.0
 40
65.0
 50
125.374590447
 51
144.625409553
  0
LINE
  8
0
  6
CONTINUOUS
 62
     1
 10
1310.213780573
 20
660.5
 30
0.0
 11
1321.109632098
 21
660.5
 31
0.0
  0
LINE
  8
0
  6
CONTINUOUS
 62
     1
 10
1328.953823869
 20
660.5
 30
0.0
 11
1354.529775444
 21
660.5
 31
0.0
  0
LINE
  8
0
  6
LTYPE1
 62
     2
 10
1279.270224556
 20
660.5
 30
0.0
 11
1310.213780573
 21
660.5
 31
0.0
  0
LINE
  8
0
  6
LTYPE1
 62
     2
 10
1321.109632098
 20
660.5
 30
0.0
 11
1328.953823869
 21
660.5
 31
0.0
  0
LINE
  8
0
  6
CONTINUOUS
 62
     1
 10
853.25
 20
991.95
 30
0.0
 11
1501.25
 21
991.95
 31
0.0
  0
LINE
  8
0
  6
CONTINUOUS
 62
     1
 10
853.25
 20
1243.95
 30
0.0
 11
853.25
 21
991.95
 31
0.0
  0
LINE
  8
0
  6
CONTINUOUS
 62
     1
 10
1021.25
 20
1243.95
 30
0.0
 11
1021.25
 21
991.95
 31
0.0
  0
LINE
  8
0
  6
CONTINUOUS
 62
     2
 10
1101.25
 20
1243.95
 30
0.0
 11
1101.25
 21
991.95
 31
0.0
  0
LINE
  8
0
  6
CONTINUOUS
 62
     2
 10
1181.25
 20
1243.95
 30
0.0
 11
1181.25
 21
991.95
 31
0.0
  0
LINE
  8
0
  6
CONTINUOUS
 62
     2
 10
1261.25
 20
1243.95
 30
0.0
 11
1261.25
 21
991.95
 31
0.0
  0
LINE
  8
0
  6
CONTINUOUS
 62
     2
 10
1341.25
 20
1243.95
 30
0.0
 11
1341.25
 21
991.95
 31
0.0
  0
LINE
  8
0
  6
CONTINUOUS
 62
     2
 10
1421.25
 20
1243.95
 30
0.0
 11
1421.25
 21
991.95
 31
0.0
  0
LINE
  8
0
  6
CONTINUOUS
 62
     1
 10
1501.25
 20
1243.95
 30
0.0
 11
1501.25
 21
991.95
 31
0.0
  0
TEXT
  8
0
  6
CONTINUOUS
 62
     2
 10
866.25
 20
998.35
 30
0.8
 40
12.0
  1
ＭＣＳＤＢＢ０３－　　　Ｌ
 50
0.0
 41
0.833333333
 51
0.0
  7
KANJI24
  0
LINE
  8
0
  6
CONTINUOUS
 62
     2
 10
432.6
 20
247.0
 30
0.0
 11
432.6
 21
190.2
 31
0.0
  0
LINE
  8
0
  6
CONTINUOUS
 62
     2
 10
273.4
 20
232.2
 30
0.0
 11
432.6
 21
232.2
 31
0.0
  0
LINE
  8
0
  6
CONTINUOUS
 62
     2
 10
432.6
 20
232.2
 30
0.0
 11
424.87259339
 21
234.270552361
 31
0.0
  0
LINE
  8
0
  6
CONTINUOUS
 62
     2
 10
432.6
 20
232.2
 30
0.0
 11
424.87259339
 21
230.129447639
 31
0.0
  0
TEXT
  8
0
  6
CONTINUOUS
 62
     3
 10
309.4
 20
234.2
 30
0.0
 40
15.0
  1
常用ストローク
 50
0.0
 41
0.9
 51
0.0
  7
KANJI34
  0
LINE
  8
0
  6
CONTINUOUS
 62
     1
 10
1350.9
 20
680.0
 30
0.0
 11
1293.897474683
 21
680.0
 31
0.0
  0
ARC
  8
0
  6
LTYPE1
 62
     2
 10
1290.292304845
 20
679.0
 30
0.0
 40
1.0
 50
0.0
 51
90.0
  0
ARC
  8
0
  6
LTYPE1
 62
     2
 10
1292.292304845
 20
679.0
 30
0.0
 40
1.0
 50
90.0
 51
180.0
  0
LINE
  8
0
  6
LTYPE1
 62
     2
 10
1291.292304845
 20
673.9
 30
0.0
 11
1291.292304845
 21
679.0
 31
0.0
  0
LINE
  8
0
  6
LTYPE1
 62
     2
 10
1294.1
 20
680.0
 30
0.0
 11
1282.9
 21
680.0
 31
0.0
  0
LINE
  8
2
  6
CONTINUOUS
 62
     2
 10
1274.4
 20
743.8
 30
0.0
 11
1275.498851058
 21
753.73944296
 31
0.0
  0
LINE
  8
2
  6
CONTINUOUS
 62
     2
 10
1274.4
 20
743.8
 30
0.0
 11
1270.381911451
 21
752.957235632
 31
0.0
  0
TEXT
  8
2
  6
CONTINUOUS
 62
     2
 10
1136.019716322
 20
875.272652293
 30
0.0
 40
15.0
  1
２－ＰＦ１／２
 50
0.0
 41
0.9
 51
0.0
  7
KANJI34
  0
LINE
  8
2
  6
CONTINUOUS
 62
     2
 10
1274.374649635
 20
743.570698219
 30
0.0
 11
1247.040452108
 21
871.272652293
 31
0.0
  0
LINE
  8
2
  6
CONTINUOUS
 62
     2
 10
1247.040452108
 20
871.272652293
 30
0.0
 11
1136.019716322
 21
871.272652293
 31
0.0
  0
TEXT
  8
0
  6
CONTINUOUS
 62
     2
 10
1210.662797718
 20
799.072652293
 30
0.0
 40
15.0
  1
１５２
 50
0.0
 41
0.9
 51
0.0
  7
KANJI34
  0
TEXT
  8
2
  6
CONTINUOUS
 62
     2
 10
165.3
 20
669.3
 30
0.0
 40
15.0
  1
手動軸カバー
 50
0.0
 41
0.9
 51
0.0
  7
KANJI34
  0
TEXT
  8
2
  6
CONTINUOUS
 62
     2
 10
167.8
 20
648.5
 30
0.0
 40
15.0
  1
手動軸□１０
 50
0.0
 41
0.9
 51
0.0
  7
KANJI34
  0
POLYLINE
  8
2
  6
CONTINUOUS
 62
     2
 66
     1
  0
VERTEX
  8
2
  6
CONTINUOUS
 62
     2
 10
270.100004265
 20
570.0
 30
0.0
  0
VERTEX
  8
2
  6
CONTINUOUS
 62
     2
 10
249.797215094
 20
666.3
 30
0.0
  0
VERTEX
  8
2
  6
CONTINUOUS
 62
     2
 10
164.500007629
 20
666.3
 30
0.0
  0
SEQEND
  0
TEXT
  8
0
  6
CONTINUOUS
 62
     2
 10
1607.25
 20
1282.5
 30
138.5
 40
17.5
  1
形式
 50
0.0
 41
0.9
 51
0.0
  7
KANJI42
  0
TEXT
  8
0
  6
CONTINUOUS
 62
     2
 10
1607.25
 20
1247.5
 30
138.5
 40
17.5
  1
推力
 50
0.0
 41
0.9
 51
0.0
  7
KANJI42
  0
TEXT
  8
0
  6
CONTINUOUS
 62
     2
 10
1607.25
 20
1107.5
 30
138.5
 40
17.5
  1
構造
 50
0.0
 41
0.9
 51
0.0
  7
KANJI42
  0
TEXT
  8
0
  6
CONTINUOUS
 62
     2
 10
1607.25
 20
687.5
 30
138.5
 40
17.5
  1
台数
 50
0.0
 41
0.9
 51
0.0
  7
KANJI42
  0
TEXT
  8
0
  6
CONTINUOUS
 62
     2
 10
1607.25
 20
722.5
 30
61.375
 40
17.5
  1
付属品
 50
0.0
 41
0.9
 51
0.0
  7
KANJI43
  0
TEXT
  8
0
  6
CONTINUOUS
 62
     2
 10
1607.25
 20
1037.5
 30
61.375
 40
17.5
  1
塗装色
 50
0.0
 41
0.9
 51
0.0
  7
KANJI43
  0
TEXT
  8
0
  6
CONTINUOUS
 62
     2
 10
1607.25
 20
1212.5
 30
22.8125
 40
17.5
  1
ストローク
 50
0.0
 41
0.9
 51
0.0
  7
KANJI44
  0
TEXT
  8
0
  6
CONTINUOUS
 62
     2
 10
1607.25
 20
1072.5
 30
9.958
 40
17.5
  1
過負荷安全装置
 50
0.0
 41
0.9
 51
0.0
  7
KANJI45
  0
TEXT
  8
0
  6
CONTINUOUS
 62
     2
 10
1632.25
 20
1322.0
 30
14.2497
 40
22.5
  1
マイティシリンダ仕様
 50
0.0
 41
0.9
 51
0.0
  7
KANJI46
  0
TEXT
  8
0
  6
CONTINUOUS
 62
     2
 10
1632.25
 20
1002.5
 30
15.3125
 40
17.5
  1
出力　極数
 50
0.0
 41
0.9
 51
0.0
  7
KANJI47
  0
TEXT
  8
0
  6
CONTINUOUS
 62
     2
 10
1632.25
 20
967.5
 30
25.6665
 40
17.5
  1
電源電圧
 50
0.0
 41
0.9
 51
0.0
  7
KANJI48
  0
TEXT
  8
0
  6
CONTINUOUS
 62
     2
 10
1632.25
 20
932.5
 30
46.375
 40
17.5
  1
周波数
 50
0.0
 41
0.9
 51
0.0
  7
KANJI49
  0
TEXT
  8
0
  6
CONTINUOUS
 62
     2
 10
1632.25
 20
862.5
 30
46.375
 40
17.5
  1
絶縁級
 50
0.0
 41
0.9
 51
0.0
  7
KANJI49
  0
TEXT
  8
0
  6
CONTINUOUS
 62
     2
 10
1632.25
 20
897.5
 30
108.5
 40
17.5
  1
電流
 50
0.0
 41
0.9
 51
0.0
  7
KANJI50
  0
TEXT
  8
0
  6
CONTINUOUS
 62
     2
 10
1632.25
 20
792.5
 30
108.5
 40
17.5
  1
形式
 50
0.0
 41
0.9
 51
0.0
  7
KANJI50
  0
TEXT
  8
0
  6
CONTINUOUS
 62
     2
 10
1632.25
 20
757.5
 30
25.6665
 40
17.5
  1
操作方式
 50
0.0
 41
0.9
 51
0.0
  7
KANJI48
  0
TEXT
  8
0
  6
CONTINUOUS
 62
     2
 10
1592.25
 20
1142.5
 30
1.5
 40
17.5
  1
ピストンロッド回転トルク
 50
0.0
 41
0.9
 51
0.0
  7
KANJI51
  0
TEXT
  8
0
  6
CONTINUOUS
 62
     2
 10
1590.125
 20
1006.0
 30
11.0
 40
17.5
  1
モ　トル仕様
 50
0.0
 41
0.9
 51
0.0
  7
KANJI52
  0
TEXT
  8
0
  6
CONTINUOUS
 62
     2
 10
1589.0
 20
816.0
 30
0.857142857
 40
15.0
  1
ブレ　キ
 50
0.0
 41
0.9
 51
0.0
  7
KANJI53
  0
LINE
  8
0
  6
CONTINUOUS
 62
     2
 10
1588.75
 20
781.5
 30
0.0
 11
1588.75
 21
771.0
 31
0.0
  0
LINE
  8
0
  6
CONTINUOUS
 62
     2
 10
1588.75
 20
978.0
 30
0.0
 11
1588.75
 21
966.5
 31
0.0
  0
TEXT
  8
0
  6
CONTINUOUS
 62
     2
 10
1944.75
 20
1181.0
 30
0.1
 40
12.5
  1
ｍｍ／ｓｅｃ
 50
0.0
 41
0.8
 51
0.0
  7
KANJI54
  0
TEXT
  8
0
  6
CONTINUOUS
 62
     2
 10
1982.25
 20
1214.5
 30
0.1
 40
12.5
  1
ｍｍ
 50
0.0
 41
0.8
 51
0.0
  7
KANJI54
  0
TEXT
  8
0
  6
CONTINUOUS
 62
     2
 10
1989.25
 20
1002.5
 30
10.982142857
 40
15.0
  1
Ｐ
 50
0.0
 41
0.9
 51
0.0
  7
KANJI55
  0
TEXT
  8
0
  6
CONTINUOUS
 62
     2
 10
1906.25
 20
1002.5
 30
1.0
 40
15.0
  1
ＫＷ
 50
0.0
 41
0.857142857
 51
0.0
  7
KANJI56
  0
TEXT
  8
0
  6
CONTINUOUS
 62
     2
 10
1964.25
 20
1002.5
 30
12.8125
 40
17.5
  1
４
 50
0.0
 41
0.9
 51
0.0
  7
KANJI57
  0
TEXT
  8
0
  6
CONTINUOUS
 62
     2
 10
1828.75
 20
1039.0
 30
0.5
 40
14.0
  1
マンセル
 50
0.0
 41
0.9
 51
0.0
  7
KANJI58
  0
TEXT
  8
0
  6
CONTINUOUS
 62
     2
 10
1887.25
 20
1040.0
 30
0.2
 40
14.0
  1
７．５ＧＹ５／４．５
 50
0.0
 41
0.785714286
 51
0.0
  7
KANJI59
  0
TEXT
  8
0
  6
CONTINUOUS
 62
     2
 10
1824.75
 20
793.0
 30
1.5
 40
14.0
  1
スプリング制動式電磁ブレーキ
 50
0.0
 41
0.8
 51
0.0
  7
KANJI60
  0
TEXT
  8
0
  6
CONTINUOUS
 62
     2
 10
1859.75
 20
757.5
 30
10.0
 40
17.5
  1
同時切り
 50
0.0
 41
0.9
 51
0.0
  7
KANJI61
  0
TEXT
  8
0
  6
CONTINUOUS
 62
     2
 10
1989.75
 20
967.5
 30
0.18
 40
15.0
  1
Ｖ
 50
0.0
 41
0.8
 51
0.0
  7
KANJI62
  0
TEXT
  8
0
  6
CONTINUOUS
 62
     2
 10
1980.75
 20
932.5
 30
0.18
 40
15.0
  1
Ｈｚ
 50
0.0
 41
0.8
 51
0.0
  7
KANJI62
  0
TEXT
  8
0
  6
CONTINUOUS
 62
     2
 10
1990.875
 20
898.625
 30
1.5
 40
15.0
  1
Ａ
 50
0.0
 41
0.9
 51
0.0
  7
KANJI63
  0
TEXT
  8
0
  6
CONTINUOUS
 62
     2
 10
1912.125
 20
864.875
 30
1.5
 40
15.0
  1
Ｅ
 50
0.0
 41
0.9
 51
0.0
  7
KANJI63
  0
LINE
  8
0
  6
CONTINUOUS
 62
     2
 10
1569.75
 20
748.5
 30
0.0
 11
2007.25
 21
748.5
 31
0.0
  0
LINE
  8
0
  6
CONTINUOUS
 62
     2
 10
1569.75
 20
1028.5
 30
0.0
 11
2007.25
 21
1028.5
 31
0.0
  0
LINE
  8
0
  6
CONTINUOUS
 62
     2
 10
1569.75
 20
818.5
 30
0.0
 11
2007.25
 21
818.5
 31
0.0
  0
LINE
  8
0
  6
CONTINUOUS
 62
     2
 10
1609.75
 20
783.5
 30
0.0
 11
2007.25
 21
783.5
 31
0.0
  0
LINE
  8
0
  6
CONTINUOUS
 62
     2
 10
1609.75
 20
853.5
 30
0.0
 11
2007.25
 21
853.5
 31
0.0
  0
LINE
  8
0
  6
CONTINUOUS
 62
     2
 10
1609.75
 20
888.5
 30
0.0
 11
2007.25
 21
888.5
 31
0.0
  0
LINE
  8
0
  6
CONTINUOUS
 62
     2
 10
1609.75
 20
958.5
 30
0.0
 11
2007.25
 21
958.5
 31
0.0
  0
LINE
  8
0
  6
CONTINUOUS
 62
     2
 10
1609.75
 20
923.5
 30
0.0
 11
2007.25
 21
923.5
 31
0.0
  0
LINE
  8
0
  6
CONTINUOUS
 62
     2
 10
1609.75
 20
993.5
 30
0.0
 11
2007.25
 21
993.5
 31
0.0
  0
LINE
  8
0
  6
CONTINUOUS
 62
     2
 10
1569.75
 20
1308.5
 30
0.0
 11
2007.25
 21
1308.5
 31
0.0
  0
LINE
  8
0
  6
CONTINUOUS
 62
     2
 10
1569.75
 20
1273.5
 30
0.0
 11
2007.25
 21
1273.5
 31
0.0
  0
LINE
  8
0
  6
CONTINUOUS
 62
     2
 10
1569.75
 20
1238.5
 30
0.0
 11
2007.25
 21
1238.5
 31
0.0
  0
LINE
  8
0
  6
CONTINUOUS
 62
     2
 10
1569.75
 20
1203.5
 30
0.0
 11
2007.25
 21
1203.5
 31
0.0
  0
LINE
  8
0
  6
CONTINUOUS
 62
     2
 10
1569.75
 20
1168.5
 30
0.0
 11
2007.25
 21
1168.5
 31
0.0
  0
LINE
  8
0
  6
CONTINUOUS
 62
     2
 10
1569.75
 20
1133.5
 30
0.0
 11
2007.25
 21
1133.5
 31
0.0
  0
LINE
  8
0
  6
CONTINUOUS
 62
     2
 10
1569.75
 20
1098.5
 30
0.0
 11
2007.25
 21
1098.5
 31
0.0
  0
LINE
  8
0
  6
CONTINUOUS
 62
     2
 10
1569.75
 20
1063.5
 30
0.0
 11
2007.25
 21
1063.5
 31
0.0
  0
LINE
  8
0
  6
CONTINUOUS
 62
     2
 10
1609.75
 20
1028.5
 30
0.0
 11
1609.75
 21
748.5
 31
0.0
  0
LINE
  8
0
  6
CONTINUOUS
 62
     1
 10
1569.75
 20
1358.5
 30
0.0
 11
2007.25
 21
1358.5
 31
0.0
  0
LINE
  8
0
  6
CONTINUOUS
 62
     2
 10
1569.75
 20
713.5
 30
0.0
 11
2007.25
 21
713.5
 31
0.0
  0
TEXT
  8
0
  6
CONTINUOUS
 62
     2
 10
1867.75
 20
968.0
 30
1.5
 40
15.0
  1
　　　／　
 50
0.0
 41
0.9
 51
0.0
  7
KANJI63
  0
TEXT
  8
0
  6
CONTINUOUS
 62
     2
 10
1882.125
 20
932.375
 30
1.5
 40
15.0
  1
　５０／６０
 50
0.0
 41
0.9
 51
0.0
  7
KANJI63
  0
TEXT
  8
0
  6
CONTINUOUS
 62
     2
 10
1848.375
 20
1003.625
 30
1.5
 40
15.0
  1
０．３
 50
0.0
 41
0.9
 51
0.0
  7
KANJI63
  0
TEXT
  8
0
  6
CONTINUOUS
 62
     2
 10
1607.25
 20
1177.5
 30
5.0
 40
17.5
  1
公称速度（５０／６０Ｈｚ）
 50
0.0
 41
0.9
 51
0.0
  7
KANJI64
  0
TEXT
  8
0
  6
CONTINUOUS
 62
     2
 10
1856.75
 20
1108.0
 30
12.8125
 40
17.5
  1
全閉屋内形
 50
0.0
 41
0.9
 51
0.0
  7
KANJI57
  0
TEXT
  8
0
  6
CONTINUOUS
 62
     2
 10
1834.25
 20
1247.5
 30
1.5
 40
15.0
  1
２９４０Ｎ（３００ｋｇ）
 50
0.0
 41
0.9
 51
0.0
  7
KANJI63
  0
TEXT
  8
0
  6
CONTINUOUS
 62
     2
 10
1837.125
 20
1177.375
 30
1.5
 40
15.0
  1
　２５／３０
 50
0.0
 41
0.9
 51
0.0
  7
KANJI63
  0
TEXT
  8
0
  6
CONTINUOUS
 62
     2
 10
1825.75
 20
1281.625
 30
1.0
 40
15.0
  1
ＭＣＳＤＢＢ０３－　　Ｌ
 50
0.0
 41
0.833333333
 51
0.0
  7
KANJI65
  0
LINE
  8
0
  6
CONTINUOUS
 62
     2
 10
1890.0
 20
1077.0
 30
0.0
 11
1918.0
 21
1077.0
 31
0.0
  0
LINE
  8
0
  6
CONTINUOUS
 62
     1
 10
1569.75
 20
643.5
 30
0.0
 11
2007.25
 21
643.5
 31
0.0
  0
TEXT
  8
0
  6
CONTINUOUS
 62
     2
 10
1607.25
 20
652.5
 30
5.0
 40
17.5
  1
概算重量（１台当り）
 50
0.0
 41
0.857142857
 51
0.0
  7
KANJI14
  0
LINE
  8
0
  6
CONTINUOUS
 62
     2
 10
1569.75
 20
678.5
 30
0.0
 11
2007.25
 21
678.5
 31
0.0
  0
LINE
  8
0
  6
CONTINUOUS
 62
     2
 10
1819.75
 20
1308.5
 30
0.0
 11
1819.75
 21
643.5
 31
0.0
  0
LINE
  8
0
  6
CONTINUOUS
 62
     1
 10
1569.75
 20
1358.5
 30
0.0
 11
1569.75
 21
643.5
 31
0.0
  0
TEXT
  8
0
  6
CONTINUOUS
 62
     2
 10
1961.25
 20
653.65
 30
0.0
 40
17.5
  1
ｋｇ
 50
0.0
 41
0.9
 51
0.0
  7
KANJI66
  0
LINE
  8
0
  6
CONTINUOUS
 62
     1
 10
950.999501379
 20
238.6
 30
0.0
 11
950.999501379
 21
222.076144975
 31
0.0
  0
LINE
  8
2
  6
CONTINUOUS
 62
     2
 10
1087.1
 20
631.5
 30
0.0
 11
1087.1
 21
818.288190451
 31
0.0
  0
LINE
  8
2
  6
CONTINUOUS
 62
     2
 10
1069.1
 20
631.5
 30
0.0
 11
1069.1
 21
818.288190451
 31
0.0
  0
LINE
  8
0
  6
LTYPE1
 62
     2
 10
532.85
 20
494.5
 30
0.0
 11
532.85
 21
502.5
 31
0.0
  0
TEXT
  8
0
  6
CONTINUOUS
 62
     2
 10
1827.875
 20
1142.375
 30
0.0
 40
15.0
  1
８．３Ｎ・ｍ（０．８５ｋｇ・ｍ）
 50
0.0
 41
0.766666667
 51
0.0
  7
KANJI67
  0
TEXT
  8
2
  6
CONTINUOUS
 62
     2
 10
626.0
 20
695.3
 30
0.0
 40
15.0
  1
φ１６Ｈ１０深さ２２
 50
0.0
 41
0.9
 51
0.0
  7
KANJI34
  0
TEXT
  8
0
  6
CONTINUOUS
 62
     2
 10
1376.9166945
 20
106.999995
 30
1.5
 40
17.5
  1
０７．１１．０７
 50
0.0
 41
0.571428571
 51
0.0
  7
KANJI68
  0
LINE
  8
2
  6
CONTINUOUS
 62
     2
 10
626.0
 20
691.3
 30
0.0
 11
756.0
 21
691.3
 31
0.0
  0
ENDSEC
  0
EOF
