  0
SECTION
  2
HEADER
  9
$ACADVER
  1
AC1009
  9
$DWGCODEPAGE
  3
dos932
  9
$EXTMIN
 10
0.0
 20
0.0
 30
0.0
  9
$EXTMAX
 10
2100.0
 20
1485.0
 30
0.0
  9
$LIMMIN
 10
0.0
 20
0.0
  9
$LIMMAX
 10
2100.0
 20
1485.0
  9
$LTSCALE
 40
1.0
  9
$PDMODE
 70
     0
  0
ENDSEC
  0
SECTION
  2
TABLES
  0
TABLE
  2
VPORT
 70
     1
  0
VPORT
  2
*ACTIVE
 70
     0
 10
0.0
 20
0.0
 11
1.0
 21
1.0
 12
1050.0
 22
742.5
 13
0.0
 23
0.0
 14
10.0
 24
10.0
 15
10.0
 25
10.0
 16
0.0
 26
0.0
 36
1.0
 17
0.0
 27
0.0
 37
0.0
 40
2100.0
 41
1.414141414
 42
50.0
 43
0.0
 44
0.0
 50
0.0
 51
0.0
 71
     0
 72
  1000
 73
     1
 74
     3
 75
     0
 76
     0
 77
     0
 78
     0
  0
ENDTAB
  0
TABLE
  2
LTYPE
 70
     6
  0
LTYPE
  2
CONTINUOUS
 70
    64
  3
Solid line
 72
    65
 73
     0
 40
0.0
  0
LTYPE
  2
LTYPE1
 70
    64
  3
HIDDEN
 72
    65
 73
     2
 40
15.0
 49
9.0
 49
-6.0
  0
LTYPE
  2
LTYPE2
 70
    64
  3
CENTER
 72
    65
 73
     4
 40
50.0
 49
35.0
 49
-5.0
 49
5.0
 49
-5.0
  0
LTYPE
  2
LTYPE3
 70
    64
  3
CENTER
 72
    65
 73
     4
 40
75.0
 49
52.5
 49
-7.5
 49
7.5
 49
-7.5
  0
LTYPE
  2
LTYPE4
 70
    64
  3
CENTER
 72
    65
 73
     4
 40
100.0
 49
70.0
 49
-10.0
 49
10.0
 49
-10.0
  0
LTYPE
  2
LTYPE5
 70
    64
  3
PHANTOM
 72
    65
 73
     6
 40
50.0
 49
37.5
 49
-2.5
 49
2.5
 49
-2.5
 49
2.5
 49
-2.5
  0
ENDTAB
  0
TABLE
  2
LAYER
 70
   128
  0
LAYER
  2
0
 70
     0
 62
     7
  6
CONTINUOUS
  0
LAYER
  2
2
 70
     0
 62
     7
  6
CONTINUOUS
  0
LAYER
  2
3
 70
     0
 62
     7
  6
CONTINUOUS
  0
LAYER
  2
4
 70
     0
 62
     7
  6
CONTINUOUS
  0
LAYER
  2
5
 70
     0
 62
     7
  6
CONTINUOUS
  0
LAYER
  2
6
 70
     0
 62
     7
  6
CONTINUOUS
  0
LAYER
  2
7
 70
     0
 62
     7
  6
CONTINUOUS
  0
LAYER
  2
8
 70
     0
 62
     7
  6
CONTINUOUS
  0
LAYER
  2
9
 70
     0
 62
     7
  6
CONTINUOUS
  0
LAYER
  2
10
 70
     0
 62
     7
  6
CONTINUOUS
  0
LAYER
  2
11
 70
     0
 62
     7
  6
CONTINUOUS
  0
LAYER
  2
12
 70
     0
 62
     7
  6
CONTINUOUS
  0
LAYER
  2
13
 70
     0
 62
     7
  6
CONTINUOUS
  0
LAYER
  2
14
 70
     0
 62
     7
  6
CONTINUOUS
  0
LAYER
  2
15
 70
     0
 62
     7
  6
CONTINUOUS
  0
LAYER
  2
16
 70
     0
 62
     7
  6
CONTINUOUS
  0
LAYER
  2
17
 70
     0
 62
     7
  6
CONTINUOUS
  0
LAYER
  2
18
 70
     0
 62
     7
  6
CONTINUOUS
  0
LAYER
  2
19
 70
     0
 62
     7
  6
CONTINUOUS
  0
LAYER
  2
20
 70
     0
 62
     7
  6
CONTINUOUS
  0
LAYER
  2
21
 70
     0
 62
     7
  6
CONTINUOUS
  0
LAYER
  2
22
 70
     0
 62
     7
  6
CONTINUOUS
  0
LAYER
  2
23
 70
     0
 62
     7
  6
CONTINUOUS
  0
LAYER
  2
24
 70
     0
 62
     7
  6
CONTINUOUS
  0
LAYER
  2
25
 70
     0
 62
     7
  6
CONTINUOUS
  0
LAYER
  2
26
 70
     0
 62
     7
  6
CONTINUOUS
  0
LAYER
  2
27
 70
     0
 62
     7
  6
CONTINUOUS
  0
LAYER
  2
28
 70
     0
 62
     7
  6
CONTINUOUS
  0
LAYER
  2
29
 70
     0
 62
     7
  6
CONTINUOUS
  0
LAYER
  2
30
 70
     0
 62
     7
  6
CONTINUOUS
  0
LAYER
  2
31
 70
     0
 62
     7
  6
CONTINUOUS
  0
LAYER
  2
32
 70
     0
 62
     7
  6
CONTINUOUS
  0
LAYER
  2
33
 70
     0
 62
     7
  6
CONTINUOUS
  0
LAYER
  2
34
 70
     0
 62
     7
  6
CONTINUOUS
  0
LAYER
  2
35
 70
     0
 62
     7
  6
CONTINUOUS
  0
LAYER
  2
36
 70
     0
 62
     7
  6
CONTINUOUS
  0
LAYER
  2
37
 70
     0
 62
     7
  6
CONTINUOUS
  0
LAYER
  2
38
 70
     0
 62
     7
  6
CONTINUOUS
  0
LAYER
  2
39
 70
     0
 62
     7
  6
CONTINUOUS
  0
LAYER
  2
40
 70
     0
 62
     7
  6
CONTINUOUS
  0
LAYER
  2
41
 70
     0
 62
     7
  6
CONTINUOUS
  0
LAYER
  2
42
 70
     0
 62
     7
  6
CONTINUOUS
  0
LAYER
  2
43
 70
     0
 62
     7
  6
CONTINUOUS
  0
LAYER
  2
44
 70
     0
 62
     7
  6
CONTINUOUS
  0
LAYER
  2
45
 70
     0
 62
     7
  6
CONTINUOUS
  0
LAYER
  2
46
 70
     0
 62
     7
  6
CONTINUOUS
  0
LAYER
  2
47
 70
     0
 62
     7
  6
CONTINUOUS
  0
LAYER
  2
48
 70
     0
 62
     7
  6
CONTINUOUS
  0
LAYER
  2
49
 70
     0
 62
     7
  6
CONTINUOUS
  0
LAYER
  2
50
 70
     0
 62
     7
  6
CONTINUOUS
  0
LAYER
  2
51
 70
     0
 62
     7
  6
CONTINUOUS
  0
LAYER
  2
52
 70
     0
 62
     7
  6
CONTINUOUS
  0
LAYER
  2
53
 70
     0
 62
     7
  6
CONTINUOUS
  0
LAYER
  2
54
 70
     0
 62
     7
  6
CONTINUOUS
  0
LAYER
  2
55
 70
     0
 62
     7
  6
CONTINUOUS
  0
LAYER
  2
56
 70
     0
 62
     7
  6
CONTINUOUS
  0
LAYER
  2
57
 70
     0
 62
     7
  6
CONTINUOUS
  0
LAYER
  2
58
 70
     0
 62
     7
  6
CONTINUOUS
  0
LAYER
  2
59
 70
     0
 62
     7
  6
CONTINUOUS
  0
LAYER
  2
60
 70
     0
 62
     7
  6
CONTINUOUS
  0
LAYER
  2
61
 70
     0
 62
     7
  6
CONTINUOUS
  0
LAYER
  2
62
 70
     0
 62
     7
  6
CONTINUOUS
  0
LAYER
  2
63
 70
     0
 62
     7
  6
CONTINUOUS
  0
LAYER
  2
64
 70
     0
 62
     7
  6
CONTINUOUS
  0
LAYER
  2
65
 70
     0
 62
     7
  6
CONTINUOUS
  0
LAYER
  2
66
 70
     0
 62
     7
  6
CONTINUOUS
  0
LAYER
  2
67
 70
     0
 62
     7
  6
CONTINUOUS
  0
LAYER
  2
68
 70
     0
 62
     7
  6
CONTINUOUS
  0
LAYER
  2
69
 70
     0
 62
     7
  6
CONTINUOUS
  0
LAYER
  2
70
 70
     0
 62
     7
  6
CONTINUOUS
  0
LAYER
  2
71
 70
     0
 62
     7
  6
CONTINUOUS
  0
LAYER
  2
72
 70
     0
 62
     7
  6
CONTINUOUS
  0
LAYER
  2
73
 70
     0
 62
     7
  6
CONTINUOUS
  0
LAYER
  2
74
 70
     0
 62
     7
  6
CONTINUOUS
  0
LAYER
  2
75
 70
     0
 62
     7
  6
CONTINUOUS
  0
LAYER
  2
76
 70
     0
 62
     7
  6
CONTINUOUS
  0
LAYER
  2
77
 70
     0
 62
     7
  6
CONTINUOUS
  0
LAYER
  2
78
 70
     0
 62
     7
  6
CONTINUOUS
  0
LAYER
  2
79
 70
     0
 62
     7
  6
CONTINUOUS
  0
LAYER
  2
80
 70
     0
 62
     7
  6
CONTINUOUS
  0
LAYER
  2
81
 70
     0
 62
     7
  6
CONTINUOUS
  0
LAYER
  2
82
 70
     0
 62
     7
  6
CONTINUOUS
  0
LAYER
  2
83
 70
     0
 62
     7
  6
CONTINUOUS
  0
LAYER
  2
84
 70
     0
 62
     7
  6
CONTINUOUS
  0
LAYER
  2
85
 70
     0
 62
     7
  6
CONTINUOUS
  0
LAYER
  2
86
 70
     0
 62
     7
  6
CONTINUOUS
  0
LAYER
  2
87
 70
     0
 62
     7
  6
CONTINUOUS
  0
LAYER
  2
88
 70
     0
 62
     7
  6
CONTINUOUS
  0
LAYER
  2
89
 70
     0
 62
     7
  6
CONTINUOUS
  0
LAYER
  2
90
 70
     0
 62
     7
  6
CONTINUOUS
  0
LAYER
  2
91
 70
     0
 62
     7
  6
CONTINUOUS
  0
LAYER
  2
92
 70
     0
 62
     7
  6
CONTINUOUS
  0
LAYER
  2
93
 70
     0
 62
     7
  6
CONTINUOUS
  0
LAYER
  2
94
 70
     0
 62
     7
  6
CONTINUOUS
  0
LAYER
  2
95
 70
     0
 62
     7
  6
CONTINUOUS
  0
LAYER
  2
96
 70
     0
 62
     7
  6
CONTINUOUS
  0
LAYER
  2
97
 70
     0
 62
     7
  6
CONTINUOUS
  0
LAYER
  2
98
 70
     0
 62
     7
  6
CONTINUOUS
  0
LAYER
  2
99
 70
     0
 62
     7
  6
CONTINUOUS
  0
LAYER
  2
100
 70
     0
 62
     7
  6
CONTINUOUS
  0
LAYER
  2
101
 70
     0
 62
     7
  6
CONTINUOUS
  0
LAYER
  2
102
 70
     0
 62
     7
  6
CONTINUOUS
  0
LAYER
  2
103
 70
     0
 62
     7
  6
CONTINUOUS
  0
LAYER
  2
104
 70
     0
 62
     7
  6
CONTINUOUS
  0
LAYER
  2
105
 70
     0
 62
     7
  6
CONTINUOUS
  0
LAYER
  2
106
 70
     0
 62
     7
  6
CONTINUOUS
  0
LAYER
  2
107
 70
     0
 62
     7
  6
CONTINUOUS
  0
LAYER
  2
108
 70
     0
 62
     7
  6
CONTINUOUS
  0
LAYER
  2
109
 70
     0
 62
     7
  6
CONTINUOUS
  0
LAYER
  2
110
 70
     0
 62
     7
  6
CONTINUOUS
  0
LAYER
  2
111
 70
     0
 62
     7
  6
CONTINUOUS
  0
LAYER
  2
112
 70
     0
 62
     7
  6
CONTINUOUS
  0
LAYER
  2
113
 70
     0
 62
     7
  6
CONTINUOUS
  0
LAYER
  2
114
 70
     0
 62
     7
  6
CONTINUOUS
  0
LAYER
  2
115
 70
     0
 62
     7
  6
CONTINUOUS
  0
LAYER
  2
116
 70
     0
 62
     7
  6
CONTINUOUS
  0
LAYER
  2
117
 70
     0
 62
     7
  6
CONTINUOUS
  0
LAYER
  2
118
 70
     0
 62
     7
  6
CONTINUOUS
  0
LAYER
  2
119
 70
     0
 62
     7
  6
CONTINUOUS
  0
LAYER
  2
120
 70
     0
 62
     7
  6
CONTINUOUS
  0
LAYER
  2
121
 70
     0
 62
     7
  6
CONTINUOUS
  0
LAYER
  2
122
 70
     0
 62
     7
  6
CONTINUOUS
  0
LAYER
  2
123
 70
     0
 62
     7
  6
CONTINUOUS
  0
LAYER
  2
124
 70
     0
 62
     7
  6
CONTINUOUS
  0
LAYER
  2
125
 70
     0
 62
     7
  6
CONTINUOUS
  0
LAYER
  2
126
 70
     0
 62
     7
  6
CONTINUOUS
  0
LAYER
  2
127
 70
     0
 62
     7
  6
CONTINUOUS
  0
LAYER
  2
128
 70
     0
 62
     7
  6
CONTINUOUS
  0
ENDTAB
  0
TABLE
  2
STYLE
 70
    70
  0
STYLE
  2
STANDARD
 70
     0
 40
0.0
 41
1.0
 50
0.0
 71
     0
 42
0.2
  3
txt.shx
  4
extfont.shx
  0
STYLE
  2
KANJI0
 70
     0
 40
8.666666
 41
0.6
 50
0.0
 71
     0
 42
8.666666
  3
txt.shx
  4
extfont.shx
  0
STYLE
  2
KANJI1
 70
     0
 40
10.3999992
 41
0.6
 50
0.0
 71
     0
 42
10.3999992
  3
txt.shx
  4
extfont.shx
  0
STYLE
  2
KANJI2
 70
     0
 40
15.1666655
 41
0.42031746
 50
0.0
 71
     0
 42
15.1666655
  3
txt.shx
  4
extfont.shx
  0
STYLE
  2
KANJI3
 70
     0
 40
25.999998
 41
0.9
 50
0.0
 71
     0
 42
25.999998
  3
txt.shx
  4
extfont.shx
  0
STYLE
  2
KANJI4
 70
     0
 40
8.666666
 41
0.8
 50
0.0
 71
     0
 42
8.666666
  3
txt.shx
  4
extfont.shx
  0
STYLE
  2
KANJI5
 70
     0
 40
10.3999992
 41
0.8
 50
0.0
 71
     0
 42
10.3999992
  3
txt.shx
  4
extfont.shx
  0
STYLE
  2
KANJI6
 70
     0
 40
25.0
 41
1.0
 50
0.0
 71
     0
 42
25.0
  3
txt.shx
  4
extfont.shx
  0
STYLE
  2
KANJI7
 70
     0
 40
25.0
 41
1.0
 50
0.0
 71
     0
 42
25.0
  3
txt.shx
  4
extfont.shx
  0
STYLE
  2
KANJI8
 70
     0
 40
25.0
 41
0.8
 50
0.0
 71
     0
 42
25.0
  3
txt.shx
  4
extfont.shx
  0
STYLE
  2
KANJI9
 70
     0
 40
20.0
 41
1.0
 50
0.0
 71
     0
 42
20.0
  3
txt.shx
  4
extfont.shx
  0
STYLE
  2
KANJI10
 70
     0
 40
18.0
 41
1.111111111
 50
0.0
 71
     0
 42
18.0
  3
txt.shx
  4
extfont.shx
  0
STYLE
  2
KANJI11
 70
     0
 40
17.5
 41
0.857142857
 50
0.0
 71
     0
 42
17.5
  3
txt.shx
  4
extfont.shx
  0
STYLE
  2
KANJI12
 70
     0
 40
22.5
 41
0.666666667
 50
0.0
 71
     0
 42
22.5
  3
txt.shx
  4
extfont.shx
  0
STYLE
  2
KANJI13
 70
     0
 40
9.999997897
 41
0.6
 50
0.0
 71
     0
 42
9.999997897
  3
txt.shx
  4
extfont.shx
  0
STYLE
  2
KANJI14
 70
     0
 40
11.999997477
 41
0.9
 50
0.0
 71
     0
 42
11.999997477
  3
txt.shx
  4
extfont.shx
  0
STYLE
  2
KANJI15
 70
     0
 40
14.999996846
 41
0.9
 50
0.0
 71
     0
 42
14.999996846
  3
txt.shx
  4
extfont.shx
  0
STYLE
  2
KANJI16
 70
     0
 40
12.999999
 41
0.75
 50
0.0
 71
     0
 42
12.999999
  3
txt.shx
  4
extfont.shx
  0
STYLE
  2
KANJI17
 70
     0
 40
12.8
 41
0.9
 50
0.0
 71
     0
 42
12.8
  3
txt.shx
  4
extfont.shx
  0
STYLE
  2
KANJI18
 70
     0
 40
12.0
 41
0.9
 50
0.0
 71
     0
 42
12.0
  3
txt.shx
  4
extfont.shx
  0
STYLE
  2
KANJI19
 70
     0
 40
12.0
 41
0.9
 50
0.0
 71
     0
 42
12.0
  3
txt.shx
  4
extfont.shx
  0
STYLE
  2
KANJI20
 70
     0
 40
14.0
 41
0.9
 50
0.0
 71
     0
 42
14.0
  3
txt.shx
  4
extfont.shx
  0
STYLE
  2
KANJI21
 70
     0
 40
10.8
 41
0.740740741
 50
0.0
 71
     0
 42
10.8
  3
txt.shx
  4
extfont.shx
  0
STYLE
  2
KANJI22
 70
     0
 40
14.0
 41
0.857142857
 50
0.0
 71
     0
 42
14.0
  3
txt.shx
  4
extfont.shx
  0
STYLE
  2
KANJI23
 70
     0
 40
15.0
 41
1.0
 50
0.0
 71
     0
 42
15.0
  3
txt.shx
  4
extfont.shx
  0
STYLE
  2
KANJI24
 70
     0
 40
12.0
 41
0.833333333
 50
0.0
 71
     0
 42
12.0
  3
txt.shx
  4
extfont.shx
  0
STYLE
  2
KANJI25
 70
     0
 40
17.5
 41
0.793650794
 50
0.0
 71
     0
 42
17.5
  3
txt.shx
  4
extfont.shx
  0
STYLE
  2
KANJI26
 70
     0
 40
25.0
 41
0.8
 50
0.0
 71
     0
 42
25.0
  3
txt.shx
  4
extfont.shx
  0
STYLE
  2
KANJI27
 70
     0
 40
11.55
 41
0.9
 50
0.0
 71
     0
 42
11.55
  3
txt.shx
  4
extfont.shx
  0
STYLE
  2
KANJI28
 70
     0
 40
15.0
 41
0.9
 50
0.0
 71
     0
 42
15.0
  3
txt.shx
  4
extfont.shx
  0
STYLE
  2
KANJI29
 70
     0
 40
20.0
 41
0.9
 50
0.0
 71
     0
 42
20.0
  3
txt.shx
  4
extfont.shx
  0
STYLE
  2
KANJI30
 70
     0
 40
17.5
 41
0.857142857
 50
0.0
 71
     0
 42
17.5
  3
txt.shx
  4
extfont.shx
  0
STYLE
  2
KANJI31
 70
     0
 40
10.933904043
 41
0.9
 50
0.0
 71
     0
 42
10.933904043
  3
txt.shx
  4
extfont.shx
  0
STYLE
  2
KANJI32
 70
     0
 40
15.185977837
 41
0.66671875
 50
0.0
 71
     0
 42
15.185977837
  3
txt.shx
  4
extfont.shx
  0
STYLE
  2
KANJI33
 70
     0
 40
18.223173404
 41
0.9
 50
0.0
 71
     0
 42
18.223173404
  3
txt.shx
  4
extfont.shx
  0
STYLE
  2
KANJI34
 70
     0
 40
15.6
 41
0.925
 50
0.0
 71
     0
 42
15.6
  3
txt.shx
  4
extfont.shx
  0
STYLE
  2
KANJI35
 70
     0
 40
14.578538724
 41
0.9
 50
0.0
 71
     0
 42
14.578538724
  3
txt.shx
  4
extfont.shx
  0
STYLE
  2
KANJI36
 70
     0
 40
20.0
 41
0.925
 50
0.0
 71
     0
 42
20.0
  3
txt.shx
  4
extfont.shx
  0
STYLE
  2
KANJI37
 70
     0
 40
20.0
 41
0.925
 50
0.0
 71
     0
 42
20.0
  3
txt.shx
  4
extfont.shx
  0
STYLE
  2
KANJI38
 70
     0
 40
8.4
 41
0.9
 50
0.0
 71
     0
 42
8.4
  3
txt.shx
  4
extfont.shx
  0
STYLE
  2
KANJI39
 70
     0
 40
13.475
 41
0.9
 50
0.0
 71
     0
 42
13.475
  3
txt.shx
  4
extfont.shx
  0
STYLE
  2
KANJI40
 70
     0
 40
10.0
 41
0.85
 50
0.0
 71
     0
 42
10.0
  3
txt.shx
  4
extfont.shx
  0
STYLE
  2
KANJI41
 70
     0
 40
10.0
 41
0.75
 50
0.0
 71
     0
 42
10.0
  3
txt.shx
  4
extfont.shx
  0
STYLE
  2
KANJI42
 70
     0
 40
17.5
 41
0.9
 50
0.0
 71
     0
 42
17.5
  3
txt.shx
  4
extfont.shx
  0
STYLE
  2
KANJI43
 70
     0
 40
17.5
 41
0.9
 50
0.0
 71
     0
 42
17.5
  3
txt.shx
  4
extfont.shx
  0
STYLE
  2
KANJI44
 70
     0
 40
17.5
 41
0.9
 50
0.0
 71
     0
 42
17.5
  3
txt.shx
  4
extfont.shx
  0
STYLE
  2
KANJI45
 70
     0
 40
17.5
 41
0.9
 50
0.0
 71
     0
 42
17.5
  3
txt.shx
  4
extfont.shx
  0
STYLE
  2
KANJI46
 70
     0
 40
22.5
 41
0.9
 50
0.0
 71
     0
 42
22.5
  3
txt.shx
  4
extfont.shx
  0
STYLE
  2
KANJI47
 70
     0
 40
17.5
 41
0.9
 50
0.0
 71
     0
 42
17.5
  3
txt.shx
  4
extfont.shx
  0
STYLE
  2
KANJI48
 70
     0
 40
17.5
 41
0.9
 50
0.0
 71
     0
 42
17.5
  3
txt.shx
  4
extfont.shx
  0
STYLE
  2
KANJI49
 70
     0
 40
17.5
 41
0.9
 50
0.0
 71
     0
 42
17.5
  3
txt.shx
  4
extfont.shx
  0
STYLE
  2
KANJI50
 70
     0
 40
17.5
 41
0.9
 50
0.0
 71
     0
 42
17.5
  3
txt.shx
  4
extfont.shx
  0
STYLE
  2
KANJI51
 70
     0
 40
17.5
 41
0.9
 50
0.0
 71
     0
 42
17.5
  3
txt.shx
  4
extfont.shx
  0
STYLE
  2
KANJI52
 70
     4
 40
17.5
 41
0.9
 50
0.0
 71
     0
 42
17.5
  3
txt.shx
  4
extfont.shx
  0
STYLE
  2
KANJI53
 70
     4
 40
15.0
 41
0.9
 50
0.0
 71
     0
 42
15.0
  3
txt.shx
  4
extfont.shx
  0
STYLE
  2
KANJI54
 70
     0
 40
12.5
 41
0.8
 50
0.0
 71
     0
 42
12.5
  3
txt.shx
  4
extfont.shx
  0
STYLE
  2
KANJI55
 70
     0
 40
15.0
 41
0.9
 50
0.0
 71
     0
 42
15.0
  3
txt.shx
  4
extfont.shx
  0
STYLE
  2
KANJI56
 70
     0
 40
15.0
 41
0.857142857
 50
0.0
 71
     0
 42
15.0
  3
txt.shx
  4
extfont.shx
  0
STYLE
  2
KANJI57
 70
     0
 40
17.5
 41
0.9
 50
0.0
 71
     0
 42
17.5
  3
txt.shx
  4
extfont.shx
  0
STYLE
  2
KANJI58
 70
     0
 40
14.0
 41
0.9
 50
0.0
 71
     0
 42
14.0
  3
txt.shx
  4
extfont.shx
  0
STYLE
  2
KANJI59
 70
     0
 40
14.0
 41
0.785714286
 50
0.0
 71
     0
 42
14.0
  3
txt.shx
  4
extfont.shx
  0
STYLE
  2
KANJI60
 70
     0
 40
14.0
 41
0.8
 50
0.0
 71
     0
 42
14.0
  3
txt.shx
  4
extfont.shx
  0
STYLE
  2
KANJI61
 70
     0
 40
17.5
 41
0.9
 50
0.0
 71
     0
 42
17.5
  3
txt.shx
  4
extfont.shx
  0
STYLE
  2
KANJI62
 70
     0
 40
15.0
 41
0.8
 50
0.0
 71
     0
 42
15.0
  3
txt.shx
  4
extfont.shx
  0
STYLE
  2
KANJI63
 70
     0
 40
15.0
 41
0.9
 50
0.0
 71
     0
 42
15.0
  3
txt.shx
  4
extfont.shx
  0
STYLE
  2
KANJI64
 70
     0
 40
17.5
 41
0.9
 50
0.0
 71
     0
 42
17.5
  3
txt.shx
  4
extfont.shx
  0
STYLE
  2
KANJI65
 70
     0
 40
15.0
 41
0.833333333
 50
0.0
 71
     0
 42
15.0
  3
txt.shx
  4
extfont.shx
  0
STYLE
  2
KANJI66
 70
     0
 40
17.5
 41
0.9
 50
0.0
 71
     0
 42
17.5
  3
txt.shx
  4
extfont.shx
  0
STYLE
  2
KANJI67
 70
     0
 40
15.0
 41
0.766666667
 50
0.0
 71
     0
 42
15.0
  3
txt.shx
  4
extfont.shx
  0
STYLE
  2
KANJI68
 70
     0
 40
17.5
 41
0.571428571
 50
0.0
 71
     0
 42
17.5
  3
txt.shx
  4
extfont.shx
  0
ENDTAB
  0
TABLE
  2
VIEW
 70
     0
  0
ENDTAB
  0
ENDSEC
  0
SECTION
  2
BLOCKS
  0
ENDSEC
  0
SECTION
  2
ENTITIES
  0
LINE
  8
0
  6
CONTINUOUS
 62
     6
 10
67.25
 20
1405.0
 30
0.0
 11
2002.25
 21
1405.0
 31
0.0
  0
LINE
  8
0
  6
CONTINUOUS
 62
     6
 10
2002.25
 20
1405.0
 30
0.0
 11
2002.25
 21
60.0
 31
0.0
  0
LINE
  8
0
  6
CONTINUOUS
 62
     6
 10
2002.25
 20
60.0
 30
0.0
 11
67.25
 21
60.0
 31
0.0
  0
LINE
  8
0
  6
CONTINUOUS
 62
     4
 10
1330.583385
 20
98.999997
 30
0.0
 11
1488.7500395
 21
98.999997
 31
0.0
  0
TEXT
  8
0
  6
CONTINUOUS
 62
     4
 10
1339.250051
 20
83.8333315
 30
0.8666666
 40
8.666666
  1
ＳＣＡＬＥ
 50
0.0
 41
0.6
 51
0.0
  7
KANJI0
  0
TEXT
  8
0
  6
CONTINUOUS
 62
     4
 10
1339.250051
 20
118.4999955
 30
0.8666666
 40
8.666666
  1
ＤＡＴＥ
 50
0.0
 41
0.6
 51
0.0
  7
KANJI0
  0
TEXT
  8
0
  6
CONTINUOUS
 62
     4
 10
1339.250051
 20
70.8333325
 30
1.03999992
 40
10.3999992
  1
尺度
 50
0.0
 41
0.6
 51
0.0
  7
KANJI1
  0
TEXT
  8
0
  6
CONTINUOUS
 62
     4
 10
1339.250051
 20
105.4999965
 30
1.03999992
 40
10.3999992
  1
日付
 50
0.0
 41
0.6
 51
0.0
  7
KANJI1
  0
LINE
  8
0
  6
CONTINUOUS
 62
     4
 10
1488.7500395
 20
118.4999955
 30
0.0
 11
1997.916667
 21
118.4999955
 31
0.0
  0
LINE
  8
0
  6
LTYPE1
 62
     4
 10
1852.7500115
 20
124.999995
 30
0.0
 11
1852.7500115
 21
159.666659
 31
0.0
  0
LINE
  8
0
  6
LTYPE1
 62
     4
 10
1822.4166805
 20
124.999995
 30
0.0
 11
1822.4166805
 21
159.666659
 31
0.0
  0
LINE
  8
0
  6
LTYPE1
 62
     4
 10
1792.0833495
 20
124.999995
 30
0.0
 11
1792.0833495
 21
159.666659
 31
0.0
  0
LINE
  8
0
  6
LTYPE1
 62
     4
 10
1761.7500185
 20
124.999995
 30
0.0
 11
1761.7500185
 21
159.666659
 31
0.0
  0
LINE
  8
0
  6
LTYPE1
 62
     4
 10
1731.4166875
 20
124.999995
 30
0.0
 11
1731.4166875
 21
159.666659
 31
0.0
  0
LINE
  8
0
  6
LTYPE1
 62
     4
 10
1701.0833565
 20
124.999995
 30
0.0
 11
1701.0833565
 21
159.666659
 31
0.0
  0
LINE
  8
0
  6
LTYPE1
 62
     4
 10
1670.7500255
 20
124.999995
 30
0.0
 11
1670.7500255
 21
159.666659
 31
0.0
  0
LINE
  8
0
  6
LTYPE1
 62
     4
 10
1640.4166945
 20
124.999995
 30
0.0
 11
1640.4166945
 21
159.666659
 31
0.0
  0
LINE
  8
0
  6
LTYPE1
 62
     4
 10
1640.4166945
 20
124.999995
 30
0.0
 11
1852.7500115
 21
124.999995
 31
0.0
  0
LINE
  8
0
  6
CONTINUOUS
 62
     6
 10
988.250078
 20
98.999997
 30
0.0
 11
1330.583385
 21
98.999997
 31
0.0
  0
LINE
  8
0
  6
CONTINUOUS
 62
     6
 10
988.250078
 20
64.333333
 30
0.0
 11
1997.916667
 21
64.333333
 31
0.0
  0
TEXT
  8
0
  6
CONTINUOUS
 62
     6
 10
1493.0833725
 20
83.8333315
 30
0.0
 40
15.1666655
  1
ＵＮＩＴＥＣ　ＩＮＤＵＳＴＲＹ　ＣＯ．，ＬＴＤ．
 50
0.0
 41
0.42031746
 51
0.0
  7
KANJI2
  0
TEXT
  8
0
  6
CONTINUOUS
 62
     6
 10
1705.795856138
 20
78.1999986
 30
2.5999998
 40
25.999998
  1
ユニテック工業株式会社
 50
0.0
 41
0.9
 51
0.0
  7
KANJI3
  0
LINE
  8
0
  6
CONTINUOUS
 62
     6
 10
1330.583385
 20
64.333333
 30
0.0
 11
1330.583385
 21
341.666645
 31
0.0
  0
LINE
  8
0
  6
CONTINUOUS
 62
     6
 10
1997.916667
 20
64.333333
 30
0.0
 11
1997.916667
 21
341.666645
 31
0.0
  0
LINE
  8
0
  6
CONTINUOUS
 62
     4
 10
1488.7500395
 20
64.333333
 30
0.0
 11
1488.7500395
 21
341.666645
 31
0.0
  0
LINE
  8
0
  6
CONTINUOUS
 62
     6
 10
1671.129192138
 20
87.2999979
 30
0.0
 11
1659.689193018
 21
87.2999979
 31
0.0
  0
LINE
  8
0
  6
CONTINUOUS
 62
     6
 10
1671.129192138
 20
89.37999774
 30
0.0
 11
1659.689193018
 21
89.37999774
 31
0.0
  0
LINE
  8
0
  6
CONTINUOUS
 62
     6
 10
1671.129192138
 20
87.2999979
 30
0.0
 11
1682.569191258
 21
87.2999979
 31
0.0
  0
LINE
  8
0
  6
CONTINUOUS
 62
     6
 10
1671.129192138
 20
89.37999774
 30
0.0
 11
1682.569191258
 21
89.37999774
 31
0.0
  0
LINE
  8
0
  6
CONTINUOUS
 62
     6
 10
1682.569191258
 20
89.37999774
 30
0.0
 11
1682.569191258
 21
87.2999979
 31
0.0
  0
ARC
  8
0
  6
CONTINUOUS
 62
     6
 10
1685.169191058
 20
88.33999782
 30
0.0
 40
10.3999992
 50
185.739170477
 51
90.0
  0
ARC
  8
0
  6
CONTINUOUS
 62
     6
 10
1685.169191058
 20
88.33999782
 30
0.0
 40
12.47999904
 50
184.780191847
 51
90.0
  0
LINE
  8
0
  6
CONTINUOUS
 62
     6
 10
1659.689193018
 20
87.2999979
 30
0.0
 11
1659.689193018
 21
89.37999774
 31
0.0
  0
LINE
  8
0
  6
CONTINUOUS
 62
     6
 10
1669.569192258
 20
100.81999686
 30
0.0
 11
1657.089193218
 21
100.81999686
 31
0.0
  0
LINE
  8
0
  6
CONTINUOUS
 62
     6
 10
1672.689192018
 20
100.81999686
 30
0.0
 11
1685.169191058
 21
100.81999686
 31
0.0
  0
ARC
  8
0
  6
CONTINUOUS
 62
     6
 10
1657.089193218
 20
88.33999782
 30
0.0
 40
10.3999992
 50
90.0
 51
354.260829523
  0
ARC
  8
0
  6
CONTINUOUS
 62
     6
 10
1657.089193218
 20
88.33999782
 30
0.0
 40
12.47999904
 50
90.0
 51
355.219808153
  0
LINE
  8
0
  6
CONTINUOUS
 62
     6
 10
1669.569192258
 20
100.81999686
 30
0.0
 11
1669.569192258
 21
98.73999702
 31
0.0
  0
LINE
  8
0
  6
CONTINUOUS
 62
     6
 10
1657.089193218
 20
98.73999702
 30
0.0
 11
1669.569192258
 21
98.73999702
 31
0.0
  0
LINE
  8
0
  6
CONTINUOUS
 62
     6
 10
1672.689192018
 20
100.81999686
 30
0.0
 11
1672.689192018
 21
98.73999702
 31
0.0
  0
LINE
  8
0
  6
CONTINUOUS
 62
     6
 10
1685.169191058
 20
98.73999702
 30
0.0
 11
1672.689192018
 21
98.73999702
 31
0.0
  0
TEXT
  8
0
  6
CONTINUOUS
 62
     4
 10
1339.250051
 20
153.1666595
 30
0.8666666
 40
8.666666
  1
ＤＲＡＷＮ
 50
0.0
 41
0.6
 51
0.0
  7
KANJI0
  0
TEXT
  8
0
  6
CONTINUOUS
 62
     4
 10
1339.250051
 20
187.8333235
 30
0.8666666
 40
8.666666
  1
ＤＥＳＩＧＮ
 50
0.0
 41
0.6
 51
0.0
  7
KANJI0
  0
TEXT
  8
0
  6
CONTINUOUS
 62
     4
 10
1339.250051
 20
222.4999875
 30
0.8666666
 40
8.666666
  1
ＣＨＥＣＫ
 50
0.0
 41
0.6
 51
0.0
  7
KANJI0
  0
TEXT
  8
0
  6
CONTINUOUS
 62
     4
 10
1339.250051
 20
257.1666515
 30
0.8666666
 40
8.666666
  1
ＣＯＤＥ
 50
0.0
 41
0.6
 51
0.0
  7
KANJI0
  0
LINE
  8
0
  6
CONTINUOUS
 62
     4
 10
1330.583385
 20
202.999989
 30
0.0
 11
1488.7500395
 21
202.999989
 31
0.0
  0
LINE
  8
0
  6
CONTINUOUS
 62
     4
 10
1330.583385
 20
168.333325
 30
0.0
 11
1488.7500395
 21
168.333325
 31
0.0
  0
LINE
  8
0
  6
CONTINUOUS
 62
     4
 10
1330.583385
 20
237.666653
 30
0.0
 11
1488.7500395
 21
237.666653
 31
0.0
  0
LINE
  8
0
  6
CONTINUOUS
 62
     4
 10
1330.583385
 20
272.333317
 30
0.0
 11
1997.916667
 21
272.333317
 31
0.0
  0
TEXT
  8
0
  6
CONTINUOUS
 62
     4
 10
1339.250051
 20
174.8333245
 30
1.03999992
 40
10.3999992
  1
設計
 50
0.0
 41
0.6
 51
0.0
  7
KANJI1
  0
TEXT
  8
0
  6
CONTINUOUS
 62
     4
 10
1339.250051
 20
209.4999885
 30
1.03999992
 40
10.3999992
  1
検図
 50
0.0
 41
0.6
 51
0.0
  7
KANJI1
  0
TEXT
  8
0
  6
CONTINUOUS
 62
     4
 10
1339.250051
 20
244.1666525
 30
1.03999992
 40
10.3999992
  1
分類
 50
0.0
 41
0.6
 51
0.0
  7
KANJI1
  0
LINE
  8
0
  6
CONTINUOUS
 62
     4
 10
1501.53337185
 20
237.666653
 30
0.0
 11
1997.916667
 21
237.666653
 31
0.0
  0
LINE
  8
0
  6
CONTINUOUS
 62
     4
 10
1488.7500395
 20
168.333325
 30
0.0
 11
1997.916667
 21
168.333325
 31
0.0
  0
TEXT
  8
0
  6
CONTINUOUS
 62
     4
 10
1497.4167055
 20
153.1666595
 30
0.8666666
 40
8.666666
  1
ＤＲＡＷＩＮＧ　ＮＯ．
 50
0.0
 41
0.8
 51
0.0
  7
KANJI4
  0
TEXT
  8
0
  6
CONTINUOUS
 62
     4
 10
1497.4167055
 20
187.8333235
 30
0.8666666
 40
8.666666
  1
ＭＦＧ　ＮＯ．
 50
0.0
 41
0.8
 51
0.0
  7
KANJI4
  0
TEXT
  8
0
  6
CONTINUOUS
 62
     4
 10
1497.4167055
 20
222.4999875
 30
0.8666666
 40
8.666666
  1
ＴＹＰＥ
 50
0.0
 41
0.8
 51
0.0
  7
KANJI4
  0
LINE
  8
0
  6
CONTINUOUS
 62
     4
 10
1501.7500385
 20
202.999989
 30
0.0
 11
1701.0833565
 21
202.999989
 31
0.0
  0
TEXT
  8
0
  6
CONTINUOUS
 62
     4
 10
1497.4167055
 20
137.999994
 30
1.03999992
 40
10.3999992
  1
図　面　番　号
 50
0.0
 41
0.8
 51
0.0
  7
KANJI5
  0
TEXT
  8
0
  6
CONTINUOUS
 62
     4
 10
1497.4167055
 20
172.666658
 30
1.03999992
 40
10.3999992
  1
製番
 50
0.0
 41
0.8
 51
0.0
  7
KANJI5
  0
TEXT
  8
0
  6
CONTINUOUS
 62
     4
 10
1497.4167055
 20
207.333322
 30
1.03999992
 40
10.3999992
  1
機種
 50
0.0
 41
0.8
 51
0.0
  7
KANJI5
  0
LINE
  8
0
  6
CONTINUOUS
 62
     4
 10
1330.583385
 20
133.666661
 30
0.0
 11
1488.7500395
 21
133.666661
 31
0.0
  0
TEXT
  8
0
  6
CONTINUOUS
 62
     4
 10
1339.250051
 20
140.1666605
 30
1.03999992
 40
10.3999992
  1
作図
 50
0.0
 41
0.6
 51
0.0
  7
KANJI1
  0
LINE
  8
0
  6
LTYPE1
 62
     4
 10
1640.4166945
 20
159.666659
 30
0.0
 11
1852.7500115
 21
159.666659
 31
0.0
  0
LINE
  8
0
  6
CONTINUOUS
 62
     4
 10
1870.0833435
 20
143.41666025
 30
0.0
 11
1878.7500095
 21
143.41666025
 31
0.0
  0
LINE
  8
0
  6
CONTINUOUS
 62
     4
 10
1924.250006
 20
130.41666125
 30
0.0
 11
1893.916675
 21
130.41666125
 31
0.0
  0
LINE
  8
0
  6
CONTINUOUS
 62
     4
 10
1893.916675
 20
130.41666125
 30
0.0
 11
1909.0833405
 21
156.41665925
 31
0.0
  0
LINE
  8
0
  6
CONTINUOUS
 62
     4
 10
1909.0833405
 20
156.41665925
 30
0.0
 11
1924.250006
 21
130.41666125
 31
0.0
  0
LINE
  8
0
  6
CONTINUOUS
 62
     4
 10
1997.916667
 20
306.999981
 30
0.0
 11
1997.916667
 21
341.666645
 31
0.0
  0
TEXT
  8
0
  6
CONTINUOUS
 62
     4
 10
1714.0833555
 20
222.4999875
 30
0.8666666
 40
8.666666
  1
ＴＩＴＬＥ
 50
0.0
 41
0.8
 51
0.0
  7
KANJI4
  0
TEXT
  8
0
  6
CONTINUOUS
 62
     4
 10
1714.0833555
 20
207.333322
 30
1.03999992
 40
10.3999992
  1
名称
 50
0.0
 41
0.8
 51
0.0
  7
KANJI5
  0
TEXT
  8
0
  6
CONTINUOUS
 62
     2
 10
1784.75
 20
175.0
 30
12.5
 40
25.0
  1
外形寸法図
 50
0.0
 41
1.0
 51
0.0
  7
KANJI6
  0
TEXT
  8
0
  6
CONTINUOUS
 62
     2
 10
1754.75
 20
205.0
 30
3.571428571
 40
25.0
  1
マイティシリンダ
 50
0.0
 41
1.0
 51
0.0
  7
KANJI7
  0
TEXT
  8
0
  6
CONTINUOUS
 62
     2
 10
1614.1666945
 20
129.999995
 30
1.5
 40
25.0
  1
Ａ
 50
0.0
 41
0.8
 51
0.0
  7
KANJI8
  0
CIRCLE
  8
0
  6
CONTINUOUS
 62
     2
 10
1581.6666945
 20
183.749995
 30
0.0
 40
12.5
  0
TEXT
  8
0
  6
CONTINUOUS
 62
     2
 10
1572.2916945
 20
174.374995
 30
1.5
 40
20.0
  1
Ｓ
 50
0.0
 41
1.0
 51
0.0
  7
KANJI9
  0
LINE
  8
0
  6
CONTINUOUS
 62
     6
 10
1331.208385
 20
306.999981
 30
0.0
 11
1998.541667
 21
306.999981
 31
0.0
  0
LINE
  8
0
  6
CONTINUOUS
 62
     6
 10
1330.583385
 20
341.666645
 30
0.0
 11
1997.916667
 21
341.666645
 31
0.0
  0
TEXT
  8
0
  6
CONTINUOUS
 62
     4
 10
1346.0
 20
312.166664
 30
5.0
 40
18.0
  1
ご用途
 50
0.0
 41
1.111111111
 51
0.0
  7
KANJI10
  0
TEXT
  8
0
  6
CONTINUOUS
 62
     4
 10
1346.0
 20
277.5
 30
5.0
 40
18.0
  1
ご注文主
 50
0.0
 41
1.111111111
 51
0.0
  7
KANJI10
  0
TEXT
  8
0
  6
CONTINUOUS
 62
     2
 10
1386.4166945
 20
142.499995
 30
5.0
 40
17.5
  1
岡田
 50
0.0
 41
0.857142857
 51
0.0
  7
KANJI11
  0
TEXT
  8
0
  6
CONTINUOUS
 62
     2
 10
1422.25
 20
70.0
 30
1.5
 40
22.5
  1
１／５
 50
0.0
 41
0.666666667
 51
0.0
  7
KANJI12
  0
TEXT
  8
0
  6
CONTINUOUS
 62
     4
 10
1098.7500695
 20
83.8333315
 30
0.8666666
 40
8.666666
  1
ＢＹ
 50
0.0
 41
0.6
 51
0.0
  7
KANJI0
  0
TEXT
  8
0
  6
CONTINUOUS
 62
     4
 10
1194.0833955
 20
83.8333315
 30
0.8666666
 40
8.666666
  1
ＤＥＳＣＲＩＰＴＩＯＮ
 50
0.0
 41
0.6
 51
0.0
  7
KANJI0
  0
TEXT
  8
0
  6
CONTINUOUS
 62
     4
 10
1098.7500695
 20
70.8333325
 30
1.03999992
 40
10.3999992
  1
担当
 50
0.0
 41
0.6
 51
0.0
  7
KANJI1
  0
TEXT
  8
0
  6
CONTINUOUS
 62
     4
 10
1207.0833945
 20
70.8333325
 30
1.03999992
 40
10.3999992
  1
記　　　　事
 50
0.0
 41
0.6
 51
0.0
  7
KANJI1
  0
LINE
  8
0
  6
CONTINUOUS
 62
     4
 10
1006.66674325
 20
92.4999975
 30
0.0
 11
992.583411
 21
70.8333325
 31
0.0
  0
TEXT
  8
0
  6
CONTINUOUS
 62
     4
 10
1042.4167405
 20
83.8333315
 30
0.8666666
 40
8.666666
  1
ＤＡＴＥ
 50
0.0
 41
0.6
 51
0.0
  7
KANJI0
  0
TEXT
  8
0
  6
CONTINUOUS
 62
     4
 10
1048.91674
 20
70.8333325
 30
1.03999992
 40
10.3999992
  1
日付
 50
0.0
 41
0.6
 51
0.0
  7
KANJI1
  0
LINE
  8
0
  6
CONTINUOUS
 62
     4
 10
992.583411
 20
70.8333325
 30
0.0
 11
1020.7500755
 21
70.8333325
 31
0.0
  0
LINE
  8
0
  6
CONTINUOUS
 62
     4
 10
1006.66674325
 20
92.4999975
 30
0.0
 11
1020.7500755
 21
70.8333325
 31
0.0
  0
LINE
  8
0
  6
CONTINUOUS
 62
     6
 10
988.250078
 20
64.333333
 30
0.0
 11
988.250078
 21
98.999997
 31
0.0
  0
LINE
  8
0
  6
CONTINUOUS
 62
     4
 10
1025.0834085
 20
64.333333
 30
0.0
 11
1025.0834085
 21
98.999997
 31
0.0
  0
LINE
  8
0
  6
CONTINUOUS
 62
     4
 10
1085.7500705
 20
64.333333
 30
0.0
 11
1085.7500705
 21
98.999997
 31
0.0
  0
LINE
  8
0
  6
CONTINUOUS
 62
     4
 10
1124.7500675
 20
64.333333
 30
0.0
 11
1124.7500675
 21
98.999997
 31
0.0
  0
LINE
  8
0
  6
CONTINUOUS
 62
     6
 10
67.25
 20
60.0
 30
0.0
 11
67.25
 21
1405.0
 31
0.0
  0
TEXT
  8
0
  6
CONTINUOUS
 62
     4
 10
82.249996846
 20
84.999994744
 30
0.99999979
 40
9.999997897
  1
ＰＡＲＴＳ　ＬＩＳＴ
 50
0.0
 41
0.6
 51
0.0
  7
KANJI13
  0
TEXT
  8
0
  6
CONTINUOUS
 62
     4
 10
82.249996846
 20
69.999997897
 30
1.199999748
 40
11.999997477
  1
部品表
 50
0.0
 41
0.9
 51
0.0
  7
KANJI14
  0
LINE
  8
0
  6
CONTINUOUS
 62
     6
 10
72.249998949
 20
134.999984231
 30
0.0
 11
397.249930615
 21
134.999984231
 31
0.0
  0
LINE
  8
0
  6
CONTINUOUS
 62
     6
 10
72.249998949
 20
64.999998949
 30
0.0
 11
397.249930615
 21
64.999998949
 31
0.0
  0
LINE
  8
0
  6
CONTINUOUS
 62
     6
 10
72.249998949
 20
64.999998949
 30
0.0
 11
72.249998949
 21
134.999984231
 31
0.0
  0
LINE
  8
0
  6
CONTINUOUS
 62
     6
 10
72.249998949
 20
99.99999159
 30
0.0
 11
397.249930615
 21
99.99999159
 31
0.0
  0
TEXT
  8
0
  6
CONTINUOUS
 62
     2
 10
82.249996846
 20
109.999989487
 30
1.499999685
 40
14.999996846
  1
ＰＬ
 50
0.0
 41
0.9
 51
0.0
  7
KANJI15
  0
LINE
  8
0
  6
CONTINUOUS
 62
     4
 10
10.333333
 20
64.333333
 30
0.0
 11
62.333329
 21
64.333333
 31
0.0
  0
LINE
  8
0
  6
CONTINUOUS
 62
     4
 10
10.333333
 20
90.333331
 30
0.0
 11
62.333329
 21
90.333331
 31
0.0
  0
LINE
  8
0
  6
CONTINUOUS
 62
     4
 10
10.333333
 20
116.333329
 30
0.0
 11
62.333329
 21
116.333329
 31
0.0
  0
LINE
  8
0
  6
CONTINUOUS
 62
     4
 10
10.333333
 20
142.333327
 30
0.0
 11
62.333329
 21
142.333327
 31
0.0
  0
LINE
  8
0
  6
CONTINUOUS
 62
     4
 10
10.333333
 20
168.333325
 30
0.0
 11
62.333329
 21
168.333325
 31
0.0
  0
LINE
  8
0
  6
CONTINUOUS
 62
     4
 10
10.333333
 20
194.333323
 30
0.0
 11
62.333329
 21
194.333323
 31
0.0
  0
LINE
  8
0
  6
CONTINUOUS
 62
     4
 10
10.333333
 20
220.333321
 30
0.0
 11
62.333329
 21
220.333321
 31
0.0
  0
LINE
  8
0
  6
CONTINUOUS
 62
     4
 10
10.333333
 20
246.333319
 30
0.0
 11
62.333329
 21
246.333319
 31
0.0
  0
LINE
  8
0
  6
CONTINUOUS
 62
     4
 10
10.333333
 20
272.333317
 30
0.0
 11
62.333329
 21
272.333317
 31
0.0
  0
LINE
  8
0
  6
CONTINUOUS
 62
     4
 10
10.333333
 20
298.333315
 30
0.0
 11
62.333329
 21
298.333315
 31
0.0
  0
LINE
  8
0
  6
CONTINUOUS
 62
     4
 10
62.333329
 20
64.333333
 30
0.0
 11
62.333329
 21
298.333315
 31
0.0
  0
LINE
  8
0
  6
CONTINUOUS
 62
     4
 10
36.333331
 20
64.333333
 30
0.0
 11
36.333331
 21
272.333317
 31
0.0
  0
TEXT
  8
0
  6
CONTINUOUS
 62
     4
 10
19.21666565
 20
71.91666575
 30
1.2999999
 40
12.999999
  1
計
 50
0.0
 41
0.75
 51
0.0
  7
KANJI16
  0
TEXT
  8
0
  6
CONTINUOUS
 62
     4
 10
19.21666565
 20
124.34999505
 30
1.2999999
 40
12.999999
  1
設
 50
0.0
 41
0.75
 51
0.0
  7
KANJI16
  0
TEXT
  8
0
  6
CONTINUOUS
 62
     4
 10
19.21666565
 20
149.91665975
 30
1.2999999
 40
12.999999
  1
管
 50
0.0
 41
0.75
 51
0.0
  7
KANJI16
  0
TEXT
  8
0
  6
CONTINUOUS
 62
     4
 10
19.21666565
 20
175.91665775
 30
1.2999999
 40
12.999999
  1
製
 50
0.0
 41
0.75
 51
0.0
  7
KANJI16
  0
TEXT
  8
0
  6
CONTINUOUS
 62
     4
 10
19.21666565
 20
201.91665575
 30
1.2999999
 40
12.999999
  1
資
 50
0.0
 41
0.75
 51
0.0
  7
KANJI16
  0
TEXT
  8
0
  6
CONTINUOUS
 62
     4
 10
19.21666565
 20
227.91665375
 30
1.2999999
 40
12.999999
  1
営
 50
0.0
 41
0.75
 51
0.0
  7
KANJI16
  0
TEXT
  8
0
  6
CONTINUOUS
 62
     4
 10
19.21666565
 20
253.91665175
 30
1.2999999
 40
12.999999
  1
客
 50
0.0
 41
0.75
 51
0.0
  7
KANJI16
  0
TEXT
  8
0
  6
CONTINUOUS
 62
     4
 10
18.999999
 20
280.999983
 30
1.2999999
 40
12.999999
  1
出　図
 50
0.0
 41
0.75
 51
0.0
  7
KANJI16
  0
LINE
  8
0
  6
CONTINUOUS
 62
     4
 10
10.333333
 20
64.333333
 30
0.0
 11
10.333333
 21
298.333315
 31
0.0
  0
TEXT
  8
0
  6
CONTINUOUS
 62
     4
 10
307.249949538
 20
84.999994744
 30
0.99999979
 40
9.999997897
  1
Ｎ０．
 50
0.0
 41
0.6
 51
0.0
  7
KANJI13
  0
TEXT
  8
0
  6
CONTINUOUS
 62
     4
 10
307.249949538
 20
69.999997897
 30
1.199999748
 40
11.999997477
  1
項番
 50
0.0
 41
0.9
 51
0.0
  7
KANJI14
  0
LINE
  8
0
  6
CONTINUOUS
 62
     6
 10
397.249930615
 20
64.999998949
 30
0.0
 11
397.249930615
 21
134.999984231
 31
0.0
  0
LINE
  8
0
  6
CONTINUOUS
 62
     6
 10
297.249951641
 20
64.999998949
 30
0.0
 11
297.249951641
 21
134.999984231
 31
0.0
  0
LINE
  8
0
  6
CONTINUOUS
 62
     1
 10
848.25
 20
1242.95
 30
0.0
 11
1496.25
 21
1242.95
 31
0.0
  0
LINE
  8
0
  6
CONTINUOUS
 62
     1
 10
848.25
 20
1214.95
 30
0.0
 11
1496.25
 21
1214.95
 31
0.0
  0
TEXT
  8
0
  6
CONTINUOUS
 62
     2
 10
888.25
 20
1222.95
 30
1.28
 40
12.8
  1
形
 50
0.0
 41
0.9
 51
0.0
  7
KANJI17
  0
TEXT
  8
0
  6
CONTINUOUS
 62
     2
 10
966.25
 20
1222.95
 30
1.28
 40
12.8
  1
式
 50
0.0
 41
0.9
 51
0.0
  7
KANJI17
  0
TEXT
  8
0
  6
CONTINUOUS
 62
     2
 10
1026.65
 20
1222.15
 30
1.2
 40
12.0
  1
ストローク
 50
0.0
 41
0.9
 51
0.0
  7
KANJI18
  0
TEXT
  8
0
  6
CONTINUOUS
 62
     2
 10
1103.45
 20
1221.35
 30
0.0
 40
12.0
  1
ｍｉｎ　
 50
0.0
 41
0.9
 51
0.0
  7
KANJI19
  0
TEXT
  8
0
  6
CONTINUOUS
 62
     2
 10
1183.45
 20
1221.35
 30
0.0
 40
12.0
  1
ｍｉｎ　
 50
0.0
 41
0.9
 51
0.0
  7
KANJI19
  0
TEXT
  8
0
  6
CONTINUOUS
 62
     2
 10
1343.45
 20
1221.35
 30
0.0
 40
12.0
  1
ｍｉｎ　
 50
0.0
 41
0.9
 51
0.0
  7
KANJI19
  0
TEXT
  8
0
  6
CONTINUOUS
 62
     2
 10
1144.25
 20
1222.15
 30
1.4
 40
14.0
  1
ＡＬ
 50
0.0
 41
0.9
 51
0.0
  7
KANJI20
  0
TEXT
  8
0
  6
CONTINUOUS
 62
     2
 10
1224.25
 20
1222.15
 30
1.4
 40
14.0
  1
Ｌ
 50
0.0
 41
0.9
 51
0.0
  7
KANJI20
  0
TEXT
  8
0
  6
CONTINUOUS
 62
     2
 10
1292.25
 20
1222.15
 30
1.4
 40
14.0
  1
Ｃ
 50
0.0
 41
0.9
 51
0.0
  7
KANJI20
  0
TEXT
  8
0
  6
CONTINUOUS
 62
     2
 10
1384.25
 20
1222.15
 30
1.4
 40
14.0
  1
Ｐ
 50
0.0
 41
0.9
 51
0.0
  7
KANJI20
  0
TEXT
  8
0
  6
CONTINUOUS
 62
     2
 10
1466.55
 20
1221.85
 30
0.0
 40
10.8
  1
（ｋｇ）
 50
0.0
 41
0.740740741
 51
0.0
  7
KANJI21
  0
TEXT
  8
0
  6
CONTINUOUS
 62
     2
 10
1418.55
 20
1221.65
 30
1.2
 40
14.0
  1
概算重量
 50
0.0
 41
0.857142857
 51
0.0
  7
KANJI22
  0
TEXT
  8
0
  6
CONTINUOUS
 62
     2
 10
1034.25
 20
1193.65
 30
1.2
 40
12.0
  1
　１００
 50
0.0
 41
0.9
 51
0.0
  7
KANJI18
  0
TEXT
  8
0
  6
CONTINUOUS
 62
     2
 10
1034.25
 20
1165.65
 30
1.2
 40
12.0
  1
　２００
 50
0.0
 41
0.9
 51
0.0
  7
KANJI18
  0
TEXT
  8
0
  6
CONTINUOUS
 62
     2
 10
1034.25
 20
1137.65
 30
1.2
 40
12.0
  1
　３００
 50
0.0
 41
0.9
 51
0.0
  7
KANJI18
  0
TEXT
  8
0
  6
CONTINUOUS
 62
     2
 10
1354.25
 20
1137.65
 30
1.2
 40
12.0
  1
　　３５
 50
0.0
 41
0.9
 51
0.0
  7
KANJI18
  0
TEXT
  8
0
  6
CONTINUOUS
 62
     2
 10
1354.25
 20
1165.65
 30
1.2
 40
12.0
  1
　　３５
 50
0.0
 41
0.9
 51
0.0
  7
KANJI18
  0
TEXT
  8
0
  6
CONTINUOUS
 62
     2
 10
1354.25
 20
1193.65
 30
1.2
 40
12.0
  1
　　３５
 50
0.0
 41
0.9
 51
0.0
  7
KANJI18
  0
TEXT
  8
0
  6
CONTINUOUS
 62
     2
 10
1034.25
 20
1025.65
 30
1.2
 40
12.0
  1
　７００
 50
0.0
 41
0.9
 51
0.0
  7
KANJI18
  0
TEXT
  8
0
  6
CONTINUOUS
 62
     2
 10
1034.25
 20
1081.65
 30
1.2
 40
12.0
  1
　５００
 50
0.0
 41
0.9
 51
0.0
  7
KANJI18
  0
TEXT
  8
0
  6
CONTINUOUS
 62
     2
 10
1034.25
 20
1109.65
 30
1.2
 40
12.0
  1
　４００
 50
0.0
 41
0.9
 51
0.0
  7
KANJI18
  0
TEXT
  8
0
  6
CONTINUOUS
 62
     2
 10
1034.25
 20
1053.65
 30
1.2
 40
12.0
  1
　６００
 50
0.0
 41
0.9
 51
0.0
  7
KANJI18
  0
TEXT
  8
0
  6
CONTINUOUS
 62
     2
 10
1274.25
 20
1193.65
 30
1.2
 40
12.0
  1
　１９８
 50
0.0
 41
0.9
 51
0.0
  7
KANJI18
  0
TEXT
  8
0
  6
CONTINUOUS
 62
     2
 10
1274.25
 20
1165.65
 30
1.2
 40
12.0
  1
　２９８
 50
0.0
 41
0.9
 51
0.0
  7
KANJI18
  0
TEXT
  8
0
  6
CONTINUOUS
 62
     2
 10
1274.25
 20
1137.65
 30
1.2
 40
12.0
  1
　３９８
 50
0.0
 41
0.9
 51
0.0
  7
KANJI18
  0
TEXT
  8
0
  6
CONTINUOUS
 62
     2
 10
1274.25
 20
1109.65
 30
1.2
 40
12.0
  1
　４９８
 50
0.0
 41
0.9
 51
0.0
  7
KANJI18
  0
TEXT
  8
0
  6
CONTINUOUS
 62
     2
 10
1274.25
 20
1081.65
 30
1.2
 40
12.0
  1
　５９８
 50
0.0
 41
0.9
 51
0.0
  7
KANJI18
  0
TEXT
  8
0
  6
CONTINUOUS
 62
     2
 10
1274.25
 20
1053.65
 30
1.2
 40
12.0
  1
　７３８
 50
0.0
 41
0.9
 51
0.0
  7
KANJI18
  0
TEXT
  8
0
  6
CONTINUOUS
 62
     2
 10
1274.25
 20
1025.65
 30
1.2
 40
12.0
  1
　８３８
 50
0.0
 41
0.9
 51
0.0
  7
KANJI18
  0
TEXT
  8
0
  6
CONTINUOUS
 62
     2
 10
1194.25
 20
1193.65
 30
1.2
 40
12.0
  1
　２６８
 50
0.0
 41
0.9
 51
0.0
  7
KANJI18
  0
TEXT
  8
0
  6
CONTINUOUS
 62
     2
 10
1194.25
 20
1165.65
 30
1.2
 40
12.0
  1
　３６８
 50
0.0
 41
0.9
 51
0.0
  7
KANJI18
  0
TEXT
  8
0
  6
CONTINUOUS
 62
     2
 10
1194.25
 20
1137.65
 30
1.2
 40
12.0
  1
　４６８
 50
0.0
 41
0.9
 51
0.0
  7
KANJI18
  0
TEXT
  8
0
  6
CONTINUOUS
 62
     2
 10
1354.25
 20
1109.65
 30
1.2
 40
12.0
  1
　　８５
 50
0.0
 41
0.9
 51
0.0
  7
KANJI18
  0
TEXT
  8
0
  6
CONTINUOUS
 62
     2
 10
1354.25
 20
1081.65
 30
1.2
 40
12.0
  1
　１１２
 50
0.0
 41
0.9
 51
0.0
  7
KANJI18
  0
TEXT
  8
0
  6
CONTINUOUS
 62
     2
 10
1354.25
 20
1053.65
 30
1.2
 40
12.0
  1
　１２８
 50
0.0
 41
0.9
 51
0.0
  7
KANJI18
  0
TEXT
  8
0
  6
CONTINUOUS
 62
     2
 10
1354.25
 20
1025.65
 30
1.2
 40
12.0
  1
　１４８
 50
0.0
 41
0.9
 51
0.0
  7
KANJI18
  0
TEXT
  8
0
  6
CONTINUOUS
 62
     2
 10
1194.25
 20
1109.65
 30
1.2
 40
12.0
  1
　６１８
 50
0.0
 41
0.9
 51
0.0
  7
KANJI18
  0
TEXT
  8
0
  6
CONTINUOUS
 62
     2
 10
1194.25
 20
1081.65
 30
1.2
 40
12.0
  1
　７４５
 50
0.0
 41
0.9
 51
0.0
  7
KANJI18
  0
TEXT
  8
0
  6
CONTINUOUS
 62
     2
 10
1194.25
 20
1053.65
 30
1.2
 40
12.0
  1
　９０１
 50
0.0
 41
0.9
 51
0.0
  7
KANJI18
  0
TEXT
  8
0
  6
CONTINUOUS
 62
     2
 10
1194.25
 20
1025.65
 30
1.2
 40
12.0
  1
１０２１
 50
0.0
 41
0.9
 51
0.0
  7
KANJI18
  0
TEXT
  8
0
  6
CONTINUOUS
 62
     2
 10
124.75
 20
27.5
 30
1.5
 40
15.0
  1
ＦＤ　Ｎｏ．ＭＣ１８６
 50
0.0
 41
1.0
 51
0.0
  7
KANJI23
  0
TEXT
  8
0
  6
CONTINUOUS
 62
     2
 10
1114.25
 20
1193.65
 30
1.2
 40
12.0
  1
　５７１
 50
0.0
 41
0.9
 51
0.0
  7
KANJI18
  0
TEXT
  8
0
  6
CONTINUOUS
 62
     2
 10
1114.25
 20
1165.65
 30
1.2
 40
12.0
  1
　６７１
 50
0.0
 41
0.9
 51
0.0
  7
KANJI18
  0
TEXT
  8
0
  6
CONTINUOUS
 62
     2
 10
1114.25
 20
1137.65
 30
1.2
 40
12.0
  1
　７７１
 50
0.0
 41
0.9
 51
0.0
  7
KANJI18
  0
TEXT
  8
0
  6
CONTINUOUS
 62
     2
 10
1114.25
 20
1109.65
 30
1.2
 40
12.0
  1
　９２１
 50
0.0
 41
0.9
 51
0.0
  7
KANJI18
  0
TEXT
  8
0
  6
CONTINUOUS
 62
     2
 10
1114.25
 20
1081.65
 30
1.2
 40
12.0
  1
１０４８
 50
0.0
 41
0.9
 51
0.0
  7
KANJI18
  0
TEXT
  8
0
  6
CONTINUOUS
 62
     2
 10
1114.25
 20
1053.65
 30
1.2
 40
12.0
  1
１２０４
 50
0.0
 41
0.9
 51
0.0
  7
KANJI18
  0
TEXT
  8
0
  6
CONTINUOUS
 62
     2
 10
1114.25
 20
1025.65
 30
1.2
 40
12.0
  1
１３２４
 50
0.0
 41
0.9
 51
0.0
  7
KANJI18
  0
TEXT
  8
0
  6
CONTINUOUS
 62
     2
 10
861.25
 20
1193.35
 30
0.8
 40
12.0
  1
ＭＣＳＤＢＢ０３－　　１ＪＬ
 50
0.0
 41
0.833333333
 51
0.0
  7
KANJI24
  0
TEXT
  8
0
  6
CONTINUOUS
 62
     2
 10
861.25
 20
1165.35
 30
0.8
 40
12.0
  1
ＭＣＳＤＢＢ０３－　　２ＪＬ
 50
0.0
 41
0.833333333
 51
0.0
  7
KANJI24
  0
TEXT
  8
0
  6
CONTINUOUS
 62
     2
 10
861.25
 20
1137.35
 30
0.8
 40
12.0
  1
ＭＣＳＤＢＢ０３－　　３ＪＬ
 50
0.0
 41
0.833333333
 51
0.0
  7
KANJI24
  0
TEXT
  8
0
  6
CONTINUOUS
 62
     2
 10
861.25
 20
1109.35
 30
0.8
 40
12.0
  1
ＭＣＳＤＢＢ０３－　　４ＪＬ
 50
0.0
 41
0.833333333
 51
0.0
  7
KANJI24
  0
TEXT
  8
0
  6
CONTINUOUS
 62
     2
 10
861.25
 20
1081.35
 30
0.8
 40
12.0
  1
ＭＣＳＤＢＢ０３－　　５ＪＬ
 50
0.0
 41
0.833333333
 51
0.0
  7
KANJI24
  0
TEXT
  8
0
  6
CONTINUOUS
 62
     2
 10
861.25
 20
1053.35
 30
0.8
 40
12.0
  1
ＭＣＳＤＢＢ０３－　　６ＪＬ
 50
0.0
 41
0.833333333
 51
0.0
  7
KANJI24
  0
TEXT
  8
0
  6
CONTINUOUS
 62
     2
 10
861.25
 20
1025.35
 30
0.8
 40
12.0
  1
ＭＣＳＤＢＢ０３－　　７ＪＬ
 50
0.0
 41
0.833333333
 51
0.0
  7
KANJI24
  0
TEXT
  8
0
  6
CONTINUOUS
 62
     2
 10
1549.75
 20
210.0
 30
0.0
 40
17.5
  1
ＭＣＳＤＢＢ０３－ＪＬ
 50
0.0
 41
0.793650794
 51
0.0
  7
KANJI25
  0
TEXT
  8
0
  6
CONTINUOUS
 62
     2
 10
1645.4166945
 20
129.999995
 30
10.833333333
 40
25.0
  1
３００２３５８
 50
0.0
 41
0.8
 51
0.0
  7
KANJI26
  0
LINE
  8
0
  6
CONTINUOUS
 62
     1
 10
1272.625
 20
1396.0
 30
0.0
 11
1272.625
 21
1295.9
 31
0.0
  0
LINE
  8
0
  6
CONTINUOUS
 62
     2
 10
1214.875
 20
1396.0
 30
0.0
 11
1214.875
 21
1295.9
 31
0.0
  0
LINE
  8
0
  6
CONTINUOUS
 62
     2
 10
1157.125
 20
1396.0
 30
0.0
 11
1157.125
 21
1295.9
 31
0.0
  0
LINE
  8
0
  6
CONTINUOUS
 62
     1
 10
1080.125
 20
1396.0
 30
0.0
 11
1080.125
 21
1295.9
 31
0.0
  0
LINE
  8
0
  6
CONTINUOUS
 62
     1
 10
1080.125
 20
1396.0
 30
0.0
 11
1272.625
 21
1396.0
 31
0.0
  0
LINE
  8
0
  6
CONTINUOUS
 62
     1
 10
1080.125
 20
1365.2
 30
0.0
 11
1272.625
 21
1365.2
 31
0.0
  0
LINE
  8
0
  6
CONTINUOUS
 62
     2
 10
1080.125
 20
1342.1
 30
0.0
 11
1272.625
 21
1342.1
 31
0.0
  0
LINE
  8
0
  6
CONTINUOUS
 62
     2
 10
1080.125
 20
1319.0
 30
0.0
 11
1272.625
 21
1319.0
 31
0.0
  0
LINE
  8
0
  6
CONTINUOUS
 62
     1
 10
1080.125
 20
1295.9
 30
0.0
 11
1272.625
 21
1295.9
 31
0.0
  0
TEXT
  8
0
  6
CONTINUOUS
 62
     2
 10
1222.575
 20
1382.525
 30
1.155
 40
11.55
  1
起動電流
 50
0.0
 41
0.9
 51
0.0
  7
KANJI27
  0
TEXT
  8
0
  6
CONTINUOUS
 62
     2
 10
1222.575
 20
1369.05
 30
1.155
 40
11.55
  1
　　　Ａ
 50
0.0
 41
0.9
 51
0.0
  7
KANJI27
  0
TEXT
  8
0
  6
CONTINUOUS
 62
     2
 10
1164.825
 20
1382.525
 30
1.155
 40
11.55
  1
定格電流
 50
0.0
 41
0.9
 51
0.0
  7
KANJI27
  0
TEXT
  8
0
  6
CONTINUOUS
 62
     2
 10
1164.825
 20
1369.05
 30
1.155
 40
11.55
  1
　　　Ａ
 50
0.0
 41
0.9
 51
0.0
  7
KANJI27
  0
TEXT
  8
0
  6
CONTINUOUS
 62
     2
 10
1086.67
 20
1324.775
 30
1.155
 40
11.55
  1
２００／６０
 50
0.0
 41
0.9
 51
0.0
  7
KANJI27
  0
TEXT
  8
0
  6
CONTINUOUS
 62
     2
 10
1086.67
 20
1382.525
 30
1.155
 40
11.55
  1
電圧／周波数
 50
0.0
 41
0.9
 51
0.0
  7
KANJI27
  0
TEXT
  8
0
  6
CONTINUOUS
 62
     2
 10
1086.67
 20
1369.05
 30
1.155
 40
11.55
  1
　Ｖ／Ｈｚ
 50
0.0
 41
0.9
 51
0.0
  7
KANJI27
  0
TEXT
  8
0
  6
CONTINUOUS
 62
     2
 10
1086.67
 20
1347.875
 30
1.155
 40
11.55
  1
２００／５０
 50
0.0
 41
0.9
 51
0.0
  7
KANJI27
  0
TEXT
  8
0
  6
CONTINUOUS
 62
     2
 10
1086.67
 20
1301.675
 30
1.155
 40
11.55
  1
２２０／６０
 50
0.0
 41
0.9
 51
0.0
  7
KANJI27
  0
LINE
  8
0
  6
CONTINUOUS
 62
     1
 10
1041.625
 20
1396.0
 30
0.0
 11
1041.625
 21
1295.9
 31
0.0
  0
LINE
  8
0
  6
CONTINUOUS
 62
     2
 10
983.875
 20
1396.0
 30
0.0
 11
983.875
 21
1295.9
 31
0.0
  0
LINE
  8
0
  6
CONTINUOUS
 62
     2
 10
926.125
 20
1396.0
 30
0.0
 11
926.125
 21
1295.9
 31
0.0
  0
LINE
  8
0
  6
CONTINUOUS
 62
     1
 10
849.125
 20
1396.0
 30
0.0
 11
849.125
 21
1295.9
 31
0.0
  0
LINE
  8
0
  6
CONTINUOUS
 62
     1
 10
849.125
 20
1396.0
 30
0.0
 11
1041.625
 21
1396.0
 31
0.0
  0
LINE
  8
0
  6
CONTINUOUS
 62
     1
 10
849.125
 20
1365.2
 30
0.0
 11
1041.625
 21
1365.2
 31
0.0
  0
LINE
  8
0
  6
CONTINUOUS
 62
     2
 10
849.125
 20
1342.1
 30
0.0
 11
1041.625
 21
1342.1
 31
0.0
  0
LINE
  8
0
  6
CONTINUOUS
 62
     2
 10
849.125
 20
1319.0
 30
0.0
 11
1041.625
 21
1319.0
 31
0.0
  0
LINE
  8
0
  6
CONTINUOUS
 62
     1
 10
849.125
 20
1295.9
 30
0.0
 11
1041.625
 21
1295.9
 31
0.0
  0
TEXT
  8
0
  6
CONTINUOUS
 62
     2
 10
991.575
 20
1382.525
 30
1.155
 40
11.55
  1
起動電流
 50
0.0
 41
0.9
 51
0.0
  7
KANJI27
  0
TEXT
  8
0
  6
CONTINUOUS
 62
     2
 10
991.575
 20
1369.05
 30
1.155
 40
11.55
  1
　　　Ａ
 50
0.0
 41
0.9
 51
0.0
  7
KANJI27
  0
TEXT
  8
0
  6
CONTINUOUS
 62
     2
 10
933.825
 20
1382.525
 30
1.155
 40
11.55
  1
定格電流
 50
0.0
 41
0.9
 51
0.0
  7
KANJI27
  0
TEXT
  8
0
  6
CONTINUOUS
 62
     2
 10
933.825
 20
1369.05
 30
1.155
 40
11.55
  1
　　　Ａ
 50
0.0
 41
0.9
 51
0.0
  7
KANJI27
  0
TEXT
  8
0
  6
CONTINUOUS
 62
     2
 10
855.67
 20
1382.525
 30
1.155
 40
11.55
  1
電圧／周波数
 50
0.0
 41
0.9
 51
0.0
  7
KANJI27
  0
TEXT
  8
0
  6
CONTINUOUS
 62
     2
 10
855.67
 20
1369.05
 30
1.155
 40
11.55
  1
　Ｖ／Ｈｚ
 50
0.0
 41
0.9
 51
0.0
  7
KANJI27
  0
TEXT
  8
0
  6
CONTINUOUS
 62
     2
 10
855.67
 20
1347.875
 30
1.155
 40
11.55
  1
４００／５０
 50
0.0
 41
0.9
 51
0.0
  7
KANJI27
  0
TEXT
  8
0
  6
CONTINUOUS
 62
     2
 10
855.67
 20
1324.775
 30
1.155
 40
11.55
  1
４００／６０
 50
0.0
 41
0.9
 51
0.0
  7
KANJI27
  0
TEXT
  8
0
  6
CONTINUOUS
 62
     2
 10
855.67
 20
1301.675
 30
1.155
 40
11.55
  1
４４０／６０
 50
0.0
 41
0.9
 51
0.0
  7
KANJI27
  0
LINE
  8
0
  6
CONTINUOUS
 62
     2
 10
874.7275
 20
1274.725
 30
0.0
 11
1236.6275
 21
1274.725
 31
0.0
  0
TEXT
  8
0
  6
CONTINUOUS
 62
     2
 10
933.825
 20
1347.875
 30
1.155
 40
11.55
  1
　２．０
 50
0.0
 41
0.9
 51
0.0
  7
KANJI27
  0
TEXT
  8
0
  6
CONTINUOUS
 62
     2
 10
933.825
 20
1324.775
 30
1.155
 40
11.55
  1
　１．４
 50
0.0
 41
0.9
 51
0.0
  7
KANJI27
  0
TEXT
  8
0
  6
CONTINUOUS
 62
     2
 10
933.825
 20
1301.675
 30
1.155
 40
11.55
  1
　１．７
 50
0.0
 41
0.9
 51
0.0
  7
KANJI27
  0
TEXT
  8
0
  6
CONTINUOUS
 62
     2
 10
1164.825
 20
1347.875
 30
1.155
 40
11.55
  1
　４．０
 50
0.0
 41
0.9
 51
0.0
  7
KANJI27
  0
TEXT
  8
0
  6
CONTINUOUS
 62
     2
 10
1164.825
 20
1324.775
 30
1.155
 40
11.55
  1
　２．８
 50
0.0
 41
0.9
 51
0.0
  7
KANJI27
  0
TEXT
  8
0
  6
CONTINUOUS
 62
     2
 10
1164.825
 20
1301.675
 30
1.155
 40
11.55
  1
　３．３
 50
0.0
 41
0.9
 51
0.0
  7
KANJI27
  0
TEXT
  8
0
  6
CONTINUOUS
 62
     2
 10
1222.575
 20
1347.875
 30
1.155
 40
11.55
  1
　９．２
 50
0.0
 41
0.9
 51
0.0
  7
KANJI27
  0
TEXT
  8
0
  6
CONTINUOUS
 62
     2
 10
1222.575
 20
1324.775
 30
1.155
 40
11.55
  1
　８
 50
0.0
 41
0.9
 51
0.0
  7
KANJI27
  0
TEXT
  8
0
  6
CONTINUOUS
 62
     2
 10
1222.575
 20
1301.675
 30
1.155
 40
11.55
  1
　８．８
 50
0.0
 41
0.9
 51
0.0
  7
KANJI27
  0
TEXT
  8
0
  6
CONTINUOUS
 62
     2
 10
991.575
 20
1347.875
 30
1.155
 40
11.55
  1
　４．６
 50
0.0
 41
0.9
 51
0.0
  7
KANJI27
  0
TEXT
  8
0
  6
CONTINUOUS
 62
     2
 10
991.575
 20
1324.775
 30
1.155
 40
11.55
  1
　４
 50
0.0
 41
0.9
 51
0.0
  7
KANJI27
  0
TEXT
  8
0
  6
CONTINUOUS
 62
     2
 10
991.575
 20
1301.675
 30
1.155
 40
11.55
  1
　４．４
 50
0.0
 41
0.9
 51
0.0
  7
KANJI27
  0
LINE
  8
0
  6
CONTINUOUS
 62
     2
 10
848.25
 20
1186.95
 30
0.0
 11
1496.25
 21
1186.95
 31
0.0
  0
LINE
  8
0
  6
CONTINUOUS
 62
     2
 10
848.25
 20
1158.95
 30
0.0
 11
1496.25
 21
1158.95
 31
0.0
  0
LINE
  8
0
  6
CONTINUOUS
 62
     2
 10
848.25
 20
1130.95
 30
0.0
 11
1496.25
 21
1130.95
 31
0.0
  0
LINE
  8
0
  6
CONTINUOUS
 62
     2
 10
848.25
 20
1074.95
 30
0.0
 11
1496.25
 21
1074.95
 31
0.0
  0
LINE
  8
0
  6
CONTINUOUS
 62
     2
 10
848.25
 20
1102.95
 30
0.0
 11
1496.25
 21
1102.95
 31
0.0
  0
LINE
  8
0
  6
CONTINUOUS
 62
     2
 10
848.25
 20
1018.95
 30
0.0
 11
1496.25
 21
1018.95
 31
0.0
  0
LINE
  8
0
  6
CONTINUOUS
 62
     2
 10
848.25
 20
1046.95
 30
0.0
 11
1496.25
 21
1046.95
 31
0.0
  0
TEXT
  8
0
  6
CONTINUOUS
 62
     2
 10
1443.25
 20
1193.65
 30
1.2
 40
12.0
  1
２２
 50
0.0
 41
0.9
 51
0.0
  7
KANJI18
  0
TEXT
  8
0
  6
CONTINUOUS
 62
     2
 10
1443.25
 20
1165.65
 30
1.2
 40
12.0
  1
２３
 50
0.0
 41
0.9
 51
0.0
  7
KANJI18
  0
TEXT
  8
0
  6
CONTINUOUS
 62
     2
 10
1443.25
 20
1137.65
 30
1.2
 40
12.0
  1
２４
 50
0.0
 41
0.9
 51
0.0
  7
KANJI18
  0
TEXT
  8
0
  6
CONTINUOUS
 62
     2
 10
1443.25
 20
1109.65
 30
1.2
 40
12.0
  1
２５
 50
0.0
 41
0.9
 51
0.0
  7
KANJI18
  0
TEXT
  8
0
  6
CONTINUOUS
 62
     2
 10
1443.25
 20
1081.65
 30
1.2
 40
12.0
  1
２６
 50
0.0
 41
0.9
 51
0.0
  7
KANJI18
  0
TEXT
  8
0
  6
CONTINUOUS
 62
     2
 10
1443.25
 20
1053.65
 30
1.2
 40
12.0
  1
２７
 50
0.0
 41
0.9
 51
0.0
  7
KANJI18
  0
TEXT
  8
0
  6
CONTINUOUS
 62
     2
 10
1443.25
 20
1025.65
 30
1.2
 40
12.0
  1
２８
 50
0.0
 41
0.9
 51
0.0
  7
KANJI18
  0
LINE
  8
0
  6
CONTINUOUS
 62
     1
 10
1270.71
 20
646.42
 30
0.0
 11
1290.71
 21
646.42
 31
0.0
  0
LINE
  8
0
  6
CONTINUOUS
 62
     1
 10
1282.71
 20
658.42
 30
0.0
 11
1290.71
 21
658.42
 31
0.0
  0
LINE
  8
0
  6
CONTINUOUS
 62
     1
 10
1310.71
 20
646.42
 30
0.0
 11
1290.71
 21
646.42
 31
0.0
  0
LINE
  8
0
  6
CONTINUOUS
 62
     1
 10
1298.71
 20
658.42
 30
0.0
 11
1290.71
 21
658.42
 31
0.0
  0
LINE
  8
0
  6
LTYPE2
 62
     2
 10
1228.31
 20
666.42
 30
0.0
 11
1351.51
 21
666.42
 31
0.0
  0
LINE
  8
0
  6
CONTINUOUS
 62
     1
 10
1270.71
 20
666.42
 30
0.0
 11
1270.71
 21
646.42
 31
0.0
  0
LINE
  8
0
  6
CONTINUOUS
 62
     1
 10
1282.71
 20
666.42
 30
0.0
 11
1282.71
 21
646.42
 31
0.0
  0
LINE
  8
0
  6
CONTINUOUS
 62
     1
 10
1298.71
 20
665.92
 30
0.0
 11
1298.71
 21
646.42
 31
0.0
  0
LINE
  8
0
  6
CONTINUOUS
 62
     1
 10
1310.71
 20
666.42
 30
0.0
 11
1310.71
 21
646.42
 31
0.0
  0
LINE
  8
0
  6
CONTINUOUS
 62
     1
 10
1270.71
 20
686.42
 30
0.0
 11
1290.71
 21
686.42
 31
0.0
  0
LINE
  8
0
  6
CONTINUOUS
 62
     1
 10
1282.71
 20
674.42
 30
0.0
 11
1290.71
 21
674.42
 31
0.0
  0
LINE
  8
0
  6
CONTINUOUS
 62
     1
 10
1310.71
 20
686.42
 30
0.0
 11
1290.71
 21
686.42
 31
0.0
  0
LINE
  8
0
  6
CONTINUOUS
 62
     1
 10
1298.71
 20
674.42
 30
0.0
 11
1290.71
 21
674.42
 31
0.0
  0
LINE
  8
0
  6
CONTINUOUS
 62
     1
 10
1310.71
 20
666.42
 30
0.0
 11
1310.71
 21
686.42
 31
0.0
  0
LINE
  8
0
  6
CONTINUOUS
 62
     1
 10
1298.71
 20
666.42
 30
0.0
 11
1298.71
 21
686.42
 31
0.0
  0
LINE
  8
0
  6
CONTINUOUS
 62
     1
 10
1282.71
 20
666.42
 30
0.0
 11
1282.71
 21
686.42
 31
0.0
  0
LINE
  8
0
  6
CONTINUOUS
 62
     1
 10
1270.71
 20
666.42
 30
0.0
 11
1270.71
 21
686.42
 31
0.0
  0
LINE
  8
0
  6
LTYPE1
 62
     2
 10
1230.71
 20
674.42
 30
0.0
 11
1252.71
 21
674.42
 31
0.0
  0
LINE
  8
0
  6
LTYPE1
 62
     2
 10
1230.71
 20
658.42
 30
0.0
 11
1252.71
 21
658.42
 31
0.0
  0
LINE
  8
0
  6
LTYPE1
 62
     2
 10
1350.71
 20
674.42
 30
0.0
 11
1328.71
 21
674.42
 31
0.0
  0
LINE
  8
0
  6
LTYPE1
 62
     2
 10
1350.71
 20
658.42
 30
0.0
 11
1328.71
 21
658.42
 31
0.0
  0
ARC
  8
0
  6
LTYPE1
 62
     2
 10
1290.71
 20
666.42
 30
0.0
 40
31.75
 50
14.594028735
 51
165.405971265
  0
ARC
  8
0
  6
LTYPE1
 62
     2
 10
1290.71
 20
666.42
 30
0.0
 40
31.75
 50
194.594028735
 51
345.30268072
  0
LINE
  8
0
  6
LTYPE1
 62
     2
 10
1252.71
 20
666.42
 30
0.0
 11
1252.71
 21
674.42
 31
0.0
  0
ARC
  8
0
  6
LTYPE1
 62
     2
 10
1290.71
 20
666.42
 30
0.0
 40
31.75
 50
167.521711161
 51
180.0
  0
ARC
  8
0
  6
LTYPE1
 62
     2
 10
1290.71
 20
666.42
 30
0.0
 40
31.75
 50
180.0
 51
192.478288839
  0
ARC
  8
0
  6
LTYPE1
 62
     2
 10
1290.71
 20
666.42
 30
0.0
 40
31.75
 50
347.521711161
 51
0.0
  0
ARC
  8
0
  6
LTYPE1
 62
     2
 10
1290.71
 20
666.42
 30
0.0
 40
31.75
 50
0.0
 51
12.478288839
  0
LINE
  8
0
  6
LTYPE1
 62
     2
 10
1253.519658385
 20
663.42
 30
0.0
 11
1253.519658385
 21
669.42
 31
0.0
  0
LINE
  8
0
  6
LTYPE1
 62
     2
 10
1250.82265865
 20
669.42
 30
0.0
 11
1253.519658385
 21
669.42
 31
0.0
  0
LINE
  8
0
  6
LTYPE1
 62
     2
 10
1252.71
 20
666.42
 30
0.0
 11
1252.71
 21
658.42
 31
0.0
  0
LINE
  8
0
  6
LTYPE1
 62
     2
 10
1250.82265865
 20
663.42
 30
0.0
 11
1253.519658385
 21
663.42
 31
0.0
  0
LINE
  8
2
  6
CONTINUOUS
 62
     2
 10
1345.710015259
 20
552.92
 30
0.0
 11
1389.210015259
 21
552.92
 31
0.0
  0
LINE
  8
2
  6
CONTINUOUS
 62
     2
 10
1365.210015259
 20
613.92
 30
0.0
 11
1389.210015259
 21
613.92
 31
0.0
  0
LINE
  8
2
  6
CONTINUOUS
 62
     2
 10
1328.71
 20
738.92
 30
0.0
 11
1389.210015259
 21
738.92
 31
0.0
  0
TEXT
  8
2
  6
CONTINUOUS
 62
     3
 10
1377.210015259
 20
570.02
 30
0.0
 40
15.0
  1
６１
 50
90.0
 41
0.9
 51
0.0
  7
KANJI28
  0
TEXT
  8
2
  6
CONTINUOUS
 62
     3
 10
1377.210015259
 20
656.02
 30
0.0
 40
15.0
  1
１２５
 50
90.0
 41
0.9
 51
0.0
  7
KANJI28
  0
ARC
  8
0
  6
CONTINUOUS
 62
     1
 10
1344.21
 20
715.92
 30
0.0
 40
5.0
 50
0.000030901
 51
90.0
  0
LINE
  8
0
  6
CONTINUOUS
 62
     1
 10
1344.21
 20
720.92
 30
0.0
 11
1334.71
 21
720.92
 31
0.0
  0
ARC
  8
0
  6
CONTINUOUS
 62
     1
 10
1290.71
 20
666.42
 30
0.0
 40
65.0
 50
35.374590447
 51
54.625409553
  0
LINE
  8
0
  6
CONTINUOUS
 62
     1
 10
1316.317695155
 20
719.12
 30
0.0
 11
1316.317695155
 21
738.92
 31
0.0
  0
LINE
  8
0
  6
CONTINUOUS
 62
     1
 10
1326.71
 20
719.62
 30
0.0
 11
1326.71
 21
736.92
 31
0.0
  0
LINE
  8
0
  6
CONTINUOUS
 62
     1
 10
1334.71
 20
712.82
 30
0.0
 11
1334.71
 21
734.940045888
 31
0.0
  0
ARC
  8
0
  6
CONTINUOUS
 62
     1
 10
1324.71
 20
736.92
 30
0.0
 40
2.0
 50
0.0
 51
90.0
  0
LINE
  8
0
  6
CONTINUOUS
 62
     1
 10
1332.71
 20
736.940045888
 30
0.0
 11
1326.71
 21
736.940045888
 31
0.0
  0
ARC
  8
0
  6
CONTINUOUS
 62
     1
 10
1332.71
 20
734.940045888
 30
0.0
 40
2.0
 50
0.0
 51
90.0
  0
ARC
  8
0
  6
CONTINUOUS
 62
     1
 10
1317.317695155
 20
737.92
 30
0.0
 40
1.0
 50
90.0
 51
180.0
  0
ARC
  8
0
  6
CONTINUOUS
 62
     1
 10
1315.317695155
 20
737.92
 30
0.0
 40
1.0
 50
0.0
 51
90.0
  0
LINE
  8
0
  6
LTYPE2
 62
     2
 10
1258.519127035
 20
698.610872965
 30
0.0
 11
1245.419127035
 21
711.710872965
 31
0.0
  0
ARC
  8
0
  6
LTYPE2
 62
     2
 10
1290.71
 20
666.42
 30
0.0
 40
55.0
 50
124.150984485
 51
144.573837847
  0
LINE
  8
0
  6
CONTINUOUS
 62
     1
 10
1232.21
 20
646.17
 30
0.0
 11
1232.21
 21
562.92
 31
0.0
  0
LINE
  8
0
  6
CONTINUOUS
 62
     1
 10
1229.71
 20
664.42
 30
0.0
 11
1229.71
 21
562.92
 31
0.0
  0
LINE
  8
0
  6
CONTINUOUS
 62
     1
 10
1237.71
 20
646.42
 30
0.0
 11
1237.71
 21
628.790224556
 31
0.0
  0
ARC
  8
0
  6
CONTINUOUS
 62
     1
 10
1239.71
 20
664.42
 30
0.0
 40
10.0
 50
154.158067237
 51
180.0
  0
ARC
  8
0
  6
CONTINUOUS
 62
     1
 10
1290.71
 20
666.42
 30
0.0
 40
65.0
 50
215.374590447
 51
234.625409553
  0
LINE
  8
0
  6
LTYPE3
 62
     2
 10
1228.31
 20
613.42
 30
0.0
 11
1351.51
 21
613.42
 31
0.0
  0
LINE
  8
0
  6
CONTINUOUS
 62
     1
 10
1253.080224556
 20
613.42
 30
0.0
 11
1328.339775444
 21
613.42
 31
0.0
  0
LINE
  8
2
  6
CONTINUOUS
 62
     2
 10
1229.71
 20
558.92
 30
0.0
 11
1229.71
 21
458.561101056
 31
0.0
  0
LINE
  8
0
  6
CONTINUOUS
 62
     1
 10
1239.71
 20
552.42
 30
0.0
 11
1341.71
 21
552.42
 31
0.0
  0
ARC
  8
0
  6
CONTINUOUS
 62
     1
 10
1239.71
 20
562.42
 30
0.0
 40
10.0
 50
180.0
 51
270.0
  0
LINE
  8
0
  6
CONTINUOUS
 62
     1
 10
1239.71
 20
552.42
 30
0.0
 11
1341.71
 21
552.42
 31
0.0
  0
CIRCLE
  8
0
  6
CONTINUOUS
 62
     1
 10
1239.71
 20
561.92
 30
0.0
 40
4.0
  0
CIRCLE
  8
0
  6
CONTINUOUS
 62
     1
 10
1239.71
 20
561.92
 30
0.0
 40
3.0
  0
LINE
  8
0
  6
CONTINUOUS
 62
     1
 10
1340.21
 20
553.92
 30
0.0
 11
1241.21
 21
553.92
 31
0.0
  0
ARC
  8
0
  6
CONTINUOUS
 62
     1
 10
1241.21
 20
562.92
 30
0.0
 40
9.0
 50
180.0
 51
270.0
  0
ARC
  8
0
  6
CONTINUOUS
 62
     1
 10
1283.71
 20
558.92
 30
0.0
 40
5.0
 50
179.999984538
 51
270.0
  0
LINE
  8
0
  6
CONTINUOUS
 62
     1
 10
1278.71
 20
573.920001349
 30
0.0
 11
1278.71
 21
558.920001349
 31
0.0
  0
ARC
  8
0
  6
CONTINUOUS
 62
     1
 10
1237.21
 20
583.92
 30
0.0
 40
5.0
 50
180.0
 51
270.000026769
  0
LINE
  8
0
  6
CONTINUOUS
 62
     1
 10
1344.210002697
 20
578.92
 30
0.0
 11
1237.210002336
 21
578.92
 31
0.0
  0
ARC
  8
0
  6
CONTINUOUS
 62
     1
 10
1273.71
 20
573.92
 30
0.0
 40
5.0
 50
0.000015462
 51
90.0
  0
LINE
  8
0
  6
CONTINUOUS
 62
     2
 10
1233.71
 20
561.92
 30
0.0
 11
1245.71
 21
561.92
 31
0.0
  0
LINE
  8
0
  6
CONTINUOUS
 62
     2
 10
1239.71
 20
555.92
 30
0.0
 11
1239.71
 21
567.92
 31
0.0
  0
LINE
  8
0
  6
CONTINUOUS
 62
     2
 10
1232.21
 20
557.920007629
 30
0.0
 11
1232.21
 21
504.32
 31
0.0
  0
LINE
  8
2
  6
CONTINUOUS
 62
     2
 10
1351.71
 20
558.92
 30
0.0
 11
1351.71
 21
458.561101056
 31
0.0
  0
ARC
  8
0
  6
CONTINUOUS
 62
     1
 10
1341.71
 20
562.42
 30
0.0
 40
10.0
 50
270.0
 51
0.0
  0
CIRCLE
  8
0
  6
CONTINUOUS
 62
     1
 10
1341.71
 20
561.92
 30
0.0
 40
4.0
  0
CIRCLE
  8
0
  6
CONTINUOUS
 62
     1
 10
1341.71
 20
561.92
 30
0.0
 40
3.0
  0
ARC
  8
0
  6
CONTINUOUS
 62
     1
 10
1340.21
 20
562.92
 30
0.0
 40
9.0
 50
270.0
 51
0.0
  0
LINE
  8
0
  6
CONTINUOUS
 62
     1
 10
1302.71
 20
573.920001349
 30
0.0
 11
1302.71
 21
558.920001349
 31
0.0
  0
ARC
  8
0
  6
CONTINUOUS
 62
     1
 10
1297.71
 20
558.92
 30
0.0
 40
5.0
 50
270.0
 51
0.000015462
  0
ARC
  8
0
  6
CONTINUOUS
 62
     1
 10
1307.71
 20
573.92
 30
0.0
 40
5.0
 50
90.0
 51
179.999984538
  0
ARC
  8
0
  6
CONTINUOUS
 62
     1
 10
1344.21
 20
583.92
 30
0.0
 40
5.0
 50
270.00003091
 51
0.0
  0
LINE
  8
0
  6
CONTINUOUS
 62
     1
 10
1349.21
 20
646.17
 30
0.0
 11
1349.21
 21
562.92
 31
0.0
  0
LINE
  8
0
  6
CONTINUOUS
 62
     1
 10
1351.71
 20
664.42
 30
0.0
 11
1351.71
 21
562.92
 31
0.0
  0
LINE
  8
0
  6
CONTINUOUS
 62
     2
 10
1347.71
 20
561.92
 30
0.0
 11
1335.71
 21
561.92
 31
0.0
  0
LINE
  8
0
  6
CONTINUOUS
 62
     2
 10
1341.71
 20
555.92
 30
0.0
 11
1341.71
 21
567.92
 31
0.0
  0
LINE
  8
0
  6
CONTINUOUS
 62
     2
 10
1349.21
 20
557.920007629
 30
0.0
 11
1349.21
 21
504.32
 31
0.0
  0
LINE
  8
2
  6
CONTINUOUS
 62
     2
 10
1229.71
 20
466.561101056
 30
0.0
 11
1239.369258263
 21
463.972910605
 31
0.0
  0
LINE
  8
2
  6
CONTINUOUS
 62
     2
 10
1229.71
 20
466.561101056
 30
0.0
 11
1239.369258263
 21
469.149291507
 31
0.0
  0
LINE
  8
2
  6
CONTINUOUS
 62
     2
 10
1229.71
 20
466.561101056
 30
0.0
 11
1351.71
 21
466.561101056
 31
0.0
  0
LINE
  8
2
  6
CONTINUOUS
 62
     2
 10
1351.71
 20
466.561101056
 30
0.0
 11
1342.050741737
 21
469.149291507
 31
0.0
  0
LINE
  8
2
  6
CONTINUOUS
 62
     2
 10
1351.71
 20
466.561101056
 30
0.0
 11
1342.050741737
 21
463.972910605
 31
0.0
  0
LINE
  8
0
  6
CONTINUOUS
 62
     2
 10
1349.21
 20
509.32
 30
0.0
 11
1339.550741737
 21
511.908190451
 31
0.0
  0
LINE
  8
0
  6
CONTINUOUS
 62
     2
 10
1349.21
 20
509.32
 30
0.0
 11
1339.550741737
 21
506.731809549
 31
0.0
  0
LINE
  8
0
  6
CONTINUOUS
 62
     2
 10
1349.21
 20
509.32
 30
0.0
 11
1232.21
 21
509.32
 31
0.0
  0
LINE
  8
0
  6
CONTINUOUS
 62
     2
 10
1232.21
 20
509.32
 30
0.0
 11
1241.869258263
 21
506.731809549
 31
0.0
  0
LINE
  8
0
  6
CONTINUOUS
 62
     2
 10
1232.21
 20
509.32
 30
0.0
 11
1241.869258263
 21
511.908190451
 31
0.0
  0
TEXT
  8
0
  6
CONTINUOUS
 62
     3
 10
1270.46
 20
510.82
 30
0.0
 40
15.0
  1
１１７
 50
0.0
 41
0.9
 51
0.0
  7
KANJI28
  0
TEXT
  8
2
  6
CONTINUOUS
 62
     3
 10
1270.31
 20
469.061101056
 30
0.0
 40
15.0
  1
１２２
 50
0.0
 41
0.9
 51
0.0
  7
KANJI28
  0
TEXT
  8
2
  6
CONTINUOUS
 62
     3
 10
1254.81
 20
449.061101056
 30
0.0
 40
15.0
  1
（モータ幅）
 50
0.0
 41
0.9
 51
0.0
  7
KANJI28
  0
TEXT
  8
0
  6
CONTINUOUS
 62
     3
 10
1234.46
 20
492.82
 30
0.0
 40
15.0
  1
（ギヤケース幅）
 50
0.0
 41
0.9
 51
0.0
  7
KANJI28
  0
ARC
  8
0
  6
CONTINUOUS
 62
     1
 10
1290.71
 20
666.42
 30
0.0
 40
65.0
 50
305.374590447
 51
324.625409553
  0
LINE
  8
0
  6
CONTINUOUS
 62
     1
 10
1343.71
 20
646.52
 30
0.0
 11
1343.71
 21
628.790224556
 31
0.0
  0
LINE
  8
0
  6
CONTINUOUS
 62
     1
 10
1350.71
 20
646.42
 30
0.0
 11
1350.71
 21
686.42
 31
0.0
  0
ARC
  8
0
  6
CONTINUOUS
 62
     1
 10
1341.71
 20
664.42
 30
0.0
 40
10.0
 50
0.0
 51
24.981239606
  0
LINE
  8
0
  6
CONTINUOUS
 62
     1
 10
1349.21
 20
715.920002697
 30
0.0
 11
1349.21
 21
686.698748346
 31
0.0
  0
LINE
  8
0
  6
CONTINUOUS
 62
     1
 10
1343.71
 20
704.049775444
 30
0.0
 11
1343.71
 21
686.52
 31
0.0
  0
CIRCLE
  8
0
  6
CONTINUOUS
 62
     1
 10
1251.819127035
 20
627.529127035
 30
0.0
 40
5.0
  0
LINE
  8
0
  6
LTYPE2
 62
     2
 10
1258.519127035
 20
634.229127035
 30
0.0
 11
1245.419127035
 21
621.129127035
 31
0.0
  0
ARC
  8
0
  6
LTYPE2
 62
     2
 10
1290.71
 20
666.42
 30
0.0
 40
55.0
 50
215.426162153
 51
235.849015515
  0
CIRCLE
  8
0
  6
CONTINUOUS
 62
     1
 10
1329.600872965
 20
705.310872965
 30
0.0
 40
5.0
  0
LINE
  8
0
  6
LTYPE2
 62
     2
 10
1322.900872965
 20
698.610872965
 30
0.0
 11
1336.000872965
 21
711.710872965
 31
0.0
  0
ARC
  8
0
  6
LTYPE2
 62
     2
 10
1290.71
 20
666.42
 30
0.0
 40
55.0
 50
35.426162153
 51
55.849015515
  0
CIRCLE
  8
0
  6
CONTINUOUS
 62
     1
 10
1329.600872965
 20
627.529127035
 30
0.0
 40
5.0
  0
LINE
  8
0
  6
LTYPE2
 62
     2
 10
1322.900872965
 20
634.229127035
 30
0.0
 11
1336.000872965
 21
621.129127035
 31
0.0
  0
ARC
  8
0
  6
LTYPE2
 62
     2
 10
1290.71
 20
666.42
 30
0.0
 40
55.0
 50
304.150984485
 51
324.573837847
  0
LINE
  8
0
  6
CONTINUOUS
 62
     2
 10
1139.035595435
 20
733.463416229
 30
0.0
 11
1139.035595435
 21
857.992652293
 31
0.0
  0
LINE
  8
0
  6
CONTINUOUS
 62
     2
 10
1290.71
 20
853.992652293
 30
0.0
 11
1139.035595435
 21
853.992652293
 31
0.0
  0
LINE
  8
0
  6
CONTINUOUS
 62
     2
 10
1139.035595435
 20
853.992652293
 30
0.0
 11
1149.90290757
 21
851.283127062
 31
0.0
  0
LINE
  8
0
  6
CONTINUOUS
 62
     2
 10
1139.035595435
 20
853.992652293
 30
0.0
 11
1149.90290757
 21
856.702177523
 31
0.0
  0
LINE
  8
0
  6
CONTINUOUS
 62
     2
 10
1290.71
 20
853.992652293
 30
0.0
 11
1279.842687866
 21
856.702177523
 31
0.0
  0
LINE
  8
0
  6
CONTINUOUS
 62
     2
 10
1290.71
 20
853.992652293
 30
0.0
 11
1279.842687866
 21
851.283127062
 31
0.0
  0
LINE
  8
0
  6
LTYPE4
 62
     2
 10
1175.593016023
 20
745.050274068
 30
0.0
 11
1210.948355082
 21
780.405613127
 31
0.0
  0
ARC
  8
0
  6
LTYPE1
 62
     1
 10
1193.836370977
 20
763.293629023
 30
0.0
 40
16.0
 50
225.0
 51
99.340912304
  0
ARC
  8
0
  6
CONTINUOUS
 62
     1
 10
1193.836370977
 20
763.293629023
 30
0.0
 40
16.0
 50
99.340912304
 51
170.659087696
  0
LINE
  8
0
  6
CONTINUOUS
 62
     1
 10
1179.215465137
 20
753.622470651
 30
0.0
 11
1171.032177284
 21
745.439182798
 31
0.0
  0
LINE
  8
0
  6
CONTINUOUS
 62
     1
 10
1173.882701496
 20
760.310522289
 30
0.0
 11
1139.035595435
 21
725.463416229
 31
0.0
  0
LINE
  8
0
  6
CONTINUOUS
 62
     1
 10
1178.302118878
 20
753.416231173
 30
0.0
 11
1170.678623894
 21
745.792736188
 31
0.0
  0
LINE
  8
0
  6
LTYPE2
 62
     2
 10
1170.360425842
 20
758.48530291
 30
0.0
 11
1183.936876041
 21
744.908852712
 31
0.0
  0
LINE
  8
0
  6
LTYPE1
 62
     2
 10
1183.406545955
 20
757.813551468
 30
0.0
 11
1188.356293423
 21
752.863804
 31
0.0
  0
LINE
  8
0
  6
LTYPE1
 62
     2
 10
1188.356293423
 20
752.863804
 30
0.0
 11
1183.030895477
 21
747.538406054
 31
0.0
  0
ARC
  8
0
  6
LTYPE1
 62
     1
 10
1193.836370977
 20
763.293629023
 30
0.0
 40
16.0
 50
170.659087696
 51
225.0
  0
LINE
  8
0
  6
LTYPE1
 62
     2
 10
1183.406545955
 20
757.813551468
 30
0.0
 11
1179.215465137
 21
753.622470651
 31
0.0
  0
LINE
  8
0
  6
LTYPE1
 62
     1
 10
1174.744487885
 20
761.172308679
 30
0.0
 11
1173.882701496
 21
760.310522289
 31
0.0
  0
LINE
  8
0
  6
LTYPE1
 62
     1
 10
1180.401342135
 20
755.51545443
 30
0.0
 11
1178.302118878
 21
753.416231173
 31
0.0
  0
LINE
  8
0
  6
LTYPE4
 62
     2
 10
1181.249870272
 20
775.880129728
 30
0.0
 11
1295.954043872
 21
661.175956128
 31
0.0
  0
LINE
  8
0
  6
CONTINUOUS
 62
     1
 10
1175.451594667
 20
763.293629023
 30
0.0
 11
1251.112020254
 21
653.692077939
 31
0.0
  0
LINE
  8
0
  6
CONTINUOUS
 62
     1
 10
1175.451594667
 20
763.293629023
 30
0.0
 11
1193.836370977
 21
781.678405333
 31
0.0
  0
LINE
  8
0
  6
LTYPE1
 62
     1
 10
1174.744487885
 20
761.172308679
 30
0.0
 11
1181.756630132
 21
754.160166432
 31
0.0
  0
CIRCLE
  8
0
  6
CONTINUOUS
 62
     1
 10
1193.836370977
 20
763.293629023
 30
0.0
 40
6.49995
  0
LINE
  8
0
  6
CONTINUOUS
 62
     1
 10
1195.782979378
 20
770.539338067
 30
0.0
 11
1188.537270333
 21
768.592729667
 31
0.0
  0
CIRCLE
  8
0
  6
LTYPE1
 62
     2
 10
1193.836370977
 20
763.293629023
 30
0.0
 40
3.2
  0
CIRCLE
  8
0
  6
CONTINUOUS
 62
     1
 10
1193.836370977
 20
763.293629023
 30
0.0
 40
4.0
  0
LINE
  8
0
  6
CONTINUOUS
 62
     1
 10
1201.082080022
 20
765.240237423
 30
0.0
 11
1199.135471622
 21
757.994528378
 31
0.0
  0
LINE
  8
0
  6
CONTINUOUS
 62
     1
 10
1201.082080022
 20
765.240237423
 30
0.0
 11
1195.782979378
 21
770.539338067
 31
0.0
  0
LINE
  8
0
  6
LTYPE2
 62
     2
 10
1196.947640815
 20
788.466630433
 30
0.0
 11
1212.221147288
 21
773.193123959
 31
0.0
  0
LINE
  8
0
  6
LTYPE1
 62
     2
 10
1199.316448532
 20
773.723454045
 30
0.0
 11
1204.266196
 21
768.773706577
 31
0.0
  0
LINE
  8
0
  6
LTYPE1
 62
     2
 10
1209.591593946
 20
774.099104523
 30
0.0
 11
1204.266196
 21
768.773706577
 31
0.0
  0
LINE
  8
0
  6
CONTINUOUS
 62
     1
 10
1203.713768827
 20
778.827881122
 30
0.0
 11
1211.337263812
 21
786.451376106
 31
0.0
  0
LINE
  8
0
  6
LTYPE1
 62
     1
 10
1201.61454557
 20
776.728657865
 30
0.0
 11
1203.713768827
 21
778.827881122
 31
0.0
  0
LINE
  8
0
  6
CONTINUOUS
 62
     1
 10
1191.889762577
 20
756.047919978
 30
0.0
 11
1186.590661933
 21
761.347020622
 31
0.0
  0
LINE
  8
0
  6
CONTINUOUS
 62
     1
 10
1186.590661933
 20
761.347020622
 30
0.0
 11
1188.537270333
 21
768.592729667
 31
0.0
  0
LINE
  8
0
  6
CONTINUOUS
 62
     1
 10
1191.889762577
 20
756.047919978
 30
0.0
 11
1199.135471622
 21
757.994528378
 31
0.0
  0
LINE
  8
0
  6
LTYPE1
 62
     1
 10
1195.957691321
 20
782.385512115
 30
0.0
 11
1202.969833568
 21
775.373369868
 31
0.0
  0
LINE
  8
0
  6
CONTINUOUS
 62
     1
 10
1211.690817202
 20
786.097822716
 30
0.0
 11
1201.968098961
 21
776.375104475
 31
0.0
  0
LINE
  8
0
  6
LTYPE1
 62
     2
 10
1203.507529349
 20
777.914534863
 30
0.0
 11
1201.968098961
 21
776.375104475
 31
0.0
  0
LINE
  8
0
  6
CONTINUOUS
 62
     1
 10
1171.032177284
 20
745.439182798
 30
0.0
 11
1175.981924752
 21
740.489435329
 31
0.0
  0
LINE
  8
0
  6
CONTINUOUS
 62
     1
 10
1170.607913215
 20
745.863446866
 30
0.0
 11
1165.55209973
 21
737.8377849
 31
0.0
  0
LINE
  8
0
  6
LTYPE2
 62
     2
 10
1173.542406357
 20
680.208582233
 30
0.0
 11
1140.308387642
 21
713.442600949
 31
0.0
  0
LINE
  8
0
  6
LTYPE2
 62
     2
 10
1162.370119215
 20
734.09011896
 30
0.0
 11
1195.60413793
 21
700.856100244
 31
0.0
  0
LINE
  8
0
  6
CONTINUOUS
 62
     1
 10
1195.957691321
 20
707.432193309
 30
0.0
 11
1167.673420074
 21
679.147922061
 31
0.0
  0
LINE
  8
0
  6
CONTINUOUS
 62
     1
 10
1167.673420074
 20
679.147922061
 30
0.0
 11
1167.744130752
 21
679.077211383
 31
0.0
  0
LINE
  8
0
  6
CONTINUOUS
 62
     1
 10
1139.389148826
 20
707.432193309
 30
0.0
 11
1167.673420074
 21
679.147922061
 31
0.0
  0
LINE
  8
0
  6
CONTINUOUS
 62
     1
 10
1195.957691321
 20
707.432193309
 30
0.0
 11
1167.673420074
 21
735.716464556
 31
0.0
  0
LINE
  8
0
  6
LTYPE2
 62
     2
 10
1141.793311882
 20
733.3123015
 30
0.0
 11
1182.805505191
 21
692.300108191
 31
0.0
  0
LINE
  8
0
  6
CONTINUOUS
 62
     1
 10
1165.55209973
 20
737.8377849
 30
0.0
 11
1156.713264965
 21
728.998950135
 31
0.0
  0
LINE
  8
0
  6
CONTINUOUS
 62
     1
 10
1171.138243301
 20
719.099455198
 30
0.0
 11
1156.006158184
 21
703.967370081
 31
0.0
  0
ARC
  8
0
  6
CONTINUOUS
 62
     1
 10
1172.552456864
 20
717.685241636
 30
0.0
 40
2.0
 50
45.0
 51
135.0
  0
LINE
  8
0
  6
CONTINUOUS
 62
     1
 10
1156.006158184
 20
701.138942956
 30
0.0
 11
1171.138243301
 21
686.006857839
 31
0.0
  0
ARC
  8
0
  6
CONTINUOUS
 62
     1
 10
1172.552456864
 20
687.421071401
 30
0.0
 40
2.0
 50
225.0
 51
315.0
  0
LINE
  8
0
  6
LTYPE2
 62
     2
 10
1162.582251249
 20
692.582950904
 30
0.0
 11
1182.664083835
 21
712.66478349
 31
0.0
  0
LINE
  8
0
  6
CONTINUOUS
 62
     1
 10
1149.642197153
 20
736.070017947
 30
0.0
 11
1168.875501602
 21
716.836713499
 31
0.0
  0
LINE
  8
0
  6
CONTINUOUS
 62
     1
 10
1171.208953979
 20
732.18093065
 30
0.0
 11
1162.299408537
 21
723.271385207
 31
0.0
  0
LINE
  8
0
  6
CONTINUOUS
 62
     1
 10
1167.673420074
 20
735.716464556
 30
0.0
 11
1158.834585309
 21
726.877629791
 31
0.0
  0
LINE
  8
0
  6
CONTINUOUS
 62
     1
 10
1183.030895477
 20
747.538406054
 30
0.0
 11
1175.981924752
 21
740.489435329
 31
0.0
  0
LINE
  8
0
  6
CONTINUOUS
 62
     1
 10
1173.966670426
 20
719.099455198
 30
0.0
 11
1189.098755543
 21
703.967370081
 31
0.0
  0
LINE
  8
0
  6
CONTINUOUS
 62
     1
 10
1189.098755543
 20
701.138942956
 30
0.0
 11
1173.966670426
 21
686.006857839
 31
0.0
  0
LINE
  8
0
  6
CONTINUOUS
 62
     1
 10
1210.105224706
 20
713.09444532
 30
0.0
 11
1168.734080245
 21
671.723300859
 31
0.0
  0
LINE
  8
0
  6
CONTINUOUS
 62
     1
 10
1164.491439558
 20
675.965941546
 30
0.0
 11
1206.639861702
 21
718.11436369
 31
0.0
  0
ARC
  8
0
  6
CONTINUOUS
 62
     1
 10
1187.684541981
 20
702.553156519
 30
0.0
 40
2.0
 50
315.0
 51
45.0
  0
LINE
  8
0
  6
CONTINUOUS
 62
     1
 10
1202.321652352
 20
705.310872965
 30
0.0
 11
1222.474195615
 21
685.158329701
 31
0.0
  0
LINE
  8
0
  6
CONTINUOUS
 62
     1
 10
1303.437922061
 20
706.017979746
 30
0.0
 11
1193.836370977
 21
781.678405333
 31
0.0
  0
LINE
  8
0
  6
CONTINUOUS
 62
     1
 10
1175.451594667
 20
763.293629023
 30
0.0
 11
1193.836370977
 21
781.678405333
 31
0.0
  0
LINE
  8
0
  6
CONTINUOUS
 62
     1
 10
1216.640564671
 20
781.148075248
 30
0.0
 11
1207.641146496
 21
772.148657072
 31
0.0
  0
LINE
  8
0
  6
CONTINUOUS
 62
     1
 10
1156.713264965
 20
728.998950135
 30
0.0
 11
1146.106663247
 21
718.392348417
 31
0.0
  0
ARC
  8
0
  6
CONTINUOUS
 62
     1
 10
1157.420371746
 20
702.553156519
 30
0.0
 40
2.0
 50
135.0
 51
225.0
  0
LINE
  8
0
  6
CONTINUOUS
 62
     1
 10
1151.763517497
 20
712.735494168
 30
0.0
 11
1142.924682732
 21
703.896659403
 31
0.0
  0
LINE
  8
0
  6
CONTINUOUS
 62
     1
 10
1148.157272913
 20
716.200317396
 30
0.0
 11
1139.389148826
 21
707.432193309
 31
0.0
  0
LINE
  8
0
  6
CONTINUOUS
 62
     1
 10
1139.035595435
 20
725.463416229
 30
0.0
 11
1158.268899884
 21
706.230111781
 31
0.0
  0
ARC
  8
0
  6
CONTINUOUS
 62
     1
 10
1223.888409178
 20
686.572543264
 30
0.0
 40
2.0
 50
225.0
 51
315.0
  0
LINE
  8
0
  6
CONTINUOUS
 62
     1
 10
1227.423943084
 20
687.279650045
 30
0.0
 11
1225.30262274
 21
685.158329701
 31
0.0
  0
LINE
  8
0
  6
CONTINUOUS
 62
     1
 10
1164.491439558
 20
675.965941546
 30
0.0
 11
1168.734080245
 21
671.723300859
 31
0.0
  0
LINE
  8
0
  6
LTYPE1
 62
     1
 10
1195.957691321
 20
782.385512115
 30
0.0
 11
1196.819477711
 21
783.247298504
 31
0.0
  0
LINE
  8
0
  6
CONTINUOUS
 62
     1
 10
1196.819477711
 20
783.247298504
 30
0.0
 11
1231.666583771
 21
818.094404565
 31
0.0
  0
LINE
  8
0
  6
CONTINUOUS
 62
     1
 10
1211.690817202
 20
786.097822716
 30
0.0
 11
1216.640564671
 21
781.148075248
 31
0.0
  0
LINE
  8
0
  6
CONTINUOUS
 62
     1
 10
1211.266553134
 20
786.522086785
 30
0.0
 11
1219.2922151
 21
791.57790027
 31
0.0
  0
LINE
  8
0
  6
CONTINUOUS
 62
     1
 10
1221.059982053
 20
807.487802847
 30
0.0
 11
1230.252370209
 21
798.295414691
 31
0.0
  0
LINE
  8
0
  6
CONTINUOUS
 62
     1
 10
1219.2922151
 20
791.57790027
 30
0.0
 11
1228.131049865
 21
800.416735035
 31
0.0
  0
LINE
  8
0
  6
LTYPE2
 62
     2
 10
1222.403484937
 20
816.75090168
 30
0.0
 11
1263.415678246
 21
775.738708371
 31
0.0
  0
LINE
  8
0
  6
CONTINUOUS
 62
     1
 10
1253.233340597
 20
814.205317268
 30
0.0
 11
1224.94906935
 21
785.921046021
 31
0.0
  0
LINE
  8
0
  6
CONTINUOUS
 62
     1
 10
1249.647938583
 20
810.619915254
 30
0.0
 11
1224.94906935
 21
785.921046021
 31
0.0
  0
LINE
  8
0
  6
CONTINUOUS
 62
     1
 10
1249.697806691
 20
817.740851174
 30
0.0
 11
1221.413535444
 21
789.456579926
 31
0.0
  0
LINE
  8
0
  6
CONTINUOUS
 62
     1
 10
1231.666583771
 20
818.094404565
 30
0.0
 11
1240.858971926
 21
808.902016409
 31
0.0
  0
LINE
  8
0
  6
LTYPE2
 62
     2
 10
1244.394505832
 20
816.114505577
 30
0.0
 11
1277.628524548
 21
782.880486861
 31
0.0
  0
LINE
  8
0
  6
CONTINUOUS
 62
     1
 10
1277.982077939
 20
789.456579926
 30
0.0
 11
1249.697806691
 21
817.740851174
 31
0.0
  0
CIRCLE
  8
0
  6
CONTINUOUS
 62
     1
 10
1248.566435841
 20
790.587950776
 30
0.0
 40
9.36
  0
LINE
  8
0
  6
LTYPE2
 62
     2
 10
1257.758823997
 20
799.780338932
 30
0.0
 11
1239.374047686
 21
781.395562621
 31
0.0
  0
CIRCLE
  8
0
  6
CONTINUOUS
 62
     2
 10
1248.566435841
 20
790.587950776
 30
0.0
 40
10.47
  0
LINE
  8
0
  6
LTYPE2
 62
     2
 10
1255.566792975
 20
762.232968851
 30
0.0
 11
1222.332774259
 21
795.466987567
 31
0.0
  0
LINE
  8
0
  6
CONTINUOUS
 62
     1
 10
1221.413535444
 20
789.456579926
 30
0.0
 11
1249.697806691
 21
761.172308679
 31
0.0
  0
LINE
  8
0
  6
CONTINUOUS
 62
     1
 10
1246.515826176
 20
782.031958724
 30
0.0
 11
1255.708214331
 21
772.839570569
 31
0.0
  0
LINE
  8
0
  6
CONTINUOUS
 62
     1
 10
1239.01563631
 20
750.490138298
 30
0.0
 11
1281.164058454
 21
792.638560442
 31
0.0
  0
LINE
  8
0
  6
CONTINUOUS
 62
     1
 10
1281.164058454
 20
792.638560442
 30
0.0
 11
1285.406699141
 21
788.395919755
 31
0.0
  0
LINE
  8
0
  6
CONTINUOUS
 62
     1
 10
1285.406699141
 20
788.395919755
 30
0.0
 11
1244.03555468
 21
747.024775294
 31
0.0
  0
LINE
  8
0
  6
CONTINUOUS
 62
     1
 10
1275.153650814
 20
792.285007051
 30
0.0
 11
1246.869379566
 21
764.000735804
 31
0.0
  0
LINE
  8
0
  6
CONTINUOUS
 62
     1
 10
1257.122427894
 20
792.638560442
 30
0.0
 11
1266.314816049
 21
783.446172286
 31
0.0
  0
LINE
  8
0
  6
CONTINUOUS
 62
     1
 10
1244.748059223
 20
766.122056147
 30
0.0
 11
1253.586893988
 21
774.960890912
 31
0.0
  0
LINE
  8
0
  6
CONTINUOUS
 62
     1
 10
1251.819127035
 20
754.808347648
 30
0.0
 11
1271.971670299
 21
734.655804385
 31
0.0
  0
ARC
  8
0
  6
CONTINUOUS
 62
     1
 10
1270.557456736
 20
733.241590822
 30
0.0
 40
2.0
 50
315.0
 51
45.0
  0
LINE
  8
0
  6
CONTINUOUS
 62
     1
 10
1269.850349955
 20
729.706056916
 30
0.0
 11
1271.971670299
 21
731.82737726
 31
0.0
  0
LINE
  8
0
  6
CONTINUOUS
 62
     1
 10
1300.255941546
 20
721.927882323
 30
0.0
 11
1311.569650045
 21
710.614173824
 31
0.0
  0
ARC
  8
0
  6
CONTINUOUS
 62
     1
 10
1298.841727984
 20
720.513668761
 30
0.0
 40
2.0
 50
45.0
 51
135.0
  0
LINE
  8
0
  6
CONTINUOUS
 62
     1
 10
1290.506991924
 20
715.007359826
 30
0.0
 11
1297.427514421
 21
721.927882323
 31
0.0
  0
LINE
  8
0
  6
CONTINUOUS
 62
     1
 10
1315.812290732
 20
693.643611076
 30
0.0
 11
1303.437922061
 21
706.017979746
 31
0.0
  0
LINE
  8
0
  6
LTYPE1
 62
     2
 10
1254.294000769
 20
650.510097423
 30
0.0
 11
1306.917999616
 21
703.13409627
 31
0.0
  0
LINE
  8
0
  6
LTYPE4
 62
     2
 10
1321.257012947
 20
696.967012947
 30
0.0
 11
1246.162272785
 21
621.872272785
 31
0.0
  0
LINE
  8
0
  6
LTYPE4
 62
     2
 10
1321.257012947
 20
696.967012947
 30
0.0
 11
1246.162272785
 21
621.872272785
 31
0.0
  0
LINE
  8
0
  6
CONTINUOUS
 62
     1
 10
1335.257727215
 20
674.198174593
 30
0.0
 11
1317.933611076
 21
691.522290732
 31
0.0
  0
LINE
  8
0
  6
CONTINUOUS
 62
     1
 10
1282.931825407
 20
621.872272785
 30
0.0
 11
1265.607709268
 21
639.196388924
 31
0.0
  0
LINE
  8
0
  6
CONTINUOUS
 62
     1
 10
1263.486388924
 20
641.317709268
 30
0.0
 11
1251.112020254
 21
653.692077939
 31
0.0
  0
LINE
  8
0
  6
CONTINUOUS
 62
     1
 10
1235.202117677
 20
656.874058454
 30
0.0
 11
1246.515826176
 21
645.560349955
 31
0.0
  0
ARC
  8
0
  6
CONTINUOUS
 62
     1
 10
1247.930039738
 20
646.974563517
 30
0.0
 40
2.0
 50
225.0
 51
315.0
  0
LINE
  8
0
  6
CONTINUOUS
 62
     1
 10
1241.892337765
 20
666.392705667
 30
0.0
 11
1235.202117677
 21
659.702485579
 31
0.0
  0
ARC
  8
0
  6
CONTINUOUS
 62
     1
 10
1236.616331239
 20
658.288272016
 30
0.0
 40
2.0
 50
135.0
 51
225.0
  0
LINE
  8
0
  6
LTYPE1
 62
     2
 10
1303.261145366
 20
699.47724202
 30
0.0
 11
1313.514215272
 21
689.224172114
 31
0.0
  0
LINE
  8
0
  6
LTYPE1
 62
     2
 10
1257.65275798
 20
653.868854634
 30
0.0
 11
1267.905806307
 21
643.615806307
 31
0.0
  0
ARC
  8
0
  6
LTYPE1
 62
     2
 10
1290.71
 20
666.42
 30
0.0
 40
40.0
 50
94.301222305
 51
175.824842809
  0
LINE
  8
0
  6
LTYPE1
 62
     2
 10
1293.71
 20
703.610341615
 30
0.0
 11
1287.71
 21
703.610341615
 31
0.0
  0
LINE
  8
0
  6
LTYPE1
 62
     2
 10
1287.71
 20
706.30734135
 30
0.0
 11
1287.71
 21
703.610341615
 31
0.0
  0
LINE
  8
0
  6
LTYPE1
 62
     2
 10
1293.71
 20
706.30734135
 30
0.0
 11
1293.71
 21
703.610341615
 31
0.0
  0
LINE
  8
0
  6
LTYPE1
 62
     2
 10
1328.71
 20
666.42
 30
0.0
 11
1328.71
 21
674.42
 31
0.0
  0
LINE
  8
0
  6
LTYPE1
 62
     2
 10
1330.59734135
 20
669.42
 30
0.0
 11
1327.900341615
 21
669.42
 31
0.0
  0
LINE
  8
0
  6
LTYPE1
 62
     2
 10
1230.71
 20
686.42
 30
0.0
 11
1256.51
 21
686.42
 31
0.0
  0
LINE
  8
0
  6
LTYPE1
 62
     2
 10
1287.71
 20
626.53265865
 30
0.0
 11
1287.71
 21
629.229658385
 31
0.0
  0
LINE
  8
0
  6
LTYPE1
 62
     2
 10
1327.900341615
 20
669.42
 30
0.0
 11
1327.900341615
 21
666.92
 31
0.0
  0
LINE
  8
0
  6
LTYPE1
 62
     2
 10
1290.71
 20
629.229658385
 30
0.0
 11
1287.71
 21
629.229658385
 31
0.0
  0
LINE
  8
0
  6
CONTINUOUS
 62
     1
 10
1230.71
 20
646.42
 30
0.0
 11
1245.71
 21
646.42
 31
0.0
  0
LINE
  8
0
  6
LTYPE1
 62
     2
 10
1246.11
 20
646.42
 30
0.0
 11
1249.51
 21
646.42
 31
0.0
  0
LINE
  8
0
  6
LTYPE1
 62
     2
 10
1253.21
 20
646.42
 30
0.0
 11
1256.01
 21
646.42
 31
0.0
  0
ARC
  8
0
  6
LTYPE1
 62
     2
 10
1290.71
 20
666.42
 30
0.0
 40
40.0
 50
184.175157191
 51
227.5791475
  0
LINE
  8
0
  6
CONTINUOUS
 62
     1
 10
1230.71
 20
646.42
 30
0.0
 11
1230.71
 21
683.52
 31
0.0
  0
LINE
  8
0
  6
LTYPE1
 62
     2
 10
1230.71
 20
683.52
 30
0.0
 11
1230.71
 21
686.42
 31
0.0
  0
ARC
  8
0
  6
LTYPE1
 62
     2
 10
1237.21
 20
715.92
 30
0.0
 40
5.0
 50
90.0
 51
179.999969099
  0
LINE
  8
0
  6
LTYPE1
 62
     2
 10
1232.21
 20
715.920002697
 30
0.0
 11
1232.21
 21
686.698748346
 31
0.0
  0
LINE
  8
0
  6
LTYPE1
 62
     2
 10
1246.71
 20
720.92
 30
0.0
 11
1237.21
 21
720.92
 31
0.0
  0
ARC
  8
0
  6
LTYPE1
 62
     2
 10
1248.71
 20
734.940045888
 30
0.0
 40
2.0
 50
90.0
 51
180.0
  0
LINE
  8
0
  6
LTYPE1
 62
     2
 10
1246.71
 20
714.02
 30
0.0
 11
1246.71
 21
734.940045888
 31
0.0
  0
ARC
  8
0
  6
LTYPE1
 62
     2
 10
1256.71
 20
736.92
 30
0.0
 40
2.0
 50
90.0
 51
180.0
  0
LINE
  8
0
  6
LTYPE1
 62
     2
 10
1254.71
 20
719.52
 30
0.0
 11
1254.71
 21
736.92
 31
0.0
  0
LINE
  8
0
  6
LTYPE1
 62
     2
 10
1254.888740284
 20
736.940045888
 30
0.0
 11
1248.71
 21
736.940045888
 31
0.0
  0
LINE
  8
0
  6
LTYPE1
 62
     2
 10
1265.102304845
 20
719.92
 30
0.0
 11
1265.102304845
 21
732.82
 31
0.0
  0
ARC
  8
0
  6
CONTINUOUS
 62
     1
 10
1310.155436483
 20
709.199960262
 30
0.0
 40
2.0
 50
315.0
 51
45.0
  0
LINE
  8
0
  6
CONTINUOUS
 62
     2
 10
1230.71
 20
823.42
 30
0.0
 11
1350.71
 21
823.42
 31
0.0
  0
LINE
  8
0
  6
CONTINUOUS
 62
     2
 10
1350.71
 20
823.42
 30
0.0
 11
1341.050741737
 21
826.008190451
 31
0.0
  0
LINE
  8
0
  6
CONTINUOUS
 62
     2
 10
1350.71
 20
823.42
 30
0.0
 11
1341.050741737
 21
820.831809549
 31
0.0
  0
LINE
  8
0
  6
CONTINUOUS
 62
     2
 10
1230.71
 20
823.42
 30
0.0
 11
1240.369258263
 21
820.831809549
 31
0.0
  0
LINE
  8
0
  6
CONTINUOUS
 62
     2
 10
1230.71
 20
823.42
 30
0.0
 11
1240.369258263
 21
826.008190451
 31
0.0
  0
LINE
  8
0
  6
CONTINUOUS
 62
     2
 10
1230.71
 20
691.42
 30
0.0
 11
1230.71
 21
827.42
 31
0.0
  0
LINE
  8
0
  6
CONTINUOUS
 62
     2
 10
1350.71
 20
691.42
 30
0.0
 11
1350.71
 21
827.92
 31
0.0
  0
LINE
  8
0
  6
CONTINUOUS
 62
     2
 10
1290.71
 20
844.32
 30
0.0
 11
1290.71
 21
857.992652293
 31
0.0
  0
LINE
  8
0
  6
LTYPE2
 62
     2
 10
1290.71
 20
823.12
 30
0.0
 11
1290.71
 21
553.42
 31
0.0
  0
LINE
  8
2
  6
CONTINUOUS
 62
     2
 10
1381.210015259
 20
552.92
 30
0.0
 11
1383.79820571
 21
562.579258263
 31
0.0
  0
LINE
  8
2
  6
CONTINUOUS
 62
     2
 10
1381.210015259
 20
552.92
 30
0.0
 11
1378.621824808
 21
562.579258263
 31
0.0
  0
LINE
  8
2
  6
CONTINUOUS
 62
     2
 10
1381.210015259
 20
552.92
 30
0.0
 11
1381.210015259
 21
613.92
 31
0.0
  0
LINE
  8
2
  6
CONTINUOUS
 62
     2
 10
1381.210015259
 20
613.92
 30
0.0
 11
1378.621824808
 21
604.260741737
 31
0.0
  0
LINE
  8
2
  6
CONTINUOUS
 62
     2
 10
1381.210015259
 20
613.92
 30
0.0
 11
1383.79820571
 21
604.260741737
 31
0.0
  0
LINE
  8
2
  6
CONTINUOUS
 62
     2
 10
1374.710015259
 20
613.92
 30
0.0
 11
1389.210015259
 21
613.92
 31
0.0
  0
LINE
  8
2
  6
CONTINUOUS
 62
     2
 10
1381.210015259
 20
613.92
 30
0.0
 11
1383.79820571
 21
623.579258263
 31
0.0
  0
LINE
  8
2
  6
CONTINUOUS
 62
     2
 10
1381.210015259
 20
613.92
 30
0.0
 11
1378.621824808
 21
623.579258263
 31
0.0
  0
LINE
  8
2
  6
CONTINUOUS
 62
     2
 10
1381.210015259
 20
613.92
 30
0.0
 11
1381.210015259
 21
738.92
 31
0.0
  0
LINE
  8
2
  6
CONTINUOUS
 62
     2
 10
1381.210015259
 20
738.92
 30
0.0
 11
1378.621824808
 21
729.260741737
 31
0.0
  0
LINE
  8
2
  6
CONTINUOUS
 62
     2
 10
1381.210015259
 20
738.92
 30
0.0
 11
1383.79820571
 21
729.260741737
 31
0.0
  0
LINE
  8
2
  6
CONTINUOUS
 62
     2
 10
1385.210015259
 20
738.92
 30
0.0
 11
1418.21
 21
738.92
 31
0.0
  0
LINE
  8
2
  6
CONTINUOUS
 62
     2
 10
1410.21
 20
738.92
 30
0.0
 11
1407.621809549
 21
729.260741737
 31
0.0
  0
LINE
  8
2
  6
CONTINUOUS
 62
     2
 10
1410.21
 20
738.92
 30
0.0
 11
1412.798190451
 21
729.260741737
 31
0.0
  0
LINE
  8
2
  6
CONTINUOUS
 62
     2
 10
1410.21
 20
738.92
 30
0.0
 11
1410.21
 21
552.92
 31
0.0
  0
LINE
  8
2
  6
CONTINUOUS
 62
     2
 10
1410.21
 20
552.92
 30
0.0
 11
1412.798190451
 21
562.579258263
 31
0.0
  0
LINE
  8
2
  6
CONTINUOUS
 62
     2
 10
1410.21
 20
552.92
 30
0.0
 11
1407.621809549
 21
562.579258263
 31
0.0
  0
LINE
  8
2
  6
CONTINUOUS
 62
     2
 10
1389.210015259
 20
552.92
 30
0.0
 11
1418.21
 21
552.92
 31
0.0
  0
TEXT
  8
2
  6
CONTINUOUS
 62
     3
 10
1406.21
 20
625.52
 30
0.0
 40
15.0
  1
１８６
 50
90.0
 41
0.9
 51
0.0
  7
KANJI28
  0
ARC
  8
0
  6
CONTINUOUS
 62
     1
 10
1290.71
 20
666.42
 30
0.0
 40
47.5
 50
206.89144052
 51
62.863064986
  0
ARC
  8
0
  6
LTYPE1
 62
     2
 10
1290.71
 20
666.42
 30
0.0
 40
47.5
 50
63.445832246
 51
206.872538992
  0
LINE
  8
0
  6
CONTINUOUS
 62
     2
 10
1444.25
 20
589.0
 30
0.0
 11
1564.25
 21
589.0
 31
0.0
  0
TEXT
  8
0
  6
CONTINUOUS
 62
     2
 10
1454.75
 20
596.0
 30
10.0
 40
20.0
  1
特記事項
 50
0.0
 41
0.9
 51
0.0
  7
KANJI29
  0
TEXT
  8
0
  6
CONTINUOUS
 62
     2
 10
1449.75
 20
446.25
 30
1.5
 40
17.5
  1
　　ストローク７００ｍｍ以上の場合２ロッド方式となります。
 50
0.0
 41
0.857142857
 51
0.0
  7
KANJI30
  0
TEXT
  8
0
  6
CONTINUOUS
 62
     2
 10
1449.75
 20
496.25
 30
1.5
 40
17.5
  1
３．ＬＳユニット
 50
0.0
 41
0.857142857
 51
0.0
  7
KANJI30
  0
TEXT
  8
0
  6
CONTINUOUS
 62
     2
 10
1449.75
 20
558.75
 30
1.5
 40
17.5
  1
１．運転時は必ずピストンロッドの回転防止を行って下さい。
 50
0.0
 41
0.857142857
 51
0.0
  7
KANJI30
  0
TEXT
  8
0
  6
CONTINUOUS
 62
     2
 10
1449.75
 20
471.25
 30
1.5
 40
17.5
  1
　　リミットスイッチ：１ＬＳ１－Ｊｘ２ケ（山武）
 50
0.0
 41
0.857142857
 51
0.0
  7
KANJI30
  0
TEXT
  8
0
  6
CONTINUOUS
 62
     2
 10
1449.75
 20
527.5
 30
1.5
 40
17.5
  1
２．モートル：全閉自冷かご形３０分定格
 50
0.0
 41
0.857142857
 51
0.0
  7
KANJI30
  0
TEXT
  8
0
  6
CONTINUOUS
 62
     2
 10
1449.75
 20
418.75
 30
1.5
 40
17.5
  1
４．呼称ストロークは、機械的ストロークです。
 50
0.0
 41
0.857142857
 51
0.0
  7
KANJI30
  0
TEXT
  8
0
  6
CONTINUOUS
 62
     2
 10
1449.75
 20
387.95
 30
1.5
 40
17.5
  1
　　必ず、常用はストローク両端に必ず余裕を取って下さい。
 50
0.0
 41
0.857142857
 51
0.0
  7
KANJI30
  0
TEXT
  8
0
  6
CONTINUOUS
 62
     2
 10
1449.75
 20
356.47
 30
1.5
 40
17.5
  1
　　前後の推奨余裕寸法は、各々１５ｍｍです。
 50
0.0
 41
0.857142857
 51
0.0
  7
KANJI30
  0
LINE
  8
0
  6
LTYPE3
 62
     6
 10
111.458333
 20
1041.333317
 30
0.0
 11
111.458333
 21
1024.932460936
 31
0.0
  0
LINE
  8
0
  6
LTYPE3
 62
     6
 10
241.855262694
 20
1041.333317
 30
0.0
 11
111.458333
 21
1041.333317
 31
0.0
  0
TEXT
  8
0
  6
CONTINUOUS
 62
     6
 10
93.923590591
 20
1027.848168681
 30
1.093390404
 40
10.933904043
  1
Ｕ
 50
0.0
 41
0.9
 51
0.0
  7
KANJI31
  0
CIRCLE
  8
0
  6
CONTINUOUS
 62
     6
 10
111.458333
 20
1021.652289723
 30
0.0
 40
4.373561617
  0
LINE
  8
0
  6
CONTINUOUS
 62
     6
 10
106.43354931
 20
1016.627506033
 30
0.0
 11
116.638526417
 21
1026.83248314
 31
0.0
  0
TEXT
  8
0
  6
CONTINUOUS
 62
     6
 10
121.703806047
 20
1049.999448352
 30
1.518597784
 40
15.185977837
  1
エコノストップモータ
 50
0.0
 41
0.66671875
 51
0.0
  7
KANJI32
  0
LINE
  8
0
  6
LTYPE3
 62
     6
 10
241.855262694
 20
945.921584891
 30
0.0
 11
241.855262694
 21
1041.333317
 31
0.0
  0
CIRCLE
  8
0
  6
CONTINUOUS
 62
     6
 10
156.287339575
 20
996.139846957
 30
0.0
 40
18.223173404
  0
TEXT
  8
0
  6
CONTINUOUS
 62
     6
 10
148.633606745
 20
987.392723723
 30
1.82231734
 40
18.223173404
  1
Ｍ
 50
0.0
 41
0.9
 51
0.0
  7
KANJI33
  0
LINE
  8
0
  6
CONTINUOUS
 62
     6
 10
132.232750681
 20
970.627404191
 30
0.0
 11
143.531118192
 21
983.748089042
 31
0.0
  0
LINE
  8
0
  6
CONTINUOUS
 62
     6
 10
132.232750681
 20
1021.652289723
 30
0.0
 11
143.531118192
 21
1008.531604872
 31
0.0
  0
LINE
  8
0
  6
CONTINUOUS
 62
     6
 10
132.232750681
 20
1021.652289723
 30
0.0
 11
115.831894617
 21
1021.652289723
 31
0.0
  0
LINE
  8
0
  6
CONTINUOUS
 62
     6
 10
138.428629639
 20
996.139846957
 30
0.0
 11
115.831894617
 21
996.139846957
 31
0.0
  0
LINE
  8
0
  6
CONTINUOUS
 62
     6
 10
132.232750681
 20
970.627404191
 30
0.0
 11
115.831894617
 21
970.627404191
 31
0.0
  0
TEXT
  8
0
  6
CONTINUOUS
 62
     6
 10
95.016980995
 20
1001.971262446
 30
1.093390404
 40
10.933904043
  1
Ｖ
 50
0.0
 41
0.9
 51
0.0
  7
KANJI31
  0
TEXT
  8
0
  6
CONTINUOUS
 62
     6
 10
96.110371399
 20
976.094356212
 30
1.093390404
 40
10.933904043
  1
Ｗ
 50
0.0
 41
0.9
 51
0.0
  7
KANJI31
  0
CIRCLE
  8
0
  6
CONTINUOUS
 62
     6
 10
111.458333
 20
996.139846957
 30
0.0
 40
4.373561617
  0
LINE
  8
0
  6
CONTINUOUS
 62
     6
 10
106.43354931
 20
991.115063267
 30
0.0
 11
116.638526417
 21
1001.320040374
 31
0.0
  0
LINE
  8
0
  6
LTYPE3
 62
     6
 10
111.458333
 20
1017.643191574
 30
0.0
 11
111.458333
 21
999.42001817
 31
0.0
  0
CIRCLE
  8
0
  6
CONTINUOUS
 62
     6
 10
111.458333
 20
970.627404191
 30
0.0
 40
4.373561617
  0
LINE
  8
0
  6
CONTINUOUS
 62
     6
 10
106.43354931
 20
965.602620501
 30
0.0
 11
116.638526417
 21
975.807597607
 31
0.0
  0
LINE
  8
0
  6
LTYPE3
 62
     6
 10
111.458333
 20
992.130748808
 30
0.0
 11
111.458333
 21
975.000965808
 31
0.0
  0
LINE
  8
0
  6
LTYPE3
 62
     6
 10
241.855262694
 20
945.921584891
 30
0.0
 11
111.458333
 21
945.921584891
 31
0.0
  0
LINE
  8
0
  6
LTYPE3
 62
     6
 10
111.458333
 20
966.253842574
 30
0.0
 11
111.458333
 21
945.921584891
 31
0.0
  0
TEXT
  8
0
  6
CONTINUOUS
 62
     2
 10
116.553726364
 20
920.712221811
 30
0.0
 40
15.6
  1
モーター結線図
 50
0.0
 41
0.925
 51
0.0
  7
KANJI34
  0
TEXT
  8
0
  6
CONTINUOUS
 62
     6
 10
182.528709277
 20
987.884749405
 30
1.457853872
 40
14.578538724
  1
Ｂ
 50
0.0
 41
0.9
 51
0.0
  7
KANJI35
  0
CIRCLE
  8
0
  6
CONTINUOUS
 62
     6
 10
189.089051703
 20
996.139846957
 30
0.0
 40
14.578538724
  0
TEXT
  8
0
  6
CONTINUOUS
 62
     2
 10
351.05
 20
625.5
 30
5.0
 40
20.0
  1
銘板
 50
0.0
 41
0.925
 51
0.0
  7
KANJI36
  0
LINE
  8
0
  6
CONTINUOUS
 62
     1
 10
340.05
 20
620.5
 30
0.0
 11
410.05
 21
620.5
 31
0.0
  0
LINE
  8
0
  6
CONTINUOUS
 62
     1
 10
340.05
 20
663.5
 30
0.0
 11
340.05
 21
620.5
 31
0.0
  0
LINE
  8
0
  6
CONTINUOUS
 62
     1
 10
340.05
 20
663.5
 30
0.0
 11
410.05
 21
663.5
 31
0.0
  0
LINE
  8
0
  6
CONTINUOUS
 62
     1
 10
410.05
 20
663.5
 30
0.0
 11
410.05
 21
620.5
 31
0.0
  0
LINE
  8
0
  6
CONTINUOUS
 62
     2
 10
1121.95
 20
722.2
 30
0.0
 11
1109.875927171
 21
725.435238064
 31
0.0
  0
LINE
  8
0
  6
CONTINUOUS
 62
     2
 10
1121.95
 20
722.2
 30
0.0
 11
1109.875927171
 21
718.964761936
 31
0.0
  0
LINE
  8
0
  6
CONTINUOUS
 62
     2
 10
1121.95
 20
722.2
 30
0.0
 11
1080.95
 21
722.2
 31
0.0
  0
TEXT
  8
0
  6
CONTINUOUS
 62
     3
 10
1087.95
 20
732.2
 30
0.0
 40
20.0
  1
前進
 50
0.0
 41
0.925
 51
0.0
  7
KANJI37
  0
POLYLINE
  8
0
  6
CONTINUOUS
 62
     1
 66
     1
  0
VERTEX
  8
0
  6
CONTINUOUS
 62
     1
 10
1002.75
 20
647.0
 30
0.0
  0
VERTEX
  8
0
  6
CONTINUOUS
 62
     1
 10
1002.75
 20
667.0
 30
0.0
  0
VERTEX
  8
0
  6
CONTINUOUS
 62
     1
 10
1002.75
 20
647.0
 30
0.0
  0
SEQEND
  0
LINE
  8
0
  6
CONTINUOUS
 62
     1
 10
1002.75
 20
667.0
 30
0.0
 11
1002.75
 21
687.0
 31
0.0
  0
LINE
  8
0
  6
CONTINUOUS
 62
     1
 10
942.75
 20
648.0
 30
0.0
 11
1002.75
 21
648.0
 31
0.0
  0
LINE
  8
0
  6
CONTINUOUS
 62
     2
 10
1052.75
 20
647.0
 30
0.0
 11
1123.25
 21
647.0
 31
0.0
  0
LINE
  8
0
  6
CONTINUOUS
 62
     2
 10
1115.25
 20
647.0
 30
0.0
 11
1117.838190451
 21
656.659258263
 31
0.0
  0
LINE
  8
0
  6
CONTINUOUS
 62
     2
 10
1115.25
 20
647.0
 30
0.0
 11
1112.661809549
 21
656.659258263
 31
0.0
  0
LINE
  8
0
  6
CONTINUOUS
 62
     2
 10
1115.25
 20
647.0
 30
0.0
 11
1115.25
 21
687.0
 31
0.0
  0
LINE
  8
0
  6
CONTINUOUS
 62
     2
 10
1115.25
 20
687.0
 30
0.0
 11
1112.661809549
 21
677.340741737
 31
0.0
  0
LINE
  8
0
  6
CONTINUOUS
 62
     2
 10
1115.25
 20
687.0
 30
0.0
 11
1117.838190451
 21
677.340741737
 31
0.0
  0
LINE
  8
0
  6
CONTINUOUS
 62
     2
 10
1052.75
 20
687.0
 30
0.0
 11
1123.25
 21
687.0
 31
0.0
  0
LINE
  8
0
  6
CONTINUOUS
 62
     1
 10
912.75
 20
698.75
 30
0.0
 11
912.75
 21
667.0
 31
0.0
  0
LINE
  8
0
  6
CONTINUOUS
 62
     1
 10
1002.75
 20
687.0
 30
0.0
 11
1002.75
 21
667.0
 31
0.0
  0
LINE
  8
0
  6
CONTINUOUS
 62
     1
 10
942.75
 20
648.0
 30
0.0
 11
1002.75
 21
648.0
 31
0.0
  0
LINE
  8
0
  6
CONTINUOUS
 62
     1
 10
1002.75
 20
667.0
 30
0.0
 11
1002.75
 21
687.0
 31
0.0
  0
LINE
  8
0
  6
CONTINUOUS
 62
     1
 10
1002.75
 20
667.0
 30
0.0
 11
1002.75
 21
647.0
 31
0.0
  0
LINE
  8
0
  6
CONTINUOUS
 62
     1
 10
985.75
 20
690.0
 30
0.0
 11
999.75
 21
690.0
 31
0.0
  0
LINE
  8
0
  6
CONTINUOUS
 62
     1
 10
999.75
 20
667.0
 30
0.0
 11
999.75
 21
690.0
 31
0.0
  0
LINE
  8
0
  6
CONTINUOUS
 62
     1
 10
999.75
 20
688.0
 30
0.0
 11
1002.75
 21
688.0
 31
0.0
  0
LINE
  8
0
  6
CONTINUOUS
 62
     1
 10
982.75
 20
688.0
 30
0.0
 11
985.75
 21
688.0
 31
0.0
  0
LINE
  8
0
  6
CONTINUOUS
 62
     1
 10
982.75
 20
688.0
 30
0.0
 11
975.178072258
 21
716.258819045
 31
0.0
  0
ARC
  8
0
  6
CONTINUOUS
 62
     1
 10
974.212146432
 20
716.0
 30
0.0
 40
1.0
 50
15.0
 51
90.0
  0
ARC
  8
0
  6
CONTINUOUS
 62
     1
 10
974.212146432
 20
716.0
 30
0.0
 40
1.0
 50
90.0
 51
165.0
  0
LINE
  8
0
  6
CONTINUOUS
 62
     1
 10
970.963926358
 20
707.741180955
 30
0.0
 11
973.246220605
 21
716.258819045
 31
0.0
  0
ARC
  8
0
  6
CONTINUOUS
 62
     1
 10
969.998000531
 20
708.0
 30
0.0
 40
1.0
 50
270.0
 51
345.0
  0
ARC
  8
0
  6
CONTINUOUS
 62
     1
 10
969.998000531
 20
708.0
 30
0.0
 40
1.0
 50
195.0
 51
270.0
  0
LINE
  8
0
  6
CONTINUOUS
 62
     1
 10
969.032074705
 20
707.741180955
 30
0.0
 11
966.749780457
 21
716.258819045
 31
0.0
  0
ARC
  8
0
  6
CONTINUOUS
 62
     1
 10
965.783854631
 20
716.0
 30
0.0
 40
1.0
 50
15.0
 51
90.0
  0
ARC
  8
0
  6
CONTINUOUS
 62
     1
 10
961.569708731
 20
708.0
 30
0.0
 40
1.0
 50
270.0
 51
345.0
  0
LINE
  8
0
  6
CONTINUOUS
 62
     1
 10
962.535634557
 20
707.741180955
 30
0.0
 11
964.817928805
 21
716.258819045
 31
0.0
  0
ARC
  8
0
  6
CONTINUOUS
 62
     1
 10
965.783854631
 20
716.0
 30
0.0
 40
1.0
 50
90.0
 51
165.0
  0
LINE
  8
0
  6
CONTINUOUS
 62
     1
 10
985.75
 20
644.0
 30
0.0
 11
999.75
 21
644.0
 31
0.0
  0
LINE
  8
0
  6
CONTINUOUS
 62
     1
 10
999.75
 20
646.0
 30
0.0
 11
1002.75
 21
646.0
 31
0.0
  0
LINE
  8
0
  6
CONTINUOUS
 62
     1
 10
982.75
 20
646.0
 30
0.0
 11
975.178072258
 21
617.741180955
 31
0.0
  0
ARC
  8
0
  6
CONTINUOUS
 62
     1
 10
974.212146432
 20
618.0
 30
0.0
 40
1.0
 50
270.0
 51
345.0
  0
ARC
  8
0
  6
CONTINUOUS
 62
     1
 10
974.212146432
 20
618.0
 30
0.0
 40
1.0
 50
195.0
 51
270.0
  0
LINE
  8
0
  6
CONTINUOUS
 62
     1
 10
970.963926358
 20
626.258819045
 30
0.0
 11
973.246220605
 21
617.741180955
 31
0.0
  0
ARC
  8
0
  6
CONTINUOUS
 62
     1
 10
969.998000531
 20
626.0
 30
0.0
 40
1.0
 50
15.0
 51
90.0
  0
ARC
  8
0
  6
CONTINUOUS
 62
     1
 10
969.998000531
 20
626.0
 30
0.0
 40
1.0
 50
90.0
 51
165.0
  0
LINE
  8
0
  6
CONTINUOUS
 62
     1
 10
969.032074705
 20
626.258819045
 30
0.0
 11
966.749780457
 21
617.741180955
 31
0.0
  0
ARC
  8
0
  6
CONTINUOUS
 62
     1
 10
965.783854631
 20
618.0
 30
0.0
 40
1.0
 50
270.0
 51
345.0
  0
ARC
  8
0
  6
CONTINUOUS
 62
     1
 10
961.569708731
 20
626.0
 30
0.0
 40
1.0
 50
15.0
 51
90.0
  0
LINE
  8
0
  6
CONTINUOUS
 62
     1
 10
962.535634557
 20
626.258819045
 30
0.0
 11
964.817928805
 21
617.741180955
 31
0.0
  0
ARC
  8
0
  6
CONTINUOUS
 62
     1
 10
965.783854631
 20
618.0
 30
0.0
 40
1.0
 50
195.0
 51
270.0
  0
LINE
  8
0
  6
CONTINUOUS
 62
     1
 10
965.783854631
 20
717.0
 30
0.0
 11
965.783854631
 21
667.0
 31
0.0
  0
LINE
  8
0
  6
CONTINUOUS
 62
     1
 10
961.369708731
 20
707.0
 30
0.0
 11
961.369708731
 21
667.0
 31
0.0
  0
LINE
  8
0
  6
CONTINUOUS
 62
     1
 10
969.998000531
 20
707.0
 30
0.0
 11
969.998000531
 21
667.0
 31
0.0
  0
LINE
  8
0
  6
CONTINUOUS
 62
     1
 10
974.212146432
 20
667.0
 30
0.0
 11
974.212146432
 21
717.0
 31
0.0
  0
LINE
  8
0
  6
CONTINUOUS
 62
     1
 10
985.75
 20
667.0
 30
0.0
 11
985.75
 21
690.0
 31
0.0
  0
LINE
  8
0
  6
CONTINUOUS
 62
     1
 10
982.75
 20
667.0
 30
0.0
 11
982.75
 21
688.0
 31
0.0
  0
LINE
  8
0
  6
CONTINUOUS
 62
     1
 10
892.75
 20
633.25
 30
0.0
 11
912.75
 21
633.25
 31
0.0
  0
LINE
  8
0
  6
CONTINUOUS
 62
     1
 10
912.75
 20
633.25
 30
0.0
 11
916.905575539
 21
617.741180955
 31
0.0
  0
ARC
  8
0
  6
CONTINUOUS
 62
     1
 10
917.871501365
 20
618.0
 30
0.0
 40
1.0
 50
195.0
 51
270.0
  0
ARC
  8
0
  6
CONTINUOUS
 62
     1
 10
917.871501365
 20
618.0
 30
0.0
 40
1.0
 50
270.0
 51
345.0
  0
LINE
  8
0
  6
CONTINUOUS
 62
     1
 10
921.119721439
 20
626.258819045
 30
0.0
 11
918.837427191
 21
617.741180955
 31
0.0
  0
ARC
  8
0
  6
CONTINUOUS
 62
     1
 10
922.085647265
 20
626.0
 30
0.0
 40
1.0
 50
90.0
 51
165.0
  0
ARC
  8
0
  6
CONTINUOUS
 62
     1
 10
926.299793166
 20
618.0
 30
0.0
 40
1.0
 50
195.0
 51
270.0
  0
LINE
  8
0
  6
CONTINUOUS
 62
     1
 10
923.051573092
 20
626.258819045
 30
0.0
 11
925.333867339
 21
617.741180955
 31
0.0
  0
ARC
  8
0
  6
CONTINUOUS
 62
     1
 10
922.085647265
 20
626.0
 30
0.0
 40
1.0
 50
15.0
 51
90.0
  0
ARC
  8
0
  6
CONTINUOUS
 62
     1
 10
926.299814745
 20
618.0
 30
0.0
 40
1.0
 50
270.0
 51
345.0
  0
LINE
  8
0
  6
CONTINUOUS
 62
     1
 10
929.548034819
 20
626.258819045
 30
0.0
 11
927.265740571
 21
617.741180955
 31
0.0
  0
ARC
  8
0
  6
CONTINUOUS
 62
     1
 10
930.513960645
 20
626.0
 30
0.0
 40
1.0
 50
90.0
 51
165.0
  0
LINE
  8
0
  6
CONTINUOUS
 62
     1
 10
895.75
 20
631.25
 30
0.0
 11
909.75
 21
631.25
 31
0.0
  0
LINE
  8
0
  6
CONTINUOUS
 62
     1
 10
892.75
 20
700.75
 30
0.0
 11
892.75
 21
667.0
 31
0.0
  0
LINE
  8
0
  6
CONTINUOUS
 62
     1
 10
912.75
 20
700.75
 30
0.0
 11
912.75
 21
667.0
 31
0.0
  0
LINE
  8
0
  6
CONTINUOUS
 62
     1
 10
912.75
 20
700.75
 30
0.0
 11
916.905575539
 21
716.258819045
 31
0.0
  0
ARC
  8
0
  6
CONTINUOUS
 62
     1
 10
917.871501365
 20
716.0
 30
0.0
 40
1.0
 50
90.0
 51
165.0
  0
ARC
  8
0
  6
CONTINUOUS
 62
     1
 10
917.871501365
 20
716.0
 30
0.0
 40
1.0
 50
15.0
 51
90.0
  0
LINE
  8
0
  6
CONTINUOUS
 62
     1
 10
921.119721439
 20
707.741180955
 30
0.0
 11
918.837427191
 21
716.258819045
 31
0.0
  0
ARC
  8
0
  6
CONTINUOUS
 62
     1
 10
922.085647265
 20
708.0
 30
0.0
 40
1.0
 50
195.0
 51
270.0
  0
ARC
  8
0
  6
CONTINUOUS
 62
     1
 10
926.299793166
 20
716.0
 30
0.0
 40
1.0
 50
90.0
 51
165.0
  0
LINE
  8
0
  6
CONTINUOUS
 62
     1
 10
923.051573092
 20
707.741180955
 30
0.0
 11
925.333867339
 21
716.258819045
 31
0.0
  0
ARC
  8
0
  6
CONTINUOUS
 62
     1
 10
922.085647265
 20
708.0
 30
0.0
 40
1.0
 50
270.0
 51
345.0
  0
ARC
  8
0
  6
CONTINUOUS
 62
     1
 10
926.299814745
 20
716.0
 30
0.0
 40
1.0
 50
15.0
 51
90.0
  0
LINE
  8
0
  6
CONTINUOUS
 62
     1
 10
929.548034819
 20
707.741180955
 30
0.0
 11
927.265740571
 21
716.258819045
 31
0.0
  0
ARC
  8
0
  6
CONTINUOUS
 62
     1
 10
930.513960645
 20
708.0
 30
0.0
 40
1.0
 50
195.0
 51
270.0
  0
LINE
  8
0
  6
CONTINUOUS
 62
     1
 10
895.75
 20
702.75
 30
0.0
 11
895.75
 21
667.0
 31
0.0
  0
LINE
  8
0
  6
CONTINUOUS
 62
     1
 10
895.75
 20
702.75
 30
0.0
 11
909.75
 21
702.75
 31
0.0
  0
LINE
  8
0
  6
CONTINUOUS
 62
     1
 10
909.75
 20
702.75
 30
0.0
 11
909.75
 21
667.0
 31
0.0
  0
LINE
  8
0
  6
CONTINUOUS
 62
     1
 10
892.75
 20
633.25
 30
0.0
 11
892.75
 21
635.25
 31
0.0
  0
LINE
  8
0
  6
CONTINUOUS
 62
     1
 10
909.75
 20
631.25
 30
0.0
 11
909.75
 21
633.25
 31
0.0
  0
LINE
  8
0
  6
CONTINUOUS
 62
     1
 10
895.75
 20
631.25
 30
0.0
 11
895.75
 21
633.25
 31
0.0
  0
LINE
  8
0
  6
CONTINUOUS
 62
     1
 10
909.75
 20
700.75
 30
0.0
 11
912.75
 21
700.75
 31
0.0
  0
LINE
  8
0
  6
CONTINUOUS
 62
     1
 10
892.75
 20
700.75
 30
0.0
 11
895.75
 21
700.75
 31
0.0
  0
LINE
  8
0
  6
CONTINUOUS
 62
     1
 10
917.871501365
 20
717.0
 30
0.0
 11
917.871501365
 21
667.0
 31
0.0
  0
LINE
  8
0
  6
CONTINUOUS
 62
     1
 10
922.085658055
 20
707.0
 30
0.0
 11
922.085658055
 21
667.0
 31
0.0
  0
LINE
  8
0
  6
CONTINUOUS
 62
     1
 10
926.299814745
 20
717.0
 30
0.0
 11
926.299814745
 21
667.0
 31
0.0
  0
LINE
  8
0
  6
CONTINUOUS
 62
     1
 10
930.513971435
 20
707.0
 30
0.0
 11
930.513971435
 21
667.0
 31
0.0
  0
LINE
  8
0
  6
CONTINUOUS
 62
     1
 10
982.75
 20
648.0
 30
0.0
 11
982.75
 21
646.0
 31
0.0
  0
LINE
  8
0
  6
CONTINUOUS
 62
     1
 10
985.75
 20
646.0
 30
0.0
 11
985.75
 21
644.0
 31
0.0
  0
LINE
  8
0
  6
CONTINUOUS
 62
     1
 10
999.75
 20
646.0
 30
0.0
 11
999.75
 21
644.0
 31
0.0
  0
LINE
  8
0
  6
CONTINUOUS
 62
     1
 10
982.75
 20
646.0
 30
0.0
 11
999.75
 21
646.0
 31
0.0
  0
LINE
  8
0
  6
CONTINUOUS
 62
     1
 10
1002.75
 20
646.0
 30
0.0
 11
1002.75
 21
667.0
 31
0.0
  0
LINE
  8
0
  6
LTYPE2
 62
     3
 10
917.871501365
 20
617.0
 30
0.0
 11
974.212146432
 21
617.0
 31
0.0
  0
LINE
  8
0
  6
LTYPE2
 62
     3
 10
922.085647265
 20
627.0
 30
0.0
 11
969.998000531
 21
627.0
 31
0.0
  0
LINE
  8
0
  6
LTYPE2
 62
     3
 10
917.871501365
 20
717.0
 30
0.0
 11
974.212146432
 21
717.0
 31
0.0
  0
LINE
  8
0
  6
LTYPE2
 62
     3
 10
922.085647265
 20
707.0
 30
0.0
 11
969.998000531
 21
707.0
 31
0.0
  0
LINE
  8
0
  6
CONTINUOUS
 62
     1
 10
942.75
 20
667.0
 30
0.0
 11
942.75
 21
635.25
 31
0.0
  0
LINE
  8
0
  6
CONTINUOUS
 62
     1
 10
1002.85
 20
646.8
 30
0.0
 11
1002.85
 21
666.8
 31
0.0
  0
LINE
  8
0
  6
CONTINUOUS
 62
     1
 10
1002.85
 20
666.8
 30
0.0
 11
1002.85
 21
646.8
 31
0.0
  0
LINE
  8
0
  6
CONTINUOUS
 62
     1
 10
1002.85
 20
687.8
 30
0.0
 11
1002.85
 21
666.8
 31
0.0
  0
LINE
  8
0
  6
CONTINUOUS
 62
     1
 10
1002.85
 20
666.8
 30
0.0
 11
1002.85
 21
693.8
 31
0.0
  0
LINE
  8
0
  6
CONTINUOUS
 62
     1
 10
1018.85
 20
577.8
 30
0.0
 11
1018.85
 21
693.8
 31
0.0
  0
LINE
  8
0
  6
CONTINUOUS
 62
     1
 10
1018.85
 20
666.8
 30
0.0
 11
1018.85
 21
696.8
 31
0.0
  0
POINT
  8
0
  6
CONTINUOUS
 62
     1
 10
885.489501379
 20
666.8
 30
0.0
  0
LINE
  8
0
  6
CONTINUOUS
 62
     1
 10
892.75
 20
700.75
 30
0.0
 11
892.75
 21
698.75
 31
0.0
  0
LINE
  8
0
  6
CONTINUOUS
 62
     1
 10
892.75
 20
635.25
 30
0.0
 11
942.75
 21
635.25
 31
0.0
  0
LINE
  8
0
  6
LTYPE3
 62
     2
 10
1053.85
 20
628.8
 30
0.0
 11
1053.85
 21
704.8
 31
0.0
  0
LINE
  8
0
  6
LTYPE2
 62
     2
 10
1053.85
 20
343.3
 30
0.0
 11
1053.85
 21
628.8
 31
0.0
  0
LINE
  8
2
  6
CONTINUOUS
 62
     2
 10
1053.85
 20
875.2
 30
0.0
 11
1044.190741737
 21
877.788190451
 31
0.0
  0
LINE
  8
2
  6
CONTINUOUS
 62
     2
 10
1053.85
 20
875.2
 30
0.0
 11
1044.190741737
 21
872.611809549
 31
0.0
  0
LINE
  8
2
  6
CONTINUOUS
 62
     2
 10
1053.85
 20
844.7
 30
0.0
 11
1044.190741737
 21
847.288190451
 31
0.0
  0
LINE
  8
2
  6
CONTINUOUS
 62
     2
 10
1053.85
 20
844.7
 30
0.0
 11
1044.190741737
 21
842.111809549
 31
0.0
  0
LINE
  8
2
  6
CONTINUOUS
 62
     2
 10
1053.85
 20
871.2
 30
0.0
 11
1053.85
 21
836.7
 31
0.0
  0
LINE
  8
2
  6
CONTINUOUS
 62
     2
 10
942.75
 20
812.5
 30
0.0
 11
933.090741737
 21
815.088190451
 31
0.0
  0
LINE
  8
2
  6
CONTINUOUS
 62
     2
 10
942.75
 20
812.5
 30
0.0
 11
933.090741737
 21
809.911809549
 31
0.0
  0
LINE
  8
2
  6
CONTINUOUS
 62
     2
 10
942.75
 20
717.0
 30
0.0
 11
942.75
 21
820.5
 31
0.0
  0
LINE
  8
2
  6
CONTINUOUS
 62
     2
 10
942.75
 20
812.5
 30
0.0
 11
952.409258263
 21
809.911809549
 31
0.0
  0
LINE
  8
2
  6
CONTINUOUS
 62
     2
 10
942.75
 20
812.5
 30
0.0
 11
952.409258263
 21
815.088190451
 31
0.0
  0
LINE
  8
2
  6
CONTINUOUS
 62
     2
 10
942.75
 20
812.5
 30
0.0
 11
1018.85
 21
812.5
 31
0.0
  0
LINE
  8
2
  6
CONTINUOUS
 62
     2
 10
1018.85
 20
812.5
 30
0.0
 11
1009.190741737
 21
815.088190451
 31
0.0
  0
LINE
  8
2
  6
CONTINUOUS
 62
     2
 10
1018.85
 20
812.5
 30
0.0
 11
1009.190741737
 21
809.911809549
 31
0.0
  0
LINE
  8
2
  6
CONTINUOUS
 62
     2
 10
1018.85
 20
700.8
 30
0.0
 11
1018.85
 21
820.5
 31
0.0
  0
LINE
  8
2
  6
CONTINUOUS
 62
     2
 10
1018.85
 20
812.5
 30
0.0
 11
1028.509258263
 21
809.911809549
 31
0.0
  0
LINE
  8
2
  6
CONTINUOUS
 62
     2
 10
1018.85
 20
812.5
 30
0.0
 11
1028.509258263
 21
815.088190451
 31
0.0
  0
LINE
  8
2
  6
CONTINUOUS
 62
     2
 10
1018.85
 20
812.5
 30
0.0
 11
1053.85
 21
812.5
 31
0.0
  0
LINE
  8
2
  6
CONTINUOUS
 62
     2
 10
1053.85
 20
812.5
 30
0.0
 11
1044.190741737
 21
815.088190451
 31
0.0
  0
LINE
  8
2
  6
CONTINUOUS
 62
     2
 10
1053.85
 20
812.5
 30
0.0
 11
1044.190741737
 21
809.911809549
 31
0.0
  0
LINE
  8
2
  6
CONTINUOUS
 62
     2
 10
1053.85
 20
840.7
 30
0.0
 11
1053.85
 21
804.5
 31
0.0
  0
LINE
  8
2
  6
CONTINUOUS
 62
     2
 10
1071.85
 20
875.2
 30
0.0
 11
1081.509258263
 21
877.788190451
 31
0.0
  0
LINE
  8
2
  6
CONTINUOUS
 62
     2
 10
1071.85
 20
875.2
 30
0.0
 11
1081.509258263
 21
872.611809549
 31
0.0
  0
LINE
  8
2
  6
CONTINUOUS
 62
     2
 10
1053.85
 20
875.2
 30
0.0
 11
1044.190741737
 21
877.788190451
 31
0.0
  0
LINE
  8
2
  6
CONTINUOUS
 62
     2
 10
1053.85
 20
875.2
 30
0.0
 11
1044.190741737
 21
872.611809549
 31
0.0
  0
LINE
  8
0
  6
CONTINUOUS
 62
     1
 10
908.85
 20
635.25
 30
0.0
 11
908.85
 21
666.8
 31
0.0
  0
LINE
  8
0
  6
CONTINUOUS
 62
     1
 10
1002.85
 20
696.8
 30
0.0
 11
1018.85
 21
696.8
 31
0.0
  0
LINE
  8
0
  6
CONTINUOUS
 62
     1
 10
1061.85
 20
383.8
 30
0.0
 11
1061.85
 21
375.8
 31
0.0
  0
LINE
  8
0
  6
CONTINUOUS
 62
     1
 10
1045.85
 20
375.8
 30
0.0
 11
1045.85
 21
383.8
 31
0.0
  0
LINE
  8
0
  6
CONTINUOUS
 62
     1
 10
1071.85
 20
375.8
 30
0.0
 11
1071.85
 21
363.8
 31
0.0
  0
LINE
  8
0
  6
CONTINUOUS
 62
     1
 10
1018.85
 20
383.8
 30
0.0
 11
1018.85
 21
363.8
 31
0.0
  0
LINE
  8
0
  6
CONTINUOUS
 62
     1
 10
1018.85
 20
363.8
 30
0.0
 11
1071.85
 21
363.8
 31
0.0
  0
LINE
  8
0
  6
CONTINUOUS
 62
     1
 10
1028.85
 20
383.8
 30
0.0
 11
1028.85
 21
375.8
 31
0.0
  0
LINE
  8
0
  6
CONTINUOUS
 62
     1
 10
1028.85
 20
375.8
 30
0.0
 11
1071.85
 21
375.8
 31
0.0
  0
LINE
  8
0
  6
CONTINUOUS
 62
     1
 10
1061.85
 20
383.8
 30
0.0
 11
1061.85
 21
391.8
 31
0.0
  0
LINE
  8
0
  6
CONTINUOUS
 62
     1
 10
1045.85
 20
391.8
 30
0.0
 11
1045.85
 21
383.8
 31
0.0
  0
LINE
  8
0
  6
CONTINUOUS
 62
     1
 10
1071.85
 20
391.8
 30
0.0
 11
1071.85
 21
403.8
 31
0.0
  0
LINE
  8
0
  6
CONTINUOUS
 62
     1
 10
1018.85
 20
383.8
 30
0.0
 11
1018.85
 21
403.8
 31
0.0
  0
LINE
  8
0
  6
CONTINUOUS
 62
     1
 10
1018.85
 20
403.8
 30
0.0
 11
1071.85
 21
403.8
 31
0.0
  0
LINE
  8
0
  6
CONTINUOUS
 62
     1
 10
1028.85
 20
383.8
 30
0.0
 11
1028.85
 21
391.8
 31
0.0
  0
LINE
  8
0
  6
CONTINUOUS
 62
     1
 10
1028.85
 20
391.8
 30
0.0
 11
1071.85
 21
391.8
 31
0.0
  0
LINE
  8
0
  6
CONTINUOUS
 62
     2
 10
1071.85
 20
391.8
 30
0.0
 11
1117.583854631
 21
391.8
 31
0.0
  0
LINE
  8
0
  6
CONTINUOUS
 62
     2
 10
1152.05
 20
363.8
 30
0.0
 11
1154.638190451
 21
373.459258263
 31
0.0
  0
LINE
  8
0
  6
CONTINUOUS
 62
     2
 10
1152.05
 20
363.8
 30
0.0
 11
1149.461809549
 21
373.459258263
 31
0.0
  0
LINE
  8
0
  6
CONTINUOUS
 62
     2
 10
1152.05
 20
363.8
 30
0.0
 11
1152.05
 21
403.8
 31
0.0
  0
LINE
  8
0
  6
CONTINUOUS
 62
     2
 10
1152.05
 20
403.8
 30
0.0
 11
1149.461809549
 21
394.140741737
 31
0.0
  0
LINE
  8
0
  6
CONTINUOUS
 62
     2
 10
1152.05
 20
403.8
 30
0.0
 11
1154.638190451
 21
394.140741737
 31
0.0
  0
LINE
  8
0
  6
CONTINUOUS
 62
     2
 10
1045.85
 20
414.8
 30
0.0
 11
1045.85
 21
450.3
 31
0.0
  0
LINE
  8
0
  6
CONTINUOUS
 62
     2
 10
1045.85
 20
442.3
 30
0.0
 11
1036.190741737
 21
444.888190451
 31
0.0
  0
LINE
  8
0
  6
CONTINUOUS
 62
     2
 10
1045.85
 20
442.3
 30
0.0
 11
1036.190741737
 21
439.711809549
 31
0.0
  0
LINE
  8
0
  6
CONTINUOUS
 62
     2
 10
1061.85
 20
442.3
 30
0.0
 11
1071.509258263
 21
439.711809549
 31
0.0
  0
LINE
  8
0
  6
CONTINUOUS
 62
     2
 10
1061.85
 20
442.3
 30
0.0
 11
1071.509258263
 21
444.888190451
 31
0.0
  0
LINE
  8
0
  6
CONTINUOUS
 62
     2
 10
1061.85
 20
414.8
 30
0.0
 11
1061.85
 21
450.3
 31
0.0
  0
TEXT
  8
0
  6
CONTINUOUS
 62
     2
 10
1121.75
 20
451.0
 30
0.84
 40
8.4
  1
Ｈ１０
 50
0.0
 41
0.9
 51
0.0
  7
KANJI38
  0
TEXT
  8
0
  6
CONTINUOUS
 62
     2
 10
1121.75
 20
442.6
 30
0.84
 40
8.4
  1
ｈ９
 50
0.0
 41
0.9
 51
0.0
  7
KANJI38
  0
LINE
  8
0
  6
CONTINUOUS
 62
     2
 10
1109.683854631
 20
403.8
 30
0.0
 11
1112.272045082
 21
413.459258263
 31
0.0
  0
LINE
  8
0
  6
CONTINUOUS
 62
     2
 10
1109.683854631
 20
403.8
 30
0.0
 11
1107.09566418
 21
413.459258263
 31
0.0
  0
LINE
  8
0
  6
CONTINUOUS
 62
     2
 10
1071.85
 20
403.8
 30
0.0
 11
1117.683854631
 21
403.8
 31
0.0
  0
LINE
  8
0
  6
CONTINUOUS
 62
     2
 10
1117.683854631
 20
403.8
 30
0.0
 11
1158.35
 21
403.8
 31
0.0
  0
LINE
  8
0
  6
CONTINUOUS
 62
     2
 10
1025.85
 20
442.3
 30
0.0
 11
1117.85
 21
442.3
 31
0.0
  0
LINE
  8
0
  6
CONTINUOUS
 62
     2
 10
1028.85
 20
392.25
 30
0.0
 11
1028.85
 21
474.65
 31
0.0
  0
LINE
  8
0
  6
CONTINUOUS
 62
     2
 10
1109.583854631
 20
391.8
 30
0.0
 11
1106.99566418
 21
382.140741737
 31
0.0
  0
LINE
  8
0
  6
CONTINUOUS
 62
     2
 10
1109.583854631
 20
391.8
 30
0.0
 11
1112.172045082
 21
382.140741737
 31
0.0
  0
LINE
  8
0
  6
CONTINUOUS
 62
     2
 10
1109.583854631
 20
391.8
 30
0.0
 11
1109.583854631
 21
375.8
 31
0.0
  0
LINE
  8
0
  6
CONTINUOUS
 62
     2
 10
1109.583854631
 20
375.8
 30
0.0
 11
1112.172045082
 21
385.459258263
 31
0.0
  0
LINE
  8
0
  6
CONTINUOUS
 62
     2
 10
1109.583854631
 20
375.8
 30
0.0
 11
1106.99566418
 21
385.459258263
 31
0.0
  0
LINE
  8
0
  6
CONTINUOUS
 62
     2
 10
1071.85
 20
375.8
 30
0.0
 11
1117.583854631
 21
375.8
 31
0.0
  0
LINE
  8
0
  6
CONTINUOUS
 62
     2
 10
1109.683854631
 20
391.8
 30
0.0
 11
1107.09566418
 21
382.140741737
 31
0.0
  0
LINE
  8
0
  6
CONTINUOUS
 62
     2
 10
1109.683854631
 20
391.8
 30
0.0
 11
1112.272045082
 21
382.140741737
 31
0.0
  0
LINE
  8
0
  6
CONTINUOUS
 62
     2
 10
1109.683854631
 20
363.8
 30
0.0
 11
1112.272045082
 21
354.140741737
 31
0.0
  0
LINE
  8
0
  6
CONTINUOUS
 62
     2
 10
1109.683854631
 20
363.8
 30
0.0
 11
1107.09566418
 21
354.140741737
 31
0.0
  0
LINE
  8
0
  6
CONTINUOUS
 62
     2
 10
1071.85
 20
363.8
 30
0.0
 11
1117.683854631
 21
363.8
 31
0.0
  0
LINE
  8
0
  6
CONTINUOUS
 62
     2
 10
1117.683854631
 20
363.8
 30
0.0
 11
1157.85
 21
363.8
 31
0.0
  0
LINE
  8
0
  6
CONTINUOUS
 62
     2
 10
1109.683854631
 20
395.8
 30
0.0
 11
1109.683854631
 21
330.2
 31
0.0
  0
LINE
  8
0
  6
CONTINUOUS
 62
     2
 10
1109.683854631
 20
371.8
 30
0.0
 11
1109.683854631
 21
432.4
 31
0.0
  0
LINE
  8
0
  6
LTYPE2
 62
     2
 10
1082.75
 20
383.8
 30
0.0
 11
1018.85
 21
383.8
 31
0.0
  0
LINE
  8
0
  6
CONTINUOUS
 62
     1
 10
1018.85
 20
383.8
 30
0.0
 11
1018.85
 21
403.8
 31
0.0
  0
LINE
  8
0
  6
CONTINUOUS
 62
     1
 10
1018.85
 20
403.8
 30
0.0
 11
1018.85
 21
383.8
 31
0.0
  0
LINE
  8
0
  6
CONTINUOUS
 62
     1
 10
1018.85
 20
383.8
 30
0.0
 11
1018.85
 21
403.8
 31
0.0
  0
LINE
  8
0
  6
CONTINUOUS
 62
     1
 10
1018.85
 20
383.8
 30
0.0
 11
1018.85
 21
363.8
 31
0.0
  0
LINE
  8
0
  6
CONTINUOUS
 62
     1
 10
1018.85
 20
363.8
 30
0.0
 11
1018.85
 21
383.8
 31
0.0
  0
LINE
  8
0
  6
CONTINUOUS
 62
     1
 10
1018.85
 20
383.8
 30
0.0
 11
1018.85
 21
363.8
 31
0.0
  0
LINE
  8
0
  6
CONTINUOUS
 62
     2
 10
1053.55
 20
468.65
 30
0.0
 11
1043.890741737
 21
471.238190451
 31
0.0
  0
LINE
  8
0
  6
CONTINUOUS
 62
     2
 10
1053.55
 20
468.65
 30
0.0
 11
1043.890741737
 21
466.061809549
 31
0.0
  0
LINE
  8
0
  6
CONTINUOUS
 62
     2
 10
1053.55
 20
468.65
 30
0.0
 11
1028.55
 21
468.65
 31
0.0
  0
LINE
  8
0
  6
CONTINUOUS
 62
     2
 10
1028.85
 20
468.65
 30
0.0
 11
1038.509258263
 21
466.061809549
 31
0.0
  0
LINE
  8
0
  6
CONTINUOUS
 62
     2
 10
1028.85
 20
468.65
 30
0.0
 11
1038.509258263
 21
471.238190451
 31
0.0
  0
LINE
  8
0
  6
CONTINUOUS
 62
     1
 10
985.85
 20
406.8
 30
0.0
 11
999.85
 21
406.8
 31
0.0
  0
LINE
  8
0
  6
CONTINUOUS
 62
     1
 10
999.85
 20
383.8
 30
0.0
 11
999.85
 21
406.8
 31
0.0
  0
LINE
  8
0
  6
CONTINUOUS
 62
     1
 10
999.85
 20
404.8
 30
0.0
 11
1002.85
 21
404.8
 31
0.0
  0
LINE
  8
0
  6
CONTINUOUS
 62
     1
 10
982.85
 20
404.8
 30
0.0
 11
985.85
 21
404.8
 31
0.0
  0
LINE
  8
0
  6
CONTINUOUS
 62
     1
 10
982.85
 20
404.8
 30
0.0
 11
975.278072258
 21
433.058819045
 31
0.0
  0
ARC
  8
0
  6
CONTINUOUS
 62
     1
 10
974.312146432
 20
432.8
 30
0.0
 40
1.0
 50
15.0
 51
90.0
  0
ARC
  8
0
  6
CONTINUOUS
 62
     1
 10
974.312146432
 20
432.8
 30
0.0
 40
1.0
 50
90.0
 51
165.0
  0
LINE
  8
0
  6
CONTINUOUS
 62
     1
 10
971.063926358
 20
424.541180955
 30
0.0
 11
973.346220605
 21
433.058819045
 31
0.0
  0
ARC
  8
0
  6
CONTINUOUS
 62
     1
 10
970.098000531
 20
424.8
 30
0.0
 40
1.0
 50
270.0
 51
345.0
  0
ARC
  8
0
  6
CONTINUOUS
 62
     1
 10
970.098000531
 20
424.8
 30
0.0
 40
1.0
 50
195.0
 51
270.0
  0
LINE
  8
0
  6
CONTINUOUS
 62
     1
 10
969.132074705
 20
424.541180955
 30
0.0
 11
966.849780457
 21
433.058819045
 31
0.0
  0
ARC
  8
0
  6
CONTINUOUS
 62
     1
 10
965.883854631
 20
432.8
 30
0.0
 40
1.0
 50
15.0
 51
90.0
  0
ARC
  8
0
  6
CONTINUOUS
 62
     1
 10
961.669708731
 20
424.8
 30
0.0
 40
1.0
 50
270.0
 51
345.0
  0
LINE
  8
0
  6
CONTINUOUS
 62
     1
 10
962.635634557
 20
424.541180955
 30
0.0
 11
964.917928805
 21
433.058819045
 31
0.0
  0
ARC
  8
0
  6
CONTINUOUS
 62
     1
 10
965.883854631
 20
432.8
 30
0.0
 40
1.0
 50
90.0
 51
165.0
  0
LINE
  8
0
  6
CONTINUOUS
 62
     1
 10
965.883854631
 20
433.8
 30
0.0
 11
965.883854631
 21
383.8
 31
0.0
  0
LINE
  8
0
  6
CONTINUOUS
 62
     1
 10
961.469708731
 20
423.8
 30
0.0
 11
961.469708731
 21
383.8
 31
0.0
  0
LINE
  8
0
  6
CONTINUOUS
 62
     1
 10
970.098000531
 20
423.8
 30
0.0
 11
970.098000531
 21
383.8
 31
0.0
  0
LINE
  8
0
  6
CONTINUOUS
 62
     1
 10
974.312146432
 20
383.8
 30
0.0
 11
974.312146432
 21
433.8
 31
0.0
  0
LINE
  8
0
  6
CONTINUOUS
 62
     1
 10
985.85
 20
383.8
 30
0.0
 11
985.85
 21
406.8
 31
0.0
  0
LINE
  8
0
  6
CONTINUOUS
 62
     1
 10
982.85
 20
383.8
 30
0.0
 11
982.85
 21
404.8
 31
0.0
  0
LINE
  8
0
  6
CONTINUOUS
 62
     1
 10
999.85
 20
383.8
 30
0.0
 11
999.85
 21
360.8
 31
0.0
  0
LINE
  8
0
  6
CONTINUOUS
 62
     1
 10
999.85
 20
362.8
 30
0.0
 11
1002.85
 21
362.8
 31
0.0
  0
LINE
  8
0
  6
CONTINUOUS
 62
     1
 10
982.85
 20
362.8
 30
0.0
 11
985.85
 21
362.8
 31
0.0
  0
LINE
  8
0
  6
CONTINUOUS
 62
     1
 10
982.85
 20
362.8
 30
0.0
 11
975.278072258
 21
334.541180955
 31
0.0
  0
LINE
  8
0
  6
CONTINUOUS
 62
     1
 10
965.883854631
 20
333.8
 30
0.0
 11
965.883854631
 21
383.8
 31
0.0
  0
LINE
  8
0
  6
CONTINUOUS
 62
     1
 10
961.469708731
 20
343.8
 30
0.0
 11
961.469708731
 21
383.8
 31
0.0
  0
LINE
  8
0
  6
CONTINUOUS
 62
     1
 10
970.098000531
 20
343.8
 30
0.0
 11
970.098000531
 21
383.8
 31
0.0
  0
LINE
  8
0
  6
CONTINUOUS
 62
     1
 10
974.312146432
 20
383.8
 30
0.0
 11
974.312146432
 21
333.8
 31
0.0
  0
LINE
  8
0
  6
CONTINUOUS
 62
     1
 10
985.85
 20
383.8
 30
0.0
 11
985.85
 21
360.8
 31
0.0
  0
LINE
  8
0
  6
CONTINUOUS
 62
     1
 10
982.85
 20
383.8
 30
0.0
 11
982.85
 21
362.8
 31
0.0
  0
LINE
  8
0
  6
LTYPE3
 62
     2
 10
947.05
 20
383.8
 30
0.0
 11
1002.85
 21
383.8
 31
0.0
  0
LINE
  8
2
  6
CONTINUOUS
 62
     2
 10
961.883854631
 20
433.8
 30
0.0
 11
913.75
 21
433.8
 31
0.0
  0
LINE
  8
2
  6
CONTINUOUS
 62
     2
 10
921.75
 20
433.8
 30
0.0
 11
919.161809549
 21
424.140741737
 31
0.0
  0
LINE
  8
2
  6
CONTINUOUS
 62
     2
 10
921.75
 20
433.8
 30
0.0
 11
924.338190451
 21
424.140741737
 31
0.0
  0
LINE
  8
2
  6
CONTINUOUS
 62
     2
 10
921.75
 20
433.8
 30
0.0
 11
921.75
 21
333.8
 31
0.0
  0
LINE
  8
0
  6
CONTINUOUS
 62
     1
 10
1002.85
 20
408.55
 30
0.0
 11
1002.85
 21
361.05
 31
0.0
  0
LINE
  8
0
  6
CONTINUOUS
 62
     1
 10
1002.85
 20
418.8
 30
0.0
 11
1002.85
 21
348.8
 31
0.0
  0
LINE
  8
0
  6
CONTINUOUS
 62
     1
 10
1002.85
 20
418.8
 30
0.0
 11
1018.85
 21
418.8
 31
0.0
  0
LINE
  8
0
  6
CONTINUOUS
 62
     1
 10
1018.85
 20
418.8
 30
0.0
 11
1018.85
 21
348.8
 31
0.0
  0
LINE
  8
0
  6
LTYPE3
 62
     2
 10
1010.85
 20
416.8
 30
0.0
 11
1010.85
 21
402.8
 31
0.0
  0
LINE
  8
0
  6
LTYPE3
 62
     2
 10
1004.85
 20
409.8
 30
0.0
 11
1016.85
 21
409.8
 31
0.0
  0
LINE
  8
0
  6
LTYPE3
 62
     2
 10
1010.85
 20
350.8
 30
0.0
 11
1010.85
 21
364.8
 31
0.0
  0
LINE
  8
0
  6
LTYPE3
 62
     2
 10
1002.85
 20
383.8
 30
0.0
 11
1018.85
 21
383.8
 31
0.0
  0
TEXT
  8
0
  6
CONTINUOUS
 62
     2
 10
1111.25
 20
655.2
 30
0.0
 40
15.0
  1
４０
 50
90.0
 41
0.9
 51
0.0
  7
KANJI28
  0
TEXT
  8
2
  6
CONTINUOUS
 62
     2
 10
655.35
 20
880.9
 30
0.0
 40
15.0
  1
ｍｉｎ．ＡＬ
 50
0.0
 41
0.9
 51
0.0
  7
KANJI28
  0
TEXT
  8
2
  6
CONTINUOUS
 62
     2
 10
781.55
 20
822.3
 30
0.0
 40
15.0
  1
Ｃ
 50
0.0
 41
0.9
 51
0.0
  7
KANJI28
  0
TEXT
  8
2
  6
CONTINUOUS
 62
     2
 10
815.85
 20
848.9
 30
0.0
 40
15.0
  1
ｍｉｎ．Ｌ
 50
0.0
 41
0.9
 51
0.0
  7
KANJI28
  0
TEXT
  8
2
  6
CONTINUOUS
 62
     2
 10
1047.75
 20
882.1
 30
0.0
 40
15.0
  1
１８
 50
0.0
 41
0.9
 51
0.0
  7
KANJI28
  0
TEXT
  8
2
  6
CONTINUOUS
 62
     2
 10
935.35
 20
822.6
 30
0.0
 40
15.0
  1
ｍｉｎ．Ｐ
 50
0.0
 41
0.9
 51
0.0
  7
KANJI28
  0
TEXT
  8
2
  6
CONTINUOUS
 62
     2
 10
1022.05
 20
822.4
 30
0.0
 40
15.0
  1
３５
 50
0.0
 41
0.9
 51
0.0
  7
KANJI28
  0
TEXT
  8
0
  6
CONTINUOUS
 62
     2
 10
1081.85
 20
446.3
 30
0.0
 40
15.0
  1
φ１６
 50
0.0
 41
0.9
 51
0.0
  7
KANJI28
  0
TEXT
  8
0
  6
CONTINUOUS
 62
     2
 10
1029.25
 20
472.65
 30
0.0
 40
15.0
  1
２５
 50
0.0
 41
0.9
 51
0.0
  7
KANJI28
  0
TEXT
  8
2
  6
CONTINUOUS
 62
     2
 10
917.75
 20
370.4
 30
0.0
 40
15.0
  1
φ９５
 50
90.0
 41
0.9
 51
0.0
  7
KANJI28
  0
TEXT
  8
0
  6
CONTINUOUS
 62
     2
 10
1148.05
 20
372.0
 30
0.0
 40
15.0
  1
４０
 50
90.0
 41
0.9
 51
0.0
  7
KANJI28
  0
TEXT
  8
0
  6
CONTINUOUS
 62
     2
 10
1128.583854631
 20
374.5
 30
0.0
 40
15.0
  1
１６
 50
90.0
 41
0.9
 51
0.0
  7
KANJI28
  0
TEXT
  8
0
  6
CONTINUOUS
 62
     2
 10
1105.683854631
 20
409.8
 30
0.0
 40
15.0
  1
１２
 50
90.0
 41
0.9
 51
0.0
  7
KANJI28
  0
LINE
  8
0
  6
CONTINUOUS
 62
     1
 10
1018.85
 20
687.0
 30
0.0
 11
1068.85
 21
687.0
 31
0.0
  0
LINE
  8
0
  6
LTYPE1
 62
     1
 10
1028.85
 20
687.0
 30
0.0
 11
1028.85
 21
667.0
 31
0.0
  0
LINE
  8
0
  6
CONTINUOUS
 62
     1
 10
1018.85
 20
647.0
 30
0.0
 11
1068.85
 21
647.0
 31
0.0
  0
LINE
  8
0
  6
LTYPE1
 62
     1
 10
1028.85
 20
647.0
 30
0.0
 11
1028.85
 21
667.0
 31
0.0
  0
LINE
  8
0
  6
CONTINUOUS
 62
     1
 10
1071.85
 20
650.0
 30
0.0
 11
1071.85
 21
667.0
 31
0.0
  0
LINE
  8
0
  6
CONTINUOUS
 62
     1
 10
1068.85
 20
647.0
 30
0.0
 11
1071.85
 21
650.0
 31
0.0
  0
LINE
  8
0
  6
CONTINUOUS
 62
     1
 10
1071.85
 20
684.0
 30
0.0
 11
1071.85
 21
667.0
 31
0.0
  0
LINE
  8
0
  6
CONTINUOUS
 62
     1
 10
1068.85
 20
687.0
 30
0.0
 11
1071.85
 21
684.0
 31
0.0
  0
CIRCLE
  8
0
  6
CONTINUOUS
 62
     1
 10
1053.85
 20
667.0
 30
0.0
 40
8.0
  0
LINE
  8
0
  6
LTYPE3
 62
     2
 10
1018.85
 20
667.0
 30
0.0
 11
1068.85
 21
667.0
 31
0.0
  0
CIRCLE
  8
0
  6
CONTINUOUS
 62
     1
 10
1053.849984741
 20
678.0
 30
0.0
 40
3.0
  0
CIRCLE
  8
0
  6
CONTINUOUS
 62
     1
 10
1053.85
 20
667.0
 30
0.0
 40
15.0
  0
LINE
  8
0
  6
CONTINUOUS
 62
     1
 10
1049.65
 20
654.7
 30
0.0
 11
1051.65
 21
654.4
 31
0.0
  0
LINE
  8
0
  6
CONTINUOUS
 62
     1
 10
1051.914615385
 20
657.530769231
 30
0.0
 11
1049.65
 21
654.7
 31
0.0
  0
LINE
  8
0
  6
CONTINUOUS
 62
     1
 10
1053.85
 20
657.1
 30
0.0
 11
1051.65
 21
654.4
 31
0.0
  0
LINE
  8
0
  6
CONTINUOUS
 62
     1
 10
1052.15
 20
659.1
 30
0.0
 11
1051.914615385
 21
657.530769231
 31
0.0
  0
LINE
  8
0
  6
CONTINUOUS
 62
     1
 10
1058.05
 20
654.7
 30
0.0
 11
1056.05
 21
654.4
 31
0.0
  0
LINE
  8
0
  6
CONTINUOUS
 62
     1
 10
1055.55
 20
659.1
 30
0.0
 11
1055.785384615
 21
657.530769231
 31
0.0
  0
LINE
  8
0
  6
CONTINUOUS
 62
     1
 10
1055.785384615
 20
657.530769231
 30
0.0
 11
1058.05
 21
654.7
 31
0.0
  0
LINE
  8
0
  6
CONTINUOUS
 62
     1
 10
1053.85
 20
657.1
 30
0.0
 11
1056.05
 21
654.4
 31
0.0
  0
LINE
  8
0
  6
LTYPE1
 62
     2
 10
529.2
 20
553.1
 30
0.0
 11
523.585640646
 21
553.1
 31
0.0
  0
LINE
  8
0
  6
CONTINUOUS
 62
     1
 10
1002.85
 20
517.0
 30
0.0
 11
1018.85
 21
517.0
 31
0.0
  0
LINE
  8
0
  6
CONTINUOUS
 62
     1
 10
1021.85
 20
530.0
 30
0.0
 11
1021.85
 21
519.05046
 31
0.0
  0
LINE
  8
0
  6
CONTINUOUS
 62
     1
 10
1021.85
 20
524.52523
 30
0.0
 11
1028.322923706
 21
524.52523
 31
0.0
  0
LINE
  8
0
  6
CONTINUOUS
 62
     1
 10
1021.85
 20
519.05046
 30
0.0
 11
1028.322923706
 21
519.05046
 31
0.0
  0
LINE
  8
0
  6
CONTINUOUS
 62
     1
 10
1018.85
 20
519.25
 30
0.0
 11
1021.85
 21
519.25
 31
0.0
  0
LINE
  8
0
  6
CONTINUOUS
 62
     1
 10
1021.85
 20
530.0
 30
0.0
 11
1021.85
 21
540.94954
 31
0.0
  0
LINE
  8
0
  6
CONTINUOUS
 62
     1
 10
1029.8711
 20
538.26802
 30
0.0
 11
1028.322923706
 21
540.94954
 31
0.0
  0
LINE
  8
0
  6
CONTINUOUS
 62
     1
 10
1029.8711
 20
530.0
 30
0.0
 11
1029.8711
 21
538.26802
 31
0.0
  0
LINE
  8
0
  6
CONTINUOUS
 62
     1
 10
1029.8711
 20
530.0
 30
0.0
 11
1029.8711
 21
521.73198
 31
0.0
  0
ARC
  8
0
  6
CONTINUOUS
 62
     1
 10
1019.416878307
 20
530.0
 30
0.0
 40
10.454221693
 50
328.419912243
 51
31.580087757
  0
ARC
  8
0
  6
CONTINUOUS
 62
     1
 10
1026.677986394
 20
538.212155
 30
0.0
 40
3.193602261
 50
301.002313915
 51
2.989498403
  0
ARC
  8
0
  6
CONTINUOUS
 62
     1
 10
1026.677986394
 20
521.787845
 30
0.0
 40
3.193602261
 50
357.010501597
 51
58.997686085
  0
LINE
  8
0
  6
CONTINUOUS
 62
     1
 10
1021.85
 20
540.94954
 30
0.0
 11
1028.322923706
 21
540.94954
 31
0.0
  0
LINE
  8
0
  6
CONTINUOUS
 62
     1
 10
1021.85
 20
535.47477
 30
0.0
 11
1028.322923706
 21
535.47477
 31
0.0
  0
LINE
  8
0
  6
CONTINUOUS
 62
     1
 10
1018.85
 20
540.75
 30
0.0
 11
1021.85
 21
540.75
 31
0.0
  0
LINE
  8
0
  6
CONTINUOUS
 62
     1
 10
1018.85
 20
530.0
 30
0.0
 11
1021.850254073
 21
533.000254073
 31
0.0
  0
LINE
  8
0
  6
CONTINUOUS
 62
     1
 10
1021.850254073
 20
530.0
 30
0.0
 11
1018.85
 21
526.999745927
 31
0.0
  0
LINE
  8
0
  6
CONTINUOUS
 62
     1
 10
1029.8711
 20
524.0
 30
0.0
 11
1042.85
 21
524.0
 31
0.0
  0
LINE
  8
0
  6
CONTINUOUS
 62
     1
 10
1029.8711
 20
536.0
 30
0.0
 11
1042.85
 21
536.0
 31
0.0
  0
LINE
  8
0
  6
CONTINUOUS
 62
     1
 10
1042.85
 20
524.0
 30
0.0
 11
1042.85
 21
536.0
 31
0.0
  0
LINE
  8
0
  6
CONTINUOUS
 62
     1
 10
1029.8711
 20
521.73198
 30
0.0
 11
1028.322923706
 21
519.05046
 31
0.0
  0
LINE
  8
0
  6
CONTINUOUS
 62
     1
 10
1029.8711
 20
521.73198
 30
0.0
 11
1028.322923706
 21
519.05046
 31
0.0
  0
LINE
  8
0
  6
CONTINUOUS
 62
     1
 10
1002.85
 20
517.0
 30
0.0
 11
1002.85
 21
696.8
 31
0.0
  0
LINE
  8
0
  6
CONTINUOUS
 62
     1
 10
1018.85
 20
517.0
 30
0.0
 11
1018.85
 21
696.8
 31
0.0
  0
LINE
  8
0
  6
LTYPE3
 62
     2
 10
497.14
 20
558.0
 30
0.0
 11
836.4
 21
558.0
 31
0.0
  0
LINE
  8
0
  6
LTYPE2
 62
     2
 10
535.64
 20
558.0
 30
0.0
 11
547.14
 21
558.0
 31
0.0
  0
ARC
  8
0
  6
LTYPE1
 62
     2
 10
536.24
 20
565.8
 30
0.0
 40
3.9
 50
317.9
 51
42.1
  0
LINE
  8
0
  6
LTYPE1
 62
     2
 10
539.14
 20
563.2
 30
0.0
 11
532.64
 21
563.2
 31
0.0
  0
LINE
  8
0
  6
LTYPE1
 62
     2
 10
540.14
 20
562.0
 30
0.0
 11
547.64
 21
562.0
 31
0.0
  0
LINE
  8
0
  6
LTYPE1
 62
     2
 10
547.64
 20
562.0
 30
0.0
 11
552.64
 21
562.0
 31
0.0
  0
LINE
  8
0
  6
LTYPE1
 62
     2
 10
579.64
 20
564.0
 30
0.0
 11
547.64
 21
564.0
 31
0.0
  0
LINE
  8
0
  6
LTYPE1
 62
     2
 10
540.14
 20
561.0
 30
0.0
 11
547.64
 21
561.0
 31
0.0
  0
LINE
  8
0
  6
LTYPE1
 62
     2
 10
547.64
 20
561.0
 30
0.0
 11
552.64
 21
561.0
 31
0.0
  0
LINE
  8
0
  6
LTYPE1
 62
     2
 10
514.140000004
 20
558.0
 30
0.0
 11
516.64
 21
560.499999996
 31
0.0
  0
LINE
  8
0
  6
LTYPE1
 62
     2
 10
532.64
 20
545.0
 30
0.0
 11
532.64
 21
572.0
 31
0.0
  0
LINE
  8
0
  6
LTYPE1
 62
     2
 10
532.64
 20
568.4
 30
0.0
 11
532.64
 21
547.6
 31
0.0
  0
ARC
  8
0
  6
LTYPE1
 62
     2
 10
526.14
 20
558.0
 30
0.0
 40
14.0
 50
338.2
 51
21.8
  0
LINE
  8
0
  6
LTYPE1
 62
     2
 10
540.14
 20
550.2
 30
0.0
 11
540.14
 21
565.8
 31
0.0
  0
LINE
  8
0
  6
LTYPE1
 62
     2
 10
516.64
 20
558.0
 30
0.0
 11
514.140000004
 21
555.500000004
 31
0.0
  0
LINE
  8
0
  6
LTYPE1
 62
     2
 10
516.64
 20
545.0
 30
0.0
 11
516.64
 21
578.0
 31
0.0
  0
LINE
  8
0
  6
LTYPE1
 62
     2
 10
547.64
 20
517.0
 30
0.0
 11
547.64
 21
570.0
 31
0.0
  0
LINE
  8
0
  6
LTYPE1
 62
     2
 10
552.64
 20
552.0
 30
0.0
 11
552.64
 21
564.0
 31
0.0
  0
LINE
  8
0
  6
LTYPE1
 62
     2
 10
514.14
 20
562.9
 30
0.0
 11
508.525640646
 21
562.9
 31
0.0
  0
LINE
  8
0
  6
LTYPE1
 62
     2
 10
514.14
 20
558.0
 30
0.0
 11
514.14
 21
567.8
 31
0.0
  0
LINE
  8
0
  6
LTYPE1
 62
     2
 10
514.14
 20
558.0
 30
0.0
 11
514.14
 21
548.2
 31
0.0
  0
LINE
  8
0
  6
LTYPE1
 62
     2
 10
507.14
 20
558.0
 30
0.0
 11
507.14
 21
565.4
 31
0.0
  0
LINE
  8
0
  6
LTYPE1
 62
     2
 10
507.14
 20
565.4
 30
0.0
 11
508.525640646
 21
567.8
 31
0.0
  0
LINE
  8
0
  6
LTYPE1
 62
     2
 10
507.14
 20
565.4
 30
0.0
 11
508.525640646
 21
567.8
 31
0.0
  0
ARC
  8
0
  6
LTYPE1
 62
     2
 10
509.997883832
 20
565.35
 30
0.0
 40
2.858321186
 50
177.010501597
 51
238.997686085
  0
LINE
  8
0
  6
LTYPE1
 62
     2
 10
502.64
 20
562.0
 30
0.0
 11
507.14
 21
562.0
 31
0.0
  0
LINE
  8
0
  6
LTYPE1
 62
     2
 10
502.64
 20
561.0
 30
0.0
 11
507.14
 21
561.0
 31
0.0
  0
LINE
  8
0
  6
LTYPE1
 62
     2
 10
507.14
 20
558.0
 30
0.0
 11
507.14
 21
550.6
 31
0.0
  0
ARC
  8
0
  6
LTYPE1
 62
     2
 10
516.4966828
 20
558.0
 30
0.0
 40
9.3566828
 50
148.419912243
 51
211.580087757
  0
LINE
  8
0
  6
LTYPE1
 62
     2
 10
516.64
 20
567.2
 30
0.0
 11
514.14
 21
567.2
 31
0.0
  0
LINE
  8
0
  6
LTYPE1
 62
     2
 10
532.64
 20
568.4
 30
0.0
 11
539.14
 21
568.4
 31
0.0
  0
LINE
  8
0
  6
LTYPE1
 62
     2
 10
524.64
 20
568.0
 30
0.0
 11
524.64
 21
584.0
 31
0.0
  0
LINE
  8
0
  6
LTYPE1
 62
     2
 10
579.64
 20
570.0
 30
0.0
 11
547.64
 21
570.0
 31
0.0
  0
LINE
  8
0
  6
LTYPE1
 62
     2
 10
579.64
 20
566.0
 30
0.0
 11
797.09
 21
566.0
 31
0.0
  0
LINE
  8
0
  6
LTYPE1
 62
     2
 10
579.64
 20
517.0
 30
0.0
 11
579.64
 21
570.0
 31
0.0
  0
LINE
  8
0
  6
LTYPE1
 62
     2
 10
751.64
 20
572.0
 30
0.0
 11
516.64
 21
572.0
 31
0.0
  0
LINE
  8
0
  6
LTYPE1
 62
     2
 10
751.64
 20
578.0
 30
0.0
 11
516.64
 21
578.0
 31
0.0
  0
LINE
  8
0
  6
LTYPE1
 62
     2
 10
518.98122
 20
583.4999
 30
0.0
 11
517.14594
 21
582.440300598
 31
0.0
  0
LINE
  8
0
  6
LTYPE1
 62
     2
 10
524.64
 20
583.4999
 30
0.0
 11
518.98122
 21
583.4999
 31
0.0
  0
ARC
  8
0
  6
LTYPE1
 62
     2
 10
519.019455
 20
581.314476233
 30
0.0
 40
2.185758211
 50
31.002313915
 51
92.989498403
  0
ARC
  8
0
  6
LTYPE1
 62
     2
 10
524.64
 20
576.344844663
 30
0.0
 40
7.155055337
 50
58.419912243
 51
121.580087757
  0
LINE
  8
0
  6
LTYPE1
 62
     2
 10
517.14594
 20
578.0
 30
0.0
 11
517.14594
 21
582.440300598
 31
0.0
  0
LINE
  8
0
  6
LTYPE1
 62
     2
 10
520.89297
 20
578.0
 30
0.0
 11
520.89297
 21
582.440300598
 31
0.0
  0
LINE
  8
0
  6
LTYPE1
 62
     2
 10
530.29878
 20
583.4999
 30
0.0
 11
532.13406
 21
582.440300598
 31
0.0
  0
LINE
  8
0
  6
LTYPE1
 62
     2
 10
524.64
 20
583.4999
 30
0.0
 11
530.29878
 21
583.4999
 31
0.0
  0
LINE
  8
0
  6
LTYPE1
 62
     2
 10
530.29878
 20
583.4999
 30
0.0
 11
532.13406
 21
582.440300598
 31
0.0
  0
ARC
  8
0
  6
LTYPE1
 62
     2
 10
530.260545
 20
581.314476233
 30
0.0
 40
2.185758211
 50
87.010501597
 51
148.997686085
  0
LINE
  8
0
  6
LTYPE1
 62
     2
 10
528.38703
 20
578.0
 30
0.0
 11
528.38703
 21
582.440300598
 31
0.0
  0
LINE
  8
0
  6
LTYPE1
 62
     2
 10
532.13406
 20
578.0
 30
0.0
 11
532.13406
 21
582.440300598
 31
0.0
  0
LINE
  8
0
  6
LTYPE1
 62
     2
 10
514.14
 20
567.8
 30
0.0
 11
508.525640646
 21
567.8
 31
0.0
  0
LINE
  8
0
  6
LTYPE1
 62
     2
 10
502.64
 20
555.0
 30
0.0
 11
507.14
 21
555.0
 31
0.0
  0
LINE
  8
0
  6
LTYPE1
 62
     2
 10
502.64
 20
554.0
 30
0.0
 11
507.14
 21
554.0
 31
0.0
  0
LINE
  8
0
  6
LTYPE2
 62
     2
 10
517.64
 20
530.0
 30
0.0
 11
1050.79
 21
530.0
 31
0.0
  0
LINE
  8
0
  6
LTYPE1
 62
     2
 10
532.64
 20
547.6
 30
0.0
 11
539.14
 21
547.6
 31
0.0
  0
ARC
  8
0
  6
LTYPE1
 62
     2
 10
536.24
 20
550.2
 30
0.0
 40
3.9
 50
317.9
 51
42.1
  0
LINE
  8
0
  6
LTYPE1
 62
     2
 10
516.64
 20
545.0
 30
0.0
 11
532.64
 21
545.0
 31
0.0
  0
LINE
  8
0
  6
LTYPE1
 62
     2
 10
516.64
 20
548.8
 30
0.0
 11
514.14
 21
548.8
 31
0.0
  0
LINE
  8
0
  6
LTYPE1
 62
     2
 10
545.14
 20
539.8
 30
0.0
 11
539.525640646
 21
539.8
 31
0.0
  0
LINE
  8
0
  6
LTYPE1
 62
     2
 10
538.14
 20
537.4
 30
0.0
 11
539.525640646
 21
539.8
 31
0.0
  0
LINE
  8
0
  6
LTYPE1
 62
     2
 10
538.14
 20
537.4
 30
0.0
 11
539.525640646
 21
539.8
 31
0.0
  0
LINE
  8
0
  6
LTYPE1
 62
     2
 10
547.64
 20
539.2
 30
0.0
 11
545.14
 21
539.2
 31
0.0
  0
LINE
  8
0
  6
LTYPE1
 62
     2
 10
538.14
 20
530.0
 30
0.0
 11
538.14
 21
537.4
 31
0.0
  0
LINE
  8
0
  6
LTYPE1
 62
     2
 10
545.14
 20
534.9
 30
0.0
 11
539.525640646
 21
534.9
 31
0.0
  0
ARC
  8
0
  6
LTYPE1
 62
     2
 10
540.997883832
 20
537.35
 30
0.0
 40
2.858321186
 50
177.010501597
 51
238.997686085
  0
LINE
  8
0
  6
LTYPE1
 62
     2
 10
545.14
 20
530.0
 30
0.0
 11
545.14
 21
539.8
 31
0.0
  0
LINE
  8
0
  6
LTYPE1
 62
     2
 10
529.64
 20
534.0
 30
0.0
 11
538.14
 21
534.0
 31
0.0
  0
ARC
  8
0
  6
LTYPE1
 62
     2
 10
547.4966828
 20
530.0
 30
0.0
 40
9.3566828
 50
148.419912243
 51
211.580087757
  0
LINE
  8
0
  6
LTYPE1
 62
     2
 10
529.64
 20
526.0
 30
0.0
 11
529.64
 21
534.0
 31
0.0
  0
LINE
  8
0
  6
LTYPE1
 62
     2
 10
547.64
 20
517.0
 30
0.0
 11
579.64
 21
517.0
 31
0.0
  0
LINE
  8
0
  6
LTYPE1
 62
     2
 10
545.14
 20
530.0
 30
0.0
 11
545.14
 21
520.2
 31
0.0
  0
LINE
  8
0
  6
LTYPE1
 62
     2
 10
545.14
 20
520.2
 30
0.0
 11
539.525640646
 21
520.2
 31
0.0
  0
LINE
  8
0
  6
LTYPE1
 62
     2
 10
538.14
 20
522.6
 30
0.0
 11
539.525640646
 21
520.2
 31
0.0
  0
LINE
  8
0
  6
LTYPE1
 62
     2
 10
538.14
 20
530.0
 30
0.0
 11
538.14
 21
522.6
 31
0.0
  0
LINE
  8
0
  6
LTYPE1
 62
     2
 10
545.14
 20
525.1
 30
0.0
 11
539.525640646
 21
525.1
 31
0.0
  0
ARC
  8
0
  6
LTYPE1
 62
     2
 10
540.997883832
 20
522.65
 30
0.0
 40
2.858321186
 50
121.002313915
 51
182.989498403
  0
LINE
  8
0
  6
LTYPE1
 62
     2
 10
547.64
 20
520.8
 30
0.0
 11
545.14
 21
520.8
 31
0.0
  0
LINE
  8
0
  6
LTYPE1
 62
     2
 10
547.64
 20
530.0
 30
0.0
 11
545.140000004
 21
527.500000004
 31
0.0
  0
LINE
  8
0
  6
LTYPE1
 62
     2
 10
529.64
 20
526.0
 30
0.0
 11
538.14
 21
526.0
 31
0.0
  0
LINE
  8
0
  6
LTYPE1
 62
     2
 10
529.64
 20
527.0
 30
0.0
 11
538.14
 21
527.0
 31
0.0
  0
LINE
  8
0
  6
LTYPE1
 62
     2
 10
545.140000004
 20
530.0
 30
0.0
 11
547.64
 21
532.499999996
 31
0.0
  0
LINE
  8
0
  6
LTYPE1
 62
     2
 10
529.64
 20
533.0
 30
0.0
 11
538.14
 21
533.0
 31
0.0
  0
LINE
  8
0
  6
LTYPE1
 62
     2
 10
579.64
 20
550.0
 30
0.0
 11
797.09
 21
550.0
 31
0.0
  0
LINE
  8
0
  6
LTYPE3
 62
     2
 10
600.64
 20
520.0
 30
0.0
 11
600.64
 21
540.0
 31
0.0
  0
CIRCLE
  8
0
  6
CONTINUOUS
 62
     2
 10
600.64
 20
530.0
 30
0.0
 40
5.0
  0
CIRCLE
  8
0
  6
CONTINUOUS
 62
     2
 10
600.64
 20
530.0
 30
0.0
 40
4.0
  0
LINE
  8
0
  6
LTYPE1
 62
     2
 10
514.14
 20
548.2
 30
0.0
 11
508.525640646
 21
548.2
 31
0.0
  0
LINE
  8
0
  6
LTYPE1
 62
     2
 10
507.14
 20
550.6
 30
0.0
 11
508.525640646
 21
548.2
 31
0.0
  0
ARC
  8
0
  6
LTYPE1
 62
     2
 10
509.997883832
 20
550.65
 30
0.0
 40
2.858321186
 50
121.002313915
 51
182.989498403
  0
LINE
  8
0
  6
LTYPE1
 62
     2
 10
532.64
 20
552.8
 30
0.0
 11
539.14
 21
552.8
 31
0.0
  0
LINE
  8
0
  6
LTYPE1
 62
     2
 10
540.14
 20
555.0
 30
0.0
 11
547.64
 21
555.0
 31
0.0
  0
LINE
  8
0
  6
LTYPE1
 62
     2
 10
540.14
 20
554.0
 30
0.0
 11
547.64
 21
554.0
 31
0.0
  0
LINE
  8
0
  6
LTYPE1
 62
     2
 10
547.64
 20
554.0
 30
0.0
 11
552.64
 21
554.0
 31
0.0
  0
LINE
  8
0
  6
LTYPE1
 62
     2
 10
547.64
 20
555.0
 30
0.0
 11
552.64
 21
555.0
 31
0.0
  0
LINE
  8
0
  6
LTYPE1
 62
     2
 10
547.64
 20
552.0
 30
0.0
 11
579.64
 21
552.0
 31
0.0
  0
LINE
  8
0
  6
LTYPE1
 62
     2
 10
751.64
 20
572.0
 30
0.0
 11
751.64
 21
647.5
 31
0.0
  0
LINE
  8
0
  6
LTYPE1
 62
     2
 10
751.14
 20
572.0
 30
0.0
 11
751.14
 21
567.4
 31
0.0
  0
LINE
  8
0
  6
LTYPE1
 62
     2
 10
751.14
 20
572.0
 30
0.0
 11
736.14
 21
572.0
 31
0.0
  0
LINE
  8
0
  6
LTYPE1
 62
     2
 10
736.14
 20
572.0
 30
0.0
 11
736.14
 21
567.4
 31
0.0
  0
LINE
  8
0
  6
LTYPE1
 62
     2
 10
739.84
 20
572.0
 30
0.0
 11
739.84
 21
567.4
 31
0.0
  0
LINE
  8
0
  6
LTYPE1
 62
     2
 10
747.44
 20
572.0
 30
0.0
 11
747.44
 21
567.4
 31
0.0
  0
ARC
  8
0
  6
LTYPE1
 62
     2
 10
737.94
 20
569.5
 30
0.0
 40
2.8
 50
228.5
 51
311.5
  0
ARC
  8
0
  6
LTYPE1
 62
     2
 10
743.64
 20
577.4
 30
0.0
 40
10.7
 50
249.1
 51
290.9
  0
ARC
  8
0
  6
LTYPE1
 62
     2
 10
749.34
 20
569.5
 30
0.0
 40
2.8
 50
228.5
 51
311.5
  0
LINE
  8
0
  6
LTYPE1
 62
     2
 10
743.64
 20
563.2
 30
0.0
 11
743.64
 21
575.0
 31
0.0
  0
LINE
  8
0
  6
LTYPE3
 62
     2
 10
743.64
 20
559.35
 30
0.0
 11
743.64
 21
583.65
 31
0.0
  0
LINE
  8
0
  6
LTYPE1
 62
     2
 10
749.34
 20
566.7
 30
0.0
 11
737.94
 21
566.7
 31
0.0
  0
LINE
  8
0
  6
LTYPE1
 62
     2
 10
737.64
 20
578.5
 30
0.0
 11
737.64
 21
647.5
 31
0.0
  0
LINE
  8
0
  6
LTYPE1
 62
     2
 10
737.64
 20
627.5
 30
0.0
 11
751.64
 21
627.5
 31
0.0
  0
LINE
  8
0
  6
LTYPE2
 62
     2
 10
744.64
 20
617.25
 30
0.0
 11
744.64
 21
711.25
 31
0.0
  0
LINE
  8
0
  6
LTYPE1
 62
     2
 10
748.64
 20
647.5
 30
0.0
 11
748.64
 21
703.25
 31
0.0
  0
LINE
  8
0
  6
LTYPE1
 62
     2
 10
737.64
 20
647.5
 30
0.0
 11
751.64
 21
647.5
 31
0.0
  0
LINE
  8
0
  6
LTYPE1
 62
     2
 10
740.64
 20
647.5
 30
0.0
 11
740.64
 21
703.25
 31
0.0
  0
ARC
  8
0
  6
LTYPE1
 62
     2
 10
744.64
 20
703.25
 30
0.0
 40
4.0
 50
0.0
 51
180.0
  0
LINE
  8
0
  6
LTYPE2
 62
     2
 10
824.79
 20
617.25
 30
0.0
 11
824.79
 21
711.25
 31
0.0
  0
LINE
  8
0
  6
CONTINUOUS
 62
     1
 10
831.79
 20
578.5
 30
0.0
 11
831.79
 21
647.5
 31
0.0
  0
LINE
  8
0
  6
CONTINUOUS
 62
     1
 10
817.79
 20
578.5
 30
0.0
 11
817.79
 21
647.5
 31
0.0
  0
LINE
  8
0
  6
CONTINUOUS
 62
     1
 10
817.79
 20
627.5
 30
0.0
 11
831.79
 21
627.5
 31
0.0
  0
LINE
  8
0
  6
CONTINUOUS
 62
     1
 10
820.79
 20
647.5
 30
0.0
 11
820.79
 21
703.25
 31
0.0
  0
LINE
  8
0
  6
CONTINUOUS
 62
     1
 10
828.79
 20
647.5
 30
0.0
 11
828.79
 21
703.25
 31
0.0
  0
LINE
  8
0
  6
CONTINUOUS
 62
     1
 10
817.79
 20
647.5
 30
0.0
 11
831.79
 21
647.5
 31
0.0
  0
ARC
  8
0
  6
CONTINUOUS
 62
     1
 10
824.79
 20
703.25
 30
0.0
 40
4.0
 50
0.0
 51
180.0
  0
LINE
  8
0
  6
LTYPE2
 62
     2
 10
884.79
 20
617.25
 30
0.0
 11
884.79
 21
711.25
 31
0.0
  0
ARC
  8
0
  6
CONTINUOUS
 62
     1
 10
884.79
 20
703.25
 30
0.0
 40
4.0
 50
0.0
 51
180.0
  0
LINE
  8
0
  6
CONTINUOUS
 62
     1
 10
880.79
 20
647.5
 30
0.0
 11
880.79
 21
703.25
 31
0.0
  0
LINE
  8
0
  6
CONTINUOUS
 62
     1
 10
888.79
 20
647.5
 30
0.0
 11
888.79
 21
703.25
 31
0.0
  0
LINE
  8
0
  6
CONTINUOUS
 62
     1
 10
877.79
 20
578.5
 30
0.0
 11
877.79
 21
647.5
 31
0.0
  0
LINE
  8
0
  6
CONTINUOUS
 62
     1
 10
877.79
 20
647.5
 30
0.0
 11
891.79
 21
647.5
 31
0.0
  0
LINE
  8
0
  6
CONTINUOUS
 62
     1
 10
891.79
 20
578.5
 30
0.0
 11
891.79
 21
647.5
 31
0.0
  0
LINE
  8
0
  6
CONTINUOUS
 62
     1
 10
877.79
 20
627.5
 30
0.0
 11
891.79
 21
627.5
 31
0.0
  0
LINE
  8
0
  6
CONTINUOUS
 62
     1
 10
789.79
 20
578.5
 30
0.0
 11
919.79
 21
578.5
 31
0.0
  0
LINE
  8
0
  6
CONTINUOUS
 62
     1
 10
789.79
 20
572.5
 30
0.0
 11
919.79
 21
572.5
 31
0.0
  0
LINE
  8
0
  6
CONTINUOUS
 62
     1
 10
927.49
 20
571.5
 30
0.0
 11
927.49
 21
546.1
 31
0.0
  0
LINE
  8
0
  6
CONTINUOUS
 62
     1
 10
902.09
 20
546.1
 30
0.0
 11
927.49
 21
546.1
 31
0.0
  0
LINE
  8
0
  6
CONTINUOUS
 62
     1
 10
902.09
 20
572.5
 30
0.0
 11
902.09
 21
532.5
 31
0.0
  0
LINE
  8
0
  6
CONTINUOUS
 62
     1
 10
902.09
 20
571.5
 30
0.0
 11
927.49
 21
571.5
 31
0.0
  0
LINE
  8
0
  6
CONTINUOUS
 62
     1
 10
919.79
 20
572.5
 30
0.0
 11
919.79
 21
578.5
 31
0.0
  0
LINE
  8
0
  6
CONTINUOUS
 62
     1
 10
621.64
 20
538.0
 30
0.0
 11
807.49
 21
538.0
 31
0.0
  0
LINE
  8
0
  6
CONTINUOUS
 62
     1
 10
621.64
 20
522.0
 30
0.0
 11
838.79
 21
522.0
 31
0.0
  0
LINE
  8
0
  6
CONTINUOUS
 62
     1
 10
833.39
 20
538.5
 30
0.0
 11
902.09
 21
538.5
 31
0.0
  0
LINE
  8
0
  6
CONTINUOUS
 62
     1
 10
833.39
 20
532.5
 30
0.0
 11
902.09
 21
532.5
 31
0.0
  0
LINE
  8
0
  6
CONTINUOUS
 62
     1
 10
833.39
 20
572.5
 30
0.0
 11
833.39
 21
532.5
 31
0.0
  0
LINE
  8
0
  6
CONTINUOUS
 62
     1
 10
782.09
 20
571.5
 30
0.0
 11
782.09
 21
546.1
 31
0.0
  0
LINE
  8
0
  6
CONTINUOUS
 62
     1
 10
807.49
 20
546.1
 30
0.0
 11
782.09
 21
546.1
 31
0.0
  0
LINE
  8
0
  6
CONTINUOUS
 62
     1
 10
807.49
 20
572.5
 30
0.0
 11
807.49
 21
532.5
 31
0.0
  0
LINE
  8
0
  6
LTYPE4
 62
     2
 10
842.89
 20
551.2
 30
0.0
 11
825.89
 21
551.2
 31
0.0
  0
LINE
  8
0
  6
CONTINUOUS
 62
     1
 10
789.79
 20
572.5
 30
0.0
 11
789.79
 21
578.5
 31
0.0
  0
LINE
  8
0
  6
CONTINUOUS
 62
     1
 10
807.49
 20
571.5
 30
0.0
 11
782.09
 21
571.5
 31
0.0
  0
LINE
  8
0
  6
CONTINUOUS
 62
     1
 10
807.49
 20
538.5
 30
0.0
 11
833.39
 21
538.5
 31
0.0
  0
LINE
  8
0
  6
CONTINUOUS
 62
     1
 10
807.49
 20
532.5
 30
0.0
 11
833.39
 21
532.5
 31
0.0
  0
LINE
  8
0
  6
CONTINUOUS
 62
     1
 10
566.14
 20
538.55
 30
0.0
 11
566.14
 21
522.55
 31
0.0
  0
LINE
  8
0
  6
CONTINUOUS
 62
     1
 10
566.14
 20
538.55
 30
0.0
 11
579.64
 21
538.55
 31
0.0
  0
LINE
  8
0
  6
CONTINUOUS
 62
     1
 10
579.64
 20
541.0
 30
0.0
 11
588.300254038
 21
546.0
 31
0.0
  0
LINE
  8
0
  6
CONTINUOUS
 62
     1
 10
579.64
 20
519.0
 30
0.0
 11
579.64
 21
541.0
 31
0.0
  0
LINE
  8
0
  6
CONTINUOUS
 62
     1
 10
588.29
 20
514.0
 30
0.0
 11
588.29
 21
546.0
 31
0.0
  0
LINE
  8
0
  6
CONTINUOUS
 62
     1
 10
612.99
 20
514.0
 30
0.0
 11
612.99
 21
546.0
 31
0.0
  0
LINE
  8
0
  6
CONTINUOUS
 62
     1
 10
588.29
 20
514.0
 30
0.0
 11
612.99
 21
514.0
 31
0.0
  0
LINE
  8
0
  6
CONTINUOUS
 62
     1
 10
621.64
 20
519.0
 30
0.0
 11
612.979745962
 21
514.0
 31
0.0
  0
LINE
  8
0
  6
CONTINUOUS
 62
     1
 10
579.64
 20
519.0
 30
0.0
 11
588.300254038
 21
514.0
 31
0.0
  0
LINE
  8
0
  6
CONTINUOUS
 62
     1
 10
566.14
 20
522.55
 30
0.0
 11
579.64
 21
522.55
 31
0.0
  0
LINE
  8
0
  6
CONTINUOUS
 62
     1
 10
588.29
 20
546.0
 30
0.0
 11
612.99
 21
546.0
 31
0.0
  0
LINE
  8
0
  6
CONTINUOUS
 62
     1
 10
621.64
 20
541.0
 30
0.0
 11
612.979745962
 21
546.0
 31
0.0
  0
LINE
  8
0
  6
CONTINUOUS
 62
     1
 10
621.64
 20
519.0
 30
0.0
 11
621.64
 21
541.0
 31
0.0
  0
LINE
  8
0
  6
CONTINUOUS
 62
     1
 10
838.79
 20
517.5
 30
0.0
 11
870.79
 21
517.5
 31
0.0
  0
LINE
  8
0
  6
LTYPE2
 62
     2
 10
855.789501379
 20
513.5
 30
0.0
 11
855.789501379
 21
601.8
 31
0.0
  0
LINE
  8
0
  6
CONTINUOUS
 62
     1
 10
870.79
 20
517.5
 30
0.0
 11
870.79
 21
532.5
 31
0.0
  0
LINE
  8
0
  6
CONTINUOUS
 62
     1
 10
870.79
 20
522.0
 30
0.0
 11
937.79
 21
522.0
 31
0.0
  0
LINE
  8
0
  6
CONTINUOUS
 62
     1
 10
838.79
 20
517.5
 30
0.0
 11
838.79
 21
532.5
 31
0.0
  0
LINE
  8
0
  6
CONTINUOUS
 62
     1
 10
902.09
 20
538.0
 30
0.0
 11
937.79
 21
538.0
 31
0.0
  0
CIRCLE
  8
0
  6
CONTINUOUS
 62
     2
 10
958.79
 20
530.0
 30
0.0
 40
5.0
  0
CIRCLE
  8
0
  6
CONTINUOUS
 62
     2
 10
958.79
 20
530.0
 30
0.0
 40
4.0
  0
LINE
  8
0
  6
LTYPE3
 62
     2
 10
958.79
 20
520.0
 30
0.0
 11
958.79
 21
540.0
 31
0.0
  0
LINE
  8
0
  6
CONTINUOUS
 62
     1
 10
888.52
 20
698.75
 30
0.0
 11
895.85
 21
698.75
 31
0.0
  0
LINE
  8
0
  6
CONTINUOUS
 62
     1
 10
828.59
 20
698.75
 30
0.0
 11
880.77
 21
698.75
 31
0.0
  0
LINE
  8
0
  6
CONTINUOUS
 62
     1
 10
831.69
 20
635.25
 30
0.0
 11
878.19
 21
635.25
 31
0.0
  0
LINE
  8
0
  6
CONTINUOUS
 62
     1
 10
979.79
 20
538.0
 30
0.0
 11
1002.85
 21
538.0
 31
0.0
  0
LINE
  8
0
  6
CONTINUOUS
 62
     1
 10
979.79
 20
522.0
 30
0.0
 11
1002.85
 21
522.0
 31
0.0
  0
LINE
  8
0
  6
CONTINUOUS
 62
     1
 10
438.05
 20
672.0
 30
0.0
 11
439.05
 21
672.0
 31
0.0
  0
LINE
  8
0
  6
CONTINUOUS
 62
     1
 10
456.05
 20
674.0
 30
0.0
 11
456.05
 21
554.0
 31
0.0
  0
LINE
  8
0
  6
CONTINUOUS
 62
     1
 10
442.05
 20
614.0
 30
0.0
 11
442.05
 21
671.0
 31
0.0
  0
ARC
  8
0
  6
CONTINUOUS
 62
     1
 10
446.55
 20
672.5
 30
0.0
 40
1.5
 50
270.0
 51
0.0
  0
LINE
  8
0
  6
CONTINUOUS
 62
     1
 10
448.05
 20
672.5
 30
0.0
 11
448.05
 21
673.5
 31
0.0
  0
ARC
  8
0
  6
CONTINUOUS
 62
     1
 10
449.55
 20
673.5
 30
0.0
 40
1.5
 50
90.0
 51
180.0
  0
LINE
  8
0
  6
CONTINUOUS
 62
     1
 10
293.05
 20
614.0
 30
0.0
 11
293.05
 21
671.0
 31
0.0
  0
ARC
  8
0
  6
CONTINUOUS
 62
     1
 10
289.55
 20
669.5
 30
0.0
 40
1.5
 50
90.0
 51
180.0
  0
LINE
  8
0
  6
CONTINUOUS
 62
     1
 10
448.05
 20
614.0
 30
0.0
 11
448.05
 21
673.1
 31
0.0
  0
LINE
  8
0
  6
CONTINUOUS
 62
     1
 10
288.05
 20
657.070524155
 30
0.0
 11
288.05
 21
669.5
 31
0.0
  0
ARC
  8
0
  6
CONTINUOUS
 62
     1
 10
286.55
 20
657.070524155
 30
0.0
 40
1.5
 50
288.970407808
 51
0.0
  0
LINE
  8
0
  6
CONTINUOUS
 62
     1
 10
272.05
 20
614.0
 30
0.0
 11
272.05
 21
649.429475845
 31
0.0
  0
LINE
  8
0
  6
CONTINUOUS
 62
     1
 10
273.062380347
 20
650.848005744
 30
0.0
 11
287.037619653
 21
655.651994256
 31
0.0
  0
ARC
  8
0
  6
CONTINUOUS
 62
     1
 10
273.55
 20
649.429475845
 30
0.0
 40
1.5
 50
108.970407808
 51
180.0
  0
LINE
  8
0
  6
CONTINUOUS
 62
     1
 10
288.05
 20
614.0
 30
0.0
 11
288.05
 21
657.070524155
 31
0.0
  0
ARC
  8
0
  6
CONTINUOUS
 62
     1
 10
260.05
 20
630.5
 30
0.0
 40
1.0
 50
90.0
 51
180.0
  0
LINE
  8
0
  6
CONTINUOUS
 62
     1
 10
260.05
 20
631.5
 30
0.0
 11
272.05
 21
631.5
 31
0.0
  0
LINE
  8
0
  6
CONTINUOUS
 62
     1
 10
259.05
 20
614.0
 30
0.0
 11
259.05
 21
630.5
 31
0.0
  0
LINE
  8
0
  6
CONTINUOUS
 62
     1
 10
442.05
 20
614.0
 30
0.0
 11
442.05
 21
557.0
 31
0.0
  0
LINE
  8
0
  6
CONTINUOUS
 62
     1
 10
293.05
 20
614.0
 30
0.0
 11
293.05
 21
557.0
 31
0.0
  0
LINE
  8
0
  6
CONTINUOUS
 62
     1
 10
448.05
 20
614.0
 30
0.0
 11
448.05
 21
554.9
 31
0.0
  0
LINE
  8
0
  6
CONTINUOUS
 62
     1
 10
272.05
 20
614.0
 30
0.0
 11
272.05
 21
578.570524155
 31
0.0
  0
LINE
  8
0
  6
CONTINUOUS
 62
     1
 10
259.05
 20
614.0
 30
0.0
 11
259.05
 21
597.5
 31
0.0
  0
LINE
  8
0
  6
LTYPE3
 62
     2
 10
280.05
 20
650.062445841
 30
0.0
 11
291.05
 21
650.062445841
 31
0.0
  0
LINE
  8
0
  6
CONTINUOUS
 62
     1
 10
288.05
 20
614.0
 30
0.0
 11
288.05
 21
570.929475845
 31
0.0
  0
ARC
  8
0
  6
CONTINUOUS
 62
     1
 10
429.05
 20
674.0
 30
0.0
 40
3.0
 50
270.0
 51
0.0
  0
LINE
  8
0
  6
CONTINUOUS
 62
     1
 10
289.55
 20
671.0
 30
0.0
 11
446.55
 21
671.0
 31
0.0
  0
ARC
  8
0
  6
CONTINUOUS
 62
     1
 10
389.05
 20
674.0
 30
0.0
 40
3.0
 50
180.0
 51
270.0
  0
LINE
  8
0
  6
LTYPE3
 62
     2
 10
409.05
 20
659.0
 30
0.0
 11
409.05
 21
746.9321338
 31
0.0
  0
LINE
  8
0
  6
CONTINUOUS
 62
     1
 10
244.55
 20
629.5
 30
0.0
 11
259.05
 21
629.5
 31
0.0
  0
ARC
  8
0
  6
CONTINUOUS
 62
     1
 10
244.55
 20
628.0
 30
0.0
 40
1.5
 50
90.0
 51
180.0
  0
LINE
  8
0
  6
CONTINUOUS
 62
     1
 10
243.05
 20
600.0
 30
0.0
 11
243.05
 21
628.0
 31
0.0
  0
LINE
  8
0
  6
CONTINUOUS
 62
     1
 10
343.05
 20
692.0
 30
0.0
 11
343.05
 21
726.0
 31
0.0
  0
LINE
  8
0
  6
CONTINUOUS
 62
     1
 10
343.05
 20
692.0
 30
0.0
 11
369.05
 21
692.0
 31
0.0
  0
LINE
  8
0
  6
CONTINUOUS
 62
     1
 10
343.05
 20
726.0
 30
0.0
 11
369.05
 21
726.0
 31
0.0
  0
LINE
  8
0
  6
LTYPE3
 62
     2
 10
336.120524155
 20
709.0
 30
0.0
 11
376.120524155
 21
709.0
 31
0.0
  0
LINE
  8
0
  6
CONTINUOUS
 62
     1
 10
439.05
 20
684.0
 30
0.0
 11
439.05
 21
687.0
 31
0.0
  0
ARC
  8
0
  6
CONTINUOUS
 62
     1
 10
435.05
 20
681.0
 30
0.0
 40
3.0
 50
90.0
 51
180.0
  0
LINE
  8
0
  6
CONTINUOUS
 62
     1
 10
432.05
 20
674.0
 30
0.0
 11
432.05
 21
681.0
 31
0.0
  0
LINE
  8
0
  6
CONTINUOUS
 62
     1
 10
379.05
 20
684.0
 30
0.0
 11
379.05
 21
687.0
 31
0.0
  0
ARC
  8
0
  6
CONTINUOUS
 62
     1
 10
383.05
 20
681.0
 30
0.0
 40
3.0
 50
0.0
 51
90.0
  0
LINE
  8
0
  6
CONTINUOUS
 62
     1
 10
386.05
 20
674.0
 30
0.0
 11
386.05
 21
681.0
 31
0.0
  0
LINE
  8
0
  6
CONTINUOUS
 62
     1
 10
379.05
 20
684.0
 30
0.0
 11
439.05
 21
684.0
 31
0.0
  0
LINE
  8
0
  6
CONTINUOUS
 62
     1
 10
454.137912088
 20
689.0
 30
0.0
 11
362.05
 21
733.020045888
 31
0.0
  0
LINE
  8
0
  6
CONTINUOUS
 62
     1
 10
456.05
 20
693.0
 30
0.0
 11
454.137912088
 21
689.0
 31
0.0
  0
LINE
  8
0
  6
CONTINUOUS
 62
     1
 10
456.05
 20
693.0
 30
0.0
 11
363.962087912
 21
737.020045888
 31
0.0
  0
LINE
  8
0
  6
CONTINUOUS
 62
     1
 10
363.962087912
 20
737.020045888
 30
0.0
 11
362.05
 21
733.020045888
 31
0.0
  0
LINE
  8
0
  6
CONTINUOUS
 62
     1
 10
449.05
 20
696.346153846
 30
0.0
 11
449.05
 21
736.0
 31
0.0
  0
ARC
  8
0
  6
CONTINUOUS
 62
     1
 10
446.05
 20
736.0
 30
0.0
 40
3.0
 50
0.0
 51
90.0
  0
LINE
  8
0
  6
CONTINUOUS
 62
     1
 10
449.05
 20
690.0
 30
0.0
 11
449.05
 21
691.4321338
 31
0.0
  0
ARC
  8
0
  6
CONTINUOUS
 62
     1
 10
446.05
 20
690.0
 30
0.0
 40
3.0
 50
270.0
 51
0.0
  0
LINE
  8
0
  6
CONTINUOUS
 62
     1
 10
369.05
 20
690.0
 30
0.0
 11
369.05
 21
729.673892042
 31
0.0
  0
LINE
  8
0
  6
CONTINUOUS
 62
     1
 10
372.05
 20
687.0
 30
0.0
 11
446.05
 21
687.0
 31
0.0
  0
ARC
  8
0
  6
CONTINUOUS
 62
     1
 10
372.05
 20
690.0
 30
0.0
 40
3.0
 50
180.0
 51
270.0
  0
LINE
  8
0
  6
CONTINUOUS
 62
     1
 10
369.05
 20
734.587912088
 30
0.0
 11
369.05
 21
736.0
 31
0.0
  0
LINE
  8
0
  6
CONTINUOUS
 62
     1
 10
372.05
 20
739.0
 30
0.0
 11
446.05
 21
739.0
 31
0.0
  0
ARC
  8
0
  6
CONTINUOUS
 62
     1
 10
372.05
 20
736.0
 30
0.0
 40
3.0
 50
90.0
 51
180.0
  0
LINE
  8
0
  6
CONTINUOUS
 62
     2
 10
343.05
 20
709.0
 30
0.0
 11
343.669310852
 21
718.98080428
 31
0.0
  0
LINE
  8
0
  6
CONTINUOUS
 62
     2
 10
343.05
 20
709.0
 30
0.0
 11
338.595936791
 21
717.953285482
 31
0.0
  0
LINE
  8
0
  6
CONTINUOUS
 62
     1
 10
286.75
 20
650.062445841
 30
0.0
 11
286.75
 21
645.450565841
 31
0.0
  0
LINE
  8
0
  6
CONTINUOUS
 62
     1
 10
286.75
 20
650.062445841
 30
0.0
 11
286.75
 21
654.674325841
 31
0.0
  0
LINE
  8
0
  6
CONTINUOUS
 62
     1
 10
283.2498
 20
646.580005841
 30
0.0
 11
283.901882488
 21
645.450565841
 31
0.0
  0
LINE
  8
0
  6
CONTINUOUS
 62
     1
 10
283.2498
 20
650.062445841
 30
0.0
 11
283.2498
 21
646.580005841
 31
0.0
  0
LINE
  8
0
  6
CONTINUOUS
 62
     1
 10
283.2498
 20
653.544885841
 30
0.0
 11
283.901882488
 21
654.674325841
 31
0.0
  0
LINE
  8
0
  6
CONTINUOUS
 62
     1
 10
283.2498
 20
650.062445841
 30
0.0
 11
283.2498
 21
653.544885841
 31
0.0
  0
ARC
  8
0
  6
CONTINUOUS
 62
     1
 10
287.653054926
 20
650.062445841
 30
0.0
 40
4.403254926
 50
148.419912243
 51
211.580087757
  0
ARC
  8
0
  6
CONTINUOUS
 62
     1
 10
284.594720132
 20
646.603535841
 30
0.0
 40
1.34512595
 50
121.002313915
 51
182.989498403
  0
LINE
  8
0
  6
CONTINUOUS
 62
     1
 10
283.2498
 20
653.544885841
 30
0.0
 11
283.901882488
 21
654.674325841
 31
0.0
  0
ARC
  8
0
  6
CONTINUOUS
 62
     1
 10
284.594720132
 20
653.521355841
 30
0.0
 40
1.34512595
 50
177.010501597
 51
238.997686085
  0
LINE
  8
0
  6
CONTINUOUS
 62
     1
 10
286.75
 20
645.450565841
 30
0.0
 11
283.901882488
 21
645.450565841
 31
0.0
  0
LINE
  8
0
  6
CONTINUOUS
 62
     1
 10
286.75
 20
647.756505841
 30
0.0
 11
283.901882488
 21
647.756505841
 31
0.0
  0
LINE
  8
0
  6
CONTINUOUS
 62
     1
 10
286.75
 20
652.368385841
 30
0.0
 11
283.901882488
 21
652.368385841
 31
0.0
  0
LINE
  8
0
  6
CONTINUOUS
 62
     1
 10
286.75
 20
654.674325841
 30
0.0
 11
283.901882488
 21
654.674325841
 31
0.0
  0
LINE
  8
0
  6
CONTINUOUS
 62
     1
 10
288.05
 20
645.462445841
 30
0.0
 11
286.75
 21
645.462445841
 31
0.0
  0
LINE
  8
0
  6
CONTINUOUS
 62
     1
 10
288.05
 20
650.062445841
 30
0.0
 11
286.750000446
 21
648.762446287
 31
0.0
  0
LINE
  8
0
  6
CONTINUOUS
 62
     1
 10
286.750000446
 20
650.062445841
 30
0.0
 11
288.05
 21
651.362445394
 31
0.0
  0
LINE
  8
0
  6
CONTINUOUS
 62
     1
 10
288.05
 20
654.662445841
 30
0.0
 11
286.75
 21
654.662445841
 31
0.0
  0
LINE
  8
0
  6
CONTINUOUS
 62
     1
 10
258.05
 20
610.2
 30
0.0
 11
259.05
 21
610.2
 31
0.0
  0
LINE
  8
0
  6
CONTINUOUS
 62
     1
 10
255.25
 20
610.5
 30
0.0
 11
255.567542648
 21
609.95
 31
0.0
  0
LINE
  8
0
  6
CONTINUOUS
 62
     1
 10
255.567542648
 20
609.95
 30
0.0
 11
258.05
 21
609.95
 31
0.0
  0
ARC
  8
0
  6
CONTINUOUS
 62
     1
 10
257.022973788
 20
610.9625
 30
0.0
 40
1.772973788
 50
145.174816769
 51
214.825183231
  0
LINE
  8
0
  6
CONTINUOUS
 62
     1
 10
258.05
 20
618.05
 30
0.0
 11
258.05
 21
609.95
 31
0.0
  0
LINE
  8
0
  6
CONTINUOUS
 62
     1
 10
258.05
 20
617.8
 30
0.0
 11
259.05
 21
617.8
 31
0.0
  0
LINE
  8
0
  6
CONTINUOUS
 62
     1
 10
258.05
 20
614.0
 30
0.0
 11
259.05
 21
615.0
 31
0.0
  0
LINE
  8
0
  6
CONTINUOUS
 62
     1
 10
255.567542648
 20
618.05
 30
0.0
 11
258.05
 21
618.05
 31
0.0
  0
LINE
  8
0
  6
CONTINUOUS
 62
     1
 10
255.25
 20
617.5
 30
0.0
 11
255.567542648
 21
618.05
 31
0.0
  0
LINE
  8
0
  6
CONTINUOUS
 62
     1
 10
255.567542648
 20
616.025
 30
0.0
 11
258.05
 21
616.025
 31
0.0
  0
ARC
  8
0
  6
CONTINUOUS
 62
     1
 10
257.022973788
 20
617.0375
 30
0.0
 40
1.772973788
 50
145.174816769
 51
214.825183231
  0
LINE
  8
0
  6
CONTINUOUS
 62
     1
 10
258.05
 20
613.0
 30
0.0
 11
259.05
 21
614.0
 31
0.0
  0
LINE
  8
0
  6
CONTINUOUS
 62
     1
 10
255.567542648
 20
611.975
 30
0.0
 11
258.05
 21
611.975
 31
0.0
  0
LINE
  8
0
  6
CONTINUOUS
 62
     1
 10
255.25
 20
617.5
 30
0.0
 11
255.25
 21
610.5
 31
0.0
  0
ARC
  8
0
  6
CONTINUOUS
 62
     1
 10
261.865581181
 20
614.0
 30
0.0
 40
6.615581181
 50
162.175912681
 51
197.824087319
  0
LINE
  8
0
  6
CONTINUOUS
 62
     1
 10
449.55
 20
675.0
 30
0.0
 11
456.05
 21
675.0
 31
0.0
  0
LINE
  8
0
  6
CONTINUOUS
 62
     1
 10
456.05
 20
553.0
 30
0.0
 11
456.05
 21
614.0
 31
0.0
  0
LINE
  8
0
  6
CONTINUOUS
 62
     1
 10
456.05
 20
675.0
 30
0.0
 11
456.05
 21
553.0
 31
0.0
  0
LINE
  8
0
  6
LTYPE2
 62
     2
 10
508.95
 20
614.0
 30
0.0
 11
237.05
 21
614.0
 31
0.0
  0
ARC
  8
0
  6
CONTINUOUS
 62
     1
 10
474.05
 20
706.5
 30
0.0
 40
15.0
 50
90.0
 51
180.0
  0
LINE
  8
0
  6
CONTINUOUS
 62
     1
 10
456.05
 20
671.5
 30
0.0
 11
457.05001079
 21
671.5
 31
0.0
  0
LINE
  8
0
  6
CONTINUOUS
 62
     1
 10
459.05
 20
706.5
 30
0.0
 11
459.05
 21
673.500007629
 31
0.0
  0
ARC
  8
0
  6
CONTINUOUS
 62
     1
 10
457.05
 20
673.5
 30
0.0
 40
2.0
 50
270.000309099
 51
0.000218566
  0
LINE
  8
2
  6
CONTINUOUS
 62
     2
 10
490.55
 20
667.0
 30
0.0
 11
484.55
 21
667.0
 31
0.0
  0
LINE
  8
2
  6
CONTINUOUS
 62
     2
 10
492.55
 20
667.0
 30
0.0
 11
489.961809549
 21
657.340741737
 31
0.0
  0
LINE
  8
2
  6
CONTINUOUS
 62
     2
 10
492.55
 20
667.0
 30
0.0
 11
495.138190451
 21
657.340741737
 31
0.0
  0
LINE
  8
2
  6
CONTINUOUS
 62
     2
 10
492.55
 20
667.0
 30
0.0
 11
492.55
 21
614.0
 31
0.0
  0
LINE
  8
2
  6
CONTINUOUS
 62
     2
 10
492.55
 20
614.0
 30
0.0
 11
495.138190451
 21
623.659258263
 31
0.0
  0
LINE
  8
2
  6
CONTINUOUS
 62
     2
 10
492.55
 20
614.0
 30
0.0
 11
489.961809549
 21
623.659258263
 31
0.0
  0
LINE
  8
2
  6
CONTINUOUS
 62
     2
 10
489.55
 20
614.0
 30
0.0
 11
484.55
 21
614.0
 31
0.0
  0
LINE
  8
0
  6
CONTINUOUS
 62
     1
 10
474.05
 20
721.5
 30
0.0
 11
522.05
 21
721.5
 31
0.0
  0
LINE
  8
0
  6
CONTINUOUS
 62
     2
 10
343.05
 20
709.0
 30
0.0
 11
329.980224855
 21
773.532014776
 31
0.0
  0
LINE
  8
2
  6
CONTINUOUS
 62
     2
 10
251.150004265
 20
629.5
 30
0.0
 11
251.689879399
 21
639.485416108
 31
0.0
  0
LINE
  8
2
  6
CONTINUOUS
 62
     2
 10
251.150004265
 20
629.5
 30
0.0
 11
246.624841792
 21
638.417561583
 31
0.0
  0
LINE
  8
0
  6
CONTINUOUS
 62
     2
 10
329.980224855
 20
773.532014776
 30
0.0
 11
275.608072957
 21
773.532014776
 31
0.0
  0
LINE
  8
2
  6
CONTINUOUS
 62
     2
 10
289.05
 20
671.0
 30
0.0
 11
213.05
 21
671.0
 31
0.0
  0
LINE
  8
2
  6
CONTINUOUS
 62
     2
 10
221.05
 20
671.0
 30
0.0
 11
218.461809549
 21
661.340741737
 31
0.0
  0
LINE
  8
2
  6
CONTINUOUS
 62
     2
 10
221.05
 20
671.0
 30
0.0
 11
223.638190451
 21
661.340741737
 31
0.0
  0
LINE
  8
2
  6
CONTINUOUS
 62
     2
 10
221.05
 20
671.0
 30
0.0
 11
221.05
 21
557.0
 31
0.0
  0
LINE
  8
2
  6
CONTINUOUS
 62
     2
 10
445.55
 20
675.0
 30
0.0
 11
182.55
 21
675.0
 31
0.0
  0
LINE
  8
2
  6
CONTINUOUS
 62
     2
 10
190.55
 20
675.0
 30
0.0
 11
187.961809549
 21
665.340741737
 31
0.0
  0
LINE
  8
2
  6
CONTINUOUS
 62
     2
 10
190.55
 20
675.0
 30
0.0
 11
193.138190451
 21
665.340741737
 31
0.0
  0
LINE
  8
2
  6
CONTINUOUS
 62
     2
 10
190.55
 20
675.0
 30
0.0
 11
190.55
 21
553.0
 31
0.0
  0
LINE
  8
2
  6
CONTINUOUS
 62
     2
 10
546.05
 20
844.7
 30
0.0
 11
243.05
 21
844.7
 31
0.0
  0
LINE
  8
2
  6
CONTINUOUS
 62
     2
 10
243.05
 20
844.7
 30
0.0
 11
252.709258263
 21
842.111809549
 31
0.0
  0
LINE
  8
2
  6
CONTINUOUS
 62
     2
 10
243.05
 20
844.7
 30
0.0
 11
252.709258263
 21
847.288190451
 31
0.0
  0
LINE
  8
2
  6
CONTINUOUS
 62
     2
 10
243.05
 20
632.000007629
 30
0.0
 11
243.05
 21
852.7
 31
0.0
  0
LINE
  8
2
  6
CONTINUOUS
 62
     2
 10
243.05
 20
875.2
 30
0.0
 11
252.709258263
 21
872.611809549
 31
0.0
  0
LINE
  8
2
  6
CONTINUOUS
 62
     2
 10
243.05
 20
875.2
 30
0.0
 11
252.709258263
 21
877.788190451
 31
0.0
  0
LINE
  8
2
  6
CONTINUOUS
 62
     2
 10
243.05
 20
839.2
 30
0.0
 11
243.05
 21
883.2
 31
0.0
  0
TEXT
  8
2
  6
CONTINUOUS
 62
     3
 10
488.55
 20
627.1
 30
0.0
 40
15.0
  1
５３
 50
90.0
 41
0.9
 51
0.0
  7
KANJI28
  0
TEXT
  8
2
  6
CONTINUOUS
 62
     3
 10
217.05
 20
586.6
 30
0.0
 40
15.0
  1
φ１１４
 50
90.0
 41
0.9
 51
0.0
  7
KANJI28
  0
TEXT
  8
2
  6
CONTINUOUS
 62
     3
 10
186.55
 20
586.6
 30
0.0
 40
15.0
  1
□１２２
 50
90.0
 41
0.9
 51
0.0
  7
KANJI28
  0
TEXT
  8
0
  6
CONTINUOUS
 62
     2
 10
276.750004265
 20
778.0
 30
0.0
 40
15.0
  1
ＰＦ３／４
 50
0.0
 41
0.9
 51
0.0
  7
KANJI28
  0
TEXT
  8
2
  6
CONTINUOUS
 62
     3
 10
374.15
 20
848.7
 30
0.0
 40
15.0
  1
３０３
 50
0.0
 41
0.9
 51
0.0
  7
KANJI28
  0
LINE
  8
0
  6
LTYPE2
 62
     2
 10
483.35
 20
667.0
 30
0.0
 11
628.3
 21
667.0
 31
0.0
  0
LINE
  8
2
  6
CONTINUOUS
 62
     2
 10
546.05
 20
844.7
 30
0.0
 11
536.390741737
 21
847.288190451
 31
0.0
  0
LINE
  8
2
  6
CONTINUOUS
 62
     2
 10
546.05
 20
844.7
 30
0.0
 11
536.390741737
 21
842.111809549
 31
0.0
  0
LINE
  8
2
  6
CONTINUOUS
 62
     2
 10
546.05
 20
708.0
 30
0.0
 11
546.05
 21
852.7
 31
0.0
  0
LINE
  8
2
  6
CONTINUOUS
 62
     2
 10
546.05
 20
840.7
 30
0.0
 11
546.05
 21
804.5
 31
0.0
  0
LINE
  8
2
  6
CONTINUOUS
 62
     2
 10
546.05
 20
831.7
 30
0.0
 11
546.05
 21
852.7
 31
0.0
  0
LINE
  8
2
  6
CONTINUOUS
 62
     2
 10
546.05
 20
844.7
 30
0.0
 11
555.709258263
 21
842.111809549
 31
0.0
  0
LINE
  8
2
  6
CONTINUOUS
 62
     2
 10
546.05
 20
844.7
 30
0.0
 11
555.709258263
 21
847.288190451
 31
0.0
  0
LINE
  8
2
  6
CONTINUOUS
 62
     2
 10
546.05
 20
812.5
 30
0.0
 11
555.709258263
 21
815.088190451
 31
0.0
  0
LINE
  8
2
  6
CONTINUOUS
 62
     2
 10
546.05
 20
812.5
 30
0.0
 11
555.709258263
 21
809.911809549
 31
0.0
  0
CIRCLE
  8
0
  6
CONTINUOUS
 62
     1
 10
546.05
 20
667.0
 30
0.0
 40
8.0
  0
LINE
  8
0
  6
LTYPE3
 62
     2
 10
546.05
 20
611.395571327
 30
0.0
 11
546.05
 21
715.295571327
 31
0.0
  0
LINE
  8
2
  6
CONTINUOUS
 62
     2
 10
546.05
 20
667.8
 30
0.0
 11
553.880111779
 21
674.020076328
 31
0.0
  0
LINE
  8
2
  6
CONTINUOUS
 62
     2
 10
546.05
 20
667.8
 30
0.0
 11
549.721037551
 21
677.101800003
 31
0.0
  0
LINE
  8
2
  6
CONTINUOUS
 62
     2
 10
546.05
 20
667.8
 30
0.0
 11
607.55
 21
750.8
 31
0.0
  0
CIRCLE
  8
0
  6
CONTINUOUS
 62
     1
 10
546.05
 20
667.0
 30
0.0
 40
20.0
  0
LINE
  8
0
  6
CONTINUOUS
 62
     1
 10
516.05
 20
582.0
 30
0.0
 11
516.05
 21
721.5
 31
0.0
  0
LINE
  8
0
  6
CONTINUOUS
 62
     1
 10
524.05
 20
616.0
 30
0.0
 11
524.05
 21
719.5
 31
0.0
  0
ARC
  8
0
  6
CONTINUOUS
 62
     1
 10
522.05
 20
719.5
 30
0.0
 40
2.0
 50
0.0
 51
90.0
  0
LINE
  8
0
  6
CONTINUOUS
 62
     1
 10
527.050013214
 20
704.0
 30
0.0
 11
587.05
 21
704.0
 31
0.0
  0
ARC
  8
0
  6
CONTINUOUS
 62
     1
 10
527.05
 20
707.0
 30
0.0
 40
3.0
 50
183.814074834
 51
270.000252378
  0
ARC
  8
0
  6
CONTINUOUS
 62
     1
 10
546.05
 20
667.0
 30
0.0
 40
27.0
 50
215.430944687
 51
144.569055313
  0
LINE
  8
0
  6
CONTINUOUS
 62
     1
 10
587.05
 20
704.3
 30
0.0
 11
595.05
 21
704.3
 31
0.0
  0
LINE
  8
0
  6
CONTINUOUS
 62
     1
 10
595.05
 20
627.3
 30
0.0
 11
595.05
 21
707.3
 31
0.0
  0
LINE
  8
0
  6
CONTINUOUS
 62
     1
 10
587.05
 20
707.3
 30
0.0
 11
595.05
 21
707.3
 31
0.0
  0
LINE
  8
0
  6
CONTINUOUS
 62
     1
 10
587.05
 20
627.3
 30
0.0
 11
587.05
 21
707.3
 31
0.0
  0
LINE
  8
0
  6
CONTINUOUS
 62
     1
 10
587.05
 20
665.8
 30
0.0
 11
595.05
 21
665.8
 31
0.0
  0
LINE
  8
0
  6
CONTINUOUS
 62
     1
 10
587.05
 20
668.8
 30
0.0
 11
595.05
 21
668.8
 31
0.0
  0
LINE
  8
0
  6
CONTINUOUS
 62
     1
 10
587.05
 20
630.3
 30
0.0
 11
595.05
 21
630.3
 31
0.0
  0
LINE
  8
0
  6
CONTINUOUS
 62
     1
 10
587.05
 20
627.3
 30
0.0
 11
595.05
 21
627.3
 31
0.0
  0
LINE
  8
0
  6
CONTINUOUS
 62
     1
 10
526.850009344
 20
630.0
 30
0.0
 11
587.05
 21
630.0
 31
0.0
  0
LINE
  8
0
  6
CONTINUOUS
 62
     1
 10
516.05
 20
614.0
 30
0.0
 11
522.05
 21
614.0
 31
0.0
  0
ARC
  8
0
  6
CONTINUOUS
 62
     1
 10
522.05
 20
616.0
 30
0.0
 40
2.0
 50
270.0
 51
0.0
  0
ARC
  8
0
  6
CONTINUOUS
 62
     1
 10
526.85
 20
627.0
 30
0.0
 40
3.0
 50
89.999821542
 51
182.106627847
  0
ARC
  8
0
  6
CONTINUOUS
 62
     1
 10
273.55
 20
578.570524155
 30
0.0
 40
1.5
 50
180.0
 51
251.029592192
  0
ARC
  8
0
  6
CONTINUOUS
 62
     1
 10
260.05
 20
597.5
 30
0.0
 40
1.0
 50
180.0
 51
270.0
  0
LINE
  8
0
  6
CONTINUOUS
 62
     1
 10
260.05
 20
596.5
 30
0.0
 11
272.05
 21
596.5
 31
0.0
  0
LINE
  8
0
  6
CONTINUOUS
 62
     1
 10
273.062380347
 20
577.151994256
 30
0.0
 11
287.037619653
 21
572.348005744
 31
0.0
  0
LINE
  8
0
  6
LTYPE3
 62
     2
 10
280.05
 20
577.937554159
 30
0.0
 11
291.05
 21
577.937554159
 31
0.0
  0
LINE
  8
0
  6
CONTINUOUS
 62
     1
 10
244.55
 20
598.5
 30
0.0
 11
259.05
 21
598.5
 31
0.0
  0
ARC
  8
0
  6
CONTINUOUS
 62
     1
 10
244.55
 20
600.0
 30
0.0
 40
1.5
 50
180.0
 51
270.0
  0
LINE
  8
2
  6
CONTINUOUS
 62
     2
 10
221.05
 20
557.0
 30
0.0
 11
223.638190451
 21
566.659258263
 31
0.0
  0
LINE
  8
2
  6
CONTINUOUS
 62
     2
 10
221.05
 20
557.0
 30
0.0
 11
218.461809549
 21
566.659258263
 31
0.0
  0
LINE
  8
2
  6
CONTINUOUS
 62
     2
 10
289.05
 20
557.0
 30
0.0
 11
213.05
 21
557.0
 31
0.0
  0
LINE
  8
2
  6
CONTINUOUS
 62
     2
 10
190.55
 20
553.0
 30
0.0
 11
193.138190451
 21
562.659258263
 31
0.0
  0
LINE
  8
2
  6
CONTINUOUS
 62
     2
 10
190.55
 20
553.0
 30
0.0
 11
187.961809549
 21
562.659258263
 31
0.0
  0
LINE
  8
2
  6
CONTINUOUS
 62
     2
 10
445.550007629
 20
553.0
 30
0.0
 11
182.55
 21
553.0
 31
0.0
  0
LINE
  8
0
  6
CONTINUOUS
 62
     1
 10
289.55
 20
557.0
 30
0.0
 11
446.55
 21
557.0
 31
0.0
  0
ARC
  8
0
  6
CONTINUOUS
 62
     1
 10
289.55
 20
558.5
 30
0.0
 40
1.5
 50
180.0
 51
270.0
  0
LINE
  8
0
  6
CONTINUOUS
 62
     1
 10
288.05
 20
570.929475845
 30
0.0
 11
288.05
 21
558.5
 31
0.0
  0
ARC
  8
0
  6
CONTINUOUS
 62
     1
 10
286.55
 20
570.929475845
 30
0.0
 40
1.5
 50
0.0
 51
71.029592192
  0
LINE
  8
0
  6
CONTINUOUS
 62
     1
 10
286.75
 20
577.937554159
 30
0.0
 11
286.75
 21
582.549434159
 31
0.0
  0
LINE
  8
0
  6
CONTINUOUS
 62
     1
 10
283.2498
 20
581.419994159
 30
0.0
 11
283.901882488
 21
582.549434159
 31
0.0
  0
LINE
  8
0
  6
CONTINUOUS
 62
     1
 10
283.2498
 20
577.937554159
 30
0.0
 11
283.2498
 21
581.419994159
 31
0.0
  0
ARC
  8
0
  6
CONTINUOUS
 62
     1
 10
284.594720132
 20
581.396464159
 30
0.0
 40
1.34512595
 50
177.010501597
 51
238.997686085
  0
LINE
  8
0
  6
CONTINUOUS
 62
     1
 10
286.75
 20
582.549434159
 30
0.0
 11
283.901882488
 21
582.549434159
 31
0.0
  0
LINE
  8
0
  6
CONTINUOUS
 62
     1
 10
288.05
 20
582.537554159
 30
0.0
 11
286.75
 21
582.537554159
 31
0.0
  0
LINE
  8
0
  6
CONTINUOUS
 62
     1
 10
286.75
 20
577.937554159
 30
0.0
 11
286.75
 21
573.325674159
 31
0.0
  0
LINE
  8
0
  6
CONTINUOUS
 62
     1
 10
283.2498
 20
574.455114159
 30
0.0
 11
283.901882488
 21
573.325674159
 31
0.0
  0
LINE
  8
0
  6
CONTINUOUS
 62
     1
 10
283.2498
 20
577.937554159
 30
0.0
 11
283.2498
 21
574.455114159
 31
0.0
  0
ARC
  8
0
  6
CONTINUOUS
 62
     1
 10
287.653054926
 20
577.937554159
 30
0.0
 40
4.403254926
 50
148.419912243
 51
211.580087757
  0
LINE
  8
0
  6
CONTINUOUS
 62
     1
 10
283.2498
 20
574.455114159
 30
0.0
 11
283.901882488
 21
573.325674159
 31
0.0
  0
ARC
  8
0
  6
CONTINUOUS
 62
     1
 10
284.594720132
 20
574.478644159
 30
0.0
 40
1.34512595
 50
121.002313915
 51
182.989498403
  0
LINE
  8
0
  6
CONTINUOUS
 62
     1
 10
286.75
 20
575.631614159
 30
0.0
 11
283.901882488
 21
575.631614159
 31
0.0
  0
LINE
  8
0
  6
CONTINUOUS
 62
     1
 10
286.75
 20
573.325674159
 30
0.0
 11
283.901882488
 21
573.325674159
 31
0.0
  0
LINE
  8
0
  6
CONTINUOUS
 62
     1
 10
288.05
 20
573.337554159
 30
0.0
 11
286.75
 21
573.337554159
 31
0.0
  0
LINE
  8
0
  6
CONTINUOUS
 62
     1
 10
286.75
 20
580.243494159
 30
0.0
 11
283.901882488
 21
580.243494159
 31
0.0
  0
LINE
  8
0
  6
CONTINUOUS
 62
     1
 10
288.05
 20
577.937554159
 30
0.0
 11
286.750000446
 21
579.237553713
 31
0.0
  0
LINE
  8
0
  6
CONTINUOUS
 62
     1
 10
286.750000446
 20
577.937554159
 30
0.0
 11
288.05
 21
576.637554606
 31
0.0
  0
TEXT
  8
0
  6
CONTINUOUS
 62
     2
 10
299.95
 20
569.0
 30
0.0
 40
15.0
  1
エコノストップモータ
 50
0.0
 41
0.9
 51
0.0
  7
KANJI28
  0
TEXT
  8
0
  6
CONTINUOUS
 62
     2
 10
302.85
 20
586.0
 30
0.0
 40
15.0
  1
日本電産
 50
0.0
 41
0.9
 51
0.0
  7
KANJI28
  0
ARC
  8
0
  6
CONTINUOUS
 62
     1
 10
446.55
 20
555.5
 30
0.0
 40
1.5
 50
0.0
 51
90.0
  0
LINE
  8
0
  6
CONTINUOUS
 62
     1
 10
448.05
 20
555.5
 30
0.0
 11
448.05
 21
554.5
 31
0.0
  0
ARC
  8
0
  6
CONTINUOUS
 62
     1
 10
449.55
 20
554.5
 30
0.0
 40
1.5
 50
180.0
 51
270.0
  0
LINE
  8
0
  6
CONTINUOUS
 62
     1
 10
449.549990656
 20
553.0
 30
0.0
 11
456.05
 21
553.0
 31
0.0
  0
LINE
  8
0
  6
CONTINUOUS
 62
     1
 10
471.05
 20
579.0
 30
0.0
 11
513.050007629
 21
579.0
 31
0.0
  0
ARC
  8
0
  6
CONTINUOUS
 62
     1
 10
471.05
 20
576.0
 30
0.0
 40
3.0
 50
90.0
 51
180.0
  0
ARC
  8
0
  6
CONTINUOUS
 62
     1
 10
465.05
 20
557.0
 30
0.0
 40
3.0
 50
270.0
 51
0.0
  0
LINE
  8
0
  6
CONTINUOUS
 62
     1
 10
468.05
 20
576.0
 30
0.0
 11
468.05
 21
557.0
 31
0.0
  0
LINE
  8
0
  6
CONTINUOUS
 62
     1
 10
456.05
 20
554.0
 30
0.0
 11
489.050007629
 21
554.0
 31
0.0
  0
ARC
  8
0
  6
CONTINUOUS
 62
     1
 10
489.05
 20
557.0
 30
0.0
 40
3.0
 50
270.000145711
 51
0.00014571
  0
LINE
  8
0
  6
CONTINUOUS
 62
     1
 10
492.05
 20
576.000007629
 30
0.0
 11
492.05
 21
557.000007629
 31
0.0
  0
ARC
  8
0
  6
CONTINUOUS
 62
     1
 10
495.05
 20
576.0
 30
0.0
 40
3.0
 50
90.0
 51
179.99985429
  0
ARC
  8
0
  6
CONTINUOUS
 62
     1
 10
513.05
 20
582.0
 30
0.0
 40
3.0
 50
270.000145711
 51
0.0
  0
TEXT
  8
0
  6
CONTINUOUS
 62
     2
 10
649.65
 20
649.0
 30
0.0
 40
15.0
  1
φ６４
 50
90.0
 41
0.9
 51
0.0
  7
KANJI28
  0
LINE
  8
0
  6
CONTINUOUS
 62
     2
 10
653.65
 20
635.25
 30
0.0
 11
653.65
 21
698.75
 31
0.0
  0
LINE
  8
0
  6
CONTINUOUS
 62
     2
 10
653.65
 20
698.75
 30
0.0
 11
651.061809549
 21
689.090741737
 31
0.0
  0
LINE
  8
0
  6
CONTINUOUS
 62
     2
 10
653.65
 20
698.75
 30
0.0
 11
656.238190451
 21
689.090741737
 31
0.0
  0
LINE
  8
0
  6
CONTINUOUS
 62
     2
 10
653.65
 20
635.25
 30
0.0
 11
656.238190451
 21
644.909258263
 31
0.0
  0
LINE
  8
0
  6
CONTINUOUS
 62
     2
 10
653.65
 20
635.25
 30
0.0
 11
651.061809549
 21
644.909258263
 31
0.0
  0
LINE
  8
2
  6
CONTINUOUS
 62
     2
 10
546.05
 20
812.5
 30
0.0
 11
942.75
 21
812.5
 31
0.0
  0
LINE
  8
2
  6
CONTINUOUS
 62
     2
 10
546.05
 20
844.7
 30
0.0
 11
1053.85
 21
844.7
 31
0.0
  0
LINE
  8
2
  6
CONTINUOUS
 62
     2
 10
1053.85
 20
875.2
 30
0.0
 11
243.05
 21
875.2
 31
0.0
  0
LINE
  8
0
  6
LTYPE2
 62
     2
 10
656.0
 20
667.0
 30
0.0
 11
1092.81
 21
667.0
 31
0.0
  0
LINE
  8
0
  6
LTYPE5
 62
     2
 10
756.099814745
 20
630.0
 30
0.0
 11
756.099814745
 21
701.45
 31
0.0
  0
LINE
  8
0
  6
LTYPE5
 62
     2
 10
759.099814745
 20
630.0
 30
0.0
 11
759.099814745
 21
701.45
 31
0.0
  0
LINE
  8
0
  6
CONTINUOUS
 62
     1
 10
777.25
 20
679.5
 30
0.0
 11
802.25
 21
679.5
 31
0.0
  0
LINE
  8
0
  6
CONTINUOUS
 62
     1
 10
802.25
 20
654.5
 30
0.0
 11
802.25
 21
679.5
 31
0.0
  0
LINE
  8
0
  6
CONTINUOUS
 62
     1
 10
777.25
 20
654.5
 30
0.0
 11
777.25
 21
679.5
 31
0.0
  0
CIRCLE
  8
0
  6
CONTINUOUS
 62
     1
 10
789.75
 20
667.0
 30
0.0
 40
12.5
  0
LINE
  8
0
  6
LTYPE2
 62
     2
 10
789.75
 20
685.7
 30
0.0
 11
789.75
 21
646.0
 31
0.0
  0
LINE
  8
0
  6
CONTINUOUS
 62
     1
 10
777.25
 20
654.5
 30
0.0
 11
802.25
 21
654.5
 31
0.0
  0
LINE
  8
0
  6
CONTINUOUS
 62
     1
 10
595.05
 20
698.75
 30
0.0
 11
756.099814745
 21
698.75
 31
0.0
  0
LINE
  8
0
  6
CONTINUOUS
 62
     1
 10
595.05
 20
635.25
 30
0.0
 11
756.099814745
 21
635.25
 31
0.0
  0
LINE
  8
0
  6
CONTINUOUS
 62
     1
 10
759.099814745
 20
635.25
 30
0.0
 11
818.26
 21
635.25
 31
0.0
  0
LINE
  8
0
  6
CONTINUOUS
 62
     1
 10
759.099814745
 20
698.75
 30
0.0
 11
820.33
 21
698.75
 31
0.0
  0
LINE
  8
0
  6
LTYPE3
 62
     2
 10
855.789501379
 20
202.0
 30
0.0
 11
855.789501379
 21
513.0
 31
0.0
  0
LINE
  8
0
  6
CONTINUOUS
 62
     2
 10
1084.789501379
 20
667.0
 30
0.0
 11
1083.789501379
 21
667.0
 31
0.0
  0
LINE
  8
0
  6
CONTINUOUS
 62
     2
 10
1088.789501379
 20
667.0
 30
0.0
 11
1086.201310928
 21
657.340741737
 31
0.0
  0
LINE
  8
0
  6
CONTINUOUS
 62
     2
 10
1088.789501379
 20
667.0
 30
0.0
 11
1091.37769183
 21
657.340741737
 31
0.0
  0
LINE
  8
0
  6
CONTINUOUS
 62
     2
 10
1088.789501379
 20
667.0
 30
0.0
 11
1088.789501379
 21
514.0
 31
0.0
  0
LINE
  8
0
  6
CONTINUOUS
 62
     2
 10
1088.789501379
 20
514.0
 30
0.0
 11
1091.37769183
 21
523.659258263
 31
0.0
  0
LINE
  8
0
  6
CONTINUOUS
 62
     2
 10
1088.789501379
 20
514.0
 30
0.0
 11
1086.201310928
 21
523.659258263
 31
0.0
  0
LINE
  8
0
  6
CONTINUOUS
 62
     2
 10
976.14
 20
514.0
 30
0.0
 11
1093.789501379
 21
514.0
 31
0.0
  0
TEXT
  8
0
  6
CONTINUOUS
 62
     3
 10
1086.289501379
 20
570.25
 30
0.0
 40
15.0
  1
１５３
 50
90.0
 41
0.9
 51
0.0
  7
KANJI28
  0
ARC
  8
0
  6
CONTINUOUS
 62
     1
 10
974.312146432
 20
334.8
 30
0.0
 40
1.0
 50
270.0
 51
345.0
  0
ARC
  8
0
  6
CONTINUOUS
 62
     1
 10
974.312146432
 20
334.8
 30
0.0
 40
1.0
 50
195.0
 51
270.0
  0
LINE
  8
0
  6
CONTINUOUS
 62
     1
 10
971.063926358
 20
343.058819045
 30
0.0
 11
973.346220605
 21
334.541180955
 31
0.0
  0
ARC
  8
0
  6
CONTINUOUS
 62
     1
 10
970.098000531
 20
342.8
 30
0.0
 40
1.0
 50
15.0
 51
90.0
  0
ARC
  8
0
  6
CONTINUOUS
 62
     1
 10
970.098000531
 20
342.8
 30
0.0
 40
1.0
 50
90.0
 51
165.0
  0
LINE
  8
0
  6
CONTINUOUS
 62
     1
 10
969.132074705
 20
343.058819045
 30
0.0
 11
966.849780457
 21
334.541180955
 31
0.0
  0
ARC
  8
0
  6
CONTINUOUS
 62
     1
 10
965.883854631
 20
334.8
 30
0.0
 40
1.0
 50
270.0
 51
345.0
  0
ARC
  8
0
  6
CONTINUOUS
 62
     1
 10
961.669708731
 20
342.8
 30
0.0
 40
1.0
 50
15.0
 51
90.0
  0
LINE
  8
0
  6
CONTINUOUS
 62
     1
 10
962.635634557
 20
343.058819045
 30
0.0
 11
964.917928805
 21
334.541180955
 31
0.0
  0
ARC
  8
0
  6
CONTINUOUS
 62
     1
 10
965.883854631
 20
334.8
 30
0.0
 40
1.0
 50
195.0
 51
270.0
  0
LINE
  8
2
  6
CONTINUOUS
 62
     2
 10
921.75
 20
333.8
 30
0.0
 11
924.338190451
 21
343.459258263
 31
0.0
  0
LINE
  8
2
  6
CONTINUOUS
 62
     2
 10
921.75
 20
333.8
 30
0.0
 11
919.161809549
 21
343.459258263
 31
0.0
  0
LINE
  8
2
  6
CONTINUOUS
 62
     2
 10
961.883854631
 20
333.8
 30
0.0
 11
913.75
 21
333.8
 31
0.0
  0
LINE
  8
0
  6
CONTINUOUS
 62
     1
 10
839.789501379
 20
252.1
 30
0.0
 11
871.789501379
 21
252.1
 31
0.0
  0
LINE
  8
0
  6
CONTINUOUS
 62
     1
 10
839.789501379
 20
220.1
 30
0.0
 11
839.789501379
 21
252.1
 31
0.0
  0
ARC
  8
0
  6
CONTINUOUS
 62
     1
 10
800.789501379
 20
308.6
 30
0.0
 40
10.0
 50
90.0
 51
180.0
  0
LINE
  8
0
  6
CONTINUOUS
 62
     1
 10
920.789501379
 20
306.8
 30
0.0
 11
920.789501379
 21
308.6
 31
0.0
  0
LINE
  8
0
  6
CONTINUOUS
 62
     1
 10
800.789501379
 20
318.6
 30
0.0
 11
910.789501379
 21
318.6
 31
0.0
  0
ARC
  8
0
  6
CONTINUOUS
 62
     1
 10
910.789501379
 20
308.6
 30
0.0
 40
10.0
 50
0.0
 51
90.0
  0
LINE
  8
0
  6
LTYPE2
 62
     2
 10
922.050522596
 20
294.1
 30
0.0
 11
830.789501379
 21
294.1
 31
0.0
  0
LINE
  8
0
  6
CONTINUOUS
 62
     1
 10
871.789501379
 20
220.1
 30
0.0
 11
839.789501379
 21
220.1
 31
0.0
  0
LINE
  8
0
  6
LTYPE2
 62
     2
 10
866.289501379
 20
193.2
 30
0.0
 11
877.189501379
 21
193.2
 31
0.0
  0
LINE
  8
0
  6
LTYPE2
 62
     2
 10
872.189501379
 20
187.18
 30
0.0
 11
872.189501379
 21
197.1
 31
0.0
  0
LINE
  8
0
  6
LTYPE2
 62
     2
 10
865.749501379
 20
163.0
 30
0.0
 11
877.189501379
 21
163.0
 31
0.0
  0
LINE
  8
0
  6
LTYPE2
 62
     2
 10
872.189501379
 20
159.1
 30
0.0
 11
872.189501379
 21
168.08
 31
0.0
  0
LINE
  8
0
  6
LTYPE2
 62
     2
 10
808.489501379
 20
163.0
 30
0.0
 11
818.449501379
 21
163.0
 31
0.0
  0
LINE
  8
0
  6
LTYPE2
 62
     2
 10
813.489501379
 20
159.1
 30
0.0
 11
813.489501379
 21
166.98
 31
0.0
  0
LINE
  8
0
  6
LTYPE2
 62
     2
 10
808.489501379
 20
193.2
 30
0.0
 11
818.289501379
 21
193.2
 31
0.0
  0
LINE
  8
0
  6
LTYPE2
 62
     2
 10
813.489501379
 20
187.08
 30
0.0
 11
813.489501379
 21
197.1
 31
0.0
  0
LINE
  8
0
  6
LTYPE2
 62
     2
 10
809.789501379
 20
216.1
 30
0.0
 11
786.789501379
 21
216.1
 31
0.0
  0
ARC
  8
0
  6
CONTINUOUS
 62
     1
 10
810.489501379
 20
160.1
 30
0.0
 40
2.0
 50
180.0
 51
270.0
  0
LINE
  8
0
  6
CONTINUOUS
 62
     1
 10
785.089501379
 20
165.4
 30
0.0
 11
808.489501379
 21
165.4
 31
0.0
  0
ARC
  8
0
  6
CONTINUOUS
 62
     1
 10
785.089501379
 20
167.4
 30
0.0
 40
2.0
 50
180.0
 51
270.0
  0
LINE
  8
0
  6
CONTINUOUS
 62
     1
 10
783.089501379
 20
167.4
 30
0.0
 11
783.089501379
 21
188.8
 31
0.0
  0
ARC
  8
0
  6
CONTINUOUS
 62
     1
 10
785.089501379
 20
188.8
 30
0.0
 40
2.0
 50
90.0
 51
180.0
  0
LINE
  8
0
  6
CONTINUOUS
 62
     1
 10
808.489501379
 20
160.1
 30
0.0
 11
808.489501379
 21
196.1
 31
0.0
  0
ARC
  8
0
  6
CONTINUOUS
 62
     1
 10
810.489501379
 20
196.1
 30
0.0
 40
2.0
 50
90.0
 51
180.0
  0
LINE
  8
0
  6
CONTINUOUS
 62
     1
 10
810.489501379
 20
198.1
 30
0.0
 11
875.189501379
 21
198.1
 31
0.0
  0
ARC
  8
0
  6
CONTINUOUS
 62
     1
 10
875.189501379
 20
196.1
 30
0.0
 40
2.0
 50
0.0
 51
90.0
  0
LINE
  8
0
  6
CONTINUOUS
 62
     1
 10
810.489501379
 20
158.1
 30
0.0
 11
875.189501379
 21
158.1
 31
0.0
  0
LINE
  8
0
  6
CONTINUOUS
 62
     1
 10
877.189501379
 20
160.1
 30
0.0
 11
877.189501379
 21
196.1
 31
0.0
  0
ARC
  8
0
  6
CONTINUOUS
 62
     1
 10
875.189501379
 20
160.1
 30
0.0
 40
2.0
 50
270.0
 51
0.0
  0
ARC
  8
0
  6
CONTINUOUS
 62
     1
 10
910.789501379
 20
163.6
 30
0.0
 40
10.0
 50
270.0
 51
0.0
  0
LINE
  8
0
  6
CONTINUOUS
 62
     1
 10
790.789501379
 20
165.4
 30
0.0
 11
790.789501379
 21
163.6
 31
0.0
  0
LINE
  8
0
  6
CONTINUOUS
 62
     1
 10
910.789501379
 20
153.6
 30
0.0
 11
800.789501379
 21
153.6
 31
0.0
  0
ARC
  8
0
  6
CONTINUOUS
 62
     1
 10
800.789501379
 20
163.6
 30
0.0
 40
10.0
 50
180.0
 51
270.0
  0
LINE
  8
0
  6
CONTINUOUS
 62
     1
 10
792.797817392
 20
178.415789474
 30
0.0
 11
794.795045388
 21
216.310526316
 31
0.0
  0
LINE
  8
0
  6
CONTINUOUS
 62
     1
 10
804.781185367
 20
178.415789474
 30
0.0
 11
802.783957371
 21
216.310526316
 31
0.0
  0
ARC
  8
0
  6
CONTINUOUS
 62
     1
 10
798.789501379
 20
216.1
 30
0.0
 40
4.0
 50
356.983042101
 51
183.016952287
  0
ARC
  8
0
  6
CONTINUOUS
 62
     1
 10
798.789501379
 20
216.1
 30
0.0
 40
8.75
 50
300.219855722
 51
239.780144278
  0
ARC
  8
0
  6
CONTINUOUS
 62
     1
 10
798.789501379
 20
178.1
 30
0.0
 40
6.0
 50
176.983045121
 51
3.016954879
  0
LINE
  8
0
  6
CONTINUOUS
 62
     1
 10
804.128480162
 20
190.8
 30
0.0
 11
808.489501379
 21
190.8
 31
0.0
  0
LINE
  8
0
  6
CONTINUOUS
 62
     1
 10
785.089501379
 20
190.8
 30
0.0
 11
793.450522596
 21
190.8
 31
0.0
  0
LINE
  8
0
  6
LTYPE2
 62
     2
 10
798.789501379
 20
169.0
 30
0.0
 11
798.789501379
 21
226.5
 31
0.0
  0
LINE
  8
0
  6
LTYPE2
 62
     2
 10
789.528480162
 20
178.1
 30
0.0
 11
880.789501379
 21
178.1
 31
0.0
  0
LINE
  8
0
  6
CONTINUOUS
 62
     1
 10
871.789501379
 20
220.1
 30
0.0
 11
871.789501379
 21
252.1
 31
0.0
  0
LINE
  8
0
  6
CONTINUOUS
 62
     1
 10
790.789501379
 20
212.55563828
 30
0.0
 11
790.789501379
 21
190.75
 31
0.0
  0
LINE
  8
0
  6
CONTINUOUS
 62
     1
 10
790.789501379
 20
228.1
 30
0.0
 11
790.789501379
 21
219.64436172
 31
0.0
  0
LINE
  8
0
  6
CONTINUOUS
 62
     1
 10
920.789501379
 20
259.64436172
 30
0.0
 11
920.789501379
 21
281.45
 31
0.0
  0
LINE
  8
0
  6
CONTINUOUS
 62
     1
 10
920.789501379
 20
244.1
 30
0.0
 11
920.789501379
 21
252.55563828
 31
0.0
  0
LINE
  8
0
  6
CONTINUOUS
 62
     1
 10
774.410444363
 20
228.1
 30
0.0
 11
839.789501379
 21
228.1
 31
0.0
  0
LINE
  8
0
  6
CONTINUOUS
 62
     1
 10
839.789501379
 20
244.1
 30
0.0
 11
774.480079342
 21
244.1
 31
0.0
  0
ARC
  8
0
  6
CONTINUOUS
 62
     1
 10
780.034969957
 20
240.1
 30
0.0
 40
6.845203412
 50
144.242860688
 51
215.757139312
  0
ARC
  8
0
  6
CONTINUOUS
 62
     1
 10
768.925188727
 20
240.1
 30
0.0
 40
6.845203412
 50
324.242860688
 51
35.757139312
  0
ARC
  8
0
  6
CONTINUOUS
 62
     1
 10
768.925188727
 20
232.1
 30
0.0
 40
6.845203412
 50
324.242860688
 51
35.757139312
  0
LINE
  8
0
  6
LTYPE3
 62
     2
 10
1004.289501379
 20
236.1
 30
0.0
 11
769.445261852
 21
236.1
 31
0.0
  0
LINE
  8
7
  6
CONTINUOUS
 62
     2
 10
877.189501379
 20
178.1
 30
0.0
 11
885.556808964
 21
183.576144975
 31
0.0
  0
LINE
  8
7
  6
CONTINUOUS
 62
     2
 10
877.189501379
 20
178.1
 30
0.0
 11
881.697729822
 21
187.026134455
 31
0.0
  0
LINE
  8
7
  6
CONTINUOUS
 62
     2
 10
877.189501379
 20
178.1
 30
0.0
 11
889.839501379
 21
192.25
 31
0.0
  0
LINE
  8
7
  6
CONTINUOUS
 62
     2
 10
889.839501379
 20
192.25
 30
0.0
 11
948.639501379
 21
192.25
 31
0.0
  0
TEXT
  8
7
  6
CONTINUOUS
 62
     2
 10
889.839501379
 20
196.25
 30
1.2
 40
12.0
  1
ＰＦ１／２
 50
0.0
 41
0.9
 51
0.0
  7
KANJI18
  0
LINE
  8
7
  6
CONTINUOUS
 62
     2
 10
834.389501379
 20
294.1
 30
0.0
 11
826.08102349
 21
288.535002681
 31
0.0
  0
LINE
  8
7
  6
CONTINUOUS
 62
     2
 10
834.389501379
 20
294.1
 30
0.0
 11
829.97664712
 21
285.126332005
 31
0.0
  0
LINE
  8
7
  6
CONTINUOUS
 62
     2
 10
834.389501379
 20
294.1
 30
0.0
 11
823.189501379
 21
281.3
 31
0.0
  0
LINE
  8
7
  6
CONTINUOUS
 62
     2
 10
823.189501379
 20
281.3
 30
0.0
 11
764.389501379
 21
281.3
 31
0.0
  0
TEXT
  8
7
  6
CONTINUOUS
 62
     2
 10
764.389501379
 20
285.3
 30
1.2
 40
12.0
  1
ＰＦ１／２
 50
0.0
 41
0.9
 51
0.0
  7
KANJI18
  0
LINE
  8
0
  6
CONTINUOUS
 62
     1
 10
790.789501379
 20
298.3
 30
0.0
 11
790.789501379
 21
308.6
 31
0.0
  0
LINE
  8
0
  6
CONTINUOUS
 62
     1
 10
790.789501379
 20
244.1
 30
0.0
 11
790.789501379
 21
278.3
 31
0.0
  0
LINE
  8
0
  6
CONTINUOUS
 62
     1
 10
920.789501379
 20
189.3
 30
0.0
 11
920.789501379
 21
163.6
 31
0.0
  0
LINE
  8
0
  6
LTYPE2
 62
     2
 10
845.829501379
 20
309.2
 30
0.0
 11
834.389501379
 21
309.2
 31
0.0
  0
LINE
  8
0
  6
LTYPE2
 62
     2
 10
839.389501379
 20
313.1
 30
0.0
 11
839.389501379
 21
304.12
 31
0.0
  0
LINE
  8
0
  6
CONTINUOUS
 62
     1
 10
901.089501379
 20
314.1
 30
0.0
 11
836.389501379
 21
314.1
 31
0.0
  0
LINE
  8
0
  6
CONTINUOUS
 62
     1
 10
834.389501379
 20
312.1
 30
0.0
 11
834.389501379
 21
276.1
 31
0.0
  0
ARC
  8
0
  6
CONTINUOUS
 62
     1
 10
836.389501379
 20
312.1
 30
0.0
 40
2.0
 50
90.0
 51
180.0
  0
LINE
  8
0
  6
LTYPE2
 62
     2
 10
845.289501379
 20
279.0
 30
0.0
 11
834.389501379
 21
279.0
 31
0.0
  0
LINE
  8
0
  6
LTYPE2
 62
     2
 10
839.389501379
 20
285.02
 30
0.0
 11
839.389501379
 21
275.1
 31
0.0
  0
LINE
  8
0
  6
CONTINUOUS
 62
     1
 10
901.089501379
 20
274.1
 30
0.0
 11
836.389501379
 21
274.1
 31
0.0
  0
ARC
  8
0
  6
CONTINUOUS
 62
     1
 10
836.389501379
 20
276.1
 30
0.0
 40
2.0
 50
180.0
 51
270.0
  0
LINE
  8
0
  6
LTYPE2
 62
     2
 10
903.089501379
 20
309.2
 30
0.0
 11
893.129501379
 21
309.2
 31
0.0
  0
LINE
  8
0
  6
LTYPE2
 62
     2
 10
898.089501379
 20
313.1
 30
0.0
 11
898.089501379
 21
305.22
 31
0.0
  0
ARC
  8
0
  6
CONTINUOUS
 62
     1
 10
901.089501379
 20
312.1
 30
0.0
 40
2.0
 50
0.0
 51
90.0
  0
LINE
  8
0
  6
CONTINUOUS
 62
     1
 10
926.489501379
 20
306.8
 30
0.0
 11
903.089501379
 21
306.8
 31
0.0
  0
LINE
  8
0
  6
CONTINUOUS
 62
     1
 10
903.089501379
 20
312.1
 30
0.0
 11
903.089501379
 21
276.1
 31
0.0
  0
LINE
  8
0
  6
LTYPE2
 62
     2
 10
903.089501379
 20
279.0
 30
0.0
 11
893.289501379
 21
279.0
 31
0.0
  0
LINE
  8
0
  6
LTYPE2
 62
     2
 10
898.089501379
 20
285.12
 30
0.0
 11
898.089501379
 21
275.1
 31
0.0
  0
ARC
  8
0
  6
CONTINUOUS
 62
     1
 10
901.089501379
 20
276.1
 30
0.0
 40
2.0
 50
270.0
 51
0.0
  0
LINE
  8
0
  6
CONTINUOUS
 62
     1
 10
907.450522596
 20
281.4
 30
0.0
 11
903.089501379
 21
281.4
 31
0.0
  0
ARC
  8
0
  6
CONTINUOUS
 62
     1
 10
926.489501379
 20
304.8
 30
0.0
 40
2.0
 50
0.0
 51
90.0
  0
LINE
  8
0
  6
CONTINUOUS
 62
     1
 10
928.489501379
 20
304.8
 30
0.0
 11
928.489501379
 21
283.4
 31
0.0
  0
ARC
  8
0
  6
CONTINUOUS
 62
     1
 10
912.789501379
 20
294.1
 30
0.0
 40
6.0
 50
356.983045121
 51
183.016954879
  0
LINE
  8
0
  6
LTYPE2
 62
     2
 10
912.789501379
 20
303.2
 30
0.0
 11
912.789501379
 21
245.7
 31
0.0
  0
LINE
  8
0
  6
CONTINUOUS
 62
     1
 10
918.781185367
 20
293.784210526
 30
0.0
 11
916.783957371
 21
255.889473684
 31
0.0
  0
LINE
  8
0
  6
CONTINUOUS
 62
     1
 10
906.797817392
 20
293.784210526
 30
0.0
 11
908.795045388
 21
255.889473684
 31
0.0
  0
ARC
  8
0
  6
CONTINUOUS
 62
     1
 10
926.489501379
 20
283.4
 30
0.0
 40
2.0
 50
270.0
 51
0.0
  0
LINE
  8
0
  6
CONTINUOUS
 62
     1
 10
926.489501379
 20
281.4
 30
0.0
 11
918.128480162
 21
281.4
 31
0.0
  0
LINE
  8
0
  6
LTYPE2
 62
     2
 10
901.789501379
 20
256.1
 30
0.0
 11
924.789501379
 21
256.1
 31
0.0
  0
ARC
  8
0
  6
CONTINUOUS
 62
     1
 10
912.789501379
 20
256.1
 30
0.0
 40
8.75
 50
120.219855722
 51
59.780144278
  0
ARC
  8
0
  6
CONTINUOUS
 62
     1
 10
912.789501379
 20
256.1
 30
0.0
 40
4.0
 50
176.983042101
 51
3.016952287
  0
LINE
  8
0
  6
LTYPE3
 62
     2
 10
952.289501379
 20
226.1
 30
0.0
 11
952.289501379
 21
246.1
 31
0.0
  0
CIRCLE
  8
0
  6
CONTINUOUS
 62
     2
 10
952.289501379
 20
236.1
 30
0.0
 40
5.0
  0
CIRCLE
  8
0
  6
CONTINUOUS
 62
     2
 10
952.289501379
 20
236.1
 30
0.0
 40
4.0
  0
LINE
  8
0
  6
CONTINUOUS
 62
     2
 10
795.789501379
 20
318.6
 30
0.0
 11
727.14
 21
318.6
 31
0.0
  0
LINE
  8
0
  6
CONTINUOUS
 62
     2
 10
732.14
 20
318.6
 30
0.0
 11
729.551809549
 21
308.940741737
 31
0.0
  0
LINE
  8
0
  6
CONTINUOUS
 62
     2
 10
732.14
 20
318.6
 30
0.0
 11
734.728190451
 21
308.940741737
 31
0.0
  0
LINE
  8
0
  6
CONTINUOUS
 62
     2
 10
732.14
 20
318.6
 30
0.0
 11
732.14
 21
153.6
 31
0.0
  0
LINE
  8
0
  6
CONTINUOUS
 62
     2
 10
732.14
 20
153.6
 30
0.0
 11
734.728190451
 21
163.259258263
 31
0.0
  0
LINE
  8
0
  6
CONTINUOUS
 62
     2
 10
732.14
 20
153.6
 30
0.0
 11
729.551809549
 21
163.259258263
 31
0.0
  0
LINE
  8
0
  6
CONTINUOUS
 62
     2
 10
795.789501379
 20
153.6
 30
0.0
 11
727.14
 21
153.6
 31
0.0
  0
TEXT
  8
0
  6
CONTINUOUS
 62
     3
 10
729.64
 20
215.85
 30
0.0
 40
15.0
  1
１６５
 50
90.0
 41
0.9
 51
0.0
  7
KANJI28
  0
LINE
  8
0
  6
CONTINUOUS
 62
     2
 10
790.789501379
 20
160.4
 30
0.0
 11
790.789501379
 21
103.6
 31
0.0
  0
LINE
  8
0
  6
CONTINUOUS
 62
     2
 10
790.789501379
 20
108.6
 30
0.0
 11
800.448759642
 21
106.011809549
 31
0.0
  0
LINE
  8
0
  6
CONTINUOUS
 62
     2
 10
790.789501379
 20
108.6
 30
0.0
 11
800.448759642
 21
111.188190451
 31
0.0
  0
LINE
  8
0
  6
CONTINUOUS
 62
     2
 10
790.789501379
 20
108.6
 30
0.0
 11
920.789501379
 21
108.6
 31
0.0
  0
LINE
  8
0
  6
CONTINUOUS
 62
     2
 10
920.789501379
 20
108.6
 30
0.0
 11
911.130243116
 21
111.188190451
 31
0.0
  0
LINE
  8
0
  6
CONTINUOUS
 62
     2
 10
920.789501379
 20
108.6
 30
0.0
 11
911.130243116
 21
106.011809549
 31
0.0
  0
LINE
  8
0
  6
CONTINUOUS
 62
     2
 10
920.789501379
 20
158.600002697
 30
0.0
 11
920.789501379
 21
103.6
 31
0.0
  0
TEXT
  8
0
  6
CONTINUOUS
 62
     3
 10
835.539501379
 20
111.1
 30
0.0
 40
15.0
  1
１３０
 50
0.0
 41
0.9
 51
0.0
  7
KANJI28
  0
LINE
  8
0
  6
CONTINUOUS
 62
     1
 10
985.85
 20
360.8
 30
0.0
 11
999.85
 21
360.8
 31
0.0
  0
LINE
  8
0
  6
CONTINUOUS
 62
     1
 10
1002.85
 20
348.8
 30
0.0
 11
1018.85
 21
348.8
 31
0.0
  0
LINE
  8
0
  6
LTYPE3
 62
     2
 10
1004.85
 20
357.8
 30
0.0
 11
1016.85
 21
357.8
 31
0.0
  0
TEXT
  8
0
  6
CONTINUOUS
 62
     2
 10
1105.683854631
 20
334.3
 30
0.0
 40
15.0
  1
１２
 50
90.0
 41
0.9
 51
0.0
  7
KANJI28
  0
ARC
  8
0
  6
CONTINUOUS
 62
     1
 10
994.044032801
 20
240.1
 30
0.0
 40
6.845203412
 50
324.242860688
 51
35.757139312
  0
ARC
  8
0
  6
CONTINUOUS
 62
     1
 10
1005.153814032
 20
240.1
 30
0.0
 40
6.845203412
 50
144.242860688
 51
215.757139312
  0
ARC
  8
0
  6
CONTINUOUS
 62
     1
 10
1005.153814032
 20
232.1
 30
0.0
 40
6.845203412
 50
144.242860688
 51
215.757139312
  0
TEXT
  8
0
  6
CONTINUOUS
 62
     2
 10
75.6170994
 20
653.528385972
 30
0.0
 40
15.0
  1
前進方向
 50
0.0
 41
0.9
 51
0.0
  7
KANJI28
  0
ARC
  8
0
  6
CONTINUOUS
 62
     2
 10
123.0
 20
626.65
 30
0.0
 40
20.0
 50
203.198590514
 51
128.047042532
  0
LINE
  8
0
  6
CONTINUOUS
 62
     2
 10
104.6170994
 20
618.771614028
 30
0.0
 11
112.885260778
 21
613.864277493
 31
0.0
  0
LINE
  8
0
  6
CONTINUOUS
 62
     2
 10
104.6170994
 20
618.771614028
 30
0.0
 11
106.91179211
 21
608.934175251
 31
0.0
  0
TEXT
  8
0
  6
CONTINUOUS
 62
     2
 10
882.4275
 20
1278.575
 30
1.3475
 40
13.475
  1
注意：サーマルリレー等の選定は、上記の値で選定して下さい。
 50
0.0
 41
0.9
 51
0.0
  7
KANJI39
  0
LINE
  8
0
  6
CONTINUOUS
 62
     2
 10
110.0
 20
284.8
 30
0.0
 11
117.72740661
 21
282.729447639
 31
0.0
  0
LINE
  8
0
  6
CONTINUOUS
 62
     2
 10
110.0
 20
284.8
 30
0.0
 11
117.72740661
 21
286.870552361
 31
0.0
  0
LINE
  8
0
  6
CONTINUOUS
 62
     2
 10
110.0
 20
284.8
 30
0.0
 11
247.6
 21
284.8
 31
0.0
  0
LINE
  8
0
  6
CONTINUOUS
 62
     2
 10
247.6
 20
284.8
 30
0.0
 11
239.87259339
 21
286.870552361
 31
0.0
  0
LINE
  8
0
  6
CONTINUOUS
 62
     2
 10
247.6
 20
284.8
 30
0.0
 11
239.87259339
 21
282.729447639
 31
0.0
  0
LINE
  8
0
  6
CONTINUOUS
 62
     2
 10
247.6
 20
283.6
 30
0.0
 11
247.6
 21
280.8
 31
0.0
  0
LINE
  8
0
  6
CONTINUOUS
 62
     2
 10
247.6
 20
284.8
 30
0.0
 11
255.32740661
 21
282.729447639
 31
0.0
  0
LINE
  8
0
  6
CONTINUOUS
 62
     2
 10
247.6
 20
284.8
 30
0.0
 11
255.32740661
 21
286.870552361
 31
0.0
  0
LINE
  8
0
  6
CONTINUOUS
 62
     2
 10
247.6
 20
284.8
 30
0.0
 11
450.0
 21
284.8
 31
0.0
  0
LINE
  8
0
  6
CONTINUOUS
 62
     2
 10
450.0
 20
284.8
 30
0.0
 11
442.27259339
 21
286.870552361
 31
0.0
  0
LINE
  8
0
  6
CONTINUOUS
 62
     2
 10
450.0
 20
284.8
 30
0.0
 11
442.27259339
 21
282.729447639
 31
0.0
  0
LINE
  8
0
  6
CONTINUOUS
 62
     2
 10
247.6
 20
258.470552361
 30
0.0
 11
239.87259339
 21
260.541104722
 31
0.0
  0
LINE
  8
0
  6
CONTINUOUS
 62
     2
 10
247.6
 20
258.470552361
 30
0.0
 11
239.87259339
 21
256.4
 31
0.0
  0
LINE
  8
0
  6
CONTINUOUS
 62
     2
 10
235.6
 20
258.470552361
 30
0.0
 11
247.6
 21
258.470552361
 31
0.0
  0
LINE
  8
0
  6
CONTINUOUS
 62
     2
 10
247.6
 20
258.470552361
 30
0.0
 11
268.4
 21
258.470552361
 31
0.0
  0
LINE
  8
0
  6
CONTINUOUS
 62
     2
 10
268.4
 20
258.470552361
 30
0.0
 11
276.12740661
 21
256.4
 31
0.0
  0
LINE
  8
0
  6
CONTINUOUS
 62
     2
 10
268.4
 20
258.470552361
 30
0.0
 11
276.12740661
 21
260.541104722
 31
0.0
  0
LINE
  8
0
  6
CONTINUOUS
 62
     2
 10
110.0
 20
233.2
 30
0.0
 11
110.0
 21
227.2
 31
0.0
  0
LINE
  8
0
  6
CONTINUOUS
 62
     2
 10
110.0
 20
231.2
 30
0.0
 11
117.72740661
 21
229.129447639
 31
0.0
  0
LINE
  8
0
  6
CONTINUOUS
 62
     2
 10
110.0
 20
231.2
 30
0.0
 11
117.72740661
 21
233.270552361
 31
0.0
  0
LINE
  8
0
  6
CONTINUOUS
 62
     2
 10
110.0
 20
231.2
 30
0.0
 11
268.4
 21
231.2
 31
0.0
  0
LINE
  8
0
  6
CONTINUOUS
 62
     2
 10
268.4
 20
231.2
 30
0.0
 11
260.67259339
 21
233.270552361
 31
0.0
  0
LINE
  8
0
  6
CONTINUOUS
 62
     2
 10
268.4
 20
231.2
 30
0.0
 11
260.67259339
 21
229.129447639
 31
0.0
  0
LINE
  8
0
  6
CONTINUOUS
 62
     2
 10
268.4
 20
232.4
 30
0.0
 11
268.4
 21
227.2
 31
0.0
  0
LINE
  8
0
  6
CONTINUOUS
 62
     2
 10
268.4
 20
231.2
 30
0.0
 11
276.12740661
 21
229.129447639
 31
0.0
  0
LINE
  8
0
  6
CONTINUOUS
 62
     2
 10
268.4
 20
231.2
 30
0.0
 11
276.12740661
 21
233.270552361
 31
0.0
  0
LINE
  8
0
  6
CONTINUOUS
 62
     2
 10
450.0
 20
227.6
 30
0.0
 11
450.0
 21
227.2
 31
0.0
  0
LINE
  8
0
  6
CONTINUOUS
 62
     2
 10
110.0
 20
202.0
 30
0.0
 11
117.72740661
 21
199.929447639
 31
0.0
  0
LINE
  8
0
  6
CONTINUOUS
 62
     2
 10
110.0
 20
202.0
 30
0.0
 11
117.72740661
 21
204.070552361
 31
0.0
  0
LINE
  8
0
  6
CONTINUOUS
 62
     2
 10
110.0
 20
202.0
 30
0.0
 11
427.6
 21
202.0
 31
0.0
  0
LINE
  8
0
  6
CONTINUOUS
 62
     2
 10
427.6
 20
202.0
 30
0.0
 11
419.87259339
 21
204.070552361
 31
0.0
  0
LINE
  8
0
  6
CONTINUOUS
 62
     2
 10
427.6
 20
202.0
 30
0.0
 11
419.87259339
 21
199.929447639
 31
0.0
  0
LINE
  8
0
  6
CONTINUOUS
 62
     2
 10
427.6
 20
202.8
 30
0.0
 11
427.6
 21
198.0
 31
0.0
  0
LINE
  8
0
  6
CONTINUOUS
 62
     2
 10
427.6
 20
202.0
 30
0.0
 11
419.87259339
 21
204.070552361
 31
0.0
  0
LINE
  8
0
  6
CONTINUOUS
 62
     2
 10
427.6
 20
202.0
 30
0.0
 11
419.87259339
 21
199.929447639
 31
0.0
  0
LINE
  8
0
  6
CONTINUOUS
 62
     2
 10
415.6
 20
202.0
 30
0.0
 11
427.6
 21
202.0
 31
0.0
  0
LINE
  8
0
  6
CONTINUOUS
 62
     2
 10
427.6
 20
202.0
 30
0.0
 11
450.0
 21
202.0
 31
0.0
  0
LINE
  8
0
  6
CONTINUOUS
 62
     2
 10
450.0
 20
202.0
 30
0.0
 11
457.72740661
 21
199.929447639
 31
0.0
  0
LINE
  8
0
  6
CONTINUOUS
 62
     2
 10
450.0
 20
202.0
 30
0.0
 11
457.72740661
 21
204.070552361
 31
0.0
  0
LINE
  8
0
  6
CONTINUOUS
 62
     2
 10
110.0
 20
295.6
 30
0.0
 11
110.0
 21
280.8
 31
0.0
  0
LINE
  8
0
  6
CONTINUOUS
 62
     2
 10
450.0
 20
295.6
 30
0.0
 11
450.0
 21
280.8
 31
0.0
  0
LINE
  8
0
  6
CONTINUOUS
 62
     2
 10
247.6
 20
284.4
 30
0.0
 11
247.6
 21
295.6
 31
0.0
  0
LINE
  8
0
  6
CONTINUOUS
 62
     2
 10
268.4
 20
271.270552361
 30
0.0
 11
268.4
 21
254.470552361
 31
0.0
  0
LINE
  8
0
  6
CONTINUOUS
 62
     2
 10
110.0
 20
280.8
 30
0.0
 11
110.0
 21
188.8
 31
0.0
  0
LINE
  8
0
  6
CONTINUOUS
 62
     2
 10
450.0
 20
284.8
 30
0.0
 11
450.0
 21
190.0
 31
0.0
  0
LINE
  8
0
  6
CONTINUOUS
 62
     2
 10
268.4
 20
258.470552361
 30
0.0
 11
268.4
 21
222.0
 31
0.0
  0
LINE
  8
0
  6
CONTINUOUS
 62
     2
 10
247.6
 20
284.8
 30
0.0
 11
247.6
 21
249.2
 31
0.0
  0
TEXT
  8
0
  6
CONTINUOUS
 62
     3
 10
151.8
 20
286.8
 30
0.0
 40
15.0
  1
ｍｉｎ．Ｌ
 50
0.0
 41
0.9
 51
0.0
  7
KANJI28
  0
TEXT
  8
0
  6
CONTINUOUS
 62
     3
 10
305.6
 20
286.8
 30
0.0
 40
15.0
  1
機械的ストローク
 50
0.0
 41
0.9
 51
0.0
  7
KANJI28
  0
TEXT
  8
0
  6
CONTINUOUS
 62
     3
 10
280.4
 20
260.470552361
 30
0.0
 40
15.0
  1
余裕
 50
0.0
 41
0.9
 51
0.0
  7
KANJI28
  0
TEXT
  8
0
  6
CONTINUOUS
 62
     3
 10
162.2
 20
233.2
 30
0.0
 40
15.0
  1
常用ｍｉｎ
 50
0.0
 41
0.9
 51
0.0
  7
KANJI28
  0
TEXT
  8
0
  6
CONTINUOUS
 62
     3
 10
241.8
 20
204.0
 30
0.0
 40
15.0
  1
常用ｍａｘ
 50
0.0
 41
0.9
 51
0.0
  7
KANJI28
  0
TEXT
  8
0
  6
CONTINUOUS
 62
     3
 10
462.0
 20
204.0
 30
0.0
 40
15.0
  1
余裕
 50
0.0
 41
0.9
 51
0.0
  7
KANJI28
  0
LINE
  8
0
  6
CONTINUOUS
 62
     2
 10
268.4
 20
258.470552361
 30
0.0
 11
308.5
 21
258.470552361
 31
0.0
  0
LINE
  8
0
  6
CONTINUOUS
 62
     2
 10
450.0
 20
202.0
 30
0.0
 11
492.5
 21
202.0
 31
0.0
  0
LINE
  8
0
  6
CONTINUOUS
 62
     1
 10
580.299501379
 20
288.1
 30
0.0
 11
580.299501379
 21
223.4
 31
0.0
  0
ARC
  8
0
  6
CONTINUOUS
 62
     1
 10
582.299501379
 20
223.4
 30
0.0
 40
2.0
 50
180.0
 51
270.0
  0
ARC
  8
0
  6
CONTINUOUS
 62
     1
 10
582.299501379
 20
288.1
 30
0.0
 40
2.0
 50
90.0
 51
180.0
  0
LINE
  8
0
  6
CONTINUOUS
 62
     1
 10
587.599501379
 20
313.5
 30
0.0
 11
587.599501379
 21
290.1
 31
0.0
  0
LINE
  8
0
  6
CONTINUOUS
 62
     1
 10
582.299501379
 20
290.1
 30
0.0
 11
618.299501379
 21
290.1
 31
0.0
  0
ARC
  8
0
  6
CONTINUOUS
 62
     1
 10
589.599501379
 20
313.5
 30
0.0
 40
2.0
 50
90.0
 51
180.0
  0
LINE
  8
0
  6
CONTINUOUS
 62
     1
 10
589.599501379
 20
315.5
 30
0.0
 11
608.776692944
 21
315.5
 31
0.0
  0
LINE
  8
0
  6
LTYPE3
 62
     2
 10
585.424501379
 20
266.6
 30
0.0
 11
615.424501379
 21
266.6
 31
0.0
  0
LINE
  8
0
  6
LTYPE3
 62
     2
 10
615.424501379
 20
276.1
 30
0.0
 11
585.424501379
 21
276.1
 31
0.0
  0
LINE
  8
0
  6
LTYPE3
 62
     2
 10
585.424501379
 20
276.1
 30
0.0
 11
585.424501379
 21
266.6
 31
0.0
  0
LINE
  8
0
  6
CONTINUOUS
 62
     1
 10
585.424501379
 20
236.6
 30
0.0
 11
615.424501379
 21
236.6
 31
0.0
  0
LINE
  8
0
  6
CONTINUOUS
 62
     1
 10
615.424501379
 20
246.1
 30
0.0
 11
585.424501379
 21
246.1
 31
0.0
  0
LINE
  8
0
  6
CONTINUOUS
 62
     1
 10
585.424501379
 20
246.1
 30
0.0
 11
585.424501379
 21
236.6
 31
0.0
  0
TEXT
  8
0
  6
CONTINUOUS
 62
     2
 10
584.199501379
 20
279.4
 30
0.0
 40
10.0
  1
４
 50
0.0
 41
0.85
 51
0.0
  7
KANJI40
  0
POLYLINE
  8
0
  6
CONTINUOUS
 62
     2
 66
     1
 70
     1
  0
VERTEX
  8
0
  6
CONTINUOUS
 62
     2
 10
595.199501379
 20
278.65
 30
0.0
 42
0.021820078
  0
VERTEX
  8
0
  6
CONTINUOUS
 62
     2
 10
595.19093945
 20
278.846100421
 30
0.0
 42
0.021820078
  0
VERTEX
  8
0
  6
CONTINUOUS
 62
     2
 10
595.165318824
 20
279.0407084
 30
0.0
 42
0.021820078
  0
VERTEX
  8
0
  6
CONTINUOUS
 62
     2
 10
595.122834489
 20
279.232342851
 30
0.0
 42
0.021820078
  0
VERTEX
  8
0
  6
CONTINUOUS
 62
     2
 10
595.063809776
 20
279.419545322
 30
0.0
 42
0.021820078
  0
VERTEX
  8
0
  6
CONTINUOUS
 62
     2
 10
594.9886939
 20
279.600891089
 30
0.0
 42
0.021820078
  0
VERTEX
  8
0
  6
CONTINUOUS
 62
     2
 10
594.898058538
 20
279.775
 30
0.0
 42
0.021820078
  0
VERTEX
  8
0
  6
CONTINUOUS
 62
     2
 10
594.792593479
 20
279.940546982
 30
0.0
 42
0.021820078
  0
VERTEX
  8
0
  6
CONTINUOUS
 62
     2
 10
594.673101376
 20
280.096272122
 30
0.0
 42
0.021820078
  0
VERTEX
  8
0
  6
CONTINUOUS
 62
     2
 10
594.540491637
 20
280.240990258
 30
0.0
 42
0.021820078
  0
VERTEX
  8
0
  6
CONTINUOUS
 62
     2
 10
594.395773501
 20
280.373599997
 30
0.0
 42
0.021820078
  0
VERTEX
  8
0
  6
CONTINUOUS
 62
     2
 10
594.240048361
 20
280.4930921
 30
0.0
 42
0.021820078
  0
VERTEX
  8
0
  6
CONTINUOUS
 62
     2
 10
594.074501379
 20
280.598557159
 30
0.0
 42
0.021820078
  0
VERTEX
  8
0
  6
CONTINUOUS
 62
     2
 10
593.900392468
 20
280.689192521
 30
0.0
 42
0.021820078
  0
VERTEX
  8
0
  6
CONTINUOUS
 62
     2
 10
593.719046702
 20
280.764308397
 30
0.0
 42
0.021820078
  0
VERTEX
  8
0
  6
CONTINUOUS
 62
     2
 10
593.531844231
 20
280.823333109
 30
0.0
 42
0.021820078
  0
VERTEX
  8
0
  6
CONTINUOUS
 62
     2
 10
593.340209779
 20
280.865817444
 30
0.0
 42
0.021820078
  0
VERTEX
  8
0
  6
CONTINUOUS
 62
     2
 10
593.145601801
 20
280.891438071
 30
0.0
 42
0.021820078
  0
VERTEX
  8
0
  6
CONTINUOUS
 62
     2
 10
592.949501379
 20
280.9
 30
0.0
 42
0.021820078
  0
VERTEX
  8
0
  6
CONTINUOUS
 62
     2
 10
592.753400958
 20
280.891438071
 30
0.0
 42
0.021820078
  0
VERTEX
  8
0
  6
CONTINUOUS
 62
     2
 10
592.55879298
 20
280.865817444
 30
0.0
 42
0.021820078
  0
VERTEX
  8
0
  6
CONTINUOUS
 62
     2
 10
592.367158528
 20
280.823333109
 30
0.0
 42
0.021820078
  0
VERTEX
  8
0
  6
CONTINUOUS
 62
     2
 10
592.179956057
 20
280.764308397
 30
0.0
 42
0.021820078
  0
VERTEX
  8
0
  6
CONTINUOUS
 62
     2
 10
591.99861029
 20
280.689192521
 30
0.0
 42
0.021820078
  0
VERTEX
  8
0
  6
CONTINUOUS
 62
     2
 10
591.824501379
 20
280.598557159
 30
0.0
 42
0.021820078
  0
VERTEX
  8
0
  6
CONTINUOUS
 62
     2
 10
591.658954398
 20
280.4930921
 30
0.0
 42
0.021820078
  0
VERTEX
  8
0
  6
CONTINUOUS
 62
     2
 10
591.503229258
 20
280.373599997
 30
0.0
 42
0.021820078
  0
VERTEX
  8
0
  6
CONTINUOUS
 62
     2
 10
591.358511122
 20
280.240990258
 30
0.0
 42
0.021820078
  0
VERTEX
  8
0
  6
CONTINUOUS
 62
     2
 10
591.225901382
 20
280.096272122
 30
0.0
 42
0.021820078
  0
VERTEX
  8
0
  6
CONTINUOUS
 62
     2
 10
591.10640928
 20
279.940546982
 30
0.0
 42
0.021820078
  0
VERTEX
  8
0
  6
CONTINUOUS
 62
     2
 10
591.000944221
 20
279.775
 30
0.0
 42
0.021820078
  0
VERTEX
  8
0
  6
CONTINUOUS
 62
     2
 10
590.910308859
 20
279.600891089
 30
0.0
 42
0.021820078
  0
VERTEX
  8
0
  6
CONTINUOUS
 62
     2
 10
590.835192983
 20
279.419545322
 30
0.0
 42
0.021820078
  0
VERTEX
  8
0
  6
CONTINUOUS
 62
     2
 10
590.77616827
 20
279.232342851
 30
0.0
 42
0.021820078
  0
VERTEX
  8
0
  6
CONTINUOUS
 62
     2
 10
590.733683935
 20
279.0407084
 30
0.0
 42
0.021820078
  0
VERTEX
  8
0
  6
CONTINUOUS
 62
     2
 10
590.708063309
 20
278.846100421
 30
0.0
 42
0.021820078
  0
VERTEX
  8
0
  6
CONTINUOUS
 62
     2
 10
590.699501379
 20
278.65
 30
0.0
 42
0.021820078
  0
VERTEX
  8
0
  6
CONTINUOUS
 62
     2
 10
590.708063309
 20
278.453899579
 30
0.0
 42
0.021820078
  0
VERTEX
  8
0
  6
CONTINUOUS
 62
     2
 10
590.733683935
 20
278.2592916
 30
0.0
 42
0.021820078
  0
VERTEX
  8
0
  6
CONTINUOUS
 62
     2
 10
590.77616827
 20
278.067657149
 30
0.0
 42
0.021820078
  0
VERTEX
  8
0
  6
CONTINUOUS
 62
     2
 10
590.835192983
 20
277.880454678
 30
0.0
 42
0.021820078
  0
VERTEX
  8
0
  6
CONTINUOUS
 62
     2
 10
590.910308859
 20
277.699108911
 30
0.0
 42
0.021820078
  0
VERTEX
  8
0
  6
CONTINUOUS
 62
     2
 10
591.000944221
 20
277.525
 30
0.0
 42
0.021820078
  0
VERTEX
  8
0
  6
CONTINUOUS
 62
     2
 10
591.10640928
 20
277.359453018
 30
0.0
 42
0.021820078
  0
VERTEX
  8
0
  6
CONTINUOUS
 62
     2
 10
591.225901382
 20
277.203727878
 30
0.0
 42
0.021820078
  0
VERTEX
  8
0
  6
CONTINUOUS
 62
     2
 10
591.358511122
 20
277.059009742
 30
0.0
 42
0.021820078
  0
VERTEX
  8
0
  6
CONTINUOUS
 62
     2
 10
591.503229258
 20
276.926400003
 30
0.0
 42
0.021820078
  0
VERTEX
  8
0
  6
CONTINUOUS
 62
     2
 10
591.658954398
 20
276.8069079
 30
0.0
 42
0.021820078
  0
VERTEX
  8
0
  6
CONTINUOUS
 62
     2
 10
591.824501379
 20
276.701442841
 30
0.0
 42
0.021820078
  0
VERTEX
  8
0
  6
CONTINUOUS
 62
     2
 10
591.99861029
 20
276.610807479
 30
0.0
 42
0.021820078
  0
VERTEX
  8
0
  6
CONTINUOUS
 62
     2
 10
592.179956057
 20
276.535691603
 30
0.0
 42
0.021820078
  0
VERTEX
  8
0
  6
CONTINUOUS
 62
     2
 10
592.367158528
 20
276.476666891
 30
0.0
 42
0.021820078
  0
VERTEX
  8
0
  6
CONTINUOUS
 62
     2
 10
592.55879298
 20
276.434182556
 30
0.0
 42
0.021820078
  0
VERTEX
  8
0
  6
CONTINUOUS
 62
     2
 10
592.753400958
 20
276.408561929
 30
0.0
 42
0.021820078
  0
VERTEX
  8
0
  6
CONTINUOUS
 62
     2
 10
592.949501379
 20
276.4
 30
0.0
 42
0.021820078
  0
VERTEX
  8
0
  6
CONTINUOUS
 62
     2
 10
593.145601801
 20
276.408561929
 30
0.0
 42
0.021820078
  0
VERTEX
  8
0
  6
CONTINUOUS
 62
     2
 10
593.340209779
 20
276.434182556
 30
0.0
 42
0.021820078
  0
VERTEX
  8
0
  6
CONTINUOUS
 62
     2
 10
593.531844231
 20
276.476666891
 30
0.0
 42
0.021820078
  0
VERTEX
  8
0
  6
CONTINUOUS
 62
     2
 10
593.719046702
 20
276.535691603
 30
0.0
 42
0.021820078
  0
VERTEX
  8
0
  6
CONTINUOUS
 62
     2
 10
593.900392468
 20
276.610807479
 30
0.0
 42
0.021820078
  0
VERTEX
  8
0
  6
CONTINUOUS
 62
     2
 10
594.074501379
 20
276.701442841
 30
0.0
 42
0.021820078
  0
VERTEX
  8
0
  6
CONTINUOUS
 62
     2
 10
594.240048361
 20
276.8069079
 30
0.0
 42
0.021820078
  0
VERTEX
  8
0
  6
CONTINUOUS
 62
     2
 10
594.395773501
 20
276.926400003
 30
0.0
 42
0.021820078
  0
VERTEX
  8
0
  6
CONTINUOUS
 62
     2
 10
594.540491637
 20
277.059009742
 30
0.0
 42
0.021820078
  0
VERTEX
  8
0
  6
CONTINUOUS
 62
     2
 10
594.673101376
 20
277.203727878
 30
0.0
 42
0.021820078
  0
VERTEX
  8
0
  6
CONTINUOUS
 62
     2
 10
594.792593479
 20
277.359453018
 30
0.0
 42
0.021820078
  0
VERTEX
  8
0
  6
CONTINUOUS
 62
     2
 10
594.898058538
 20
277.525
 30
0.0
 42
0.021820078
  0
VERTEX
  8
0
  6
CONTINUOUS
 62
     2
 10
594.9886939
 20
277.699108911
 30
0.0
 42
0.021820078
  0
VERTEX
  8
0
  6
CONTINUOUS
 62
     2
 10
595.063809776
 20
277.880454678
 30
0.0
 42
0.021820078
  0
VERTEX
  8
0
  6
CONTINUOUS
 62
     2
 10
595.122834489
 20
278.067657149
 30
0.0
 42
0.021820078
  0
VERTEX
  8
0
  6
CONTINUOUS
 62
     2
 10
595.165318824
 20
278.2592916
 30
0.0
 42
0.021820078
  0
VERTEX
  8
0
  6
CONTINUOUS
 62
     2
 10
595.19093945
 20
278.453899579
 30
0.0
 42
0.021820078
  0
SEQEND
  8
0
  6
CONTINUOUS
 62
     2
  0
POLYLINE
  8
0
  6
CONTINUOUS
 62
     2
 66
     1
 70
     1
  0
VERTEX
  8
0
  6
CONTINUOUS
 62
     2
 10
595.199501379
 20
234.3
 30
0.0
 42
-0.021820078
  0
VERTEX
  8
0
  6
CONTINUOUS
 62
     2
 10
595.19093945
 20
234.103899579
 30
0.0
 42
-0.021820078
  0
VERTEX
  8
0
  6
CONTINUOUS
 62
     2
 10
595.165318824
 20
233.9092916
 30
0.0
 42
-0.021820078
  0
VERTEX
  8
0
  6
CONTINUOUS
 62
     2
 10
595.122834489
 20
233.717657149
 30
0.0
 42
-0.021820078
  0
VERTEX
  8
0
  6
CONTINUOUS
 62
     2
 10
595.063809776
 20
233.530454678
 30
0.0
 42
-0.021820078
  0
VERTEX
  8
0
  6
CONTINUOUS
 62
     2
 10
594.9886939
 20
233.349108911
 30
0.0
 42
-0.021820078
  0
VERTEX
  8
0
  6
CONTINUOUS
 62
     2
 10
594.898058538
 20
233.175
 30
0.0
 42
-0.021820078
  0
VERTEX
  8
0
  6
CONTINUOUS
 62
     2
 10
594.792593479
 20
233.009453018
 30
0.0
 42
-0.021820078
  0
VERTEX
  8
0
  6
CONTINUOUS
 62
     2
 10
594.673101376
 20
232.853727878
 30
0.0
 42
-0.021820078
  0
VERTEX
  8
0
  6
CONTINUOUS
 62
     2
 10
594.540491637
 20
232.709009742
 30
0.0
 42
-0.021820078
  0
VERTEX
  8
0
  6
CONTINUOUS
 62
     2
 10
594.395773501
 20
232.576400003
 30
0.0
 42
-0.021820078
  0
VERTEX
  8
0
  6
CONTINUOUS
 62
     2
 10
594.240048361
 20
232.4569079
 30
0.0
 42
-0.021820078
  0
VERTEX
  8
0
  6
CONTINUOUS
 62
     2
 10
594.074501379
 20
232.351442841
 30
0.0
 42
-0.021820078
  0
VERTEX
  8
0
  6
CONTINUOUS
 62
     2
 10
593.900392468
 20
232.260807479
 30
0.0
 42
-0.021820078
  0
VERTEX
  8
0
  6
CONTINUOUS
 62
     2
 10
593.719046702
 20
232.185691603
 30
0.0
 42
-0.021820078
  0
VERTEX
  8
0
  6
CONTINUOUS
 62
     2
 10
593.531844231
 20
232.126666891
 30
0.0
 42
-0.021820078
  0
VERTEX
  8
0
  6
CONTINUOUS
 62
     2
 10
593.340209779
 20
232.084182556
 30
0.0
 42
-0.021820078
  0
VERTEX
  8
0
  6
CONTINUOUS
 62
     2
 10
593.145601801
 20
232.058561929
 30
0.0
 42
-0.021820078
  0
VERTEX
  8
0
  6
CONTINUOUS
 62
     2
 10
592.949501379
 20
232.05
 30
0.0
 42
-0.021820078
  0
VERTEX
  8
0
  6
CONTINUOUS
 62
     2
 10
592.753400958
 20
232.058561929
 30
0.0
 42
-0.021820078
  0
VERTEX
  8
0
  6
CONTINUOUS
 62
     2
 10
592.55879298
 20
232.084182556
 30
0.0
 42
-0.021820078
  0
VERTEX
  8
0
  6
CONTINUOUS
 62
     2
 10
592.367158528
 20
232.126666891
 30
0.0
 42
-0.021820078
  0
VERTEX
  8
0
  6
CONTINUOUS
 62
     2
 10
592.179956057
 20
232.185691603
 30
0.0
 42
-0.021820078
  0
VERTEX
  8
0
  6
CONTINUOUS
 62
     2
 10
591.99861029
 20
232.260807479
 30
0.0
 42
-0.021820078
  0
VERTEX
  8
0
  6
CONTINUOUS
 62
     2
 10
591.824501379
 20
232.351442841
 30
0.0
 42
-0.021820078
  0
VERTEX
  8
0
  6
CONTINUOUS
 62
     2
 10
591.658954398
 20
232.4569079
 30
0.0
 42
-0.021820078
  0
VERTEX
  8
0
  6
CONTINUOUS
 62
     2
 10
591.503229258
 20
232.576400003
 30
0.0
 42
-0.021820078
  0
VERTEX
  8
0
  6
CONTINUOUS
 62
     2
 10
591.358511122
 20
232.709009742
 30
0.0
 42
-0.021820078
  0
VERTEX
  8
0
  6
CONTINUOUS
 62
     2
 10
591.225901382
 20
232.853727878
 30
0.0
 42
-0.021820078
  0
VERTEX
  8
0
  6
CONTINUOUS
 62
     2
 10
591.10640928
 20
233.009453018
 30
0.0
 42
-0.021820078
  0
VERTEX
  8
0
  6
CONTINUOUS
 62
     2
 10
591.000944221
 20
233.175
 30
0.0
 42
-0.021820078
  0
VERTEX
  8
0
  6
CONTINUOUS
 62
     2
 10
590.910308859
 20
233.349108911
 30
0.0
 42
-0.021820078
  0
VERTEX
  8
0
  6
CONTINUOUS
 62
     2
 10
590.835192983
 20
233.530454678
 30
0.0
 42
-0.021820078
  0
VERTEX
  8
0
  6
CONTINUOUS
 62
     2
 10
590.77616827
 20
233.717657149
 30
0.0
 42
-0.021820078
  0
VERTEX
  8
0
  6
CONTINUOUS
 62
     2
 10
590.733683935
 20
233.9092916
 30
0.0
 42
-0.021820078
  0
VERTEX
  8
0
  6
CONTINUOUS
 62
     2
 10
590.708063309
 20
234.103899579
 30
0.0
 42
-0.021820078
  0
VERTEX
  8
0
  6
CONTINUOUS
 62
     2
 10
590.699501379
 20
234.3
 30
0.0
 42
-0.021820078
  0
VERTEX
  8
0
  6
CONTINUOUS
 62
     2
 10
590.708063309
 20
234.496100421
 30
0.0
 42
-0.021820078
  0
VERTEX
  8
0
  6
CONTINUOUS
 62
     2
 10
590.733683935
 20
234.6907084
 30
0.0
 42
-0.021820078
  0
VERTEX
  8
0
  6
CONTINUOUS
 62
     2
 10
590.77616827
 20
234.882342851
 30
0.0
 42
-0.021820078
  0
VERTEX
  8
0
  6
CONTINUOUS
 62
     2
 10
590.835192983
 20
235.069545322
 30
0.0
 42
-0.021820078
  0
VERTEX
  8
0
  6
CONTINUOUS
 62
     2
 10
590.910308859
 20
235.250891089
 30
0.0
 42
-0.021820078
  0
VERTEX
  8
0
  6
CONTINUOUS
 62
     2
 10
591.000944221
 20
235.425
 30
0.0
 42
-0.021820078
  0
VERTEX
  8
0
  6
CONTINUOUS
 62
     2
 10
591.10640928
 20
235.590546982
 30
0.0
 42
-0.021820078
  0
VERTEX
  8
0
  6
CONTINUOUS
 62
     2
 10
591.225901382
 20
235.746272122
 30
0.0
 42
-0.021820078
  0
VERTEX
  8
0
  6
CONTINUOUS
 62
     2
 10
591.358511122
 20
235.890990258
 30
0.0
 42
-0.021820078
  0
VERTEX
  8
0
  6
CONTINUOUS
 62
     2
 10
591.503229258
 20
236.023599997
 30
0.0
 42
-0.021820078
  0
VERTEX
  8
0
  6
CONTINUOUS
 62
     2
 10
591.658954398
 20
236.1430921
 30
0.0
 42
-0.021820078
  0
VERTEX
  8
0
  6
CONTINUOUS
 62
     2
 10
591.824501379
 20
236.248557159
 30
0.0
 42
-0.021820078
  0
VERTEX
  8
0
  6
CONTINUOUS
 62
     2
 10
591.99861029
 20
236.339192521
 30
0.0
 42
-0.021820078
  0
VERTEX
  8
0
  6
CONTINUOUS
 62
     2
 10
592.179956057
 20
236.414308397
 30
0.0
 42
-0.021820078
  0
VERTEX
  8
0
  6
CONTINUOUS
 62
     2
 10
592.367158528
 20
236.473333109
 30
0.0
 42
-0.021820078
  0
VERTEX
  8
0
  6
CONTINUOUS
 62
     2
 10
592.55879298
 20
236.515817444
 30
0.0
 42
-0.021820078
  0
VERTEX
  8
0
  6
CONTINUOUS
 62
     2
 10
592.753400958
 20
236.541438071
 30
0.0
 42
-0.021820078
  0
VERTEX
  8
0
  6
CONTINUOUS
 62
     2
 10
592.949501379
 20
236.55
 30
0.0
 42
-0.021820078
  0
VERTEX
  8
0
  6
CONTINUOUS
 62
     2
 10
593.145601801
 20
236.541438071
 30
0.0
 42
-0.021820078
  0
VERTEX
  8
0
  6
CONTINUOUS
 62
     2
 10
593.340209779
 20
236.515817444
 30
0.0
 42
-0.021820078
  0
VERTEX
  8
0
  6
CONTINUOUS
 62
     2
 10
593.531844231
 20
236.473333109
 30
0.0
 42
-0.021820078
  0
VERTEX
  8
0
  6
CONTINUOUS
 62
     2
 10
593.719046702
 20
236.414308397
 30
0.0
 42
-0.021820078
  0
VERTEX
  8
0
  6
CONTINUOUS
 62
     2
 10
593.900392468
 20
236.339192521
 30
0.0
 42
-0.021820078
  0
VERTEX
  8
0
  6
CONTINUOUS
 62
     2
 10
594.074501379
 20
236.248557159
 30
0.0
 42
-0.021820078
  0
VERTEX
  8
0
  6
CONTINUOUS
 62
     2
 10
594.240048361
 20
236.1430921
 30
0.0
 42
-0.021820078
  0
VERTEX
  8
0
  6
CONTINUOUS
 62
     2
 10
594.395773501
 20
236.023599997
 30
0.0
 42
-0.021820078
  0
VERTEX
  8
0
  6
CONTINUOUS
 62
     2
 10
594.540491637
 20
235.890990258
 30
0.0
 42
-0.021820078
  0
VERTEX
  8
0
  6
CONTINUOUS
 62
     2
 10
594.673101376
 20
235.746272122
 30
0.0
 42
-0.021820078
  0
VERTEX
  8
0
  6
CONTINUOUS
 62
     2
 10
594.792593479
 20
235.590546982
 30
0.0
 42
-0.021820078
  0
VERTEX
  8
0
  6
CONTINUOUS
 62
     2
 10
594.898058538
 20
235.425
 30
0.0
 42
-0.021820078
  0
VERTEX
  8
0
  6
CONTINUOUS
 62
     2
 10
594.9886939
 20
235.250891089
 30
0.0
 42
-0.021820078
  0
VERTEX
  8
0
  6
CONTINUOUS
 62
     2
 10
595.063809776
 20
235.069545322
 30
0.0
 42
-0.021820078
  0
VERTEX
  8
0
  6
CONTINUOUS
 62
     2
 10
595.122834489
 20
234.882342851
 30
0.0
 42
-0.021820078
  0
VERTEX
  8
0
  6
CONTINUOUS
 62
     2
 10
595.165318824
 20
234.6907084
 30
0.0
 42
-0.021820078
  0
VERTEX
  8
0
  6
CONTINUOUS
 62
     2
 10
595.19093945
 20
234.496100421
 30
0.0
 42
-0.021820078
  0
SEQEND
  8
0
  6
CONTINUOUS
 62
     2
  0
TEXT
  8
0
  6
CONTINUOUS
 62
     2
 10
584.199501379
 20
223.9
 30
0.0
 40
10.0
  1
１
 50
0.0
 41
0.85
 51
0.0
  7
KANJI40
  0
TEXT
  8
0
  6
CONTINUOUS
 62
     2
 10
552.299501379
 20
278.6
 30
0.0
 40
10.0
  1
（ＮＯ）
 50
0.0
 41
0.75
 51
0.0
  7
KANJI41
  0
TEXT
  8
0
  6
CONTINUOUS
 62
     2
 10
552.299501379
 20
221.1
 30
0.0
 40
10.0
  1
（ＮＣ）
 50
0.0
 41
0.75
 51
0.0
  7
KANJI41
  0
LINE
  8
0
  6
CONTINUOUS
 62
     2
 10
677.924501379
 20
349.35
 30
0.0
 11
524.674501379
 21
349.35
 31
0.0
  0
LINE
  8
0
  6
CONTINUOUS
 62
     2
 10
524.674501379
 20
349.35
 30
0.0
 11
524.674501379
 21
179.6
 31
0.0
  0
LINE
  8
0
  6
CONTINUOUS
 62
     1
 10
620.299501379
 20
288.1
 30
0.0
 11
620.299501379
 21
223.4
 31
0.0
  0
ARC
  8
0
  6
CONTINUOUS
 62
     1
 10
618.299501379
 20
223.4
 30
0.0
 40
2.0
 50
270.0
 51
0.0
  0
ARC
  8
0
  6
CONTINUOUS
 62
     1
 10
618.299501379
 20
288.1
 30
0.0
 40
2.0
 50
0.0
 51
90.0
  0
ARC
  8
0
  6
CONTINUOUS
 62
     1
 10
600.299501379
 20
299.8
 30
0.0
 40
6.0
 50
131.983045121
 51
318.016954879
  0
LINE
  8
0
  6
LTYPE2
 62
     2
 10
593.864829671
 20
293.365328291
 30
0.0
 11
634.523469589
 21
334.023968209
 31
0.0
  0
LINE
  8
0
  6
CONTINUOUS
 62
     1
 10
596.286037879
 20
304.260057257
 30
0.0
 11
624.493916731
 21
329.64342919
 31
0.0
  0
LINE
  8
0
  6
CONTINUOUS
 62
     1
 10
604.759558636
 20
295.7865365
 30
0.0
 11
630.142930569
 21
323.994415352
 31
0.0
  0
LINE
  8
0
  6
LTYPE2
 62
     2
 10
634.947733658
 20
318.891883092
 30
0.0
 11
618.68427769
 21
335.155339059
 31
0.0
  0
ARC
  8
0
  6
CONTINUOUS
 62
     1
 10
627.169559064
 20
326.670057685
 30
0.0
 40
8.75
 50
255.219855722
 51
194.780144278
  0
ARC
  8
0
  6
CONTINUOUS
 62
     1
 10
627.169559064
 20
326.670057685
 30
0.0
 40
4.0
 50
311.983042101
 51
138.016952287
  0
LINE
  8
0
  6
CONTINUOUS
 62
     1
 10
612.999501379
 20
304.94336985
 30
0.0
 11
612.999501379
 21
290.1
 31
0.0
  0
LINE
  8
0
  6
LTYPE3
 62
     2
 10
615.424501379
 20
266.6
 30
0.0
 11
615.424501379
 21
276.1
 31
0.0
  0
LINE
  8
0
  6
CONTINUOUS
 62
     1
 10
615.424501379
 20
236.6
 30
0.0
 11
615.424501379
 21
246.1
 31
0.0
  0
TEXT
  8
0
  6
CONTINUOUS
 62
     2
 10
609.199501379
 20
279.4
 30
0.0
 40
10.0
  1
３
 50
0.0
 41
0.85
 51
0.0
  7
KANJI40
  0
POLYLINE
  8
0
  6
CONTINUOUS
 62
     2
 66
     1
 70
     1
  0
VERTEX
  8
0
  6
CONTINUOUS
 62
     2
 10
610.199501379
 20
278.65
 30
0.0
 42
0.021820078
  0
VERTEX
  8
0
  6
CONTINUOUS
 62
     2
 10
610.19093945
 20
278.846100421
 30
0.0
 42
0.021820078
  0
VERTEX
  8
0
  6
CONTINUOUS
 62
     2
 10
610.165318824
 20
279.0407084
 30
0.0
 42
0.021820078
  0
VERTEX
  8
0
  6
CONTINUOUS
 62
     2
 10
610.122834489
 20
279.232342851
 30
0.0
 42
0.021820078
  0
VERTEX
  8
0
  6
CONTINUOUS
 62
     2
 10
610.063809776
 20
279.419545322
 30
0.0
 42
0.021820078
  0
VERTEX
  8
0
  6
CONTINUOUS
 62
     2
 10
609.9886939
 20
279.600891089
 30
0.0
 42
0.021820078
  0
VERTEX
  8
0
  6
CONTINUOUS
 62
     2
 10
609.898058538
 20
279.775
 30
0.0
 42
0.021820078
  0
VERTEX
  8
0
  6
CONTINUOUS
 62
     2
 10
609.792593479
 20
279.940546982
 30
0.0
 42
0.021820078
  0
VERTEX
  8
0
  6
CONTINUOUS
 62
     2
 10
609.673101376
 20
280.096272122
 30
0.0
 42
0.021820078
  0
VERTEX
  8
0
  6
CONTINUOUS
 62
     2
 10
609.540491637
 20
280.240990258
 30
0.0
 42
0.021820078
  0
VERTEX
  8
0
  6
CONTINUOUS
 62
     2
 10
609.395773501
 20
280.373599997
 30
0.0
 42
0.021820078
  0
VERTEX
  8
0
  6
CONTINUOUS
 62
     2
 10
609.240048361
 20
280.4930921
 30
0.0
 42
0.021820078
  0
VERTEX
  8
0
  6
CONTINUOUS
 62
     2
 10
609.074501379
 20
280.598557159
 30
0.0
 42
0.021820078
  0
VERTEX
  8
0
  6
CONTINUOUS
 62
     2
 10
608.900392468
 20
280.689192521
 30
0.0
 42
0.021820078
  0
VERTEX
  8
0
  6
CONTINUOUS
 62
     2
 10
608.719046702
 20
280.764308397
 30
0.0
 42
0.021820078
  0
VERTEX
  8
0
  6
CONTINUOUS
 62
     2
 10
608.531844231
 20
280.823333109
 30
0.0
 42
0.021820078
  0
VERTEX
  8
0
  6
CONTINUOUS
 62
     2
 10
608.340209779
 20
280.865817444
 30
0.0
 42
0.021820078
  0
VERTEX
  8
0
  6
CONTINUOUS
 62
     2
 10
608.145601801
 20
280.891438071
 30
0.0
 42
0.021820078
  0
VERTEX
  8
0
  6
CONTINUOUS
 62
     2
 10
607.949501379
 20
280.9
 30
0.0
 42
0.021820078
  0
VERTEX
  8
0
  6
CONTINUOUS
 62
     2
 10
607.753400958
 20
280.891438071
 30
0.0
 42
0.021820078
  0
VERTEX
  8
0
  6
CONTINUOUS
 62
     2
 10
607.55879298
 20
280.865817444
 30
0.0
 42
0.021820078
  0
VERTEX
  8
0
  6
CONTINUOUS
 62
     2
 10
607.367158528
 20
280.823333109
 30
0.0
 42
0.021820078
  0
VERTEX
  8
0
  6
CONTINUOUS
 62
     2
 10
607.179956057
 20
280.764308397
 30
0.0
 42
0.021820078
  0
VERTEX
  8
0
  6
CONTINUOUS
 62
     2
 10
606.99861029
 20
280.689192521
 30
0.0
 42
0.021820078
  0
VERTEX
  8
0
  6
CONTINUOUS
 62
     2
 10
606.824501379
 20
280.598557159
 30
0.0
 42
0.021820078
  0
VERTEX
  8
0
  6
CONTINUOUS
 62
     2
 10
606.658954398
 20
280.4930921
 30
0.0
 42
0.021820078
  0
VERTEX
  8
0
  6
CONTINUOUS
 62
     2
 10
606.503229258
 20
280.373599997
 30
0.0
 42
0.021820078
  0
VERTEX
  8
0
  6
CONTINUOUS
 62
     2
 10
606.358511122
 20
280.240990258
 30
0.0
 42
0.021820078
  0
VERTEX
  8
0
  6
CONTINUOUS
 62
     2
 10
606.225901382
 20
280.096272122
 30
0.0
 42
0.021820078
  0
VERTEX
  8
0
  6
CONTINUOUS
 62
     2
 10
606.10640928
 20
279.940546982
 30
0.0
 42
0.021820078
  0
VERTEX
  8
0
  6
CONTINUOUS
 62
     2
 10
606.000944221
 20
279.775
 30
0.0
 42
0.021820078
  0
VERTEX
  8
0
  6
CONTINUOUS
 62
     2
 10
605.910308859
 20
279.600891089
 30
0.0
 42
0.021820078
  0
VERTEX
  8
0
  6
CONTINUOUS
 62
     2
 10
605.835192983
 20
279.419545322
 30
0.0
 42
0.021820078
  0
VERTEX
  8
0
  6
CONTINUOUS
 62
     2
 10
605.77616827
 20
279.232342851
 30
0.0
 42
0.021820078
  0
VERTEX
  8
0
  6
CONTINUOUS
 62
     2
 10
605.733683935
 20
279.0407084
 30
0.0
 42
0.021820078
  0
VERTEX
  8
0
  6
CONTINUOUS
 62
     2
 10
605.708063309
 20
278.846100421
 30
0.0
 42
0.021820078
  0
VERTEX
  8
0
  6
CONTINUOUS
 62
     2
 10
605.699501379
 20
278.65
 30
0.0
 42
0.021820078
  0
VERTEX
  8
0
  6
CONTINUOUS
 62
     2
 10
605.708063309
 20
278.453899579
 30
0.0
 42
0.021820078
  0
VERTEX
  8
0
  6
CONTINUOUS
 62
     2
 10
605.733683935
 20
278.2592916
 30
0.0
 42
0.021820078
  0
VERTEX
  8
0
  6
CONTINUOUS
 62
     2
 10
605.77616827
 20
278.067657149
 30
0.0
 42
0.021820078
  0
VERTEX
  8
0
  6
CONTINUOUS
 62
     2
 10
605.835192983
 20
277.880454678
 30
0.0
 42
0.021820078
  0
VERTEX
  8
0
  6
CONTINUOUS
 62
     2
 10
605.910308859
 20
277.699108911
 30
0.0
 42
0.021820078
  0
VERTEX
  8
0
  6
CONTINUOUS
 62
     2
 10
606.000944221
 20
277.525
 30
0.0
 42
0.021820078
  0
VERTEX
  8
0
  6
CONTINUOUS
 62
     2
 10
606.10640928
 20
277.359453018
 30
0.0
 42
0.021820078
  0
VERTEX
  8
0
  6
CONTINUOUS
 62
     2
 10
606.225901382
 20
277.203727878
 30
0.0
 42
0.021820078
  0
VERTEX
  8
0
  6
CONTINUOUS
 62
     2
 10
606.358511122
 20
277.059009742
 30
0.0
 42
0.021820078
  0
VERTEX
  8
0
  6
CONTINUOUS
 62
     2
 10
606.503229258
 20
276.926400003
 30
0.0
 42
0.021820078
  0
VERTEX
  8
0
  6
CONTINUOUS
 62
     2
 10
606.658954398
 20
276.8069079
 30
0.0
 42
0.021820078
  0
VERTEX
  8
0
  6
CONTINUOUS
 62
     2
 10
606.824501379
 20
276.701442841
 30
0.0
 42
0.021820078
  0
VERTEX
  8
0
  6
CONTINUOUS
 62
     2
 10
606.99861029
 20
276.610807479
 30
0.0
 42
0.021820078
  0
VERTEX
  8
0
  6
CONTINUOUS
 62
     2
 10
607.179956057
 20
276.535691603
 30
0.0
 42
0.021820078
  0
VERTEX
  8
0
  6
CONTINUOUS
 62
     2
 10
607.367158528
 20
276.476666891
 30
0.0
 42
0.021820078
  0
VERTEX
  8
0
  6
CONTINUOUS
 62
     2
 10
607.55879298
 20
276.434182556
 30
0.0
 42
0.021820078
  0
VERTEX
  8
0
  6
CONTINUOUS
 62
     2
 10
607.753400958
 20
276.408561929
 30
0.0
 42
0.021820078
  0
VERTEX
  8
0
  6
CONTINUOUS
 62
     2
 10
607.949501379
 20
276.4
 30
0.0
 42
0.021820078
  0
VERTEX
  8
0
  6
CONTINUOUS
 62
     2
 10
608.145601801
 20
276.408561929
 30
0.0
 42
0.021820078
  0
VERTEX
  8
0
  6
CONTINUOUS
 62
     2
 10
608.340209779
 20
276.434182556
 30
0.0
 42
0.021820078
  0
VERTEX
  8
0
  6
CONTINUOUS
 62
     2
 10
608.531844231
 20
276.476666891
 30
0.0
 42
0.021820078
  0
VERTEX
  8
0
  6
CONTINUOUS
 62
     2
 10
608.719046702
 20
276.535691603
 30
0.0
 42
0.021820078
  0
VERTEX
  8
0
  6
CONTINUOUS
 62
     2
 10
608.900392468
 20
276.610807479
 30
0.0
 42
0.021820078
  0
VERTEX
  8
0
  6
CONTINUOUS
 62
     2
 10
609.074501379
 20
276.701442841
 30
0.0
 42
0.021820078
  0
VERTEX
  8
0
  6
CONTINUOUS
 62
     2
 10
609.240048361
 20
276.8069079
 30
0.0
 42
0.021820078
  0
VERTEX
  8
0
  6
CONTINUOUS
 62
     2
 10
609.395773501
 20
276.926400003
 30
0.0
 42
0.021820078
  0
VERTEX
  8
0
  6
CONTINUOUS
 62
     2
 10
609.540491637
 20
277.059009742
 30
0.0
 42
0.021820078
  0
VERTEX
  8
0
  6
CONTINUOUS
 62
     2
 10
609.673101376
 20
277.203727878
 30
0.0
 42
0.021820078
  0
VERTEX
  8
0
  6
CONTINUOUS
 62
     2
 10
609.792593479
 20
277.359453018
 30
0.0
 42
0.021820078
  0
VERTEX
  8
0
  6
CONTINUOUS
 62
     2
 10
609.898058538
 20
277.525
 30
0.0
 42
0.021820078
  0
VERTEX
  8
0
  6
CONTINUOUS
 62
     2
 10
609.9886939
 20
277.699108911
 30
0.0
 42
0.021820078
  0
VERTEX
  8
0
  6
CONTINUOUS
 62
     2
 10
610.063809776
 20
277.880454678
 30
0.0
 42
0.021820078
  0
VERTEX
  8
0
  6
CONTINUOUS
 62
     2
 10
610.122834489
 20
278.067657149
 30
0.0
 42
0.021820078
  0
VERTEX
  8
0
  6
CONTINUOUS
 62
     2
 10
610.165318824
 20
278.2592916
 30
0.0
 42
0.021820078
  0
VERTEX
  8
0
  6
CONTINUOUS
 62
     2
 10
610.19093945
 20
278.453899579
 30
0.0
 42
0.021820078
  0
SEQEND
  8
0
  6
CONTINUOUS
 62
     2
  0
POLYLINE
  8
0
  6
CONTINUOUS
 62
     2
 66
     1
 70
     1
  0
VERTEX
  8
0
  6
CONTINUOUS
 62
     2
 10
610.199501379
 20
234.3
 30
0.0
 42
-0.021820078
  0
VERTEX
  8
0
  6
CONTINUOUS
 62
     2
 10
610.19093945
 20
234.103899579
 30
0.0
 42
-0.021820078
  0
VERTEX
  8
0
  6
CONTINUOUS
 62
     2
 10
610.165318824
 20
233.9092916
 30
0.0
 42
-0.021820078
  0
VERTEX
  8
0
  6
CONTINUOUS
 62
     2
 10
610.122834489
 20
233.717657149
 30
0.0
 42
-0.021820078
  0
VERTEX
  8
0
  6
CONTINUOUS
 62
     2
 10
610.063809776
 20
233.530454678
 30
0.0
 42
-0.021820078
  0
VERTEX
  8
0
  6
CONTINUOUS
 62
     2
 10
609.9886939
 20
233.349108911
 30
0.0
 42
-0.021820078
  0
VERTEX
  8
0
  6
CONTINUOUS
 62
     2
 10
609.898058538
 20
233.175
 30
0.0
 42
-0.021820078
  0
VERTEX
  8
0
  6
CONTINUOUS
 62
     2
 10
609.792593479
 20
233.009453018
 30
0.0
 42
-0.021820078
  0
VERTEX
  8
0
  6
CONTINUOUS
 62
     2
 10
609.673101376
 20
232.853727878
 30
0.0
 42
-0.021820078
  0
VERTEX
  8
0
  6
CONTINUOUS
 62
     2
 10
609.540491637
 20
232.709009742
 30
0.0
 42
-0.021820078
  0
VERTEX
  8
0
  6
CONTINUOUS
 62
     2
 10
609.395773501
 20
232.576400003
 30
0.0
 42
-0.021820078
  0
VERTEX
  8
0
  6
CONTINUOUS
 62
     2
 10
609.240048361
 20
232.4569079
 30
0.0
 42
-0.021820078
  0
VERTEX
  8
0
  6
CONTINUOUS
 62
     2
 10
609.074501379
 20
232.351442841
 30
0.0
 42
-0.021820078
  0
VERTEX
  8
0
  6
CONTINUOUS
 62
     2
 10
608.900392468
 20
232.260807479
 30
0.0
 42
-0.021820078
  0
VERTEX
  8
0
  6
CONTINUOUS
 62
     2
 10
608.719046702
 20
232.185691603
 30
0.0
 42
-0.021820078
  0
VERTEX
  8
0
  6
CONTINUOUS
 62
     2
 10
608.531844231
 20
232.126666891
 30
0.0
 42
-0.021820078
  0
VERTEX
  8
0
  6
CONTINUOUS
 62
     2
 10
608.340209779
 20
232.084182556
 30
0.0
 42
-0.021820078
  0
VERTEX
  8
0
  6
CONTINUOUS
 62
     2
 10
608.145601801
 20
232.058561929
 30
0.0
 42
-0.021820078
  0
VERTEX
  8
0
  6
CONTINUOUS
 62
     2
 10
607.949501379
 20
232.05
 30
0.0
 42
-0.021820078
  0
VERTEX
  8
0
  6
CONTINUOUS
 62
     2
 10
607.753400958
 20
232.058561929
 30
0.0
 42
-0.021820078
  0
VERTEX
  8
0
  6
CONTINUOUS
 62
     2
 10
607.55879298
 20
232.084182556
 30
0.0
 42
-0.021820078
  0
VERTEX
  8
0
  6
CONTINUOUS
 62
     2
 10
607.367158528
 20
232.126666891
 30
0.0
 42
-0.021820078
  0
VERTEX
  8
0
  6
CONTINUOUS
 62
     2
 10
607.179956057
 20
232.185691603
 30
0.0
 42
-0.021820078
  0
VERTEX
  8
0
  6
CONTINUOUS
 62
     2
 10
606.99861029
 20
232.260807479
 30
0.0
 42
-0.021820078
  0
VERTEX
  8
0
  6
CONTINUOUS
 62
     2
 10
606.824501379
 20
232.351442841
 30
0.0
 42
-0.021820078
  0
VERTEX
  8
0
  6
CONTINUOUS
 62
     2
 10
606.658954398
 20
232.4569079
 30
0.0
 42
-0.021820078
  0
VERTEX
  8
0
  6
CONTINUOUS
 62
     2
 10
606.503229258
 20
232.576400003
 30
0.0
 42
-0.021820078
  0
VERTEX
  8
0
  6
CONTINUOUS
 62
     2
 10
606.358511122
 20
232.709009742
 30
0.0
 42
-0.021820078
  0
VERTEX
  8
0
  6
CONTINUOUS
 62
     2
 10
606.225901382
 20
232.853727878
 30
0.0
 42
-0.021820078
  0
VERTEX
  8
0
  6
CONTINUOUS
 62
     2
 10
606.10640928
 20
233.009453018
 30
0.0
 42
-0.021820078
  0
VERTEX
  8
0
  6
CONTINUOUS
 62
     2
 10
606.000944221
 20
233.175
 30
0.0
 42
-0.021820078
  0
VERTEX
  8
0
  6
CONTINUOUS
 62
     2
 10
605.910308859
 20
233.349108911
 30
0.0
 42
-0.021820078
  0
VERTEX
  8
0
  6
CONTINUOUS
 62
     2
 10
605.835192983
 20
233.530454678
 30
0.0
 42
-0.021820078
  0
VERTEX
  8
0
  6
CONTINUOUS
 62
     2
 10
605.77616827
 20
233.717657149
 30
0.0
 42
-0.021820078
  0
VERTEX
  8
0
  6
CONTINUOUS
 62
     2
 10
605.733683935
 20
233.9092916
 30
0.0
 42
-0.021820078
  0
VERTEX
  8
0
  6
CONTINUOUS
 62
     2
 10
605.708063309
 20
234.103899579
 30
0.0
 42
-0.021820078
  0
VERTEX
  8
0
  6
CONTINUOUS
 62
     2
 10
605.699501379
 20
234.3
 30
0.0
 42
-0.021820078
  0
VERTEX
  8
0
  6
CONTINUOUS
 62
     2
 10
605.708063309
 20
234.496100421
 30
0.0
 42
-0.021820078
  0
VERTEX
  8
0
  6
CONTINUOUS
 62
     2
 10
605.733683935
 20
234.6907084
 30
0.0
 42
-0.021820078
  0
VERTEX
  8
0
  6
CONTINUOUS
 62
     2
 10
605.77616827
 20
234.882342851
 30
0.0
 42
-0.021820078
  0
VERTEX
  8
0
  6
CONTINUOUS
 62
     2
 10
605.835192983
 20
235.069545322
 30
0.0
 42
-0.021820078
  0
VERTEX
  8
0
  6
CONTINUOUS
 62
     2
 10
605.910308859
 20
235.250891089
 30
0.0
 42
-0.021820078
  0
VERTEX
  8
0
  6
CONTINUOUS
 62
     2
 10
606.000944221
 20
235.425
 30
0.0
 42
-0.021820078
  0
VERTEX
  8
0
  6
CONTINUOUS
 62
     2
 10
606.10640928
 20
235.590546982
 30
0.0
 42
-0.021820078
  0
VERTEX
  8
0
  6
CONTINUOUS
 62
     2
 10
606.225901382
 20
235.746272122
 30
0.0
 42
-0.021820078
  0
VERTEX
  8
0
  6
CONTINUOUS
 62
     2
 10
606.358511122
 20
235.890990258
 30
0.0
 42
-0.021820078
  0
VERTEX
  8
0
  6
CONTINUOUS
 62
     2
 10
606.503229258
 20
236.023599997
 30
0.0
 42
-0.021820078
  0
VERTEX
  8
0
  6
CONTINUOUS
 62
     2
 10
606.658954398
 20
236.1430921
 30
0.0
 42
-0.021820078
  0
VERTEX
  8
0
  6
CONTINUOUS
 62
     2
 10
606.824501379
 20
236.248557159
 30
0.0
 42
-0.021820078
  0
VERTEX
  8
0
  6
CONTINUOUS
 62
     2
 10
606.99861029
 20
236.339192521
 30
0.0
 42
-0.021820078
  0
VERTEX
  8
0
  6
CONTINUOUS
 62
     2
 10
607.179956057
 20
236.414308397
 30
0.0
 42
-0.021820078
  0
VERTEX
  8
0
  6
CONTINUOUS
 62
     2
 10
607.367158528
 20
236.473333109
 30
0.0
 42
-0.021820078
  0
VERTEX
  8
0
  6
CONTINUOUS
 62
     2
 10
607.55879298
 20
236.515817444
 30
0.0
 42
-0.021820078
  0
VERTEX
  8
0
  6
CONTINUOUS
 62
     2
 10
607.753400958
 20
236.541438071
 30
0.0
 42
-0.021820078
  0
VERTEX
  8
0
  6
CONTINUOUS
 62
     2
 10
607.949501379
 20
236.55
 30
0.0
 42
-0.021820078
  0
VERTEX
  8
0
  6
CONTINUOUS
 62
     2
 10
608.145601801
 20
236.541438071
 30
0.0
 42
-0.021820078
  0
VERTEX
  8
0
  6
CONTINUOUS
 62
     2
 10
608.340209779
 20
236.515817444
 30
0.0
 42
-0.021820078
  0
VERTEX
  8
0
  6
CONTINUOUS
 62
     2
 10
608.531844231
 20
236.473333109
 30
0.0
 42
-0.021820078
  0
VERTEX
  8
0
  6
CONTINUOUS
 62
     2
 10
608.719046702
 20
236.414308397
 30
0.0
 42
-0.021820078
  0
VERTEX
  8
0
  6
CONTINUOUS
 62
     2
 10
608.900392468
 20
236.339192521
 30
0.0
 42
-0.021820078
  0
VERTEX
  8
0
  6
CONTINUOUS
 62
     2
 10
609.074501379
 20
236.248557159
 30
0.0
 42
-0.021820078
  0
VERTEX
  8
0
  6
CONTINUOUS
 62
     2
 10
609.240048361
 20
236.1430921
 30
0.0
 42
-0.021820078
  0
VERTEX
  8
0
  6
CONTINUOUS
 62
     2
 10
609.395773501
 20
236.023599997
 30
0.0
 42
-0.021820078
  0
VERTEX
  8
0
  6
CONTINUOUS
 62
     2
 10
609.540491637
 20
235.890990258
 30
0.0
 42
-0.021820078
  0
VERTEX
  8
0
  6
CONTINUOUS
 62
     2
 10
609.673101376
 20
235.746272122
 30
0.0
 42
-0.021820078
  0
VERTEX
  8
0
  6
CONTINUOUS
 62
     2
 10
609.792593479
 20
235.590546982
 30
0.0
 42
-0.021820078
  0
VERTEX
  8
0
  6
CONTINUOUS
 62
     2
 10
609.898058538
 20
235.425
 30
0.0
 42
-0.021820078
  0
VERTEX
  8
0
  6
CONTINUOUS
 62
     2
 10
609.9886939
 20
235.250891089
 30
0.0
 42
-0.021820078
  0
VERTEX
  8
0
  6
CONTINUOUS
 62
     2
 10
610.063809776
 20
235.069545322
 30
0.0
 42
-0.021820078
  0
VERTEX
  8
0
  6
CONTINUOUS
 62
     2
 10
610.122834489
 20
234.882342851
 30
0.0
 42
-0.021820078
  0
VERTEX
  8
0
  6
CONTINUOUS
 62
     2
 10
610.165318824
 20
234.6907084
 30
0.0
 42
-0.021820078
  0
VERTEX
  8
0
  6
CONTINUOUS
 62
     2
 10
610.19093945
 20
234.496100421
 30
0.0
 42
-0.021820078
  0
SEQEND
  8
0
  6
CONTINUOUS
 62
     2
  0
TEXT
  8
0
  6
CONTINUOUS
 62
     2
 10
609.199501379
 20
223.9
 30
0.0
 40
10.0
  1
２
 50
0.0
 41
0.85
 51
0.0
  7
KANJI40
  0
TEXT
  8
0
  6
CONTINUOUS
 62
     2
 10
618.299501379
 20
278.6
 30
0.0
 40
10.0
  1
（ＮＯ）
 50
0.0
 41
0.75
 51
0.0
  7
KANJI41
  0
TEXT
  8
0
  6
CONTINUOUS
 62
     2
 10
618.299501379
 20
221.1
 30
0.0
 40
10.0
  1
（ＮＣ）
 50
0.0
 41
0.75
 51
0.0
  7
KANJI41
  0
LINE
  8
0
  6
CONTINUOUS
 62
     2
 10
677.924501379
 20
179.6
 30
0.0
 11
677.924501379
 21
349.35
 31
0.0
  0
LINE
  8
0
  6
CONTINUOUS
 62
     1
 10
582.299501379
 20
221.4
 30
0.0
 11
618.299501379
 21
221.4
 31
0.0
  0
TEXT
  8
0
  6
CONTINUOUS
 62
     2
 10
536.174501379
 20
192.1
 30
0.0
 40
15.0
  1
外部ＬＳリミットＳＷ
 50
0.0
 41
0.9
 51
0.0
  7
KANJI28
  0
TEXT
  8
0
  6
CONTINUOUS
 62
     2
 10
573.424501379
 20
173.1
 30
0.0
 40
15.0
  1
端子符号
 50
0.0
 41
0.9
 51
0.0
  7
KANJI28
  0
LINE
  8
0
  6
CONTINUOUS
 62
     2
 10
524.674501379
 20
179.6
 30
0.0
 11
563.674501379
 21
179.6
 31
0.0
  0
LINE
  8
0
  6
CONTINUOUS
 62
     2
 10
632.924501379
 20
179.6
 30
0.0
 11
677.924501379
 21
179.6
 31
0.0
  0
TEXT
  8
0
  6
CONTINUOUS
 62
     3
 10
1270.46
 20
828.42
 30
0.0
 40
15.0
  1
１２０（トラニオン幅）
 50
0.0
 41
0.9
 51
0.0
  7
KANJI28
  0
LINE
  8
0
  6
CONTINUOUS
 62
     1
 10
1061.85
 20
352.8
 30
0.0
 11
1045.85
 21
352.8
 31
0.0
  0
LINE
  8
0
  6
CONTINUOUS
 62
     1
 10
1061.85
 20
352.8
 30
0.0
 11
1045.85
 21
352.8
 31
0.0
  0
LINE
  8
0
  6
CONTINUOUS
 62
     1
 10
1038.85
 20
360.8
 30
0.0
 11
1068.85
 21
360.8
 31
0.0
  0
LINE
  8
0
  6
CONTINUOUS
 62
     1
 10
1038.85
 20
363.8
 30
0.0
 11
1038.85
 21
360.8
 31
0.0
  0
LINE
  8
0
  6
CONTINUOUS
 62
     1
 10
1045.85
 20
352.8
 30
0.0
 11
1045.85
 21
360.8
 31
0.0
  0
LINE
  8
0
  6
LTYPE3
 62
     2
 10
1049.45
 20
358.15
 30
0.0
 11
1057.85
 21
358.15
 31
0.0
  0
LINE
  8
0
  6
CONTINUOUS
 62
     1
 10
1045.85
 20
352.8
 30
0.0
 11
1045.85
 21
360.8
 31
0.0
  0
LINE
  8
0
  6
LTYPE1
 62
     2
 10
1045.85
 20
360.8
 30
0.0
 11
1045.85
 21
375.8
 31
0.0
  0
CIRCLE
  8
0
  6
CONTINUOUS
 62
     2
 10
1053.85
 20
358.15
 30
0.0
 40
2.0
  0
LINE
  8
0
  6
CONTINUOUS
 62
     1
 10
1068.85
 20
363.8
 30
0.0
 11
1068.85
 21
360.8
 31
0.0
  0
LINE
  8
0
  6
CONTINUOUS
 62
     1
 10
1061.85
 20
360.8
 30
0.0
 11
1061.85
 21
352.8
 31
0.0
  0
LINE
  8
0
  6
CONTINUOUS
 62
     1
 10
1061.85
 20
360.8
 30
0.0
 11
1061.85
 21
352.8
 31
0.0
  0
LINE
  8
0
  6
LTYPE1
 62
     2
 10
1061.85
 20
375.8
 30
0.0
 11
1061.85
 21
360.8
 31
0.0
  0
LINE
  8
0
  6
CONTINUOUS
 62
     1
 10
1061.85
 20
414.8
 30
0.0
 11
1045.85
 21
414.8
 31
0.0
  0
LINE
  8
0
  6
CONTINUOUS
 62
     1
 10
1038.85
 20
406.8
 30
0.0
 11
1068.85
 21
406.8
 31
0.0
  0
LINE
  8
0
  6
LTYPE3
 62
     2
 10
1049.45
 20
409.45
 30
0.0
 11
1057.85
 21
409.45
 31
0.0
  0
CIRCLE
  8
0
  6
CONTINUOUS
 62
     2
 10
1053.85
 20
409.45
 30
0.0
 40
2.0
  0
LINE
  8
0
  6
CONTINUOUS
 62
     1
 10
1045.85
 20
414.8
 30
0.0
 11
1045.85
 21
406.8
 31
0.0
  0
LINE
  8
0
  6
CONTINUOUS
 62
     1
 10
1038.85
 20
403.8
 30
0.0
 11
1038.85
 21
406.8
 31
0.0
  0
LINE
  8
0
  6
LTYPE1
 62
     2
 10
1045.85
 20
406.8
 30
0.0
 11
1045.85
 21
391.8
 31
0.0
  0
LINE
  8
0
  6
CONTINUOUS
 62
     1
 10
1061.85
 20
406.8
 30
0.0
 11
1061.85
 21
414.8
 31
0.0
  0
LINE
  8
0
  6
CONTINUOUS
 62
     1
 10
1068.85
 20
403.8
 30
0.0
 11
1068.85
 21
406.8
 31
0.0
  0
LINE
  8
0
  6
LTYPE1
 62
     2
 10
1061.85
 20
391.8
 30
0.0
 11
1061.85
 21
406.8
 31
0.0
  0
POLYLINE
  8
0
  6
LTYPE1
 62
     2
 66
     1
  0
VERTEX
  8
0
  6
LTYPE1
 62
     2
 10
1293.71
 20
626.53265865
 30
0.0
  0
VERTEX
  8
0
  6
LTYPE1
 62
     2
 10
1293.71
 20
629.229658385
 30
0.0
  0
VERTEX
  8
0
  6
LTYPE1
 62
     2
 10
1290.81
 20
629.229658385
 30
0.0
  0
SEQEND
  0
LINE
  8
0
  6
LTYPE1
 62
     2
 10
1328.71
 20
666.42
 30
0.0
 11
1328.71
 21
658.42
 31
0.0
  0
LINE
  8
0
  6
LTYPE1
 62
     2
 10
1330.59734135
 20
663.42
 30
0.0
 11
1327.900341615
 21
663.42
 31
0.0
  0
LINE
  8
0
  6
LTYPE1
 62
     2
 10
1327.900341615
 20
666.92
 30
0.0
 11
1327.900341615
 21
663.42
 31
0.0
  0
ARC
  8
0
  6
LTYPE1
 62
     2
 10
1290.71
 20
666.42
 30
0.0
 40
40.0
 50
274.301222305
 51
355.689374175
  0
LINE
  8
0
  6
LTYPE1
 62
     2
 10
1237.71
 20
704.049775444
 30
0.0
 11
1237.71
 21
686.62
 31
0.0
  0
ARC
  8
0
  6
LTYPE1
 62
     2
 10
1290.71
 20
666.42
 30
0.0
 40
65.0
 50
125.374590447
 51
144.625409553
  0
CIRCLE
  8
0
  6
LTYPE1
 62
     2
 10
1251.819127035
 20
705.310872965
 30
0.0
 40
5.0
  0
LINE
  8
0
  6
CONTINUOUS
 62
     1
 10
1284.023780573
 20
719.42
 30
0.0
 11
1294.919632098
 21
719.42
 31
0.0
  0
LINE
  8
0
  6
CONTINUOUS
 62
     1
 10
1302.763823869
 20
719.42
 30
0.0
 11
1328.339775444
 21
719.42
 31
0.0
  0
LINE
  8
0
  6
LTYPE1
 62
     2
 10
1253.080224556
 20
719.42
 30
0.0
 11
1284.023780573
 21
719.42
 31
0.0
  0
LINE
  8
0
  6
LTYPE1
 62
     2
 10
1294.919632098
 20
719.42
 30
0.0
 11
1302.763823869
 21
719.42
 31
0.0
  0
LINE
  8
0
  6
CONTINUOUS
 62
     1
 10
1333.794219849
 20
686.42
 30
0.0
 11
1350.71
 21
686.42
 31
0.0
  0
LINE
  8
0
  6
CONTINUOUS
 62
     1
 10
1333.794219849
 20
646.42
 30
0.0
 11
1350.71
 21
646.42
 31
0.0
  0
LINE
  8
0
  6
LTYPE1
 62
     2
 10
1325.01
 20
686.42
 30
0.0
 11
1333.794219849
 21
686.42
 31
0.0
  0
LINE
  8
0
  6
LTYPE1
 62
     2
 10
1325.01
 20
646.42
 30
0.0
 11
1333.794219849
 21
646.42
 31
0.0
  0
ARC
  8
0
  6
LTYPE1
 62
     2
 10
1290.71
 20
666.42
 30
0.0
 40
40.25
 50
225.000030718
 51
248.182639826
  0
ARC
  8
0
  6
LTYPE1
 62
     2
 10
1290.71
 20
666.42
 30
0.0
 40
40.0
 50
226.023030189
 51
265.679883141
  0
LINE
  8
0
  6
LTYPE1
 62
     2
 10
1251.99590373
 20
648.212000384
 30
0.0
 11
1262.248967316
 21
637.958936798
 31
0.0
  0
ARC
  8
0
  6
LTYPE1
 62
     2
 10
1290.71
 20
666.42
 30
0.0
 40
40.25
 50
21.817360174
 51
45.0
  0
ARC
  8
0
  6
LTYPE1
 62
     2
 10
1290.71
 20
666.42
 30
0.0
 40
40.0
 50
4.301222305
 51
85.690693445
  0
LINE
  8
0
  6
LTYPE1
 62
     2
 10
1308.917999616
 20
705.13409627
 30
0.0
 11
1319.171047943
 21
694.881047943
 31
0.0
  0
LINE
  8
0
  6
LTYPE1
 62
     2
 10
1306.619902577
 20
702.835999231
 30
0.0
 11
1311.569650045
 21
707.785746699
 31
0.0
  0
LINE
  8
0
  6
LTYPE1
 62
     2
 10
1249.344253301
 20
645.560349955
 30
0.0
 11
1254.294000769
 21
650.510097423
 31
0.0
  0
LINE
  8
0
  6
LTYPE1
 62
     2
 10
1250.51
 20
646.42
 30
0.0
 11
1253.21
 21
646.42
 31
0.0
  0
LINE
  8
0
  6
CONTINUOUS
 62
     1
 10
1272.831320344
 20
646.42
 30
0.0
 11
1265.607709268
 21
639.196388924
 31
0.0
  0
LINE
  8
0
  6
CONTINUOUS
 62
     1
 10
1270.71
 20
648.541320344
 30
0.0
 11
1263.486388924
 21
641.317709268
 31
0.0
  0
LINE
  8
0
  6
CONTINUOUS
 62
     1
 10
1317.933611076
 20
691.522290732
 30
0.0
 11
1310.71
 21
684.298679656
 31
0.0
  0
LINE
  8
0
  6
CONTINUOUS
 62
     1
 10
1315.812290732
 20
693.643611076
 30
0.0
 11
1308.588679656
 21
686.42
 31
0.0
  0
LINE
  8
0
  6
CONTINUOUS
 62
     1
 10
1307.479552622
 20
646.42
 30
0.0
 11
1282.931825407
 21
621.872272785
 31
0.0
  0
LINE
  8
0
  6
LTYPE1
 62
     2
 10
1282.71
 20
674.42
 30
0.0
 11
1267.71
 21
674.42
 31
0.0
  0
LINE
  8
0
  6
CONTINUOUS
 62
     1
 10
1267.71
 20
651.42
 30
0.0
 11
1267.71
 21
681.42
 31
0.0
  0
LINE
  8
0
  6
CONTINUOUS
 62
     1
 10
1270.71
 20
681.42
 30
0.0
 11
1267.71
 21
681.42
 31
0.0
  0
LINE
  8
0
  6
LTYPE3
 62
     2
 10
1265.06
 20
662.02
 30
0.0
 11
1265.06
 21
670.42
 31
0.0
  0
LINE
  8
0
  6
CONTINUOUS
 62
     1
 10
1259.71
 20
674.42
 30
0.0
 11
1267.71
 21
674.42
 31
0.0
  0
LINE
  8
0
  6
CONTINUOUS
 62
     1
 10
1259.71
 20
674.42
 30
0.0
 11
1259.71
 21
658.42
 31
0.0
  0
CIRCLE
  8
0
  6
CONTINUOUS
 62
     2
 10
1265.06
 20
666.42
 30
0.0
 40
2.0
  0
LINE
  8
0
  6
CONTINUOUS
 62
     1
 10
1259.71
 20
658.42
 30
0.0
 11
1267.71
 21
658.42
 31
0.0
  0
LINE
  8
0
  6
CONTINUOUS
 62
     1
 10
1270.71
 20
651.42
 30
0.0
 11
1267.71
 21
651.42
 31
0.0
  0
LINE
  8
0
  6
LTYPE1
 62
     2
 10
1282.71
 20
658.42
 30
0.0
 11
1267.71
 21
658.42
 31
0.0
  0
LINE
  8
0
  6
CONTINUOUS
 62
     1
 10
1313.71
 20
681.42
 30
0.0
 11
1313.71
 21
651.42
 31
0.0
  0
LINE
  8
0
  6
CONTINUOUS
 62
     1
 10
1310.71
 20
651.42
 30
0.0
 11
1313.71
 21
651.42
 31
0.0
  0
LINE
  8
0
  6
CONTINUOUS
 62
     1
 10
1321.71
 20
658.42
 30
0.0
 11
1313.71
 21
658.42
 31
0.0
  0
LINE
  8
0
  6
LTYPE1
 62
     2
 10
1298.71
 20
658.42
 30
0.0
 11
1313.71
 21
658.42
 31
0.0
  0
LINE
  8
0
  6
CONTINUOUS
 62
     1
 10
1321.71
 20
674.42
 30
0.0
 11
1321.71
 21
658.42
 31
0.0
  0
LINE
  8
0
  6
LTYPE3
 62
     2
 10
1316.36
 20
670.82
 30
0.0
 11
1316.36
 21
662.42
 31
0.0
  0
CIRCLE
  8
0
  6
CONTINUOUS
 62
     2
 10
1316.36
 20
666.42
 30
0.0
 40
2.0
  0
LINE
  8
0
  6
CONTINUOUS
 62
     1
 10
1310.71
 20
681.42
 30
0.0
 11
1313.71
 21
681.42
 31
0.0
  0
LINE
  8
0
  6
CONTINUOUS
 62
     1
 10
1321.71
 20
674.42
 30
0.0
 11
1313.71
 21
674.42
 31
0.0
  0
LINE
  8
0
  6
LTYPE1
 62
     2
 10
1298.71
 20
674.42
 30
0.0
 11
1313.71
 21
674.42
 31
0.0
  0
LINE
  8
0
  6
CONTINUOUS
 62
     1
 10
1312.479552622
 20
651.42
 30
0.0
 11
1310.71
 21
649.650447378
 31
0.0
  0
LINE
  8
0
  6
CONTINUOUS
 62
     1
 10
1319.479552622
 20
658.42
 30
0.0
 11
1313.71
 21
652.650447378
 31
0.0
  0
LINE
  8
0
  6
CONTINUOUS
 62
     1
 10
1335.257727215
 20
674.198174593
 30
0.0
 11
1321.71
 21
660.650447378
 31
0.0
  0
LINE
  8
0
  6
CONTINUOUS
 62
     1
 10
848.25
 20
990.95
 30
0.0
 11
1496.25
 21
990.95
 31
0.0
  0
LINE
  8
0
  6
CONTINUOUS
 62
     1
 10
848.25
 20
1242.95
 30
0.0
 11
848.25
 21
990.95
 31
0.0
  0
LINE
  8
0
  6
CONTINUOUS
 62
     1
 10
1016.25
 20
1242.95
 30
0.0
 11
1016.25
 21
990.95
 31
0.0
  0
LINE
  8
0
  6
CONTINUOUS
 62
     2
 10
1096.25
 20
1242.95
 30
0.0
 11
1096.25
 21
990.95
 31
0.0
  0
LINE
  8
0
  6
CONTINUOUS
 62
     2
 10
1176.25
 20
1242.95
 30
0.0
 11
1176.25
 21
990.95
 31
0.0
  0
LINE
  8
0
  6
CONTINUOUS
 62
     2
 10
1256.25
 20
1242.95
 30
0.0
 11
1256.25
 21
990.95
 31
0.0
  0
LINE
  8
0
  6
CONTINUOUS
 62
     2
 10
1336.25
 20
1242.95
 30
0.0
 11
1336.25
 21
990.95
 31
0.0
  0
LINE
  8
0
  6
CONTINUOUS
 62
     2
 10
1416.25
 20
1242.95
 30
0.0
 11
1416.25
 21
990.95
 31
0.0
  0
LINE
  8
0
  6
CONTINUOUS
 62
     1
 10
1496.25
 20
1242.95
 30
0.0
 11
1496.25
 21
990.95
 31
0.0
  0
TEXT
  8
0
  6
CONTINUOUS
 62
     2
 10
861.25
 20
997.35
 30
0.8
 40
12.0
  1
ＭＣＳＤＢＢ０３－　　　ＪＬ
 50
0.0
 41
0.833333333
 51
0.0
  7
KANJI24
  0
LINE
  8
0
  6
CONTINUOUS
 62
     1
 10
937.79
 20
519.0
 30
0.0
 11
937.79
 21
541.0
 31
0.0
  0
LINE
  8
0
  6
CONTINUOUS
 62
     1
 10
946.44
 20
514.0
 30
0.0
 11
946.44
 21
546.0
 31
0.0
  0
LINE
  8
0
  6
CONTINUOUS
 62
     1
 10
937.79
 20
541.0
 30
0.0
 11
946.450254038
 21
546.0
 31
0.0
  0
LINE
  8
0
  6
CONTINUOUS
 62
     1
 10
946.44
 20
546.0
 30
0.0
 11
971.14
 21
546.0
 31
0.0
  0
LINE
  8
0
  6
CONTINUOUS
 62
     1
 10
979.79
 20
541.0
 30
0.0
 11
971.129745962
 21
546.0
 31
0.0
  0
LINE
  8
0
  6
CONTINUOUS
 62
     1
 10
971.14
 20
514.0
 30
0.0
 11
971.14
 21
546.0
 31
0.0
  0
LINE
  8
0
  6
CONTINUOUS
 62
     1
 10
979.79
 20
519.0
 30
0.0
 11
979.79
 21
541.0
 31
0.0
  0
LINE
  8
0
  6
CONTINUOUS
 62
     1
 10
937.79
 20
519.0
 30
0.0
 11
946.450254038
 21
514.0
 31
0.0
  0
LINE
  8
0
  6
CONTINUOUS
 62
     1
 10
946.44
 20
514.0
 30
0.0
 11
971.14
 21
514.0
 31
0.0
  0
LINE
  8
0
  6
CONTINUOUS
 62
     1
 10
979.79
 20
519.0
 30
0.0
 11
971.129745962
 21
514.0
 31
0.0
  0
POLYLINE
  8
0
  6
CONTINUOUS
 62
     1
 66
     1
  0
VERTEX
  8
0
  6
CONTINUOUS
 62
     1
 10
939.939501379
 20
220.1
 30
0.0
  0
VERTEX
  8
0
  6
CONTINUOUS
 62
     1
 10
939.939501379
 20
252.1
 30
0.0
  0
VERTEX
  8
0
  6
CONTINUOUS
 62
     1
 10
964.639501379
 20
252.1
 30
0.0
  0
SEQEND
  0
LINE
  8
0
  6
CONTINUOUS
 62
     1
 10
973.289501379
 20
247.1
 30
0.0
 11
964.629247342
 21
252.1
 31
0.0
  0
LINE
  8
0
  6
CONTINUOUS
 62
     1
 10
964.639501379
 20
220.1
 30
0.0
 11
964.639501379
 21
252.1
 31
0.0
  0
LINE
  8
0
  6
CONTINUOUS
 62
     1
 10
973.289501379
 20
225.1
 30
0.0
 11
973.289501379
 21
247.1
 31
0.0
  0
LINE
  8
0
  6
CONTINUOUS
 62
     1
 10
939.939501379
 20
220.1
 30
0.0
 11
964.639501379
 21
220.1
 31
0.0
  0
LINE
  8
0
  6
CONTINUOUS
 62
     1
 10
973.289501379
 20
225.1
 30
0.0
 11
964.629247342
 21
220.1
 31
0.0
  0
LINE
  8
0
  6
CONTINUOUS
 62
     1
 10
973.289501379
 20
244.1
 30
0.0
 11
999.598923417
 21
244.1
 31
0.0
  0
LINE
  8
0
  6
CONTINUOUS
 62
     1
 10
999.598923417
 20
228.1
 30
0.0
 11
973.289501379
 21
228.1
 31
0.0
  0
LINE
  8
0
  6
CONTINUOUS
 62
     1
 10
931.169501379
 20
244.1
 30
0.0
 11
931.289501379
 21
244.1
 31
0.0
  0
LINE
  8
0
  6
CONTINUOUS
 62
     1
 10
871.789501379
 20
244.1
 30
0.0
 11
931.289501379
 21
244.1
 31
0.0
  0
LINE
  8
0
  6
CONTINUOUS
 62
     1
 10
931.289501379
 20
228.1
 30
0.0
 11
871.789501379
 21
228.1
 31
0.0
  0
LINE
  8
0
  6
CONTINUOUS
 62
     1
 10
931.289501379
 20
247.1
 30
0.0
 11
939.949755417
 21
252.1
 31
0.0
  0
LINE
  8
0
  6
CONTINUOUS
 62
     1
 10
931.289501379
 20
225.1
 30
0.0
 11
931.289501379
 21
247.1
 31
0.0
  0
LINE
  8
0
  6
CONTINUOUS
 62
     1
 10
931.289501379
 20
225.1
 30
0.0
 11
939.949755417
 21
220.1
 31
0.0
  0
LINE
  8
0
  6
CONTINUOUS
 62
     2
 10
427.6
 20
248.0
 30
0.0
 11
427.6
 21
189.2
 31
0.0
  0
LINE
  8
0
  6
CONTINUOUS
 62
     2
 10
268.4
 20
231.2
 30
0.0
 11
427.6
 21
231.2
 31
0.0
  0
LINE
  8
0
  6
CONTINUOUS
 62
     2
 10
427.6
 20
231.2
 30
0.0
 11
419.87259339
 21
233.270552361
 31
0.0
  0
LINE
  8
0
  6
CONTINUOUS
 62
     2
 10
427.6
 20
231.2
 30
0.0
 11
419.87259339
 21
229.129447639
 31
0.0
  0
TEXT
  8
0
  6
CONTINUOUS
 62
     3
 10
303.4
 20
233.2
 30
0.0
 40
15.0
  1
常用ストローク
 50
0.0
 41
0.9
 51
0.0
  7
KANJI28
  0
LINE
  8
0
  6
CONTINUOUS
 62
     1
 10
1324.71
 20
738.92
 30
0.0
 11
1267.707474683
 21
738.92
 31
0.0
  0
ARC
  8
0
  6
LTYPE1
 62
     2
 10
1264.102304845
 20
737.92
 30
0.0
 40
1.0
 50
0.0
 51
90.0
  0
ARC
  8
0
  6
LTYPE1
 62
     2
 10
1266.102304845
 20
737.92
 30
0.0
 40
1.0
 50
90.0
 51
180.0
  0
LINE
  8
0
  6
LTYPE1
 62
     2
 10
1265.102304845
 20
732.82
 30
0.0
 11
1265.102304845
 21
737.92
 31
0.0
  0
LINE
  8
0
  6
LTYPE1
 62
     2
 10
1267.91
 20
738.92
 30
0.0
 11
1256.71
 21
738.92
 31
0.0
  0
TEXT
  8
2
  6
CONTINUOUS
 62
     2
 10
1115.829716322
 20
913.192652293
 30
0.0
 40
15.0
  1
２－ＰＦ１／２
 50
0.0
 41
0.9
 51
0.0
  7
KANJI28
  0
LINE
  8
2
  6
CONTINUOUS
 62
     2
 10
1250.184649635
 20
801.490698219
 30
0.0
 11
1227.131388563
 21
909.192652293
 31
0.0
  0
LINE
  8
2
  6
CONTINUOUS
 62
     2
 10
1227.131388563
 20
909.192652293
 30
0.0
 11
1115.829716322
 21
909.192652293
 31
0.0
  0
LINE
  8
2
  6
CONTINUOUS
 62
     2
 10
1250.21
 20
801.72
 30
0.0
 11
1251.308851058
 21
811.65944296
 31
0.0
  0
LINE
  8
2
  6
CONTINUOUS
 62
     2
 10
1250.21
 20
801.72
 30
0.0
 11
1246.191911451
 21
810.877235632
 31
0.0
  0
TEXT
  8
0
  6
CONTINUOUS
 62
     2
 10
1189.472797718
 20
857.992652293
 30
0.0
 40
15.0
  1
１５２
 50
0.0
 41
0.9
 51
0.0
  7
KANJI28
  0
LINE
  8
2
  6
CONTINUOUS
 62
     2
 10
1071.85
 20
875.2
 30
0.0
 11
1089.184649635
 21
875.2
 31
0.0
  0
LINE
  8
2
  6
CONTINUOUS
 62
     2
 10
1053.85
 20
875.2
 30
0.0
 11
1071.85
 21
875.2
 31
0.0
  0
TEXT
  8
2
  6
CONTINUOUS
 62
     2
 10
145.85
 20
708.0
 30
0.0
 40
15.0
  1
手動軸□１０
 50
0.0
 41
0.9
 51
0.0
  7
KANJI28
  0
TEXT
  8
2
  6
CONTINUOUS
 62
     2
 10
145.35
 20
728.8
 30
0.0
 40
15.0
  1
手動軸カバー
 50
0.0
 41
0.9
 51
0.0
  7
KANJI28
  0
POLYLINE
  8
2
  6
CONTINUOUS
 62
     2
 66
     1
  0
VERTEX
  8
2
  6
CONTINUOUS
 62
     2
 10
251.150004265
 20
629.5
 30
0.0
  0
VERTEX
  8
2
  6
CONTINUOUS
 62
     2
 10
230.847215094
 20
725.8
 30
0.0
  0
VERTEX
  8
2
  6
CONTINUOUS
 62
     2
 10
144.550007629
 20
725.8
 30
0.0
  0
SEQEND
  0
TEXT
  8
0
  6
CONTINUOUS
 62
     2
 10
1602.25
 20
1283.5
 30
138.5
 40
17.5
  1
形式
 50
0.0
 41
0.9
 51
0.0
  7
KANJI42
  0
TEXT
  8
0
  6
CONTINUOUS
 62
     2
 10
1602.25
 20
1248.5
 30
138.5
 40
17.5
  1
推力
 50
0.0
 41
0.9
 51
0.0
  7
KANJI42
  0
TEXT
  8
0
  6
CONTINUOUS
 62
     2
 10
1602.25
 20
1108.5
 30
138.5
 40
17.5
  1
構造
 50
0.0
 41
0.9
 51
0.0
  7
KANJI42
  0
TEXT
  8
0
  6
CONTINUOUS
 62
     2
 10
1602.25
 20
688.5
 30
138.5
 40
17.5
  1
台数
 50
0.0
 41
0.9
 51
0.0
  7
KANJI42
  0
TEXT
  8
0
  6
CONTINUOUS
 62
     2
 10
1602.25
 20
723.5
 30
61.375
 40
17.5
  1
付属品
 50
0.0
 41
0.9
 51
0.0
  7
KANJI43
  0
TEXT
  8
0
  6
CONTINUOUS
 62
     2
 10
1602.25
 20
1038.5
 30
61.375
 40
17.5
  1
塗装色
 50
0.0
 41
0.9
 51
0.0
  7
KANJI43
  0
TEXT
  8
0
  6
CONTINUOUS
 62
     2
 10
1602.25
 20
1213.5
 30
22.8125
 40
17.5
  1
ストローク
 50
0.0
 41
0.9
 51
0.0
  7
KANJI44
  0
TEXT
  8
0
  6
CONTINUOUS
 62
     2
 10
1602.25
 20
1073.5
 30
9.958
 40
17.5
  1
過負荷安全装置
 50
0.0
 41
0.9
 51
0.0
  7
KANJI45
  0
TEXT
  8
0
  6
CONTINUOUS
 62
     2
 10
1627.25
 20
1323.0
 30
14.2497
 40
22.5
  1
マイティシリンダ仕様
 50
0.0
 41
0.9
 51
0.0
  7
KANJI46
  0
TEXT
  8
0
  6
CONTINUOUS
 62
     2
 10
1627.25
 20
1003.5
 30
15.3125
 40
17.5
  1
出力　極数
 50
0.0
 41
0.9
 51
0.0
  7
KANJI47
  0
TEXT
  8
0
  6
CONTINUOUS
 62
     2
 10
1627.25
 20
968.5
 30
25.6665
 40
17.5
  1
電源電圧
 50
0.0
 41
0.9
 51
0.0
  7
KANJI48
  0
TEXT
  8
0
  6
CONTINUOUS
 62
     2
 10
1627.25
 20
933.5
 30
46.375
 40
17.5
  1
周波数
 50
0.0
 41
0.9
 51
0.0
  7
KANJI49
  0
TEXT
  8
0
  6
CONTINUOUS
 62
     2
 10
1627.25
 20
863.5
 30
46.375
 40
17.5
  1
絶縁級
 50
0.0
 41
0.9
 51
0.0
  7
KANJI49
  0
TEXT
  8
0
  6
CONTINUOUS
 62
     2
 10
1627.25
 20
898.5
 30
108.5
 40
17.5
  1
電流
 50
0.0
 41
0.9
 51
0.0
  7
KANJI50
  0
TEXT
  8
0
  6
CONTINUOUS
 62
     2
 10
1627.25
 20
793.5
 30
108.5
 40
17.5
  1
形式
 50
0.0
 41
0.9
 51
0.0
  7
KANJI50
  0
TEXT
  8
0
  6
CONTINUOUS
 62
     2
 10
1627.25
 20
758.5
 30
25.6665
 40
17.5
  1
操作方式
 50
0.0
 41
0.9
 51
0.0
  7
KANJI48
  0
TEXT
  8
0
  6
CONTINUOUS
 62
     2
 10
1587.25
 20
1143.5
 30
1.5
 40
17.5
  1
ピストンロッド回転トルク
 50
0.0
 41
0.9
 51
0.0
  7
KANJI51
  0
TEXT
  8
0
  6
CONTINUOUS
 62
     2
 10
1585.125
 20
1007.0
 30
11.0
 40
17.5
  1
モ　トル仕様
 50
0.0
 41
0.9
 51
0.0
  7
KANJI52
  0
TEXT
  8
0
  6
CONTINUOUS
 62
     2
 10
1584.0
 20
817.0
 30
0.857142857
 40
15.0
  1
ブレ　キ
 50
0.0
 41
0.9
 51
0.0
  7
KANJI53
  0
LINE
  8
0
  6
CONTINUOUS
 62
     2
 10
1583.75
 20
782.5
 30
0.0
 11
1583.75
 21
772.0
 31
0.0
  0
LINE
  8
0
  6
CONTINUOUS
 62
     2
 10
1583.75
 20
979.0
 30
0.0
 11
1583.75
 21
967.5
 31
0.0
  0
TEXT
  8
0
  6
CONTINUOUS
 62
     2
 10
1939.75
 20
1182.0
 30
0.1
 40
12.5
  1
ｍｍ／ｓｅｃ
 50
0.0
 41
0.8
 51
0.0
  7
KANJI54
  0
TEXT
  8
0
  6
CONTINUOUS
 62
     2
 10
1977.25
 20
1215.5
 30
0.1
 40
12.5
  1
ｍｍ
 50
0.0
 41
0.8
 51
0.0
  7
KANJI54
  0
TEXT
  8
0
  6
CONTINUOUS
 62
     2
 10
1984.25
 20
1003.5
 30
10.982142857
 40
15.0
  1
Ｐ
 50
0.0
 41
0.9
 51
0.0
  7
KANJI55
  0
TEXT
  8
0
  6
CONTINUOUS
 62
     2
 10
1901.25
 20
1003.5
 30
1.0
 40
15.0
  1
ＫＷ
 50
0.0
 41
0.857142857
 51
0.0
  7
KANJI56
  0
TEXT
  8
0
  6
CONTINUOUS
 62
     2
 10
1959.25
 20
1003.5
 30
12.8125
 40
17.5
  1
４
 50
0.0
 41
0.9
 51
0.0
  7
KANJI57
  0
TEXT
  8
0
  6
CONTINUOUS
 62
     2
 10
1823.75
 20
1040.0
 30
0.5
 40
14.0
  1
マンセル
 50
0.0
 41
0.9
 51
0.0
  7
KANJI58
  0
TEXT
  8
0
  6
CONTINUOUS
 62
     2
 10
1882.25
 20
1041.0
 30
0.2
 40
14.0
  1
７．５ＧＹ５／４．５
 50
0.0
 41
0.785714286
 51
0.0
  7
KANJI59
  0
TEXT
  8
0
  6
CONTINUOUS
 62
     2
 10
1819.75
 20
794.0
 30
1.5
 40
14.0
  1
スプリング制動式電磁ブレーキ
 50
0.0
 41
0.8
 51
0.0
  7
KANJI60
  0
TEXT
  8
0
  6
CONTINUOUS
 62
     2
 10
1854.75
 20
758.5
 30
10.0
 40
17.5
  1
同時切り
 50
0.0
 41
0.9
 51
0.0
  7
KANJI61
  0
TEXT
  8
0
  6
CONTINUOUS
 62
     2
 10
1984.75
 20
968.5
 30
0.18
 40
15.0
  1
Ｖ
 50
0.0
 41
0.8
 51
0.0
  7
KANJI62
  0
TEXT
  8
0
  6
CONTINUOUS
 62
     2
 10
1975.75
 20
933.5
 30
0.18
 40
15.0
  1
Ｈｚ
 50
0.0
 41
0.8
 51
0.0
  7
KANJI62
  0
TEXT
  8
0
  6
CONTINUOUS
 62
     2
 10
1985.875
 20
899.625
 30
1.5
 40
15.0
  1
Ａ
 50
0.0
 41
0.9
 51
0.0
  7
KANJI63
  0
TEXT
  8
0
  6
CONTINUOUS
 62
     2
 10
1907.125
 20
865.875
 30
1.5
 40
15.0
  1
Ｅ
 50
0.0
 41
0.9
 51
0.0
  7
KANJI63
  0
LINE
  8
0
  6
CONTINUOUS
 62
     2
 10
1564.75
 20
749.5
 30
0.0
 11
2002.25
 21
749.5
 31
0.0
  0
LINE
  8
0
  6
CONTINUOUS
 62
     2
 10
1564.75
 20
1029.5
 30
0.0
 11
2002.25
 21
1029.5
 31
0.0
  0
LINE
  8
0
  6
CONTINUOUS
 62
     2
 10
1564.75
 20
819.5
 30
0.0
 11
2002.25
 21
819.5
 31
0.0
  0
LINE
  8
0
  6
CONTINUOUS
 62
     2
 10
1604.75
 20
784.5
 30
0.0
 11
2002.25
 21
784.5
 31
0.0
  0
LINE
  8
0
  6
CONTINUOUS
 62
     2
 10
1604.75
 20
854.5
 30
0.0
 11
2002.25
 21
854.5
 31
0.0
  0
LINE
  8
0
  6
CONTINUOUS
 62
     2
 10
1604.75
 20
889.5
 30
0.0
 11
2002.25
 21
889.5
 31
0.0
  0
LINE
  8
0
  6
CONTINUOUS
 62
     2
 10
1604.75
 20
959.5
 30
0.0
 11
2002.25
 21
959.5
 31
0.0
  0
LINE
  8
0
  6
CONTINUOUS
 62
     2
 10
1604.75
 20
924.5
 30
0.0
 11
2002.25
 21
924.5
 31
0.0
  0
LINE
  8
0
  6
CONTINUOUS
 62
     2
 10
1604.75
 20
994.5
 30
0.0
 11
2002.25
 21
994.5
 31
0.0
  0
LINE
  8
0
  6
CONTINUOUS
 62
     2
 10
1564.75
 20
1309.5
 30
0.0
 11
2002.25
 21
1309.5
 31
0.0
  0
LINE
  8
0
  6
CONTINUOUS
 62
     2
 10
1564.75
 20
1274.5
 30
0.0
 11
2002.25
 21
1274.5
 31
0.0
  0
LINE
  8
0
  6
CONTINUOUS
 62
     2
 10
1564.75
 20
1239.5
 30
0.0
 11
2002.25
 21
1239.5
 31
0.0
  0
LINE
  8
0
  6
CONTINUOUS
 62
     2
 10
1564.75
 20
1204.5
 30
0.0
 11
2002.25
 21
1204.5
 31
0.0
  0
LINE
  8
0
  6
CONTINUOUS
 62
     2
 10
1564.75
 20
1169.5
 30
0.0
 11
2002.25
 21
1169.5
 31
0.0
  0
LINE
  8
0
  6
CONTINUOUS
 62
     2
 10
1564.75
 20
1134.5
 30
0.0
 11
2002.25
 21
1134.5
 31
0.0
  0
LINE
  8
0
  6
CONTINUOUS
 62
     2
 10
1564.75
 20
1099.5
 30
0.0
 11
2002.25
 21
1099.5
 31
0.0
  0
LINE
  8
0
  6
CONTINUOUS
 62
     2
 10
1564.75
 20
1064.5
 30
0.0
 11
2002.25
 21
1064.5
 31
0.0
  0
LINE
  8
0
  6
CONTINUOUS
 62
     2
 10
1604.75
 20
1029.5
 30
0.0
 11
1604.75
 21
749.5
 31
0.0
  0
LINE
  8
0
  6
CONTINUOUS
 62
     1
 10
1564.75
 20
1359.5
 30
0.0
 11
2002.25
 21
1359.5
 31
0.0
  0
LINE
  8
0
  6
CONTINUOUS
 62
     2
 10
1564.75
 20
714.5
 30
0.0
 11
2002.25
 21
714.5
 31
0.0
  0
TEXT
  8
0
  6
CONTINUOUS
 62
     2
 10
1862.75
 20
969.0
 30
1.5
 40
15.0
  1
　　　／　
 50
0.0
 41
0.9
 51
0.0
  7
KANJI63
  0
TEXT
  8
0
  6
CONTINUOUS
 62
     2
 10
1877.125
 20
933.375
 30
1.5
 40
15.0
  1
　５０／６０
 50
0.0
 41
0.9
 51
0.0
  7
KANJI63
  0
TEXT
  8
0
  6
CONTINUOUS
 62
     2
 10
1851.75
 20
1109.0
 30
12.8125
 40
17.5
  1
全閉屋外形
 50
0.0
 41
0.9
 51
0.0
  7
KANJI57
  0
TEXT
  8
0
  6
CONTINUOUS
 62
     2
 10
1843.375
 20
1004.625
 30
1.5
 40
15.0
  1
０．３
 50
0.0
 41
0.9
 51
0.0
  7
KANJI63
  0
TEXT
  8
0
  6
CONTINUOUS
 62
     2
 10
1602.25
 20
1178.5
 30
5.0
 40
17.5
  1
公称速度（５０／６０Ｈｚ）
 50
0.0
 41
0.9
 51
0.0
  7
KANJI64
  0
TEXT
  8
0
  6
CONTINUOUS
 62
     2
 10
1832.125
 20
1178.375
 30
1.5
 40
15.0
  1
　２５／３０
 50
0.0
 41
0.9
 51
0.0
  7
KANJI63
  0
TEXT
  8
0
  6
CONTINUOUS
 62
     2
 10
1820.75
 20
1282.625
 30
1.0
 40
15.0
  1
ＭＣＳＤＢＢ０３－　　ＪＬ
 50
0.0
 41
0.833333333
 51
0.0
  7
KANJI65
  0
TEXT
  8
0
  6
CONTINUOUS
 62
     2
 10
1823.25
 20
1248.5
 30
1.5
 40
15.0
  1
２９４０Ｎ（３００ｋｇ）
 50
0.0
 41
0.9
 51
0.0
  7
KANJI63
  0
LINE
  8
0
  6
CONTINUOUS
 62
     2
 10
1883.0
 20
1078.0
 30
0.0
 11
1916.0
 21
1078.0
 31
0.0
  0
LINE
  8
0
  6
CONTINUOUS
 62
     1
 10
1564.75
 20
644.5
 30
0.0
 11
2002.25
 21
644.5
 31
0.0
  0
TEXT
  8
0
  6
CONTINUOUS
 62
     2
 10
1602.25
 20
653.5
 30
5.0
 40
17.5
  1
概算重量（１台当り）
 50
0.0
 41
0.857142857
 51
0.0
  7
KANJI11
  0
LINE
  8
0
  6
CONTINUOUS
 62
     2
 10
1564.75
 20
679.5
 30
0.0
 11
2002.25
 21
679.5
 31
0.0
  0
TEXT
  8
0
  6
CONTINUOUS
 62
     2
 10
1956.25
 20
654.65
 30
0.0
 40
17.5
  1
ｋｇ
 50
0.0
 41
0.9
 51
0.0
  7
KANJI66
  0
LINE
  8
0
  6
CONTINUOUS
 62
     2
 10
1814.75
 20
1309.5
 30
0.0
 11
1814.75
 21
644.5
 31
0.0
  0
LINE
  8
0
  6
CONTINUOUS
 62
     1
 10
1564.75
 20
1359.5
 30
0.0
 11
1564.75
 21
644.5
 31
0.0
  0
LINE
  8
2
  6
CONTINUOUS
 62
     2
 10
1053.85
 20
691.0
 30
0.0
 11
1053.85
 21
877.788190451
 31
0.0
  0
LINE
  8
2
  6
CONTINUOUS
 62
     2
 10
1071.85
 20
691.0
 30
0.0
 11
1071.85
 21
877.788190451
 31
0.0
  0
LINE
  8
0
  6
CONTINUOUS
 62
     1
 10
920.789501379
 20
228.1
 30
0.0
 11
920.789501379
 21
211.0
 31
0.0
  0
TEXT
  8
0
  6
CONTINUOUS
 62
     2
 10
1822.875
 20
1143.375
 30
0.0
 40
15.0
  1
８．３Ｎ・ｍ（０．８５ｋｇ・ｍ）
 50
0.0
 41
0.766666667
 51
0.0
  7
KANJI67
  0
TEXT
  8
2
  6
CONTINUOUS
 62
     2
 10
607.55
 20
754.8
 30
0.0
 40
15.0
  1
φ１６Ｈ１０深さ２２
 50
0.0
 41
0.9
 51
0.0
  7
KANJI28
  0
TEXT
  8
0
  6
CONTINUOUS
 62
     2
 10
1371.9166945
 20
105.999995
 30
1.5
 40
17.5
  1
０７．１１．０７
 50
0.0
 41
0.571428571
 51
0.0
  7
KANJI68
  0
LINE
  8
2
  6
CONTINUOUS
 62
     2
 10
607.55
 20
750.8
 30
0.0
 11
738.0
 21
750.8
 31
0.0
  0
ENDSEC
  0
EOF
