  0
SECTION
  2
HEADER
  9
$ACADVER
  1
AC1009
  9
$DWGCODEPAGE
  3
dos932
  9
$EXTMIN
 10
0.0
 20
0.0
 30
0.0
  9
$EXTMAX
 10
2100.0
 20
1485.0
 30
0.0
  9
$LIMMIN
 10
0.0
 20
0.0
  9
$LIMMAX
 10
2100.0
 20
1485.0
  9
$LTSCALE
 40
1.0
  9
$PDMODE
 70
     0
  0
ENDSEC
  0
SECTION
  2
TABLES
  0
TABLE
  2
VPORT
 70
     1
  0
VPORT
  2
*ACTIVE
 70
     0
 10
0.0
 20
0.0
 11
1.0
 21
1.0
 12
1050.0
 22
742.5
 13
0.0
 23
0.0
 14
10.0
 24
10.0
 15
10.0
 25
10.0
 16
0.0
 26
0.0
 36
1.0
 17
0.0
 27
0.0
 37
0.0
 40
2100.0
 41
1.414141414
 42
50.0
 43
0.0
 44
0.0
 50
0.0
 51
0.0
 71
     0
 72
  1000
 73
     1
 74
     3
 75
     0
 76
     0
 77
     0
 78
     0
  0
ENDTAB
  0
TABLE
  2
LTYPE
 70
     5
  0
LTYPE
  2
CONTINUOUS
 70
    64
  3
Solid line
 72
    65
 73
     0
 40
0.0
  0
LTYPE
  2
LTYPE1
 70
    64
  3
HIDDEN
 72
    65
 73
     2
 40
15.0
 49
9.0
 49
-6.0
  0
LTYPE
  2
LTYPE2
 70
    64
  3
CENTER
 72
    65
 73
     4
 40
75.0
 49
52.5
 49
-7.5
 49
7.5
 49
-7.5
  0
LTYPE
  2
LTYPE3
 70
    64
  3
CENTER
 72
    65
 73
     4
 40
50.0
 49
35.0
 49
-5.0
 49
5.0
 49
-5.0
  0
LTYPE
  2
LTYPE4
 70
    64
  3
PHANTOM
 72
    65
 73
     6
 40
50.0
 49
37.5
 49
-2.5
 49
2.5
 49
-2.5
 49
2.5
 49
-2.5
  0
ENDTAB
  0
TABLE
  2
LAYER
 70
   128
  0
LAYER
  2
0
 70
     0
 62
     7
  6
CONTINUOUS
  0
LAYER
  2
2
 70
     0
 62
     7
  6
CONTINUOUS
  0
LAYER
  2
3
 70
     0
 62
     7
  6
CONTINUOUS
  0
LAYER
  2
4
 70
     0
 62
     7
  6
CONTINUOUS
  0
LAYER
  2
5
 70
     0
 62
     7
  6
CONTINUOUS
  0
LAYER
  2
6
 70
     0
 62
     7
  6
CONTINUOUS
  0
LAYER
  2
7
 70
     0
 62
     7
  6
CONTINUOUS
  0
LAYER
  2
8
 70
     0
 62
     7
  6
CONTINUOUS
  0
LAYER
  2
9
 70
     0
 62
     7
  6
CONTINUOUS
  0
LAYER
  2
10
 70
     0
 62
     7
  6
CONTINUOUS
  0
LAYER
  2
11
 70
     0
 62
     7
  6
CONTINUOUS
  0
LAYER
  2
12
 70
     0
 62
     7
  6
CONTINUOUS
  0
LAYER
  2
13
 70
     0
 62
     7
  6
CONTINUOUS
  0
LAYER
  2
14
 70
     0
 62
     7
  6
CONTINUOUS
  0
LAYER
  2
15
 70
     0
 62
     7
  6
CONTINUOUS
  0
LAYER
  2
16
 70
     0
 62
     7
  6
CONTINUOUS
  0
LAYER
  2
17
 70
     0
 62
     7
  6
CONTINUOUS
  0
LAYER
  2
18
 70
     0
 62
     7
  6
CONTINUOUS
  0
LAYER
  2
19
 70
     0
 62
     7
  6
CONTINUOUS
  0
LAYER
  2
20
 70
     0
 62
     7
  6
CONTINUOUS
  0
LAYER
  2
21
 70
     0
 62
     7
  6
CONTINUOUS
  0
LAYER
  2
22
 70
     0
 62
     7
  6
CONTINUOUS
  0
LAYER
  2
23
 70
     0
 62
     7
  6
CONTINUOUS
  0
LAYER
  2
24
 70
     0
 62
     7
  6
CONTINUOUS
  0
LAYER
  2
25
 70
     0
 62
     7
  6
CONTINUOUS
  0
LAYER
  2
26
 70
     0
 62
     7
  6
CONTINUOUS
  0
LAYER
  2
27
 70
     0
 62
     7
  6
CONTINUOUS
  0
LAYER
  2
28
 70
     0
 62
     7
  6
CONTINUOUS
  0
LAYER
  2
29
 70
     0
 62
     7
  6
CONTINUOUS
  0
LAYER
  2
30
 70
     0
 62
     7
  6
CONTINUOUS
  0
LAYER
  2
31
 70
     0
 62
     7
  6
CONTINUOUS
  0
LAYER
  2
32
 70
     0
 62
     7
  6
CONTINUOUS
  0
LAYER
  2
33
 70
     0
 62
     7
  6
CONTINUOUS
  0
LAYER
  2
34
 70
     0
 62
     7
  6
CONTINUOUS
  0
LAYER
  2
35
 70
     0
 62
     7
  6
CONTINUOUS
  0
LAYER
  2
36
 70
     0
 62
     7
  6
CONTINUOUS
  0
LAYER
  2
37
 70
     0
 62
     7
  6
CONTINUOUS
  0
LAYER
  2
38
 70
     0
 62
     7
  6
CONTINUOUS
  0
LAYER
  2
39
 70
     0
 62
     7
  6
CONTINUOUS
  0
LAYER
  2
40
 70
     0
 62
     7
  6
CONTINUOUS
  0
LAYER
  2
41
 70
     0
 62
     7
  6
CONTINUOUS
  0
LAYER
  2
42
 70
     0
 62
     7
  6
CONTINUOUS
  0
LAYER
  2
43
 70
     0
 62
     7
  6
CONTINUOUS
  0
LAYER
  2
44
 70
     0
 62
     7
  6
CONTINUOUS
  0
LAYER
  2
45
 70
     0
 62
     7
  6
CONTINUOUS
  0
LAYER
  2
46
 70
     0
 62
     7
  6
CONTINUOUS
  0
LAYER
  2
47
 70
     0
 62
     7
  6
CONTINUOUS
  0
LAYER
  2
48
 70
     0
 62
     7
  6
CONTINUOUS
  0
LAYER
  2
49
 70
     0
 62
     7
  6
CONTINUOUS
  0
LAYER
  2
50
 70
     0
 62
     7
  6
CONTINUOUS
  0
LAYER
  2
51
 70
     0
 62
     7
  6
CONTINUOUS
  0
LAYER
  2
52
 70
     0
 62
     7
  6
CONTINUOUS
  0
LAYER
  2
53
 70
     0
 62
     7
  6
CONTINUOUS
  0
LAYER
  2
54
 70
     0
 62
     7
  6
CONTINUOUS
  0
LAYER
  2
55
 70
     0
 62
     7
  6
CONTINUOUS
  0
LAYER
  2
56
 70
     0
 62
     7
  6
CONTINUOUS
  0
LAYER
  2
57
 70
     0
 62
     7
  6
CONTINUOUS
  0
LAYER
  2
58
 70
     0
 62
     7
  6
CONTINUOUS
  0
LAYER
  2
59
 70
     0
 62
     7
  6
CONTINUOUS
  0
LAYER
  2
60
 70
     0
 62
     7
  6
CONTINUOUS
  0
LAYER
  2
61
 70
     0
 62
     7
  6
CONTINUOUS
  0
LAYER
  2
62
 70
     0
 62
     7
  6
CONTINUOUS
  0
LAYER
  2
63
 70
     0
 62
     7
  6
CONTINUOUS
  0
LAYER
  2
64
 70
     0
 62
     7
  6
CONTINUOUS
  0
LAYER
  2
65
 70
     0
 62
     7
  6
CONTINUOUS
  0
LAYER
  2
66
 70
     0
 62
     7
  6
CONTINUOUS
  0
LAYER
  2
67
 70
     0
 62
     7
  6
CONTINUOUS
  0
LAYER
  2
68
 70
     0
 62
     7
  6
CONTINUOUS
  0
LAYER
  2
69
 70
     0
 62
     7
  6
CONTINUOUS
  0
LAYER
  2
70
 70
     0
 62
     7
  6
CONTINUOUS
  0
LAYER
  2
71
 70
     0
 62
     7
  6
CONTINUOUS
  0
LAYER
  2
72
 70
     0
 62
     7
  6
CONTINUOUS
  0
LAYER
  2
73
 70
     0
 62
     7
  6
CONTINUOUS
  0
LAYER
  2
74
 70
     0
 62
     7
  6
CONTINUOUS
  0
LAYER
  2
75
 70
     0
 62
     7
  6
CONTINUOUS
  0
LAYER
  2
76
 70
     0
 62
     7
  6
CONTINUOUS
  0
LAYER
  2
77
 70
     0
 62
     7
  6
CONTINUOUS
  0
LAYER
  2
78
 70
     0
 62
     7
  6
CONTINUOUS
  0
LAYER
  2
79
 70
     0
 62
     7
  6
CONTINUOUS
  0
LAYER
  2
80
 70
     0
 62
     7
  6
CONTINUOUS
  0
LAYER
  2
81
 70
     0
 62
     7
  6
CONTINUOUS
  0
LAYER
  2
82
 70
     0
 62
     7
  6
CONTINUOUS
  0
LAYER
  2
83
 70
     0
 62
     7
  6
CONTINUOUS
  0
LAYER
  2
84
 70
     0
 62
     7
  6
CONTINUOUS
  0
LAYER
  2
85
 70
     0
 62
     7
  6
CONTINUOUS
  0
LAYER
  2
86
 70
     0
 62
     7
  6
CONTINUOUS
  0
LAYER
  2
87
 70
     0
 62
     7
  6
CONTINUOUS
  0
LAYER
  2
88
 70
     0
 62
     7
  6
CONTINUOUS
  0
LAYER
  2
89
 70
     0
 62
     7
  6
CONTINUOUS
  0
LAYER
  2
90
 70
     0
 62
     7
  6
CONTINUOUS
  0
LAYER
  2
91
 70
     0
 62
     7
  6
CONTINUOUS
  0
LAYER
  2
92
 70
     0
 62
     7
  6
CONTINUOUS
  0
LAYER
  2
93
 70
     0
 62
     7
  6
CONTINUOUS
  0
LAYER
  2
94
 70
     0
 62
     7
  6
CONTINUOUS
  0
LAYER
  2
95
 70
     0
 62
     7
  6
CONTINUOUS
  0
LAYER
  2
96
 70
     0
 62
     7
  6
CONTINUOUS
  0
LAYER
  2
97
 70
     0
 62
     7
  6
CONTINUOUS
  0
LAYER
  2
98
 70
     0
 62
     7
  6
CONTINUOUS
  0
LAYER
  2
99
 70
     0
 62
     7
  6
CONTINUOUS
  0
LAYER
  2
100
 70
     0
 62
     7
  6
CONTINUOUS
  0
LAYER
  2
101
 70
     0
 62
     7
  6
CONTINUOUS
  0
LAYER
  2
102
 70
     0
 62
     7
  6
CONTINUOUS
  0
LAYER
  2
103
 70
     0
 62
     7
  6
CONTINUOUS
  0
LAYER
  2
104
 70
     0
 62
     7
  6
CONTINUOUS
  0
LAYER
  2
105
 70
     0
 62
     7
  6
CONTINUOUS
  0
LAYER
  2
106
 70
     0
 62
     7
  6
CONTINUOUS
  0
LAYER
  2
107
 70
     0
 62
     7
  6
CONTINUOUS
  0
LAYER
  2
108
 70
     0
 62
     7
  6
CONTINUOUS
  0
LAYER
  2
109
 70
     0
 62
     7
  6
CONTINUOUS
  0
LAYER
  2
110
 70
     0
 62
     7
  6
CONTINUOUS
  0
LAYER
  2
111
 70
     0
 62
     7
  6
CONTINUOUS
  0
LAYER
  2
112
 70
     0
 62
     7
  6
CONTINUOUS
  0
LAYER
  2
113
 70
     0
 62
     7
  6
CONTINUOUS
  0
LAYER
  2
114
 70
     0
 62
     7
  6
CONTINUOUS
  0
LAYER
  2
115
 70
     0
 62
     7
  6
CONTINUOUS
  0
LAYER
  2
116
 70
     0
 62
     7
  6
CONTINUOUS
  0
LAYER
  2
117
 70
     0
 62
     7
  6
CONTINUOUS
  0
LAYER
  2
118
 70
     0
 62
     7
  6
CONTINUOUS
  0
LAYER
  2
119
 70
     0
 62
     7
  6
CONTINUOUS
  0
LAYER
  2
120
 70
     0
 62
     7
  6
CONTINUOUS
  0
LAYER
  2
121
 70
     0
 62
     7
  6
CONTINUOUS
  0
LAYER
  2
122
 70
     0
 62
     7
  6
CONTINUOUS
  0
LAYER
  2
123
 70
     0
 62
     7
  6
CONTINUOUS
  0
LAYER
  2
124
 70
     0
 62
     7
  6
CONTINUOUS
  0
LAYER
  2
125
 70
     0
 62
     7
  6
CONTINUOUS
  0
LAYER
  2
126
 70
     0
 62
     7
  6
CONTINUOUS
  0
LAYER
  2
127
 70
     0
 62
     7
  6
CONTINUOUS
  0
LAYER
  2
128
 70
     0
 62
     7
  6
CONTINUOUS
  0
ENDTAB
  0
TABLE
  2
STYLE
 70
    69
  0
STYLE
  2
STANDARD
 70
     0
 40
0.0
 41
1.0
 50
0.0
 71
     0
 42
0.2
  3
txt.shx
  4
extfont.shx
  0
STYLE
  2
KANJI0
 70
     0
 40
8.666666
 41
0.6
 50
0.0
 71
     0
 42
8.666666
  3
txt.shx
  4
extfont.shx
  0
STYLE
  2
KANJI1
 70
     0
 40
10.3999992
 41
0.6
 50
0.0
 71
     0
 42
10.3999992
  3
txt.shx
  4
extfont.shx
  0
STYLE
  2
KANJI2
 70
     0
 40
15.1666655
 41
0.42031746
 50
0.0
 71
     0
 42
15.1666655
  3
txt.shx
  4
extfont.shx
  0
STYLE
  2
KANJI3
 70
     0
 40
25.999998
 41
0.9
 50
0.0
 71
     0
 42
25.999998
  3
txt.shx
  4
extfont.shx
  0
STYLE
  2
KANJI4
 70
     0
 40
8.666666
 41
0.8
 50
0.0
 71
     0
 42
8.666666
  3
txt.shx
  4
extfont.shx
  0
STYLE
  2
KANJI5
 70
     0
 40
10.3999992
 41
0.8
 50
0.0
 71
     0
 42
10.3999992
  3
txt.shx
  4
extfont.shx
  0
STYLE
  2
KANJI6
 70
     0
 40
25.0
 41
1.0
 50
0.0
 71
     0
 42
25.0
  3
txt.shx
  4
extfont.shx
  0
STYLE
  2
KANJI7
 70
     0
 40
25.0
 41
1.0
 50
0.0
 71
     0
 42
25.0
  3
txt.shx
  4
extfont.shx
  0
STYLE
  2
KANJI8
 70
     0
 40
25.0
 41
0.8
 50
0.0
 71
     0
 42
25.0
  3
txt.shx
  4
extfont.shx
  0
STYLE
  2
KANJI9
 70
     0
 40
20.0
 41
1.0
 50
0.0
 71
     0
 42
20.0
  3
txt.shx
  4
extfont.shx
  0
STYLE
  2
KANJI10
 70
     0
 40
18.0
 41
1.111111111
 50
0.0
 71
     0
 42
18.0
  3
txt.shx
  4
extfont.shx
  0
STYLE
  2
KANJI11
 70
     0
 40
17.5
 41
0.857142857
 50
0.0
 71
     0
 42
17.5
  3
txt.shx
  4
extfont.shx
  0
STYLE
  2
KANJI12
 70
     0
 40
22.5
 41
0.666666667
 50
0.0
 71
     0
 42
22.5
  3
txt.shx
  4
extfont.shx
  0
STYLE
  2
KANJI13
 70
     0
 40
9.999997897
 41
0.6
 50
0.0
 71
     0
 42
9.999997897
  3
txt.shx
  4
extfont.shx
  0
STYLE
  2
KANJI14
 70
     0
 40
11.999997477
 41
0.9
 50
0.0
 71
     0
 42
11.999997477
  3
txt.shx
  4
extfont.shx
  0
STYLE
  2
KANJI15
 70
     0
 40
14.999996846
 41
0.9
 50
0.0
 71
     0
 42
14.999996846
  3
txt.shx
  4
extfont.shx
  0
STYLE
  2
KANJI16
 70
     0
 40
12.999999
 41
0.75
 50
0.0
 71
     0
 42
12.999999
  3
txt.shx
  4
extfont.shx
  0
STYLE
  2
KANJI17
 70
     0
 40
12.8
 41
0.9
 50
0.0
 71
     0
 42
12.8
  3
txt.shx
  4
extfont.shx
  0
STYLE
  2
KANJI18
 70
     0
 40
12.0
 41
0.9
 50
0.0
 71
     0
 42
12.0
  3
txt.shx
  4
extfont.shx
  0
STYLE
  2
KANJI19
 70
     0
 40
12.0
 41
0.9
 50
0.0
 71
     0
 42
12.0
  3
txt.shx
  4
extfont.shx
  0
STYLE
  2
KANJI20
 70
     0
 40
14.0
 41
0.9
 50
0.0
 71
     0
 42
14.0
  3
txt.shx
  4
extfont.shx
  0
STYLE
  2
KANJI21
 70
     0
 40
10.8
 41
0.740740741
 50
0.0
 71
     0
 42
10.8
  3
txt.shx
  4
extfont.shx
  0
STYLE
  2
KANJI22
 70
     0
 40
14.0
 41
0.857142857
 50
0.0
 71
     0
 42
14.0
  3
txt.shx
  4
extfont.shx
  0
STYLE
  2
KANJI23
 70
     0
 40
15.0
 41
1.0
 50
0.0
 71
     0
 42
15.0
  3
txt.shx
  4
extfont.shx
  0
STYLE
  2
KANJI24
 70
     0
 40
11.55
 41
0.9
 50
0.0
 71
     0
 42
11.55
  3
txt.shx
  4
extfont.shx
  0
STYLE
  2
KANJI25
 70
     0
 40
12.0
 41
0.833333333
 50
0.0
 71
     0
 42
12.0
  3
txt.shx
  4
extfont.shx
  0
STYLE
  2
KANJI26
 70
     0
 40
15.0
 41
0.9
 50
0.0
 71
     0
 42
15.0
  3
txt.shx
  4
extfont.shx
  0
STYLE
  2
KANJI27
 70
     0
 40
17.5
 41
0.793650794
 50
0.0
 71
     0
 42
17.5
  3
txt.shx
  4
extfont.shx
  0
STYLE
  2
KANJI28
 70
     0
 40
25.0
 41
0.8
 50
0.0
 71
     0
 42
25.0
  3
txt.shx
  4
extfont.shx
  0
STYLE
  2
KANJI29
 70
     0
 40
10.933904043
 41
0.9
 50
0.0
 71
     0
 42
10.933904043
  3
txt.shx
  4
extfont.shx
  0
STYLE
  2
KANJI30
 70
     0
 40
15.185977837
 41
0.66671875
 50
0.0
 71
     0
 42
15.185977837
  3
txt.shx
  4
extfont.shx
  0
STYLE
  2
KANJI31
 70
     0
 40
18.223173404
 41
0.9
 50
0.0
 71
     0
 42
18.223173404
  3
txt.shx
  4
extfont.shx
  0
STYLE
  2
KANJI32
 70
     0
 40
15.6
 41
0.925
 50
0.0
 71
     0
 42
15.6
  3
txt.shx
  4
extfont.shx
  0
STYLE
  2
KANJI33
 70
     0
 40
14.578538724
 41
0.9
 50
0.0
 71
     0
 42
14.578538724
  3
txt.shx
  4
extfont.shx
  0
STYLE
  2
KANJI34
 70
     0
 40
20.0
 41
0.925
 50
0.0
 71
     0
 42
20.0
  3
txt.shx
  4
extfont.shx
  0
STYLE
  2
KANJI35
 70
     0
 40
20.0
 41
0.925
 50
0.0
 71
     0
 42
20.0
  3
txt.shx
  4
extfont.shx
  0
STYLE
  2
KANJI36
 70
     0
 40
13.475
 41
0.9
 50
0.0
 71
     0
 42
13.475
  3
txt.shx
  4
extfont.shx
  0
STYLE
  2
KANJI37
 70
     0
 40
20.0
 41
0.9
 50
0.0
 71
     0
 42
20.0
  3
txt.shx
  4
extfont.shx
  0
STYLE
  2
KANJI38
 70
     0
 40
18.0
 41
0.857142857
 50
0.0
 71
     0
 42
18.0
  3
txt.shx
  4
extfont.shx
  0
STYLE
  2
KANJI39
 70
     0
 40
18.0
 41
0.857222222
 50
0.0
 71
     0
 42
18.0
  3
txt.shx
  4
extfont.shx
  0
STYLE
  2
KANJI40
 70
     0
 40
8.4
 41
0.9
 50
0.0
 71
     0
 42
8.4
  3
txt.shx
  4
extfont.shx
  0
STYLE
  2
KANJI41
 70
     0
 40
17.5
 41
0.9
 50
0.0
 71
     0
 42
17.5
  3
txt.shx
  4
extfont.shx
  0
STYLE
  2
KANJI42
 70
     0
 40
17.5
 41
0.9
 50
0.0
 71
     0
 42
17.5
  3
txt.shx
  4
extfont.shx
  0
STYLE
  2
KANJI43
 70
     0
 40
17.5
 41
0.9
 50
0.0
 71
     0
 42
17.5
  3
txt.shx
  4
extfont.shx
  0
STYLE
  2
KANJI44
 70
     0
 40
17.5
 41
0.9
 50
0.0
 71
     0
 42
17.5
  3
txt.shx
  4
extfont.shx
  0
STYLE
  2
KANJI45
 70
     0
 40
22.5
 41
0.9
 50
0.0
 71
     0
 42
22.5
  3
txt.shx
  4
extfont.shx
  0
STYLE
  2
KANJI46
 70
     0
 40
17.5
 41
0.9
 50
0.0
 71
     0
 42
17.5
  3
txt.shx
  4
extfont.shx
  0
STYLE
  2
KANJI47
 70
     0
 40
17.5
 41
0.9
 50
0.0
 71
     0
 42
17.5
  3
txt.shx
  4
extfont.shx
  0
STYLE
  2
KANJI48
 70
     0
 40
17.5
 41
0.9
 50
0.0
 71
     0
 42
17.5
  3
txt.shx
  4
extfont.shx
  0
STYLE
  2
KANJI49
 70
     0
 40
17.5
 41
0.9
 50
0.0
 71
     0
 42
17.5
  3
txt.shx
  4
extfont.shx
  0
STYLE
  2
KANJI50
 70
     0
 40
17.5
 41
0.9
 50
0.0
 71
     0
 42
17.5
  3
txt.shx
  4
extfont.shx
  0
STYLE
  2
KANJI51
 70
     4
 40
17.5
 41
0.9
 50
0.0
 71
     0
 42
17.5
  3
txt.shx
  4
extfont.shx
  0
STYLE
  2
KANJI52
 70
     4
 40
15.0
 41
0.9
 50
0.0
 71
     0
 42
15.0
  3
txt.shx
  4
extfont.shx
  0
STYLE
  2
KANJI53
 70
     0
 40
12.5
 41
0.8
 50
0.0
 71
     0
 42
12.5
  3
txt.shx
  4
extfont.shx
  0
STYLE
  2
KANJI54
 70
     0
 40
15.0
 41
0.9
 50
0.0
 71
     0
 42
15.0
  3
txt.shx
  4
extfont.shx
  0
STYLE
  2
KANJI55
 70
     0
 40
15.0
 41
0.857142857
 50
0.0
 71
     0
 42
15.0
  3
txt.shx
  4
extfont.shx
  0
STYLE
  2
KANJI56
 70
     0
 40
17.5
 41
0.9
 50
0.0
 71
     0
 42
17.5
  3
txt.shx
  4
extfont.shx
  0
STYLE
  2
KANJI57
 70
     0
 40
14.0
 41
0.9
 50
0.0
 71
     0
 42
14.0
  3
txt.shx
  4
extfont.shx
  0
STYLE
  2
KANJI58
 70
     0
 40
14.0
 41
0.785714286
 50
0.0
 71
     0
 42
14.0
  3
txt.shx
  4
extfont.shx
  0
STYLE
  2
KANJI59
 70
     0
 40
14.0
 41
0.8
 50
0.0
 71
     0
 42
14.0
  3
txt.shx
  4
extfont.shx
  0
STYLE
  2
KANJI60
 70
     0
 40
17.5
 41
0.9
 50
0.0
 71
     0
 42
17.5
  3
txt.shx
  4
extfont.shx
  0
STYLE
  2
KANJI61
 70
     0
 40
15.0
 41
0.8
 50
0.0
 71
     0
 42
15.0
  3
txt.shx
  4
extfont.shx
  0
STYLE
  2
KANJI62
 70
     0
 40
15.0
 41
0.9
 50
0.0
 71
     0
 42
15.0
  3
txt.shx
  4
extfont.shx
  0
STYLE
  2
KANJI63
 70
     0
 40
17.5
 41
0.9
 50
0.0
 71
     0
 42
17.5
  3
txt.shx
  4
extfont.shx
  0
STYLE
  2
KANJI64
 70
     0
 40
15.0
 41
0.833333333
 50
0.0
 71
     0
 42
15.0
  3
txt.shx
  4
extfont.shx
  0
STYLE
  2
KANJI65
 70
     0
 40
17.5
 41
0.9
 50
0.0
 71
     0
 42
17.5
  3
txt.shx
  4
extfont.shx
  0
STYLE
  2
KANJI66
 70
     0
 40
15.0
 41
0.766666667
 50
0.0
 71
     0
 42
15.0
  3
txt.shx
  4
extfont.shx
  0
STYLE
  2
KANJI67
 70
     0
 40
17.5
 41
0.571428571
 50
0.0
 71
     0
 42
17.5
  3
txt.shx
  4
extfont.shx
  0
ENDTAB
  0
TABLE
  2
VIEW
 70
     0
  0
ENDTAB
  0
ENDSEC
  0
SECTION
  2
BLOCKS
  0
ENDSEC
  0
SECTION
  2
ENTITIES
  0
LINE
  8
0
  6
CONTINUOUS
 62
     6
 10
67.25
 20
1405.0
 30
0.0
 11
2002.25
 21
1405.0
 31
0.0
  0
LINE
  8
0
  6
CONTINUOUS
 62
     6
 10
2002.25
 20
1405.0
 30
0.0
 11
2002.25
 21
60.0
 31
0.0
  0
LINE
  8
0
  6
CONTINUOUS
 62
     6
 10
2002.25
 20
60.0
 30
0.0
 11
67.25
 21
60.0
 31
0.0
  0
LINE
  8
0
  6
CONTINUOUS
 62
     4
 10
1330.583385
 20
98.999997
 30
0.0
 11
1488.7500395
 21
98.999997
 31
0.0
  0
TEXT
  8
0
  6
CONTINUOUS
 62
     4
 10
1339.250051
 20
83.8333315
 30
0.8666666
 40
8.666666
  1
ＳＣＡＬＥ
 50
0.0
 41
0.6
 51
0.0
  7
KANJI0
  0
TEXT
  8
0
  6
CONTINUOUS
 62
     4
 10
1339.250051
 20
118.4999955
 30
0.8666666
 40
8.666666
  1
ＤＡＴＥ
 50
0.0
 41
0.6
 51
0.0
  7
KANJI0
  0
TEXT
  8
0
  6
CONTINUOUS
 62
     4
 10
1339.250051
 20
70.8333325
 30
1.03999992
 40
10.3999992
  1
尺度
 50
0.0
 41
0.6
 51
0.0
  7
KANJI1
  0
TEXT
  8
0
  6
CONTINUOUS
 62
     4
 10
1339.250051
 20
105.4999965
 30
1.03999992
 40
10.3999992
  1
日付
 50
0.0
 41
0.6
 51
0.0
  7
KANJI1
  0
LINE
  8
0
  6
CONTINUOUS
 62
     4
 10
1488.7500395
 20
118.4999955
 30
0.0
 11
1997.916667
 21
118.4999955
 31
0.0
  0
LINE
  8
0
  6
LTYPE1
 62
     4
 10
1852.7500115
 20
124.999995
 30
0.0
 11
1852.7500115
 21
159.666659
 31
0.0
  0
LINE
  8
0
  6
LTYPE1
 62
     4
 10
1822.4166805
 20
124.999995
 30
0.0
 11
1822.4166805
 21
159.666659
 31
0.0
  0
LINE
  8
0
  6
LTYPE1
 62
     4
 10
1792.0833495
 20
124.999995
 30
0.0
 11
1792.0833495
 21
159.666659
 31
0.0
  0
LINE
  8
0
  6
LTYPE1
 62
     4
 10
1761.7500185
 20
124.999995
 30
0.0
 11
1761.7500185
 21
159.666659
 31
0.0
  0
LINE
  8
0
  6
LTYPE1
 62
     4
 10
1731.4166875
 20
124.999995
 30
0.0
 11
1731.4166875
 21
159.666659
 31
0.0
  0
LINE
  8
0
  6
LTYPE1
 62
     4
 10
1701.0833565
 20
124.999995
 30
0.0
 11
1701.0833565
 21
159.666659
 31
0.0
  0
LINE
  8
0
  6
LTYPE1
 62
     4
 10
1670.7500255
 20
124.999995
 30
0.0
 11
1670.7500255
 21
159.666659
 31
0.0
  0
LINE
  8
0
  6
LTYPE1
 62
     4
 10
1640.4166945
 20
124.999995
 30
0.0
 11
1640.4166945
 21
159.666659
 31
0.0
  0
LINE
  8
0
  6
LTYPE1
 62
     4
 10
1640.4166945
 20
124.999995
 30
0.0
 11
1852.7500115
 21
124.999995
 31
0.0
  0
LINE
  8
0
  6
CONTINUOUS
 62
     6
 10
988.250078
 20
98.999997
 30
0.0
 11
1330.583385
 21
98.999997
 31
0.0
  0
LINE
  8
0
  6
CONTINUOUS
 62
     6
 10
988.250078
 20
64.333333
 30
0.0
 11
1997.916667
 21
64.333333
 31
0.0
  0
TEXT
  8
0
  6
CONTINUOUS
 62
     6
 10
1493.0833725
 20
83.8333315
 30
0.0
 40
15.1666655
  1
ＵＮＩＴＥＣ　ＩＮＤＵＳＴＲＹ　ＣＯ．，ＬＴＤ．
 50
0.0
 41
0.42031746
 51
0.0
  7
KANJI2
  0
TEXT
  8
0
  6
CONTINUOUS
 62
     6
 10
1705.795856138
 20
78.1999986
 30
2.5999998
 40
25.999998
  1
ユニテック工業株式会社
 50
0.0
 41
0.9
 51
0.0
  7
KANJI3
  0
LINE
  8
0
  6
CONTINUOUS
 62
     6
 10
1330.583385
 20
64.333333
 30
0.0
 11
1330.583385
 21
341.666645
 31
0.0
  0
LINE
  8
0
  6
CONTINUOUS
 62
     6
 10
1997.916667
 20
64.333333
 30
0.0
 11
1997.916667
 21
341.666645
 31
0.0
  0
LINE
  8
0
  6
CONTINUOUS
 62
     4
 10
1488.7500395
 20
64.333333
 30
0.0
 11
1488.7500395
 21
341.666645
 31
0.0
  0
LINE
  8
0
  6
CONTINUOUS
 62
     6
 10
1671.129192138
 20
87.2999979
 30
0.0
 11
1659.689193018
 21
87.2999979
 31
0.0
  0
LINE
  8
0
  6
CONTINUOUS
 62
     6
 10
1671.129192138
 20
89.37999774
 30
0.0
 11
1659.689193018
 21
89.37999774
 31
0.0
  0
LINE
  8
0
  6
CONTINUOUS
 62
     6
 10
1671.129192138
 20
87.2999979
 30
0.0
 11
1682.569191258
 21
87.2999979
 31
0.0
  0
LINE
  8
0
  6
CONTINUOUS
 62
     6
 10
1671.129192138
 20
89.37999774
 30
0.0
 11
1682.569191258
 21
89.37999774
 31
0.0
  0
LINE
  8
0
  6
CONTINUOUS
 62
     6
 10
1682.569191258
 20
89.37999774
 30
0.0
 11
1682.569191258
 21
87.2999979
 31
0.0
  0
ARC
  8
0
  6
CONTINUOUS
 62
     6
 10
1685.169191058
 20
88.33999782
 30
0.0
 40
10.3999992
 50
185.739170477
 51
90.0
  0
ARC
  8
0
  6
CONTINUOUS
 62
     6
 10
1685.169191058
 20
88.33999782
 30
0.0
 40
12.47999904
 50
184.780191847
 51
90.0
  0
LINE
  8
0
  6
CONTINUOUS
 62
     6
 10
1659.689193018
 20
87.2999979
 30
0.0
 11
1659.689193018
 21
89.37999774
 31
0.0
  0
LINE
  8
0
  6
CONTINUOUS
 62
     6
 10
1669.569192258
 20
100.81999686
 30
0.0
 11
1657.089193218
 21
100.81999686
 31
0.0
  0
LINE
  8
0
  6
CONTINUOUS
 62
     6
 10
1672.689192018
 20
100.81999686
 30
0.0
 11
1685.169191058
 21
100.81999686
 31
0.0
  0
ARC
  8
0
  6
CONTINUOUS
 62
     6
 10
1657.089193218
 20
88.33999782
 30
0.0
 40
10.3999992
 50
90.0
 51
354.260829523
  0
ARC
  8
0
  6
CONTINUOUS
 62
     6
 10
1657.089193218
 20
88.33999782
 30
0.0
 40
12.47999904
 50
90.0
 51
355.219808153
  0
LINE
  8
0
  6
CONTINUOUS
 62
     6
 10
1669.569192258
 20
100.81999686
 30
0.0
 11
1669.569192258
 21
98.73999702
 31
0.0
  0
LINE
  8
0
  6
CONTINUOUS
 62
     6
 10
1657.089193218
 20
98.73999702
 30
0.0
 11
1669.569192258
 21
98.73999702
 31
0.0
  0
LINE
  8
0
  6
CONTINUOUS
 62
     6
 10
1672.689192018
 20
100.81999686
 30
0.0
 11
1672.689192018
 21
98.73999702
 31
0.0
  0
LINE
  8
0
  6
CONTINUOUS
 62
     6
 10
1685.169191058
 20
98.73999702
 30
0.0
 11
1672.689192018
 21
98.73999702
 31
0.0
  0
TEXT
  8
0
  6
CONTINUOUS
 62
     4
 10
1339.250051
 20
153.1666595
 30
0.8666666
 40
8.666666
  1
ＤＲＡＷＮ
 50
0.0
 41
0.6
 51
0.0
  7
KANJI0
  0
TEXT
  8
0
  6
CONTINUOUS
 62
     4
 10
1339.250051
 20
187.8333235
 30
0.8666666
 40
8.666666
  1
ＤＥＳＩＧＮ
 50
0.0
 41
0.6
 51
0.0
  7
KANJI0
  0
TEXT
  8
0
  6
CONTINUOUS
 62
     4
 10
1339.250051
 20
222.4999875
 30
0.8666666
 40
8.666666
  1
ＣＨＥＣＫ
 50
0.0
 41
0.6
 51
0.0
  7
KANJI0
  0
TEXT
  8
0
  6
CONTINUOUS
 62
     4
 10
1339.250051
 20
257.1666515
 30
0.8666666
 40
8.666666
  1
ＣＯＤＥ
 50
0.0
 41
0.6
 51
0.0
  7
KANJI0
  0
LINE
  8
0
  6
CONTINUOUS
 62
     4
 10
1330.583385
 20
202.999989
 30
0.0
 11
1488.7500395
 21
202.999989
 31
0.0
  0
LINE
  8
0
  6
CONTINUOUS
 62
     4
 10
1330.583385
 20
168.333325
 30
0.0
 11
1488.7500395
 21
168.333325
 31
0.0
  0
LINE
  8
0
  6
CONTINUOUS
 62
     4
 10
1330.583385
 20
237.666653
 30
0.0
 11
1488.7500395
 21
237.666653
 31
0.0
  0
LINE
  8
0
  6
CONTINUOUS
 62
     4
 10
1330.583385
 20
272.333317
 30
0.0
 11
1997.916667
 21
272.333317
 31
0.0
  0
TEXT
  8
0
  6
CONTINUOUS
 62
     4
 10
1339.250051
 20
174.8333245
 30
1.03999992
 40
10.3999992
  1
設計
 50
0.0
 41
0.6
 51
0.0
  7
KANJI1
  0
TEXT
  8
0
  6
CONTINUOUS
 62
     4
 10
1339.250051
 20
209.4999885
 30
1.03999992
 40
10.3999992
  1
検図
 50
0.0
 41
0.6
 51
0.0
  7
KANJI1
  0
TEXT
  8
0
  6
CONTINUOUS
 62
     4
 10
1339.250051
 20
244.1666525
 30
1.03999992
 40
10.3999992
  1
分類
 50
0.0
 41
0.6
 51
0.0
  7
KANJI1
  0
LINE
  8
0
  6
CONTINUOUS
 62
     4
 10
1501.53337185
 20
237.666653
 30
0.0
 11
1997.916667
 21
237.666653
 31
0.0
  0
LINE
  8
0
  6
CONTINUOUS
 62
     4
 10
1488.7500395
 20
168.333325
 30
0.0
 11
1997.916667
 21
168.333325
 31
0.0
  0
TEXT
  8
0
  6
CONTINUOUS
 62
     4
 10
1497.4167055
 20
153.1666595
 30
0.8666666
 40
8.666666
  1
ＤＲＡＷＩＮＧ　ＮＯ．
 50
0.0
 41
0.8
 51
0.0
  7
KANJI4
  0
TEXT
  8
0
  6
CONTINUOUS
 62
     4
 10
1497.4167055
 20
187.8333235
 30
0.8666666
 40
8.666666
  1
ＭＦＧ　ＮＯ．
 50
0.0
 41
0.8
 51
0.0
  7
KANJI4
  0
TEXT
  8
0
  6
CONTINUOUS
 62
     4
 10
1497.4167055
 20
222.4999875
 30
0.8666666
 40
8.666666
  1
ＴＹＰＥ
 50
0.0
 41
0.8
 51
0.0
  7
KANJI4
  0
LINE
  8
0
  6
CONTINUOUS
 62
     4
 10
1501.7500385
 20
202.999989
 30
0.0
 11
1701.0833565
 21
202.999989
 31
0.0
  0
TEXT
  8
0
  6
CONTINUOUS
 62
     4
 10
1497.4167055
 20
137.999994
 30
1.03999992
 40
10.3999992
  1
図　面　番　号
 50
0.0
 41
0.8
 51
0.0
  7
KANJI5
  0
TEXT
  8
0
  6
CONTINUOUS
 62
     4
 10
1497.4167055
 20
172.666658
 30
1.03999992
 40
10.3999992
  1
製番
 50
0.0
 41
0.8
 51
0.0
  7
KANJI5
  0
TEXT
  8
0
  6
CONTINUOUS
 62
     4
 10
1497.4167055
 20
207.333322
 30
1.03999992
 40
10.3999992
  1
機種
 50
0.0
 41
0.8
 51
0.0
  7
KANJI5
  0
LINE
  8
0
  6
CONTINUOUS
 62
     4
 10
1330.583385
 20
133.666661
 30
0.0
 11
1488.7500395
 21
133.666661
 31
0.0
  0
TEXT
  8
0
  6
CONTINUOUS
 62
     4
 10
1339.250051
 20
140.1666605
 30
1.03999992
 40
10.3999992
  1
作図
 50
0.0
 41
0.6
 51
0.0
  7
KANJI1
  0
LINE
  8
0
  6
LTYPE1
 62
     4
 10
1640.4166945
 20
159.666659
 30
0.0
 11
1852.7500115
 21
159.666659
 31
0.0
  0
LINE
  8
0
  6
CONTINUOUS
 62
     4
 10
1870.0833435
 20
143.41666025
 30
0.0
 11
1878.7500095
 21
143.41666025
 31
0.0
  0
LINE
  8
0
  6
CONTINUOUS
 62
     4
 10
1924.250006
 20
130.41666125
 30
0.0
 11
1893.916675
 21
130.41666125
 31
0.0
  0
LINE
  8
0
  6
CONTINUOUS
 62
     4
 10
1893.916675
 20
130.41666125
 30
0.0
 11
1909.0833405
 21
156.41665925
 31
0.0
  0
LINE
  8
0
  6
CONTINUOUS
 62
     4
 10
1909.0833405
 20
156.41665925
 30
0.0
 11
1924.250006
 21
130.41666125
 31
0.0
  0
LINE
  8
0
  6
CONTINUOUS
 62
     4
 10
1997.916667
 20
306.999981
 30
0.0
 11
1997.916667
 21
341.666645
 31
0.0
  0
TEXT
  8
0
  6
CONTINUOUS
 62
     4
 10
1714.0833555
 20
222.4999875
 30
0.8666666
 40
8.666666
  1
ＴＩＴＬＥ
 50
0.0
 41
0.8
 51
0.0
  7
KANJI4
  0
TEXT
  8
0
  6
CONTINUOUS
 62
     4
 10
1714.0833555
 20
207.333322
 30
1.03999992
 40
10.3999992
  1
名称
 50
0.0
 41
0.8
 51
0.0
  7
KANJI5
  0
TEXT
  8
0
  6
CONTINUOUS
 62
     2
 10
1784.75
 20
175.0
 30
12.5
 40
25.0
  1
外形寸法図
 50
0.0
 41
1.0
 51
0.0
  7
KANJI6
  0
TEXT
  8
0
  6
CONTINUOUS
 62
     2
 10
1754.75
 20
205.0
 30
3.571428571
 40
25.0
  1
マイティシリンダ
 50
0.0
 41
1.0
 51
0.0
  7
KANJI7
  0
TEXT
  8
0
  6
CONTINUOUS
 62
     2
 10
1614.1666945
 20
129.999995
 30
1.5
 40
25.0
  1
Ａ
 50
0.0
 41
0.8
 51
0.0
  7
KANJI8
  0
CIRCLE
  8
0
  6
CONTINUOUS
 62
     2
 10
1581.6666945
 20
183.749995
 30
0.0
 40
12.5
  0
TEXT
  8
0
  6
CONTINUOUS
 62
     2
 10
1572.2916945
 20
174.374995
 30
1.5
 40
20.0
  1
Ｓ
 50
0.0
 41
1.0
 51
0.0
  7
KANJI9
  0
LINE
  8
0
  6
CONTINUOUS
 62
     6
 10
1331.208385
 20
306.999981
 30
0.0
 11
1998.541667
 21
306.999981
 31
0.0
  0
LINE
  8
0
  6
CONTINUOUS
 62
     6
 10
1330.583385
 20
341.666645
 30
0.0
 11
1997.916667
 21
341.666645
 31
0.0
  0
TEXT
  8
0
  6
CONTINUOUS
 62
     4
 10
1346.0
 20
312.166664
 30
5.0
 40
18.0
  1
ご用途
 50
0.0
 41
1.111111111
 51
0.0
  7
KANJI10
  0
TEXT
  8
0
  6
CONTINUOUS
 62
     4
 10
1346.0
 20
277.5
 30
5.0
 40
18.0
  1
ご注文主
 50
0.0
 41
1.111111111
 51
0.0
  7
KANJI10
  0
TEXT
  8
0
  6
CONTINUOUS
 62
     2
 10
1386.4166945
 20
142.499995
 30
5.0
 40
17.5
  1
岡田
 50
0.0
 41
0.857142857
 51
0.0
  7
KANJI11
  0
TEXT
  8
0
  6
CONTINUOUS
 62
     2
 10
1422.25
 20
70.0
 30
1.5
 40
22.5
  1
１／５
 50
0.0
 41
0.666666667
 51
0.0
  7
KANJI12
  0
TEXT
  8
0
  6
CONTINUOUS
 62
     4
 10
1098.7500695
 20
83.8333315
 30
0.8666666
 40
8.666666
  1
ＢＹ
 50
0.0
 41
0.6
 51
0.0
  7
KANJI0
  0
TEXT
  8
0
  6
CONTINUOUS
 62
     4
 10
1194.0833955
 20
83.8333315
 30
0.8666666
 40
8.666666
  1
ＤＥＳＣＲＩＰＴＩＯＮ
 50
0.0
 41
0.6
 51
0.0
  7
KANJI0
  0
TEXT
  8
0
  6
CONTINUOUS
 62
     4
 10
1098.7500695
 20
70.8333325
 30
1.03999992
 40
10.3999992
  1
担当
 50
0.0
 41
0.6
 51
0.0
  7
KANJI1
  0
TEXT
  8
0
  6
CONTINUOUS
 62
     4
 10
1207.0833945
 20
70.8333325
 30
1.03999992
 40
10.3999992
  1
記　　　　事
 50
0.0
 41
0.6
 51
0.0
  7
KANJI1
  0
LINE
  8
0
  6
CONTINUOUS
 62
     4
 10
1006.66674325
 20
92.4999975
 30
0.0
 11
992.583411
 21
70.8333325
 31
0.0
  0
TEXT
  8
0
  6
CONTINUOUS
 62
     4
 10
1042.4167405
 20
83.8333315
 30
0.8666666
 40
8.666666
  1
ＤＡＴＥ
 50
0.0
 41
0.6
 51
0.0
  7
KANJI0
  0
TEXT
  8
0
  6
CONTINUOUS
 62
     4
 10
1048.91674
 20
70.8333325
 30
1.03999992
 40
10.3999992
  1
日付
 50
0.0
 41
0.6
 51
0.0
  7
KANJI1
  0
LINE
  8
0
  6
CONTINUOUS
 62
     4
 10
992.583411
 20
70.8333325
 30
0.0
 11
1020.7500755
 21
70.8333325
 31
0.0
  0
LINE
  8
0
  6
CONTINUOUS
 62
     4
 10
1006.66674325
 20
92.4999975
 30
0.0
 11
1020.7500755
 21
70.8333325
 31
0.0
  0
LINE
  8
0
  6
CONTINUOUS
 62
     6
 10
988.250078
 20
64.333333
 30
0.0
 11
988.250078
 21
98.999997
 31
0.0
  0
LINE
  8
0
  6
CONTINUOUS
 62
     4
 10
1025.0834085
 20
64.333333
 30
0.0
 11
1025.0834085
 21
98.999997
 31
0.0
  0
LINE
  8
0
  6
CONTINUOUS
 62
     4
 10
1085.7500705
 20
64.333333
 30
0.0
 11
1085.7500705
 21
98.999997
 31
0.0
  0
LINE
  8
0
  6
CONTINUOUS
 62
     4
 10
1124.7500675
 20
64.333333
 30
0.0
 11
1124.7500675
 21
98.999997
 31
0.0
  0
LINE
  8
0
  6
CONTINUOUS
 62
     6
 10
67.25
 20
60.0
 30
0.0
 11
67.25
 21
1405.0
 31
0.0
  0
TEXT
  8
0
  6
CONTINUOUS
 62
     4
 10
82.249996846
 20
84.999994744
 30
0.99999979
 40
9.999997897
  1
ＰＡＲＴＳ　ＬＩＳＴ
 50
0.0
 41
0.6
 51
0.0
  7
KANJI13
  0
TEXT
  8
0
  6
CONTINUOUS
 62
     4
 10
82.249996846
 20
69.999997897
 30
1.199999748
 40
11.999997477
  1
部品表
 50
0.0
 41
0.9
 51
0.0
  7
KANJI14
  0
LINE
  8
0
  6
CONTINUOUS
 62
     6
 10
72.249998949
 20
134.999984231
 30
0.0
 11
397.249930615
 21
134.999984231
 31
0.0
  0
LINE
  8
0
  6
CONTINUOUS
 62
     6
 10
72.249998949
 20
64.999998949
 30
0.0
 11
397.249930615
 21
64.999998949
 31
0.0
  0
LINE
  8
0
  6
CONTINUOUS
 62
     6
 10
72.249998949
 20
64.999998949
 30
0.0
 11
72.249998949
 21
134.999984231
 31
0.0
  0
LINE
  8
0
  6
CONTINUOUS
 62
     6
 10
72.249998949
 20
99.99999159
 30
0.0
 11
397.249930615
 21
99.99999159
 31
0.0
  0
TEXT
  8
0
  6
CONTINUOUS
 62
     2
 10
82.249996846
 20
109.999989487
 30
1.499999685
 40
14.999996846
  1
ＰＬ
 50
0.0
 41
0.9
 51
0.0
  7
KANJI15
  0
LINE
  8
0
  6
CONTINUOUS
 62
     4
 10
10.333333
 20
64.333333
 30
0.0
 11
62.333329
 21
64.333333
 31
0.0
  0
LINE
  8
0
  6
CONTINUOUS
 62
     4
 10
10.333333
 20
90.333331
 30
0.0
 11
62.333329
 21
90.333331
 31
0.0
  0
LINE
  8
0
  6
CONTINUOUS
 62
     4
 10
10.333333
 20
116.333329
 30
0.0
 11
62.333329
 21
116.333329
 31
0.0
  0
LINE
  8
0
  6
CONTINUOUS
 62
     4
 10
10.333333
 20
142.333327
 30
0.0
 11
62.333329
 21
142.333327
 31
0.0
  0
LINE
  8
0
  6
CONTINUOUS
 62
     4
 10
10.333333
 20
168.333325
 30
0.0
 11
62.333329
 21
168.333325
 31
0.0
  0
LINE
  8
0
  6
CONTINUOUS
 62
     4
 10
10.333333
 20
194.333323
 30
0.0
 11
62.333329
 21
194.333323
 31
0.0
  0
LINE
  8
0
  6
CONTINUOUS
 62
     4
 10
10.333333
 20
220.333321
 30
0.0
 11
62.333329
 21
220.333321
 31
0.0
  0
LINE
  8
0
  6
CONTINUOUS
 62
     4
 10
10.333333
 20
246.333319
 30
0.0
 11
62.333329
 21
246.333319
 31
0.0
  0
LINE
  8
0
  6
CONTINUOUS
 62
     4
 10
10.333333
 20
272.333317
 30
0.0
 11
62.333329
 21
272.333317
 31
0.0
  0
LINE
  8
0
  6
CONTINUOUS
 62
     4
 10
10.333333
 20
298.333315
 30
0.0
 11
62.333329
 21
298.333315
 31
0.0
  0
LINE
  8
0
  6
CONTINUOUS
 62
     4
 10
62.333329
 20
64.333333
 30
0.0
 11
62.333329
 21
298.333315
 31
0.0
  0
LINE
  8
0
  6
CONTINUOUS
 62
     4
 10
36.333331
 20
64.333333
 30
0.0
 11
36.333331
 21
272.333317
 31
0.0
  0
TEXT
  8
0
  6
CONTINUOUS
 62
     4
 10
19.21666565
 20
71.91666575
 30
1.2999999
 40
12.999999
  1
計
 50
0.0
 41
0.75
 51
0.0
  7
KANJI16
  0
TEXT
  8
0
  6
CONTINUOUS
 62
     4
 10
19.21666565
 20
124.34999505
 30
1.2999999
 40
12.999999
  1
設
 50
0.0
 41
0.75
 51
0.0
  7
KANJI16
  0
TEXT
  8
0
  6
CONTINUOUS
 62
     4
 10
19.21666565
 20
149.91665975
 30
1.2999999
 40
12.999999
  1
管
 50
0.0
 41
0.75
 51
0.0
  7
KANJI16
  0
TEXT
  8
0
  6
CONTINUOUS
 62
     4
 10
19.21666565
 20
175.91665775
 30
1.2999999
 40
12.999999
  1
製
 50
0.0
 41
0.75
 51
0.0
  7
KANJI16
  0
TEXT
  8
0
  6
CONTINUOUS
 62
     4
 10
19.21666565
 20
201.91665575
 30
1.2999999
 40
12.999999
  1
資
 50
0.0
 41
0.75
 51
0.0
  7
KANJI16
  0
TEXT
  8
0
  6
CONTINUOUS
 62
     4
 10
19.21666565
 20
227.91665375
 30
1.2999999
 40
12.999999
  1
営
 50
0.0
 41
0.75
 51
0.0
  7
KANJI16
  0
TEXT
  8
0
  6
CONTINUOUS
 62
     4
 10
19.21666565
 20
253.91665175
 30
1.2999999
 40
12.999999
  1
客
 50
0.0
 41
0.75
 51
0.0
  7
KANJI16
  0
TEXT
  8
0
  6
CONTINUOUS
 62
     4
 10
18.999999
 20
280.999983
 30
1.2999999
 40
12.999999
  1
出　図
 50
0.0
 41
0.75
 51
0.0
  7
KANJI16
  0
LINE
  8
0
  6
CONTINUOUS
 62
     4
 10
10.333333
 20
64.333333
 30
0.0
 11
10.333333
 21
298.333315
 31
0.0
  0
TEXT
  8
0
  6
CONTINUOUS
 62
     4
 10
307.249949538
 20
84.999994744
 30
0.99999979
 40
9.999997897
  1
Ｎ０．
 50
0.0
 41
0.6
 51
0.0
  7
KANJI13
  0
TEXT
  8
0
  6
CONTINUOUS
 62
     4
 10
307.249949538
 20
69.999997897
 30
1.199999748
 40
11.999997477
  1
項番
 50
0.0
 41
0.9
 51
0.0
  7
KANJI14
  0
LINE
  8
0
  6
CONTINUOUS
 62
     6
 10
397.249930615
 20
64.999998949
 30
0.0
 11
397.249930615
 21
134.999984231
 31
0.0
  0
LINE
  8
0
  6
CONTINUOUS
 62
     6
 10
297.249951641
 20
64.999998949
 30
0.0
 11
297.249951641
 21
134.999984231
 31
0.0
  0
LINE
  8
0
  6
CONTINUOUS
 62
     1
 10
848.25
 20
1242.95
 30
0.0
 11
1496.25
 21
1242.95
 31
0.0
  0
LINE
  8
0
  6
CONTINUOUS
 62
     1
 10
848.25
 20
1214.95
 30
0.0
 11
1496.25
 21
1214.95
 31
0.0
  0
LINE
  8
0
  6
CONTINUOUS
 62
     2
 10
848.25
 20
1186.95
 30
0.0
 11
1496.25
 21
1186.95
 31
0.0
  0
LINE
  8
0
  6
CONTINUOUS
 62
     2
 10
848.25
 20
1158.95
 30
0.0
 11
1496.25
 21
1158.95
 31
0.0
  0
LINE
  8
0
  6
CONTINUOUS
 62
     2
 10
848.25
 20
1130.95
 30
0.0
 11
1496.25
 21
1130.95
 31
0.0
  0
TEXT
  8
0
  6
CONTINUOUS
 62
     2
 10
888.25
 20
1222.95
 30
1.28
 40
12.8
  1
形
 50
0.0
 41
0.9
 51
0.0
  7
KANJI17
  0
TEXT
  8
0
  6
CONTINUOUS
 62
     2
 10
966.25
 20
1222.95
 30
1.28
 40
12.8
  1
式
 50
0.0
 41
0.9
 51
0.0
  7
KANJI17
  0
TEXT
  8
0
  6
CONTINUOUS
 62
     2
 10
1026.65
 20
1222.15
 30
1.2
 40
12.0
  1
ストローク
 50
0.0
 41
0.9
 51
0.0
  7
KANJI18
  0
TEXT
  8
0
  6
CONTINUOUS
 62
     2
 10
1103.45
 20
1221.35
 30
0.0
 40
12.0
  1
ｍｉｎ　
 50
0.0
 41
0.9
 51
0.0
  7
KANJI19
  0
TEXT
  8
0
  6
CONTINUOUS
 62
     2
 10
1183.45
 20
1221.35
 30
0.0
 40
12.0
  1
ｍｉｎ　
 50
0.0
 41
0.9
 51
0.0
  7
KANJI19
  0
TEXT
  8
0
  6
CONTINUOUS
 62
     2
 10
1343.45
 20
1221.35
 30
0.0
 40
12.0
  1
ｍｉｎ　
 50
0.0
 41
0.9
 51
0.0
  7
KANJI19
  0
TEXT
  8
0
  6
CONTINUOUS
 62
     2
 10
1144.25
 20
1222.15
 30
1.4
 40
14.0
  1
ＡＬ
 50
0.0
 41
0.9
 51
0.0
  7
KANJI20
  0
TEXT
  8
0
  6
CONTINUOUS
 62
     2
 10
1224.25
 20
1222.15
 30
1.4
 40
14.0
  1
Ｌ
 50
0.0
 41
0.9
 51
0.0
  7
KANJI20
  0
TEXT
  8
0
  6
CONTINUOUS
 62
     2
 10
1292.25
 20
1222.15
 30
1.4
 40
14.0
  1
Ｃ
 50
0.0
 41
0.9
 51
0.0
  7
KANJI20
  0
TEXT
  8
0
  6
CONTINUOUS
 62
     2
 10
1384.25
 20
1222.15
 30
1.4
 40
14.0
  1
Ｐ
 50
0.0
 41
0.9
 51
0.0
  7
KANJI20
  0
TEXT
  8
0
  6
CONTINUOUS
 62
     2
 10
1466.55
 20
1221.85
 30
0.0
 40
10.8
  1
（ｋｇ）
 50
0.0
 41
0.740740741
 51
0.0
  7
KANJI21
  0
TEXT
  8
0
  6
CONTINUOUS
 62
     2
 10
1418.55
 20
1221.65
 30
1.2
 40
14.0
  1
概算重量
 50
0.0
 41
0.857142857
 51
0.0
  7
KANJI22
  0
TEXT
  8
0
  6
CONTINUOUS
 62
     2
 10
1034.25
 20
1193.65
 30
1.2
 40
12.0
  1
　１００
 50
0.0
 41
0.9
 51
0.0
  7
KANJI18
  0
TEXT
  8
0
  6
CONTINUOUS
 62
     2
 10
1034.25
 20
1165.65
 30
1.2
 40
12.0
  1
　２００
 50
0.0
 41
0.9
 51
0.0
  7
KANJI18
  0
TEXT
  8
0
  6
CONTINUOUS
 62
     2
 10
1034.25
 20
1137.65
 30
1.2
 40
12.0
  1
　３００
 50
0.0
 41
0.9
 51
0.0
  7
KANJI18
  0
TEXT
  8
0
  6
CONTINUOUS
 62
     2
 10
1354.25
 20
1137.65
 30
1.2
 40
12.0
  1
　　３５
 50
0.0
 41
0.9
 51
0.0
  7
KANJI18
  0
TEXT
  8
0
  6
CONTINUOUS
 62
     2
 10
1354.25
 20
1165.65
 30
1.2
 40
12.0
  1
　　３５
 50
0.0
 41
0.9
 51
0.0
  7
KANJI18
  0
TEXT
  8
0
  6
CONTINUOUS
 62
     2
 10
1354.25
 20
1193.65
 30
1.2
 40
12.0
  1
　　３５
 50
0.0
 41
0.9
 51
0.0
  7
KANJI18
  0
TEXT
  8
0
  6
CONTINUOUS
 62
     2
 10
1034.25
 20
1025.65
 30
1.2
 40
12.0
  1
　７００
 50
0.0
 41
0.9
 51
0.0
  7
KANJI18
  0
LINE
  8
0
  6
CONTINUOUS
 62
     2
 10
848.25
 20
1074.95
 30
0.0
 11
1496.25
 21
1074.95
 31
0.0
  0
LINE
  8
0
  6
CONTINUOUS
 62
     2
 10
848.25
 20
1102.95
 30
0.0
 11
1496.25
 21
1102.95
 31
0.0
  0
LINE
  8
0
  6
CONTINUOUS
 62
     2
 10
848.25
 20
1018.95
 30
0.0
 11
1496.25
 21
1018.95
 31
0.0
  0
LINE
  8
0
  6
CONTINUOUS
 62
     2
 10
848.25
 20
1046.95
 30
0.0
 11
1496.25
 21
1046.95
 31
0.0
  0
TEXT
  8
0
  6
CONTINUOUS
 62
     2
 10
1034.25
 20
1081.65
 30
1.2
 40
12.0
  1
　５００
 50
0.0
 41
0.9
 51
0.0
  7
KANJI18
  0
TEXT
  8
0
  6
CONTINUOUS
 62
     2
 10
1034.25
 20
1109.65
 30
1.2
 40
12.0
  1
　４００
 50
0.0
 41
0.9
 51
0.0
  7
KANJI18
  0
TEXT
  8
0
  6
CONTINUOUS
 62
     2
 10
1034.25
 20
1053.65
 30
1.2
 40
12.0
  1
　６００
 50
0.0
 41
0.9
 51
0.0
  7
KANJI18
  0
TEXT
  8
0
  6
CONTINUOUS
 62
     2
 10
1274.25
 20
1193.65
 30
1.2
 40
12.0
  1
　１９８
 50
0.0
 41
0.9
 51
0.0
  7
KANJI18
  0
TEXT
  8
0
  6
CONTINUOUS
 62
     2
 10
1274.25
 20
1165.65
 30
1.2
 40
12.0
  1
　２９８
 50
0.0
 41
0.9
 51
0.0
  7
KANJI18
  0
TEXT
  8
0
  6
CONTINUOUS
 62
     2
 10
1274.25
 20
1137.65
 30
1.2
 40
12.0
  1
　３９８
 50
0.0
 41
0.9
 51
0.0
  7
KANJI18
  0
TEXT
  8
0
  6
CONTINUOUS
 62
     2
 10
1274.25
 20
1109.65
 30
1.2
 40
12.0
  1
　４９８
 50
0.0
 41
0.9
 51
0.0
  7
KANJI18
  0
TEXT
  8
0
  6
CONTINUOUS
 62
     2
 10
1274.25
 20
1081.65
 30
1.2
 40
12.0
  1
　５９８
 50
0.0
 41
0.9
 51
0.0
  7
KANJI18
  0
TEXT
  8
0
  6
CONTINUOUS
 62
     2
 10
1274.25
 20
1053.65
 30
1.2
 40
12.0
  1
　７３８
 50
0.0
 41
0.9
 51
0.0
  7
KANJI18
  0
TEXT
  8
0
  6
CONTINUOUS
 62
     2
 10
1274.25
 20
1025.65
 30
1.2
 40
12.0
  1
　８３８
 50
0.0
 41
0.9
 51
0.0
  7
KANJI18
  0
TEXT
  8
0
  6
CONTINUOUS
 62
     2
 10
1194.25
 20
1193.65
 30
1.2
 40
12.0
  1
　２６８
 50
0.0
 41
0.9
 51
0.0
  7
KANJI18
  0
TEXT
  8
0
  6
CONTINUOUS
 62
     2
 10
1194.25
 20
1165.65
 30
1.2
 40
12.0
  1
　３６８
 50
0.0
 41
0.9
 51
0.0
  7
KANJI18
  0
TEXT
  8
0
  6
CONTINUOUS
 62
     2
 10
1194.25
 20
1137.65
 30
1.2
 40
12.0
  1
　４６８
 50
0.0
 41
0.9
 51
0.0
  7
KANJI18
  0
TEXT
  8
0
  6
CONTINUOUS
 62
     2
 10
1354.25
 20
1109.65
 30
1.2
 40
12.0
  1
　　８５
 50
0.0
 41
0.9
 51
0.0
  7
KANJI18
  0
TEXT
  8
0
  6
CONTINUOUS
 62
     2
 10
1354.25
 20
1081.65
 30
1.2
 40
12.0
  1
　１１２
 50
0.0
 41
0.9
 51
0.0
  7
KANJI18
  0
TEXT
  8
0
  6
CONTINUOUS
 62
     2
 10
1354.25
 20
1053.65
 30
1.2
 40
12.0
  1
　１２８
 50
0.0
 41
0.9
 51
0.0
  7
KANJI18
  0
TEXT
  8
0
  6
CONTINUOUS
 62
     2
 10
1354.25
 20
1025.65
 30
1.2
 40
12.0
  1
　１４８
 50
0.0
 41
0.9
 51
0.0
  7
KANJI18
  0
TEXT
  8
0
  6
CONTINUOUS
 62
     2
 10
1194.25
 20
1109.65
 30
1.2
 40
12.0
  1
　６１８
 50
0.0
 41
0.9
 51
0.0
  7
KANJI18
  0
TEXT
  8
0
  6
CONTINUOUS
 62
     2
 10
1194.25
 20
1081.65
 30
1.2
 40
12.0
  1
　７４５
 50
0.0
 41
0.9
 51
0.0
  7
KANJI18
  0
TEXT
  8
0
  6
CONTINUOUS
 62
     2
 10
1194.25
 20
1053.65
 30
1.2
 40
12.0
  1
　９０１
 50
0.0
 41
0.9
 51
0.0
  7
KANJI18
  0
TEXT
  8
0
  6
CONTINUOUS
 62
     2
 10
1194.25
 20
1025.65
 30
1.2
 40
12.0
  1
１０２１
 50
0.0
 41
0.9
 51
0.0
  7
KANJI18
  0
TEXT
  8
0
  6
CONTINUOUS
 62
     2
 10
124.75
 20
27.5
 30
1.5
 40
15.0
  1
ＦＤ　Ｎｏ．ＭＣ１８６
 50
0.0
 41
1.0
 51
0.0
  7
KANJI23
  0
TEXT
  8
0
  6
CONTINUOUS
 62
     2
 10
1114.25
 20
1193.65
 30
1.2
 40
12.0
  1
　５７１
 50
0.0
 41
0.9
 51
0.0
  7
KANJI18
  0
TEXT
  8
0
  6
CONTINUOUS
 62
     2
 10
1114.25
 20
1165.65
 30
1.2
 40
12.0
  1
　６７１
 50
0.0
 41
0.9
 51
0.0
  7
KANJI18
  0
TEXT
  8
0
  6
CONTINUOUS
 62
     2
 10
1114.25
 20
1137.65
 30
1.2
 40
12.0
  1
　７７１
 50
0.0
 41
0.9
 51
0.0
  7
KANJI18
  0
TEXT
  8
0
  6
CONTINUOUS
 62
     2
 10
1114.25
 20
1109.65
 30
1.2
 40
12.0
  1
　９２１
 50
0.0
 41
0.9
 51
0.0
  7
KANJI18
  0
TEXT
  8
0
  6
CONTINUOUS
 62
     2
 10
1114.25
 20
1081.65
 30
1.2
 40
12.0
  1
１０４８
 50
0.0
 41
0.9
 51
0.0
  7
KANJI18
  0
TEXT
  8
0
  6
CONTINUOUS
 62
     2
 10
1114.25
 20
1053.65
 30
1.2
 40
12.0
  1
１２０４
 50
0.0
 41
0.9
 51
0.0
  7
KANJI18
  0
TEXT
  8
0
  6
CONTINUOUS
 62
     2
 10
1114.25
 20
1025.65
 30
1.2
 40
12.0
  1
１３２４
 50
0.0
 41
0.9
 51
0.0
  7
KANJI18
  0
LINE
  8
0
  6
CONTINUOUS
 62
     1
 10
1272.625
 20
1396.0
 30
0.0
 11
1272.625
 21
1295.9
 31
0.0
  0
LINE
  8
0
  6
CONTINUOUS
 62
     2
 10
1214.875
 20
1396.0
 30
0.0
 11
1214.875
 21
1295.9
 31
0.0
  0
LINE
  8
0
  6
CONTINUOUS
 62
     2
 10
1157.125
 20
1396.0
 30
0.0
 11
1157.125
 21
1295.9
 31
0.0
  0
LINE
  8
0
  6
CONTINUOUS
 62
     1
 10
1080.125
 20
1396.0
 30
0.0
 11
1080.125
 21
1295.9
 31
0.0
  0
LINE
  8
0
  6
CONTINUOUS
 62
     1
 10
1080.125
 20
1396.0
 30
0.0
 11
1272.625
 21
1396.0
 31
0.0
  0
LINE
  8
0
  6
CONTINUOUS
 62
     1
 10
1080.125
 20
1365.2
 30
0.0
 11
1272.625
 21
1365.2
 31
0.0
  0
LINE
  8
0
  6
CONTINUOUS
 62
     2
 10
1080.125
 20
1342.1
 30
0.0
 11
1272.625
 21
1342.1
 31
0.0
  0
LINE
  8
0
  6
CONTINUOUS
 62
     2
 10
1080.125
 20
1319.0
 30
0.0
 11
1272.625
 21
1319.0
 31
0.0
  0
LINE
  8
0
  6
CONTINUOUS
 62
     1
 10
1080.125
 20
1295.9
 30
0.0
 11
1272.625
 21
1295.9
 31
0.0
  0
TEXT
  8
0
  6
CONTINUOUS
 62
     2
 10
1222.575
 20
1382.525
 30
1.155
 40
11.55
  1
起動電流
 50
0.0
 41
0.9
 51
0.0
  7
KANJI24
  0
TEXT
  8
0
  6
CONTINUOUS
 62
     2
 10
1222.575
 20
1369.05
 30
1.155
 40
11.55
  1
　　　Ａ
 50
0.0
 41
0.9
 51
0.0
  7
KANJI24
  0
TEXT
  8
0
  6
CONTINUOUS
 62
     2
 10
1164.825
 20
1382.525
 30
1.155
 40
11.55
  1
定格電流
 50
0.0
 41
0.9
 51
0.0
  7
KANJI24
  0
TEXT
  8
0
  6
CONTINUOUS
 62
     2
 10
1164.825
 20
1369.05
 30
1.155
 40
11.55
  1
　　　Ａ
 50
0.0
 41
0.9
 51
0.0
  7
KANJI24
  0
TEXT
  8
0
  6
CONTINUOUS
 62
     2
 10
1086.67
 20
1324.775
 30
1.155
 40
11.55
  1
２００／６０
 50
0.0
 41
0.9
 51
0.0
  7
KANJI24
  0
TEXT
  8
0
  6
CONTINUOUS
 62
     2
 10
1086.67
 20
1382.525
 30
1.155
 40
11.55
  1
電圧／周波数
 50
0.0
 41
0.9
 51
0.0
  7
KANJI24
  0
TEXT
  8
0
  6
CONTINUOUS
 62
     2
 10
1086.67
 20
1369.05
 30
1.155
 40
11.55
  1
　Ｖ／Ｈｚ
 50
0.0
 41
0.9
 51
0.0
  7
KANJI24
  0
TEXT
  8
0
  6
CONTINUOUS
 62
     2
 10
1086.67
 20
1347.875
 30
1.155
 40
11.55
  1
２００／５０
 50
0.0
 41
0.9
 51
0.0
  7
KANJI24
  0
TEXT
  8
0
  6
CONTINUOUS
 62
     2
 10
1086.67
 20
1301.675
 30
1.155
 40
11.55
  1
２２０／６０
 50
0.0
 41
0.9
 51
0.0
  7
KANJI24
  0
LINE
  8
0
  6
CONTINUOUS
 62
     1
 10
1041.625
 20
1396.0
 30
0.0
 11
1041.625
 21
1295.9
 31
0.0
  0
LINE
  8
0
  6
CONTINUOUS
 62
     2
 10
983.875
 20
1396.0
 30
0.0
 11
983.875
 21
1295.9
 31
0.0
  0
LINE
  8
0
  6
CONTINUOUS
 62
     2
 10
926.125
 20
1396.0
 30
0.0
 11
926.125
 21
1295.9
 31
0.0
  0
LINE
  8
0
  6
CONTINUOUS
 62
     1
 10
849.125
 20
1396.0
 30
0.0
 11
849.125
 21
1295.9
 31
0.0
  0
LINE
  8
0
  6
CONTINUOUS
 62
     1
 10
849.125
 20
1396.0
 30
0.0
 11
1041.625
 21
1396.0
 31
0.0
  0
LINE
  8
0
  6
CONTINUOUS
 62
     1
 10
849.125
 20
1365.2
 30
0.0
 11
1041.625
 21
1365.2
 31
0.0
  0
LINE
  8
0
  6
CONTINUOUS
 62
     2
 10
849.125
 20
1342.1
 30
0.0
 11
1041.625
 21
1342.1
 31
0.0
  0
LINE
  8
0
  6
CONTINUOUS
 62
     2
 10
849.125
 20
1319.0
 30
0.0
 11
1041.625
 21
1319.0
 31
0.0
  0
LINE
  8
0
  6
CONTINUOUS
 62
     1
 10
849.125
 20
1295.9
 30
0.0
 11
1041.625
 21
1295.9
 31
0.0
  0
TEXT
  8
0
  6
CONTINUOUS
 62
     2
 10
991.575
 20
1382.525
 30
1.155
 40
11.55
  1
起動電流
 50
0.0
 41
0.9
 51
0.0
  7
KANJI24
  0
TEXT
  8
0
  6
CONTINUOUS
 62
     2
 10
991.575
 20
1369.05
 30
1.155
 40
11.55
  1
　　　Ａ
 50
0.0
 41
0.9
 51
0.0
  7
KANJI24
  0
TEXT
  8
0
  6
CONTINUOUS
 62
     2
 10
933.825
 20
1382.525
 30
1.155
 40
11.55
  1
定格電流
 50
0.0
 41
0.9
 51
0.0
  7
KANJI24
  0
TEXT
  8
0
  6
CONTINUOUS
 62
     2
 10
933.825
 20
1369.05
 30
1.155
 40
11.55
  1
　　　Ａ
 50
0.0
 41
0.9
 51
0.0
  7
KANJI24
  0
TEXT
  8
0
  6
CONTINUOUS
 62
     2
 10
855.67
 20
1382.525
 30
1.155
 40
11.55
  1
電圧／周波数
 50
0.0
 41
0.9
 51
0.0
  7
KANJI24
  0
TEXT
  8
0
  6
CONTINUOUS
 62
     2
 10
855.67
 20
1369.05
 30
1.155
 40
11.55
  1
　Ｖ／Ｈｚ
 50
0.0
 41
0.9
 51
0.0
  7
KANJI24
  0
TEXT
  8
0
  6
CONTINUOUS
 62
     2
 10
855.67
 20
1347.875
 30
1.155
 40
11.55
  1
４００／５０
 50
0.0
 41
0.9
 51
0.0
  7
KANJI24
  0
TEXT
  8
0
  6
CONTINUOUS
 62
     2
 10
855.67
 20
1324.775
 30
1.155
 40
11.55
  1
４００／６０
 50
0.0
 41
0.9
 51
0.0
  7
KANJI24
  0
TEXT
  8
0
  6
CONTINUOUS
 62
     2
 10
855.67
 20
1301.675
 30
1.155
 40
11.55
  1
４４０／６０
 50
0.0
 41
0.9
 51
0.0
  7
KANJI24
  0
LINE
  8
0
  6
CONTINUOUS
 62
     2
 10
874.7275
 20
1274.725
 30
0.0
 11
1236.6275
 21
1274.725
 31
0.0
  0
TEXT
  8
0
  6
CONTINUOUS
 62
     2
 10
933.825
 20
1347.875
 30
1.155
 40
11.55
  1
　２．０
 50
0.0
 41
0.9
 51
0.0
  7
KANJI24
  0
TEXT
  8
0
  6
CONTINUOUS
 62
     2
 10
933.825
 20
1324.775
 30
1.155
 40
11.55
  1
　１．４
 50
0.0
 41
0.9
 51
0.0
  7
KANJI24
  0
TEXT
  8
0
  6
CONTINUOUS
 62
     2
 10
933.825
 20
1301.675
 30
1.155
 40
11.55
  1
　１．７
 50
0.0
 41
0.9
 51
0.0
  7
KANJI24
  0
TEXT
  8
0
  6
CONTINUOUS
 62
     2
 10
1164.825
 20
1347.875
 30
1.155
 40
11.55
  1
　４．０
 50
0.0
 41
0.9
 51
0.0
  7
KANJI24
  0
TEXT
  8
0
  6
CONTINUOUS
 62
     2
 10
1164.825
 20
1324.775
 30
1.155
 40
11.55
  1
　２．８
 50
0.0
 41
0.9
 51
0.0
  7
KANJI24
  0
TEXT
  8
0
  6
CONTINUOUS
 62
     2
 10
1164.825
 20
1301.675
 30
1.155
 40
11.55
  1
　３．３
 50
0.0
 41
0.9
 51
0.0
  7
KANJI24
  0
TEXT
  8
0
  6
CONTINUOUS
 62
     2
 10
1222.575
 20
1347.875
 30
1.155
 40
11.55
  1
　９．２
 50
0.0
 41
0.9
 51
0.0
  7
KANJI24
  0
TEXT
  8
0
  6
CONTINUOUS
 62
     2
 10
1222.575
 20
1324.775
 30
1.155
 40
11.55
  1
　８
 50
0.0
 41
0.9
 51
0.0
  7
KANJI24
  0
TEXT
  8
0
  6
CONTINUOUS
 62
     2
 10
1222.575
 20
1301.675
 30
1.155
 40
11.55
  1
　８．８
 50
0.0
 41
0.9
 51
0.0
  7
KANJI24
  0
TEXT
  8
0
  6
CONTINUOUS
 62
     2
 10
991.575
 20
1347.875
 30
1.155
 40
11.55
  1
　４．６
 50
0.0
 41
0.9
 51
0.0
  7
KANJI24
  0
TEXT
  8
0
  6
CONTINUOUS
 62
     2
 10
991.575
 20
1324.775
 30
1.155
 40
11.55
  1
　４
 50
0.0
 41
0.9
 51
0.0
  7
KANJI24
  0
TEXT
  8
0
  6
CONTINUOUS
 62
     2
 10
991.575
 20
1301.675
 30
1.155
 40
11.55
  1
　４．４
 50
0.0
 41
0.9
 51
0.0
  7
KANJI24
  0
TEXT
  8
0
  6
CONTINUOUS
 62
     2
 10
861.25
 20
1193.35
 30
0.8
 40
12.0
  1
ＭＣＳＤＢＢ０３－　　１Ｊ
 50
0.0
 41
0.833333333
 51
0.0
  7
KANJI25
  0
TEXT
  8
0
  6
CONTINUOUS
 62
     2
 10
861.25
 20
1165.35
 30
0.8
 40
12.0
  1
ＭＣＳＤＢＢ０３－　　２Ｊ
 50
0.0
 41
0.833333333
 51
0.0
  7
KANJI25
  0
TEXT
  8
0
  6
CONTINUOUS
 62
     2
 10
861.25
 20
1137.35
 30
0.8
 40
12.0
  1
ＭＣＳＤＢＢ０３－　　３Ｊ
 50
0.0
 41
0.833333333
 51
0.0
  7
KANJI25
  0
TEXT
  8
0
  6
CONTINUOUS
 62
     2
 10
861.25
 20
1109.35
 30
0.8
 40
12.0
  1
ＭＣＳＤＢＢ０３－　　４Ｊ
 50
0.0
 41
0.833333333
 51
0.0
  7
KANJI25
  0
TEXT
  8
0
  6
CONTINUOUS
 62
     2
 10
861.25
 20
1081.35
 30
0.8
 40
12.0
  1
ＭＣＳＤＢＢ０３－　　５Ｊ
 50
0.0
 41
0.833333333
 51
0.0
  7
KANJI25
  0
TEXT
  8
0
  6
CONTINUOUS
 62
     2
 10
861.25
 20
1053.35
 30
0.8
 40
12.0
  1
ＭＣＳＤＢＢ０３－　　６Ｊ
 50
0.0
 41
0.833333333
 51
0.0
  7
KANJI25
  0
TEXT
  8
0
  6
CONTINUOUS
 62
     2
 10
861.25
 20
1025.35
 30
0.8
 40
12.0
  1
ＭＣＳＤＢＢ０３－　　７Ｊ
 50
0.0
 41
0.833333333
 51
0.0
  7
KANJI25
  0
LINE
  8
0
  6
CONTINUOUS
 62
     1
 10
451.75
 20
626.5
 30
0.0
 11
452.75
 21
626.5
 31
0.0
  0
CIRCLE
  8
0
  6
CONTINUOUS
 62
     1
 10
559.75
 20
621.5
 30
0.0
 40
8.0
  0
LINE
  8
0
  6
CONTINUOUS
 62
     1
 10
600.75
 20
620.3
 30
0.0
 11
608.75
 21
620.3
 31
0.0
  0
LINE
  8
0
  6
CONTINUOUS
 62
     1
 10
600.75
 20
623.3
 30
0.0
 11
608.75
 21
623.3
 31
0.0
  0
LINE
  8
0
  6
CONTINUOUS
 62
     1
 10
600.75
 20
658.8
 30
0.0
 11
608.75
 21
658.8
 31
0.0
  0
LINE
  8
0
  6
CONTINUOUS
 62
     1
 10
608.75
 20
581.8
 30
0.0
 11
608.75
 21
661.8
 31
0.0
  0
LINE
  8
0
  6
CONTINUOUS
 62
     1
 10
600.75
 20
584.8
 30
0.0
 11
608.75
 21
584.8
 31
0.0
  0
LINE
  8
0
  6
CONTINUOUS
 62
     1
 10
600.75
 20
581.8
 30
0.0
 11
608.75
 21
581.8
 31
0.0
  0
LINE
  8
0
  6
CONTINUOUS
 62
     1
 10
600.75
 20
661.8
 30
0.0
 11
608.75
 21
661.8
 31
0.0
  0
LINE
  8
0
  6
CONTINUOUS
 62
     1
 10
600.75
 20
581.8
 30
0.0
 11
600.75
 21
661.8
 31
0.0
  0
LINE
  8
0
  6
LTYPE2
 62
     2
 10
559.75
 20
565.895571327
 30
0.0
 11
559.75
 21
669.795571327
 31
0.0
  0
LINE
  8
0
  6
CONTINUOUS
 62
     1
 10
943.85
 20
601.3
 30
0.0
 11
993.85
 21
601.3
 31
0.0
  0
LINE
  8
0
  6
CONTINUOUS
 62
     1
 10
996.85
 20
604.3
 30
0.0
 11
996.85
 21
621.3
 31
0.0
  0
LINE
  8
0
  6
CONTINUOUS
 62
     1
 10
993.85
 20
601.3
 30
0.0
 11
996.85
 21
604.3
 31
0.0
  0
LINE
  8
0
  6
CONTINUOUS
 62
     1
 10
943.85
 20
641.3
 30
0.0
 11
993.85
 21
641.3
 31
0.0
  0
LINE
  8
0
  6
CONTINUOUS
 62
     1
 10
996.85
 20
638.3
 30
0.0
 11
996.85
 21
621.3
 31
0.0
  0
LINE
  8
0
  6
CONTINUOUS
 62
     1
 10
993.85
 20
641.3
 30
0.0
 11
996.85
 21
638.3
 31
0.0
  0
CIRCLE
  8
0
  6
CONTINUOUS
 62
     1
 10
978.85
 20
621.3
 30
0.0
 40
8.0
  0
LINE
  8
0
  6
LTYPE1
 62
     1
 10
953.85
 20
601.3
 30
0.0
 11
953.85
 21
621.3
 31
0.0
  0
LINE
  8
0
  6
LTYPE1
 62
     1
 10
953.85
 20
641.3
 30
0.0
 11
953.85
 21
621.3
 31
0.0
  0
POINT
  8
0
  6
CONTINUOUS
 62
     1
 10
810.489501379
 20
621.3
 30
0.0
  0
LINE
  8
0
  6
CONTINUOUS
 62
     1
 10
692.25
 20
634.0
 30
0.0
 11
717.25
 21
634.0
 31
0.0
  0
LINE
  8
0
  6
CONTINUOUS
 62
     1
 10
717.25
 20
609.0
 30
0.0
 11
717.25
 21
634.0
 31
0.0
  0
LINE
  8
0
  6
CONTINUOUS
 62
     1
 10
692.25
 20
609.0
 30
0.0
 11
692.25
 21
634.0
 31
0.0
  0
CIRCLE
  8
0
  6
CONTINUOUS
 62
     1
 10
704.75
 20
621.5
 30
0.0
 40
12.5
  0
LINE
  8
0
  6
LTYPE3
 62
     2
 10
704.75
 20
640.2
 30
0.0
 11
704.75
 21
600.5
 31
0.0
  0
LINE
  8
0
  6
CONTINUOUS
 62
     1
 10
692.25
 20
609.0
 30
0.0
 11
717.25
 21
609.0
 31
0.0
  0
LINE
  8
0
  6
LTYPE4
 62
     2
 10
731.099814745
 20
584.5
 30
0.0
 11
731.099814745
 21
655.95
 31
0.0
  0
LINE
  8
0
  6
LTYPE4
 62
     2
 10
734.099814745
 20
584.5
 30
0.0
 11
734.099814745
 21
655.95
 31
0.0
  0
LINE
  8
2
  6
CONTINUOUS
 62
     2
 10
704.75
 20
621.5
 30
0.0
 11
698.591754421
 21
613.621166877
 31
0.0
  0
LINE
  8
2
  6
CONTINUOUS
 62
     2
 10
704.75
 20
621.5
 30
0.0
 11
703.356219447
 21
611.597607573
 31
0.0
  0
LINE
  8
2
  6
CONTINUOUS
 62
     2
 10
704.75
 20
621.5
 30
0.0
 11
666.95
 21
532.5
 31
0.0
  0
LINE
  8
2
  6
CONTINUOUS
 62
     2
 10
559.75
 20
622.3
 30
0.0
 11
567.580111779
 21
628.520076328
 31
0.0
  0
LINE
  8
2
  6
CONTINUOUS
 62
     2
 10
559.75
 20
622.3
 30
0.0
 11
563.421037551
 21
631.601800003
 31
0.0
  0
LINE
  8
2
  6
CONTINUOUS
 62
     2
 10
559.75
 20
622.3
 30
0.0
 11
621.25
 21
705.3
 31
0.0
  0
LINE
  8
0
  6
CONTINUOUS
 62
     2
 10
667.35
 20
589.75
 30
0.0
 11
667.35
 21
653.25
 31
0.0
  0
LINE
  8
0
  6
CONTINUOUS
 62
     2
 10
667.35
 20
653.25
 30
0.0
 11
664.761809549
 21
643.590741737
 31
0.0
  0
LINE
  8
0
  6
CONTINUOUS
 62
     2
 10
667.35
 20
653.25
 30
0.0
 11
669.938190451
 21
643.590741737
 31
0.0
  0
LINE
  8
0
  6
CONTINUOUS
 62
     2
 10
667.35
 20
589.75
 30
0.0
 11
669.938190451
 21
599.409258263
 31
0.0
  0
LINE
  8
0
  6
CONTINUOUS
 62
     2
 10
667.35
 20
589.75
 30
0.0
 11
664.761809549
 21
599.409258263
 31
0.0
  0
LINE
  8
0
  6
LTYPE2
 62
     2
 10
978.85
 20
583.3
 30
0.0
 11
978.85
 21
659.3
 31
0.0
  0
LINE
  8
0
  6
LTYPE3
 62
     2
 10
978.85
 20
297.8
 30
0.0
 11
978.85
 21
583.3
 31
0.0
  0
LINE
  8
2
  6
CONTINUOUS
 62
     2
 10
978.85
 20
829.7
 30
0.0
 11
969.190741737
 21
832.288190451
 31
0.0
  0
LINE
  8
2
  6
CONTINUOUS
 62
     2
 10
978.85
 20
829.7
 30
0.0
 11
969.190741737
 21
827.111809549
 31
0.0
  0
LINE
  8
2
  6
CONTINUOUS
 62
     2
 10
559.75
 20
662.5
 30
0.0
 11
559.75
 21
807.2
 31
0.0
  0
LINE
  8
2
  6
CONTINUOUS
 62
     2
 10
559.75
 20
799.2
 30
0.0
 11
569.409258263
 21
796.611809549
 31
0.0
  0
LINE
  8
2
  6
CONTINUOUS
 62
     2
 10
559.75
 20
799.2
 30
0.0
 11
569.409258263
 21
801.788190451
 31
0.0
  0
LINE
  8
2
  6
CONTINUOUS
 62
     2
 10
559.75
 20
799.2
 30
0.0
 11
978.85
 21
799.2
 31
0.0
  0
LINE
  8
2
  6
CONTINUOUS
 62
     2
 10
978.85
 20
799.2
 30
0.0
 11
969.190741737
 21
801.788190451
 31
0.0
  0
LINE
  8
2
  6
CONTINUOUS
 62
     2
 10
978.85
 20
799.2
 30
0.0
 11
969.190741737
 21
796.611809549
 31
0.0
  0
LINE
  8
2
  6
CONTINUOUS
 62
     2
 10
978.85
 20
825.7
 30
0.0
 11
978.85
 21
791.2
 31
0.0
  0
LINE
  8
2
  6
CONTINUOUS
 62
     2
 10
559.75
 20
795.2
 30
0.0
 11
559.75
 21
759.0
 31
0.0
  0
LINE
  8
2
  6
CONTINUOUS
 62
     2
 10
559.75
 20
767.0
 30
0.0
 11
569.409258263
 21
764.411809549
 31
0.0
  0
LINE
  8
2
  6
CONTINUOUS
 62
     2
 10
559.75
 20
767.0
 30
0.0
 11
569.409258263
 21
769.588190451
 31
0.0
  0
LINE
  8
2
  6
CONTINUOUS
 62
     2
 10
943.85
 20
767.0
 30
0.0
 11
934.190741737
 21
769.588190451
 31
0.0
  0
LINE
  8
2
  6
CONTINUOUS
 62
     2
 10
943.85
 20
767.0
 30
0.0
 11
934.190741737
 21
764.411809549
 31
0.0
  0
LINE
  8
2
  6
CONTINUOUS
 62
     2
 10
943.85
 20
655.3
 30
0.0
 11
943.85
 21
775.0
 31
0.0
  0
LINE
  8
2
  6
CONTINUOUS
 62
     2
 10
943.85
 20
767.0
 30
0.0
 11
953.509258263
 21
764.411809549
 31
0.0
  0
LINE
  8
2
  6
CONTINUOUS
 62
     2
 10
943.85
 20
767.0
 30
0.0
 11
953.509258263
 21
769.588190451
 31
0.0
  0
LINE
  8
2
  6
CONTINUOUS
 62
     2
 10
943.85
 20
767.0
 30
0.0
 11
978.85
 21
767.0
 31
0.0
  0
LINE
  8
2
  6
CONTINUOUS
 62
     2
 10
978.85
 20
767.0
 30
0.0
 11
969.190741737
 21
769.588190451
 31
0.0
  0
LINE
  8
2
  6
CONTINUOUS
 62
     2
 10
978.85
 20
767.0
 30
0.0
 11
969.190741737
 21
764.411809549
 31
0.0
  0
LINE
  8
2
  6
CONTINUOUS
 62
     2
 10
978.85
 20
795.2
 30
0.0
 11
978.85
 21
759.0
 31
0.0
  0
LINE
  8
2
  6
CONTINUOUS
 62
     2
 10
996.85
 20
829.7
 30
0.0
 11
1006.509258263
 21
832.288190451
 31
0.0
  0
LINE
  8
2
  6
CONTINUOUS
 62
     2
 10
996.85
 20
829.7
 30
0.0
 11
1006.509258263
 21
827.111809549
 31
0.0
  0
LINE
  8
0
  6
CONTINUOUS
 62
     1
 10
608.75
 20
653.25
 30
0.0
 11
731.099814745
 21
653.25
 31
0.0
  0
LINE
  8
0
  6
CONTINUOUS
 62
     1
 10
608.75
 20
589.75
 30
0.0
 11
731.099814745
 21
589.75
 31
0.0
  0
CIRCLE
  8
0
  6
CONTINUOUS
 62
     1
 10
559.75
 20
621.5
 30
0.0
 40
20.0
  0
LINE
  8
0
  6
CONTINUOUS
 62
     1
 10
469.75
 20
628.5
 30
0.0
 11
469.75
 21
508.5
 31
0.0
  0
LINE
  8
0
  6
CONTINUOUS
 62
     1
 10
455.75
 20
568.5
 30
0.0
 11
455.75
 21
625.5
 31
0.0
  0
ARC
  8
0
  6
CONTINUOUS
 62
     1
 10
460.25
 20
627.0
 30
0.0
 40
1.5
 50
270.0
 51
0.0
  0
LINE
  8
0
  6
CONTINUOUS
 62
     1
 10
461.75
 20
627.0
 30
0.0
 11
461.75
 21
628.0
 31
0.0
  0
ARC
  8
0
  6
CONTINUOUS
 62
     1
 10
463.25
 20
628.0
 30
0.0
 40
1.5
 50
90.0
 51
180.0
  0
LINE
  8
0
  6
CONTINUOUS
 62
     1
 10
306.75
 20
568.5
 30
0.0
 11
306.75
 21
625.5
 31
0.0
  0
ARC
  8
0
  6
CONTINUOUS
 62
     1
 10
303.25
 20
624.0
 30
0.0
 40
1.5
 50
90.0
 51
180.0
  0
LINE
  8
0
  6
CONTINUOUS
 62
     1
 10
461.75
 20
568.5
 30
0.0
 11
461.75
 21
627.6
 31
0.0
  0
LINE
  8
0
  6
CONTINUOUS
 62
     1
 10
301.75
 20
611.570524155
 30
0.0
 11
301.75
 21
624.0
 31
0.0
  0
ARC
  8
0
  6
CONTINUOUS
 62
     1
 10
300.25
 20
611.570524155
 30
0.0
 40
1.5
 50
288.970407808
 51
0.0
  0
LINE
  8
0
  6
CONTINUOUS
 62
     1
 10
285.75
 20
568.5
 30
0.0
 11
285.75
 21
603.929475845
 31
0.0
  0
LINE
  8
0
  6
CONTINUOUS
 62
     1
 10
286.762380347
 20
605.348005744
 30
0.0
 11
300.737619653
 21
610.151994256
 31
0.0
  0
ARC
  8
0
  6
CONTINUOUS
 62
     1
 10
287.25
 20
603.929475845
 30
0.0
 40
1.5
 50
108.970407808
 51
180.0
  0
LINE
  8
0
  6
CONTINUOUS
 62
     1
 10
301.75
 20
568.5
 30
0.0
 11
301.75
 21
611.570524155
 31
0.0
  0
ARC
  8
0
  6
CONTINUOUS
 62
     1
 10
273.75
 20
585.0
 30
0.0
 40
1.0
 50
90.0
 51
180.0
  0
LINE
  8
0
  6
CONTINUOUS
 62
     1
 10
273.75
 20
586.0
 30
0.0
 11
285.75
 21
586.0
 31
0.0
  0
LINE
  8
0
  6
CONTINUOUS
 62
     1
 10
272.75
 20
568.5
 30
0.0
 11
272.75
 21
585.0
 31
0.0
  0
LINE
  8
0
  6
CONTINUOUS
 62
     1
 10
455.75
 20
568.5
 30
0.0
 11
455.75
 21
511.5
 31
0.0
  0
ARC
  8
0
  6
CONTINUOUS
 62
     1
 10
460.25
 20
510.0
 30
0.0
 40
1.5
 50
0.0
 51
90.0
  0
LINE
  8
0
  6
CONTINUOUS
 62
     1
 10
461.75
 20
510.0
 30
0.0
 11
461.75
 21
509.0
 31
0.0
  0
ARC
  8
0
  6
CONTINUOUS
 62
     1
 10
463.25
 20
509.0
 30
0.0
 40
1.5
 50
180.0
 51
270.0
  0
LINE
  8
0
  6
CONTINUOUS
 62
     1
 10
306.75
 20
568.5
 30
0.0
 11
306.75
 21
511.5
 31
0.0
  0
LINE
  8
0
  6
CONTINUOUS
 62
     1
 10
303.25
 20
511.5
 30
0.0
 11
460.25
 21
511.5
 31
0.0
  0
ARC
  8
0
  6
CONTINUOUS
 62
     1
 10
303.25
 20
513.0
 30
0.0
 40
1.5
 50
180.0
 51
270.0
  0
LINE
  8
0
  6
CONTINUOUS
 62
     1
 10
461.75
 20
568.5
 30
0.0
 11
461.75
 21
509.4
 31
0.0
  0
LINE
  8
0
  6
CONTINUOUS
 62
     1
 10
285.75
 20
568.5
 30
0.0
 11
285.75
 21
533.070524155
 31
0.0
  0
ARC
  8
0
  6
CONTINUOUS
 62
     1
 10
287.25
 20
533.070524155
 30
0.0
 40
1.5
 50
180.0
 51
251.029592192
  0
ARC
  8
0
  6
CONTINUOUS
 62
     1
 10
273.75
 20
552.0
 30
0.0
 40
1.0
 50
180.0
 51
270.0
  0
LINE
  8
0
  6
CONTINUOUS
 62
     1
 10
273.75
 20
551.0
 30
0.0
 11
285.75
 21
551.0
 31
0.0
  0
LINE
  8
0
  6
CONTINUOUS
 62
     1
 10
272.75
 20
568.5
 30
0.0
 11
272.75
 21
552.0
 31
0.0
  0
LINE
  8
0
  6
LTYPE2
 62
     2
 10
293.75
 20
604.562445841
 30
0.0
 11
304.75
 21
604.562445841
 31
0.0
  0
LINE
  8
0
  6
CONTINUOUS
 62
     1
 10
301.75
 20
525.429475845
 30
0.0
 11
301.75
 21
513.0
 31
0.0
  0
LINE
  8
0
  6
CONTINUOUS
 62
     1
 10
286.762380347
 20
531.651994256
 30
0.0
 11
300.737619653
 21
526.848005744
 31
0.0
  0
LINE
  8
0
  6
CONTINUOUS
 62
     1
 10
301.75
 20
568.5
 30
0.0
 11
301.75
 21
525.429475845
 31
0.0
  0
LINE
  8
0
  6
LTYPE2
 62
     2
 10
293.75
 20
532.437554159
 30
0.0
 11
304.75
 21
532.437554159
 31
0.0
  0
ARC
  8
0
  6
CONTINUOUS
 62
     1
 10
442.75
 20
628.5
 30
0.0
 40
3.0
 50
270.0
 51
0.0
  0
LINE
  8
0
  6
CONTINUOUS
 62
     1
 10
303.25
 20
625.5
 30
0.0
 11
460.25
 21
625.5
 31
0.0
  0
ARC
  8
0
  6
CONTINUOUS
 62
     1
 10
402.75
 20
628.5
 30
0.0
 40
3.0
 50
180.0
 51
270.0
  0
LINE
  8
0
  6
LTYPE2
 62
     2
 10
422.75
 20
613.5
 30
0.0
 11
422.75
 21
701.4321338
 31
0.0
  0
LINE
  8
0
  6
CONTINUOUS
 62
     1
 10
258.25
 20
584.0
 30
0.0
 11
272.75
 21
584.0
 31
0.0
  0
ARC
  8
0
  6
CONTINUOUS
 62
     1
 10
258.25
 20
582.5
 30
0.0
 40
1.5
 50
90.0
 51
180.0
  0
LINE
  8
0
  6
CONTINUOUS
 62
     1
 10
258.25
 20
553.0
 30
0.0
 11
272.75
 21
553.0
 31
0.0
  0
LINE
  8
0
  6
CONTINUOUS
 62
     1
 10
256.75
 20
554.5
 30
0.0
 11
256.75
 21
582.5
 31
0.0
  0
ARC
  8
0
  6
CONTINUOUS
 62
     1
 10
258.25
 20
554.5
 30
0.0
 40
1.5
 50
180.0
 51
270.0
  0
LINE
  8
0
  6
CONTINUOUS
 62
     1
 10
356.75
 20
646.5
 30
0.0
 11
356.75
 21
680.5
 31
0.0
  0
LINE
  8
0
  6
CONTINUOUS
 62
     1
 10
356.75
 20
646.5
 30
0.0
 11
382.75
 21
646.5
 31
0.0
  0
LINE
  8
0
  6
CONTINUOUS
 62
     1
 10
356.75
 20
680.5
 30
0.0
 11
382.75
 21
680.5
 31
0.0
  0
LINE
  8
0
  6
LTYPE2
 62
     2
 10
349.820524155
 20
663.5
 30
0.0
 11
389.820524155
 21
663.5
 31
0.0
  0
LINE
  8
0
  6
CONTINUOUS
 62
     1
 10
452.75
 20
638.5
 30
0.0
 11
452.75
 21
641.5
 31
0.0
  0
ARC
  8
0
  6
CONTINUOUS
 62
     1
 10
448.75
 20
635.5
 30
0.0
 40
3.0
 50
90.0
 51
180.0
  0
LINE
  8
0
  6
CONTINUOUS
 62
     1
 10
445.75
 20
628.5
 30
0.0
 11
445.75
 21
635.5
 31
0.0
  0
LINE
  8
0
  6
CONTINUOUS
 62
     1
 10
392.75
 20
638.5
 30
0.0
 11
392.75
 21
641.5
 31
0.0
  0
ARC
  8
0
  6
CONTINUOUS
 62
     1
 10
396.75
 20
635.5
 30
0.0
 40
3.0
 50
0.0
 51
90.0
  0
LINE
  8
0
  6
CONTINUOUS
 62
     1
 10
399.75
 20
628.5
 30
0.0
 11
399.75
 21
635.5
 31
0.0
  0
LINE
  8
0
  6
CONTINUOUS
 62
     1
 10
392.75
 20
638.5
 30
0.0
 11
452.75
 21
638.5
 31
0.0
  0
LINE
  8
0
  6
CONTINUOUS
 62
     1
 10
467.837912088
 20
643.5
 30
0.0
 11
375.75
 21
687.520045888
 31
0.0
  0
LINE
  8
0
  6
CONTINUOUS
 62
     1
 10
469.75
 20
647.5
 30
0.0
 11
467.837912088
 21
643.5
 31
0.0
  0
LINE
  8
0
  6
CONTINUOUS
 62
     1
 10
469.75
 20
647.5
 30
0.0
 11
377.662087912
 21
691.520045888
 31
0.0
  0
LINE
  8
0
  6
CONTINUOUS
 62
     1
 10
377.662087912
 20
691.520045888
 30
0.0
 11
375.75
 21
687.520045888
 31
0.0
  0
LINE
  8
0
  6
CONTINUOUS
 62
     1
 10
462.75
 20
650.846153846
 30
0.0
 11
462.75
 21
690.5
 31
0.0
  0
ARC
  8
0
  6
CONTINUOUS
 62
     1
 10
459.75
 20
690.5
 30
0.0
 40
3.0
 50
0.0
 51
90.0
  0
LINE
  8
0
  6
CONTINUOUS
 62
     1
 10
462.75
 20
644.5
 30
0.0
 11
462.75
 21
645.9321338
 31
0.0
  0
ARC
  8
0
  6
CONTINUOUS
 62
     1
 10
459.75
 20
644.5
 30
0.0
 40
3.0
 50
270.0
 51
0.0
  0
LINE
  8
0
  6
CONTINUOUS
 62
     1
 10
382.75
 20
644.5
 30
0.0
 11
382.75
 21
684.173892042
 31
0.0
  0
LINE
  8
0
  6
CONTINUOUS
 62
     1
 10
385.75
 20
641.5
 30
0.0
 11
459.75
 21
641.5
 31
0.0
  0
ARC
  8
0
  6
CONTINUOUS
 62
     1
 10
385.75
 20
644.5
 30
0.0
 40
3.0
 50
180.0
 51
270.0
  0
LINE
  8
0
  6
CONTINUOUS
 62
     1
 10
382.75
 20
689.087912088
 30
0.0
 11
382.75
 21
690.5
 31
0.0
  0
LINE
  8
0
  6
CONTINUOUS
 62
     1
 10
385.75
 20
693.5
 30
0.0
 11
459.75
 21
693.5
 31
0.0
  0
ARC
  8
0
  6
CONTINUOUS
 62
     1
 10
385.75
 20
690.5
 30
0.0
 40
3.0
 50
90.0
 51
180.0
  0
LINE
  8
0
  6
CONTINUOUS
 62
     2
 10
356.75
 20
663.5
 30
0.0
 11
357.369310852
 21
673.48080428
 31
0.0
  0
LINE
  8
0
  6
CONTINUOUS
 62
     2
 10
356.75
 20
663.5
 30
0.0
 11
352.295936791
 21
672.453285482
 31
0.0
  0
LINE
  8
0
  6
CONTINUOUS
 62
     1
 10
300.45
 20
604.562445841
 30
0.0
 11
300.45
 21
599.950565841
 31
0.0
  0
LINE
  8
0
  6
CONTINUOUS
 62
     1
 10
300.45
 20
604.562445841
 30
0.0
 11
300.45
 21
609.174325841
 31
0.0
  0
LINE
  8
0
  6
CONTINUOUS
 62
     1
 10
296.9498
 20
601.080005841
 30
0.0
 11
297.601882488
 21
599.950565841
 31
0.0
  0
LINE
  8
0
  6
CONTINUOUS
 62
     1
 10
296.9498
 20
604.562445841
 30
0.0
 11
296.9498
 21
601.080005841
 31
0.0
  0
LINE
  8
0
  6
CONTINUOUS
 62
     1
 10
296.9498
 20
608.044885841
 30
0.0
 11
297.601882488
 21
609.174325841
 31
0.0
  0
LINE
  8
0
  6
CONTINUOUS
 62
     1
 10
296.9498
 20
604.562445841
 30
0.0
 11
296.9498
 21
608.044885841
 31
0.0
  0
ARC
  8
0
  6
CONTINUOUS
 62
     1
 10
301.353054926
 20
604.562445841
 30
0.0
 40
4.403254926
 50
148.419912243
 51
211.580087757
  0
ARC
  8
0
  6
CONTINUOUS
 62
     1
 10
298.294720132
 20
601.103535841
 30
0.0
 40
1.34512595
 50
121.002313915
 51
182.989498403
  0
LINE
  8
0
  6
CONTINUOUS
 62
     1
 10
296.9498
 20
608.044885841
 30
0.0
 11
297.601882488
 21
609.174325841
 31
0.0
  0
ARC
  8
0
  6
CONTINUOUS
 62
     1
 10
298.294720132
 20
608.021355841
 30
0.0
 40
1.34512595
 50
177.010501597
 51
238.997686085
  0
LINE
  8
0
  6
CONTINUOUS
 62
     1
 10
300.45
 20
599.950565841
 30
0.0
 11
297.601882488
 21
599.950565841
 31
0.0
  0
LINE
  8
0
  6
CONTINUOUS
 62
     1
 10
300.45
 20
602.256505841
 30
0.0
 11
297.601882488
 21
602.256505841
 31
0.0
  0
LINE
  8
0
  6
CONTINUOUS
 62
     1
 10
300.45
 20
606.868385841
 30
0.0
 11
297.601882488
 21
606.868385841
 31
0.0
  0
LINE
  8
0
  6
CONTINUOUS
 62
     1
 10
300.45
 20
609.174325841
 30
0.0
 11
297.601882488
 21
609.174325841
 31
0.0
  0
LINE
  8
0
  6
CONTINUOUS
 62
     1
 10
301.75
 20
599.962445841
 30
0.0
 11
300.45
 21
599.962445841
 31
0.0
  0
LINE
  8
0
  6
CONTINUOUS
 62
     1
 10
301.75
 20
604.562445841
 30
0.0
 11
300.450000446
 21
603.262446287
 31
0.0
  0
LINE
  8
0
  6
CONTINUOUS
 62
     1
 10
300.450000446
 20
604.562445841
 30
0.0
 11
301.75
 21
605.862445394
 31
0.0
  0
LINE
  8
0
  6
CONTINUOUS
 62
     1
 10
301.75
 20
609.162445841
 30
0.0
 11
300.45
 21
609.162445841
 31
0.0
  0
LINE
  8
0
  6
CONTINUOUS
 62
     1
 10
271.75
 20
564.7
 30
0.0
 11
272.75
 21
564.7
 31
0.0
  0
LINE
  8
0
  6
CONTINUOUS
 62
     1
 10
268.95
 20
565.0
 30
0.0
 11
269.267542648
 21
564.45
 31
0.0
  0
LINE
  8
0
  6
CONTINUOUS
 62
     1
 10
269.267542648
 20
564.45
 30
0.0
 11
271.75
 21
564.45
 31
0.0
  0
ARC
  8
0
  6
CONTINUOUS
 62
     1
 10
270.722973788
 20
565.4625
 30
0.0
 40
1.772973788
 50
145.174816769
 51
214.825183231
  0
LINE
  8
0
  6
CONTINUOUS
 62
     1
 10
271.75
 20
572.55
 30
0.0
 11
271.75
 21
564.45
 31
0.0
  0
LINE
  8
0
  6
CONTINUOUS
 62
     1
 10
271.75
 20
572.3
 30
0.0
 11
272.75
 21
572.3
 31
0.0
  0
LINE
  8
0
  6
CONTINUOUS
 62
     1
 10
271.75
 20
568.5
 30
0.0
 11
272.75
 21
569.5
 31
0.0
  0
LINE
  8
0
  6
CONTINUOUS
 62
     1
 10
269.267542648
 20
572.55
 30
0.0
 11
271.75
 21
572.55
 31
0.0
  0
LINE
  8
0
  6
CONTINUOUS
 62
     1
 10
268.95
 20
572.0
 30
0.0
 11
269.267542648
 21
572.55
 31
0.0
  0
LINE
  8
0
  6
CONTINUOUS
 62
     1
 10
269.267542648
 20
570.525
 30
0.0
 11
271.75
 21
570.525
 31
0.0
  0
ARC
  8
0
  6
CONTINUOUS
 62
     1
 10
270.722973788
 20
571.5375
 30
0.0
 40
1.772973788
 50
145.174816769
 51
214.825183231
  0
LINE
  8
0
  6
CONTINUOUS
 62
     1
 10
271.75
 20
567.5
 30
0.0
 11
272.75
 21
568.5
 31
0.0
  0
LINE
  8
0
  6
CONTINUOUS
 62
     1
 10
269.267542648
 20
566.475
 30
0.0
 11
271.75
 21
566.475
 31
0.0
  0
LINE
  8
0
  6
CONTINUOUS
 62
     1
 10
268.95
 20
572.0
 30
0.0
 11
268.95
 21
565.0
 31
0.0
  0
ARC
  8
0
  6
CONTINUOUS
 62
     1
 10
275.565581181
 20
568.5
 30
0.0
 40
6.615581181
 50
162.175912681
 51
197.824087319
  0
ARC
  8
0
  6
CONTINUOUS
 62
     1
 10
300.25
 20
525.429475845
 30
0.0
 40
1.5
 50
0.0
 51
71.029592192
  0
LINE
  8
0
  6
CONTINUOUS
 62
     1
 10
300.45
 20
532.437554159
 30
0.0
 11
300.45
 21
537.049434159
 31
0.0
  0
LINE
  8
0
  6
CONTINUOUS
 62
     1
 10
296.9498
 20
535.919994159
 30
0.0
 11
297.601882488
 21
537.049434159
 31
0.0
  0
LINE
  8
0
  6
CONTINUOUS
 62
     1
 10
296.9498
 20
532.437554159
 30
0.0
 11
296.9498
 21
535.919994159
 31
0.0
  0
ARC
  8
0
  6
CONTINUOUS
 62
     1
 10
298.294720132
 20
535.896464159
 30
0.0
 40
1.34512595
 50
177.010501597
 51
238.997686085
  0
LINE
  8
0
  6
CONTINUOUS
 62
     1
 10
300.45
 20
537.049434159
 30
0.0
 11
297.601882488
 21
537.049434159
 31
0.0
  0
LINE
  8
0
  6
CONTINUOUS
 62
     1
 10
301.75
 20
537.037554159
 30
0.0
 11
300.45
 21
537.037554159
 31
0.0
  0
LINE
  8
0
  6
CONTINUOUS
 62
     1
 10
300.45
 20
532.437554159
 30
0.0
 11
300.45
 21
527.825674159
 31
0.0
  0
LINE
  8
0
  6
CONTINUOUS
 62
     1
 10
296.9498
 20
528.955114159
 30
0.0
 11
297.601882488
 21
527.825674159
 31
0.0
  0
LINE
  8
0
  6
CONTINUOUS
 62
     1
 10
296.9498
 20
532.437554159
 30
0.0
 11
296.9498
 21
528.955114159
 31
0.0
  0
ARC
  8
0
  6
CONTINUOUS
 62
     1
 10
301.353054926
 20
532.437554159
 30
0.0
 40
4.403254926
 50
148.419912243
 51
211.580087757
  0
LINE
  8
0
  6
CONTINUOUS
 62
     1
 10
296.9498
 20
528.955114159
 30
0.0
 11
297.601882488
 21
527.825674159
 31
0.0
  0
ARC
  8
0
  6
CONTINUOUS
 62
     1
 10
298.294720132
 20
528.978644159
 30
0.0
 40
1.34512595
 50
121.002313915
 51
182.989498403
  0
LINE
  8
0
  6
CONTINUOUS
 62
     1
 10
300.45
 20
530.131614159
 30
0.0
 11
297.601882488
 21
530.131614159
 31
0.0
  0
LINE
  8
0
  6
CONTINUOUS
 62
     1
 10
300.45
 20
527.825674159
 30
0.0
 11
297.601882488
 21
527.825674159
 31
0.0
  0
LINE
  8
0
  6
CONTINUOUS
 62
     1
 10
301.75
 20
527.837554159
 30
0.0
 11
300.45
 21
527.837554159
 31
0.0
  0
LINE
  8
0
  6
CONTINUOUS
 62
     1
 10
300.45
 20
534.743494159
 30
0.0
 11
297.601882488
 21
534.743494159
 31
0.0
  0
LINE
  8
0
  6
CONTINUOUS
 62
     1
 10
301.75
 20
532.437554159
 30
0.0
 11
300.450000446
 21
533.737553713
 31
0.0
  0
LINE
  8
0
  6
CONTINUOUS
 62
     1
 10
300.450000446
 20
532.437554159
 30
0.0
 11
301.75
 21
531.137554606
 31
0.0
  0
LINE
  8
0
  6
CONTINUOUS
 62
     1
 10
463.25
 20
629.5
 30
0.0
 11
469.75
 21
629.5
 31
0.0
  0
LINE
  8
0
  6
CONTINUOUS
 62
     1
 10
469.75
 20
507.5
 30
0.0
 11
469.75
 21
568.5
 31
0.0
  0
LINE
  8
0
  6
CONTINUOUS
 62
     1
 10
463.249990656
 20
507.5
 30
0.0
 11
469.75
 21
507.5
 31
0.0
  0
LINE
  8
0
  6
CONTINUOUS
 62
     1
 10
469.75
 20
629.5
 30
0.0
 11
469.75
 21
507.5
 31
0.0
  0
LINE
  8
0
  6
LTYPE3
 62
     2
 10
522.65
 20
568.5
 30
0.0
 11
250.75
 21
568.5
 31
0.0
  0
ARC
  8
0
  6
CONTINUOUS
 62
     1
 10
487.75
 20
661.0
 30
0.0
 40
15.0
 50
90.0
 51
180.0
  0
LINE
  8
0
  6
CONTINUOUS
 62
     1
 10
469.75
 20
626.0
 30
0.0
 11
470.75001079
 21
626.0
 31
0.0
  0
LINE
  8
0
  6
CONTINUOUS
 62
     1
 10
472.75
 20
661.0
 30
0.0
 11
472.75
 21
628.000007629
 31
0.0
  0
ARC
  8
0
  6
CONTINUOUS
 62
     1
 10
470.75
 20
628.0
 30
0.0
 40
2.0
 50
270.000309099
 51
0.000218566
  0
LINE
  8
2
  6
CONTINUOUS
 62
     2
 10
504.25
 20
621.5
 30
0.0
 11
498.25
 21
621.5
 31
0.0
  0
LINE
  8
2
  6
CONTINUOUS
 62
     2
 10
506.25
 20
621.5
 30
0.0
 11
503.661809549
 21
611.840741737
 31
0.0
  0
LINE
  8
2
  6
CONTINUOUS
 62
     2
 10
506.25
 20
621.5
 30
0.0
 11
508.838190451
 21
611.840741737
 31
0.0
  0
LINE
  8
2
  6
CONTINUOUS
 62
     2
 10
506.25
 20
621.5
 30
0.0
 11
506.25
 21
568.5
 31
0.0
  0
LINE
  8
2
  6
CONTINUOUS
 62
     2
 10
506.25
 20
568.5
 30
0.0
 11
508.838190451
 21
578.159258263
 31
0.0
  0
LINE
  8
2
  6
CONTINUOUS
 62
     2
 10
506.25
 20
568.5
 30
0.0
 11
503.661809549
 21
578.159258263
 31
0.0
  0
LINE
  8
2
  6
CONTINUOUS
 62
     2
 10
503.25
 20
568.5
 30
0.0
 11
498.25
 21
568.5
 31
0.0
  0
LINE
  8
0
  6
CONTINUOUS
 62
     1
 10
484.75
 20
533.5
 30
0.0
 11
526.750007629
 21
533.5
 31
0.0
  0
ARC
  8
0
  6
CONTINUOUS
 62
     1
 10
484.75
 20
530.5
 30
0.0
 40
3.0
 50
90.0
 51
180.0
  0
ARC
  8
0
  6
CONTINUOUS
 62
     1
 10
478.75
 20
511.5
 30
0.0
 40
3.0
 50
270.0
 51
0.0
  0
LINE
  8
0
  6
CONTINUOUS
 62
     1
 10
481.75
 20
530.5
 30
0.0
 11
481.75
 21
511.5
 31
0.0
  0
LINE
  8
0
  6
CONTINUOUS
 62
     1
 10
469.75
 20
508.5
 30
0.0
 11
502.750007629
 21
508.5
 31
0.0
  0
ARC
  8
0
  6
CONTINUOUS
 62
     1
 10
502.75
 20
511.5
 30
0.0
 40
3.0
 50
270.000145711
 51
0.00014571
  0
LINE
  8
0
  6
CONTINUOUS
 62
     1
 10
505.75
 20
530.500007629
 30
0.0
 11
505.75
 21
511.500007629
 31
0.0
  0
ARC
  8
0
  6
CONTINUOUS
 62
     1
 10
508.75
 20
530.5
 30
0.0
 40
3.0
 50
90.0
 51
179.99985429
  0
ARC
  8
0
  6
CONTINUOUS
 62
     1
 10
526.75
 20
536.5
 30
0.0
 40
3.0
 50
270.000145711
 51
0.0
  0
LINE
  8
0
  6
CONTINUOUS
 62
     1
 10
529.75
 20
536.5
 30
0.0
 11
529.75
 21
676.0
 31
0.0
  0
LINE
  8
0
  6
CONTINUOUS
 62
     1
 10
487.75
 20
676.0
 30
0.0
 11
535.75
 21
676.0
 31
0.0
  0
LINE
  8
0
  6
CONTINUOUS
 62
     1
 10
529.75
 20
568.5
 30
0.0
 11
535.75
 21
568.5
 31
0.0
  0
ARC
  8
0
  6
CONTINUOUS
 62
     1
 10
535.75
 20
570.5
 30
0.0
 40
2.0
 50
270.0
 51
0.0
  0
LINE
  8
0
  6
CONTINUOUS
 62
     2
 10
356.75
 20
663.5
 30
0.0
 11
343.680224855
 21
728.032014776
 31
0.0
  0
LINE
  8
2
  6
CONTINUOUS
 62
     2
 10
264.850004265
 20
584.0
 30
0.0
 11
265.389879399
 21
593.985416108
 31
0.0
  0
LINE
  8
2
  6
CONTINUOUS
 62
     2
 10
264.850004265
 20
584.0
 30
0.0
 11
260.324841792
 21
592.917561583
 31
0.0
  0
LINE
  8
0
  6
CONTINUOUS
 62
     1
 10
537.75
 20
570.5
 30
0.0
 11
537.75
 21
674.0
 31
0.0
  0
ARC
  8
0
  6
CONTINUOUS
 62
     1
 10
535.75
 20
674.0
 30
0.0
 40
2.0
 50
0.0
 51
90.0
  0
LINE
  8
0
  6
CONTINUOUS
 62
     1
 10
540.750013214
 20
658.5
 30
0.0
 11
600.75
 21
658.5
 31
0.0
  0
ARC
  8
0
  6
CONTINUOUS
 62
     1
 10
540.75
 20
661.5
 30
0.0
 40
3.0
 50
183.814074834
 51
270.000252378
  0
LINE
  8
0
  6
CONTINUOUS
 62
     1
 10
540.550009344
 20
584.5
 30
0.0
 11
600.75
 21
584.5
 31
0.0
  0
ARC
  8
0
  6
CONTINUOUS
 62
     1
 10
540.55
 20
581.5
 30
0.0
 40
3.0
 50
89.999821542
 51
182.106627847
  0
ARC
  8
0
  6
CONTINUOUS
 62
     1
 10
559.75
 20
621.5
 30
0.0
 40
27.0
 50
215.430944687
 51
144.569055313
  0
LINE
  8
0
  6
CONTINUOUS
 62
     2
 10
343.680224855
 20
728.032014776
 30
0.0
 11
289.308072957
 21
728.032014776
 31
0.0
  0
LINE
  8
2
  6
CONTINUOUS
 62
     2
 10
302.75
 20
625.5
 30
0.0
 11
226.75
 21
625.5
 31
0.0
  0
LINE
  8
2
  6
CONTINUOUS
 62
     2
 10
234.75
 20
625.5
 30
0.0
 11
232.161809549
 21
615.840741737
 31
0.0
  0
LINE
  8
2
  6
CONTINUOUS
 62
     2
 10
234.75
 20
625.5
 30
0.0
 11
237.338190451
 21
615.840741737
 31
0.0
  0
LINE
  8
2
  6
CONTINUOUS
 62
     2
 10
234.75
 20
625.5
 30
0.0
 11
234.75
 21
511.5
 31
0.0
  0
LINE
  8
2
  6
CONTINUOUS
 62
     2
 10
234.75
 20
511.5
 30
0.0
 11
237.338190451
 21
521.159258263
 31
0.0
  0
LINE
  8
2
  6
CONTINUOUS
 62
     2
 10
234.75
 20
511.5
 30
0.0
 11
232.161809549
 21
521.159258263
 31
0.0
  0
LINE
  8
2
  6
CONTINUOUS
 62
     2
 10
302.75
 20
511.5
 30
0.0
 11
226.75
 21
511.5
 31
0.0
  0
LINE
  8
2
  6
CONTINUOUS
 62
     2
 10
459.25
 20
629.5
 30
0.0
 11
196.25
 21
629.5
 31
0.0
  0
LINE
  8
2
  6
CONTINUOUS
 62
     2
 10
204.25
 20
629.5
 30
0.0
 11
201.661809549
 21
619.840741737
 31
0.0
  0
LINE
  8
2
  6
CONTINUOUS
 62
     2
 10
204.25
 20
629.5
 30
0.0
 11
206.838190451
 21
619.840741737
 31
0.0
  0
LINE
  8
2
  6
CONTINUOUS
 62
     2
 10
204.25
 20
629.5
 30
0.0
 11
204.25
 21
507.5
 31
0.0
  0
LINE
  8
2
  6
CONTINUOUS
 62
     2
 10
204.25
 20
507.5
 30
0.0
 11
206.838190451
 21
517.159258263
 31
0.0
  0
LINE
  8
2
  6
CONTINUOUS
 62
     2
 10
204.25
 20
507.5
 30
0.0
 11
201.661809549
 21
517.159258263
 31
0.0
  0
LINE
  8
2
  6
CONTINUOUS
 62
     2
 10
459.250007629
 20
507.5
 30
0.0
 11
196.25
 21
507.5
 31
0.0
  0
LINE
  8
2
  6
CONTINUOUS
 62
     2
 10
559.75
 20
786.2
 30
0.0
 11
559.75
 21
807.2
 31
0.0
  0
LINE
  8
2
  6
CONTINUOUS
 62
     2
 10
559.75
 20
799.2
 30
0.0
 11
550.090741737
 21
801.788190451
 31
0.0
  0
LINE
  8
2
  6
CONTINUOUS
 62
     2
 10
559.75
 20
799.2
 30
0.0
 11
550.090741737
 21
796.611809549
 31
0.0
  0
LINE
  8
2
  6
CONTINUOUS
 62
     2
 10
559.75
 20
799.2
 30
0.0
 11
256.75
 21
799.2
 31
0.0
  0
LINE
  8
2
  6
CONTINUOUS
 62
     2
 10
256.75
 20
799.2
 30
0.0
 11
266.409258263
 21
796.611809549
 31
0.0
  0
LINE
  8
2
  6
CONTINUOUS
 62
     2
 10
256.75
 20
799.2
 30
0.0
 11
266.409258263
 21
801.788190451
 31
0.0
  0
LINE
  8
2
  6
CONTINUOUS
 62
     2
 10
256.75
 20
586.500007629
 30
0.0
 11
256.75
 21
807.2
 31
0.0
  0
LINE
  8
2
  6
CONTINUOUS
 62
     2
 10
978.85
 20
829.7
 30
0.0
 11
969.190741737
 21
832.288190451
 31
0.0
  0
LINE
  8
2
  6
CONTINUOUS
 62
     2
 10
978.85
 20
829.7
 30
0.0
 11
969.190741737
 21
827.111809549
 31
0.0
  0
LINE
  8
2
  6
CONTINUOUS
 62
     2
 10
978.85
 20
829.7
 30
0.0
 11
256.75
 21
829.7
 31
0.0
  0
LINE
  8
2
  6
CONTINUOUS
 62
     2
 10
256.75
 20
829.7
 30
0.0
 11
266.409258263
 21
827.111809549
 31
0.0
  0
LINE
  8
2
  6
CONTINUOUS
 62
     2
 10
256.75
 20
829.7
 30
0.0
 11
266.409258263
 21
832.288190451
 31
0.0
  0
LINE
  8
2
  6
CONTINUOUS
 62
     2
 10
256.75
 20
793.7
 30
0.0
 11
256.75
 21
837.7
 31
0.0
  0
LINE
  8
0
  6
CONTINUOUS
 62
     1
 10
986.85
 20
338.3
 30
0.0
 11
986.85
 21
346.3
 31
0.0
  0
LINE
  8
0
  6
CONTINUOUS
 62
     1
 10
970.85
 20
346.3
 30
0.0
 11
970.85
 21
338.3
 31
0.0
  0
LINE
  8
0
  6
CONTINUOUS
 62
     1
 10
996.85
 20
346.3
 30
0.0
 11
996.85
 21
358.3
 31
0.0
  0
LINE
  8
0
  6
CONTINUOUS
 62
     1
 10
943.85
 20
338.3
 30
0.0
 11
943.85
 21
358.3
 31
0.0
  0
LINE
  8
0
  6
CONTINUOUS
 62
     1
 10
943.85
 20
358.3
 30
0.0
 11
996.85
 21
358.3
 31
0.0
  0
LINE
  8
0
  6
CONTINUOUS
 62
     1
 10
953.85
 20
338.3
 30
0.0
 11
953.85
 21
346.3
 31
0.0
  0
LINE
  8
0
  6
CONTINUOUS
 62
     1
 10
953.85
 20
346.3
 30
0.0
 11
996.85
 21
346.3
 31
0.0
  0
LINE
  8
0
  6
CONTINUOUS
 62
     2
 10
996.85
 20
346.3
 30
0.0
 11
1042.583854631
 21
346.3
 31
0.0
  0
LINE
  8
0
  6
CONTINUOUS
 62
     2
 10
1077.05
 20
318.3
 30
0.0
 11
1077.05
 21
358.3
 31
0.0
  0
LINE
  8
0
  6
CONTINUOUS
 62
     2
 10
1077.05
 20
358.3
 30
0.0
 11
1074.461809549
 21
348.640741737
 31
0.0
  0
LINE
  8
0
  6
CONTINUOUS
 62
     2
 10
1077.05
 20
358.3
 30
0.0
 11
1079.638190451
 21
348.640741737
 31
0.0
  0
LINE
  8
0
  6
CONTINUOUS
 62
     2
 10
1034.683854631
 20
358.3
 30
0.0
 11
1037.272045082
 21
367.959258263
 31
0.0
  0
LINE
  8
0
  6
CONTINUOUS
 62
     2
 10
1034.683854631
 20
358.3
 30
0.0
 11
1032.09566418
 21
367.959258263
 31
0.0
  0
LINE
  8
0
  6
CONTINUOUS
 62
     2
 10
996.85
 20
358.3
 30
0.0
 11
1042.683854631
 21
358.3
 31
0.0
  0
LINE
  8
0
  6
CONTINUOUS
 62
     2
 10
1042.683854631
 20
358.3
 30
0.0
 11
1083.35
 21
358.3
 31
0.0
  0
LINE
  8
0
  6
CONTINUOUS
 62
     2
 10
1034.583854631
 20
346.3
 30
0.0
 11
1031.99566418
 21
336.640741737
 31
0.0
  0
LINE
  8
0
  6
CONTINUOUS
 62
     2
 10
1034.583854631
 20
346.3
 30
0.0
 11
1037.172045082
 21
336.640741737
 31
0.0
  0
LINE
  8
0
  6
CONTINUOUS
 62
     2
 10
1034.583854631
 20
346.3
 30
0.0
 11
1034.583854631
 21
330.3
 31
0.0
  0
LINE
  8
0
  6
CONTINUOUS
 62
     2
 10
1034.683854631
 20
346.3
 30
0.0
 11
1032.09566418
 21
336.640741737
 31
0.0
  0
LINE
  8
0
  6
CONTINUOUS
 62
     2
 10
1034.683854631
 20
346.3
 30
0.0
 11
1037.272045082
 21
336.640741737
 31
0.0
  0
LINE
  8
0
  6
CONTINUOUS
 62
     2
 10
1034.683854631
 20
350.3
 30
0.0
 11
1034.683854631
 21
284.7
 31
0.0
  0
LINE
  8
0
  6
CONTINUOUS
 62
     2
 10
1034.683854631
 20
326.3
 30
0.0
 11
1034.683854631
 21
386.9
 31
0.0
  0
LINE
  8
0
  6
CONTINUOUS
 62
     1
 10
943.85
 20
338.3
 30
0.0
 11
943.85
 21
358.3
 31
0.0
  0
LINE
  8
0
  6
CONTINUOUS
 62
     1
 10
943.85
 20
358.3
 30
0.0
 11
943.85
 21
338.3
 31
0.0
  0
LINE
  8
0
  6
CONTINUOUS
 62
     1
 10
943.85
 20
338.3
 30
0.0
 11
943.85
 21
358.3
 31
0.0
  0
LINE
  8
0
  6
CONTINUOUS
 62
     1
 10
910.85
 20
361.3
 30
0.0
 11
924.85
 21
361.3
 31
0.0
  0
LINE
  8
0
  6
CONTINUOUS
 62
     1
 10
924.85
 20
338.3
 30
0.0
 11
924.85
 21
361.3
 31
0.0
  0
LINE
  8
0
  6
CONTINUOUS
 62
     1
 10
924.85
 20
359.3
 30
0.0
 11
927.85
 21
359.3
 31
0.0
  0
LINE
  8
0
  6
CONTINUOUS
 62
     1
 10
907.85
 20
359.3
 30
0.0
 11
910.85
 21
359.3
 31
0.0
  0
LINE
  8
0
  6
CONTINUOUS
 62
     1
 10
907.85
 20
359.3
 30
0.0
 11
900.278072258
 21
387.558819045
 31
0.0
  0
ARC
  8
0
  6
CONTINUOUS
 62
     1
 10
899.312146432
 20
387.3
 30
0.0
 40
1.0
 50
15.0
 51
90.0
  0
ARC
  8
0
  6
CONTINUOUS
 62
     1
 10
899.312146432
 20
387.3
 30
0.0
 40
1.0
 50
90.0
 51
165.0
  0
LINE
  8
0
  6
CONTINUOUS
 62
     1
 10
896.063926358
 20
379.041180955
 30
0.0
 11
898.346220605
 21
387.558819045
 31
0.0
  0
ARC
  8
0
  6
CONTINUOUS
 62
     1
 10
895.098000531
 20
379.3
 30
0.0
 40
1.0
 50
270.0
 51
345.0
  0
ARC
  8
0
  6
CONTINUOUS
 62
     1
 10
895.098000531
 20
379.3
 30
0.0
 40
1.0
 50
195.0
 51
270.0
  0
LINE
  8
0
  6
CONTINUOUS
 62
     1
 10
894.132074705
 20
379.041180955
 30
0.0
 11
891.849780457
 21
387.558819045
 31
0.0
  0
ARC
  8
0
  6
CONTINUOUS
 62
     1
 10
890.883854631
 20
387.3
 30
0.0
 40
1.0
 50
15.0
 51
90.0
  0
ARC
  8
0
  6
CONTINUOUS
 62
     1
 10
886.669708731
 20
379.3
 30
0.0
 40
1.0
 50
270.0
 51
345.0
  0
LINE
  8
0
  6
CONTINUOUS
 62
     1
 10
887.635634557
 20
379.041180955
 30
0.0
 11
889.917928805
 21
387.558819045
 31
0.0
  0
ARC
  8
0
  6
CONTINUOUS
 62
     1
 10
890.883854631
 20
387.3
 30
0.0
 40
1.0
 50
90.0
 51
165.0
  0
LINE
  8
0
  6
CONTINUOUS
 62
     1
 10
890.883854631
 20
388.3
 30
0.0
 11
890.883854631
 21
338.3
 31
0.0
  0
LINE
  8
0
  6
CONTINUOUS
 62
     1
 10
886.469708731
 20
378.3
 30
0.0
 11
886.469708731
 21
338.3
 31
0.0
  0
LINE
  8
0
  6
CONTINUOUS
 62
     1
 10
895.098000531
 20
378.3
 30
0.0
 11
895.098000531
 21
338.3
 31
0.0
  0
LINE
  8
0
  6
CONTINUOUS
 62
     1
 10
899.312146432
 20
338.3
 30
0.0
 11
899.312146432
 21
388.3
 31
0.0
  0
LINE
  8
0
  6
CONTINUOUS
 62
     1
 10
910.85
 20
338.3
 30
0.0
 11
910.85
 21
361.3
 31
0.0
  0
LINE
  8
0
  6
CONTINUOUS
 62
     1
 10
907.85
 20
338.3
 30
0.0
 11
907.85
 21
359.3
 31
0.0
  0
LINE
  8
2
  6
CONTINUOUS
 62
     2
 10
886.883854631
 20
388.3
 30
0.0
 11
838.75
 21
388.3
 31
0.0
  0
LINE
  8
2
  6
CONTINUOUS
 62
     2
 10
846.75
 20
388.3
 30
0.0
 11
844.161809549
 21
378.640741737
 31
0.0
  0
LINE
  8
2
  6
CONTINUOUS
 62
     2
 10
846.75
 20
388.3
 30
0.0
 11
849.338190451
 21
378.640741737
 31
0.0
  0
LINE
  8
2
  6
CONTINUOUS
 62
     2
 10
846.75
 20
388.3
 30
0.0
 11
846.75
 21
288.3
 31
0.0
  0
LINE
  8
0
  6
CONTINUOUS
 62
     1
 10
927.85
 20
363.05
 30
0.0
 11
927.85
 21
315.55
 31
0.0
  0
LINE
  8
0
  6
CONTINUOUS
 62
     1
 10
927.85
 20
373.3
 30
0.0
 11
927.85
 21
303.3
 31
0.0
  0
LINE
  8
0
  6
CONTINUOUS
 62
     1
 10
927.85
 20
373.3
 30
0.0
 11
943.85
 21
373.3
 31
0.0
  0
LINE
  8
0
  6
CONTINUOUS
 62
     1
 10
943.85
 20
373.3
 30
0.0
 11
943.85
 21
303.3
 31
0.0
  0
LINE
  8
0
  6
LTYPE2
 62
     2
 10
935.85
 20
371.3
 30
0.0
 11
935.85
 21
357.3
 31
0.0
  0
LINE
  8
0
  6
LTYPE2
 62
     2
 10
929.85
 20
364.3
 30
0.0
 11
941.85
 21
364.3
 31
0.0
  0
TEXT
  8
0
  6
CONTINUOUS
 62
     2
 10
663.35
 20
603.5
 30
0.0
 40
15.0
  1
φ６４
 50
90.0
 41
0.9
 51
0.0
  7
KANJI26
  0
TEXT
  8
2
  6
CONTINUOUS
 62
     3
 10
502.25
 20
581.6
 30
0.0
 40
15.0
  1
５３
 50
90.0
 41
0.9
 51
0.0
  7
KANJI26
  0
TEXT
  8
2
  6
CONTINUOUS
 62
     3
 10
230.75
 20
541.1
 30
0.0
 40
15.0
  1
φ１１４
 50
90.0
 41
0.9
 51
0.0
  7
KANJI26
  0
TEXT
  8
2
  6
CONTINUOUS
 62
     3
 10
200.25
 20
541.1
 30
0.0
 40
15.0
  1
□１２２
 50
90.0
 41
0.9
 51
0.0
  7
KANJI26
  0
TEXT
  8
2
  6
CONTINUOUS
 62
     2
 10
580.35
 20
835.4
 30
0.0
 40
15.0
  1
ｍｉｎ．ＡＬ
 50
0.0
 41
0.9
 51
0.0
  7
KANJI26
  0
TEXT
  8
2
  6
CONTINUOUS
 62
     2
 10
706.55
 20
776.8
 30
0.0
 40
15.0
  1
Ｃ
 50
0.0
 41
0.9
 51
0.0
  7
KANJI26
  0
TEXT
  8
2
  6
CONTINUOUS
 62
     2
 10
740.85
 20
803.4
 30
0.0
 40
15.0
  1
ｍｉｎ．Ｌ
 50
0.0
 41
0.9
 51
0.0
  7
KANJI26
  0
TEXT
  8
2
  6
CONTINUOUS
 62
     2
 10
860.35
 20
777.1
 30
0.0
 40
15.0
  1
ｍｉｎ．Ｐ
 50
0.0
 41
0.9
 51
0.0
  7
KANJI26
  0
TEXT
  8
2
  6
CONTINUOUS
 62
     2
 10
947.05
 20
776.9
 30
0.0
 40
15.0
  1
３５
 50
0.0
 41
0.9
 51
0.0
  7
KANJI26
  0
TEXT
  8
0
  6
CONTINUOUS
 62
     2
 10
290.450004265
 20
732.5
 30
0.0
 40
15.0
  1
ＰＦ３／４
 50
0.0
 41
0.9
 51
0.0
  7
KANJI26
  0
TEXT
  8
2
  6
CONTINUOUS
 62
     3
 10
387.85
 20
803.2
 30
0.0
 40
15.0
  1
３０３
 50
0.0
 41
0.9
 51
0.0
  7
KANJI26
  0
TEXT
  8
2
  6
CONTINUOUS
 62
     2
 10
842.75
 20
324.9
 30
0.0
 40
15.0
  1
φ９５
 50
90.0
 41
0.9
 51
0.0
  7
KANJI26
  0
TEXT
  8
0
  6
CONTINUOUS
 62
     2
 10
1073.05
 20
326.5
 30
0.0
 40
15.0
  1
４０
 50
90.0
 41
0.9
 51
0.0
  7
KANJI26
  0
TEXT
  8
0
  6
CONTINUOUS
 62
     2
 10
1053.583854631
 20
329.0
 30
0.0
 40
15.0
  1
１６
 50
90.0
 41
0.9
 51
0.0
  7
KANJI26
  0
TEXT
  8
0
  6
CONTINUOUS
 62
     2
 10
1030.683854631
 20
364.3
 30
0.0
 40
15.0
  1
１２
 50
90.0
 41
0.9
 51
0.0
  7
KANJI26
  0
LINE
  8
0
  6
LTYPE3
 62
     2
 10
497.05
 20
621.5
 30
0.0
 11
642.0
 21
621.5
 31
0.0
  0
TEXT
  8
0
  6
CONTINUOUS
 62
     2
 10
313.65
 20
523.5
 30
0.0
 40
15.0
  1
エコノストップモータ
 50
0.0
 41
0.9
 51
0.0
  7
KANJI26
  0
TEXT
  8
0
  6
CONTINUOUS
 62
     2
 10
316.55
 20
540.5
 30
0.0
 40
15.0
  1
日本電産
 50
0.0
 41
0.9
 51
0.0
  7
KANJI26
  0
TEXT
  8
2
  6
CONTINUOUS
 62
     2
 10
623.15
 20
537.5
 30
0.0
 40
15.0
  1
給脂口
 50
0.0
 41
0.9
 51
0.0
  7
KANJI26
  0
LINE
  8
2
  6
CONTINUOUS
 62
     2
 10
666.95
 20
532.5
 30
0.0
 11
620.0
 21
532.5
 31
0.0
  0
LINE
  8
2
  6
CONTINUOUS
 62
     2
 10
998.85
 20
641.3
 30
0.0
 11
1045.5
 21
641.3
 31
0.0
  0
LINE
  8
2
  6
CONTINUOUS
 62
     2
 10
1040.5
 20
641.3
 30
0.0
 11
1037.264761936
 21
629.225927171
 31
0.0
  0
LINE
  8
2
  6
CONTINUOUS
 62
     2
 10
1040.5
 20
641.3
 30
0.0
 11
1043.735238064
 21
629.225927171
 31
0.0
  0
LINE
  8
2
  6
CONTINUOUS
 62
     2
 10
1040.5
 20
641.3
 30
0.0
 11
1040.5
 21
601.3
 31
0.0
  0
LINE
  8
2
  6
CONTINUOUS
 62
     2
 10
1040.5
 20
601.3
 30
0.0
 11
1043.735238064
 21
613.374072829
 31
0.0
  0
LINE
  8
2
  6
CONTINUOUS
 62
     2
 10
1040.5
 20
601.3
 30
0.0
 11
1037.264761936
 21
613.374072829
 31
0.0
  0
LINE
  8
2
  6
CONTINUOUS
 62
     2
 10
998.85
 20
601.3
 30
0.0
 11
1045.5
 21
601.3
 31
0.0
  0
TEXT
  8
2
  6
CONTINUOUS
 62
     3
 10
1035.5
 20
607.8
 30
0.0
 40
15.0
  1
４０
 50
90.0
 41
0.9
 51
0.0
  7
KANJI26
  0
LINE
  8
0
  6
LTYPE3
 62
     2
 10
666.0
 20
621.5
 30
0.0
 11
1017.65
 21
621.5
 31
0.0
  0
LINE
  8
0
  6
CONTINUOUS
 62
     1
 10
853.75
 20
653.25
 30
0.0
 11
853.75
 21
621.5
 31
0.0
  0
LINE
  8
0
  6
CONTINUOUS
 62
     1
 10
926.75
 20
644.5
 30
0.0
 11
940.75
 21
644.5
 31
0.0
  0
LINE
  8
0
  6
CONTINUOUS
 62
     1
 10
940.75
 20
621.5
 30
0.0
 11
940.75
 21
644.5
 31
0.0
  0
LINE
  8
0
  6
CONTINUOUS
 62
     1
 10
923.75
 20
642.5
 30
0.0
 11
926.75
 21
642.5
 31
0.0
  0
LINE
  8
0
  6
CONTINUOUS
 62
     1
 10
923.75
 20
642.5
 30
0.0
 11
916.178072258
 21
670.758819045
 31
0.0
  0
ARC
  8
0
  6
CONTINUOUS
 62
     1
 10
915.212146432
 20
670.5
 30
0.0
 40
1.0
 50
15.0
 51
90.0
  0
ARC
  8
0
  6
CONTINUOUS
 62
     1
 10
915.212146432
 20
670.5
 30
0.0
 40
1.0
 50
90.0
 51
165.0
  0
LINE
  8
0
  6
CONTINUOUS
 62
     1
 10
911.963926358
 20
662.241180955
 30
0.0
 11
914.246220605
 21
670.758819045
 31
0.0
  0
ARC
  8
0
  6
CONTINUOUS
 62
     1
 10
910.998000531
 20
662.5
 30
0.0
 40
1.0
 50
270.0
 51
345.0
  0
ARC
  8
0
  6
CONTINUOUS
 62
     1
 10
910.998000531
 20
662.5
 30
0.0
 40
1.0
 50
195.0
 51
270.0
  0
LINE
  8
0
  6
CONTINUOUS
 62
     1
 10
910.032074705
 20
662.241180955
 30
0.0
 11
907.749780457
 21
670.758819045
 31
0.0
  0
ARC
  8
0
  6
CONTINUOUS
 62
     1
 10
906.783854631
 20
670.5
 30
0.0
 40
1.0
 50
15.0
 51
90.0
  0
ARC
  8
0
  6
CONTINUOUS
 62
     1
 10
902.569708731
 20
662.5
 30
0.0
 40
1.0
 50
270.0
 51
345.0
  0
LINE
  8
0
  6
CONTINUOUS
 62
     1
 10
903.535634557
 20
662.241180955
 30
0.0
 11
905.817928805
 21
670.758819045
 31
0.0
  0
ARC
  8
0
  6
CONTINUOUS
 62
     1
 10
906.783854631
 20
670.5
 30
0.0
 40
1.0
 50
90.0
 51
165.0
  0
LINE
  8
0
  6
CONTINUOUS
 62
     1
 10
906.783854631
 20
671.5
 30
0.0
 11
906.783854631
 21
621.5
 31
0.0
  0
LINE
  8
0
  6
CONTINUOUS
 62
     1
 10
902.369708731
 20
661.5
 30
0.0
 11
902.369708731
 21
621.5
 31
0.0
  0
LINE
  8
0
  6
CONTINUOUS
 62
     1
 10
910.998000531
 20
661.5
 30
0.0
 11
910.998000531
 21
621.5
 31
0.0
  0
LINE
  8
0
  6
CONTINUOUS
 62
     1
 10
915.212146432
 20
621.5
 30
0.0
 11
915.212146432
 21
671.5
 31
0.0
  0
LINE
  8
0
  6
CONTINUOUS
 62
     1
 10
926.75
 20
621.5
 30
0.0
 11
926.75
 21
644.5
 31
0.0
  0
LINE
  8
0
  6
CONTINUOUS
 62
     1
 10
923.75
 20
621.5
 30
0.0
 11
923.75
 21
642.5
 31
0.0
  0
LINE
  8
0
  6
CONTINUOUS
 62
     1
 10
853.75
 20
655.25
 30
0.0
 11
853.75
 21
621.5
 31
0.0
  0
LINE
  8
0
  6
CONTINUOUS
 62
     1
 10
853.75
 20
655.25
 30
0.0
 11
857.905575539
 21
670.758819045
 31
0.0
  0
ARC
  8
0
  6
CONTINUOUS
 62
     1
 10
858.871501365
 20
670.5
 30
0.0
 40
1.0
 50
90.0
 51
165.0
  0
ARC
  8
0
  6
CONTINUOUS
 62
     1
 10
858.871501365
 20
670.5
 30
0.0
 40
1.0
 50
15.0
 51
90.0
  0
LINE
  8
0
  6
CONTINUOUS
 62
     1
 10
862.119721439
 20
662.241180955
 30
0.0
 11
859.837427191
 21
670.758819045
 31
0.0
  0
ARC
  8
0
  6
CONTINUOUS
 62
     1
 10
863.085647265
 20
662.5
 30
0.0
 40
1.0
 50
195.0
 51
270.0
  0
ARC
  8
0
  6
CONTINUOUS
 62
     1
 10
867.299793166
 20
670.5
 30
0.0
 40
1.0
 50
90.0
 51
165.0
  0
LINE
  8
0
  6
CONTINUOUS
 62
     1
 10
864.051573092
 20
662.241180955
 30
0.0
 11
866.333867339
 21
670.758819045
 31
0.0
  0
ARC
  8
0
  6
CONTINUOUS
 62
     1
 10
863.085647265
 20
662.5
 30
0.0
 40
1.0
 50
270.0
 51
345.0
  0
ARC
  8
0
  6
CONTINUOUS
 62
     1
 10
867.299814745
 20
670.5
 30
0.0
 40
1.0
 50
15.0
 51
90.0
  0
LINE
  8
0
  6
CONTINUOUS
 62
     1
 10
870.548034819
 20
662.241180955
 30
0.0
 11
868.265740571
 21
670.758819045
 31
0.0
  0
ARC
  8
0
  6
CONTINUOUS
 62
     1
 10
871.513960645
 20
662.5
 30
0.0
 40
1.0
 50
195.0
 51
270.0
  0
LINE
  8
0
  6
CONTINUOUS
 62
     1
 10
836.75
 20
657.25
 30
0.0
 11
836.75
 21
621.5
 31
0.0
  0
LINE
  8
0
  6
CONTINUOUS
 62
     1
 10
836.75
 20
657.25
 30
0.0
 11
850.75
 21
657.25
 31
0.0
  0
LINE
  8
0
  6
CONTINUOUS
 62
     1
 10
850.75
 20
657.25
 30
0.0
 11
850.75
 21
621.5
 31
0.0
  0
LINE
  8
0
  6
CONTINUOUS
 62
     1
 10
850.75
 20
655.25
 30
0.0
 11
853.75
 21
655.25
 31
0.0
  0
LINE
  8
0
  6
CONTINUOUS
 62
     1
 10
858.871501365
 20
671.5
 30
0.0
 11
858.871501365
 21
621.5
 31
0.0
  0
LINE
  8
0
  6
CONTINUOUS
 62
     1
 10
863.085658055
 20
661.5
 30
0.0
 11
863.085658055
 21
621.5
 31
0.0
  0
LINE
  8
0
  6
CONTINUOUS
 62
     1
 10
867.299814745
 20
671.5
 30
0.0
 11
867.299814745
 21
621.5
 31
0.0
  0
LINE
  8
0
  6
CONTINUOUS
 62
     1
 10
871.513971435
 20
661.5
 30
0.0
 11
871.513971435
 21
621.5
 31
0.0
  0
LINE
  8
0
  6
LTYPE3
 62
     3
 10
858.871501365
 20
671.5
 30
0.0
 11
915.212146432
 21
671.5
 31
0.0
  0
LINE
  8
0
  6
LTYPE3
 62
     3
 10
863.085647265
 20
661.5
 30
0.0
 11
910.998000531
 21
661.5
 31
0.0
  0
LINE
  8
0
  6
CONTINUOUS
 62
     1
 10
833.75
 20
655.25
 30
0.0
 11
833.75
 21
653.25
 31
0.0
  0
LINE
  8
0
  6
CONTINUOUS
 62
     1
 10
833.75
 20
655.25
 30
0.0
 11
836.75
 21
655.25
 31
0.0
  0
LINE
  8
0
  6
CONTINUOUS
 62
     1
 10
833.75
 20
655.25
 30
0.0
 11
833.75
 21
621.5
 31
0.0
  0
LINE
  8
0
  6
CONTINUOUS
 62
     1
 10
883.75
 20
602.5
 30
0.0
 11
943.75
 21
602.5
 31
0.0
  0
LINE
  8
0
  6
CONTINUOUS
 62
     1
 10
926.75
 20
598.5
 30
0.0
 11
940.75
 21
598.5
 31
0.0
  0
LINE
  8
0
  6
CONTINUOUS
 62
     1
 10
940.75
 20
600.5
 30
0.0
 11
943.75
 21
600.5
 31
0.0
  0
LINE
  8
0
  6
CONTINUOUS
 62
     1
 10
923.75
 20
600.5
 30
0.0
 11
916.178072258
 21
572.241180955
 31
0.0
  0
ARC
  8
0
  6
CONTINUOUS
 62
     1
 10
915.212146432
 20
572.5
 30
0.0
 40
1.0
 50
270.0
 51
345.0
  0
ARC
  8
0
  6
CONTINUOUS
 62
     1
 10
915.212146432
 20
572.5
 30
0.0
 40
1.0
 50
195.0
 51
270.0
  0
LINE
  8
0
  6
CONTINUOUS
 62
     1
 10
911.963926358
 20
580.758819045
 30
0.0
 11
914.246220605
 21
572.241180955
 31
0.0
  0
ARC
  8
0
  6
CONTINUOUS
 62
     1
 10
910.998000531
 20
580.5
 30
0.0
 40
1.0
 50
15.0
 51
90.0
  0
ARC
  8
0
  6
CONTINUOUS
 62
     1
 10
910.998000531
 20
580.5
 30
0.0
 40
1.0
 50
90.0
 51
165.0
  0
LINE
  8
0
  6
CONTINUOUS
 62
     1
 10
910.032074705
 20
580.758819045
 30
0.0
 11
907.749780457
 21
572.241180955
 31
0.0
  0
ARC
  8
0
  6
CONTINUOUS
 62
     1
 10
906.783854631
 20
572.5
 30
0.0
 40
1.0
 50
270.0
 51
345.0
  0
ARC
  8
0
  6
CONTINUOUS
 62
     1
 10
902.569708731
 20
580.5
 30
0.0
 40
1.0
 50
15.0
 51
90.0
  0
LINE
  8
0
  6
CONTINUOUS
 62
     1
 10
903.535634557
 20
580.758819045
 30
0.0
 11
905.817928805
 21
572.241180955
 31
0.0
  0
ARC
  8
0
  6
CONTINUOUS
 62
     1
 10
906.783854631
 20
572.5
 30
0.0
 40
1.0
 50
195.0
 51
270.0
  0
LINE
  8
0
  6
CONTINUOUS
 62
     1
 10
833.75
 20
587.75
 30
0.0
 11
853.75
 21
587.75
 31
0.0
  0
LINE
  8
0
  6
CONTINUOUS
 62
     1
 10
853.75
 20
587.75
 30
0.0
 11
857.905575539
 21
572.241180955
 31
0.0
  0
ARC
  8
0
  6
CONTINUOUS
 62
     1
 10
858.871501365
 20
572.5
 30
0.0
 40
1.0
 50
195.0
 51
270.0
  0
ARC
  8
0
  6
CONTINUOUS
 62
     1
 10
858.871501365
 20
572.5
 30
0.0
 40
1.0
 50
270.0
 51
345.0
  0
LINE
  8
0
  6
CONTINUOUS
 62
     1
 10
862.119721439
 20
580.758819045
 30
0.0
 11
859.837427191
 21
572.241180955
 31
0.0
  0
ARC
  8
0
  6
CONTINUOUS
 62
     1
 10
863.085647265
 20
580.5
 30
0.0
 40
1.0
 50
90.0
 51
165.0
  0
ARC
  8
0
  6
CONTINUOUS
 62
     1
 10
867.299793166
 20
572.5
 30
0.0
 40
1.0
 50
195.0
 51
270.0
  0
LINE
  8
0
  6
CONTINUOUS
 62
     1
 10
864.051573092
 20
580.758819045
 30
0.0
 11
866.333867339
 21
572.241180955
 31
0.0
  0
ARC
  8
0
  6
CONTINUOUS
 62
     1
 10
863.085647265
 20
580.5
 30
0.0
 40
1.0
 50
15.0
 51
90.0
  0
ARC
  8
0
  6
CONTINUOUS
 62
     1
 10
867.299814745
 20
572.5
 30
0.0
 40
1.0
 50
270.0
 51
345.0
  0
LINE
  8
0
  6
CONTINUOUS
 62
     1
 10
870.548034819
 20
580.758819045
 30
0.0
 11
868.265740571
 21
572.241180955
 31
0.0
  0
ARC
  8
0
  6
CONTINUOUS
 62
     1
 10
871.513960645
 20
580.5
 30
0.0
 40
1.0
 50
90.0
 51
165.0
  0
LINE
  8
0
  6
CONTINUOUS
 62
     1
 10
836.75
 20
585.75
 30
0.0
 11
850.75
 21
585.75
 31
0.0
  0
LINE
  8
0
  6
CONTINUOUS
 62
     1
 10
833.75
 20
587.75
 30
0.0
 11
833.75
 21
589.75
 31
0.0
  0
LINE
  8
0
  6
CONTINUOUS
 62
     1
 10
850.75
 20
585.75
 30
0.0
 11
850.75
 21
587.75
 31
0.0
  0
LINE
  8
0
  6
CONTINUOUS
 62
     1
 10
836.75
 20
585.75
 30
0.0
 11
836.75
 21
587.75
 31
0.0
  0
LINE
  8
0
  6
CONTINUOUS
 62
     1
 10
923.75
 20
602.5
 30
0.0
 11
923.75
 21
600.5
 31
0.0
  0
LINE
  8
0
  6
CONTINUOUS
 62
     1
 10
926.75
 20
600.5
 30
0.0
 11
926.75
 21
598.5
 31
0.0
  0
LINE
  8
0
  6
CONTINUOUS
 62
     1
 10
940.75
 20
600.5
 30
0.0
 11
940.75
 21
598.5
 31
0.0
  0
LINE
  8
0
  6
LTYPE3
 62
     3
 10
858.871501365
 20
571.5
 30
0.0
 11
915.212146432
 21
571.5
 31
0.0
  0
LINE
  8
0
  6
LTYPE3
 62
     3
 10
863.085647265
 20
581.5
 30
0.0
 11
910.998000531
 21
581.5
 31
0.0
  0
LINE
  8
0
  6
CONTINUOUS
 62
     1
 10
883.75
 20
621.5
 30
0.0
 11
883.75
 21
589.75
 31
0.0
  0
LINE
  8
0
  6
CONTINUOUS
 62
     1
 10
849.85
 20
589.75
 30
0.0
 11
849.85
 21
621.3
 31
0.0
  0
LINE
  8
2
  6
CONTINUOUS
 62
     2
 10
883.75
 20
767.0
 30
0.0
 11
874.090741737
 21
764.411809549
 31
0.0
  0
LINE
  8
2
  6
CONTINUOUS
 62
     2
 10
883.75
 20
767.0
 30
0.0
 11
893.409258263
 21
764.411809549
 31
0.0
  0
LINE
  8
2
  6
CONTINUOUS
 62
     2
 10
883.75
 20
767.0
 30
0.0
 11
874.090741737
 21
769.588190451
 31
0.0
  0
LINE
  8
2
  6
CONTINUOUS
 62
     2
 10
883.75
 20
767.0
 30
0.0
 11
893.409258263
 21
769.588190451
 31
0.0
  0
LINE
  8
0
  6
CONTINUOUS
 62
     1
 10
940.75
 20
642.5
 30
0.0
 11
943.85
 21
642.5
 31
0.0
  0
LINE
  8
0
  6
CONTINUOUS
 62
     1
 10
883.75
 20
602.5
 30
0.0
 11
943.85
 21
602.5
 31
0.0
  0
LINE
  8
0
  6
CONTINUOUS
 62
     1
 10
923.75
 20
600.5
 30
0.0
 11
943.85
 21
600.5
 31
0.0
  0
LINE
  8
0
  6
CONTINUOUS
 62
     1
 10
943.85
 20
600.5
 30
0.0
 11
943.85
 21
642.5
 31
0.0
  0
LINE
  8
2
  6
CONTINUOUS
 62
     2
 10
883.75
 20
767.0
 30
0.0
 11
943.85
 21
767.0
 31
0.0
  0
LINE
  8
2
  6
CONTINUOUS
 62
     2
 10
559.75
 20
767.0
 30
0.0
 11
883.75
 21
767.0
 31
0.0
  0
LINE
  8
2
  6
CONTINUOUS
 62
     2
 10
996.628797381
 20
829.7
 30
0.0
 11
1019.728797381
 21
829.7
 31
0.0
  0
LINE
  8
2
  6
CONTINUOUS
 62
     2
 10
978.85
 20
829.7
 30
0.0
 11
996.628797381
 21
829.7
 31
0.0
  0
LINE
  8
0
  6
CONTINUOUS
 62
     1
 10
986.85
 20
338.3
 30
0.0
 11
986.85
 21
330.3
 31
0.0
  0
LINE
  8
0
  6
CONTINUOUS
 62
     1
 10
970.85
 20
330.3
 30
0.0
 11
970.85
 21
338.3
 31
0.0
  0
LINE
  8
0
  6
CONTINUOUS
 62
     1
 10
996.85
 20
330.3
 30
0.0
 11
996.85
 21
318.3
 31
0.0
  0
LINE
  8
0
  6
CONTINUOUS
 62
     1
 10
943.85
 20
338.3
 30
0.0
 11
943.85
 21
318.3
 31
0.0
  0
LINE
  8
0
  6
CONTINUOUS
 62
     1
 10
943.85
 20
318.3
 30
0.0
 11
996.85
 21
318.3
 31
0.0
  0
LINE
  8
0
  6
CONTINUOUS
 62
     1
 10
953.85
 20
338.3
 30
0.0
 11
953.85
 21
330.3
 31
0.0
  0
LINE
  8
0
  6
CONTINUOUS
 62
     1
 10
953.85
 20
330.3
 30
0.0
 11
996.85
 21
330.3
 31
0.0
  0
LINE
  8
0
  6
CONTINUOUS
 62
     2
 10
1077.05
 20
318.3
 30
0.0
 11
1079.638190451
 21
327.959258263
 31
0.0
  0
LINE
  8
0
  6
CONTINUOUS
 62
     2
 10
1077.05
 20
318.3
 30
0.0
 11
1074.461809549
 21
327.959258263
 31
0.0
  0
LINE
  8
0
  6
CONTINUOUS
 62
     2
 10
1034.583854631
 20
330.3
 30
0.0
 11
1037.172045082
 21
339.959258263
 31
0.0
  0
LINE
  8
0
  6
CONTINUOUS
 62
     2
 10
1034.583854631
 20
330.3
 30
0.0
 11
1031.99566418
 21
339.959258263
 31
0.0
  0
LINE
  8
0
  6
CONTINUOUS
 62
     2
 10
996.85
 20
330.3
 30
0.0
 11
1042.583854631
 21
330.3
 31
0.0
  0
LINE
  8
0
  6
CONTINUOUS
 62
     2
 10
1034.683854631
 20
318.3
 30
0.0
 11
1037.272045082
 21
308.640741737
 31
0.0
  0
LINE
  8
0
  6
CONTINUOUS
 62
     2
 10
1034.683854631
 20
318.3
 30
0.0
 11
1032.09566418
 21
308.640741737
 31
0.0
  0
LINE
  8
0
  6
CONTINUOUS
 62
     2
 10
996.85
 20
318.3
 30
0.0
 11
1042.683854631
 21
318.3
 31
0.0
  0
LINE
  8
0
  6
CONTINUOUS
 62
     2
 10
1042.683854631
 20
318.3
 30
0.0
 11
1082.85
 21
318.3
 31
0.0
  0
LINE
  8
0
  6
LTYPE3
 62
     2
 10
1007.75
 20
338.3
 30
0.0
 11
943.85
 21
338.3
 31
0.0
  0
LINE
  8
0
  6
CONTINUOUS
 62
     1
 10
943.85
 20
338.3
 30
0.0
 11
943.85
 21
318.3
 31
0.0
  0
LINE
  8
0
  6
CONTINUOUS
 62
     1
 10
943.85
 20
318.3
 30
0.0
 11
943.85
 21
338.3
 31
0.0
  0
LINE
  8
0
  6
CONTINUOUS
 62
     1
 10
943.85
 20
338.3
 30
0.0
 11
943.85
 21
318.3
 31
0.0
  0
LINE
  8
0
  6
CONTINUOUS
 62
     1
 10
910.85
 20
315.3
 30
0.0
 11
924.85
 21
315.3
 31
0.0
  0
LINE
  8
0
  6
CONTINUOUS
 62
     1
 10
924.85
 20
338.3
 30
0.0
 11
924.85
 21
315.3
 31
0.0
  0
LINE
  8
0
  6
CONTINUOUS
 62
     1
 10
924.85
 20
317.3
 30
0.0
 11
927.85
 21
317.3
 31
0.0
  0
LINE
  8
0
  6
CONTINUOUS
 62
     1
 10
907.85
 20
317.3
 30
0.0
 11
910.85
 21
317.3
 31
0.0
  0
LINE
  8
0
  6
CONTINUOUS
 62
     1
 10
907.85
 20
317.3
 30
0.0
 11
900.278072258
 21
289.041180955
 31
0.0
  0
ARC
  8
0
  6
CONTINUOUS
 62
     1
 10
899.312146432
 20
289.3
 30
0.0
 40
1.0
 50
270.0
 51
345.0
  0
ARC
  8
0
  6
CONTINUOUS
 62
     1
 10
899.312146432
 20
289.3
 30
0.0
 40
1.0
 50
195.0
 51
270.0
  0
LINE
  8
0
  6
CONTINUOUS
 62
     1
 10
896.063926358
 20
297.558819045
 30
0.0
 11
898.346220605
 21
289.041180955
 31
0.0
  0
ARC
  8
0
  6
CONTINUOUS
 62
     1
 10
895.098000531
 20
297.3
 30
0.0
 40
1.0
 50
15.0
 51
90.0
  0
ARC
  8
0
  6
CONTINUOUS
 62
     1
 10
895.098000531
 20
297.3
 30
0.0
 40
1.0
 50
90.0
 51
165.0
  0
LINE
  8
0
  6
CONTINUOUS
 62
     1
 10
894.132074705
 20
297.558819045
 30
0.0
 11
891.849780457
 21
289.041180955
 31
0.0
  0
ARC
  8
0
  6
CONTINUOUS
 62
     1
 10
890.883854631
 20
289.3
 30
0.0
 40
1.0
 50
270.0
 51
345.0
  0
ARC
  8
0
  6
CONTINUOUS
 62
     1
 10
886.669708731
 20
297.3
 30
0.0
 40
1.0
 50
15.0
 51
90.0
  0
LINE
  8
0
  6
CONTINUOUS
 62
     1
 10
887.635634557
 20
297.558819045
 30
0.0
 11
889.917928805
 21
289.041180955
 31
0.0
  0
ARC
  8
0
  6
CONTINUOUS
 62
     1
 10
890.883854631
 20
289.3
 30
0.0
 40
1.0
 50
195.0
 51
270.0
  0
LINE
  8
0
  6
CONTINUOUS
 62
     1
 10
890.883854631
 20
288.3
 30
0.0
 11
890.883854631
 21
338.3
 31
0.0
  0
LINE
  8
0
  6
CONTINUOUS
 62
     1
 10
886.469708731
 20
298.3
 30
0.0
 11
886.469708731
 21
338.3
 31
0.0
  0
LINE
  8
0
  6
CONTINUOUS
 62
     1
 10
895.098000531
 20
298.3
 30
0.0
 11
895.098000531
 21
338.3
 31
0.0
  0
LINE
  8
0
  6
CONTINUOUS
 62
     1
 10
899.312146432
 20
338.3
 30
0.0
 11
899.312146432
 21
288.3
 31
0.0
  0
LINE
  8
0
  6
CONTINUOUS
 62
     1
 10
910.85
 20
338.3
 30
0.0
 11
910.85
 21
315.3
 31
0.0
  0
LINE
  8
0
  6
CONTINUOUS
 62
     1
 10
907.85
 20
338.3
 30
0.0
 11
907.85
 21
317.3
 31
0.0
  0
LINE
  8
0
  6
LTYPE2
 62
     2
 10
872.05
 20
338.3
 30
0.0
 11
927.85
 21
338.3
 31
0.0
  0
LINE
  8
2
  6
CONTINUOUS
 62
     2
 10
846.75
 20
288.3
 30
0.0
 11
849.338190451
 21
297.959258263
 31
0.0
  0
LINE
  8
2
  6
CONTINUOUS
 62
     2
 10
846.75
 20
288.3
 30
0.0
 11
844.161809549
 21
297.959258263
 31
0.0
  0
LINE
  8
2
  6
CONTINUOUS
 62
     2
 10
886.883854631
 20
288.3
 30
0.0
 11
838.75
 21
288.3
 31
0.0
  0
LINE
  8
0
  6
CONTINUOUS
 62
     1
 10
927.85
 20
303.3
 30
0.0
 11
943.85
 21
303.3
 31
0.0
  0
LINE
  8
0
  6
LTYPE2
 62
     2
 10
935.85
 20
305.3
 30
0.0
 11
935.85
 21
319.3
 31
0.0
  0
LINE
  8
0
  6
LTYPE2
 62
     2
 10
929.85
 20
312.3
 30
0.0
 11
941.85
 21
312.3
 31
0.0
  0
LINE
  8
0
  6
LTYPE2
 62
     2
 10
927.85
 20
338.3
 30
0.0
 11
943.85
 21
338.3
 31
0.0
  0
TEXT
  8
0
  6
CONTINUOUS
 62
     2
 10
1030.683854631
 20
288.8
 30
0.0
 40
15.0
  1
１２
 50
90.0
 41
0.9
 51
0.0
  7
KANJI26
  0
LINE
  8
0
  6
CONTINUOUS
 62
     1
 10
1195.65
 20
601.5
 30
0.0
 11
1215.65
 21
601.5
 31
0.0
  0
LINE
  8
0
  6
CONTINUOUS
 62
     1
 10
1207.65
 20
613.5
 30
0.0
 11
1215.65
 21
613.5
 31
0.0
  0
LINE
  8
0
  6
CONTINUOUS
 62
     1
 10
1235.65
 20
601.5
 30
0.0
 11
1215.65
 21
601.5
 31
0.0
  0
LINE
  8
0
  6
CONTINUOUS
 62
     1
 10
1223.65
 20
613.5
 30
0.0
 11
1215.65
 21
613.5
 31
0.0
  0
CIRCLE
  8
0
  6
CONTINUOUS
 62
     1
 10
1254.540872965
 20
582.609127035
 30
0.0
 40
5.0
  0
CIRCLE
  8
0
  6
CONTINUOUS
 62
     1
 10
1176.759127035
 20
582.609127035
 30
0.0
 40
5.0
  0
LINE
  8
0
  6
LTYPE3
 62
     2
 10
1153.25
 20
621.5
 30
0.0
 11
1276.45
 21
621.5
 31
0.0
  0
LINE
  8
0
  6
LTYPE3
 62
     2
 10
1247.840872965
 20
589.309127035
 30
0.0
 11
1260.940872965
 21
576.209127035
 31
0.0
  0
ARC
  8
0
  6
LTYPE3
 62
     2
 10
1215.65
 20
621.5
 30
0.0
 40
55.0
 50
304.150984485
 51
324.573837847
  0
LINE
  8
0
  6
LTYPE3
 62
     2
 10
1183.459127035
 20
589.309127035
 30
0.0
 11
1170.359127035
 21
576.209127035
 31
0.0
  0
ARC
  8
0
  6
LTYPE3
 62
     2
 10
1215.65
 20
621.5
 30
0.0
 40
55.0
 50
215.426162153
 51
235.849015515
  0
LINE
  8
0
  6
CONTINUOUS
 62
     1
 10
1195.65
 20
621.5
 30
0.0
 11
1195.65
 21
601.5
 31
0.0
  0
LINE
  8
0
  6
CONTINUOUS
 62
     1
 10
1207.65
 20
621.5
 30
0.0
 11
1207.65
 21
601.5
 31
0.0
  0
LINE
  8
0
  6
CONTINUOUS
 62
     1
 10
1223.65
 20
621.0
 30
0.0
 11
1223.65
 21
601.5
 31
0.0
  0
LINE
  8
0
  6
CONTINUOUS
 62
     1
 10
1235.65
 20
621.5
 30
0.0
 11
1235.65
 21
601.5
 31
0.0
  0
LINE
  8
0
  6
CONTINUOUS
 62
     1
 10
1195.65
 20
641.5
 30
0.0
 11
1215.65
 21
641.5
 31
0.0
  0
LINE
  8
0
  6
CONTINUOUS
 62
     1
 10
1207.65
 20
629.5
 30
0.0
 11
1215.65
 21
629.5
 31
0.0
  0
LINE
  8
0
  6
CONTINUOUS
 62
     1
 10
1235.65
 20
641.5
 30
0.0
 11
1215.65
 21
641.5
 31
0.0
  0
LINE
  8
0
  6
CONTINUOUS
 62
     1
 10
1223.65
 20
629.5
 30
0.0
 11
1215.65
 21
629.5
 31
0.0
  0
CIRCLE
  8
0
  6
CONTINUOUS
 62
     1
 10
1254.540872965
 20
660.390872965
 30
0.0
 40
5.0
  0
LINE
  8
0
  6
LTYPE3
 62
     2
 10
1247.840872965
 20
653.690872965
 30
0.0
 11
1260.940872965
 21
666.790872965
 31
0.0
  0
ARC
  8
0
  6
LTYPE3
 62
     2
 10
1215.65
 20
621.5
 30
0.0
 40
55.0
 50
35.426162153
 51
55.849015515
  0
LINE
  8
0
  6
CONTINUOUS
 62
     1
 10
1235.65
 20
621.5
 30
0.0
 11
1235.65
 21
641.5
 31
0.0
  0
LINE
  8
0
  6
CONTINUOUS
 62
     1
 10
1223.65
 20
621.5
 30
0.0
 11
1223.65
 21
641.5
 31
0.0
  0
LINE
  8
0
  6
CONTINUOUS
 62
     1
 10
1207.65
 20
621.5
 30
0.0
 11
1207.65
 21
641.5
 31
0.0
  0
LINE
  8
0
  6
CONTINUOUS
 62
     1
 10
1195.65
 20
621.5
 30
0.0
 11
1195.65
 21
641.5
 31
0.0
  0
LINE
  8
0
  6
LTYPE1
 62
     2
 10
1155.65
 20
629.5
 30
0.0
 11
1177.65
 21
629.5
 31
0.0
  0
LINE
  8
0
  6
LTYPE1
 62
     2
 10
1155.65
 20
613.5
 30
0.0
 11
1177.65
 21
613.5
 31
0.0
  0
LINE
  8
0
  6
LTYPE1
 62
     2
 10
1253.65
 20
621.5
 30
0.0
 11
1253.65
 21
613.5
 31
0.0
  0
LINE
  8
0
  6
LTYPE1
 62
     2
 10
1275.65
 20
629.5
 30
0.0
 11
1253.65
 21
629.5
 31
0.0
  0
LINE
  8
0
  6
LTYPE1
 62
     2
 10
1275.65
 20
613.5
 30
0.0
 11
1253.65
 21
613.5
 31
0.0
  0
LINE
  8
0
  6
CONTINUOUS
 62
     2
 10
1215.65
 20
508.5
 30
0.0
 11
1215.65
 21
489.0
 31
0.0
  0
LINE
  8
0
  6
LTYPE3
 62
     2
 10
1215.65
 20
724.2
 30
0.0
 11
1215.65
 21
508.5
 31
0.0
  0
LINE
  8
0
  6
CONTINUOUS
 62
     2
 10
1215.65
 20
508.0
 30
0.0
 11
1215.65
 21
488.5
 31
0.0
  0
LINE
  8
2
  6
CONTINUOUS
 62
     2
 10
1270.650015259
 20
508.0
 30
0.0
 11
1314.150015259
 21
508.0
 31
0.0
  0
LINE
  8
2
  6
CONTINUOUS
 62
     2
 10
1306.150015259
 20
508.0
 30
0.0
 11
1308.73820571
 21
517.659258263
 31
0.0
  0
LINE
  8
2
  6
CONTINUOUS
 62
     2
 10
1306.150015259
 20
508.0
 30
0.0
 11
1303.561824808
 21
517.659258263
 31
0.0
  0
LINE
  8
2
  6
CONTINUOUS
 62
     2
 10
1306.150015259
 20
508.0
 30
0.0
 11
1306.150015259
 21
569.0
 31
0.0
  0
LINE
  8
2
  6
CONTINUOUS
 62
     2
 10
1306.150015259
 20
569.0
 30
0.0
 11
1303.561824808
 21
559.340741737
 31
0.0
  0
LINE
  8
2
  6
CONTINUOUS
 62
     2
 10
1306.150015259
 20
569.0
 30
0.0
 11
1308.73820571
 21
559.340741737
 31
0.0
  0
LINE
  8
2
  6
CONTINUOUS
 62
     2
 10
1290.150015259
 20
569.0
 30
0.0
 11
1314.150015259
 21
569.0
 31
0.0
  0
LINE
  8
2
  6
CONTINUOUS
 62
     2
 10
1299.650015259
 20
569.0
 30
0.0
 11
1314.150015259
 21
569.0
 31
0.0
  0
LINE
  8
2
  6
CONTINUOUS
 62
     2
 10
1306.150015259
 20
569.0
 30
0.0
 11
1308.73820571
 21
578.659258263
 31
0.0
  0
LINE
  8
2
  6
CONTINUOUS
 62
     2
 10
1306.150015259
 20
569.0
 30
0.0
 11
1303.561824808
 21
578.659258263
 31
0.0
  0
LINE
  8
2
  6
CONTINUOUS
 62
     2
 10
1306.150015259
 20
569.0
 30
0.0
 11
1306.150015259
 21
694.0
 31
0.0
  0
LINE
  8
2
  6
CONTINUOUS
 62
     2
 10
1306.150015259
 20
694.0
 30
0.0
 11
1303.561824808
 21
684.340741737
 31
0.0
  0
LINE
  8
2
  6
CONTINUOUS
 62
     2
 10
1306.150015259
 20
694.0
 30
0.0
 11
1308.73820571
 21
684.340741737
 31
0.0
  0
LINE
  8
2
  6
CONTINUOUS
 62
     2
 10
1253.65
 20
694.0
 30
0.0
 11
1314.150015259
 21
694.0
 31
0.0
  0
LINE
  8
2
  6
CONTINUOUS
 62
     2
 10
1310.150015259
 20
694.0
 30
0.0
 11
1343.15
 21
694.0
 31
0.0
  0
LINE
  8
2
  6
CONTINUOUS
 62
     2
 10
1335.15
 20
694.0
 30
0.0
 11
1332.561809549
 21
684.340741737
 31
0.0
  0
LINE
  8
2
  6
CONTINUOUS
 62
     2
 10
1335.15
 20
694.0
 30
0.0
 11
1337.738190451
 21
684.340741737
 31
0.0
  0
LINE
  8
2
  6
CONTINUOUS
 62
     2
 10
1335.15
 20
694.0
 30
0.0
 11
1335.15
 21
508.0
 31
0.0
  0
LINE
  8
2
  6
CONTINUOUS
 62
     2
 10
1335.15
 20
508.0
 30
0.0
 11
1337.738190451
 21
517.659258263
 31
0.0
  0
LINE
  8
2
  6
CONTINUOUS
 62
     2
 10
1335.15
 20
508.0
 30
0.0
 11
1332.561809549
 21
517.659258263
 31
0.0
  0
LINE
  8
2
  6
CONTINUOUS
 62
     2
 10
1314.150015259
 20
508.0
 30
0.0
 11
1343.15
 21
508.0
 31
0.0
  0
TEXT
  8
2
  6
CONTINUOUS
 62
     3
 10
1302.150015259
 20
525.1
 30
0.0
 40
15.0
  1
６１
 50
90.0
 41
0.9
 51
0.0
  7
KANJI26
  0
TEXT
  8
2
  6
CONTINUOUS
 62
     3
 10
1302.150015259
 20
611.1
 30
0.0
 40
15.0
  1
１２５
 50
90.0
 41
0.9
 51
0.0
  7
KANJI26
  0
TEXT
  8
2
  6
CONTINUOUS
 62
     3
 10
1331.15
 20
580.6
 30
0.0
 40
15.0
  1
１８６
 50
90.0
 41
0.9
 51
0.0
  7
KANJI26
  0
CIRCLE
  8
0
  6
CONTINUOUS
 62
     1
 10
1215.65
 20
621.5
 30
0.0
 40
47.5
  0
LINE
  8
0
  6
LTYPE1
 62
     2
 10
1212.65
 20
661.38734135
 30
0.0
 11
1212.65
 21
658.690341615
 31
0.0
  0
ARC
  8
0
  6
LTYPE1
 62
     2
 10
1215.65
 20
621.5
 30
0.0
 40
40.0
 50
94.320116859
 51
175.698777695
  0
ARC
  8
0
  6
LTYPE1
 62
     2
 10
1215.65
 20
621.5
 30
0.0
 40
40.0
 50
4.310625825
 51
85.698777695
  0
LINE
  8
0
  6
LTYPE1
 62
     2
 10
1218.65
 20
661.38734135
 30
0.0
 11
1218.65
 21
658.690341615
 31
0.0
  0
LINE
  8
0
  6
LTYPE1
 62
     2
 10
1218.65
 20
658.690341615
 30
0.0
 11
1212.65
 21
658.690341615
 31
0.0
  0
LINE
  8
0
  6
LTYPE1
 62
     2
 10
1253.65
 20
621.5
 30
0.0
 11
1253.65
 21
629.5
 31
0.0
  0
LINE
  8
0
  6
LTYPE1
 62
     2
 10
1252.840341615
 20
624.5
 30
0.0
 11
1252.840341615
 21
618.5
 31
0.0
  0
LINE
  8
0
  6
LTYPE1
 62
     2
 10
1255.53734135
 20
624.5
 30
0.0
 11
1252.840341615
 21
624.5
 31
0.0
  0
LINE
  8
0
  6
LTYPE1
 62
     2
 10
1255.53734135
 20
618.5
 30
0.0
 11
1252.840341615
 21
618.5
 31
0.0
  0
ARC
  8
0
  6
LTYPE1
 62
     2
 10
1215.65
 20
621.5
 30
0.0
 40
40.0
 50
274.301222305
 51
355.689374175
  0
LINE
  8
0
  6
LTYPE1
 62
     2
 10
1218.65
 20
584.309658385
 30
0.0
 11
1212.65
 21
584.309658385
 31
0.0
  0
LINE
  8
0
  6
LTYPE1
 62
     2
 10
1218.65
 20
581.61265865
 30
0.0
 11
1218.65
 21
584.309658385
 31
0.0
  0
LINE
  8
0
  6
LTYPE1
 62
     2
 10
1212.65
 20
581.61265865
 30
0.0
 11
1212.65
 21
584.309658385
 31
0.0
  0
ARC
  8
0
  6
LTYPE1
 62
     2
 10
1215.65
 20
621.5
 30
0.0
 40
40.0
 50
184.301222305
 51
265.679883141
  0
LINE
  8
0
  6
LTYPE1
 62
     2
 10
1177.65
 20
621.5
 30
0.0
 11
1177.65
 21
629.5
 31
0.0
  0
LINE
  8
0
  6
LTYPE1
 62
     2
 10
1175.76265865
 20
624.5
 30
0.0
 11
1178.459658385
 21
624.5
 31
0.0
  0
LINE
  8
0
  6
LTYPE1
 62
     2
 10
1177.65
 20
621.5
 30
0.0
 11
1177.65
 21
613.5
 31
0.0
  0
LINE
  8
0
  6
LTYPE1
 62
     2
 10
1175.76265865
 20
618.5
 30
0.0
 11
1178.459658385
 21
618.5
 31
0.0
  0
LINE
  8
0
  6
LTYPE1
 62
     2
 10
1178.459658385
 20
618.5
 30
0.0
 11
1178.459658385
 21
624.5
 31
0.0
  0
LINE
  8
0
  6
CONTINUOUS
 62
     1
 10
734.099814745
 20
653.25
 30
0.0
 11
833.75
 21
653.25
 31
0.0
  0
LINE
  8
0
  6
CONTINUOUS
 62
     1
 10
734.099814745
 20
589.75
 30
0.0
 11
883.75
 21
589.75
 31
0.0
  0
TEXT
  8
0
  6
CONTINUOUS
 62
     2
 10
1549.75
 20
210.0
 30
0.0
 40
17.5
  1
ＭＣＳＤＢＢ０３－Ｊ
 50
0.0
 41
0.793650794
 51
0.0
  7
KANJI27
  0
TEXT
  8
0
  6
CONTINUOUS
 62
     2
 10
1645.4166945
 20
129.999995
 30
10.833333333
 40
25.0
  1
３００２３５６
 50
0.0
 41
0.8
 51
0.0
  7
KANJI28
  0
TEXT
  8
0
  6
CONTINUOUS
 62
     2
 10
1441.25
 20
1193.65
 30
1.2
 40
12.0
  1
１９
 50
0.0
 41
0.9
 51
0.0
  7
KANJI18
  0
TEXT
  8
0
  6
CONTINUOUS
 62
     2
 10
1441.25
 20
1165.65
 30
1.2
 40
12.0
  1
２０
 50
0.0
 41
0.9
 51
0.0
  7
KANJI18
  0
TEXT
  8
0
  6
CONTINUOUS
 62
     2
 10
1441.25
 20
1137.65
 30
1.2
 40
12.0
  1
２１
 50
0.0
 41
0.9
 51
0.0
  7
KANJI18
  0
TEXT
  8
0
  6
CONTINUOUS
 62
     2
 10
1441.25
 20
1109.65
 30
1.2
 40
12.0
  1
２２
 50
0.0
 41
0.9
 51
0.0
  7
KANJI18
  0
TEXT
  8
0
  6
CONTINUOUS
 62
     2
 10
1441.25
 20
1081.65
 30
1.2
 40
12.0
  1
２３
 50
0.0
 41
0.9
 51
0.0
  7
KANJI18
  0
TEXT
  8
0
  6
CONTINUOUS
 62
     2
 10
1441.25
 20
1053.65
 30
1.2
 40
12.0
  1
２４
 50
0.0
 41
0.9
 51
0.0
  7
KANJI18
  0
TEXT
  8
0
  6
CONTINUOUS
 62
     2
 10
1441.25
 20
1025.65
 30
1.2
 40
12.0
  1
２５
 50
0.0
 41
0.9
 51
0.0
  7
KANJI18
  0
LINE
  8
0
  6
LTYPE2
 62
     6
 10
93.158333
 20
995.833317
 30
0.0
 11
93.158333
 21
979.432460936
 31
0.0
  0
LINE
  8
0
  6
LTYPE2
 62
     6
 10
223.555262694
 20
995.833317
 30
0.0
 11
93.158333
 21
995.833317
 31
0.0
  0
TEXT
  8
0
  6
CONTINUOUS
 62
     6
 10
75.623590591
 20
982.348168681
 30
1.093390404
 40
10.933904043
  1
Ｕ
 50
0.0
 41
0.9
 51
0.0
  7
KANJI29
  0
CIRCLE
  8
0
  6
CONTINUOUS
 62
     6
 10
93.158333
 20
976.152289723
 30
0.0
 40
4.373561617
  0
LINE
  8
0
  6
CONTINUOUS
 62
     6
 10
88.13354931
 20
971.127506033
 30
0.0
 11
98.338526417
 21
981.33248314
 31
0.0
  0
TEXT
  8
0
  6
CONTINUOUS
 62
     6
 10
103.403806047
 20
1004.499448352
 30
1.518597784
 40
15.185977837
  1
エコノストップモータ
 50
0.0
 41
0.66671875
 51
0.0
  7
KANJI30
  0
LINE
  8
0
  6
LTYPE2
 62
     6
 10
223.555262694
 20
900.421584891
 30
0.0
 11
223.555262694
 21
995.833317
 31
0.0
  0
CIRCLE
  8
0
  6
CONTINUOUS
 62
     6
 10
137.987339575
 20
950.639846957
 30
0.0
 40
18.223173404
  0
TEXT
  8
0
  6
CONTINUOUS
 62
     6
 10
130.333606745
 20
941.892723723
 30
1.82231734
 40
18.223173404
  1
Ｍ
 50
0.0
 41
0.9
 51
0.0
  7
KANJI31
  0
LINE
  8
0
  6
CONTINUOUS
 62
     6
 10
113.932750681
 20
925.127404191
 30
0.0
 11
125.231118192
 21
938.248089042
 31
0.0
  0
LINE
  8
0
  6
CONTINUOUS
 62
     6
 10
113.932750681
 20
976.152289723
 30
0.0
 11
125.231118192
 21
963.031604872
 31
0.0
  0
LINE
  8
0
  6
CONTINUOUS
 62
     6
 10
113.932750681
 20
976.152289723
 30
0.0
 11
97.531894617
 21
976.152289723
 31
0.0
  0
LINE
  8
0
  6
CONTINUOUS
 62
     6
 10
120.128629639
 20
950.639846957
 30
0.0
 11
97.531894617
 21
950.639846957
 31
0.0
  0
LINE
  8
0
  6
CONTINUOUS
 62
     6
 10
113.932750681
 20
925.127404191
 30
0.0
 11
97.531894617
 21
925.127404191
 31
0.0
  0
TEXT
  8
0
  6
CONTINUOUS
 62
     6
 10
76.716980995
 20
956.471262446
 30
1.093390404
 40
10.933904043
  1
Ｖ
 50
0.0
 41
0.9
 51
0.0
  7
KANJI29
  0
TEXT
  8
0
  6
CONTINUOUS
 62
     6
 10
77.810371399
 20
930.594356212
 30
1.093390404
 40
10.933904043
  1
Ｗ
 50
0.0
 41
0.9
 51
0.0
  7
KANJI29
  0
CIRCLE
  8
0
  6
CONTINUOUS
 62
     6
 10
93.158333
 20
950.639846957
 30
0.0
 40
4.373561617
  0
LINE
  8
0
  6
CONTINUOUS
 62
     6
 10
88.13354931
 20
945.615063267
 30
0.0
 11
98.338526417
 21
955.820040374
 31
0.0
  0
LINE
  8
0
  6
LTYPE2
 62
     6
 10
93.158333
 20
972.143191574
 30
0.0
 11
93.158333
 21
953.92001817
 31
0.0
  0
CIRCLE
  8
0
  6
CONTINUOUS
 62
     6
 10
93.158333
 20
925.127404191
 30
0.0
 40
4.373561617
  0
LINE
  8
0
  6
CONTINUOUS
 62
     6
 10
88.13354931
 20
920.102620501
 30
0.0
 11
98.338526417
 21
930.307597607
 31
0.0
  0
LINE
  8
0
  6
LTYPE2
 62
     6
 10
93.158333
 20
946.630748808
 30
0.0
 11
93.158333
 21
929.500965808
 31
0.0
  0
LINE
  8
0
  6
LTYPE2
 62
     6
 10
223.555262694
 20
900.421584891
 30
0.0
 11
93.158333
 21
900.421584891
 31
0.0
  0
LINE
  8
0
  6
LTYPE2
 62
     6
 10
93.158333
 20
920.753842574
 30
0.0
 11
93.158333
 21
900.421584891
 31
0.0
  0
TEXT
  8
0
  6
CONTINUOUS
 62
     2
 10
98.253726364
 20
875.212221811
 30
0.0
 40
15.6
  1
モーター結線図
 50
0.0
 41
0.925
 51
0.0
  7
KANJI32
  0
TEXT
  8
0
  6
CONTINUOUS
 62
     6
 10
164.228709277
 20
942.384749405
 30
1.457853872
 40
14.578538724
  1
Ｂ
 50
0.0
 41
0.9
 51
0.0
  7
KANJI33
  0
CIRCLE
  8
0
  6
CONTINUOUS
 62
     6
 10
170.789051703
 20
950.639846957
 30
0.0
 40
14.578538724
  0
LINE
  8
0
  6
CONTINUOUS
 62
     1
 10
373.75
 20
618.0
 30
0.0
 11
373.75
 21
575.0
 31
0.0
  0
TEXT
  8
0
  6
CONTINUOUS
 62
     2
 10
384.75
 20
580.0
 30
5.0
 40
20.0
  1
銘板
 50
0.0
 41
0.925
 51
0.0
  7
KANJI34
  0
LINE
  8
0
  6
CONTINUOUS
 62
     1
 10
443.75
 20
618.0
 30
0.0
 11
443.75
 21
575.0
 31
0.0
  0
LINE
  8
0
  6
CONTINUOUS
 62
     1
 10
373.75
 20
575.0
 30
0.0
 11
443.75
 21
575.0
 31
0.0
  0
LINE
  8
0
  6
CONTINUOUS
 62
     1
 10
373.75
 20
618.0
 30
0.0
 11
443.75
 21
618.0
 31
0.0
  0
ARC
  8
0
  6
CONTINUOUS
 62
     2
 10
147.2
 20
565.65
 30
0.0
 40
20.0
 50
203.198590514
 51
128.047042532
  0
LINE
  8
0
  6
CONTINUOUS
 62
     2
 10
128.8170994
 20
557.771614028
 30
0.0
 11
137.085260778
 21
552.864277493
 31
0.0
  0
LINE
  8
0
  6
CONTINUOUS
 62
     2
 10
128.8170994
 20
557.771614028
 30
0.0
 11
131.11179211
 21
547.934175251
 31
0.0
  0
TEXT
  8
0
  6
CONTINUOUS
 62
     2
 10
66.8170994
 20
561.528385972
 30
0.0
 40
15.0
  1
前進方向
 50
0.0
 41
0.9
 51
0.0
  7
KANJI26
  0
TEXT
  8
0
  6
CONTINUOUS
 62
     2
 10
231.65
 20
429.7
 30
0.0
 40
20.0
  1
ブレーキ解放装置はありません。
 50
0.0
 41
0.925
 51
0.0
  7
KANJI35
  0
TEXT
  8
0
  6
CONTINUOUS
 62
     2
 10
232.65
 20
404.7
 30
0.0
 40
20.0
  1
そのまま手動操作をして下さい．
 50
0.0
 41
0.925
 51
0.0
  7
KANJI35
  0
LINE
  8
2
  6
CONTINUOUS
 62
     2
 10
883.75
 20
635.8
 30
0.0
 11
883.75
 21
775.0
 31
0.0
  0
ARC
  8
0
  6
CONTINUOUS
 62
     1
 10
1269.15
 20
671.0
 30
0.0
 40
5.0
 50
0.000030901
 51
90.0
  0
LINE
  8
0
  6
CONTINUOUS
 62
     1
 10
1269.15
 20
676.0
 30
0.0
 11
1259.65
 21
676.0
 31
0.0
  0
ARC
  8
0
  6
CONTINUOUS
 62
     1
 10
1215.65
 20
621.5
 30
0.0
 40
65.0
 50
35.374590447
 51
54.625409553
  0
LINE
  8
0
  6
CONTINUOUS
 62
     1
 10
1178.020224556
 20
674.5
 30
0.0
 11
1253.279775444
 21
674.5
 31
0.0
  0
LINE
  8
0
  6
CONTINUOUS
 62
     1
 10
1241.257695155
 20
674.2
 30
0.0
 11
1241.257695155
 21
694.0
 31
0.0
  0
LINE
  8
0
  6
CONTINUOUS
 62
     1
 10
1251.65
 20
674.7
 30
0.0
 11
1251.65
 21
692.0
 31
0.0
  0
LINE
  8
0
  6
CONTINUOUS
 62
     1
 10
1259.65
 20
667.9
 30
0.0
 11
1259.65
 21
690.020045888
 31
0.0
  0
LINE
  8
0
  6
CONTINUOUS
 62
     2
 10
1275.65
 20
646.5
 30
0.0
 11
1275.65
 21
763.5
 31
0.0
  0
ARC
  8
0
  6
CONTINUOUS
 62
     1
 10
1249.65
 20
692.0
 30
0.0
 40
2.0
 50
0.0
 51
90.0
  0
LINE
  8
0
  6
CONTINUOUS
 62
     1
 10
1257.65
 20
692.020045888
 30
0.0
 11
1251.65
 21
692.020045888
 31
0.0
  0
ARC
  8
0
  6
CONTINUOUS
 62
     1
 10
1257.65
 20
690.020045888
 30
0.0
 40
2.0
 50
0.0
 51
90.0
  0
ARC
  8
0
  6
CONTINUOUS
 62
     1
 10
1242.257695155
 20
693.0
 30
0.0
 40
1.0
 50
90.0
 51
180.0
  0
ARC
  8
0
  6
CONTINUOUS
 62
     1
 10
1240.257695155
 20
693.0
 30
0.0
 40
1.0
 50
0.0
 51
90.0
  0
LINE
  8
0
  6
CONTINUOUS
 62
     1
 10
1249.65
 20
694.0
 30
0.0
 11
1181.65
 21
694.0
 31
0.0
  0
LINE
  8
0
  6
LTYPE3
 62
     2
 10
1183.459127035
 20
653.690872965
 30
0.0
 11
1170.359127035
 21
666.790872965
 31
0.0
  0
ARC
  8
0
  6
LTYPE3
 62
     2
 10
1215.65
 20
621.5
 30
0.0
 40
55.0
 50
124.150984485
 51
144.573837847
  0
LINE
  8
0
  6
CONTINUOUS
 62
     1
 10
1179.828740284
 20
692.020045888
 30
0.0
 11
1173.65
 21
692.020045888
 31
0.0
  0
ARC
  8
0
  6
CONTINUOUS
 62
     1
 10
1173.65
 20
690.020045888
 30
0.0
 40
2.0
 50
90.0
 51
180.0
  0
ARC
  8
0
  6
CONTINUOUS
 62
     1
 10
1181.65
 20
692.0
 30
0.0
 40
2.0
 50
90.0
 51
180.0
  0
ARC
  8
0
  6
CONTINUOUS
 62
     1
 10
1189.042304845
 20
693.0
 30
0.0
 40
1.0
 50
0.0
 51
90.0
  0
ARC
  8
0
  6
CONTINUOUS
 62
     1
 10
1191.042304845
 20
693.0
 30
0.0
 40
1.0
 50
90.0
 51
180.0
  0
CIRCLE
  8
0
  6
CONTINUOUS
 62
     1
 10
1176.759127035
 20
660.390872965
 30
0.0
 40
5.0
  0
LINE
  8
0
  6
CONTINUOUS
 62
     1
 10
1171.65
 20
676.0
 30
0.0
 11
1162.15
 21
676.0
 31
0.0
  0
ARC
  8
0
  6
CONTINUOUS
 62
     1
 10
1215.65
 20
621.5
 30
0.0
 40
65.0
 50
125.374590447
 51
144.625409553
  0
LINE
  8
0
  6
CONTINUOUS
 62
     1
 10
1171.65
 20
669.1
 30
0.0
 11
1171.65
 21
690.020045888
 31
0.0
  0
LINE
  8
0
  6
CONTINUOUS
 62
     1
 10
1179.65
 20
674.6
 30
0.0
 11
1179.65
 21
692.0
 31
0.0
  0
LINE
  8
0
  6
CONTINUOUS
 62
     1
 10
1190.042304845
 20
675.0
 30
0.0
 11
1190.042304845
 21
693.0
 31
0.0
  0
ARC
  8
0
  6
CONTINUOUS
 62
     1
 10
1162.15
 20
671.0
 30
0.0
 40
5.0
 50
90.0
 51
179.999969099
  0
LINE
  8
0
  6
CONTINUOUS
 62
     1
 10
1157.15
 20
671.000002697
 30
0.0
 11
1157.15
 21
641.778748346
 31
0.0
  0
LINE
  8
0
  6
CONTINUOUS
 62
     1
 10
1162.65
 20
659.129775444
 30
0.0
 11
1162.65
 21
641.7
 31
0.0
  0
LINE
  8
0
  6
CONTINUOUS
 62
     1
 10
1155.65
 20
601.5
 30
0.0
 11
1155.65
 21
641.5
 31
0.0
  0
LINE
  8
0
  6
CONTINUOUS
 62
     1
 10
1157.15
 20
601.25
 30
0.0
 11
1157.15
 21
518.0
 31
0.0
  0
LINE
  8
0
  6
CONTINUOUS
 62
     1
 10
1154.65
 20
619.5
 30
0.0
 11
1154.65
 21
518.0
 31
0.0
  0
LINE
  8
0
  6
CONTINUOUS
 62
     1
 10
1162.65
 20
601.5
 30
0.0
 11
1162.65
 21
583.870224556
 31
0.0
  0
ARC
  8
0
  6
CONTINUOUS
 62
     1
 10
1164.65
 20
619.5
 30
0.0
 40
10.0
 50
154.158067237
 51
180.0
  0
ARC
  8
0
  6
CONTINUOUS
 62
     1
 10
1215.65
 20
621.5
 30
0.0
 40
65.0
 50
215.374590447
 51
234.625409553
  0
LINE
  8
0
  6
LTYPE2
 62
     2
 10
1153.25
 20
568.5
 30
0.0
 11
1276.45
 21
568.5
 31
0.0
  0
LINE
  8
0
  6
CONTINUOUS
 62
     1
 10
1178.020224556
 20
568.5
 30
0.0
 11
1253.279775444
 21
568.5
 31
0.0
  0
LINE
  8
2
  6
CONTINUOUS
 62
     2
 10
1154.65
 20
514.0
 30
0.0
 11
1154.65
 21
413.641101056
 31
0.0
  0
LINE
  8
0
  6
CONTINUOUS
 62
     1
 10
1164.65
 20
507.5
 30
0.0
 11
1266.65
 21
507.5
 31
0.0
  0
ARC
  8
0
  6
CONTINUOUS
 62
     1
 10
1164.65
 20
517.5
 30
0.0
 40
10.0
 50
180.0
 51
270.0
  0
LINE
  8
0
  6
CONTINUOUS
 62
     1
 10
1164.65
 20
507.5
 30
0.0
 11
1266.65
 21
507.5
 31
0.0
  0
CIRCLE
  8
0
  6
CONTINUOUS
 62
     1
 10
1164.65
 20
517.0
 30
0.0
 40
4.0
  0
CIRCLE
  8
0
  6
CONTINUOUS
 62
     1
 10
1164.65
 20
517.0
 30
0.0
 40
3.0
  0
LINE
  8
0
  6
CONTINUOUS
 62
     1
 10
1265.15
 20
509.0
 30
0.0
 11
1166.15
 21
509.0
 31
0.0
  0
ARC
  8
0
  6
CONTINUOUS
 62
     1
 10
1166.15
 20
518.0
 30
0.0
 40
9.0
 50
180.0
 51
270.0
  0
ARC
  8
0
  6
CONTINUOUS
 62
     1
 10
1208.65
 20
514.0
 30
0.0
 40
5.0
 50
179.999984538
 51
270.0
  0
LINE
  8
0
  6
CONTINUOUS
 62
     1
 10
1203.65
 20
529.000001349
 30
0.0
 11
1203.65
 21
514.000001349
 31
0.0
  0
ARC
  8
0
  6
CONTINUOUS
 62
     1
 10
1162.15
 20
539.0
 30
0.0
 40
5.0
 50
180.0
 51
270.000026769
  0
LINE
  8
0
  6
CONTINUOUS
 62
     1
 10
1269.150002697
 20
534.0
 30
0.0
 11
1162.150002336
 21
534.0
 31
0.0
  0
ARC
  8
0
  6
CONTINUOUS
 62
     1
 10
1198.65
 20
529.0
 30
0.0
 40
5.0
 50
0.000015462
 51
90.0
  0
LINE
  8
0
  6
CONTINUOUS
 62
     2
 10
1158.65
 20
517.0
 30
0.0
 11
1170.65
 21
517.0
 31
0.0
  0
LINE
  8
0
  6
CONTINUOUS
 62
     2
 10
1164.65
 20
511.0
 30
0.0
 11
1164.65
 21
523.0
 31
0.0
  0
LINE
  8
0
  6
CONTINUOUS
 62
     2
 10
1157.15
 20
513.000007629
 30
0.0
 11
1157.15
 21
459.4
 31
0.0
  0
LINE
  8
2
  6
CONTINUOUS
 62
     2
 10
1276.65
 20
514.0
 30
0.0
 11
1276.65
 21
413.641101056
 31
0.0
  0
ARC
  8
0
  6
CONTINUOUS
 62
     1
 10
1266.65
 20
517.5
 30
0.0
 40
10.0
 50
270.0
 51
0.0
  0
CIRCLE
  8
0
  6
CONTINUOUS
 62
     1
 10
1266.65
 20
517.0
 30
0.0
 40
4.0
  0
CIRCLE
  8
0
  6
CONTINUOUS
 62
     1
 10
1266.65
 20
517.0
 30
0.0
 40
3.0
  0
ARC
  8
0
  6
CONTINUOUS
 62
     1
 10
1265.15
 20
518.0
 30
0.0
 40
9.0
 50
270.0
 51
0.0
  0
LINE
  8
0
  6
CONTINUOUS
 62
     1
 10
1227.65
 20
529.000001349
 30
0.0
 11
1227.65
 21
514.000001349
 31
0.0
  0
ARC
  8
0
  6
CONTINUOUS
 62
     1
 10
1222.65
 20
514.0
 30
0.0
 40
5.0
 50
270.0
 51
0.000015462
  0
ARC
  8
0
  6
CONTINUOUS
 62
     1
 10
1232.65
 20
529.0
 30
0.0
 40
5.0
 50
90.0
 51
179.999984538
  0
ARC
  8
0
  6
CONTINUOUS
 62
     1
 10
1269.15
 20
539.0
 30
0.0
 40
5.0
 50
270.00003091
 51
0.0
  0
LINE
  8
0
  6
CONTINUOUS
 62
     1
 10
1274.15
 20
601.25
 30
0.0
 11
1274.15
 21
518.0
 31
0.0
  0
LINE
  8
0
  6
CONTINUOUS
 62
     1
 10
1276.65
 20
619.5
 30
0.0
 11
1276.65
 21
518.0
 31
0.0
  0
LINE
  8
0
  6
CONTINUOUS
 62
     2
 10
1272.65
 20
517.0
 30
0.0
 11
1260.65
 21
517.0
 31
0.0
  0
LINE
  8
0
  6
CONTINUOUS
 62
     2
 10
1266.65
 20
511.0
 30
0.0
 11
1266.65
 21
523.0
 31
0.0
  0
LINE
  8
0
  6
CONTINUOUS
 62
     2
 10
1274.15
 20
513.000007629
 30
0.0
 11
1274.15
 21
459.4
 31
0.0
  0
LINE
  8
2
  6
CONTINUOUS
 62
     2
 10
1154.65
 20
421.641101056
 30
0.0
 11
1164.309258263
 21
419.052910605
 31
0.0
  0
LINE
  8
2
  6
CONTINUOUS
 62
     2
 10
1154.65
 20
421.641101056
 30
0.0
 11
1164.309258263
 21
424.229291507
 31
0.0
  0
LINE
  8
2
  6
CONTINUOUS
 62
     2
 10
1154.65
 20
421.641101056
 30
0.0
 11
1276.65
 21
421.641101056
 31
0.0
  0
LINE
  8
2
  6
CONTINUOUS
 62
     2
 10
1276.65
 20
421.641101056
 30
0.0
 11
1266.990741737
 21
424.229291507
 31
0.0
  0
LINE
  8
2
  6
CONTINUOUS
 62
     2
 10
1276.65
 20
421.641101056
 30
0.0
 11
1266.990741737
 21
419.052910605
 31
0.0
  0
LINE
  8
0
  6
CONTINUOUS
 62
     2
 10
1274.15
 20
464.4
 30
0.0
 11
1264.490741737
 21
466.988190451
 31
0.0
  0
LINE
  8
0
  6
CONTINUOUS
 62
     2
 10
1274.15
 20
464.4
 30
0.0
 11
1264.490741737
 21
461.811809549
 31
0.0
  0
LINE
  8
0
  6
CONTINUOUS
 62
     2
 10
1274.15
 20
464.4
 30
0.0
 11
1157.15
 21
464.4
 31
0.0
  0
LINE
  8
0
  6
CONTINUOUS
 62
     2
 10
1157.15
 20
464.4
 30
0.0
 11
1166.809258263
 21
461.811809549
 31
0.0
  0
LINE
  8
0
  6
CONTINUOUS
 62
     2
 10
1157.15
 20
464.4
 30
0.0
 11
1166.809258263
 21
466.988190451
 31
0.0
  0
TEXT
  8
0
  6
CONTINUOUS
 62
     3
 10
1195.4
 20
465.9
 30
0.0
 40
15.0
  1
１１７
 50
0.0
 41
0.9
 51
0.0
  7
KANJI26
  0
TEXT
  8
2
  6
CONTINUOUS
 62
     3
 10
1195.25
 20
424.141101056
 30
0.0
 40
15.0
  1
１２２
 50
0.0
 41
0.9
 51
0.0
  7
KANJI26
  0
TEXT
  8
2
  6
CONTINUOUS
 62
     3
 10
1179.75
 20
404.141101056
 30
0.0
 40
15.0
  1
（モータ幅）
 50
0.0
 41
0.9
 51
0.0
  7
KANJI26
  0
TEXT
  8
0
  6
CONTINUOUS
 62
     3
 10
1159.4
 20
447.9
 30
0.0
 40
15.0
  1
（ギヤケース幅）
 50
0.0
 41
0.9
 51
0.0
  7
KANJI26
  0
ARC
  8
0
  6
CONTINUOUS
 62
     1
 10
1215.65
 20
621.5
 30
0.0
 40
65.0
 50
305.374590447
 51
324.625409553
  0
LINE
  8
0
  6
CONTINUOUS
 62
     1
 10
1268.65
 20
601.6
 30
0.0
 11
1268.65
 21
583.870224556
 31
0.0
  0
LINE
  8
0
  6
CONTINUOUS
 62
     1
 10
1275.65
 20
601.5
 30
0.0
 11
1275.65
 21
641.5
 31
0.0
  0
ARC
  8
0
  6
CONTINUOUS
 62
     1
 10
1266.65
 20
619.5
 30
0.0
 40
10.0
 50
0.0
 51
24.981239606
  0
LINE
  8
0
  6
CONTINUOUS
 62
     1
 10
1274.15
 20
671.000002697
 30
0.0
 11
1274.15
 21
641.778748346
 31
0.0
  0
LINE
  8
0
  6
CONTINUOUS
 62
     1
 10
1268.65
 20
659.129775444
 30
0.0
 11
1268.65
 21
641.6
 31
0.0
  0
LINE
  8
0
  6
CONTINUOUS
 62
     2
 10
1155.65
 20
646.5
 30
0.0
 11
1155.65
 21
763.5
 31
0.0
  0
LINE
  8
0
  6
CONTINUOUS
 62
     2
 10
1155.65
 20
758.5
 30
0.0
 11
1165.309258263
 21
755.911809549
 31
0.0
  0
LINE
  8
0
  6
CONTINUOUS
 62
     2
 10
1155.65
 20
758.5
 30
0.0
 11
1165.309258263
 21
761.088190451
 31
0.0
  0
LINE
  8
0
  6
CONTINUOUS
 62
     2
 10
1155.65
 20
758.5
 30
0.0
 11
1275.65
 21
758.5
 31
0.0
  0
LINE
  8
0
  6
CONTINUOUS
 62
     2
 10
1275.65
 20
758.5
 30
0.0
 11
1265.990741737
 21
761.088190451
 31
0.0
  0
LINE
  8
0
  6
CONTINUOUS
 62
     2
 10
1275.65
 20
758.5
 30
0.0
 11
1265.990741737
 21
755.911809549
 31
0.0
  0
LINE
  8
0
  6
CONTINUOUS
 62
     1
 10
1155.65
 20
641.5
 30
0.0
 11
1172.65
 21
641.5
 31
0.0
  0
LINE
  8
0
  6
CONTINUOUS
 62
     1
 10
1155.65
 20
601.5
 30
0.0
 11
1172.565780151
 21
601.5
 31
0.0
  0
LINE
  8
0
  6
CONTINUOUS
 62
     1
 10
1258.565780151
 20
601.5
 30
0.0
 11
1275.65
 21
601.5
 31
0.0
  0
LINE
  8
0
  6
CONTINUOUS
 62
     1
 10
1258.565780151
 20
641.5
 30
0.0
 11
1275.65
 21
641.5
 31
0.0
  0
TEXT
  8
0
  6
CONTINUOUS
 62
     2
 10
882.4275
 20
1278.575
 30
1.3475
 40
13.475
  1
注意：サーマルリレー等の選定は、上記の値で選定して下さい。
 50
0.0
 41
0.9
 51
0.0
  7
KANJI36
  0
TEXT
  8
0
  6
CONTINUOUS
 62
     2
 10
1492.25
 20
563.5
 30
10.0
 40
20.0
  1
特記事項
 50
0.0
 41
0.9
 51
0.0
  7
KANJI37
  0
TEXT
  8
0
  6
CONTINUOUS
 62
     2
 10
1422.25
 20
523.5
 30
5.142857143
 40
18.0
  1
１。運転時は必ずピストンロッドの回転防止を行って下さい。
 50
0.0
 41
0.857142857
 51
0.0
  7
KANJI38
  0
TEXT
  8
0
  6
CONTINUOUS
 62
     2
 10
1422.25
 20
489.5
 30
5.13
 40
18.0
  1
２。モートル：全閉自冷かご形３０分定格
 50
0.0
 41
0.857222222
 51
0.0
  7
KANJI39
  0
TEXT
  8
0
  6
CONTINUOUS
 62
     2
 10
1421.9165915
 20
455.500003
 30
5.13
 40
18.0
  1
３。呼称ストロークは、機械的ストロークです。
 50
0.0
 41
0.857222222
 51
0.0
  7
KANJI39
  0
TEXT
  8
0
  6
CONTINUOUS
 62
     2
 10
1421.9165915
 20
426.750003
 30
5.13
 40
18.0
  1
　　必ず、常用はストローク両端に余裕を取って下さい。
 50
0.0
 41
0.857222222
 51
0.0
  7
KANJI39
  0
TEXT
  8
0
  6
CONTINUOUS
 62
     2
 10
1422.6765915
 20
393.710003
 30
5.13
 40
18.0
  1
　　前後の推奨余裕寸法は、各々１５ｍｍです。
 50
0.0
 41
0.857222222
 51
0.0
  7
KANJI39
  0
LINE
  8
0
  6
CONTINUOUS
 62
     2
 10
1479.75
 20
555.5
 30
0.0
 11
1598.75
 21
555.5
 31
0.0
  0
LINE
  8
0
  6
CONTINUOUS
 62
     1
 10
974.65
 20
609.2
 30
0.0
 11
976.65
 21
608.9
 31
0.0
  0
LINE
  8
0
  6
CONTINUOUS
 62
     1
 10
977.15
 20
613.6
 30
0.0
 11
976.914615385
 21
612.030769231
 31
0.0
  0
LINE
  8
0
  6
CONTINUOUS
 62
     1
 10
976.914615385
 20
612.030769231
 30
0.0
 11
974.65
 21
609.2
 31
0.0
  0
LINE
  8
0
  6
CONTINUOUS
 62
     1
 10
978.85
 20
611.6
 30
0.0
 11
976.65
 21
608.9
 31
0.0
  0
LINE
  8
0
  6
CONTINUOUS
 62
     1
 10
983.05
 20
609.2
 30
0.0
 11
981.05
 21
608.9
 31
0.0
  0
LINE
  8
0
  6
CONTINUOUS
 62
     1
 10
980.55
 20
613.6
 30
0.0
 11
980.785384615
 21
612.030769231
 31
0.0
  0
LINE
  8
0
  6
CONTINUOUS
 62
     1
 10
980.785384615
 20
612.030769231
 30
0.0
 11
983.05
 21
609.2
 31
0.0
  0
LINE
  8
0
  6
CONTINUOUS
 62
     1
 10
978.85
 20
611.6
 30
0.0
 11
981.05
 21
608.9
 31
0.0
  0
CIRCLE
  8
0
  6
CONTINUOUS
 62
     1
 10
978.849984741
 20
632.5
 30
0.0
 40
3.0
  0
CIRCLE
  8
0
  6
CONTINUOUS
 62
     1
 10
978.85
 20
621.5
 30
0.0
 40
15.0
  0
LINE
  8
0
  6
CONTINUOUS
 62
     2
 10
1050.95
 20
685.9
 30
0.0
 11
1038.875927171
 21
689.135238064
 31
0.0
  0
LINE
  8
0
  6
CONTINUOUS
 62
     2
 10
1050.95
 20
685.9
 30
0.0
 11
1038.875927171
 21
682.664761936
 31
0.0
  0
LINE
  8
0
  6
CONTINUOUS
 62
     2
 10
1050.95
 20
685.9
 30
0.0
 11
1009.95
 21
685.9
 31
0.0
  0
TEXT
  8
0
  6
CONTINUOUS
 62
     3
 10
1016.95
 20
695.9
 30
0.0
 40
20.0
  1
前進
 50
0.0
 41
0.925
 51
0.0
  7
KANJI35
  0
LINE
  8
0
  6
CONTINUOUS
 62
     2
 10
476.0
 20
211.0
 30
0.0
 11
483.72740661
 21
208.929447639
 31
0.0
  0
LINE
  8
0
  6
CONTINUOUS
 62
     2
 10
476.0
 20
211.0
 30
0.0
 11
483.72740661
 21
213.070552361
 31
0.0
  0
LINE
  8
0
  6
CONTINUOUS
 62
     2
 10
476.0
 20
211.0
 30
0.0
 11
613.6
 21
211.0
 31
0.0
  0
LINE
  8
0
  6
CONTINUOUS
 62
     2
 10
613.6
 20
211.0
 30
0.0
 11
605.87259339
 21
213.070552361
 31
0.0
  0
LINE
  8
0
  6
CONTINUOUS
 62
     2
 10
613.6
 20
211.0
 30
0.0
 11
605.87259339
 21
208.929447639
 31
0.0
  0
LINE
  8
0
  6
CONTINUOUS
 62
     2
 10
613.6
 20
209.8
 30
0.0
 11
613.6
 21
207.0
 31
0.0
  0
LINE
  8
0
  6
CONTINUOUS
 62
     2
 10
613.6
 20
211.0
 30
0.0
 11
621.32740661
 21
208.929447639
 31
0.0
  0
LINE
  8
0
  6
CONTINUOUS
 62
     2
 10
613.6
 20
211.0
 30
0.0
 11
621.32740661
 21
213.070552361
 31
0.0
  0
LINE
  8
0
  6
CONTINUOUS
 62
     2
 10
613.6
 20
211.0
 30
0.0
 11
816.0
 21
211.0
 31
0.0
  0
LINE
  8
0
  6
CONTINUOUS
 62
     2
 10
816.0
 20
211.0
 30
0.0
 11
808.27259339
 21
213.070552361
 31
0.0
  0
LINE
  8
0
  6
CONTINUOUS
 62
     2
 10
816.0
 20
211.0
 30
0.0
 11
808.27259339
 21
208.929447639
 31
0.0
  0
LINE
  8
0
  6
CONTINUOUS
 62
     2
 10
613.6
 20
184.670552361
 30
0.0
 11
605.87259339
 21
186.741104722
 31
0.0
  0
LINE
  8
0
  6
CONTINUOUS
 62
     2
 10
613.6
 20
184.670552361
 30
0.0
 11
605.87259339
 21
182.6
 31
0.0
  0
LINE
  8
0
  6
CONTINUOUS
 62
     2
 10
601.6
 20
184.670552361
 30
0.0
 11
613.6
 21
184.670552361
 31
0.0
  0
LINE
  8
0
  6
CONTINUOUS
 62
     2
 10
613.6
 20
184.670552361
 30
0.0
 11
634.4
 21
184.670552361
 31
0.0
  0
LINE
  8
0
  6
CONTINUOUS
 62
     2
 10
634.4
 20
184.670552361
 30
0.0
 11
642.12740661
 21
182.6
 31
0.0
  0
LINE
  8
0
  6
CONTINUOUS
 62
     2
 10
634.4
 20
184.670552361
 30
0.0
 11
642.12740661
 21
186.741104722
 31
0.0
  0
LINE
  8
0
  6
CONTINUOUS
 62
     2
 10
476.0
 20
159.4
 30
0.0
 11
476.0
 21
153.4
 31
0.0
  0
LINE
  8
0
  6
CONTINUOUS
 62
     2
 10
476.0
 20
157.4
 30
0.0
 11
483.72740661
 21
155.329447639
 31
0.0
  0
LINE
  8
0
  6
CONTINUOUS
 62
     2
 10
476.0
 20
157.4
 30
0.0
 11
483.72740661
 21
159.470552361
 31
0.0
  0
LINE
  8
0
  6
CONTINUOUS
 62
     2
 10
476.0
 20
157.4
 30
0.0
 11
634.4
 21
157.4
 31
0.0
  0
LINE
  8
0
  6
CONTINUOUS
 62
     2
 10
634.4
 20
157.4
 30
0.0
 11
626.67259339
 21
159.470552361
 31
0.0
  0
LINE
  8
0
  6
CONTINUOUS
 62
     2
 10
634.4
 20
157.4
 30
0.0
 11
626.67259339
 21
155.329447639
 31
0.0
  0
LINE
  8
0
  6
CONTINUOUS
 62
     2
 10
634.4
 20
158.6
 30
0.0
 11
634.4
 21
153.4
 31
0.0
  0
LINE
  8
0
  6
CONTINUOUS
 62
     2
 10
634.4
 20
157.4
 30
0.0
 11
642.12740661
 21
155.329447639
 31
0.0
  0
LINE
  8
0
  6
CONTINUOUS
 62
     2
 10
634.4
 20
157.4
 30
0.0
 11
642.12740661
 21
159.470552361
 31
0.0
  0
LINE
  8
0
  6
CONTINUOUS
 62
     2
 10
816.0
 20
153.8
 30
0.0
 11
816.0
 21
153.4
 31
0.0
  0
LINE
  8
0
  6
CONTINUOUS
 62
     2
 10
476.0
 20
128.2
 30
0.0
 11
483.72740661
 21
126.129447639
 31
0.0
  0
LINE
  8
0
  6
CONTINUOUS
 62
     2
 10
476.0
 20
128.2
 30
0.0
 11
483.72740661
 21
130.270552361
 31
0.0
  0
LINE
  8
0
  6
CONTINUOUS
 62
     2
 10
476.0
 20
128.2
 30
0.0
 11
793.6
 21
128.2
 31
0.0
  0
LINE
  8
0
  6
CONTINUOUS
 62
     2
 10
793.6
 20
128.2
 30
0.0
 11
785.87259339
 21
130.270552361
 31
0.0
  0
LINE
  8
0
  6
CONTINUOUS
 62
     2
 10
793.6
 20
128.2
 30
0.0
 11
785.87259339
 21
126.129447639
 31
0.0
  0
LINE
  8
0
  6
CONTINUOUS
 62
     2
 10
793.6
 20
129.0
 30
0.0
 11
793.6
 21
124.2
 31
0.0
  0
LINE
  8
0
  6
CONTINUOUS
 62
     2
 10
793.6
 20
128.2
 30
0.0
 11
785.87259339
 21
130.270552361
 31
0.0
  0
LINE
  8
0
  6
CONTINUOUS
 62
     2
 10
793.6
 20
128.2
 30
0.0
 11
785.87259339
 21
126.129447639
 31
0.0
  0
LINE
  8
0
  6
CONTINUOUS
 62
     2
 10
781.6
 20
128.2
 30
0.0
 11
793.6
 21
128.2
 31
0.0
  0
LINE
  8
0
  6
CONTINUOUS
 62
     2
 10
793.6
 20
128.2
 30
0.0
 11
816.0
 21
128.2
 31
0.0
  0
LINE
  8
0
  6
CONTINUOUS
 62
     2
 10
816.0
 20
128.2
 30
0.0
 11
823.72740661
 21
126.129447639
 31
0.0
  0
LINE
  8
0
  6
CONTINUOUS
 62
     2
 10
816.0
 20
128.2
 30
0.0
 11
823.72740661
 21
130.270552361
 31
0.0
  0
LINE
  8
0
  6
CONTINUOUS
 62
     2
 10
476.0
 20
221.8
 30
0.0
 11
476.0
 21
207.0
 31
0.0
  0
LINE
  8
0
  6
CONTINUOUS
 62
     2
 10
816.0
 20
221.8
 30
0.0
 11
816.0
 21
207.0
 31
0.0
  0
LINE
  8
0
  6
CONTINUOUS
 62
     2
 10
613.6
 20
210.6
 30
0.0
 11
613.6
 21
221.8
 31
0.0
  0
LINE
  8
0
  6
CONTINUOUS
 62
     2
 10
634.4
 20
197.470552361
 30
0.0
 11
634.4
 21
180.670552361
 31
0.0
  0
LINE
  8
0
  6
CONTINUOUS
 62
     2
 10
476.0
 20
207.0
 30
0.0
 11
476.0
 21
115.0
 31
0.0
  0
LINE
  8
0
  6
CONTINUOUS
 62
     2
 10
816.0
 20
211.0
 30
0.0
 11
816.0
 21
116.2
 31
0.0
  0
LINE
  8
0
  6
CONTINUOUS
 62
     2
 10
634.4
 20
184.670552361
 30
0.0
 11
634.4
 21
148.2
 31
0.0
  0
LINE
  8
0
  6
CONTINUOUS
 62
     2
 10
613.6
 20
211.0
 30
0.0
 11
613.6
 21
175.4
 31
0.0
  0
TEXT
  8
0
  6
CONTINUOUS
 62
     3
 10
517.8
 20
213.0
 30
0.0
 40
15.0
  1
ｍｉｎ．Ｌ
 50
0.0
 41
0.9
 51
0.0
  7
KANJI26
  0
TEXT
  8
0
  6
CONTINUOUS
 62
     3
 10
671.6
 20
213.0
 30
0.0
 40
15.0
  1
機械的ストローク
 50
0.0
 41
0.9
 51
0.0
  7
KANJI26
  0
TEXT
  8
0
  6
CONTINUOUS
 62
     3
 10
646.4
 20
186.670552361
 30
0.0
 40
15.0
  1
余裕
 50
0.0
 41
0.9
 51
0.0
  7
KANJI26
  0
TEXT
  8
0
  6
CONTINUOUS
 62
     3
 10
528.2
 20
159.4
 30
0.0
 40
15.0
  1
常用ｍｉｎ
 50
0.0
 41
0.9
 51
0.0
  7
KANJI26
  0
TEXT
  8
0
  6
CONTINUOUS
 62
     3
 10
607.8
 20
130.2
 30
0.0
 40
15.0
  1
常用ｍａｘ
 50
0.0
 41
0.9
 51
0.0
  7
KANJI26
  0
TEXT
  8
0
  6
CONTINUOUS
 62
     3
 10
828.0
 20
130.2
 30
0.0
 40
15.0
  1
余裕
 50
0.0
 41
0.9
 51
0.0
  7
KANJI26
  0
LINE
  8
0
  6
CONTINUOUS
 62
     2
 10
634.4
 20
184.670552361
 30
0.0
 11
674.5
 21
184.670552361
 31
0.0
  0
LINE
  8
0
  6
CONTINUOUS
 62
     2
 10
816.0
 20
128.2
 30
0.0
 11
858.5
 21
128.2
 31
0.0
  0
TEXT
  8
0
  6
CONTINUOUS
 62
     3
 10
1146.4
 20
767.5
 30
0.0
 40
15.0
  1
１２０（トラニオン幅）
 50
0.0
 41
0.9
 51
0.0
  7
KANJI26
  0
LINE
  8
0
  6
CONTINUOUS
 62
     2
 10
970.85
 20
369.3
 30
0.0
 11
970.85
 21
401.5
 31
0.0
  0
LINE
  8
0
  6
CONTINUOUS
 62
     2
 10
986.85
 20
369.3
 30
0.0
 11
986.85
 21
402.5
 31
0.0
  0
LINE
  8
0
  6
CONTINUOUS
 62
     2
 10
986.85
 20
396.4
 30
0.0
 11
996.509258263
 21
393.811809549
 31
0.0
  0
LINE
  8
0
  6
CONTINUOUS
 62
     2
 10
986.85
 20
396.4
 30
0.0
 11
996.509258263
 21
398.988190451
 31
0.0
  0
LINE
  8
0
  6
CONTINUOUS
 62
     2
 10
950.85
 20
396.4
 30
0.0
 11
1042.85
 21
396.4
 31
0.0
  0
TEXT
  8
0
  6
CONTINUOUS
 62
     2
 10
1034.6
 20
409.06
 30
0.84
 40
8.4
  1
Ｈ１０
 50
0.0
 41
0.9
 51
0.0
  7
KANJI40
  0
TEXT
  8
0
  6
CONTINUOUS
 62
     2
 10
1034.6
 20
400.66
 30
0.84
 40
8.4
  1
ｈ９
 50
0.0
 41
0.9
 51
0.0
  7
KANJI40
  0
TEXT
  8
0
  6
CONTINUOUS
 62
     2
 10
995.85
 20
401.4
 30
0.0
 40
15.0
  1
φ１６
 50
0.0
 41
0.9
 51
0.0
  7
KANJI26
  0
LINE
  8
0
  6
CONTINUOUS
 62
     2
 10
970.85
 20
396.4
 30
0.0
 11
961.190741737
 21
398.988190451
 31
0.0
  0
LINE
  8
0
  6
CONTINUOUS
 62
     2
 10
970.85
 20
396.4
 30
0.0
 11
961.190741737
 21
393.811809549
 31
0.0
  0
LINE
  8
0
  6
CONTINUOUS
 62
     2
 10
978.85
 20
409.15
 30
0.0
 11
969.190741737
 21
411.738190451
 31
0.0
  0
LINE
  8
0
  6
CONTINUOUS
 62
     2
 10
978.85
 20
409.15
 30
0.0
 11
969.190741737
 21
406.561809549
 31
0.0
  0
LINE
  8
0
  6
CONTINUOUS
 62
     2
 10
978.85
 20
409.15
 30
0.0
 11
953.85
 21
409.15
 31
0.0
  0
LINE
  8
0
  6
CONTINUOUS
 62
     2
 10
953.85
 20
409.15
 30
0.0
 11
963.509258263
 21
406.561809549
 31
0.0
  0
LINE
  8
0
  6
CONTINUOUS
 62
     2
 10
953.85
 20
409.15
 30
0.0
 11
963.509258263
 21
411.738190451
 31
0.0
  0
LINE
  8
0
  6
CONTINUOUS
 62
     2
 10
953.85
 20
349.6
 30
0.0
 11
953.85
 21
416.25
 31
0.0
  0
TEXT
  8
0
  6
CONTINUOUS
 62
     2
 10
953.55
 20
413.15
 30
0.0
 40
15.0
  1
２５
 50
0.0
 41
0.9
 51
0.0
  7
KANJI26
  0
LINE
  8
0
  6
CONTINUOUS
 62
     1
 10
848.25
 20
990.95
 30
0.0
 11
1496.25
 21
990.95
 31
0.0
  0
LINE
  8
0
  6
CONTINUOUS
 62
     1
 10
848.25
 20
1242.95
 30
0.0
 11
848.25
 21
990.95
 31
0.0
  0
LINE
  8
0
  6
CONTINUOUS
 62
     1
 10
1016.25
 20
1242.95
 30
0.0
 11
1016.25
 21
990.95
 31
0.0
  0
LINE
  8
0
  6
CONTINUOUS
 62
     2
 10
1096.25
 20
1242.95
 30
0.0
 11
1096.25
 21
990.95
 31
0.0
  0
LINE
  8
0
  6
CONTINUOUS
 62
     2
 10
1176.25
 20
1242.95
 30
0.0
 11
1176.25
 21
990.95
 31
0.0
  0
LINE
  8
0
  6
CONTINUOUS
 62
     2
 10
1256.25
 20
1242.95
 30
0.0
 11
1256.25
 21
990.95
 31
0.0
  0
LINE
  8
0
  6
CONTINUOUS
 62
     2
 10
1336.25
 20
1242.95
 30
0.0
 11
1336.25
 21
990.95
 31
0.0
  0
LINE
  8
0
  6
CONTINUOUS
 62
     2
 10
1416.25
 20
1242.95
 30
0.0
 11
1416.25
 21
990.95
 31
0.0
  0
LINE
  8
0
  6
CONTINUOUS
 62
     1
 10
1496.25
 20
1242.95
 30
0.0
 11
1496.25
 21
990.95
 31
0.0
  0
TEXT
  8
0
  6
CONTINUOUS
 62
     2
 10
861.25
 20
997.35
 30
0.8
 40
12.0
  1
ＭＣＳＤＢＢ０３－　　　Ｊ
 50
0.0
 41
0.833333333
 51
0.0
  7
KANJI25
  0
LINE
  8
0
  6
CONTINUOUS
 62
     1
 10
986.85
 20
307.3
 30
0.0
 11
970.85
 21
307.3
 31
0.0
  0
LINE
  8
0
  6
CONTINUOUS
 62
     1
 10
986.85
 20
307.3
 30
0.0
 11
970.85
 21
307.3
 31
0.0
  0
LINE
  8
0
  6
CONTINUOUS
 62
     1
 10
963.85
 20
315.3
 30
0.0
 11
993.85
 21
315.3
 31
0.0
  0
LINE
  8
0
  6
CONTINUOUS
 62
     1
 10
963.85
 20
318.3
 30
0.0
 11
963.85
 21
315.3
 31
0.0
  0
LINE
  8
0
  6
CONTINUOUS
 62
     1
 10
970.85
 20
307.3
 30
0.0
 11
970.85
 21
315.3
 31
0.0
  0
LINE
  8
0
  6
LTYPE2
 62
     2
 10
974.45
 20
312.65
 30
0.0
 11
982.85
 21
312.65
 31
0.0
  0
LINE
  8
0
  6
CONTINUOUS
 62
     1
 10
970.85
 20
307.3
 30
0.0
 11
970.85
 21
315.3
 31
0.0
  0
LINE
  8
0
  6
LTYPE1
 62
     2
 10
970.85
 20
315.3
 30
0.0
 11
970.85
 21
330.3
 31
0.0
  0
CIRCLE
  8
0
  6
CONTINUOUS
 62
     2
 10
978.85
 20
312.65
 30
0.0
 40
2.0
  0
LINE
  8
0
  6
CONTINUOUS
 62
     1
 10
993.85
 20
318.3
 30
0.0
 11
993.85
 21
315.3
 31
0.0
  0
LINE
  8
0
  6
CONTINUOUS
 62
     1
 10
986.85
 20
315.3
 30
0.0
 11
986.85
 21
307.3
 31
0.0
  0
LINE
  8
0
  6
CONTINUOUS
 62
     1
 10
986.85
 20
315.3
 30
0.0
 11
986.85
 21
307.3
 31
0.0
  0
LINE
  8
0
  6
LTYPE1
 62
     2
 10
986.85
 20
330.3
 30
0.0
 11
986.85
 21
315.3
 31
0.0
  0
LINE
  8
0
  6
CONTINUOUS
 62
     1
 10
986.85
 20
369.3
 30
0.0
 11
970.85
 21
369.3
 31
0.0
  0
LINE
  8
0
  6
CONTINUOUS
 62
     1
 10
963.85
 20
361.3
 30
0.0
 11
993.85
 21
361.3
 31
0.0
  0
LINE
  8
0
  6
LTYPE2
 62
     2
 10
974.45
 20
363.95
 30
0.0
 11
982.85
 21
363.95
 31
0.0
  0
CIRCLE
  8
0
  6
CONTINUOUS
 62
     2
 10
978.85
 20
363.95
 30
0.0
 40
2.0
  0
LINE
  8
0
  6
CONTINUOUS
 62
     1
 10
970.85
 20
369.3
 30
0.0
 11
970.85
 21
361.3
 31
0.0
  0
LINE
  8
0
  6
CONTINUOUS
 62
     1
 10
963.85
 20
358.3
 30
0.0
 11
963.85
 21
361.3
 31
0.0
  0
LINE
  8
0
  6
LTYPE1
 62
     2
 10
970.85
 20
361.3
 30
0.0
 11
970.85
 21
346.3
 31
0.0
  0
LINE
  8
0
  6
CONTINUOUS
 62
     1
 10
986.85
 20
361.3
 30
0.0
 11
986.85
 21
369.3
 31
0.0
  0
LINE
  8
0
  6
CONTINUOUS
 62
     1
 10
993.85
 20
358.3
 30
0.0
 11
993.85
 21
361.3
 31
0.0
  0
LINE
  8
0
  6
LTYPE1
 62
     2
 10
986.85
 20
346.3
 30
0.0
 11
986.85
 21
361.3
 31
0.0
  0
LINE
  8
0
  6
LTYPE1
 62
     2
 10
1207.65
 20
629.5
 30
0.0
 11
1192.65
 21
629.5
 31
0.0
  0
LINE
  8
0
  6
CONTINUOUS
 62
     1
 10
1192.65
 20
606.5
 30
0.0
 11
1192.65
 21
636.5
 31
0.0
  0
LINE
  8
0
  6
CONTINUOUS
 62
     1
 10
1195.65
 20
636.5
 30
0.0
 11
1192.65
 21
636.5
 31
0.0
  0
LINE
  8
0
  6
LTYPE2
 62
     2
 10
1190.0
 20
617.1
 30
0.0
 11
1190.0
 21
625.5
 31
0.0
  0
LINE
  8
0
  6
CONTINUOUS
 62
     1
 10
1184.65
 20
629.5
 30
0.0
 11
1192.65
 21
629.5
 31
0.0
  0
LINE
  8
0
  6
CONTINUOUS
 62
     1
 10
1184.65
 20
629.5
 30
0.0
 11
1184.65
 21
613.5
 31
0.0
  0
CIRCLE
  8
0
  6
CONTINUOUS
 62
     2
 10
1190.0
 20
621.5
 30
0.0
 40
2.0
  0
LINE
  8
0
  6
CONTINUOUS
 62
     1
 10
1184.65
 20
613.5
 30
0.0
 11
1192.65
 21
613.5
 31
0.0
  0
LINE
  8
0
  6
CONTINUOUS
 62
     1
 10
1195.65
 20
606.5
 30
0.0
 11
1192.65
 21
606.5
 31
0.0
  0
LINE
  8
0
  6
LTYPE1
 62
     2
 10
1207.65
 20
613.5
 30
0.0
 11
1192.65
 21
613.5
 31
0.0
  0
LINE
  8
0
  6
CONTINUOUS
 62
     1
 10
1238.65
 20
636.5
 30
0.0
 11
1238.65
 21
606.5
 31
0.0
  0
LINE
  8
0
  6
CONTINUOUS
 62
     1
 10
1235.65
 20
606.5
 30
0.0
 11
1238.65
 21
606.5
 31
0.0
  0
LINE
  8
0
  6
CONTINUOUS
 62
     1
 10
1246.65
 20
613.5
 30
0.0
 11
1238.65
 21
613.5
 31
0.0
  0
LINE
  8
0
  6
LTYPE1
 62
     2
 10
1223.65
 20
613.5
 30
0.0
 11
1238.65
 21
613.5
 31
0.0
  0
LINE
  8
0
  6
CONTINUOUS
 62
     1
 10
1246.65
 20
629.5
 30
0.0
 11
1246.65
 21
613.5
 31
0.0
  0
LINE
  8
0
  6
LTYPE2
 62
     2
 10
1241.3
 20
625.9
 30
0.0
 11
1241.3
 21
617.5
 31
0.0
  0
CIRCLE
  8
0
  6
CONTINUOUS
 62
     2
 10
1241.3
 20
621.5
 30
0.0
 40
2.0
  0
LINE
  8
0
  6
CONTINUOUS
 62
     1
 10
1235.65
 20
636.5
 30
0.0
 11
1238.65
 21
636.5
 31
0.0
  0
LINE
  8
0
  6
CONTINUOUS
 62
     1
 10
1246.65
 20
629.5
 30
0.0
 11
1238.65
 21
629.5
 31
0.0
  0
LINE
  8
0
  6
LTYPE1
 62
     2
 10
1223.65
 20
629.5
 30
0.0
 11
1238.65
 21
629.5
 31
0.0
  0
LINE
  8
0
  6
CONTINUOUS
 62
     2
 10
793.6
 20
172.2
 30
0.0
 11
793.6
 21
115.4
 31
0.0
  0
LINE
  8
0
  6
CONTINUOUS
 62
     2
 10
634.4
 20
157.4
 30
0.0
 11
793.6
 21
157.4
 31
0.0
  0
LINE
  8
0
  6
CONTINUOUS
 62
     2
 10
793.6
 20
157.4
 30
0.0
 11
785.87259339
 21
159.470552361
 31
0.0
  0
LINE
  8
0
  6
CONTINUOUS
 62
     2
 10
793.6
 20
157.4
 30
0.0
 11
785.87259339
 21
155.329447639
 31
0.0
  0
TEXT
  8
0
  6
CONTINUOUS
 62
     3
 10
671.4
 20
159.4
 30
0.0
 40
15.0
  1
常用ストローク
 50
0.0
 41
0.9
 51
0.0
  7
KANJI26
  0
TEXT
  8
2
  6
CONTINUOUS
 62
     2
 10
160.05
 20
683.3
 30
0.0
 40
15.0
  1
手動軸カバー
 50
0.0
 41
0.9
 51
0.0
  7
KANJI26
  0
TEXT
  8
2
  6
CONTINUOUS
 62
     2
 10
162.55
 20
662.5
 30
0.0
 40
15.0
  1
手動軸□１０
 50
0.0
 41
0.9
 51
0.0
  7
KANJI26
  0
POLYLINE
  8
2
  6
CONTINUOUS
 62
     2
 66
     1
  0
VERTEX
  8
2
  6
CONTINUOUS
 62
     2
 10
264.850004265
 20
584.0
 30
0.0
  0
VERTEX
  8
2
  6
CONTINUOUS
 62
     2
 10
244.547215094
 20
680.3
 30
0.0
  0
VERTEX
  8
2
  6
CONTINUOUS
 62
     2
 10
159.250007629
 20
680.3
 30
0.0
  0
SEQEND
  0
TEXT
  8
0
  6
CONTINUOUS
 62
     2
 10
1602.25
 20
1281.5
 30
138.5
 40
17.5
  1
形式
 50
0.0
 41
0.9
 51
0.0
  7
KANJI41
  0
TEXT
  8
0
  6
CONTINUOUS
 62
     2
 10
1602.25
 20
1246.5
 30
138.5
 40
17.5
  1
推力
 50
0.0
 41
0.9
 51
0.0
  7
KANJI41
  0
TEXT
  8
0
  6
CONTINUOUS
 62
     2
 10
1602.25
 20
1106.5
 30
138.5
 40
17.5
  1
構造
 50
0.0
 41
0.9
 51
0.0
  7
KANJI41
  0
TEXT
  8
0
  6
CONTINUOUS
 62
     2
 10
1602.25
 20
686.5
 30
138.5
 40
17.5
  1
台数
 50
0.0
 41
0.9
 51
0.0
  7
KANJI41
  0
TEXT
  8
0
  6
CONTINUOUS
 62
     2
 10
1602.25
 20
721.5
 30
61.375
 40
17.5
  1
付属品
 50
0.0
 41
0.9
 51
0.0
  7
KANJI42
  0
TEXT
  8
0
  6
CONTINUOUS
 62
     2
 10
1602.25
 20
1036.5
 30
61.375
 40
17.5
  1
塗装色
 50
0.0
 41
0.9
 51
0.0
  7
KANJI42
  0
TEXT
  8
0
  6
CONTINUOUS
 62
     2
 10
1602.25
 20
1211.5
 30
22.8125
 40
17.5
  1
ストローク
 50
0.0
 41
0.9
 51
0.0
  7
KANJI43
  0
TEXT
  8
0
  6
CONTINUOUS
 62
     2
 10
1602.25
 20
1071.5
 30
9.958
 40
17.5
  1
過負荷安全装置
 50
0.0
 41
0.9
 51
0.0
  7
KANJI44
  0
TEXT
  8
0
  6
CONTINUOUS
 62
     2
 10
1627.25
 20
1321.0
 30
14.2497
 40
22.5
  1
マイティシリンダ仕様
 50
0.0
 41
0.9
 51
0.0
  7
KANJI45
  0
TEXT
  8
0
  6
CONTINUOUS
 62
     2
 10
1627.25
 20
1001.5
 30
15.3125
 40
17.5
  1
出力　極数
 50
0.0
 41
0.9
 51
0.0
  7
KANJI46
  0
TEXT
  8
0
  6
CONTINUOUS
 62
     2
 10
1627.25
 20
966.5
 30
25.6665
 40
17.5
  1
電源電圧
 50
0.0
 41
0.9
 51
0.0
  7
KANJI47
  0
TEXT
  8
0
  6
CONTINUOUS
 62
     2
 10
1627.25
 20
931.5
 30
46.375
 40
17.5
  1
周波数
 50
0.0
 41
0.9
 51
0.0
  7
KANJI48
  0
TEXT
  8
0
  6
CONTINUOUS
 62
     2
 10
1627.25
 20
861.5
 30
46.375
 40
17.5
  1
絶縁級
 50
0.0
 41
0.9
 51
0.0
  7
KANJI48
  0
TEXT
  8
0
  6
CONTINUOUS
 62
     2
 10
1627.25
 20
896.5
 30
108.5
 40
17.5
  1
電流
 50
0.0
 41
0.9
 51
0.0
  7
KANJI49
  0
TEXT
  8
0
  6
CONTINUOUS
 62
     2
 10
1627.25
 20
791.5
 30
108.5
 40
17.5
  1
形式
 50
0.0
 41
0.9
 51
0.0
  7
KANJI49
  0
TEXT
  8
0
  6
CONTINUOUS
 62
     2
 10
1627.25
 20
756.5
 30
25.6665
 40
17.5
  1
操作方式
 50
0.0
 41
0.9
 51
0.0
  7
KANJI47
  0
TEXT
  8
0
  6
CONTINUOUS
 62
     2
 10
1587.25
 20
1141.5
 30
1.5
 40
17.5
  1
ピストンロッド回転トルク
 50
0.0
 41
0.9
 51
0.0
  7
KANJI50
  0
TEXT
  8
0
  6
CONTINUOUS
 62
     2
 10
1585.125
 20
1005.0
 30
11.0
 40
17.5
  1
モ　トル仕様
 50
0.0
 41
0.9
 51
0.0
  7
KANJI51
  0
TEXT
  8
0
  6
CONTINUOUS
 62
     2
 10
1584.0
 20
815.0
 30
0.857142857
 40
15.0
  1
ブレ　キ
 50
0.0
 41
0.9
 51
0.0
  7
KANJI52
  0
LINE
  8
0
  6
CONTINUOUS
 62
     2
 10
1583.75
 20
780.5
 30
0.0
 11
1583.75
 21
770.0
 31
0.0
  0
LINE
  8
0
  6
CONTINUOUS
 62
     2
 10
1583.75
 20
977.0
 30
0.0
 11
1583.75
 21
965.5
 31
0.0
  0
TEXT
  8
0
  6
CONTINUOUS
 62
     2
 10
1939.75
 20
1180.0
 30
0.1
 40
12.5
  1
ｍｍ／ｓｅｃ
 50
0.0
 41
0.8
 51
0.0
  7
KANJI53
  0
TEXT
  8
0
  6
CONTINUOUS
 62
     2
 10
1977.25
 20
1213.5
 30
0.1
 40
12.5
  1
ｍｍ
 50
0.0
 41
0.8
 51
0.0
  7
KANJI53
  0
TEXT
  8
0
  6
CONTINUOUS
 62
     2
 10
1984.25
 20
1001.5
 30
10.982142857
 40
15.0
  1
Ｐ
 50
0.0
 41
0.9
 51
0.0
  7
KANJI54
  0
TEXT
  8
0
  6
CONTINUOUS
 62
     2
 10
1901.25
 20
1001.5
 30
1.0
 40
15.0
  1
ＫＷ
 50
0.0
 41
0.857142857
 51
0.0
  7
KANJI55
  0
TEXT
  8
0
  6
CONTINUOUS
 62
     2
 10
1959.25
 20
1001.5
 30
12.8125
 40
17.5
  1
４
 50
0.0
 41
0.9
 51
0.0
  7
KANJI56
  0
TEXT
  8
0
  6
CONTINUOUS
 62
     2
 10
1823.75
 20
1038.0
 30
0.5
 40
14.0
  1
マンセル
 50
0.0
 41
0.9
 51
0.0
  7
KANJI57
  0
TEXT
  8
0
  6
CONTINUOUS
 62
     2
 10
1882.25
 20
1039.0
 30
0.2
 40
14.0
  1
７．５ＧＹ５／４．５
 50
0.0
 41
0.785714286
 51
0.0
  7
KANJI58
  0
TEXT
  8
0
  6
CONTINUOUS
 62
     2
 10
1819.75
 20
792.0
 30
1.5
 40
14.0
  1
スプリング制動式電磁ブレーキ
 50
0.0
 41
0.8
 51
0.0
  7
KANJI59
  0
TEXT
  8
0
  6
CONTINUOUS
 62
     2
 10
1854.75
 20
756.5
 30
10.0
 40
17.5
  1
同時切り
 50
0.0
 41
0.9
 51
0.0
  7
KANJI60
  0
TEXT
  8
0
  6
CONTINUOUS
 62
     2
 10
1984.75
 20
966.5
 30
0.18
 40
15.0
  1
Ｖ
 50
0.0
 41
0.8
 51
0.0
  7
KANJI61
  0
TEXT
  8
0
  6
CONTINUOUS
 62
     2
 10
1975.75
 20
931.5
 30
0.18
 40
15.0
  1
Ｈｚ
 50
0.0
 41
0.8
 51
0.0
  7
KANJI61
  0
TEXT
  8
0
  6
CONTINUOUS
 62
     2
 10
1985.875
 20
897.625
 30
1.5
 40
15.0
  1
Ａ
 50
0.0
 41
0.9
 51
0.0
  7
KANJI62
  0
TEXT
  8
0
  6
CONTINUOUS
 62
     2
 10
1907.125
 20
863.875
 30
1.5
 40
15.0
  1
Ｅ
 50
0.0
 41
0.9
 51
0.0
  7
KANJI62
  0
LINE
  8
0
  6
CONTINUOUS
 62
     2
 10
1564.75
 20
747.5
 30
0.0
 11
2002.25
 21
747.5
 31
0.0
  0
LINE
  8
0
  6
CONTINUOUS
 62
     2
 10
1564.75
 20
1027.5
 30
0.0
 11
2002.25
 21
1027.5
 31
0.0
  0
LINE
  8
0
  6
CONTINUOUS
 62
     2
 10
1564.75
 20
817.5
 30
0.0
 11
2002.25
 21
817.5
 31
0.0
  0
LINE
  8
0
  6
CONTINUOUS
 62
     2
 10
1604.75
 20
782.5
 30
0.0
 11
2002.25
 21
782.5
 31
0.0
  0
LINE
  8
0
  6
CONTINUOUS
 62
     2
 10
1604.75
 20
852.5
 30
0.0
 11
2002.25
 21
852.5
 31
0.0
  0
LINE
  8
0
  6
CONTINUOUS
 62
     2
 10
1604.75
 20
887.5
 30
0.0
 11
2002.25
 21
887.5
 31
0.0
  0
LINE
  8
0
  6
CONTINUOUS
 62
     2
 10
1604.75
 20
957.5
 30
0.0
 11
2002.25
 21
957.5
 31
0.0
  0
LINE
  8
0
  6
CONTINUOUS
 62
     2
 10
1604.75
 20
922.5
 30
0.0
 11
2002.25
 21
922.5
 31
0.0
  0
LINE
  8
0
  6
CONTINUOUS
 62
     2
 10
1604.75
 20
992.5
 30
0.0
 11
2002.25
 21
992.5
 31
0.0
  0
LINE
  8
0
  6
CONTINUOUS
 62
     2
 10
1564.75
 20
1307.5
 30
0.0
 11
2002.25
 21
1307.5
 31
0.0
  0
LINE
  8
0
  6
CONTINUOUS
 62
     2
 10
1564.75
 20
1272.5
 30
0.0
 11
2002.25
 21
1272.5
 31
0.0
  0
LINE
  8
0
  6
CONTINUOUS
 62
     2
 10
1564.75
 20
1237.5
 30
0.0
 11
2002.25
 21
1237.5
 31
0.0
  0
LINE
  8
0
  6
CONTINUOUS
 62
     2
 10
1564.75
 20
1202.5
 30
0.0
 11
2002.25
 21
1202.5
 31
0.0
  0
LINE
  8
0
  6
CONTINUOUS
 62
     2
 10
1564.75
 20
1167.5
 30
0.0
 11
2002.25
 21
1167.5
 31
0.0
  0
LINE
  8
0
  6
CONTINUOUS
 62
     2
 10
1564.75
 20
1132.5
 30
0.0
 11
2002.25
 21
1132.5
 31
0.0
  0
LINE
  8
0
  6
CONTINUOUS
 62
     2
 10
1564.75
 20
1097.5
 30
0.0
 11
2002.25
 21
1097.5
 31
0.0
  0
LINE
  8
0
  6
CONTINUOUS
 62
     2
 10
1564.75
 20
1062.5
 30
0.0
 11
2002.25
 21
1062.5
 31
0.0
  0
LINE
  8
0
  6
CONTINUOUS
 62
     2
 10
1604.75
 20
1027.5
 30
0.0
 11
1604.75
 21
747.5
 31
0.0
  0
LINE
  8
0
  6
CONTINUOUS
 62
     1
 10
1564.75
 20
1357.5
 30
0.0
 11
2002.25
 21
1357.5
 31
0.0
  0
LINE
  8
0
  6
CONTINUOUS
 62
     2
 10
1564.75
 20
712.5
 30
0.0
 11
2002.25
 21
712.5
 31
0.0
  0
TEXT
  8
0
  6
CONTINUOUS
 62
     2
 10
1862.75
 20
967.0
 30
1.5
 40
15.0
  1
　　　／　
 50
0.0
 41
0.9
 51
0.0
  7
KANJI62
  0
TEXT
  8
0
  6
CONTINUOUS
 62
     2
 10
1877.125
 20
931.375
 30
1.5
 40
15.0
  1
　５０／６０
 50
0.0
 41
0.9
 51
0.0
  7
KANJI62
  0
TEXT
  8
0
  6
CONTINUOUS
 62
     2
 10
1851.75
 20
1107.0
 30
12.8125
 40
17.5
  1
全閉屋外形
 50
0.0
 41
0.9
 51
0.0
  7
KANJI56
  0
TEXT
  8
0
  6
CONTINUOUS
 62
     2
 10
1843.375
 20
1002.625
 30
1.5
 40
15.0
  1
０．３
 50
0.0
 41
0.9
 51
0.0
  7
KANJI62
  0
TEXT
  8
0
  6
CONTINUOUS
 62
     2
 10
1602.25
 20
1176.5
 30
5.0
 40
17.5
  1
公称速度（５０／６０Ｈｚ）
 50
0.0
 41
0.9
 51
0.0
  7
KANJI63
  0
TEXT
  8
0
  6
CONTINUOUS
 62
     2
 10
1832.125
 20
1176.375
 30
1.5
 40
15.0
  1
　２５／３０
 50
0.0
 41
0.9
 51
0.0
  7
KANJI62
  0
TEXT
  8
0
  6
CONTINUOUS
 62
     2
 10
1823.25
 20
1246.5
 30
1.5
 40
15.0
  1
２９４０Ｎ（３００ｋｇ）
 50
0.0
 41
0.9
 51
0.0
  7
KANJI62
  0
TEXT
  8
0
  6
CONTINUOUS
 62
     2
 10
1820.75
 20
1280.625
 30
1.0
 40
15.0
  1
ＭＣＳＤＢＢ０３－　　Ｊ
 50
0.0
 41
0.833333333
 51
0.0
  7
KANJI64
  0
LINE
  8
0
  6
CONTINUOUS
 62
     2
 10
1884.0
 20
1076.0
 30
0.0
 11
1916.0
 21
1076.0
 31
0.0
  0
LINE
  8
0
  6
CONTINUOUS
 62
     1
 10
1564.75
 20
642.5
 30
0.0
 11
2002.25
 21
642.5
 31
0.0
  0
TEXT
  8
0
  6
CONTINUOUS
 62
     2
 10
1602.25
 20
651.5
 30
5.0
 40
17.5
  1
概算重量（１台当り）
 50
0.0
 41
0.857142857
 51
0.0
  7
KANJI11
  0
LINE
  8
0
  6
CONTINUOUS
 62
     2
 10
1564.75
 20
677.5
 30
0.0
 11
2002.25
 21
677.5
 31
0.0
  0
LINE
  8
0
  6
CONTINUOUS
 62
     2
 10
1814.75
 20
1307.5
 30
0.0
 11
1814.75
 21
642.5
 31
0.0
  0
LINE
  8
0
  6
CONTINUOUS
 62
     1
 10
1564.75
 20
1357.5
 30
0.0
 11
1564.75
 21
642.5
 31
0.0
  0
TEXT
  8
2
  6
CONTINUOUS
 62
     2
 10
972.75
 20
836.6
 30
0.0
 40
15.0
  1
１８
 50
0.0
 41
0.9
 51
0.0
  7
KANJI26
  0
LINE
  8
2
  6
CONTINUOUS
 62
     2
 10
996.85
 20
645.5
 30
0.0
 11
996.85
 21
832.288190451
 31
0.0
  0
LINE
  8
2
  6
CONTINUOUS
 62
     2
 10
978.85
 20
645.5
 30
0.0
 11
978.85
 21
832.288190451
 31
0.0
  0
TEXT
  8
0
  6
CONTINUOUS
 62
     2
 10
1956.25
 20
652.65
 30
0.0
 40
17.5
  1
ｋｇ
 50
0.0
 41
0.9
 51
0.0
  7
KANJI65
  0
TEXT
  8
0
  6
CONTINUOUS
 62
     2
 10
1822.875
 20
1141.375
 30
0.0
 40
15.0
  1
８．３Ｎ・ｍ（０．８５ｋｇ・ｍ）
 50
0.0
 41
0.766666667
 51
0.0
  7
KANJI66
  0
TEXT
  8
2
  6
CONTINUOUS
 62
     2
 10
621.25
 20
709.3
 30
0.0
 40
15.0
  1
φ１６Ｈ１０深さ２２
 50
0.0
 41
0.9
 51
0.0
  7
KANJI26
  0
LINE
  8
2
  6
CONTINUOUS
 62
     2
 10
621.25
 20
705.3
 30
0.0
 11
758.0
 21
705.3
 31
0.0
  0
TEXT
  8
0
  6
CONTINUOUS
 62
     2
 10
1371.9166945
 20
105.999995
 30
1.5
 40
17.5
  1
０７．１１．０７
 50
0.0
 41
0.571428571
 51
0.0
  7
KANJI67
  0
ENDSEC
  0
EOF
