  0
SECTION
  2
HEADER
  9
$EXTMIN
 10
0.0
 20
0.0
 30
0.0
  9
$EXTMAX
 10
2100.0
 20
1485.0
 30
0.0
  9
$LIMMIN
 10
0.0
 20
0.0
  9
$LIMMAX
 10
2100.0
 20
1485.0
  9
$LTSCALE
 40
1.0
  9
$PDMODE
 70
     0
  0
ENDSEC
  0
SECTION
  2
TABLES
  0
TABLE
  2
LTYPE
 70
     6
  0
LTYPE
  2
CONTINUOUS
 70
    64
  3
Solid line
 72
    65
 73
     0
 40
0.0
  0
LTYPE
  2
LTYPE1
 70
    64
  3
HIDDEN
 72
    65
 73
     2
 40
15.0
 49
9.0
 49
-6.0
  0
LTYPE
  2
LTYPE2
 70
    64
  3
CENTER
 72
    65
 73
     4
 40
75.0
 49
52.5
 49
-7.5
 49
7.5
 49
-7.5
  0
LTYPE
  2
LTYPE3
 70
    64
  3
CENTER
 72
    65
 73
     4
 40
50.0
 49
35.0
 49
-5.0
 49
5.0
 49
-5.0
  0
LTYPE
  2
LTYPE4
 70
    64
  3
PHANTOM
 72
    65
 73
     6
 40
50.0
 49
37.5
 49
-2.5
 49
2.5
 49
-2.5
 49
2.5
 49
-2.5
  0
LTYPE
  2
LTYPE5
 70
    64
  3
CENTER
 72
    65
 73
     4
 40
45.0
 49
31.5
 49
-4.5
 49
4.5
 49
-4.5
  0
ENDTAB
  0
TABLE
  2
LAYER
 70
   128
  0
LAYER
  2
0
 70
     0
 62
     7
  6
CONTINUOUS
  0
LAYER
  2
2
 70
     0
 62
     7
  6
CONTINUOUS
  0
LAYER
  2
3
 70
     0
 62
     7
  6
CONTINUOUS
  0
LAYER
  2
4
 70
     0
 62
     7
  6
CONTINUOUS
  0
LAYER
  2
5
 70
     0
 62
     7
  6
CONTINUOUS
  0
LAYER
  2
6
 70
     0
 62
     7
  6
CONTINUOUS
  0
LAYER
  2
7
 70
     0
 62
     7
  6
CONTINUOUS
  0
LAYER
  2
8
 70
     0
 62
     7
  6
CONTINUOUS
  0
LAYER
  2
9
 70
     0
 62
     7
  6
CONTINUOUS
  0
LAYER
  2
10
 70
     0
 62
     7
  6
CONTINUOUS
  0
LAYER
  2
11
 70
     0
 62
     7
  6
CONTINUOUS
  0
LAYER
  2
12
 70
     0
 62
     7
  6
CONTINUOUS
  0
LAYER
  2
13
 70
     0
 62
     7
  6
CONTINUOUS
  0
LAYER
  2
14
 70
     0
 62
     7
  6
CONTINUOUS
  0
LAYER
  2
15
 70
     0
 62
     7
  6
CONTINUOUS
  0
LAYER
  2
16
 70
     0
 62
     7
  6
CONTINUOUS
  0
LAYER
  2
17
 70
     0
 62
     7
  6
CONTINUOUS
  0
LAYER
  2
18
 70
     0
 62
     7
  6
CONTINUOUS
  0
LAYER
  2
19
 70
     0
 62
     7
  6
CONTINUOUS
  0
LAYER
  2
20
 70
     0
 62
     7
  6
CONTINUOUS
  0
LAYER
  2
21
 70
     0
 62
     7
  6
CONTINUOUS
  0
LAYER
  2
22
 70
     0
 62
     7
  6
CONTINUOUS
  0
LAYER
  2
23
 70
     0
 62
     7
  6
CONTINUOUS
  0
LAYER
  2
24
 70
     0
 62
     7
  6
CONTINUOUS
  0
LAYER
  2
25
 70
     0
 62
     7
  6
CONTINUOUS
  0
LAYER
  2
26
 70
     0
 62
     7
  6
CONTINUOUS
  0
LAYER
  2
27
 70
     0
 62
     7
  6
CONTINUOUS
  0
LAYER
  2
28
 70
     0
 62
     7
  6
CONTINUOUS
  0
LAYER
  2
29
 70
     0
 62
     7
  6
CONTINUOUS
  0
LAYER
  2
30
 70
     0
 62
     7
  6
CONTINUOUS
  0
LAYER
  2
31
 70
     0
 62
     7
  6
CONTINUOUS
  0
LAYER
  2
32
 70
     0
 62
     7
  6
CONTINUOUS
  0
LAYER
  2
33
 70
     0
 62
     7
  6
CONTINUOUS
  0
LAYER
  2
34
 70
     0
 62
     7
  6
CONTINUOUS
  0
LAYER
  2
35
 70
     0
 62
     7
  6
CONTINUOUS
  0
LAYER
  2
36
 70
     0
 62
     7
  6
CONTINUOUS
  0
LAYER
  2
37
 70
     0
 62
     7
  6
CONTINUOUS
  0
LAYER
  2
38
 70
     0
 62
     7
  6
CONTINUOUS
  0
LAYER
  2
39
 70
     0
 62
     7
  6
CONTINUOUS
  0
LAYER
  2
40
 70
     0
 62
     7
  6
CONTINUOUS
  0
LAYER
  2
41
 70
     0
 62
     7
  6
CONTINUOUS
  0
LAYER
  2
42
 70
     0
 62
     7
  6
CONTINUOUS
  0
LAYER
  2
43
 70
     0
 62
     7
  6
CONTINUOUS
  0
LAYER
  2
44
 70
     0
 62
     7
  6
CONTINUOUS
  0
LAYER
  2
45
 70
     0
 62
     7
  6
CONTINUOUS
  0
LAYER
  2
46
 70
     0
 62
     7
  6
CONTINUOUS
  0
LAYER
  2
47
 70
     0
 62
     7
  6
CONTINUOUS
  0
LAYER
  2
48
 70
     0
 62
     7
  6
CONTINUOUS
  0
LAYER
  2
49
 70
     0
 62
     7
  6
CONTINUOUS
  0
LAYER
  2
50
 70
     0
 62
     7
  6
CONTINUOUS
  0
LAYER
  2
51
 70
     0
 62
     7
  6
CONTINUOUS
  0
LAYER
  2
52
 70
     0
 62
     7
  6
CONTINUOUS
  0
LAYER
  2
53
 70
     0
 62
     7
  6
CONTINUOUS
  0
LAYER
  2
54
 70
     0
 62
     7
  6
CONTINUOUS
  0
LAYER
  2
55
 70
     0
 62
     7
  6
CONTINUOUS
  0
LAYER
  2
56
 70
     0
 62
     7
  6
CONTINUOUS
  0
LAYER
  2
57
 70
     0
 62
     7
  6
CONTINUOUS
  0
LAYER
  2
58
 70
     0
 62
     7
  6
CONTINUOUS
  0
LAYER
  2
59
 70
     0
 62
     7
  6
CONTINUOUS
  0
LAYER
  2
60
 70
     0
 62
     7
  6
CONTINUOUS
  0
LAYER
  2
61
 70
     0
 62
     7
  6
CONTINUOUS
  0
LAYER
  2
62
 70
     0
 62
     7
  6
CONTINUOUS
  0
LAYER
  2
63
 70
     0
 62
     7
  6
CONTINUOUS
  0
LAYER
  2
64
 70
     0
 62
     7
  6
CONTINUOUS
  0
LAYER
  2
65
 70
     0
 62
     7
  6
CONTINUOUS
  0
LAYER
  2
66
 70
     0
 62
     7
  6
CONTINUOUS
  0
LAYER
  2
67
 70
     0
 62
     7
  6
CONTINUOUS
  0
LAYER
  2
68
 70
     0
 62
     7
  6
CONTINUOUS
  0
LAYER
  2
69
 70
     0
 62
     7
  6
CONTINUOUS
  0
LAYER
  2
70
 70
     0
 62
     7
  6
CONTINUOUS
  0
LAYER
  2
71
 70
     0
 62
     7
  6
CONTINUOUS
  0
LAYER
  2
72
 70
     0
 62
     7
  6
CONTINUOUS
  0
LAYER
  2
73
 70
     0
 62
     7
  6
CONTINUOUS
  0
LAYER
  2
74
 70
     0
 62
     7
  6
CONTINUOUS
  0
LAYER
  2
75
 70
     0
 62
     7
  6
CONTINUOUS
  0
LAYER
  2
76
 70
     0
 62
     7
  6
CONTINUOUS
  0
LAYER
  2
77
 70
     0
 62
     7
  6
CONTINUOUS
  0
LAYER
  2
78
 70
     0
 62
     7
  6
CONTINUOUS
  0
LAYER
  2
79
 70
     0
 62
     7
  6
CONTINUOUS
  0
LAYER
  2
80
 70
     0
 62
     7
  6
CONTINUOUS
  0
LAYER
  2
81
 70
     0
 62
     7
  6
CONTINUOUS
  0
LAYER
  2
82
 70
     0
 62
     7
  6
CONTINUOUS
  0
LAYER
  2
83
 70
     0
 62
     7
  6
CONTINUOUS
  0
LAYER
  2
84
 70
     0
 62
     7
  6
CONTINUOUS
  0
LAYER
  2
85
 70
     0
 62
     7
  6
CONTINUOUS
  0
LAYER
  2
86
 70
     0
 62
     7
  6
CONTINUOUS
  0
LAYER
  2
87
 70
     0
 62
     7
  6
CONTINUOUS
  0
LAYER
  2
88
 70
     0
 62
     7
  6
CONTINUOUS
  0
LAYER
  2
89
 70
     0
 62
     7
  6
CONTINUOUS
  0
LAYER
  2
90
 70
     0
 62
     7
  6
CONTINUOUS
  0
LAYER
  2
91
 70
     0
 62
     7
  6
CONTINUOUS
  0
LAYER
  2
92
 70
     0
 62
     7
  6
CONTINUOUS
  0
LAYER
  2
93
 70
     0
 62
     7
  6
CONTINUOUS
  0
LAYER
  2
94
 70
     0
 62
     7
  6
CONTINUOUS
  0
LAYER
  2
95
 70
     0
 62
     7
  6
CONTINUOUS
  0
LAYER
  2
96
 70
     0
 62
     7
  6
CONTINUOUS
  0
LAYER
  2
97
 70
     0
 62
     7
  6
CONTINUOUS
  0
LAYER
  2
98
 70
     0
 62
     7
  6
CONTINUOUS
  0
LAYER
  2
99
 70
     0
 62
     7
  6
CONTINUOUS
  0
LAYER
  2
100
 70
     0
 62
     7
  6
CONTINUOUS
  0
LAYER
  2
101
 70
     0
 62
     7
  6
CONTINUOUS
  0
LAYER
  2
102
 70
     0
 62
     7
  6
CONTINUOUS
  0
LAYER
  2
103
 70
     0
 62
     7
  6
CONTINUOUS
  0
LAYER
  2
104
 70
     0
 62
     7
  6
CONTINUOUS
  0
LAYER
  2
105
 70
     0
 62
     7
  6
CONTINUOUS
  0
LAYER
  2
106
 70
     0
 62
     7
  6
CONTINUOUS
  0
LAYER
  2
107
 70
     0
 62
     7
  6
CONTINUOUS
  0
LAYER
  2
108
 70
     0
 62
     7
  6
CONTINUOUS
  0
LAYER
  2
109
 70
     0
 62
     7
  6
CONTINUOUS
  0
LAYER
  2
110
 70
     0
 62
     7
  6
CONTINUOUS
  0
LAYER
  2
111
 70
     0
 62
     7
  6
CONTINUOUS
  0
LAYER
  2
112
 70
     0
 62
     7
  6
CONTINUOUS
  0
LAYER
  2
113
 70
     0
 62
     7
  6
CONTINUOUS
  0
LAYER
  2
114
 70
     0
 62
     7
  6
CONTINUOUS
  0
LAYER
  2
115
 70
     0
 62
     7
  6
CONTINUOUS
  0
LAYER
  2
116
 70
     0
 62
     7
  6
CONTINUOUS
  0
LAYER
  2
117
 70
     0
 62
     7
  6
CONTINUOUS
  0
LAYER
  2
118
 70
     0
 62
     7
  6
CONTINUOUS
  0
LAYER
  2
119
 70
     0
 62
     7
  6
CONTINUOUS
  0
LAYER
  2
120
 70
     0
 62
     7
  6
CONTINUOUS
  0
LAYER
  2
121
 70
     0
 62
     7
  6
CONTINUOUS
  0
LAYER
  2
122
 70
     0
 62
     7
  6
CONTINUOUS
  0
LAYER
  2
123
 70
     0
 62
     7
  6
CONTINUOUS
  0
LAYER
  2
124
 70
     0
 62
     7
  6
CONTINUOUS
  0
LAYER
  2
125
 70
     0
 62
     7
  6
CONTINUOUS
  0
LAYER
  2
126
 70
     0
 62
     7
  6
CONTINUOUS
  0
LAYER
  2
127
 70
     0
 62
     7
  6
CONTINUOUS
  0
LAYER
  2
128
 70
     0
 62
     7
  6
CONTINUOUS
  0
ENDTAB
  0
TABLE
  2
STYLE
 70
    80
  0
STYLE
  2
STANDARD
 70
     0
 40
0.0
 41
1.0
 50
0.0
 71
     0
 42
0.2
  3
txt
  4

  0
STYLE
  2
KANJI0
 70
     0
 40
9.999997897
 41
0.6
 50
0.0
 71
     0
 42
9.999997897
  3

  4
bigfont
  0
STYLE
  2
KANJI1
 70
     0
 40
11.999997477
 41
0.9
 50
0.0
 71
     0
 42
11.999997477
  3

  4
bigfont
  0
STYLE
  2
KANJI2
 70
     0
 40
14.999996846
 41
0.9
 50
0.0
 71
     0
 42
14.999996846
  3

  4
bigfont
  0
STYLE
  2
KANJI3
 70
     0
 40
12.999999
 41
0.75
 50
0.0
 71
     0
 42
12.999999
  3

  4
bigfont
  0
STYLE
  2
KANJI4
 70
     0
 40
8.666666
 41
0.6
 50
0.0
 71
     0
 42
8.666666
  3

  4
bigfont
  0
STYLE
  2
KANJI5
 70
     0
 40
10.3999992
 41
0.6
 50
0.0
 71
     0
 42
10.3999992
  3

  4
bigfont
  0
STYLE
  2
KANJI6
 70
     0
 40
15.1666655
 41
0.42031746
 50
0.0
 71
     0
 42
15.1666655
  3

  4
bigfont
  0
STYLE
  2
KANJI7
 70
     0
 40
25.999998
 41
0.9
 50
0.0
 71
     0
 42
25.999998
  3

  4
bigfont
  0
STYLE
  2
KANJI8
 70
     0
 40
8.666666
 41
0.8
 50
0.0
 71
     0
 42
8.666666
  3

  4
bigfont
  0
STYLE
  2
KANJI9
 70
     0
 40
10.3999992
 41
0.8
 50
0.0
 71
     0
 42
10.3999992
  3

  4
bigfont
  0
STYLE
  2
KANJI10
 70
     0
 40
25.0
 41
1.0
 50
0.0
 71
     0
 42
25.0
  3

  4
bigfont
  0
STYLE
  2
KANJI11
 70
     0
 40
25.0
 41
1.0
 50
0.0
 71
     0
 42
25.0
  3

  4
bigfont
  0
STYLE
  2
KANJI12
 70
     0
 40
25.0
 41
0.8
 50
0.0
 71
     0
 42
25.0
  3

  4
bigfont
  0
STYLE
  2
KANJI13
 70
     0
 40
20.0
 41
1.0
 50
0.0
 71
     0
 42
20.0
  3

  4
bigfont
  0
STYLE
  2
KANJI14
 70
     0
 40
17.5
 41
0.857142857
 50
0.0
 71
     0
 42
17.5
  3

  4
bigfont
  0
STYLE
  2
KANJI15
 70
     0
 40
22.5
 41
0.666666667
 50
0.0
 71
     0
 42
22.5
  3

  4
bigfont
  0
STYLE
  2
KANJI16
 70
     0
 40
18.0
 41
1.111111111
 50
0.0
 71
     0
 42
18.0
  3

  4
bigfont
  0
STYLE
  2
KANJI17
 70
     0
 40
20.0
 41
0.9
 50
0.0
 71
     0
 42
20.0
  3

  4
bigfont
  0
STYLE
  2
KANJI18
 70
     0
 40
18.0
 41
0.857142857
 50
0.0
 71
     0
 42
18.0
  3

  4
bigfont
  0
STYLE
  2
KANJI19
 70
     0
 40
18.0
 41
0.857222222
 50
0.0
 71
     0
 42
18.0
  3

  4
bigfont
  0
STYLE
  2
KANJI20
 70
     0
 40
15.0
 41
1.0
 50
0.0
 71
     0
 42
15.0
  3

  4
bigfont
  0
STYLE
  2
KANJI21
 70
     0
 40
13.182
 41
0.85
 50
0.0
 71
     0
 42
13.182
  3

  4
bigfont
  0
STYLE
  2
KANJI22
 70
     0
 40
11.661
 41
0.822608696
 50
0.0
 71
     0
 42
11.661
  3

  4
bigfont
  0
STYLE
  2
KANJI23
 70
     0
 40
11.8638
 41
0.726495726
 50
0.0
 71
     0
 42
11.8638
  3

  4
bigfont
  0
STYLE
  2
KANJI24
 70
     4
 40
45.0
 41
0.538166667
 50
0.0
 71
     0
 42
45.0
  3

  4
bigfont
  0
STYLE
  2
KANJI25
 70
     0
 40
12.0
 41
0.933333333
 50
0.0
 71
     0
 42
12.0
  3

  4
bigfont
  0
STYLE
  2
KANJI26
 70
     0
 40
8.4
 41
0.9
 50
0.0
 71
     0
 42
8.4
  3

  4
bigfont
  0
STYLE
  2
KANJI27
 70
     0
 40
15.0
 41
0.9
 50
0.0
 71
     0
 42
15.0
  3

  4
bigfont
  0
STYLE
  2
KANJI28
 70
     0
 40
12.8
 41
0.9
 50
0.0
 71
     0
 42
12.8
  3

  4
bigfont
  0
STYLE
  2
KANJI29
 70
     0
 40
12.0
 41
0.9
 50
0.0
 71
     0
 42
12.0
  3

  4
bigfont
  0
STYLE
  2
KANJI30
 70
     0
 40
12.0
 41
0.9
 50
0.0
 71
     0
 42
12.0
  3

  4
bigfont
  0
STYLE
  2
KANJI31
 70
     0
 40
14.0
 41
0.9
 50
0.0
 71
     0
 42
14.0
  3

  4
bigfont
  0
STYLE
  2
KANJI32
 70
     0
 40
10.8
 41
0.740740741
 50
0.0
 71
     0
 42
10.8
  3

  4
bigfont
  0
STYLE
  2
KANJI33
 70
     0
 40
14.0
 41
0.857142857
 50
0.0
 71
     0
 42
14.0
  3

  4
bigfont
  0
STYLE
  2
KANJI34
 70
     0
 40
25.0
 41
0.8
 50
0.0
 71
     0
 42
25.0
  3

  4
bigfont
  0
STYLE
  2
KANJI35
 70
     0
 40
11.55
 41
0.9
 50
0.0
 71
     0
 42
11.55
  3

  4
bigfont
  0
STYLE
  2
KANJI36
 70
     0
 40
17.740702234
 41
0.880962996
 50
0.0
 71
     0
 42
17.740702234
  3

  4
bigfont
  0
STYLE
  2
KANJI37
 70
     0
 40
11.7
 41
0.8
 50
0.0
 71
     0
 42
11.7
  3

  4
bigfont
  0
STYLE
  2
KANJI38
 70
     0
 40
15.0
 41
0.911
 50
0.0
 71
     0
 42
15.0
  3

  4
bigfont
  0
STYLE
  2
KANJI39
 70
     0
 40
20.0
 41
0.925
 50
0.0
 71
     0
 42
20.0
  3

  4
bigfont
  0
STYLE
  2
KANJI40
 70
     0
 40
13.475
 41
0.9
 50
0.0
 71
     0
 42
13.475
  3

  4
bigfont
  0
STYLE
  2
KANJI41
 70
     0
 40
15.185977837
 41
0.66671875
 50
0.0
 71
     0
 42
15.185977837
  3

  4
bigfont
  0
STYLE
  2
KANJI42
 70
     0
 40
18.223173404
 41
0.9
 50
0.0
 71
     0
 42
18.223173404
  3

  4
bigfont
  0
STYLE
  2
KANJI43
 70
     0
 40
14.578538724
 41
0.9
 50
0.0
 71
     0
 42
14.578538724
  3

  4
bigfont
  0
STYLE
  2
KANJI44
 70
     0
 40
15.6
 41
0.925
 50
0.0
 71
     0
 42
15.6
  3

  4
bigfont
  0
STYLE
  2
KANJI45
 70
     0
 40
10.933904043
 41
0.9
 50
0.0
 71
     0
 42
10.933904043
  3

  4
bigfont
  0
STYLE
  2
KANJI46
 70
     0
 40
20.0
 41
0.925
 50
0.0
 71
     0
 42
20.0
  3

  4
bigfont
  0
STYLE
  2
KANJI47
 70
     0
 40
17.5
 41
0.571428571
 50
0.0
 71
     0
 42
17.5
  3

  4
bigfont
  0
STYLE
  2
KANJI48
 70
     0
 40
17.5
 41
0.9
 50
0.0
 71
     0
 42
17.5
  3

  4
bigfont
  0
STYLE
  2
KANJI49
 70
     0
 40
17.5
 41
0.9
 50
0.0
 71
     0
 42
17.5
  3

  4
bigfont
  0
STYLE
  2
KANJI50
 70
     0
 40
17.5
 41
0.9
 50
0.0
 71
     0
 42
17.5
  3

  4
bigfont
  0
STYLE
  2
KANJI51
 70
     0
 40
17.5
 41
0.9
 50
0.0
 71
     0
 42
17.5
  3

  4
bigfont
  0
STYLE
  2
KANJI52
 70
     0
 40
22.5
 41
0.9
 50
0.0
 71
     0
 42
22.5
  3

  4
bigfont
  0
STYLE
  2
KANJI53
 70
     0
 40
17.5
 41
0.9
 50
0.0
 71
     0
 42
17.5
  3

  4
bigfont
  0
STYLE
  2
KANJI54
 70
     0
 40
17.5
 41
0.9
 50
0.0
 71
     0
 42
17.5
  3

  4
bigfont
  0
STYLE
  2
KANJI55
 70
     0
 40
17.5
 41
0.9
 50
0.0
 71
     0
 42
17.5
  3

  4
bigfont
  0
STYLE
  2
KANJI56
 70
     0
 40
17.5
 41
0.9
 50
0.0
 71
     0
 42
17.5
  3

  4
bigfont
  0
STYLE
  2
KANJI57
 70
     0
 40
17.5
 41
0.9
 50
0.0
 71
     0
 42
17.5
  3

  4
bigfont
  0
STYLE
  2
KANJI58
 70
     4
 40
17.5
 41
0.9
 50
0.0
 71
     0
 42
17.5
  3

  4
bigfont
  0
STYLE
  2
KANJI59
 70
     4
 40
15.0
 41
0.9
 50
0.0
 71
     0
 42
15.0
  3

  4
bigfont
  0
STYLE
  2
KANJI60
 70
     0
 40
12.5
 41
0.8
 50
0.0
 71
     0
 42
12.5
  3

  4
bigfont
  0
STYLE
  2
KANJI61
 70
     0
 40
17.5
 41
0.9
 50
0.0
 71
     0
 42
17.5
  3

  4
bigfont
  0
STYLE
  2
KANJI62
 70
     0
 40
15.0
 41
0.9
 50
0.0
 71
     0
 42
15.0
  3

  4
bigfont
  0
STYLE
  2
KANJI63
 70
     0
 40
15.0
 41
0.857142857
 50
0.0
 71
     0
 42
15.0
  3

  4
bigfont
  0
STYLE
  2
KANJI64
 70
     0
 40
17.5
 41
0.9
 50
0.0
 71
     0
 42
17.5
  3

  4
bigfont
  0
STYLE
  2
KANJI65
 70
     0
 40
14.0
 41
0.9
 50
0.0
 71
     0
 42
14.0
  3

  4
bigfont
  0
STYLE
  2
KANJI66
 70
     0
 40
14.0
 41
0.785714286
 50
0.0
 71
     0
 42
14.0
  3

  4
bigfont
  0
STYLE
  2
KANJI67
 70
     0
 40
14.0
 41
0.8
 50
0.0
 71
     0
 42
14.0
  3

  4
bigfont
  0
STYLE
  2
KANJI68
 70
     0
 40
17.5
 41
0.9
 50
0.0
 71
     0
 42
17.5
  3

  4
bigfont
  0
STYLE
  2
KANJI69
 70
     0
 40
15.0
 41
0.8
 50
0.0
 71
     0
 42
15.0
  3

  4
bigfont
  0
STYLE
  2
KANJI70
 70
     0
 40
15.0
 41
0.9
 50
0.0
 71
     0
 42
15.0
  3

  4
bigfont
  0
STYLE
  2
KANJI71
 70
     0
 40
17.5
 41
0.9
 50
0.0
 71
     0
 42
17.5
  3

  4
bigfont
  0
STYLE
  2
KANJI72
 70
     0
 40
15.0
 41
0.833333333
 50
0.0
 71
     0
 42
15.0
  3

  4
bigfont
  0
STYLE
  2
KANJI73
 70
     0
 40
17.5
 41
0.9
 50
0.0
 71
     0
 42
17.5
  3

  4
bigfont
  0
STYLE
  2
KANJI74
 70
     0
 40
15.0
 41
0.833333333
 50
0.0
 71
     0
 42
15.0
  3

  4
bigfont
  0
STYLE
  2
KANJI75
 70
     0
 40
17.5
 41
0.793650794
 50
0.0
 71
     0
 42
17.5
  3

  4
bigfont
  0
STYLE
  2
KANJI76
 70
     0
 40
12.0
 41
0.833333333
 50
0.0
 71
     0
 42
12.0
  3

  4
bigfont
  0
STYLE
  2
KANJI77
 70
     0
 40
7.071067812
 41
1.0
 50
0.0
 71
     0
 42
7.071067812
  3

  4
bigfont
  0
STYLE
  2
KANJI78
 70
     0
 40
15.0
 41
0.45
 50
0.0
 71
     0
 42
15.0
  3

  4
bigfont
  0
ENDTAB
  0
TABLE
  2
VIEW
 70
     0
  0
ENDTAB
  0
ENDSEC
  0
SECTION
  2
BLOCKS
  0
ENDSEC
  0
SECTION
  2
ENTITIES
  0
LINE
  8
0
  6
CONTINUOUS
 62
     6
 10
71.25
 20
56.0
 11
71.25
 21
1401.0
  0
TEXT
  8
0
  6
CONTINUOUS
 62
     4
 10
86.249996846
 20
80.999994744
 30
0.99999979
 40
9.999997897
  1
ＰＡＲＴＳ　ＬＩＳＴ
 50
0.0
 41
0.6
 51
0.0
  7
KANJI0
  0
TEXT
  8
0
  6
CONTINUOUS
 62
     4
 10
86.249996846
 20
65.999997897
 30
1.199999748
 40
11.999997477
  1
部品表
 50
0.0
 41
0.9
 51
0.0
  7
KANJI1
  0
LINE
  8
0
  6
CONTINUOUS
 62
     6
 10
2006.25
 20
56.0
 11
71.25
 21
56.0
  0
LINE
  8
0
  6
CONTINUOUS
 62
     6
 10
76.249998949
 20
130.999984231
 11
401.249930615
 21
130.999984231
  0
LINE
  8
0
  6
CONTINUOUS
 62
     6
 10
76.249998949
 20
60.999998949
 11
401.249930615
 21
60.999998949
  0
LINE
  8
0
  6
CONTINUOUS
 62
     6
 10
76.249998949
 20
60.999998949
 11
76.249998949
 21
130.999984231
  0
LINE
  8
0
  6
CONTINUOUS
 62
     6
 10
76.249998949
 20
95.99999159
 11
401.249930615
 21
95.99999159
  0
TEXT
  8
0
  6
CONTINUOUS
 62
     2
 10
86.249996846
 20
105.999989487
 30
1.499999685
 40
14.999996846
  1
ＰＬ
 50
0.0
 41
0.9
 51
0.0
  7
KANJI2
  0
LINE
  8
0
  6
CONTINUOUS
 62
     4
 10
14.333333
 20
60.333333
 11
66.333329
 21
60.333333
  0
LINE
  8
0
  6
CONTINUOUS
 62
     4
 10
14.333333
 20
86.333331
 11
66.333329
 21
86.333331
  0
LINE
  8
0
  6
CONTINUOUS
 62
     4
 10
14.333333
 20
112.333329
 11
66.333329
 21
112.333329
  0
LINE
  8
0
  6
CONTINUOUS
 62
     4
 10
14.333333
 20
138.333327
 11
66.333329
 21
138.333327
  0
LINE
  8
0
  6
CONTINUOUS
 62
     4
 10
14.333333
 20
164.333325
 11
66.333329
 21
164.333325
  0
LINE
  8
0
  6
CONTINUOUS
 62
     4
 10
14.333333
 20
190.333323
 11
66.333329
 21
190.333323
  0
LINE
  8
0
  6
CONTINUOUS
 62
     4
 10
14.333333
 20
216.333321
 11
66.333329
 21
216.333321
  0
LINE
  8
0
  6
CONTINUOUS
 62
     4
 10
14.333333
 20
242.333319
 11
66.333329
 21
242.333319
  0
LINE
  8
0
  6
CONTINUOUS
 62
     4
 10
14.333333
 20
268.333317
 11
66.333329
 21
268.333317
  0
LINE
  8
0
  6
CONTINUOUS
 62
     4
 10
14.333333
 20
294.333315
 11
66.333329
 21
294.333315
  0
LINE
  8
0
  6
CONTINUOUS
 62
     4
 10
66.333329
 20
60.333333
 11
66.333329
 21
294.333315
  0
LINE
  8
0
  6
CONTINUOUS
 62
     4
 10
40.333331
 20
60.333333
 11
40.333331
 21
268.333317
  0
TEXT
  8
0
  6
CONTINUOUS
 62
     4
 10
23.21666565
 20
67.91666575
 30
1.2999999
 40
12.999999
  1
計
 50
0.0
 41
0.75
 51
0.0
  7
KANJI3
  0
TEXT
  8
0
  6
CONTINUOUS
 62
     4
 10
23.21666565
 20
120.34999505
 30
1.2999999
 40
12.999999
  1
設
 50
0.0
 41
0.75
 51
0.0
  7
KANJI3
  0
TEXT
  8
0
  6
CONTINUOUS
 62
     4
 10
23.21666565
 20
145.91665975
 30
1.2999999
 40
12.999999
  1
管
 50
0.0
 41
0.75
 51
0.0
  7
KANJI3
  0
TEXT
  8
0
  6
CONTINUOUS
 62
     4
 10
23.21666565
 20
171.91665775
 30
1.2999999
 40
12.999999
  1
製
 50
0.0
 41
0.75
 51
0.0
  7
KANJI3
  0
TEXT
  8
0
  6
CONTINUOUS
 62
     4
 10
23.21666565
 20
197.91665575
 30
1.2999999
 40
12.999999
  1
資
 50
0.0
 41
0.75
 51
0.0
  7
KANJI3
  0
TEXT
  8
0
  6
CONTINUOUS
 62
     4
 10
23.21666565
 20
223.91665375
 30
1.2999999
 40
12.999999
  1
営
 50
0.0
 41
0.75
 51
0.0
  7
KANJI3
  0
TEXT
  8
0
  6
CONTINUOUS
 62
     4
 10
23.21666565
 20
249.91665175
 30
1.2999999
 40
12.999999
  1
客
 50
0.0
 41
0.75
 51
0.0
  7
KANJI3
  0
TEXT
  8
0
  6
CONTINUOUS
 62
     4
 10
22.999999
 20
276.999983
 30
1.2999999
 40
12.999999
  1
出　図
 50
0.0
 41
0.75
 51
0.0
  7
KANJI3
  0
LINE
  8
0
  6
CONTINUOUS
 62
     4
 10
14.333333
 20
60.333333
 11
14.333333
 21
294.333315
  0
TEXT
  8
0
  6
CONTINUOUS
 62
     4
 10
311.249949538
 20
80.999994744
 30
0.99999979
 40
9.999997897
  1
Ｎ０．
 50
0.0
 41
0.6
 51
0.0
  7
KANJI0
  0
TEXT
  8
0
  6
CONTINUOUS
 62
     4
 10
311.249949538
 20
65.999997897
 30
1.199999748
 40
11.999997477
  1
項番
 50
0.0
 41
0.9
 51
0.0
  7
KANJI1
  0
LINE
  8
0
  6
CONTINUOUS
 62
     6
 10
401.249930615
 20
60.999998949
 11
401.249930615
 21
130.999984231
  0
LINE
  8
0
  6
CONTINUOUS
 62
     6
 10
301.249951641
 20
60.999998949
 11
301.249951641
 21
130.999984231
  0
LINE
  8
0
  6
CONTINUOUS
 62
     4
 10
1334.583385
 20
94.999997
 11
1492.7500395
 21
94.999997
  0
TEXT
  8
0
  6
CONTINUOUS
 62
     4
 10
1343.250051
 20
79.8333315
 30
0.8666666
 40
8.666666
  1
ＳＣＡＬＥ
 50
0.0
 41
0.6
 51
0.0
  7
KANJI4
  0
TEXT
  8
0
  6
CONTINUOUS
 62
     4
 10
1343.250051
 20
114.4999955
 30
0.8666666
 40
8.666666
  1
ＤＡＴＥ
 50
0.0
 41
0.6
 51
0.0
  7
KANJI4
  0
TEXT
  8
0
  6
CONTINUOUS
 62
     4
 10
1343.250051
 20
66.8333325
 30
1.03999992
 40
10.3999992
  1
尺度
 50
0.0
 41
0.6
 51
0.0
  7
KANJI5
  0
TEXT
  8
0
  6
CONTINUOUS
 62
     4
 10
1343.250051
 20
101.4999965
 30
1.03999992
 40
10.3999992
  1
日付
 50
0.0
 41
0.6
 51
0.0
  7
KANJI5
  0
TEXT
  8
0
  6
CONTINUOUS
 62
     4
 10
1102.7500695
 20
79.8333315
 30
0.8666666
 40
8.666666
  1
ＢＹ
 50
0.0
 41
0.6
 51
0.0
  7
KANJI4
  0
TEXT
  8
0
  6
CONTINUOUS
 62
     4
 10
1198.0833955
 20
79.8333315
 30
0.8666666
 40
8.666666
  1
ＤＥＳＣＲＩＰＴＩＯＮ
 50
0.0
 41
0.6
 51
0.0
  7
KANJI4
  0
TEXT
  8
0
  6
CONTINUOUS
 62
     4
 10
1102.7500695
 20
66.8333325
 30
1.03999992
 40
10.3999992
  1
担当
 50
0.0
 41
0.6
 51
0.0
  7
KANJI5
  0
TEXT
  8
0
  6
CONTINUOUS
 62
     4
 10
1211.0833945
 20
66.8333325
 30
1.03999992
 40
10.3999992
  1
記　　　　事
 50
0.0
 41
0.6
 51
0.0
  7
KANJI5
  0
LINE
  8
0
  6
CONTINUOUS
 62
     4
 10
1010.66674325
 20
88.4999975
 11
996.583411
 21
66.8333325
  0
TEXT
  8
0
  6
CONTINUOUS
 62
     4
 10
1046.4167405
 20
79.8333315
 30
0.8666666
 40
8.666666
  1
ＤＡＴＥ
 50
0.0
 41
0.6
 51
0.0
  7
KANJI4
  0
TEXT
  8
0
  6
CONTINUOUS
 62
     4
 10
1052.91674
 20
66.8333325
 30
1.03999992
 40
10.3999992
  1
日付
 50
0.0
 41
0.6
 51
0.0
  7
KANJI5
  0
LINE
  8
0
  6
CONTINUOUS
 62
     4
 10
996.583411
 20
66.8333325
 11
1024.7500755
 21
66.8333325
  0
LINE
  8
0
  6
CONTINUOUS
 62
     4
 10
1010.66674325
 20
88.4999975
 11
1024.7500755
 21
66.8333325
  0
LINE
  8
0
  6
CONTINUOUS
 62
     4
 10
1492.7500395
 20
114.4999955
 11
2001.916667
 21
114.4999955
  0
LINE
  8
0
  6
LTYPE1
 62
     4
 10
1856.7500115
 20
120.999995
 11
1856.7500115
 21
155.666659
  0
LINE
  8
0
  6
LTYPE1
 62
     4
 10
1826.4166805
 20
120.999995
 11
1826.4166805
 21
155.666659
  0
LINE
  8
0
  6
LTYPE1
 62
     4
 10
1796.0833495
 20
120.999995
 11
1796.0833495
 21
155.666659
  0
LINE
  8
0
  6
LTYPE1
 62
     4
 10
1765.7500185
 20
120.999995
 11
1765.7500185
 21
155.666659
  0
LINE
  8
0
  6
LTYPE1
 62
     4
 10
1735.4166875
 20
120.999995
 11
1735.4166875
 21
155.666659
  0
LINE
  8
0
  6
LTYPE1
 62
     4
 10
1705.0833565
 20
120.999995
 11
1705.0833565
 21
155.666659
  0
LINE
  8
0
  6
LTYPE1
 62
     4
 10
1674.7500255
 20
120.999995
 11
1674.7500255
 21
155.666659
  0
LINE
  8
0
  6
LTYPE1
 62
     4
 10
1644.4166945
 20
120.999995
 11
1644.4166945
 21
155.666659
  0
LINE
  8
0
  6
LTYPE1
 62
     4
 10
1644.4166945
 20
120.999995
 11
1856.7500115
 21
120.999995
  0
LINE
  8
0
  6
CONTINUOUS
 62
     6
 10
2006.25
 20
1401.0
 11
2006.25
 21
56.0
  0
LINE
  8
0
  6
CONTINUOUS
 62
     6
 10
992.250078
 20
94.999997
 11
1334.583385
 21
94.999997
  0
LINE
  8
0
  6
CONTINUOUS
 62
     6
 10
992.250078
 20
60.333333
 11
2001.916667
 21
60.333333
  0
TEXT
  8
0
  6
CONTINUOUS
 62
     6
 10
1497.0833725
 20
79.8333315
 30
0.0
 40
15.1666655
  1
ＵＮＩＴＥＣ　ＩＮＤＵＳＴＲＹ　ＣＯ．，ＬＴＤ．
 50
0.0
 41
0.42031746
 51
0.0
  7
KANJI6
  0
TEXT
  8
0
  6
CONTINUOUS
 62
     6
 10
1709.795856138
 20
74.1999986
 30
2.5999998
 40
25.999998
  1
ユニテック工業株式会社
 50
0.0
 41
0.9
 51
0.0
  7
KANJI7
  0
LINE
  8
0
  6
CONTINUOUS
 62
     6
 10
992.250078
 20
60.333333
 11
992.250078
 21
94.999997
  0
LINE
  8
0
  6
CONTINUOUS
 62
     4
 10
1029.0834085
 20
60.333333
 11
1029.0834085
 21
94.999997
  0
LINE
  8
0
  6
CONTINUOUS
 62
     4
 10
1089.7500705
 20
60.333333
 11
1089.7500705
 21
94.999997
  0
LINE
  8
0
  6
CONTINUOUS
 62
     4
 10
1128.7500675
 20
60.333333
 11
1128.7500675
 21
94.999997
  0
LINE
  8
0
  6
CONTINUOUS
 62
     6
 10
1334.583385
 20
60.333333
 11
1334.583385
 21
337.666645
  0
LINE
  8
0
  6
CONTINUOUS
 62
     6
 10
2001.916667
 20
60.333333
 11
2001.916667
 21
337.666645
  0
LINE
  8
0
  6
CONTINUOUS
 62
     4
 10
1492.7500395
 20
60.333333
 11
1492.7500395
 21
337.666645
  0
LINE
  8
0
  6
CONTINUOUS
 62
     6
 10
1675.129192138
 20
83.2999979
 11
1663.689193018
 21
83.2999979
  0
LINE
  8
0
  6
CONTINUOUS
 62
     6
 10
1675.129192138
 20
85.37999774
 11
1663.689193018
 21
85.37999774
  0
LINE
  8
0
  6
CONTINUOUS
 62
     6
 10
1675.129192138
 20
83.2999979
 11
1686.569191258
 21
83.2999979
  0
LINE
  8
0
  6
CONTINUOUS
 62
     6
 10
1675.129192138
 20
85.37999774
 11
1686.569191258
 21
85.37999774
  0
LINE
  8
0
  6
CONTINUOUS
 62
     6
 10
1686.569191258
 20
85.37999774
 11
1686.569191258
 21
83.2999979
  0
ARC
  8
0
  6
CONTINUOUS
 62
     6
 10
1689.169191058
 20
84.33999782
 40
10.3999992
 50
185.739170477
 51
90.0
  0
ARC
  8
0
  6
CONTINUOUS
 62
     6
 10
1689.169191058
 20
84.33999782
 40
12.47999904
 50
184.780191847
 51
90.0
  0
LINE
  8
0
  6
CONTINUOUS
 62
     6
 10
1663.689193018
 20
83.2999979
 11
1663.689193018
 21
85.37999774
  0
LINE
  8
0
  6
CONTINUOUS
 62
     6
 10
1673.569192258
 20
96.81999686
 11
1661.089193218
 21
96.81999686
  0
LINE
  8
0
  6
CONTINUOUS
 62
     6
 10
1676.689192018
 20
96.81999686
 11
1689.169191058
 21
96.81999686
  0
ARC
  8
0
  6
CONTINUOUS
 62
     6
 10
1661.089193218
 20
84.33999782
 40
10.3999992
 50
90.0
 51
354.260829523
  0
ARC
  8
0
  6
CONTINUOUS
 62
     6
 10
1661.089193218
 20
84.33999782
 40
12.47999904
 50
90.0
 51
355.219808153
  0
LINE
  8
0
  6
CONTINUOUS
 62
     6
 10
1673.569192258
 20
96.81999686
 11
1673.569192258
 21
94.73999702
  0
LINE
  8
0
  6
CONTINUOUS
 62
     6
 10
1661.089193218
 20
94.73999702
 11
1673.569192258
 21
94.73999702
  0
LINE
  8
0
  6
CONTINUOUS
 62
     6
 10
1676.689192018
 20
96.81999686
 11
1676.689192018
 21
94.73999702
  0
LINE
  8
0
  6
CONTINUOUS
 62
     6
 10
1689.169191058
 20
94.73999702
 11
1676.689192018
 21
94.73999702
  0
TEXT
  8
0
  6
CONTINUOUS
 62
     4
 10
1343.250051
 20
149.1666595
 30
0.8666666
 40
8.666666
  1
ＤＲＡＷＮ
 50
0.0
 41
0.6
 51
0.0
  7
KANJI4
  0
TEXT
  8
0
  6
CONTINUOUS
 62
     4
 10
1343.250051
 20
183.8333235
 30
0.8666666
 40
8.666666
  1
ＤＥＳＩＧＮ
 50
0.0
 41
0.6
 51
0.0
  7
KANJI4
  0
TEXT
  8
0
  6
CONTINUOUS
 62
     4
 10
1343.250051
 20
218.4999875
 30
0.8666666
 40
8.666666
  1
ＣＨＥＣＫ
 50
0.0
 41
0.6
 51
0.0
  7
KANJI4
  0
LINE
  8
0
  6
CONTINUOUS
 62
     4
 10
1334.583385
 20
198.999989
 11
1492.7500395
 21
198.999989
  0
LINE
  8
0
  6
CONTINUOUS
 62
     4
 10
1334.583385
 20
164.333325
 11
1492.7500395
 21
164.333325
  0
LINE
  8
0
  6
CONTINUOUS
 62
     4
 10
1334.583385
 20
233.666653
 11
1492.7500395
 21
233.666653
  0
TEXT
  8
0
  6
CONTINUOUS
 62
     4
 10
1343.250051
 20
170.8333245
 30
1.03999992
 40
10.3999992
  1
設計
 50
0.0
 41
0.6
 51
0.0
  7
KANJI5
  0
TEXT
  8
0
  6
CONTINUOUS
 62
     4
 10
1343.250051
 20
205.4999885
 30
1.03999992
 40
10.3999992
  1
検図
 50
0.0
 41
0.6
 51
0.0
  7
KANJI5
  0
TEXT
  8
0
  6
CONTINUOUS
 62
     4
 10
1343.250051
 20
240.1666525
 30
1.03999992
 40
10.3999992
  1
分類
 50
0.0
 41
0.6
 51
0.0
  7
KANJI5
  0
LINE
  8
0
  6
CONTINUOUS
 62
     4
 10
1505.53337185
 20
233.666653
 11
2001.916667
 21
233.666653
  0
LINE
  8
0
  6
CONTINUOUS
 62
     4
 10
1492.7500395
 20
164.333325
 11
2001.916667
 21
164.333325
  0
TEXT
  8
0
  6
CONTINUOUS
 62
     4
 10
1501.4167055
 20
149.1666595
 30
0.8666666
 40
8.666666
  1
ＤＲＡＷＩＮＧ　ＮＯ．
 50
0.0
 41
0.8
 51
0.0
  7
KANJI8
  0
TEXT
  8
0
  6
CONTINUOUS
 62
     4
 10
1501.4167055
 20
183.8333235
 30
0.8666666
 40
8.666666
  1
ＭＦＧ　ＮＯ．
 50
0.0
 41
0.8
 51
0.0
  7
KANJI8
  0
TEXT
  8
0
  6
CONTINUOUS
 62
     4
 10
1501.4167055
 20
218.4999875
 30
0.8666666
 40
8.666666
  1
ＴＹＰＥ
 50
0.0
 41
0.8
 51
0.0
  7
KANJI8
  0
LINE
  8
0
  6
CONTINUOUS
 62
     4
 10
1505.7500385
 20
198.999989
 11
1705.0833565
 21
198.999989
  0
TEXT
  8
0
  6
CONTINUOUS
 62
     4
 10
1501.4167055
 20
133.999994
 30
1.03999992
 40
10.3999992
  1
図　面　番　号
 50
0.0
 41
0.8
 51
0.0
  7
KANJI9
  0
TEXT
  8
0
  6
CONTINUOUS
 62
     4
 10
1501.4167055
 20
168.666658
 30
1.03999992
 40
10.3999992
  1
製番
 50
0.0
 41
0.8
 51
0.0
  7
KANJI9
  0
TEXT
  8
0
  6
CONTINUOUS
 62
     4
 10
1501.4167055
 20
203.333322
 30
1.03999992
 40
10.3999992
  1
機種
 50
0.0
 41
0.8
 51
0.0
  7
KANJI9
  0
LINE
  8
0
  6
CONTINUOUS
 62
     4
 10
1334.583385
 20
129.666661
 11
1492.7500395
 21
129.666661
  0
TEXT
  8
0
  6
CONTINUOUS
 62
     4
 10
1343.250051
 20
136.1666605
 30
1.03999992
 40
10.3999992
  1
作図
 50
0.0
 41
0.6
 51
0.0
  7
KANJI5
  0
LINE
  8
0
  6
LTYPE1
 62
     4
 10
1644.4166945
 20
155.666659
 11
1856.7500115
 21
155.666659
  0
LINE
  8
0
  6
CONTINUOUS
 62
     4
 10
1874.0833435
 20
139.41666025
 11
1882.7500095
 21
139.41666025
  0
LINE
  8
0
  6
CONTINUOUS
 62
     4
 10
1928.250006
 20
126.41666125
 11
1897.916675
 21
126.41666125
  0
LINE
  8
0
  6
CONTINUOUS
 62
     4
 10
1897.916675
 20
126.41666125
 11
1913.0833405
 21
152.41665925
  0
LINE
  8
0
  6
CONTINUOUS
 62
     4
 10
1913.0833405
 20
152.41665925
 11
1928.250006
 21
126.41666125
  0
TEXT
  8
0
  6
CONTINUOUS
 62
     4
 10
1718.0833555
 20
218.4999875
 30
0.8666666
 40
8.666666
  1
ＴＩＴＬＥ
 50
0.0
 41
0.8
 51
0.0
  7
KANJI8
  0
TEXT
  8
0
  6
CONTINUOUS
 62
     4
 10
1718.0833555
 20
203.333322
 30
1.03999992
 40
10.3999992
  1
名称
 50
0.0
 41
0.8
 51
0.0
  7
KANJI9
  0
TEXT
  8
0
  6
CONTINUOUS
 62
     2
 10
1788.75
 20
171.0
 30
12.5
 40
25.0
  1
外形寸法図
 50
0.0
 41
1.0
 51
0.0
  7
KANJI10
  0
TEXT
  8
0
  6
CONTINUOUS
 62
     2
 10
1758.75
 20
201.0
 30
3.571428571
 40
25.0
  1
マイティシリンダ
 50
0.0
 41
1.0
 51
0.0
  7
KANJI11
  0
TEXT
  8
0
  6
CONTINUOUS
 62
     2
 10
1618.1666945
 20
125.999995
 30
1.5
 40
25.0
  1
Ａ
 50
0.0
 41
0.8
 51
0.0
  7
KANJI12
  0
CIRCLE
  8
0
  6
CONTINUOUS
 62
     2
 10
1585.6666945
 20
179.749995
 40
12.5
  0
TEXT
  8
0
  6
CONTINUOUS
 62
     2
 10
1576.2916945
 20
170.374995
 30
1.5
 40
20.0
  1
Ｓ
 50
0.0
 41
1.0
 51
0.0
  7
KANJI13
  0
TEXT
  8
0
  6
CONTINUOUS
 62
     2
 10
1390.4166945
 20
138.499995
 30
5.0
 40
17.5
  1
岡田
 50
0.0
 41
0.857142857
 51
0.0
  7
KANJI14
  0
TEXT
  8
0
  6
CONTINUOUS
 62
     2
 10
1426.25
 20
66.0
 30
1.5
 40
22.5
  1
１／５
 50
0.0
 41
0.666666667
 51
0.0
  7
KANJI15
  0
TEXT
  8
0
  6
CONTINUOUS
 62
     4
 10
1343.250051
 20
253.1666515
 30
0.8666666
 40
8.666666
  1
ＣＯＤＥ
 50
0.0
 41
0.6
 51
0.0
  7
KANJI4
  0
LINE
  8
0
  6
CONTINUOUS
 62
     4
 10
1334.583385
 20
268.333317
 11
2001.916667
 21
268.333317
  0
LINE
  8
0
  6
CONTINUOUS
 62
     4
 10
2001.916667
 20
302.999981
 11
2001.916667
 21
337.666645
  0
LINE
  8
0
  6
CONTINUOUS
 62
     6
 10
1335.208385
 20
302.999981
 11
2002.541667
 21
302.999981
  0
LINE
  8
0
  6
CONTINUOUS
 62
     6
 10
1334.583385
 20
337.666645
 11
2001.916667
 21
337.666645
  0
TEXT
  8
0
  6
CONTINUOUS
 62
     4
 10
1350.0
 20
308.166664
 30
5.0
 40
18.0
  1
ご用途
 50
0.0
 41
1.111111111
 51
0.0
  7
KANJI16
  0
TEXT
  8
0
  6
CONTINUOUS
 62
     4
 10
1350.0
 20
273.5
 30
5.0
 40
18.0
  1
ご注文主
 50
0.0
 41
1.111111111
 51
0.0
  7
KANJI16
  0
TEXT
  8
0
  6
CONTINUOUS
 62
     2
 10
1496.25
 20
559.5
 30
10.0
 40
20.0
  1
特記事項
 50
0.0
 41
0.9
 51
0.0
  7
KANJI17
  0
TEXT
  8
0
  6
CONTINUOUS
 62
     2
 10
1426.25
 20
519.5
 30
5.142857143
 40
18.0
  1
１。運転時は必ずピストンロッドの回転防止を行って下さい。
 50
0.0
 41
0.857142857
 51
0.0
  7
KANJI18
  0
TEXT
  8
0
  6
CONTINUOUS
 62
     2
 10
1426.25
 20
485.5
 30
5.13
 40
18.0
  1
２。モートル：全閉自冷かご形３０分定格
 50
0.0
 41
0.857222222
 51
0.0
  7
KANJI19
  0
TEXT
  8
0
  6
CONTINUOUS
 62
     2
 10
1425.9165915
 20
451.500003
 30
5.13
 40
18.0
  1
３。呼称ストロークは、機械的ストロークです。
 50
0.0
 41
0.857222222
 51
0.0
  7
KANJI19
  0
LINE
  8
0
  6
CONTINUOUS
 62
     6
 10
71.25
 20
1401.0
 11
2006.25
 21
1401.0
  0
TEXT
  8
0
  6
CONTINUOUS
 62
     2
 10
128.75
 20
23.5
 30
1.5
 40
15.0
  1
ＦＤ　Ｎｏ．ＭＣ１８６
 50
0.0
 41
1.0
 51
0.0
  7
KANJI20
  0
LINE
  8
0
  6
CONTINUOUS
 62
     6
 10
344.959425053
 20
1346.747759827
 11
112.914646507
 21
1346.747759827
  0
LINE
  8
0
  6
CONTINUOUS
 62
     3
 10
344.959425053
 20
1319.285259827
 11
112.914646507
 21
1319.285259827
  0
LINE
  8
0
  6
CONTINUOUS
 62
     6
 10
344.959425053
 20
1319.285259827
 11
112.914646507
 21
1319.285259827
  0
TEXT
  8
0
  6
CONTINUOUS
 62
     6
 10
370.542228
 20
1344.200410728
 30
1.232517
 40
13.182
  1
電気定格　　　
 50
0.0
 41
0.85
 51
0.0
  7
KANJI21
  0
TEXT
  8
0
  6
CONTINUOUS
 62
     6
 10
116.823517202
 20
1349.94592676
 30
1.0647
 40
11.661
  1
ＬＳ０１　　　：推力リミッタ（前進時過負荷用）
 50
0.0
 41
0.822608696
 51
0.0
  7
KANJI22
  0
TEXT
  8
0
  6
CONTINUOUS
 62
     6
 10
116.823517202
 20
1322.48342676
 30
1.0647
 40
11.661
  1
ＬＳ０２　　　：推力リミッタ（後進時過負荷用）
 50
0.0
 41
0.822608696
 51
0.0
  7
KANJI22
  0
TEXT
  8
0
  6
CONTINUOUS
 62
     6
 10
383.343715102
 20
1313.626958599
 30
0.0
 40
11.8638
  1
ＤＣ１２５Ｖ　０．６Ａ　，ＤＣ２５０Ｖ　０．３Ａ　
 50
0.0
 41
0.726495726
 51
0.0
  7
KANJI23
  0
TEXT
  8
0
  6
CONTINUOUS
 62
     6
 10
378.087132178
 20
1361.961726126
 30
0.0
 40
45.0
  1
｝
 50
0.0
 41
0.538166667
 51
0.0
  7
KANJI24
  0
LINE
  8
0
  6
LTYPE2
 62
     6
 10
94.95
 20
1374.2
 11
94.95
 21
1115.2
  0
CIRCLE
  8
0
  6
CONTINUOUS
 62
     1
 10
611.25
 20
526.5
 40
20.0
  0
CIRCLE
  8
0
  6
CONTINUOUS
 62
     1
 10
611.25
 20
526.5
 40
8.0
  0
CIRCLE
  8
0
  6
CONTINUOUS
 62
     1
 10
611.25
 20
526.5
 40
27.0
  0
LINE
  8
0
  6
CONTINUOUS
 62
     1
 10
1007.25
 20
506.5
 11
1010.25
 21
509.5
  0
LINE
  8
0
  6
CONTINUOUS
 62
     1
 10
1007.25
 20
546.5
 11
1010.25
 21
543.5
  0
CIRCLE
  8
0
  6
CONTINUOUS
 62
     1
 10
992.25
 20
526.5
 40
8.0
  0
LINE
  8
0
  6
CONTINUOUS
 62
     1
 10
717.25
 20
486.5
 11
717.25
 21
566.5
  0
LINE
  8
0
  6
CONTINUOUS
 62
     1
 10
709.25
 20
486.5
 11
717.25
 21
486.5
  0
LINE
  8
0
  6
CONTINUOUS
 62
     1
 10
709.25
 20
566.5
 11
717.25
 21
566.5
  0
LINE
  8
0
  6
CONTINUOUS
 62
     1
 10
709.25
 20
563.5
 11
717.25
 21
563.5
  0
LINE
  8
0
  6
CONTINUOUS
 62
     1
 10
709.25
 20
489.5
 11
717.25
 21
489.5
  0
LINE
  8
0
  6
CONTINUOUS
 62
     1
 10
709.25
 20
525.0
 11
717.25
 21
525.0
  0
LINE
  8
0
  6
CONTINUOUS
 62
     1
 10
709.25
 20
528.0
 11
717.25
 21
528.0
  0
LINE
  8
0
  6
CONTINUOUS
 62
     1
 10
635.25
 20
549.5
 11
709.25
 21
549.5
  0
LINE
  8
0
  6
LTYPE3
 62
     2
 10
611.25
 20
473.5
 11
611.25
 21
579.5
  0
LINE
  8
0
  6
CONTINUOUS
 62
     2
 10
613.95
 20
519.5
 11
613.919254685
 21
509.500047264
  0
LINE
  8
0
  6
CONTINUOUS
 62
     2
 10
613.95
 20
519.5
 11
618.923350144
 21
510.824414236
  0
LINE
  8
0
  6
CONTINUOUS
 62
     2
 10
613.95
 20
519.5
 11
661.35
 21
340.4
  0
LINE
  8
0
  6
CONTINUOUS
 62
     2
 10
972.25
 20
781.5
 11
1030.25
 21
781.5
  0
LINE
  8
0
  6
CONTINUOUS
 62
     2
 10
1010.25
 20
781.5
 11
1019.909258263
 21
778.911809549
  0
LINE
  8
0
  6
CONTINUOUS
 62
     2
 10
1010.25
 20
781.5
 11
1019.909258263
 21
784.088190451
  0
LINE
  8
0
  6
CONTINUOUS
 62
     2
 10
992.25
 20
751.5
 11
982.590741737
 21
754.088190451
  0
LINE
  8
0
  6
CONTINUOUS
 62
     2
 10
992.25
 20
751.5
 11
982.590741737
 21
748.911809549
  0
LINE
  8
0
  6
CONTINUOUS
 62
     2
 10
992.25
 20
751.5
 11
611.25
 21
751.5
  0
LINE
  8
0
  6
CONTINUOUS
 62
     2
 10
611.25
 20
751.5
 11
620.909258263
 21
748.911809549
  0
LINE
  8
0
  6
CONTINUOUS
 62
     2
 10
611.25
 20
751.5
 11
620.909258263
 21
754.088190451
  0
LINE
  8
0
  6
CONTINUOUS
 62
     2
 10
611.25
 20
721.5
 11
620.909258263
 21
718.911809549
  0
LINE
  8
0
  6
CONTINUOUS
 62
     2
 10
611.25
 20
721.5
 11
620.909258263
 21
724.088190451
  0
LINE
  8
0
  6
CONTINUOUS
 62
     2
 10
611.25
 20
721.5
 11
897.25
 21
721.5
  0
LINE
  8
0
  6
CONTINUOUS
 62
     2
 10
897.25
 20
721.5
 11
887.590741737
 21
724.088190451
  0
LINE
  8
0
  6
CONTINUOUS
 62
     2
 10
897.25
 20
721.5
 11
887.590741737
 21
718.911809549
  0
LINE
  8
0
  6
CONTINUOUS
 62
     2
 10
897.25
 20
721.5
 11
906.909258263
 21
718.911809549
  0
LINE
  8
0
  6
CONTINUOUS
 62
     2
 10
897.25
 20
721.5
 11
906.909258263
 21
724.088190451
  0
LINE
  8
0
  6
CONTINUOUS
 62
     2
 10
897.25
 20
721.5
 11
957.25
 21
721.5
  0
LINE
  8
0
  6
CONTINUOUS
 62
     2
 10
957.25
 20
721.5
 11
947.590741737
 21
724.088190451
  0
LINE
  8
0
  6
CONTINUOUS
 62
     2
 10
957.25
 20
721.5
 11
947.590741737
 21
718.911809549
  0
LINE
  8
0
  6
CONTINUOUS
 62
     2
 10
957.25
 20
721.5
 11
966.909258263
 21
718.911809549
  0
LINE
  8
0
  6
CONTINUOUS
 62
     2
 10
957.25
 20
721.5
 11
966.909258263
 21
724.088190451
  0
LINE
  8
0
  6
CONTINUOUS
 62
     2
 10
957.25
 20
721.5
 11
992.25
 21
721.5
  0
LINE
  8
0
  6
CONTINUOUS
 62
     2
 10
992.25
 20
721.5
 11
982.590741737
 21
724.088190451
  0
LINE
  8
0
  6
CONTINUOUS
 62
     2
 10
992.25
 20
721.5
 11
982.590741737
 21
718.911809549
  0
LINE
  8
0
  6
CONTINUOUS
 62
     2
 10
1040.05
 20
506.5
 11
1042.638190451
 21
516.159258263
  0
LINE
  8
0
  6
CONTINUOUS
 62
     2
 10
1040.05
 20
506.5
 11
1037.461809549
 21
516.159258263
  0
LINE
  8
0
  6
CONTINUOUS
 62
     2
 10
1040.05
 20
506.5
 11
1040.05
 21
546.5
  0
LINE
  8
0
  6
CONTINUOUS
 62
     2
 10
1040.05
 20
546.5
 11
1037.461809549
 21
536.840741737
  0
LINE
  8
0
  6
CONTINUOUS
 62
     2
 10
1040.05
 20
546.5
 11
1042.638190451
 21
536.840741737
  0
LINE
  8
0
  6
CONTINUOUS
 62
     1
 10
1010.25
 20
343.5
 11
1010.25
 21
331.5
  0
LINE
  8
0
  6
CONTINUOUS
 62
     1
 10
1000.25
 20
320.5
 11
984.25
 21
320.5
  0
LINE
  8
0
  6
CONTINUOUS
 62
     1
 10
967.25
 20
343.5
 11
1010.25
 21
343.5
  0
LINE
  8
0
  6
CONTINUOUS
 62
     1
 10
1010.25
 20
359.5
 11
1010.25
 21
371.5
  0
LINE
  8
0
  6
CONTINUOUS
 62
     1
 10
1000.25
 20
382.5
 11
984.25
 21
382.5
  0
LINE
  8
0
  6
CONTINUOUS
 62
     1
 10
957.25
 20
371.5
 11
1010.25
 21
371.5
  0
LINE
  8
0
  6
CONTINUOUS
 62
     2
 10
1047.983854631
 20
359.5
 11
1045.39566418
 21
349.840741737
  0
LINE
  8
0
  6
CONTINUOUS
 62
     2
 10
1047.983854631
 20
359.5
 11
1050.572045082
 21
349.840741737
  0
LINE
  8
0
  6
CONTINUOUS
 62
     2
 10
1048.083854631
 20
359.5
 11
1045.49566418
 21
349.840741737
  0
LINE
  8
0
  6
CONTINUOUS
 62
     2
 10
1048.083854631
 20
359.5
 11
1050.672045082
 21
349.840741737
  0
LINE
  8
0
  6
CONTINUOUS
 62
     2
 10
1094.45
 20
331.5
 11
1097.038190451
 21
341.159258263
  0
LINE
  8
0
  6
CONTINUOUS
 62
     2
 10
1094.45
 20
331.5
 11
1091.861809549
 21
341.159258263
  0
LINE
  8
0
  6
CONTINUOUS
 62
     2
 10
1094.45
 20
331.5
 11
1094.45
 21
371.5
  0
LINE
  8
0
  6
CONTINUOUS
 62
     2
 10
1094.45
 20
371.5
 11
1091.861809549
 21
361.840741737
  0
LINE
  8
0
  6
CONTINUOUS
 62
     2
 10
1094.45
 20
371.5
 11
1097.038190451
 21
361.840741737
  0
LINE
  8
0
  6
CONTINUOUS
 62
     2
 10
1056.083854631
 20
371.5
 11
1101.25
 21
371.5
  0
LINE
  8
0
  6
CONTINUOUS
 62
     2
 10
1048.083854631
 20
371.5
 11
1050.672045082
 21
381.159258263
  0
LINE
  8
0
  6
CONTINUOUS
 62
     2
 10
1048.083854631
 20
371.5
 11
1045.49566418
 21
381.159258263
  0
TEXT
  8
0
  6
CONTINUOUS
 62
     2
 10
1043.583854631
 20
379.0
 30
1.2
 40
12.0
  1
１２
 50
90.0
 41
0.933333333
 51
0.0
  7
KANJI25
  0
LINE
  8
0
  6
CONTINUOUS
 62
     2
 10
1047.983854631
 20
359.5
 11
1047.983854631
 21
343.5
  0
LINE
  8
0
  6
CONTINUOUS
 62
     2
 10
1047.983854631
 20
343.5
 11
1050.572045082
 21
353.159258263
  0
LINE
  8
0
  6
CONTINUOUS
 62
     2
 10
1047.983854631
 20
343.5
 11
1045.39566418
 21
353.159258263
  0
LINE
  8
0
  6
CONTINUOUS
 62
     2
 10
1048.083854631
 20
363.5
 11
1048.083854631
 21
287.9
  0
LINE
  8
0
  6
CONTINUOUS
 62
     2
 10
1048.083854631
 20
331.5
 11
1050.672045082
 21
321.840741737
  0
LINE
  8
0
  6
CONTINUOUS
 62
     2
 10
1048.083854631
 20
331.5
 11
1045.49566418
 21
321.840741737
  0
LINE
  8
0
  6
CONTINUOUS
 62
     2
 10
1056.083854631
 20
331.5
 11
1102.25
 21
331.5
  0
LINE
  8
0
  6
CONTINUOUS
 62
     1
 10
977.25
 20
374.5
 11
1007.25
 21
374.5
  0
LINE
  8
0
  6
CONTINUOUS
 62
     1
 10
977.25
 20
371.5
 11
977.25
 21
374.5
  0
LINE
  8
0
  6
CONTINUOUS
 62
     1
 10
1007.25
 20
371.5
 11
1007.25
 21
374.5
  0
LINE
  8
0
  6
CONTINUOUS
 62
     1
 10
1000.25
 20
374.5
 11
1000.25
 21
382.5
  0
LINE
  8
0
  6
CONTINUOUS
 62
     1
 10
984.25
 20
382.5
 11
984.25
 21
374.5
  0
LINE
  8
0
  6
LTYPE1
 62
     2
 10
984.25
 20
374.5
 11
984.25
 21
359.5
  0
LINE
  8
0
  6
LTYPE1
 62
     2
 10
1000.25
 20
359.5
 11
1000.25
 21
374.5
  0
LINE
  8
0
  6
LTYPE2
 62
     2
 10
987.85
 20
377.15
 11
996.25
 21
377.15
  0
LINE
  8
0
  6
CONTINUOUS
 62
     1
 10
1000.25
 20
320.5
 11
984.25
 21
320.5
  0
LINE
  8
0
  6
CONTINUOUS
 62
     1
 10
977.25
 20
328.5
 11
1007.25
 21
328.5
  0
LINE
  8
0
  6
CONTINUOUS
 62
     1
 10
977.25
 20
331.5
 11
977.25
 21
328.5
  0
LINE
  8
0
  6
CONTINUOUS
 62
     1
 10
1007.25
 20
331.5
 11
1007.25
 21
328.5
  0
LINE
  8
0
  6
CONTINUOUS
 62
     1
 10
1000.25
 20
328.5
 11
1000.25
 21
320.5
  0
LINE
  8
0
  6
CONTINUOUS
 62
     1
 10
984.25
 20
320.5
 11
984.25
 21
328.5
  0
LINE
  8
0
  6
LTYPE2
 62
     2
 10
987.85
 20
325.85
 11
996.25
 21
325.85
  0
LINE
  8
0
  6
CONTINUOUS
 62
     1
 10
984.25
 20
320.5
 11
984.25
 21
328.5
  0
LINE
  8
0
  6
CONTINUOUS
 62
     1
 10
1000.25
 20
328.5
 11
1000.25
 21
320.5
  0
LINE
  8
0
  6
LTYPE1
 62
     2
 10
1000.25
 20
343.5
 11
1000.25
 21
328.5
  0
LINE
  8
0
  6
LTYPE1
 62
     2
 10
984.25
 20
328.5
 11
984.25
 21
343.5
  0
LINE
  8
0
  6
CONTINUOUS
 62
     2
 10
1048.083854631
 20
339.5
 11
1048.083854631
 21
400.7
  0
LINE
  8
0
  6
CONTINUOUS
 62
     2
 10
984.25
 20
409.6
 11
974.590741737
 21
412.188190451
  0
LINE
  8
0
  6
CONTINUOUS
 62
     2
 10
984.25
 20
409.6
 11
974.590741737
 21
407.011809549
  0
LINE
  8
0
  6
CONTINUOUS
 62
     2
 10
1000.25
 20
409.6
 11
1009.909258263
 21
407.011809549
  0
LINE
  8
0
  6
CONTINUOUS
 62
     2
 10
1000.25
 20
409.6
 11
1009.909258263
 21
412.188190451
  0
LINE
  8
0
  6
CONTINUOUS
 62
     2
 10
964.25
 20
409.6
 11
1056.25
 21
409.6
  0
TEXT
  8
0
  6
CONTINUOUS
 62
     2
 10
1048.0
 20
422.26
 30
0.84
 40
8.4
  1
Ｈ１０
 50
0.0
 41
0.9
 51
0.0
  7
KANJI26
  0
TEXT
  8
0
  6
CONTINUOUS
 62
     2
 10
1048.0
 20
413.86
 30
0.84
 40
8.4
  1
ｈ９
 50
0.0
 41
0.9
 51
0.0
  7
KANJI26
  0
LINE
  8
0
  6
CONTINUOUS
 62
     2
 10
992.25
 20
421.85
 11
992.25
 21
430.35
  0
LINE
  8
0
  6
CONTINUOUS
 62
     2
 10
992.25
 20
422.35
 11
982.590741737
 21
424.938190451
  0
LINE
  8
0
  6
CONTINUOUS
 62
     2
 10
992.25
 20
422.35
 11
982.590741737
 21
419.761809549
  0
LINE
  8
0
  6
CONTINUOUS
 62
     2
 10
992.25
 20
422.35
 11
967.25
 21
422.35
  0
LINE
  8
0
  6
CONTINUOUS
 62
     2
 10
967.25
 20
422.35
 11
976.909258263
 21
419.761809549
  0
LINE
  8
0
  6
CONTINUOUS
 62
     2
 10
967.25
 20
422.35
 11
976.909258263
 21
424.938190451
  0
LINE
  8
0
  6
CONTINUOUS
 62
     1
 10
897.25
 20
545.5
 11
957.25
 21
545.5
  0
LINE
  8
0
  6
CONTINUOUS
 62
     2
 10
897.25
 20
561.5
 11
897.25
 21
726.25
  0
LINE
  8
0
  6
CONTINUOUS
 62
     1
 10
762.75
 20
539.0
 11
787.75
 21
539.0
  0
LINE
  8
0
  6
CONTINUOUS
 62
     1
 10
787.75
 20
514.0
 11
787.75
 21
539.0
  0
LINE
  8
0
  6
CONTINUOUS
 62
     1
 10
762.75
 20
514.0
 11
787.75
 21
514.0
  0
LINE
  8
0
  6
CONTINUOUS
 62
     1
 10
762.75
 20
514.0
 11
762.75
 21
539.0
  0
CIRCLE
  8
0
  6
CONTINUOUS
 62
     1
 10
775.25
 20
526.5
 40
12.5
  0
LINE
  8
0
  6
LTYPE3
 62
     2
 10
775.25
 20
545.2
 11
775.25
 21
505.5
  0
LINE
  8
0
  6
CONTINUOUS
 62
     2
 10
770.700185255
 20
518.35
 11
770.510119959
 21
508.351806404
  0
LINE
  8
0
  6
CONTINUOUS
 62
     2
 10
770.700185255
 20
518.35
 11
765.536487082
 21
509.786343002
  0
LINE
  8
0
  6
CONTINUOUS
 62
     2
 10
770.700185255
 20
518.35
 11
750.147884886
 21
447.093820875
  0
LINE
  8
0
  6
LTYPE4
 62
     2
 10
752.599814745
 20
489.5
 11
752.599814745
 21
560.95
  0
LINE
  8
0
  6
LTYPE4
 62
     2
 10
748.599814745
 20
489.5
 11
748.599814745
 21
560.95
  0
LINE
  8
0
  6
CONTINUOUS
 62
     1
 10
752.599814745
 20
558.25
 11
897.25
 21
558.25
  0
LINE
  8
0
  6
CONTINUOUS
 62
     1
 10
717.25
 20
494.75
 11
748.599814745
 21
494.75
  0
LINE
  8
0
  6
CONTINUOUS
 62
     1
 10
717.25
 20
558.25
 11
748.599814745
 21
558.25
  0
LINE
  8
0
  6
CONTINUOUS
 62
     2
 10
611.25
 20
591.5
 11
611.25
 21
759.5
  0
LINE
  8
0
  6
CONTINUOUS
 62
     1
 10
455.25
 20
468.5
 11
477.25
 21
468.5
  0
LINE
  8
0
  6
CONTINUOUS
 62
     1
 10
531.25
 20
564.5
 11
635.25
 21
564.5
  0
LINE
  8
0
  6
CONTINUOUS
 62
     1
 10
531.25
 20
488.5
 11
531.25
 21
564.5
  0
LINE
  8
0
  6
CONTINUOUS
 62
     1
 10
531.25
 20
488.5
 11
709.25
 21
488.5
  0
LINE
  8
0
  6
CONTINUOUS
 62
     1
 10
531.25
 20
488.5
 11
477.25
 21
468.5
  0
LINE
  8
0
  6
CONTINUOUS
 62
     1
 10
455.25
 20
584.5
 11
477.25
 21
584.5
  0
LINE
  8
0
  6
CONTINUOUS
 62
     1
 10
477.25
 20
468.5
 11
477.25
 21
584.5
  0
LINE
  8
0
  6
CONTINUOUS
 62
     1
 10
477.25
 20
584.5
 11
531.25
 21
564.5
  0
LINE
  8
0
  6
CONTINUOUS
 62
     1
 10
957.25
 20
371.5
 11
957.25
 21
331.5
  0
LINE
  8
0
  6
CONTINUOUS
 62
     1
 10
957.25
 20
331.5
 11
1010.25
 21
331.5
  0
LINE
  8
0
  6
LTYPE3
 62
     2
 10
942.25
 20
351.5
 11
1021.15
 21
351.5
  0
LINE
  8
0
  6
CONTINUOUS
 62
     2
 10
967.25
 20
362.8
 11
967.25
 21
429.45
  0
CIRCLE
  8
0
  6
CONTINUOUS
 62
     2
 10
992.25
 20
325.85
 40
2.0
  0
CIRCLE
  8
0
  6
CONTINUOUS
 62
     2
 10
992.25
 20
377.15
 40
2.0
  0
LINE
  8
0
  6
CONTINUOUS
 62
     1
 10
967.25
 20
359.5
 11
1010.25
 21
359.5
  0
LINE
  8
0
  6
CONTINUOUS
 62
     1
 10
967.25
 20
359.5
 11
967.25
 21
343.5
  0
LINE
  8
0
  6
CONTINUOUS
 62
     1
 10
984.25
 20
359.5
 11
984.25
 21
343.5
  0
LINE
  8
0
  6
CONTINUOUS
 62
     1
 10
1000.25
 20
343.5
 11
1000.25
 21
359.5
  0
LINE
  8
0
  6
LTYPE1
 62
     1
 10
967.25
 20
546.5
 11
967.25
 21
506.5
  0
LINE
  8
0
  6
CONTINUOUS
 62
     1
 10
1010.25
 20
543.5
 11
1010.25
 21
509.5
  0
LINE
  8
0
  6
CONTINUOUS
 62
     1
 10
709.25
 20
486.5
 11
709.25
 21
571.5
  0
LINE
  8
0
  6
CONTINUOUS
 62
     1
 10
635.25
 20
571.5
 11
709.25
 21
571.5
  0
LINE
  8
0
  6
CONTINUOUS
 62
     1
 10
635.25
 20
543.5
 11
635.25
 21
571.5
  0
LINE
  8
0
  6
CONTINUOUS
 62
     1
 10
584.25
 20
616.0
 11
717.25
 21
616.0
  0
LINE
  8
0
  6
CONTINUOUS
 62
     1
 10
627.25
 20
573.0
 11
714.25
 21
573.0
  0
ARC
  8
0
  6
CONTINUOUS
 62
     1
 10
714.25
 20
576.0
 40
3.0
 50
270.0
 51
0.0
  0
LINE
  8
0
  6
CONTINUOUS
 62
     1
 10
584.25
 20
616.0
 11
584.25
 21
577.0
  0
LINE
  8
0
  6
CONTINUOUS
 62
     1
 10
587.25
 20
574.0
 11
627.25
 21
574.0
  0
ARC
  8
0
  6
CONTINUOUS
 62
     1
 10
587.25
 20
577.0
 40
3.0
 50
180.0
 51
270.0
  0
LINE
  8
0
  6
CONTINUOUS
 62
     1
 10
589.25
 20
623.5
 11
589.25
 21
574.0
  0
LINE
  8
0
  6
CONTINUOUS
 62
     1
 10
589.25
 20
623.5
 11
717.25
 21
623.5
  0
LINE
  8
0
  6
CONTINUOUS
 62
     1
 10
717.25
 20
623.5
 11
717.25
 21
576.0
  0
LINE
  8
0
  6
CONTINUOUS
 62
     1
 10
589.25
 20
617.5
 11
717.25
 21
617.5
  0
LINE
  8
0
  6
LTYPE2
 62
     2
 10
578.25
 20
599.0
 11
595.25
 21
599.0
  0
LINE
  8
0
  6
CONTINUOUS
 62
     1
 10
635.25
 20
573.0
 11
635.25
 21
571.5
  0
LINE
  8
0
  6
CONTINUOUS
 62
     1
 10
709.25
 20
573.0
 11
709.25
 21
571.5
  0
LINE
  8
0
  6
CONTINUOUS
 62
     1
 10
627.25
 20
574.0
 11
627.25
 21
573.0
  0
LINE
  8
0
  6
LTYPE3
 62
     2
 10
672.25
 20
557.143325909
 11
672.25
 21
584.5
  0
LINE
  8
7
  6
CONTINUOUS
 62
     2
 10
584.25
 20
599.0
 11
579.25
 21
607.660254038
  0
LINE
  8
7
  6
CONTINUOUS
 62
     2
 10
584.25
 20
599.0
 11
575.589745962
 21
604.0
  0
LINE
  8
7
  6
CONTINUOUS
 62
     2
 10
584.25
 20
599.0
 11
559.25
 21
624.0
  0
LINE
  8
7
  6
CONTINUOUS
 62
     2
 10
559.25
 20
624.0
 11
500.45
 21
624.0
  0
LINE
  8
7
  6
CONTINUOUS
 62
     2
 10
649.25
 20
623.5
 11
656.439002379
 21
630.451132627
  0
LINE
  8
7
  6
CONTINUOUS
 62
     2
 10
649.25
 20
623.5
 11
652.000292375
 21
633.114358629
  0
LINE
  8
7
  6
CONTINUOUS
 62
     2
 10
649.25
 20
623.5
 11
664.25
 21
648.5
  0
LINE
  8
0
  6
CONTINUOUS
 62
     2
 10
707.25
 20
447.093820875
 11
750.147884886
 21
447.093820875
  0
LINE
  8
0
  6
CONTINUOUS
 62
     1
 10
446.25
 20
466.5
 11
455.25
 21
466.5
  0
LINE
  8
0
  6
CONTINUOUS
 62
     1
 10
446.25
 20
586.5
 11
455.25
 21
586.5
  0
LINE
  8
0
  6
CONTINUOUS
 62
     1
 10
446.25
 20
466.5
 11
446.25
 21
586.5
  0
LINE
  8
0
  6
CONTINUOUS
 62
     1
 10
455.25
 20
466.5
 11
455.25
 21
586.5
  0
LINE
  8
0
  6
CONTINUOUS
 62
     1
 10
432.25
 20
526.5
 11
432.25
 21
583.5
  0
ARC
  8
0
  6
CONTINUOUS
 62
     1
 10
436.75
 20
585.0
 40
1.5
 50
270.0
 51
0.0
  0
LINE
  8
0
  6
CONTINUOUS
 62
     1
 10
439.75
 20
587.5
 11
446.25
 21
587.5
  0
LINE
  8
0
  6
CONTINUOUS
 62
     1
 10
438.25
 20
585.0
 11
438.25
 21
586.0
  0
ARC
  8
0
  6
CONTINUOUS
 62
     1
 10
439.75
 20
586.0
 40
1.5
 50
90.0
 51
180.0
  0
LINE
  8
0
  6
CONTINUOUS
 62
     1
 10
283.25
 20
526.5
 11
283.25
 21
583.5
  0
ARC
  8
0
  6
CONTINUOUS
 62
     1
 10
279.75
 20
582.0
 40
1.5
 50
90.0
 51
180.0
  0
LINE
  8
0
  6
CONTINUOUS
 62
     1
 10
438.25
 20
526.5
 11
438.25
 21
585.6
  0
LINE
  8
0
  6
CONTINUOUS
 62
     1
 10
278.25
 20
569.570524155
 11
278.25
 21
582.0
  0
ARC
  8
0
  6
CONTINUOUS
 62
     1
 10
276.75
 20
569.570524155
 40
1.5
 50
288.970407808
 51
0.0
  0
LINE
  8
0
  6
CONTINUOUS
 62
     1
 10
262.25
 20
526.5
 11
262.25
 21
561.929475845
  0
LINE
  8
0
  6
CONTINUOUS
 62
     1
 10
263.262380347
 20
563.348005744
 11
277.237619653
 21
568.151994256
  0
ARC
  8
0
  6
CONTINUOUS
 62
     1
 10
263.75
 20
561.929475845
 40
1.5
 50
108.970407808
 51
180.0
  0
LINE
  8
0
  6
CONTINUOUS
 62
     1
 10
278.25
 20
526.5
 11
278.25
 21
569.570524155
  0
ARC
  8
0
  6
CONTINUOUS
 62
     1
 10
250.25
 20
543.0
 40
1.0
 50
90.0
 51
180.0
  0
LINE
  8
0
  6
CONTINUOUS
 62
     1
 10
250.25
 20
544.0
 11
262.25
 21
544.0
  0
LINE
  8
0
  6
CONTINUOUS
 62
     1
 10
249.25
 20
526.5
 11
249.25
 21
543.0
  0
LINE
  8
0
  6
CONTINUOUS
 62
     1
 10
432.25
 20
526.5
 11
432.25
 21
469.5
  0
ARC
  8
0
  6
CONTINUOUS
 62
     1
 10
436.75
 20
468.0
 40
1.5
 50
0.0
 51
90.0
  0
LINE
  8
0
  6
CONTINUOUS
 62
     1
 10
439.75
 20
465.5
 11
446.25
 21
465.5
  0
LINE
  8
0
  6
CONTINUOUS
 62
     1
 10
438.25
 20
468.0
 11
438.25
 21
467.0
  0
ARC
  8
0
  6
CONTINUOUS
 62
     1
 10
439.75
 20
467.0
 40
1.5
 50
180.0
 51
270.0
  0
LINE
  8
0
  6
CONTINUOUS
 62
     1
 10
283.25
 20
526.5
 11
283.25
 21
469.5
  0
LINE
  8
0
  6
CONTINUOUS
 62
     1
 10
279.75
 20
469.5
 11
436.75
 21
469.5
  0
ARC
  8
0
  6
CONTINUOUS
 62
     1
 10
279.75
 20
471.0
 40
1.5
 50
180.0
 51
270.0
  0
LINE
  8
0
  6
CONTINUOUS
 62
     1
 10
438.25
 20
526.5
 11
438.25
 21
467.4
  0
LINE
  8
0
  6
CONTINUOUS
 62
     1
 10
262.25
 20
526.5
 11
262.25
 21
491.070524155
  0
ARC
  8
0
  6
CONTINUOUS
 62
     1
 10
263.75
 20
491.070524155
 40
1.5
 50
180.0
 51
251.029592192
  0
ARC
  8
0
  6
CONTINUOUS
 62
     1
 10
250.25
 20
510.0
 40
1.0
 50
180.0
 51
270.0
  0
LINE
  8
0
  6
CONTINUOUS
 62
     1
 10
250.25
 20
509.0
 11
262.25
 21
509.0
  0
LINE
  8
0
  6
CONTINUOUS
 62
     1
 10
249.25
 20
526.5
 11
249.25
 21
510.0
  0
LINE
  8
0
  6
CONTINUOUS
 62
     1
 10
276.95
 20
562.562445841
 11
276.95
 21
557.950565841
  0
LINE
  8
0
  6
CONTINUOUS
 62
     1
 10
276.95
 20
562.562445841
 11
276.95
 21
567.174325841
  0
LINE
  8
0
  6
CONTINUOUS
 62
     1
 10
273.4498
 20
559.080005841
 11
274.101882488
 21
557.950565841
  0
LINE
  8
0
  6
CONTINUOUS
 62
     1
 10
273.4498
 20
562.562445841
 11
273.4498
 21
559.080005841
  0
LINE
  8
0
  6
CONTINUOUS
 62
     1
 10
273.4498
 20
566.044885841
 11
274.101882488
 21
567.174325841
  0
LINE
  8
0
  6
CONTINUOUS
 62
     1
 10
273.4498
 20
562.562445841
 11
273.4498
 21
566.044885841
  0
ARC
  8
0
  6
CONTINUOUS
 62
     1
 10
277.853054926
 20
562.562445841
 40
4.403254926
 50
148.419912243
 51
211.580087757
  0
ARC
  8
0
  6
CONTINUOUS
 62
     1
 10
274.794720132
 20
559.103535841
 40
1.34512595
 50
121.002313915
 51
182.989498403
  0
LINE
  8
0
  6
CONTINUOUS
 62
     1
 10
273.4498
 20
566.044885841
 11
274.101882488
 21
567.174325841
  0
ARC
  8
0
  6
CONTINUOUS
 62
     1
 10
274.794720132
 20
566.021355841
 40
1.34512595
 50
177.010501597
 51
238.997686085
  0
LINE
  8
0
  6
CONTINUOUS
 62
     1
 10
276.95
 20
557.950565841
 11
274.101882488
 21
557.950565841
  0
LINE
  8
0
  6
CONTINUOUS
 62
     1
 10
276.95
 20
560.256505841
 11
274.101882488
 21
560.256505841
  0
LINE
  8
0
  6
CONTINUOUS
 62
     1
 10
276.95
 20
564.868385841
 11
274.101882488
 21
564.868385841
  0
LINE
  8
0
  6
CONTINUOUS
 62
     1
 10
276.95
 20
567.174325841
 11
274.101882488
 21
567.174325841
  0
LINE
  8
0
  6
CONTINUOUS
 62
     1
 10
278.25
 20
557.962445841
 11
276.95
 21
557.962445841
  0
LINE
  8
0
  6
CONTINUOUS
 62
     1
 10
278.25
 20
562.562445841
 11
276.950000446
 21
561.262446287
  0
LINE
  8
0
  6
CONTINUOUS
 62
     1
 10
276.950000446
 20
562.562445841
 11
278.25
 21
563.862445394
  0
LINE
  8
0
  6
CONTINUOUS
 62
     1
 10
278.25
 20
567.162445841
 11
276.95
 21
567.162445841
  0
LINE
  8
0
  6
LTYPE2
 62
     2
 10
270.25
 20
562.562445841
 11
281.25
 21
562.562445841
  0
LINE
  8
0
  6
CONTINUOUS
 62
     1
 10
278.25
 20
483.429475845
 11
278.25
 21
471.0
  0
ARC
  8
0
  6
CONTINUOUS
 62
     1
 10
276.75
 20
483.429475845
 40
1.5
 50
0.0
 51
71.029592192
  0
LINE
  8
0
  6
CONTINUOUS
 62
     1
 10
263.262380347
 20
489.651994256
 11
277.237619653
 21
484.848005744
  0
LINE
  8
0
  6
CONTINUOUS
 62
     1
 10
278.25
 20
526.5
 11
278.25
 21
483.429475845
  0
LINE
  8
0
  6
CONTINUOUS
 62
     1
 10
276.95
 20
490.437554159
 11
276.95
 21
495.049434159
  0
LINE
  8
0
  6
CONTINUOUS
 62
     1
 10
276.95
 20
490.437554159
 11
276.95
 21
485.825674159
  0
LINE
  8
0
  6
CONTINUOUS
 62
     1
 10
273.4498
 20
493.919994159
 11
274.101882488
 21
495.049434159
  0
LINE
  8
0
  6
CONTINUOUS
 62
     1
 10
273.4498
 20
490.437554159
 11
273.4498
 21
493.919994159
  0
LINE
  8
0
  6
CONTINUOUS
 62
     1
 10
273.4498
 20
486.955114159
 11
274.101882488
 21
485.825674159
  0
LINE
  8
0
  6
CONTINUOUS
 62
     1
 10
273.4498
 20
490.437554159
 11
273.4498
 21
486.955114159
  0
ARC
  8
0
  6
CONTINUOUS
 62
     1
 10
277.853054926
 20
490.437554159
 40
4.403254926
 50
148.419912243
 51
211.580087757
  0
ARC
  8
0
  6
CONTINUOUS
 62
     1
 10
274.794720132
 20
493.896464159
 40
1.34512595
 50
177.010501597
 51
238.997686085
  0
LINE
  8
0
  6
CONTINUOUS
 62
     1
 10
273.4498
 20
486.955114159
 11
274.101882488
 21
485.825674159
  0
ARC
  8
0
  6
CONTINUOUS
 62
     1
 10
274.794720132
 20
486.978644159
 40
1.34512595
 50
121.002313915
 51
182.989498403
  0
LINE
  8
0
  6
CONTINUOUS
 62
     1
 10
276.95
 20
495.049434159
 11
274.101882488
 21
495.049434159
  0
LINE
  8
0
  6
CONTINUOUS
 62
     1
 10
276.95
 20
492.743494159
 11
274.101882488
 21
492.743494159
  0
LINE
  8
0
  6
CONTINUOUS
 62
     1
 10
276.95
 20
488.131614159
 11
274.101882488
 21
488.131614159
  0
LINE
  8
0
  6
CONTINUOUS
 62
     1
 10
276.95
 20
485.825674159
 11
274.101882488
 21
485.825674159
  0
LINE
  8
0
  6
CONTINUOUS
 62
     1
 10
278.25
 20
495.037554159
 11
276.95
 21
495.037554159
  0
LINE
  8
0
  6
CONTINUOUS
 62
     1
 10
278.25
 20
490.437554159
 11
276.950000446
 21
491.737553713
  0
LINE
  8
0
  6
CONTINUOUS
 62
     1
 10
276.950000446
 20
490.437554159
 11
278.25
 21
489.137554606
  0
LINE
  8
0
  6
CONTINUOUS
 62
     1
 10
278.25
 20
485.837554159
 11
276.95
 21
485.837554159
  0
LINE
  8
0
  6
LTYPE2
 62
     2
 10
270.25
 20
490.437554159
 11
281.25
 21
490.437554159
  0
LINE
  8
0
  6
CONTINUOUS
 62
     1
 10
248.25
 20
530.3
 11
249.25
 21
530.3
  0
LINE
  8
0
  6
CONTINUOUS
 62
     1
 10
248.25
 20
526.5
 11
249.25
 21
527.5
  0
LINE
  8
0
  6
CONTINUOUS
 62
     1
 10
245.767542648
 20
530.55
 11
248.25
 21
530.55
  0
LINE
  8
0
  6
CONTINUOUS
 62
     1
 10
245.45
 20
530.0
 11
245.767542648
 21
530.55
  0
LINE
  8
0
  6
CONTINUOUS
 62
     1
 10
245.767542648
 20
528.525
 11
248.25
 21
528.525
  0
ARC
  8
0
  6
CONTINUOUS
 62
     1
 10
247.222973788
 20
529.5375
 40
1.772973788
 50
145.174816769
 51
214.825183231
  0
LINE
  8
0
  6
CONTINUOUS
 62
     1
 10
248.25
 20
522.7
 11
249.25
 21
522.7
  0
LINE
  8
0
  6
CONTINUOUS
 62
     1
 10
248.25
 20
525.5
 11
249.25
 21
526.5
  0
LINE
  8
0
  6
CONTINUOUS
 62
     1
 10
245.45
 20
523.0
 11
245.767542648
 21
522.45
  0
LINE
  8
0
  6
CONTINUOUS
 62
     1
 10
245.767542648
 20
522.45
 11
248.25
 21
522.45
  0
LINE
  8
0
  6
CONTINUOUS
 62
     1
 10
245.767542648
 20
524.475
 11
248.25
 21
524.475
  0
ARC
  8
0
  6
CONTINUOUS
 62
     1
 10
247.222973788
 20
523.4625
 40
1.772973788
 50
145.174816769
 51
214.825183231
  0
LINE
  8
0
  6
CONTINUOUS
 62
     1
 10
248.25
 20
530.55
 11
248.25
 21
522.45
  0
LINE
  8
0
  6
CONTINUOUS
 62
     1
 10
245.45
 20
530.0
 11
245.45
 21
523.0
  0
ARC
  8
0
  6
CONTINUOUS
 62
     1
 10
252.065581181
 20
526.5
 40
6.615581181
 50
162.175912681
 51
197.824087319
  0
LINE
  8
0
  6
CONTINUOUS
 62
     1
 10
333.25
 20
604.5
 11
333.25
 21
638.5
  0
LINE
  8
0
  6
CONTINUOUS
 62
     1
 10
333.25
 20
604.5
 11
359.25
 21
604.5
  0
LINE
  8
0
  6
CONTINUOUS
 62
     1
 10
333.25
 20
638.5
 11
359.25
 21
638.5
  0
LINE
  8
0
  6
LTYPE2
 62
     2
 10
326.320524155
 20
621.5
 11
366.320524155
 21
621.5
  0
LINE
  8
0
  6
CONTINUOUS
 62
     1
 10
429.25
 20
596.5
 11
429.25
 21
599.5
  0
ARC
  8
0
  6
CONTINUOUS
 62
     1
 10
425.25
 20
593.5
 40
3.0
 50
90.0
 51
180.0
  0
LINE
  8
0
  6
CONTINUOUS
 62
     1
 10
422.25
 20
586.5
 11
422.25
 21
593.5
  0
ARC
  8
0
  6
CONTINUOUS
 62
     1
 10
419.25
 20
586.5
 40
3.0
 50
270.0
 51
0.0
  0
LINE
  8
0
  6
CONTINUOUS
 62
     1
 10
279.75
 20
583.5
 11
436.75
 21
583.5
  0
LINE
  8
0
  6
CONTINUOUS
 62
     1
 10
369.25
 20
596.5
 11
369.25
 21
599.5
  0
ARC
  8
0
  6
CONTINUOUS
 62
     1
 10
373.25
 20
593.5
 40
3.0
 50
0.0
 51
90.0
  0
LINE
  8
0
  6
CONTINUOUS
 62
     1
 10
376.25
 20
586.5
 11
376.25
 21
593.5
  0
ARC
  8
0
  6
CONTINUOUS
 62
     1
 10
379.25
 20
586.5
 40
3.0
 50
180.0
 51
270.0
  0
LINE
  8
0
  6
CONTINUOUS
 62
     1
 10
369.25
 20
596.5
 11
429.25
 21
596.5
  0
LINE
  8
0
  6
CONTINUOUS
 62
     1
 10
444.337912088
 20
601.5
 11
352.25
 21
645.520045888
  0
LINE
  8
0
  6
CONTINUOUS
 62
     1
 10
446.25
 20
605.5
 11
444.337912088
 21
601.5
  0
LINE
  8
0
  6
CONTINUOUS
 62
     1
 10
446.25
 20
605.5
 11
354.162087912
 21
649.520045888
  0
LINE
  8
0
  6
CONTINUOUS
 62
     1
 10
354.162087912
 20
649.520045888
 11
352.25
 21
645.520045888
  0
LINE
  8
0
  6
CONTINUOUS
 62
     1
 10
439.25
 20
608.846153846
 11
439.25
 21
648.5
  0
ARC
  8
0
  6
CONTINUOUS
 62
     1
 10
436.25
 20
648.5
 40
3.0
 50
0.0
 51
90.0
  0
LINE
  8
0
  6
CONTINUOUS
 62
     1
 10
439.25
 20
602.5
 11
439.25
 21
603.9321338
  0
ARC
  8
0
  6
CONTINUOUS
 62
     1
 10
436.25
 20
602.5
 40
3.0
 50
270.0
 51
0.0
  0
LINE
  8
0
  6
CONTINUOUS
 62
     1
 10
359.25
 20
602.5
 11
359.25
 21
642.173892042
  0
LINE
  8
0
  6
CONTINUOUS
 62
     1
 10
362.25
 20
599.5
 11
436.25
 21
599.5
  0
ARC
  8
0
  6
CONTINUOUS
 62
     1
 10
362.25
 20
602.5
 40
3.0
 50
180.0
 51
270.0
  0
LINE
  8
0
  6
CONTINUOUS
 62
     1
 10
359.25
 20
647.087912088
 11
359.25
 21
648.5
  0
LINE
  8
0
  6
CONTINUOUS
 62
     1
 10
362.25
 20
651.5
 11
436.25
 21
651.5
  0
ARC
  8
0
  6
CONTINUOUS
 62
     1
 10
362.25
 20
648.5
 40
3.0
 50
90.0
 51
180.0
  0
LINE
  8
0
  6
LTYPE2
 62
     2
 10
399.25
 20
571.5
 11
399.25
 21
659.4321338
  0
LINE
  8
0
  6
LTYPE3
 62
     2
 10
210.25
 20
526.5
 11
719.389501379
 21
526.5
  0
LINE
  8
0
  6
LTYPE3
 62
     2
 10
992.25
 20
312.6
 11
992.25
 21
558.500007629
  0
LINE
  8
7
  6
CONTINUOUS
 62
     2
 10
992.25
 20
781.5
 11
982.590741737
 21
784.088190451
  0
LINE
  8
7
  6
CONTINUOUS
 62
     2
 10
992.25
 20
781.5
 11
982.590741737
 21
778.911809549
  0
LINE
  8
7
  6
CONTINUOUS
 62
     2
 10
611.25
 20
757.5
 11
611.25
 21
757.5
  0
LINE
  8
7
  6
CONTINUOUS
 62
     2
 10
611.25
 20
751.5
 11
601.590741737
 21
754.088190451
  0
LINE
  8
7
  6
CONTINUOUS
 62
     2
 10
611.25
 20
751.5
 11
601.590741737
 21
748.911809549
  0
LINE
  8
7
  6
CONTINUOUS
 62
     2
 10
333.25
 20
621.5
 11
328.452698351
 21
630.274160751
  0
LINE
  8
7
  6
CONTINUOUS
 62
     2
 10
333.25
 20
621.5
 11
324.708334526
 21
626.699995283
  0
LINE
  8
7
  6
CONTINUOUS
 62
     2
 10
333.25
 20
621.5
 11
312.25
 21
643.5
  0
LINE
  8
7
  6
CONTINUOUS
 62
     2
 10
312.25
 20
643.5
 11
253.45
 21
643.5
  0
LINE
  8
0
  6
CONTINUOUS
 62
     1
 10
957.25
 20
546.5
 11
1007.25
 21
546.5
  0
LINE
  8
0
  6
CONTINUOUS
 62
     1
 10
957.25
 20
546.5
 11
957.25
 21
506.5
  0
LINE
  8
0
  6
CONTINUOUS
 62
     1
 10
957.25
 20
506.5
 11
1007.25
 21
506.5
  0
LINE
  8
0
  6
CONTINUOUS
 62
     2
 10
957.25
 20
726.25
 11
957.25
 21
549.75
  0
LINE
  8
0
  6
CONTINUOUS
 62
     1
 10
897.25
 20
558.25
 11
897.25
 21
494.75
  0
LINE
  8
0
  6
CONTINUOUS
 62
     1
 10
752.599814745
 20
494.75
 11
897.25
 21
494.75
  0
LINE
  8
0
  6
CONTINUOUS
 62
     1
 10
897.25
 20
507.5
 11
957.25
 21
507.5
  0
LINE
  8
0
  6
CONTINUOUS
 62
     1
 10
878.25
 20
558.25
 11
878.25
 21
494.75
  0
LINE
  8
0
  6
CONTINUOUS
 62
     1
 10
234.25
 20
526.5
 11
234.25
 21
540.5
  0
ARC
  8
0
  6
CONTINUOUS
 62
     1
 10
235.75
 20
540.5
 40
1.5
 50
90.0
 51
180.0
  0
LINE
  8
0
  6
CONTINUOUS
 62
     1
 10
234.25
 20
526.5
 11
234.25
 21
512.5
  0
ARC
  8
0
  6
CONTINUOUS
 62
     1
 10
235.75
 20
512.5
 40
1.5
 50
180.0
 51
270.0
  0
LINE
  8
7
  6
CONTINUOUS
 62
     2
 10
234.25
 20
781.5
 11
243.909258263
 21
778.911809549
  0
LINE
  8
7
  6
CONTINUOUS
 62
     2
 10
234.25
 20
781.5
 11
243.909258263
 21
784.088190451
  0
LINE
  8
7
  6
CONTINUOUS
 62
     2
 10
234.25
 20
546.500007629
 11
234.25
 21
787.5
  0
LINE
  8
7
  6
CONTINUOUS
 62
     2
 10
234.25
 20
751.5
 11
243.909258263
 21
748.911809549
  0
LINE
  8
7
  6
CONTINUOUS
 62
     2
 10
234.25
 20
751.5
 11
243.909258263
 21
754.088190451
  0
LINE
  8
7
  6
CONTINUOUS
 62
     2
 10
234.25
 20
752.5
 11
234.25
 21
757.5
  0
LINE
  8
7
  6
CONTINUOUS
 62
     2
 10
992.25
 20
781.5
 11
234.25
 21
781.5
  0
LINE
  8
7
  6
CONTINUOUS
 62
     2
 10
611.25
 20
751.5
 11
234.25
 21
751.5
  0
LINE
  8
0
  6
CONTINUOUS
 62
     1
 10
235.750006877
 20
542.0
 11
249.25
 21
542.0
  0
LINE
  8
0
  6
CONTINUOUS
 62
     1
 10
235.750008314
 20
511.0
 11
249.25
 21
511.0
  0
LINE
  8
2
  6
CONTINUOUS
 62
     2
 10
715.25
 20
628.99961
 11
812.25
 21
628.99961
  0
LINE
  8
2
  6
CONTINUOUS
 62
     2
 10
804.25
 20
628.99961
 11
801.661809549
 21
619.340351737
  0
LINE
  8
2
  6
CONTINUOUS
 62
     2
 10
804.25
 20
628.99961
 11
806.838190451
 21
619.340351737
  0
LINE
  8
2
  6
CONTINUOUS
 62
     2
 10
804.25
 20
628.99961
 11
804.25
 21
526.5
  0
LINE
  8
2
  6
CONTINUOUS
 62
     2
 10
804.25
 20
526.5
 11
806.838190451
 21
536.159258263
  0
LINE
  8
2
  6
CONTINUOUS
 62
     2
 10
804.25
 20
526.5
 11
801.661809549
 21
536.159258263
  0
LINE
  8
2
  6
CONTINUOUS
 62
     2
 10
234.25
 20
526.5
 11
229.81773406
 21
517.535903914
  0
LINE
  8
2
  6
CONTINUOUS
 62
     2
 10
234.25
 20
526.5
 11
234.893593142
 21
516.520732098
  0
LINE
  8
2
  6
CONTINUOUS
 62
     2
 10
234.25
 20
526.5
 11
221.95
 21
465.0
  0
TEXT
  8
0
  6
CONTINUOUS
 62
     2
 10
962.95
 20
725.5
 30
0.0
 40
15.0
  1
３５
 50
0.0
 41
0.9
 51
0.0
  7
KANJI27
  0
TEXT
  8
0
  6
CONTINUOUS
 62
     2
 10
736.25
 20
725.5
 30
0.0
 40
15.0
  1
Ｃ
 50
0.0
 41
0.9
 51
0.0
  7
KANJI27
  0
TEXT
  8
0
  6
CONTINUOUS
 62
     2
 10
625.45
 20
785.5
 30
0.0
 40
15.0
  1
ｍｉｎ．ＡＬ
 50
0.0
 41
0.9
 51
0.0
  7
KANJI27
  0
TEXT
  8
0
  6
CONTINUOUS
 62
     2
 10
887.65
 20
725.5
 30
0.0
 40
15.0
  1
ｍｉｎ．Ｐ
 50
0.0
 41
0.9
 51
0.0
  7
KANJI27
  0
TEXT
  8
0
  6
CONTINUOUS
 62
     2
 10
783.75
 20
755.5
 30
0.0
 40
15.0
  1
ｍｉｎ．Ｌ
 50
0.0
 41
0.9
 51
0.0
  7
KANJI27
  0
TEXT
  8
7
  6
CONTINUOUS
 62
     2
 10
500.45
 20
628.0
 30
0.0
 40
15.0
  1
ＰＦ１／２
 50
0.0
 41
0.9
 51
0.0
  7
KANJI27
  0
TEXT
  8
7
  6
CONTINUOUS
 62
     2
 10
664.25
 20
652.5
 30
0.0
 40
15.0
  1
推力リミッタ
 50
0.0
 41
0.9
 51
0.0
  7
KANJI27
  0
TEXT
  8
7
  6
CONTINUOUS
 62
     2
 10
253.45
 20
647.5
 30
0.0
 40
15.0
  1
ＰＦ３／４
 50
0.0
 41
0.9
 51
0.0
  7
KANJI27
  0
TEXT
  8
7
  6
CONTINUOUS
 62
     2
 10
404.85
 20
755.5
 30
0.0
 40
15.0
  1
３７７
 50
0.0
 41
0.9
 51
0.0
  7
KANJI27
  0
TEXT
  8
2
  6
CONTINUOUS
 62
     2
 10
800.25
 20
564.849805
 30
0.0
 40
15.0
  1
１０２
 50
90.0
 41
0.9
 51
0.0
  7
KANJI27
  0
TEXT
  8
0
  6
CONTINUOUS
 62
     2
 10
1036.05
 20
515.1
 30
0.0
 40
15.0
  1
４０
 50
90.0
 41
0.9
 51
0.0
  7
KANJI27
  0
TEXT
  8
0
  6
CONTINUOUS
 62
     2
 10
668.35
 20
344.4
 30
0.0
 40
15.0
  1
φ１６Ｈ１０深２２
 50
0.0
 41
0.9
 51
0.0
  7
KANJI27
  0
TEXT
  8
0
  6
CONTINUOUS
 62
     2
 10
1044.083854631
 20
300.0
 30
0.0
 40
15.0
  1
１２
 50
90.0
 41
0.9
 51
0.0
  7
KANJI27
  0
TEXT
  8
0
  6
CONTINUOUS
 62
     2
 10
1071.983854631
 20
338.7
 30
0.0
 40
15.0
  1
１６
 50
90.0
 41
0.9
 51
0.0
  7
KANJI27
  0
TEXT
  8
0
  6
CONTINUOUS
 62
     2
 10
1090.45
 20
339.7
 30
0.0
 40
15.0
  1
４０
 50
90.0
 41
0.9
 51
0.0
  7
KANJI27
  0
TEXT
  8
0
  6
CONTINUOUS
 62
     2
 10
703.547884886
 20
451.093820875
 30
0.0
 40
15.0
  1
給脂口
 50
0.0
 41
0.9
 51
0.0
  7
KANJI27
  0
LINE
  8
0
  6
CONTINUOUS
 62
     2
 10
661.35
 20
340.4
 11
789.0
 21
340.4
  0
LINE
  8
7
  6
CONTINUOUS
 62
     2
 10
664.25
 20
648.5
 11
745.0
 21
648.5
  0
TEXT
  8
2
  6
CONTINUOUS
 62
     3
 10
137.45
 20
469.0
 30
0.0
 40
15.0
  1
手動軸カバ－
 50
0.0
 41
0.9
 51
0.0
  7
KANJI27
  0
LINE
  8
2
  6
CONTINUOUS
 62
     2
 10
221.95
 20
465.0
 11
135.0
 21
465.0
  0
POLYLINE
  8
0
  6
CONTINUOUS
 62
     2
 66
     1
  0
VERTEX
  8
0
  6
CONTINUOUS
 62
     2
 10
832.45
 20
494.75
  0
VERTEX
  8
0
  6
CONTINUOUS
 62
     2
 10
832.45
 20
558.25
  0
VERTEX
  8
0
  6
CONTINUOUS
 62
     2
 10
829.861809549
 20
548.590741737
  0
SEQEND
  0
LINE
  8
0
  6
CONTINUOUS
 62
     2
 10
832.45
 20
558.25
 11
835.038190451
 21
548.590741737
  0
TEXT
  8
0
  6
CONTINUOUS
 62
     2
 10
828.45
 20
508.5
 30
0.0
 40
15.0
  1
φ６４
 50
90.0
 41
0.9
 51
0.0
  7
KANJI27
  0
LINE
  8
0
  6
CONTINUOUS
 62
     2
 10
832.45
 20
494.75
 11
835.038190451
 21
504.409258263
  0
LINE
  8
0
  6
CONTINUOUS
 62
     2
 10
832.45
 20
494.75
 11
829.861809549
 21
504.409258263
  0
LINE
  8
0
  6
LTYPE3
 62
     2
 10
832.45
 20
526.5
 11
1016.389501379
 21
526.5
  0
LINE
  8
0
  6
LTYPE3
 62
     2
 10
738.25
 20
526.5
 11
812.45
 21
526.5
  0
TEXT
  8
0
  6
CONTINUOUS
 62
     2
 10
964.95
 20
426.35
 30
0.0
 40
15.0
  1
２５
 50
0.0
 41
0.9
 51
0.0
  7
KANJI27
  0
TEXT
  8
0
  6
CONTINUOUS
 62
     2
 10
1006.25
 20
414.6
 30
0.0
 40
15.0
  1
φ１６
 50
0.0
 41
0.9
 51
0.0
  7
KANJI27
  0
LINE
  8
0
  6
CONTINUOUS
 62
     1
 10
852.25
 20
1238.95
 11
1500.25
 21
1238.95
  0
LINE
  8
0
  6
CONTINUOUS
 62
     1
 10
852.25
 20
1210.95
 11
1500.25
 21
1210.95
  0
LINE
  8
0
  6
CONTINUOUS
 62
     2
 10
852.25
 20
1182.95
 11
1500.25
 21
1182.95
  0
LINE
  8
0
  6
CONTINUOUS
 62
     2
 10
852.25
 20
1154.95
 11
1500.25
 21
1154.95
  0
LINE
  8
0
  6
CONTINUOUS
 62
     2
 10
852.25
 20
1126.95
 11
1500.25
 21
1126.95
  0
TEXT
  8
0
  6
CONTINUOUS
 62
     2
 10
892.25
 20
1218.95
 30
1.28
 40
12.8
  1
形
 50
0.0
 41
0.9
 51
0.0
  7
KANJI28
  0
TEXT
  8
0
  6
CONTINUOUS
 62
     2
 10
970.25
 20
1218.95
 30
1.28
 40
12.8
  1
式
 50
0.0
 41
0.9
 51
0.0
  7
KANJI28
  0
TEXT
  8
0
  6
CONTINUOUS
 62
     2
 10
1030.65
 20
1218.15
 30
1.2
 40
12.0
  1
ストローク
 50
0.0
 41
0.9
 51
0.0
  7
KANJI29
  0
TEXT
  8
0
  6
CONTINUOUS
 62
     2
 10
1107.45
 20
1217.35
 30
0.0
 40
12.0
  1
ｍｉｎ　
 50
0.0
 41
0.9
 51
0.0
  7
KANJI30
  0
TEXT
  8
0
  6
CONTINUOUS
 62
     2
 10
1187.45
 20
1217.35
 30
0.0
 40
12.0
  1
ｍｉｎ　
 50
0.0
 41
0.9
 51
0.0
  7
KANJI30
  0
TEXT
  8
0
  6
CONTINUOUS
 62
     2
 10
1347.45
 20
1217.35
 30
0.0
 40
12.0
  1
ｍｉｎ　
 50
0.0
 41
0.9
 51
0.0
  7
KANJI30
  0
TEXT
  8
0
  6
CONTINUOUS
 62
     2
 10
1148.25
 20
1218.15
 30
1.4
 40
14.0
  1
ＡＬ
 50
0.0
 41
0.9
 51
0.0
  7
KANJI31
  0
TEXT
  8
0
  6
CONTINUOUS
 62
     2
 10
1228.25
 20
1218.15
 30
1.4
 40
14.0
  1
Ｌ
 50
0.0
 41
0.9
 51
0.0
  7
KANJI31
  0
TEXT
  8
0
  6
CONTINUOUS
 62
     2
 10
1296.25
 20
1218.15
 30
1.4
 40
14.0
  1
Ｃ
 50
0.0
 41
0.9
 51
0.0
  7
KANJI31
  0
TEXT
  8
0
  6
CONTINUOUS
 62
     2
 10
1388.25
 20
1218.15
 30
1.4
 40
14.0
  1
Ｐ
 50
0.0
 41
0.9
 51
0.0
  7
KANJI31
  0
TEXT
  8
0
  6
CONTINUOUS
 62
     2
 10
1470.55
 20
1217.85
 30
0.0
 40
10.8
  1
（ｋｇ）
 50
0.0
 41
0.740740741
 51
0.0
  7
KANJI32
  0
TEXT
  8
0
  6
CONTINUOUS
 62
     2
 10
1422.55
 20
1217.65
 30
1.2
 40
14.0
  1
概算重量
 50
0.0
 41
0.857142857
 51
0.0
  7
KANJI33
  0
TEXT
  8
0
  6
CONTINUOUS
 62
     2
 10
1038.25
 20
1189.65
 30
1.2
 40
12.0
  1
　１００
 50
0.0
 41
0.9
 51
0.0
  7
KANJI29
  0
TEXT
  8
0
  6
CONTINUOUS
 62
     2
 10
1038.25
 20
1161.65
 30
1.2
 40
12.0
  1
　２００
 50
0.0
 41
0.9
 51
0.0
  7
KANJI29
  0
TEXT
  8
0
  6
CONTINUOUS
 62
     2
 10
1038.25
 20
1133.65
 30
1.2
 40
12.0
  1
　３００
 50
0.0
 41
0.9
 51
0.0
  7
KANJI29
  0
TEXT
  8
0
  6
CONTINUOUS
 62
     2
 10
1198.25
 20
1133.65
 30
1.2
 40
12.0
  1
　５０８
 50
0.0
 41
0.9
 51
0.0
  7
KANJI29
  0
TEXT
  8
0
  6
CONTINUOUS
 62
     2
 10
1198.25
 20
1161.65
 30
1.2
 40
12.0
  1
　４０８
 50
0.0
 41
0.9
 51
0.0
  7
KANJI29
  0
TEXT
  8
0
  6
CONTINUOUS
 62
     2
 10
1278.25
 20
1189.65
 30
1.2
 40
12.0
  1
　２３８
 50
0.0
 41
0.9
 51
0.0
  7
KANJI29
  0
TEXT
  8
0
  6
CONTINUOUS
 62
     2
 10
1278.25
 20
1161.65
 30
1.2
 40
12.0
  1
　３３８
 50
0.0
 41
0.9
 51
0.0
  7
KANJI29
  0
TEXT
  8
0
  6
CONTINUOUS
 62
     2
 10
1278.25
 20
1133.65
 30
1.2
 40
12.0
  1
　４３８
 50
0.0
 41
0.9
 51
0.0
  7
KANJI29
  0
TEXT
  8
0
  6
CONTINUOUS
 62
     2
 10
1358.25
 20
1133.65
 30
1.2
 40
12.0
  1
　　３５
 50
0.0
 41
0.9
 51
0.0
  7
KANJI29
  0
TEXT
  8
0
  6
CONTINUOUS
 62
     2
 10
1358.25
 20
1161.65
 30
1.2
 40
12.0
  1
　　３５
 50
0.0
 41
0.9
 51
0.0
  7
KANJI29
  0
TEXT
  8
0
  6
CONTINUOUS
 62
     2
 10
1358.25
 20
1189.65
 30
1.2
 40
12.0
  1
　　３５
 50
0.0
 41
0.9
 51
0.0
  7
KANJI29
  0
TEXT
  8
0
  6
CONTINUOUS
 62
     2
 10
1038.25
 20
1021.65
 30
1.2
 40
12.0
  1
　７００
 50
0.0
 41
0.9
 51
0.0
  7
KANJI29
  0
TEXT
  8
0
  6
CONTINUOUS
 62
     2
 10
1278.25
 20
1021.65
 30
1.2
 40
12.0
  1
　８７８
 50
0.0
 41
0.9
 51
0.0
  7
KANJI29
  0
LINE
  8
0
  6
CONTINUOUS
 62
     2
 10
852.25
 20
1070.95
 11
1500.25
 21
1070.95
  0
LINE
  8
0
  6
CONTINUOUS
 62
     2
 10
852.25
 20
1098.95
 11
1500.25
 21
1098.95
  0
LINE
  8
0
  6
CONTINUOUS
 62
     2
 10
852.25
 20
1014.95
 11
1500.25
 21
1014.95
  0
LINE
  8
0
  6
CONTINUOUS
 62
     2
 10
852.25
 20
1042.95
 11
1500.25
 21
1042.95
  0
TEXT
  8
0
  6
CONTINUOUS
 62
     2
 10
1038.25
 20
1077.65
 30
1.2
 40
12.0
  1
　５００
 50
0.0
 41
0.9
 51
0.0
  7
KANJI29
  0
TEXT
  8
0
  6
CONTINUOUS
 62
     2
 10
1278.25
 20
1077.65
 30
1.2
 40
12.0
  1
　６３８
 50
0.0
 41
0.9
 51
0.0
  7
KANJI29
  0
TEXT
  8
0
  6
CONTINUOUS
 62
     2
 10
1038.25
 20
1105.65
 30
1.2
 40
12.0
  1
　４００
 50
0.0
 41
0.9
 51
0.0
  7
KANJI29
  0
TEXT
  8
0
  6
CONTINUOUS
 62
     2
 10
1038.25
 20
1049.65
 30
1.2
 40
12.0
  1
　６００
 50
0.0
 41
0.9
 51
0.0
  7
KANJI29
  0
TEXT
  8
0
  6
CONTINUOUS
 62
     2
 10
1278.25
 20
1105.65
 30
1.2
 40
12.0
  1
　５３８
 50
0.0
 41
0.9
 51
0.0
  7
KANJI29
  0
TEXT
  8
0
  6
CONTINUOUS
 62
     2
 10
1278.25
 20
1049.65
 30
1.2
 40
12.0
  1
　７７８
 50
0.0
 41
0.9
 51
0.0
  7
KANJI29
  0
TEXT
  8
0
  6
CONTINUOUS
 62
     2
 10
1198.25
 20
1189.65
 30
1.2
 40
12.0
  1
　３０８
 50
0.0
 41
0.9
 51
0.0
  7
KANJI29
  0
TEXT
  8
0
  6
CONTINUOUS
 62
     2
 10
1358.25
 20
1105.65
 30
1.2
 40
12.0
  1
　　３５
 50
0.0
 41
0.9
 51
0.0
  7
KANJI29
  0
TEXT
  8
0
  6
CONTINUOUS
 62
     2
 10
1358.25
 20
1077.65
 30
1.2
 40
12.0
  1
　　３５
 50
0.0
 41
0.9
 51
0.0
  7
KANJI29
  0
TEXT
  8
0
  6
CONTINUOUS
 62
     2
 10
1358.25
 20
1049.65
 30
1.2
 40
12.0
  1
　　３５
 50
0.0
 41
0.9
 51
0.0
  7
KANJI29
  0
TEXT
  8
0
  6
CONTINUOUS
 62
     2
 10
1358.25
 20
1021.65
 30
1.2
 40
12.0
  1
　　３５
 50
0.0
 41
0.9
 51
0.0
  7
KANJI29
  0
TEXT
  8
0
  6
CONTINUOUS
 62
     2
 10
1198.25
 20
1021.65
 30
1.2
 40
12.0
  1
　９４８
 50
0.0
 41
0.9
 51
0.0
  7
KANJI29
  0
TEXT
  8
0
  6
CONTINUOUS
 62
     2
 10
1198.25
 20
1049.65
 30
1.2
 40
12.0
  1
　８４８
 50
0.0
 41
0.9
 51
0.0
  7
KANJI29
  0
TEXT
  8
0
  6
CONTINUOUS
 62
     2
 10
1198.25
 20
1077.65
 30
1.2
 40
12.0
  1
　７０８
 50
0.0
 41
0.9
 51
0.0
  7
KANJI29
  0
TEXT
  8
0
  6
CONTINUOUS
 62
     2
 10
1198.25
 20
1105.65
 30
1.2
 40
12.0
  1
　６０８
 50
0.0
 41
0.9
 51
0.0
  7
KANJI29
  0
TEXT
  8
0
  6
CONTINUOUS
 62
     2
 10
1118.25
 20
1189.65
 30
1.2
 40
12.0
  1
　６８５
 50
0.0
 41
0.9
 51
0.0
  7
KANJI29
  0
TEXT
  8
0
  6
CONTINUOUS
 62
     2
 10
1118.25
 20
1161.65
 30
1.2
 40
12.0
  1
　７８５
 50
0.0
 41
0.9
 51
0.0
  7
KANJI29
  0
TEXT
  8
0
  6
CONTINUOUS
 62
     2
 10
1118.25
 20
1133.65
 30
1.2
 40
12.0
  1
　８８５
 50
0.0
 41
0.9
 51
0.0
  7
KANJI29
  0
TEXT
  8
0
  6
CONTINUOUS
 62
     2
 10
1118.25
 20
1105.65
 30
1.2
 40
12.0
  1
　９８５
 50
0.0
 41
0.9
 51
0.0
  7
KANJI29
  0
TEXT
  8
0
  6
CONTINUOUS
 62
     2
 10
1118.25
 20
1077.65
 30
1.2
 40
12.0
  1
１０８５
 50
0.0
 41
0.9
 51
0.0
  7
KANJI29
  0
TEXT
  8
0
  6
CONTINUOUS
 62
     2
 10
1118.25
 20
1049.65
 30
1.2
 40
12.0
  1
１２２５
 50
0.0
 41
0.9
 51
0.0
  7
KANJI29
  0
TEXT
  8
0
  6
CONTINUOUS
 62
     2
 10
1118.25
 20
1021.65
 30
1.2
 40
12.0
  1
１３２５
 50
0.0
 41
0.9
 51
0.0
  7
KANJI29
  0
TEXT
  8
0
  6
CONTINUOUS
 62
     2
 10
1649.4166945
 20
125.999995
 30
10.833333333
 40
25.0
  1
３００２３４３
 50
0.0
 41
0.8
 51
0.0
  7
KANJI34
  0
TEXT
  8
0
  6
CONTINUOUS
 62
     2
 10
1416.25
 20
1189.65
 30
1.2
 40
12.0
  1
　　２１
 50
0.0
 41
0.9
 51
0.0
  7
KANJI29
  0
TEXT
  8
0
  6
CONTINUOUS
 62
     2
 10
1416.25
 20
1161.65
 30
1.2
 40
12.0
  1
　　２２
 50
0.0
 41
0.9
 51
0.0
  7
KANJI29
  0
TEXT
  8
0
  6
CONTINUOUS
 62
     2
 10
1416.25
 20
1133.65
 30
1.2
 40
12.0
  1
　　２３
 50
0.0
 41
0.9
 51
0.0
  7
KANJI29
  0
TEXT
  8
0
  6
CONTINUOUS
 62
     2
 10
1416.25
 20
1105.65
 30
1.2
 40
12.0
  1
　　２３．５
 50
0.0
 41
0.9
 51
0.0
  7
KANJI29
  0
TEXT
  8
0
  6
CONTINUOUS
 62
     2
 10
1416.25
 20
1077.65
 30
1.2
 40
12.0
  1
　　２４
 50
0.0
 41
0.9
 51
0.0
  7
KANJI29
  0
TEXT
  8
0
  6
CONTINUOUS
 62
     2
 10
1416.25
 20
1049.65
 30
1.2
 40
12.0
  1
　　２４．５
 50
0.0
 41
0.9
 51
0.0
  7
KANJI29
  0
TEXT
  8
0
  6
CONTINUOUS
 62
     2
 10
1416.25
 20
1021.65
 30
1.2
 40
12.0
  1
　　２５
 50
0.0
 41
0.9
 51
0.0
  7
KANJI29
  0
LINE
  8
0
  6
CONTINUOUS
 62
     1
 10
1276.625
 20
1392.0
 11
1276.625
 21
1291.9
  0
LINE
  8
0
  6
CONTINUOUS
 62
     2
 10
1218.875
 20
1392.0
 11
1218.875
 21
1291.9
  0
LINE
  8
0
  6
CONTINUOUS
 62
     2
 10
1161.125
 20
1392.0
 11
1161.125
 21
1291.9
  0
LINE
  8
0
  6
CONTINUOUS
 62
     1
 10
1084.125
 20
1392.0
 11
1084.125
 21
1291.9
  0
LINE
  8
0
  6
CONTINUOUS
 62
     1
 10
1084.125
 20
1392.0
 11
1276.625
 21
1392.0
  0
LINE
  8
0
  6
CONTINUOUS
 62
     1
 10
1084.125
 20
1361.2
 11
1276.625
 21
1361.2
  0
LINE
  8
0
  6
CONTINUOUS
 62
     2
 10
1084.125
 20
1338.1
 11
1276.625
 21
1338.1
  0
LINE
  8
0
  6
CONTINUOUS
 62
     2
 10
1084.125
 20
1315.0
 11
1276.625
 21
1315.0
  0
LINE
  8
0
  6
CONTINUOUS
 62
     1
 10
1084.125
 20
1291.9
 11
1276.625
 21
1291.9
  0
TEXT
  8
0
  6
CONTINUOUS
 62
     2
 10
1226.575
 20
1378.525
 30
1.155
 40
11.55
  1
起動電流
 50
0.0
 41
0.9
 51
0.0
  7
KANJI35
  0
TEXT
  8
0
  6
CONTINUOUS
 62
     2
 10
1226.575
 20
1365.05
 30
1.155
 40
11.55
  1
　　　Ａ
 50
0.0
 41
0.9
 51
0.0
  7
KANJI35
  0
TEXT
  8
0
  6
CONTINUOUS
 62
     2
 10
1168.825
 20
1378.525
 30
1.155
 40
11.55
  1
定格電流
 50
0.0
 41
0.9
 51
0.0
  7
KANJI35
  0
TEXT
  8
0
  6
CONTINUOUS
 62
     2
 10
1168.825
 20
1365.05
 30
1.155
 40
11.55
  1
　　　Ａ
 50
0.0
 41
0.9
 51
0.0
  7
KANJI35
  0
TEXT
  8
0
  6
CONTINUOUS
 62
     2
 10
1090.67
 20
1320.775
 30
1.155
 40
11.55
  1
２００／６０
 50
0.0
 41
0.9
 51
0.0
  7
KANJI35
  0
TEXT
  8
0
  6
CONTINUOUS
 62
     2
 10
1090.67
 20
1378.525
 30
1.155
 40
11.55
  1
電圧／周波数
 50
0.0
 41
0.9
 51
0.0
  7
KANJI35
  0
TEXT
  8
0
  6
CONTINUOUS
 62
     2
 10
1090.67
 20
1365.05
 30
1.155
 40
11.55
  1
　Ｖ／Ｈｚ
 50
0.0
 41
0.9
 51
0.0
  7
KANJI35
  0
TEXT
  8
0
  6
CONTINUOUS
 62
     2
 10
1090.67
 20
1343.875
 30
1.155
 40
11.55
  1
２００／５０
 50
0.0
 41
0.9
 51
0.0
  7
KANJI35
  0
TEXT
  8
0
  6
CONTINUOUS
 62
     2
 10
1090.67
 20
1297.675
 30
1.155
 40
11.55
  1
２２０／６０
 50
0.0
 41
0.9
 51
0.0
  7
KANJI35
  0
LINE
  8
0
  6
CONTINUOUS
 62
     1
 10
1045.625
 20
1392.0
 11
1045.625
 21
1291.9
  0
LINE
  8
0
  6
CONTINUOUS
 62
     2
 10
987.875
 20
1392.0
 11
987.875
 21
1291.9
  0
LINE
  8
0
  6
CONTINUOUS
 62
     2
 10
930.125
 20
1392.0
 11
930.125
 21
1291.9
  0
LINE
  8
0
  6
CONTINUOUS
 62
     1
 10
853.125
 20
1392.0
 11
853.125
 21
1291.9
  0
LINE
  8
0
  6
CONTINUOUS
 62
     1
 10
853.125
 20
1392.0
 11
1045.625
 21
1392.0
  0
LINE
  8
0
  6
CONTINUOUS
 62
     1
 10
853.125
 20
1361.2
 11
1045.625
 21
1361.2
  0
LINE
  8
0
  6
CONTINUOUS
 62
     2
 10
853.125
 20
1338.1
 11
1045.625
 21
1338.1
  0
LINE
  8
0
  6
CONTINUOUS
 62
     2
 10
853.125
 20
1315.0
 11
1045.625
 21
1315.0
  0
LINE
  8
0
  6
CONTINUOUS
 62
     1
 10
853.125
 20
1291.9
 11
1045.625
 21
1291.9
  0
TEXT
  8
0
  6
CONTINUOUS
 62
     2
 10
995.575
 20
1378.525
 30
1.155
 40
11.55
  1
起動電流
 50
0.0
 41
0.9
 51
0.0
  7
KANJI35
  0
TEXT
  8
0
  6
CONTINUOUS
 62
     2
 10
995.575
 20
1365.05
 30
1.155
 40
11.55
  1
　　　Ａ
 50
0.0
 41
0.9
 51
0.0
  7
KANJI35
  0
TEXT
  8
0
  6
CONTINUOUS
 62
     2
 10
937.825
 20
1378.525
 30
1.155
 40
11.55
  1
定格電流
 50
0.0
 41
0.9
 51
0.0
  7
KANJI35
  0
TEXT
  8
0
  6
CONTINUOUS
 62
     2
 10
937.825
 20
1365.05
 30
1.155
 40
11.55
  1
　　　Ａ
 50
0.0
 41
0.9
 51
0.0
  7
KANJI35
  0
TEXT
  8
0
  6
CONTINUOUS
 62
     2
 10
859.67
 20
1378.525
 30
1.155
 40
11.55
  1
電圧／周波数
 50
0.0
 41
0.9
 51
0.0
  7
KANJI35
  0
TEXT
  8
0
  6
CONTINUOUS
 62
     2
 10
859.67
 20
1365.05
 30
1.155
 40
11.55
  1
　Ｖ／Ｈｚ
 50
0.0
 41
0.9
 51
0.0
  7
KANJI35
  0
TEXT
  8
0
  6
CONTINUOUS
 62
     2
 10
859.67
 20
1343.875
 30
1.155
 40
11.55
  1
４００／５０
 50
0.0
 41
0.9
 51
0.0
  7
KANJI35
  0
TEXT
  8
0
  6
CONTINUOUS
 62
     2
 10
859.67
 20
1320.775
 30
1.155
 40
11.55
  1
４００／６０
 50
0.0
 41
0.9
 51
0.0
  7
KANJI35
  0
TEXT
  8
0
  6
CONTINUOUS
 62
     2
 10
859.67
 20
1297.675
 30
1.155
 40
11.55
  1
４４０／６０
 50
0.0
 41
0.9
 51
0.0
  7
KANJI35
  0
TEXT
  8
0
  6
CONTINUOUS
 62
     2
 10
937.825
 20
1343.875
 30
1.155
 40
11.55
  1
　２．０
 50
0.0
 41
0.9
 51
0.0
  7
KANJI35
  0
TEXT
  8
0
  6
CONTINUOUS
 62
     2
 10
937.825
 20
1320.775
 30
1.155
 40
11.55
  1
　１．４
 50
0.0
 41
0.9
 51
0.0
  7
KANJI35
  0
TEXT
  8
0
  6
CONTINUOUS
 62
     2
 10
937.825
 20
1297.675
 30
1.155
 40
11.55
  1
　１．７
 50
0.0
 41
0.9
 51
0.0
  7
KANJI35
  0
TEXT
  8
0
  6
CONTINUOUS
 62
     2
 10
1168.825
 20
1343.875
 30
1.155
 40
11.55
  1
　４．０
 50
0.0
 41
0.9
 51
0.0
  7
KANJI35
  0
TEXT
  8
0
  6
CONTINUOUS
 62
     2
 10
1168.825
 20
1320.775
 30
1.155
 40
11.55
  1
　２．８
 50
0.0
 41
0.9
 51
0.0
  7
KANJI35
  0
TEXT
  8
0
  6
CONTINUOUS
 62
     2
 10
1168.825
 20
1297.675
 30
1.155
 40
11.55
  1
　３．３
 50
0.0
 41
0.9
 51
0.0
  7
KANJI35
  0
TEXT
  8
0
  6
CONTINUOUS
 62
     2
 10
1226.575
 20
1343.875
 30
1.155
 40
11.55
  1
　９．２
 50
0.0
 41
0.9
 51
0.0
  7
KANJI35
  0
TEXT
  8
0
  6
CONTINUOUS
 62
     2
 10
1226.575
 20
1320.775
 30
1.155
 40
11.55
  1
　８
 50
0.0
 41
0.9
 51
0.0
  7
KANJI35
  0
TEXT
  8
0
  6
CONTINUOUS
 62
     2
 10
1226.575
 20
1297.675
 30
1.155
 40
11.55
  1
　８．８
 50
0.0
 41
0.9
 51
0.0
  7
KANJI35
  0
TEXT
  8
0
  6
CONTINUOUS
 62
     2
 10
995.575
 20
1343.875
 30
1.155
 40
11.55
  1
　４．６
 50
0.0
 41
0.9
 51
0.0
  7
KANJI35
  0
TEXT
  8
0
  6
CONTINUOUS
 62
     2
 10
995.575
 20
1320.775
 30
1.155
 40
11.55
  1
　４
 50
0.0
 41
0.9
 51
0.0
  7
KANJI35
  0
TEXT
  8
0
  6
CONTINUOUS
 62
     2
 10
995.575
 20
1297.675
 30
1.155
 40
11.55
  1
　４．４
 50
0.0
 41
0.9
 51
0.0
  7
KANJI35
  0
TEXT
  8
0
  6
CONTINUOUS
 62
     6
 10
307.962791539
 20
1133.22382165
 30
0.0
 40
17.740702234
  1
端子台　接続図
 50
0.0
 41
0.880962996
 51
0.0
  7
KANJI36
  0
LINE
  8
0
  6
CONTINUOUS
 62
     2
 10
342.927373465
 20
1184.228121884
 11
342.927373465
 21
1161.449155128
  0
LINE
  8
0
  6
CONTINUOUS
 62
     2
 10
369.50283468
 20
1184.228121884
 11
369.50283468
 21
1161.449155128
  0
LINE
  8
0
  6
CONTINUOUS
 62
     2
 10
396.078295894
 20
1184.228121884
 11
396.078295894
 21
1161.449155128
  0
LINE
  8
0
  6
CONTINUOUS
 62
     2
 10
422.653757109
 20
1184.228121884
 11
422.653757109
 21
1161.449155128
  0
CIRCLE
  8
0
  6
CONTINUOUS
 62
     6
 10
414.734269667
 20
1207.707921517
 40
4.100214016
  0
LINE
  8
0
  6
CONTINUOUS
 62
     6
 10
410.634055651
 20
1207.707921517
 11
409.366026502
 21
1207.707921517
  0
LINE
  8
0
  6
CONTINUOUS
 62
     6
 10
435.688027433
 20
1221.394562742
 11
431.773558096
 21
1199.059507138
  0
LINE
  8
0
  6
CONTINUOUS
 62
     6
 10
430.961699663
 20
1222.182284037
 11
427.046922494
 21
1199.847279739
  0
LINE
  8
0
  6
CONTINUOUS
 62
     6
 10
431.773558096
 20
1199.059507138
 11
427.046922494
 21
1199.847279739
  0
CIRCLE
  8
0
  6
CONTINUOUS
 62
     6
 10
435.941487717
 20
1198.239464335
 40
4.100214016
  0
LINE
  8
0
  6
CONTINUOUS
 62
     6
 10
435.941487717
 20
1194.139250319
 11
435.941487717
 21
1184.228121884
  0
LINE
  8
0
  6
CONTINUOUS
 62
     6
 10
409.366026502
 20
1207.707921517
 11
409.366026502
 21
1184.228121884
  0
LINE
  8
0
  6
CONTINUOUS
 62
     6
 10
382.790565287
 20
1184.228121884
 11
382.790565287
 21
1237.933332504
  0
LINE
  8
0
  6
CONTINUOUS
 62
     6
 10
303.317641926
 20
1221.394562742
 11
307.232111263
 21
1199.059507138
  0
LINE
  8
0
  6
CONTINUOUS
 62
     6
 10
308.043969696
 20
1222.182284037
 11
311.958746865
 21
1199.847279739
  0
LINE
  8
0
  6
CONTINUOUS
 62
     6
 10
307.232111263
 20
1199.059507138
 11
311.958746865
 21
1199.847279739
  0
CIRCLE
  8
0
  6
CONTINUOUS
 62
     6
 10
303.064181642
 20
1198.239464335
 40
4.100214016
  0
CIRCLE
  8
0
  6
CONTINUOUS
 62
     6
 10
324.271399692
 20
1207.707921517
 40
4.100214016
  0
LINE
  8
0
  6
CONTINUOUS
 62
     6
 10
328.371613708
 20
1207.707921517
 11
329.639642857
 21
1207.707921517
  0
LINE
  8
0
  6
CONTINUOUS
 62
     6
 10
303.064181642
 20
1194.139250319
 11
303.064181642
 21
1184.228121884
  0
LINE
  8
0
  6
CONTINUOUS
 62
     6
 10
329.639642857
 20
1207.707921517
 11
329.639642857
 21
1184.228121884
  0
LINE
  8
0
  6
CONTINUOUS
 62
     6
 10
356.215104072
 20
1184.228121884
 11
356.215104072
 21
1237.933332504
  0
LINE
  8
0
  6
CONTINUOUS
 62
     2
 10
449.229218324
 20
1184.228121884
 11
449.229218324
 21
1161.449155128
  0
LINE
  8
0
  6
CONTINUOUS
 62
     2
 10
289.776451035
 20
1184.228121884
 11
289.776451035
 21
1161.449155128
  0
LINE
  8
0
  6
CONTINUOUS
 62
     2
 10
316.35191225
 20
1184.228121884
 11
316.35191225
 21
1161.449155128
  0
LINE
  8
0
  6
CONTINUOUS
 62
     6
 10
435.941487717
 20
1237.933332504
 11
382.790565287
 21
1237.933332504
  0
CIRCLE
  8
0
  6
CONTINUOUS
 62
     6
 10
435.941487717
 20
1225.58941042
 40
4.100214016
  0
LINE
  8
0
  6
CONTINUOUS
 62
     6
 10
435.688027433
 20
1221.394562742
 11
430.961699663
 21
1222.182284037
  0
LINE
  8
0
  6
CONTINUOUS
 62
     6
 10
435.941487717
 20
1229.689624436
 11
435.941487717
 21
1237.933332504
  0
CIRCLE
  8
0
  6
CONTINUOUS
 62
     6
 10
303.064181642
 20
1225.58941042
 40
4.100214016
  0
LINE
  8
0
  6
CONTINUOUS
 62
     6
 10
303.317641926
 20
1221.394562742
 11
308.043969696
 21
1222.182284037
  0
LINE
  8
0
  6
CONTINUOUS
 62
     6
 10
303.064181642
 20
1229.689624436
 11
303.064181642
 21
1237.933332504
  0
LINE
  8
0
  6
CONTINUOUS
 62
     6
 10
356.215104072
 20
1237.933332504
 11
303.064181642
 21
1237.933332504
  0
TEXT
  8
0
  6
CONTINUOUS
 62
     6
 10
307.8272152
 20
1242.452473273
 30
0.819
 40
11.7
  1
ＬＳ０１
 50
0.0
 41
0.8
 51
0.0
  7
KANJI37
  0
TEXT
  8
0
  6
CONTINUOUS
 62
     6
 10
390.447398844
 20
1242.452473273
 30
0.819
 40
11.7
  1
ＬＳ０２
 50
0.0
 41
0.8
 51
0.0
  7
KANJI37
  0
TEXT
  8
0
  6
CONTINUOUS
 62
     3
 10
135.638775989
 20
1165.245649587
 30
0.0
 40
15.0
  1
　　　　　　　　　　　　　　　　　　１　　２　　　３　　　４　　　５　　　６
 50
0.0
 41
0.911
 51
0.0
  7
KANJI38
  0
LINE
  8
0
  6
CONTINUOUS
 62
     2
 10
289.776451035
 20
1184.228121884
 11
449.229218324
 21
1184.228121884
  0
LINE
  8
0
  6
CONTINUOUS
 62
     2
 10
289.776451035
 20
1161.449155128
 11
449.229218324
 21
1161.449155128
  0
TEXT
  8
0
  6
CONTINUOUS
 62
     6
 10
281.462791539
 20
1272.22382165
 30
0.0
 40
17.740702234
  1
推力リミッタ端子台配列
 50
0.0
 41
0.880962996
 51
0.0
  7
KANJI36
  0
LINE
  8
0
  6
CONTINUOUS
 62
     2
 10
1010.25
 20
546.5
 11
1044.15
 21
546.5
  0
LINE
  8
0
  6
CONTINUOUS
 62
     2
 10
1010.75
 20
506.5
 11
1044.55
 21
506.5
  0
LINE
  8
0
  6
CONTINUOUS
 62
     2
 10
984.25
 20
384.5
 11
984.25
 21
414.7
  0
LINE
  8
0
  6
CONTINUOUS
 62
     2
 10
1000.25
 20
384.5
 11
1000.25
 21
415.7
  0
LINE
  8
0
  6
CONTINUOUS
 62
     2
 10
1012.25
 20
371.5
 11
1056.083854631
 21
371.5
  0
LINE
  8
0
  6
CONTINUOUS
 62
     2
 10
1012.25
 20
359.5
 11
1055.983854631
 21
359.5
  0
LINE
  8
0
  6
CONTINUOUS
 62
     2
 10
1012.25
 20
343.5
 11
1055.983854631
 21
343.5
  0
LINE
  8
0
  6
CONTINUOUS
 62
     2
 10
1012.25
 20
331.5
 11
1056.083854631
 21
331.5
  0
TEXT
  8
0
  6
CONTINUOUS
 62
     2
 10
1425.9165915
 20
422.750003
 30
5.13
 40
18.0
  1
　　必ず、常用はストローク両端に余裕を取って下さい。
 50
0.0
 41
0.857222222
 51
0.0
  7
KANJI19
  0
TEXT
  8
0
  6
CONTINUOUS
 62
     2
 10
1426.6765915
 20
389.710003
 30
5.13
 40
18.0
  1
　　前後の推奨余裕寸法は、各々４０ｍｍです。
 50
0.0
 41
0.857222222
 51
0.0
  7
KANJI19
  0
LINE
  8
0
  6
CONTINUOUS
 62
     2
 10
878.7275
 20
1270.725
 11
1270.15
 21
1270.725
  0
TEXT
  8
0
  6
CONTINUOUS
 62
     2
 10
215.25
 20
396.0
 30
0.0
 40
20.0
  1
ブレーキ解放装置はありません。
 50
0.0
 41
0.925
 51
0.0
  7
KANJI39
  0
TEXT
  8
0
  6
CONTINUOUS
 62
     2
 10
216.25
 20
371.0
 30
0.0
 40
20.0
  1
そのまま手動操作をして下さい．
 50
0.0
 41
0.925
 51
0.0
  7
KANJI39
  0
LINE
  8
0
  6
CONTINUOUS
 62
     1
 10
589.95
 20
623.5
 11
600.55
 21
623.5
  0
ARC
  8
0
  6
CONTINUOUS
 62
     1
 10
594.85
 20
622.5
 40
5.0
 50
92.3
 51
168.5
  0
ARC
  8
0
  6
CONTINUOUS
 62
     1
 10
595.65
 20
622.5
 40
5.0
 50
11.5
 51
87.7
  0
LINE
  8
0
  6
CONTINUOUS
 62
     1
 10
594.65
 20
627.5
 11
595.85
 21
627.5
  0
LINE
  8
0
  6
LTYPE5
 62
     2
 10
595.25
 20
630.9
 11
595.25
 21
617.5
  0
LINE
  8
0
  6
CONTINUOUS
 62
     1
 10
705.85
 20
623.5
 11
716.45
 21
623.5
  0
ARC
  8
0
  6
CONTINUOUS
 62
     1
 10
710.75
 20
622.5
 40
5.0
 50
92.3
 51
168.5
  0
ARC
  8
0
  6
CONTINUOUS
 62
     1
 10
711.55
 20
622.5
 40
5.0
 50
11.5
 51
87.7
  0
LINE
  8
0
  6
CONTINUOUS
 62
     1
 10
710.55
 20
627.5
 11
711.75
 21
627.5
  0
LINE
  8
0
  6
LTYPE5
 62
     2
 10
711.15
 20
630.9
 11
711.15
 21
617.5
  0
LINE
  8
0
  6
CONTINUOUS
 62
     1
 10
942.25
 20
370.5
 11
957.25
 21
370.5
  0
LINE
  8
0
  6
CONTINUOUS
 62
     1
 10
942.25
 20
332.5
 11
957.25
 21
332.5
  0
CIRCLE
  8
0
  6
CONTINUOUS
 62
     1
 10
992.25
 20
526.5
 40
15.0
  0
LINE
  8
0
  6
CONTINUOUS
 62
     2
 10
1055.55
 20
591.7
 11
1043.475927171
 21
594.935238064
  0
LINE
  8
0
  6
CONTINUOUS
 62
     2
 10
1055.55
 20
591.7
 11
1043.475927171
 21
588.464761936
  0
LINE
  8
0
  6
CONTINUOUS
 62
     2
 10
1055.55
 20
591.7
 11
1014.55
 21
591.7
  0
TEXT
  8
0
  6
CONTINUOUS
 62
     3
 10
1061.55
 20
585.7
 30
0.0
 40
20.0
  1
前進
 50
0.0
 41
0.925
 51
0.0
  7
KANJI39
  0
TEXT
  8
0
  6
CONTINUOUS
 62
     2
 10
886.4275
 20
1274.575
 30
1.3475
 40
13.475
  1
注意：サーマルリレー等の選定は、上記の値で選定して下さい。
 50
0.0
 41
0.9
 51
0.0
  7
KANJI40
  0
LINE
  8
0
  6
CONTINUOUS
 62
     1
 10
1166.25
 20
533.0
 11
1166.25
 21
517.0
  0
LINE
  8
0
  6
CONTINUOUS
 62
     1
 10
1189.25
 20
545.0
 11
1189.25
 21
505.0
  0
LINE
  8
0
  6
CONTINUOUS
 62
     1
 10
1177.25
 20
545.0
 11
1177.25
 21
505.0
  0
LINE
  8
0
  6
LTYPE1
 62
     2
 10
1159.25
 20
533.0
 11
1159.25
 21
517.0
  0
LINE
  8
0
  6
LTYPE1
 62
     2
 10
1137.25
 20
533.0
 11
1159.25
 21
533.0
  0
LINE
  8
0
  6
LTYPE1
 62
     2
 10
1137.25
 20
517.0
 11
1159.25
 21
517.0
  0
LINE
  8
0
  6
CONTINUOUS
 62
     1
 10
1174.25
 20
510.0
 11
1174.25
 21
540.0
  0
LINE
  8
0
  6
CONTINUOUS
 62
     1
 10
1177.25
 20
510.0
 11
1174.25
 21
510.0
  0
LINE
  8
0
  6
CONTINUOUS
 62
     1
 10
1177.25
 20
540.0
 11
1174.25
 21
540.0
  0
LINE
  8
0
  6
LTYPE2
 62
     2
 10
1171.6
 20
520.6
 11
1171.6
 21
529.0
  0
LINE
  8
0
  6
CONTINUOUS
 62
     1
 10
1166.25
 20
533.0
 11
1174.25
 21
533.0
  0
LINE
  8
0
  6
LTYPE1
 62
     2
 10
1189.25
 20
533.0
 11
1174.25
 21
533.0
  0
LINE
  8
0
  6
CONTINUOUS
 62
     1
 10
1166.25
 20
517.0
 11
1174.25
 21
517.0
  0
LINE
  8
0
  6
LTYPE1
 62
     2
 10
1189.25
 20
517.0
 11
1174.25
 21
517.0
  0
LINE
  8
0
  6
CONTINUOUS
 62
     1
 10
1137.25
 20
509.1
 11
1137.25
 21
505.0
  0
LINE
  8
0
  6
CONTINUOUS
 62
     1
 10
1137.25
 20
545.0
 11
1137.25
 21
509.1
  0
LINE
  8
0
  6
LTYPE3
 62
     2
 10
1131.25
 20
525.0
 11
1266.25
 21
525.0
  0
CIRCLE
  8
0
  6
CONTINUOUS
 62
     1
 10
1197.25
 20
525.0
 40
38.0
  0
LINE
  8
0
  6
CONTINUOUS
 62
     1
 10
1137.25
 20
505.0
 11
1169.537187079
 21
499.0
  0
LINE
  8
0
  6
CONTINUOUS
 62
     1
 10
1137.25
 20
545.0
 11
1169.537187079
 21
551.0
  0
LINE
  8
0
  6
CONTINUOUS
 62
     1
 10
1177.25
 20
545.0
 11
1217.25
 21
545.0
  0
LINE
  8
0
  6
CONTINUOUS
 62
     1
 10
1177.25
 20
505.0
 11
1217.25
 21
505.0
  0
LINE
  8
0
  6
CONTINUOUS
 62
     1
 10
1189.25
 20
517.0
 11
1205.25
 21
517.0
  0
LINE
  8
0
  6
CONTINUOUS
 62
     1
 10
1189.25
 20
533.0
 11
1205.25
 21
533.0
  0
CIRCLE
  8
0
  6
CONTINUOUS
 62
     2
 10
1171.6
 20
525.0
 40
2.0
  0
LINE
  8
0
  6
CONTINUOUS
 62
     1
 10
1141.25
 20
464.0
 11
1253.25
 21
464.0
  0
ARC
  8
0
  6
CONTINUOUS
 62
     1
 10
1141.25
 20
469.0
 40
5.0
 50
180.0
 51
270.0
  0
LINE
  8
0
  6
CONTINUOUS
 62
     1
 10
1136.25
 20
581.0
 11
1136.25
 21
469.0
  0
ARC
  8
0
  6
CONTINUOUS
 62
     1
 10
1197.25
 20
525.0
 40
58.0
 50
201.344984712
 51
338.655015288
  0
ARC
  8
0
  6
CONTINUOUS
 62
     1
 10
1197.25
 20
525.0
 40
58.0
 50
140.88325622
 51
158.655015288
  0
LINE
  8
0
  6
LTYPE3
 62
     2
 10
1154.75
 20
474.0
 11
1139.25
 21
474.0
  0
LINE
  8
0
  6
LTYPE3
 62
     2
 10
1146.25
 20
481.5
 11
1146.25
 21
466.5
  0
LINE
  8
7
  6
CONTINUOUS
 62
     2
 10
1137.25
 20
499.0
 11
1137.25
 21
429.0
  0
LINE
  8
7
  6
CONTINUOUS
 62
     2
 10
1137.25
 20
435.0
 11
1146.909258263
 21
432.411809549
  0
LINE
  8
7
  6
CONTINUOUS
 62
     2
 10
1137.25
 20
435.0
 11
1146.909258263
 21
437.588190451
  0
LINE
  8
7
  6
CONTINUOUS
 62
     2
 10
1136.25
 20
463.000007629
 11
1136.25
 21
399.5
  0
LINE
  8
7
  6
CONTINUOUS
 62
     2
 10
1136.25
 20
405.5
 11
1145.909258263
 21
402.911809549
  0
LINE
  8
7
  6
CONTINUOUS
 62
     2
 10
1136.25
 20
405.5
 11
1145.909258263
 21
408.088190451
  0
LINE
  8
7
  6
CONTINUOUS
 62
     2
 10
1136.25
 20
405.5
 11
1258.25
 21
405.5
  0
CIRCLE
  8
0
  6
CONTINUOUS
 62
     1
 10
1197.25
 20
525.0
 40
31.75
  0
LINE
  8
0
  6
LTYPE3
 62
     2
 10
1197.25
 20
659.0
 11
1197.25
 21
455.5
  0
LINE
  8
0
  6
CONTINUOUS
 62
     1
 10
1228.25
 20
533.0
 11
1228.25
 21
517.0
  0
LINE
  8
0
  6
CONTINUOUS
 62
     1
 10
1205.25
 20
545.0
 11
1205.25
 21
505.0
  0
LINE
  8
0
  6
CONTINUOUS
 62
     1
 10
1217.25
 20
545.0
 11
1217.25
 21
505.0
  0
LINE
  8
0
  6
CONTINUOUS
 62
     1
 10
1220.25
 20
540.0
 11
1220.25
 21
510.0
  0
LINE
  8
0
  6
CONTINUOUS
 62
     1
 10
1217.25
 20
540.0
 11
1220.25
 21
540.0
  0
LINE
  8
0
  6
CONTINUOUS
 62
     1
 10
1217.25
 20
510.0
 11
1220.25
 21
510.0
  0
LINE
  8
0
  6
LTYPE2
 62
     2
 10
1222.9
 20
529.4
 11
1222.9
 21
521.0
  0
LINE
  8
0
  6
CONTINUOUS
 62
     1
 10
1228.25
 20
533.0
 11
1220.25
 21
533.0
  0
LINE
  8
0
  6
CONTINUOUS
 62
     1
 10
1228.25
 20
517.0
 11
1220.25
 21
517.0
  0
LINE
  8
0
  6
LTYPE1
 62
     2
 10
1205.25
 20
517.0
 11
1220.25
 21
517.0
  0
LINE
  8
0
  6
LTYPE1
 62
     2
 10
1205.25
 20
533.0
 11
1220.25
 21
533.0
  0
CIRCLE
  8
0
  6
CONTINUOUS
 62
     2
 10
1222.9
 20
525.0
 40
2.0
  0
LINE
  8
0
  6
LTYPE1
 62
     2
 10
1257.25
 20
533.0
 11
1235.25
 21
533.0
  0
LINE
  8
0
  6
LTYPE1
 62
     2
 10
1257.25
 20
517.0
 11
1235.25
 21
517.0
  0
LINE
  8
0
  6
LTYPE1
 62
     2
 10
1235.25
 20
533.0
 11
1235.25
 21
517.0
  0
LINE
  8
0
  6
CONTINUOUS
 62
     1
 10
1257.25
 20
505.0
 11
1224.962812921
 21
499.0
  0
LINE
  8
0
  6
CONTINUOUS
 62
     1
 10
1257.25
 20
545.0
 11
1224.962812921
 21
551.0
  0
LINE
  8
0
  6
CONTINUOUS
 62
     1
 10
1257.25
 20
545.0
 11
1257.25
 21
505.0
  0
LINE
  8
0
  6
LTYPE3
 62
     2
 10
1239.75
 20
474.0
 11
1255.25
 21
474.0
  0
LINE
  8
0
  6
LTYPE3
 62
     2
 10
1248.25
 20
481.5
 11
1248.25
 21
466.5
  0
LINE
  8
0
  6
CONTINUOUS
 62
     1
 10
1258.25
 20
581.0
 11
1258.25
 21
469.0
  0
ARC
  8
0
  6
CONTINUOUS
 62
     1
 10
1253.25
 20
469.0
 40
5.0
 50
270.0
 51
0.0
  0
ARC
  8
0
  6
CONTINUOUS
 62
     1
 10
1197.25
 20
525.0
 40
58.0
 50
21.344984712
 51
39.11674378
  0
LINE
  8
7
  6
CONTINUOUS
 62
     2
 10
1257.25
 20
435.0
 11
1247.590741737
 21
437.588190451
  0
LINE
  8
7
  6
CONTINUOUS
 62
     2
 10
1257.25
 20
435.0
 11
1247.590741737
 21
432.411809549
  0
LINE
  8
7
  6
CONTINUOUS
 62
     2
 10
1257.25
 20
499.0
 11
1257.25
 21
429.0
  0
LINE
  8
7
  6
CONTINUOUS
 62
     2
 10
1258.25
 20
405.5
 11
1248.590741737
 21
408.088190451
  0
LINE
  8
7
  6
CONTINUOUS
 62
     2
 10
1258.25
 20
405.5
 11
1248.590741737
 21
402.911809549
  0
LINE
  8
7
  6
CONTINUOUS
 62
     2
 10
1258.25
 20
463.0
 11
1258.25
 21
399.5
  0
LINE
  8
7
  6
CONTINUOUS
 62
     2
 10
1272.25
 20
525.0
 11
1297.25
 21
525.0
  0
LINE
  8
7
  6
CONTINUOUS
 62
     2
 10
1291.25
 20
525.0
 11
1288.661809549
 21
515.340741737
  0
LINE
  8
7
  6
CONTINUOUS
 62
     2
 10
1291.25
 20
525.0
 11
1293.838190451
 21
515.340741737
  0
LINE
  8
7
  6
CONTINUOUS
 62
     2
 10
1291.25
 20
525.0
 11
1291.25
 21
464.0
  0
LINE
  8
7
  6
CONTINUOUS
 62
     2
 10
1291.25
 20
464.0
 11
1293.838190451
 21
473.659258263
  0
LINE
  8
7
  6
CONTINUOUS
 62
     2
 10
1291.25
 20
464.0
 11
1288.661809549
 21
473.659258263
  0
LINE
  8
7
  6
CONTINUOUS
 62
     2
 10
1259.25
 20
464.0
 11
1297.25
 21
464.0
  0
LINE
  8
7
  6
CONTINUOUS
 62
     2
 10
1291.25
 20
525.0
 11
1293.838190451
 21
534.659258263
  0
LINE
  8
7
  6
CONTINUOUS
 62
     2
 10
1291.25
 20
525.0
 11
1288.661809549
 21
534.659258263
  0
LINE
  8
7
  6
CONTINUOUS
 62
     2
 10
1291.25
 20
525.0
 11
1291.25
 21
650.0
  0
TEXT
  8
7
  6
CONTINUOUS
 62
     2
 10
1179.85
 20
439.0
 30
0.0
 40
15.0
  1
１２０
 50
0.0
 41
0.9
 51
0.0
  7
KANJI27
  0
TEXT
  8
7
  6
CONTINUOUS
 62
     2
 10
1179.85
 20
409.5
 30
0.0
 40
15.0
  1
１２２
 50
0.0
 41
0.9
 51
0.0
  7
KANJI27
  0
TEXT
  8
7
  6
CONTINUOUS
 62
     2
 10
1287.25
 20
483.1
 30
0.0
 40
15.0
  1
６１
 50
90.0
 41
0.9
 51
0.0
  7
KANJI27
  0
LINE
  8
0
  6
LTYPE2
 62
     2
 10
1197.25
 20
611.5
 11
1197.25
 21
581.5
  0
ARC
  8
0
  6
CONTINUOUS
 62
     1
 10
1141.25
 20
581.0
 40
5.0
 50
90.0
 51
180.0
  0
LINE
  8
0
  6
CONTINUOUS
 62
     1
 10
1141.25
 20
586.0
 11
1144.25
 21
586.0
  0
LINE
  8
0
  6
CONTINUOUS
 62
     1
 10
1161.428740284
 20
648.020045888
 11
1155.25
 21
648.020045888
  0
ARC
  8
0
  6
CONTINUOUS
 62
     1
 10
1155.25
 20
646.020045888
 40
2.0
 50
90.0
 51
180.0
  0
ARC
  8
0
  6
CONTINUOUS
 62
     1
 10
1163.25
 20
648.0
 40
2.0
 50
90.0
 51
180.0
  0
ARC
  8
0
  6
CONTINUOUS
 62
     1
 10
1170.642304845
 20
649.0
 40
1.0
 50
0.0
 51
90.0
  0
ARC
  8
0
  6
CONTINUOUS
 62
     1
 10
1172.642304845
 20
649.0
 40
1.0
 50
90.0
 51
180.0
  0
LINE
  8
0
  6
CONTINUOUS
 62
     1
 10
1231.25
 20
650.0
 11
1163.25
 21
650.0
  0
LINE
  8
0
  6
CONTINUOUS
 62
     1
 10
1171.642304845
 20
622.0
 11
1171.642304845
 21
649.0
  0
LINE
  8
0
  6
CONTINUOUS
 62
     1
 10
1161.25
 20
622.0
 11
1161.25
 21
648.0
  0
ARC
  8
0
  6
CONTINUOUS
 62
     1
 10
1253.25
 20
581.0
 40
5.0
 50
0.0
 51
90.0
  0
LINE
  8
0
  6
CONTINUOUS
 62
     1
 10
1250.25
 20
586.0
 11
1253.25
 21
586.0
  0
LINE
  8
7
  6
CONTINUOUS
 62
     2
 10
1291.25
 20
650.0
 11
1288.661809549
 21
640.340741737
  0
LINE
  8
7
  6
CONTINUOUS
 62
     2
 10
1291.25
 20
650.0
 11
1293.838190451
 21
640.340741737
  0
ARC
  8
0
  6
CONTINUOUS
 62
     1
 10
1231.25
 20
648.0
 40
2.0
 50
0.0
 51
90.0
  0
LINE
  8
0
  6
CONTINUOUS
 62
     1
 10
1239.25
 20
648.020045888
 11
1233.25
 21
648.020045888
  0
ARC
  8
0
  6
CONTINUOUS
 62
     1
 10
1239.25
 20
646.020045888
 40
2.0
 50
0.0
 51
90.0
  0
ARC
  8
0
  6
CONTINUOUS
 62
     1
 10
1223.857695155
 20
649.0
 40
1.0
 50
90.0
 51
180.0
  0
ARC
  8
0
  6
CONTINUOUS
 62
     1
 10
1221.857695155
 20
649.0
 40
1.0
 50
0.0
 51
90.0
  0
LINE
  8
0
  6
CONTINUOUS
 62
     1
 10
1233.25
 20
622.0
 11
1233.25
 21
648.0
  0
LINE
  8
0
  6
CONTINUOUS
 62
     1
 10
1222.857695155
 20
622.0
 11
1222.857695155
 21
649.0
  0
LINE
  8
7
  6
CONTINUOUS
 62
     2
 10
1233.25
 20
650.0
 11
1297.25
 21
650.0
  0
TEXT
  8
7
  6
CONTINUOUS
 62
     2
 10
1287.25
 20
570.1
 30
0.0
 40
15.0
  1
１２５
 50
90.0
 41
0.9
 51
0.0
  7
KANJI27
  0
ARC
  8
0
  6
CONTINUOUS
 62
     1
 10
1150.55
 20
621.05
 40
5.0
 50
11.5
 51
87.7
  0
LINE
  8
0
  6
LTYPE5
 62
     2
 10
1150.15
 20
629.45
 11
1150.15
 21
616.05
  0
ARC
  8
0
  6
CONTINUOUS
 62
     1
 10
1243.75
 20
621.05
 40
5.0
 50
92.3
 51
168.5
  0
LINE
  8
0
  6
CONTINUOUS
 62
     1
 10
1153.25
 20
625.25
 11
1153.25
 21
646.020045888
  0
LINE
  8
0
  6
CONTINUOUS
 62
     1
 10
1241.25
 20
624.85
 11
1241.25
 21
646.020045888
  0
LINE
  8
0
  6
LTYPE2
 62
     6
 10
231.696929694
 20
909.6
 11
101.3
 21
909.6
  0
LINE
  8
0
  6
CONTINUOUS
 62
     6
 10
96.27521631
 20
884.894189033
 11
106.480193417
 21
895.09916614
  0
TEXT
  8
0
  6
CONTINUOUS
 62
     6
 10
111.545473047
 20
918.266131352
 30
1.518597784
 40
15.185977837
  1
エコノストップモータ
 50
0.0
 41
0.66671875
 51
0.0
  7
KANJI41
  0
LINE
  8
0
  6
LTYPE2
 62
     6
 10
231.696929694
 20
814.188267891
 11
231.696929694
 21
909.6
  0
CIRCLE
  8
0
  6
CONTINUOUS
 62
     6
 10
146.129006575
 20
864.406529957
 40
18.223173404
  0
TEXT
  8
0
  6
CONTINUOUS
 62
     6
 10
138.475273745
 20
855.659406723
 30
1.82231734
 40
18.223173404
  1
Ｍ
 50
0.0
 41
0.9
 51
0.0
  7
KANJI42
  0
LINE
  8
0
  6
CONTINUOUS
 62
     6
 10
122.074417681
 20
838.894087191
 11
133.372785192
 21
852.014772042
  0
LINE
  8
0
  6
CONTINUOUS
 62
     6
 10
122.074417681
 20
889.918972723
 11
133.372785192
 21
876.798287872
  0
LINE
  8
0
  6
CONTINUOUS
 62
     6
 10
122.074417681
 20
889.918972723
 11
105.673561617
 21
889.918972723
  0
LINE
  8
0
  6
CONTINUOUS
 62
     6
 10
128.270296639
 20
864.406529957
 11
105.673561617
 21
864.406529957
  0
LINE
  8
0
  6
CONTINUOUS
 62
     6
 10
122.074417681
 20
838.894087191
 11
105.673561617
 21
838.894087191
  0
LINE
  8
0
  6
CONTINUOUS
 62
     6
 10
96.27521631
 20
859.381746267
 11
106.480193417
 21
869.586723374
  0
LINE
  8
0
  6
CONTINUOUS
 62
     6
 10
96.27521631
 20
833.869303501
 11
106.480193417
 21
844.074280607
  0
LINE
  8
0
  6
LTYPE2
 62
     6
 10
231.696929694
 20
814.188267891
 11
101.3
 21
814.188267891
  0
TEXT
  8
0
  6
CONTINUOUS
 62
     6
 10
172.053688562
 20
856.151432405
 30
1.457853872
 40
14.578538724
  1
Ｂ
 50
0.0
 41
0.9
 51
0.0
  7
KANJI43
  0
CIRCLE
  8
0
  6
CONTINUOUS
 62
     6
 10
178.614030988
 20
864.406529957
 40
14.578538724
  0
LINE
  8
0
  6
LTYPE2
 62
     6
 10
101.3
 20
909.6
 11
101.3
 21
893.199143936
  0
CIRCLE
  8
0
  6
CONTINUOUS
 62
     6
 10
101.3
 20
889.918972723
 40
4.373561617
  0
CIRCLE
  8
0
  6
CONTINUOUS
 62
     6
 10
101.3
 20
864.406529957
 40
4.373561617
  0
LINE
  8
0
  6
LTYPE2
 62
     6
 10
101.3
 20
885.909874574
 11
101.3
 21
867.68670117
  0
CIRCLE
  8
0
  6
CONTINUOUS
 62
     6
 10
101.3
 20
838.894087191
 40
4.373561617
  0
LINE
  8
0
  6
LTYPE2
 62
     6
 10
101.3
 20
860.397431808
 11
101.3
 21
843.267648808
  0
LINE
  8
0
  6
LTYPE2
 62
     6
 10
101.3
 20
834.520525574
 11
101.3
 21
814.188267891
  0
TEXT
  8
0
  6
CONTINUOUS
 62
     2
 10
106.395393364
 20
788.978904811
 30
0.0
 40
15.6
  1
モーター結線図
 50
0.0
 41
0.925
 51
0.0
  7
KANJI44
  0
TEXT
  8
0
  6
CONTINUOUS
 62
     6
 10
83.765257591
 20
896.114851681
 30
1.093390404
 40
10.933904043
  1
Ｕ
 50
0.0
 41
0.9
 51
0.0
  7
KANJI45
  0
TEXT
  8
0
  6
CONTINUOUS
 62
     6
 10
84.858647995
 20
870.237945446
 30
1.093390404
 40
10.933904043
  1
Ｖ
 50
0.0
 41
0.9
 51
0.0
  7
KANJI45
  0
TEXT
  8
0
  6
CONTINUOUS
 62
     6
 10
85.952038399
 20
844.361039212
 30
1.093390404
 40
10.933904043
  1
Ｗ
 50
0.0
 41
0.9
 51
0.0
  7
KANJI45
  0
ARC
  8
0
  6
CONTINUOUS
 62
     2
 10
167.8
 20
524.7
 40
20.0
 50
231.952957468
 51
156.801409486
  0
TEXT
  8
0
  6
CONTINUOUS
 62
     2
 10
87.4170994
 20
515.578385972
 30
0.0
 40
15.0
  1
前進方向
 50
0.0
 41
0.9
 51
0.0
  7
KANJI27
  0
LINE
  8
0
  6
CONTINUOUS
 62
     2
 10
149.4170994
 20
532.578385972
 11
151.71179211
 21
542.415824749
  0
LINE
  8
0
  6
CONTINUOUS
 62
     2
 10
149.4170994
 20
532.578385972
 11
157.685260778
 21
537.485722507
  0
TEXT
  8
0
  6
CONTINUOUS
 62
     2
 10
295.99
 20
487.12
 30
0.0
 40
15.0
  1
エコノストップモータ
 50
0.0
 41
0.9
 51
0.0
  7
KANJI27
  0
TEXT
  8
0
  6
CONTINUOUS
 62
     2
 10
307.52
 20
505.15
 30
0.0
 40
15.0
  1
日本電産
 50
0.0
 41
0.9
 51
0.0
  7
KANJI27
  0
LINE
  8
0
  6
CONTINUOUS
 62
     1
 10
988.05
 20
514.2
 11
990.05
 21
513.9
  0
LINE
  8
0
  6
CONTINUOUS
 62
     1
 10
990.55
 20
518.6
 11
990.314615385
 21
517.030769231
  0
LINE
  8
0
  6
CONTINUOUS
 62
     1
 10
990.314615385
 20
517.030769231
 11
988.05
 21
514.2
  0
LINE
  8
0
  6
CONTINUOUS
 62
     1
 10
992.25
 20
516.6
 11
990.05
 21
513.9
  0
LINE
  8
0
  6
CONTINUOUS
 62
     1
 10
996.45
 20
514.2
 11
994.45
 21
513.9
  0
LINE
  8
0
  6
CONTINUOUS
 62
     1
 10
993.95
 20
518.6
 11
994.185384615
 21
517.030769231
  0
LINE
  8
0
  6
CONTINUOUS
 62
     1
 10
994.185384615
 20
517.030769231
 11
996.45
 21
514.2
  0
LINE
  8
0
  6
CONTINUOUS
 62
     1
 10
992.25
 20
516.6
 11
994.45
 21
513.9
  0
CIRCLE
  8
0
  6
CONTINUOUS
 62
     1
 10
992.249984741
 20
537.5
 40
3.0
  0
LINE
  8
0
  6
LTYPE2
 62
     6
 10
653.35
 20
1374.2
 11
94.95
 21
1374.2
  0
LINE
  8
0
  6
LTYPE2
 62
     6
 10
653.35
 20
1115.2
 11
653.35
 21
1374.2
  0
LINE
  8
0
  6
LTYPE2
 62
     6
 10
94.95
 20
1115.2
 11
653.35
 21
1115.2
  0
TEXT
  8
0
  6
CONTINUOUS
 62
     6
 10
383.343715102
 20
1329.371931782
 30
0.0
 40
11.8638
  1
ＡＣ１００Ｖ　１２５Ｖ　２５０Ｖ　－１０Ａ
 50
0.0
 41
0.726495726
 51
0.0
  7
KANJI23
  0
LINE
  8
0
  6
CONTINUOUS
 62
     1
 10
350.25
 20
576.0
 11
350.25
 21
533.0
  0
LINE
  8
0
  6
CONTINUOUS
 62
     1
 10
350.25
 20
576.0
 11
420.25
 21
576.0
  0
TEXT
  8
0
  6
CONTINUOUS
 62
     2
 10
361.25
 20
538.0
 30
5.0
 40
20.0
  1
銘板
 50
0.0
 41
0.925
 51
0.0
  7
KANJI46
  0
LINE
  8
0
  6
CONTINUOUS
 62
     1
 10
420.25
 20
576.0
 11
420.25
 21
533.0
  0
LINE
  8
0
  6
CONTINUOUS
 62
     1
 10
350.25
 20
533.0
 11
420.25
 21
533.0
  0
LINE
  8
0
  6
CONTINUOUS
 62
     2
 10
480.0
 20
207.0
 11
487.72740661
 21
204.929447639
  0
LINE
  8
0
  6
CONTINUOUS
 62
     2
 10
480.0
 20
207.0
 11
487.72740661
 21
209.070552361
  0
LINE
  8
0
  6
CONTINUOUS
 62
     2
 10
480.0
 20
207.0
 11
617.6
 21
207.0
  0
LINE
  8
0
  6
CONTINUOUS
 62
     2
 10
617.6
 20
207.0
 11
609.87259339
 21
209.070552361
  0
LINE
  8
0
  6
CONTINUOUS
 62
     2
 10
617.6
 20
207.0
 11
609.87259339
 21
204.929447639
  0
LINE
  8
0
  6
CONTINUOUS
 62
     2
 10
617.6
 20
205.8
 11
617.6
 21
203.0
  0
LINE
  8
0
  6
CONTINUOUS
 62
     2
 10
617.6
 20
207.0
 11
625.32740661
 21
204.929447639
  0
LINE
  8
0
  6
CONTINUOUS
 62
     2
 10
617.6
 20
207.0
 11
625.32740661
 21
209.070552361
  0
LINE
  8
0
  6
CONTINUOUS
 62
     2
 10
617.6
 20
207.0
 11
820.0
 21
207.0
  0
LINE
  8
0
  6
CONTINUOUS
 62
     2
 10
820.0
 20
207.0
 11
812.27259339
 21
209.070552361
  0
LINE
  8
0
  6
CONTINUOUS
 62
     2
 10
820.0
 20
207.0
 11
812.27259339
 21
204.929447639
  0
LINE
  8
0
  6
CONTINUOUS
 62
     2
 10
617.6
 20
180.670552361
 11
609.87259339
 21
182.741104722
  0
LINE
  8
0
  6
CONTINUOUS
 62
     2
 10
617.6
 20
180.670552361
 11
609.87259339
 21
178.6
  0
LINE
  8
0
  6
CONTINUOUS
 62
     2
 10
605.6
 20
180.670552361
 11
617.6
 21
180.670552361
  0
LINE
  8
0
  6
CONTINUOUS
 62
     2
 10
617.6
 20
180.670552361
 11
638.4
 21
180.670552361
  0
LINE
  8
0
  6
CONTINUOUS
 62
     2
 10
638.4
 20
180.670552361
 11
646.12740661
 21
178.6
  0
LINE
  8
0
  6
CONTINUOUS
 62
     2
 10
638.4
 20
180.670552361
 11
646.12740661
 21
182.741104722
  0
LINE
  8
0
  6
CONTINUOUS
 62
     2
 10
480.0
 20
155.4
 11
480.0
 21
149.4
  0
LINE
  8
0
  6
CONTINUOUS
 62
     2
 10
480.0
 20
153.4
 11
487.72740661
 21
151.329447639
  0
LINE
  8
0
  6
CONTINUOUS
 62
     2
 10
480.0
 20
153.4
 11
487.72740661
 21
155.470552361
  0
LINE
  8
0
  6
CONTINUOUS
 62
     2
 10
480.0
 20
153.4
 11
638.4
 21
153.4
  0
LINE
  8
0
  6
CONTINUOUS
 62
     2
 10
638.4
 20
153.4
 11
630.67259339
 21
155.470552361
  0
LINE
  8
0
  6
CONTINUOUS
 62
     2
 10
638.4
 20
153.4
 11
630.67259339
 21
151.329447639
  0
LINE
  8
0
  6
CONTINUOUS
 62
     2
 10
638.4
 20
154.6
 11
638.4
 21
149.4
  0
LINE
  8
0
  6
CONTINUOUS
 62
     2
 10
638.4
 20
153.4
 11
646.12740661
 21
151.329447639
  0
LINE
  8
0
  6
CONTINUOUS
 62
     2
 10
638.4
 20
153.4
 11
646.12740661
 21
155.470552361
  0
LINE
  8
0
  6
CONTINUOUS
 62
     2
 10
820.0
 20
149.8
 11
820.0
 21
149.4
  0
LINE
  8
0
  6
CONTINUOUS
 62
     2
 10
480.0
 20
124.2
 11
487.72740661
 21
122.129447639
  0
LINE
  8
0
  6
CONTINUOUS
 62
     2
 10
480.0
 20
124.2
 11
487.72740661
 21
126.270552361
  0
LINE
  8
0
  6
CONTINUOUS
 62
     2
 10
480.0
 20
124.2
 11
797.6
 21
124.2
  0
LINE
  8
0
  6
CONTINUOUS
 62
     2
 10
797.6
 20
124.2
 11
789.87259339
 21
126.270552361
  0
LINE
  8
0
  6
CONTINUOUS
 62
     2
 10
797.6
 20
124.2
 11
789.87259339
 21
122.129447639
  0
LINE
  8
0
  6
CONTINUOUS
 62
     2
 10
797.6
 20
125.0
 11
797.6
 21
120.2
  0
LINE
  8
0
  6
CONTINUOUS
 62
     2
 10
797.6
 20
124.2
 11
789.87259339
 21
126.270552361
  0
LINE
  8
0
  6
CONTINUOUS
 62
     2
 10
797.6
 20
124.2
 11
789.87259339
 21
122.129447639
  0
LINE
  8
0
  6
CONTINUOUS
 62
     2
 10
785.6
 20
124.2
 11
797.6
 21
124.2
  0
LINE
  8
0
  6
CONTINUOUS
 62
     2
 10
797.6
 20
124.2
 11
820.0
 21
124.2
  0
LINE
  8
0
  6
CONTINUOUS
 62
     2
 10
820.0
 20
124.2
 11
827.72740661
 21
122.129447639
  0
LINE
  8
0
  6
CONTINUOUS
 62
     2
 10
820.0
 20
124.2
 11
827.72740661
 21
126.270552361
  0
LINE
  8
0
  6
CONTINUOUS
 62
     2
 10
480.0
 20
217.8
 11
480.0
 21
203.0
  0
LINE
  8
0
  6
CONTINUOUS
 62
     2
 10
820.0
 20
217.8
 11
820.0
 21
203.0
  0
LINE
  8
0
  6
CONTINUOUS
 62
     2
 10
617.6
 20
206.6
 11
617.6
 21
217.8
  0
LINE
  8
0
  6
CONTINUOUS
 62
     2
 10
638.4
 20
193.470552361
 11
638.4
 21
176.670552361
  0
LINE
  8
0
  6
CONTINUOUS
 62
     2
 10
480.0
 20
203.0
 11
480.0
 21
111.0
  0
LINE
  8
0
  6
CONTINUOUS
 62
     2
 10
820.0
 20
207.0
 11
820.0
 21
112.2
  0
LINE
  8
0
  6
CONTINUOUS
 62
     2
 10
638.4
 20
180.670552361
 11
638.4
 21
144.2
  0
LINE
  8
0
  6
CONTINUOUS
 62
     2
 10
617.6
 20
207.0
 11
617.6
 21
171.4
  0
TEXT
  8
0
  6
CONTINUOUS
 62
     3
 10
521.8
 20
209.0
 30
0.0
 40
15.0
  1
ｍｉｎ．Ｌ
 50
0.0
 41
0.9
 51
0.0
  7
KANJI27
  0
TEXT
  8
0
  6
CONTINUOUS
 62
     3
 10
675.6
 20
209.0
 30
0.0
 40
15.0
  1
機械的ストローク
 50
0.0
 41
0.9
 51
0.0
  7
KANJI27
  0
TEXT
  8
0
  6
CONTINUOUS
 62
     3
 10
650.4
 20
182.670552361
 30
0.0
 40
15.0
  1
余裕
 50
0.0
 41
0.9
 51
0.0
  7
KANJI27
  0
TEXT
  8
0
  6
CONTINUOUS
 62
     3
 10
532.2
 20
155.4
 30
0.0
 40
15.0
  1
常用ｍｉｎ
 50
0.0
 41
0.9
 51
0.0
  7
KANJI27
  0
TEXT
  8
0
  6
CONTINUOUS
 62
     3
 10
691.4
 20
155.4
 30
0.0
 40
15.0
  1
常用ストローク
 50
0.0
 41
0.9
 51
0.0
  7
KANJI27
  0
TEXT
  8
0
  6
CONTINUOUS
 62
     3
 10
611.8
 20
126.2
 30
0.0
 40
15.0
  1
常用ｍａｘ
 50
0.0
 41
0.9
 51
0.0
  7
KANJI27
  0
TEXT
  8
0
  6
CONTINUOUS
 62
     3
 10
832.0
 20
126.2
 30
0.0
 40
15.0
  1
余裕
 50
0.0
 41
0.9
 51
0.0
  7
KANJI27
  0
LINE
  8
0
  6
CONTINUOUS
 62
     2
 10
638.4
 20
180.670552361
 11
678.5
 21
180.670552361
  0
LINE
  8
0
  6
CONTINUOUS
 62
     2
 10
820.0
 20
124.2
 11
862.5
 21
124.2
  0
TEXT
  8
0
  6
CONTINUOUS
 62
     2
 10
556.9
 20
820.7
 30
0.0
 40
15.0
  1
推力リミッタの作動値は、約１１０ｋｇ（設計値）
 50
0.0
 41
0.9
 51
0.0
  7
KANJI27
  0
LINE
  8
0
  6
CONTINUOUS
 62
     2
 10
557.5
 20
816.5
 11
861.0
 21
816.5
  0
TEXT
  8
0
  6
CONTINUOUS
 62
     2
 10
1261.25
 20
439.0
 30
0.0
 40
15.0
  1
トラニオン幅
 50
0.0
 41
0.9
 51
0.0
  7
KANJI27
  0
LINE
  8
7
  6
CONTINUOUS
 62
     2
 10
1257.25
 20
435.0
 11
1348.25
 21
435.0
  0
LINE
  8
7
  6
CONTINUOUS
 62
     2
 10
1137.25
 20
435.0
 11
1257.25
 21
435.0
  0
LINE
  8
0
  6
CONTINUOUS
 62
     1
 10
852.25
 20
986.95
 11
1500.25
 21
986.95
  0
LINE
  8
0
  6
CONTINUOUS
 62
     1
 10
852.25
 20
1238.95
 11
852.25
 21
986.95
  0
LINE
  8
0
  6
CONTINUOUS
 62
     1
 10
1020.25
 20
1238.95
 11
1020.25
 21
986.95
  0
LINE
  8
0
  6
CONTINUOUS
 62
     2
 10
1100.25
 20
1238.95
 11
1100.25
 21
986.95
  0
LINE
  8
0
  6
CONTINUOUS
 62
     2
 10
1180.25
 20
1238.95
 11
1180.25
 21
986.95
  0
LINE
  8
0
  6
CONTINUOUS
 62
     2
 10
1260.25
 20
1238.95
 11
1260.25
 21
986.95
  0
LINE
  8
0
  6
CONTINUOUS
 62
     2
 10
1340.25
 20
1238.95
 11
1340.25
 21
986.95
  0
LINE
  8
0
  6
CONTINUOUS
 62
     2
 10
1420.25
 20
1238.95
 11
1420.25
 21
986.95
  0
LINE
  8
0
  6
CONTINUOUS
 62
     1
 10
1500.25
 20
1238.95
 11
1500.25
 21
986.95
  0
LINE
  8
0
  6
CONTINUOUS
 62
     2
 10
797.6
 20
166.0
 11
797.6
 21
111.4
  0
LINE
  8
0
  6
CONTINUOUS
 62
     2
 10
797.6
 20
153.4
 11
789.87259339
 21
155.470552361
  0
LINE
  8
0
  6
CONTINUOUS
 62
     2
 10
797.6
 20
153.4
 11
789.87259339
 21
151.329447639
  0
LINE
  8
0
  6
CONTINUOUS
 62
     2
 10
638.4
 20
153.4
 11
797.6
 21
153.4
  0
LINE
  8
0
  6
CONTINUOUS
 62
     1
 10
1144.25
 20
622.0
 11
1144.25
 21
574.5
  0
LINE
  8
0
  6
CONTINUOUS
 62
     1
 10
1250.25
 20
622.0
 11
1144.25
 21
622.0
  0
LINE
  8
0
  6
CONTINUOUS
 62
     1
 10
1250.25
 20
614.5
 11
1144.25
 21
614.5
  0
LINE
  8
0
  6
CONTINUOUS
 62
     1
 10
1250.25
 20
616.0
 11
1144.25
 21
616.0
  0
LINE
  8
0
  6
CONTINUOUS
 62
     1
 10
1144.85
 20
622.05
 11
1155.45
 21
622.05
  0
ARC
  8
0
  6
CONTINUOUS
 62
     1
 10
1149.75
 20
621.05
 40
5.0
 50
92.3
 51
168.5
  0
LINE
  8
0
  6
CONTINUOUS
 62
     1
 10
1149.55
 20
626.05
 11
1150.75
 21
626.05
  0
LINE
  8
0
  6
CONTINUOUS
 62
     1
 10
1250.25
 20
622.0
 11
1250.25
 21
574.5
  0
LINE
  8
0
  6
CONTINUOUS
 62
     1
 10
1238.85
 20
622.05
 11
1249.45
 21
622.05
  0
ARC
  8
0
  6
CONTINUOUS
 62
     1
 10
1244.55
 20
621.05
 40
5.0
 50
11.5
 51
87.7
  0
LINE
  8
0
  6
CONTINUOUS
 62
     1
 10
1243.55
 20
626.05
 11
1244.75
 21
626.05
  0
LINE
  8
0
  6
LTYPE5
 62
     2
 10
1244.15
 20
629.45
 11
1244.15
 21
616.05
  0
ARC
  8
0
  6
CONTINUOUS
 62
     1
 10
1247.25
 20
574.5
 40
3.0
 50
270.0
 51
0.0
  0
LINE
  8
0
  6
CONTINUOUS
 62
     1
 10
1152.25
 20
570.0
 11
1242.25
 21
570.0
  0
LINE
  8
0
  6
CONTINUOUS
 62
     1
 10
1247.25
 20
571.5
 11
1147.25
 21
571.5
  0
ARC
  8
0
  6
CONTINUOUS
 62
     1
 10
1147.25
 20
574.5
 40
3.0
 50
180.0
 51
270.0
  0
LINE
  8
0
  6
CONTINUOUS
 62
     1
 10
1152.25
 20
571.5
 11
1152.25
 21
547.787483461
  0
LINE
  8
0
  6
CONTINUOUS
 62
     1
 10
1242.25
 20
571.5
 11
1242.25
 21
547.787483461
  0
LINE
  8
0
  6
LTYPE2
 62
     2
 10
1213.25
 20
597.5
 11
1182.25
 21
597.5
  0
CIRCLE
  8
0
  6
LTYPE1
 62
     2
 10
1197.25
 20
597.5
 40
11.0
  0
TEXT
  8
2
  6
CONTINUOUS
 62
     3
 10
137.45
 20
446.0
 30
0.0
 40
15.0
  1
手動軸□１０
 50
0.0
 41
0.9
 51
0.0
  7
KANJI27
  0
TEXT
  8
0
  6
CONTINUOUS
 62
     2
 10
987.45
 20
786.5
 30
0.0
 40
15.0
  1
１８
 50
0.0
 41
0.9
 51
0.0
  7
KANJI27
  0
LINE
  8
7
  6
CONTINUOUS
 62
     2
 10
992.25
 20
564.500007629
 11
992.25
 21
784.5
  0
LINE
  8
0
  6
CONTINUOUS
 62
     2
 10
1010.25
 20
547.5
 11
1010.25
 21
784.088190451
  0
TEXT
  8
0
  6
CONTINUOUS
 62
     2
 10
1375.9166945
 20
101.999995
 30
1.5
 40
17.5
  1
０７．０９．２６
 50
0.0
 41
0.571428571
 51
0.0
  7
KANJI47
  0
TEXT
  8
0
  6
CONTINUOUS
 62
     2
 10
1606.25
 20
1277.5
 30
138.5
 40
17.5
  1
形式
 50
0.0
 41
0.9
 51
0.0
  7
KANJI48
  0
TEXT
  8
0
  6
CONTINUOUS
 62
     2
 10
1606.25
 20
1242.5
 30
138.5
 40
17.5
  1
推力
 50
0.0
 41
0.9
 51
0.0
  7
KANJI48
  0
TEXT
  8
0
  6
CONTINUOUS
 62
     2
 10
1606.25
 20
1102.5
 30
138.5
 40
17.5
  1
構造
 50
0.0
 41
0.9
 51
0.0
  7
KANJI48
  0
TEXT
  8
0
  6
CONTINUOUS
 62
     2
 10
1606.25
 20
682.5
 30
138.5
 40
17.5
  1
台数
 50
0.0
 41
0.9
 51
0.0
  7
KANJI48
  0
TEXT
  8
0
  6
CONTINUOUS
 62
     2
 10
1606.25
 20
717.5
 30
61.375
 40
17.5
  1
付属品
 50
0.0
 41
0.9
 51
0.0
  7
KANJI49
  0
TEXT
  8
0
  6
CONTINUOUS
 62
     2
 10
1606.25
 20
1032.5
 30
61.375
 40
17.5
  1
塗装色
 50
0.0
 41
0.9
 51
0.0
  7
KANJI49
  0
TEXT
  8
0
  6
CONTINUOUS
 62
     2
 10
1606.25
 20
1207.5
 30
22.8125
 40
17.5
  1
ストローク
 50
0.0
 41
0.9
 51
0.0
  7
KANJI50
  0
TEXT
  8
0
  6
CONTINUOUS
 62
     2
 10
1606.25
 20
1067.5
 30
9.958
 40
17.5
  1
過負荷安全装置
 50
0.0
 41
0.9
 51
0.0
  7
KANJI51
  0
TEXT
  8
0
  6
CONTINUOUS
 62
     2
 10
1631.25
 20
1317.0
 30
14.2497
 40
22.5
  1
マイティシリンダ仕様
 50
0.0
 41
0.9
 51
0.0
  7
KANJI52
  0
TEXT
  8
0
  6
CONTINUOUS
 62
     2
 10
1631.25
 20
997.5
 30
15.3125
 40
17.5
  1
出力　極数
 50
0.0
 41
0.9
 51
0.0
  7
KANJI53
  0
TEXT
  8
0
  6
CONTINUOUS
 62
     2
 10
1631.25
 20
962.5
 30
25.6665
 40
17.5
  1
電源電圧
 50
0.0
 41
0.9
 51
0.0
  7
KANJI54
  0
TEXT
  8
0
  6
CONTINUOUS
 62
     2
 10
1631.25
 20
927.5
 30
46.375
 40
17.5
  1
周波数
 50
0.0
 41
0.9
 51
0.0
  7
KANJI55
  0
TEXT
  8
0
  6
CONTINUOUS
 62
     2
 10
1631.25
 20
857.5
 30
46.375
 40
17.5
  1
絶縁級
 50
0.0
 41
0.9
 51
0.0
  7
KANJI55
  0
TEXT
  8
0
  6
CONTINUOUS
 62
     2
 10
1631.25
 20
892.5
 30
108.5
 40
17.5
  1
電流
 50
0.0
 41
0.9
 51
0.0
  7
KANJI56
  0
TEXT
  8
0
  6
CONTINUOUS
 62
     2
 10
1631.25
 20
787.5
 30
108.5
 40
17.5
  1
形式
 50
0.0
 41
0.9
 51
0.0
  7
KANJI56
  0
TEXT
  8
0
  6
CONTINUOUS
 62
     2
 10
1631.25
 20
752.5
 30
25.6665
 40
17.5
  1
操作方式
 50
0.0
 41
0.9
 51
0.0
  7
KANJI54
  0
TEXT
  8
0
  6
CONTINUOUS
 62
     2
 10
1591.25
 20
1137.5
 30
1.5
 40
17.5
  1
ピストンロッド回転トルク
 50
0.0
 41
0.9
 51
0.0
  7
KANJI57
  0
TEXT
  8
0
  6
CONTINUOUS
 62
     2
 10
1589.125
 20
1001.0
 30
11.0
 40
17.5
  1
モ　トル仕様
 50
0.0
 41
0.9
 51
0.0
  7
KANJI58
  0
TEXT
  8
0
  6
CONTINUOUS
 62
     2
 10
1588.0
 20
811.0
 30
0.857142857
 40
15.0
  1
ブレ　キ
 50
0.0
 41
0.9
 51
0.0
  7
KANJI59
  0
LINE
  8
0
  6
CONTINUOUS
 62
     2
 10
1587.75
 20
776.5
 11
1587.75
 21
766.0
  0
LINE
  8
0
  6
CONTINUOUS
 62
     2
 10
1587.75
 20
973.0
 11
1587.75
 21
961.5
  0
TEXT
  8
0
  6
CONTINUOUS
 62
     2
 10
1943.75
 20
1176.0
 30
0.1
 40
12.5
  1
ｍｍ／ｓｅｃ
 50
0.0
 41
0.8
 51
0.0
  7
KANJI60
  0
TEXT
  8
0
  6
CONTINUOUS
 62
     2
 10
1981.25
 20
1209.5
 30
0.1
 40
12.5
  1
ｍｍ
 50
0.0
 41
0.8
 51
0.0
  7
KANJI60
  0
TEXT
  8
0
  6
CONTINUOUS
 62
     2
 10
1855.75
 20
1067.5
 30
7.1
 40
17.5
  1
推力リミッタ
 50
0.0
 41
0.9
 51
0.0
  7
KANJI61
  0
TEXT
  8
0
  6
CONTINUOUS
 62
     2
 10
1988.25
 20
997.5
 30
10.982142857
 40
15.0
  1
Ｐ
 50
0.0
 41
0.9
 51
0.0
  7
KANJI62
  0
TEXT
  8
0
  6
CONTINUOUS
 62
     2
 10
1905.25
 20
997.5
 30
1.0
 40
15.0
  1
ＫＷ
 50
0.0
 41
0.857142857
 51
0.0
  7
KANJI63
  0
TEXT
  8
0
  6
CONTINUOUS
 62
     2
 10
1963.25
 20
997.5
 30
12.8125
 40
17.5
  1
４
 50
0.0
 41
0.9
 51
0.0
  7
KANJI64
  0
TEXT
  8
0
  6
CONTINUOUS
 62
     2
 10
1827.75
 20
1034.0
 30
0.5
 40
14.0
  1
マンセル
 50
0.0
 41
0.9
 51
0.0
  7
KANJI65
  0
TEXT
  8
0
  6
CONTINUOUS
 62
     2
 10
1886.25
 20
1035.0
 30
0.2
 40
14.0
  1
７．５ＧＹ５／４．５
 50
0.0
 41
0.785714286
 51
0.0
  7
KANJI66
  0
TEXT
  8
0
  6
CONTINUOUS
 62
     2
 10
1823.75
 20
788.0
 30
1.5
 40
14.0
  1
スプリング制動式電磁ブレーキ
 50
0.0
 41
0.8
 51
0.0
  7
KANJI67
  0
TEXT
  8
0
  6
CONTINUOUS
 62
     2
 10
1858.75
 20
752.5
 30
10.0
 40
17.5
  1
同時切り
 50
0.0
 41
0.9
 51
0.0
  7
KANJI68
  0
TEXT
  8
0
  6
CONTINUOUS
 62
     2
 10
1988.75
 20
962.5
 30
0.18
 40
15.0
  1
Ｖ
 50
0.0
 41
0.8
 51
0.0
  7
KANJI69
  0
TEXT
  8
0
  6
CONTINUOUS
 62
     2
 10
1979.75
 20
927.5
 30
0.18
 40
15.0
  1
Ｈｚ
 50
0.0
 41
0.8
 51
0.0
  7
KANJI69
  0
TEXT
  8
0
  6
CONTINUOUS
 62
     2
 10
1989.875
 20
893.625
 30
1.5
 40
15.0
  1
Ａ
 50
0.0
 41
0.9
 51
0.0
  7
KANJI70
  0
TEXT
  8
0
  6
CONTINUOUS
 62
     2
 10
1911.125
 20
859.875
 30
1.5
 40
15.0
  1
Ｅ
 50
0.0
 41
0.9
 51
0.0
  7
KANJI70
  0
LINE
  8
0
  6
CONTINUOUS
 62
     2
 10
1568.75
 20
743.5
 11
2006.25
 21
743.5
  0
LINE
  8
0
  6
CONTINUOUS
 62
     2
 10
1568.75
 20
1023.5
 11
2006.25
 21
1023.5
  0
LINE
  8
0
  6
CONTINUOUS
 62
     2
 10
1568.75
 20
813.5
 11
2006.25
 21
813.5
  0
LINE
  8
0
  6
CONTINUOUS
 62
     2
 10
1608.75
 20
778.5
 11
2006.25
 21
778.5
  0
LINE
  8
0
  6
CONTINUOUS
 62
     2
 10
1608.75
 20
848.5
 11
2006.25
 21
848.5
  0
LINE
  8
0
  6
CONTINUOUS
 62
     2
 10
1608.75
 20
883.5
 11
2006.25
 21
883.5
  0
LINE
  8
0
  6
CONTINUOUS
 62
     2
 10
1608.75
 20
953.5
 11
2006.25
 21
953.5
  0
LINE
  8
0
  6
CONTINUOUS
 62
     2
 10
1608.75
 20
918.5
 11
2006.25
 21
918.5
  0
LINE
  8
0
  6
CONTINUOUS
 62
     2
 10
1608.75
 20
988.5
 11
2006.25
 21
988.5
  0
LINE
  8
0
  6
CONTINUOUS
 62
     2
 10
1568.75
 20
1303.5
 11
2006.25
 21
1303.5
  0
LINE
  8
0
  6
CONTINUOUS
 62
     2
 10
1568.75
 20
1268.5
 11
2006.25
 21
1268.5
  0
LINE
  8
0
  6
CONTINUOUS
 62
     2
 10
1568.75
 20
1233.5
 11
2006.25
 21
1233.5
  0
LINE
  8
0
  6
CONTINUOUS
 62
     2
 10
1568.75
 20
1198.5
 11
2006.25
 21
1198.5
  0
LINE
  8
0
  6
CONTINUOUS
 62
     2
 10
1568.75
 20
1163.5
 11
2006.25
 21
1163.5
  0
LINE
  8
0
  6
CONTINUOUS
 62
     2
 10
1568.75
 20
1128.5
 11
2006.25
 21
1128.5
  0
LINE
  8
0
  6
CONTINUOUS
 62
     2
 10
1568.75
 20
1093.5
 11
2006.25
 21
1093.5
  0
LINE
  8
0
  6
CONTINUOUS
 62
     2
 10
1568.75
 20
1058.5
 11
2006.25
 21
1058.5
  0
LINE
  8
0
  6
CONTINUOUS
 62
     2
 10
1608.75
 20
1023.5
 11
1608.75
 21
743.5
  0
LINE
  8
0
  6
CONTINUOUS
 62
     1
 10
1568.75
 20
1353.5
 11
2006.25
 21
1353.5
  0
LINE
  8
0
  6
CONTINUOUS
 62
     2
 10
1568.75
 20
708.5
 11
2006.25
 21
708.5
  0
TEXT
  8
0
  6
CONTINUOUS
 62
     2
 10
1866.75
 20
963.0
 30
1.5
 40
15.0
  1
　　　／　
 50
0.0
 41
0.9
 51
0.0
  7
KANJI70
  0
TEXT
  8
0
  6
CONTINUOUS
 62
     2
 10
1881.125
 20
927.375
 30
1.5
 40
15.0
  1
　５０／６０
 50
0.0
 41
0.9
 51
0.0
  7
KANJI70
  0
TEXT
  8
0
  6
CONTINUOUS
 62
     2
 10
1847.375
 20
998.625
 30
1.5
 40
15.0
  1
０．３
 50
0.0
 41
0.9
 51
0.0
  7
KANJI70
  0
TEXT
  8
0
  6
CONTINUOUS
 62
     2
 10
1848.25
 20
1242.5
 30
1.5
 40
15.0
  1
９８０Ｎ（１００ｋｇ）
 50
0.0
 41
0.9
 51
0.0
  7
KANJI70
  0
TEXT
  8
0
  6
CONTINUOUS
 62
     2
 10
1606.25
 20
1172.5
 30
5.0
 40
17.5
  1
公称速度（５０／６０Ｈｚ）
 50
0.0
 41
0.9
 51
0.0
  7
KANJI71
  0
TEXT
  8
0
  6
CONTINUOUS
 62
     2
 10
1855.75
 20
1103.0
 30
12.8125
 40
17.5
  1
全閉屋内形
 50
0.0
 41
0.9
 51
0.0
  7
KANJI64
  0
TEXT
  8
0
  6
CONTINUOUS
 62
     2
 10
1836.125
 20
1172.375
 30
1.5
 40
15.0
  1
　７５／９０
 50
0.0
 41
0.9
 51
0.0
  7
KANJI70
  0
TEXT
  8
0
  6
CONTINUOUS
 62
     2
 10
1826.875
 20
1137.375
 30
0.0
 40
15.0
  1
２．９Ｎ・ｍ（０．３ｋｇ・ｍ）
 50
0.0
 41
0.833333333
 51
0.0
  7
KANJI72
  0
TEXT
  8
0
  6
CONTINUOUS
 62
     2
 10
1606.25
 20
682.5
 30
138.5
 40
17.5
  1
台数
 50
0.0
 41
0.9
 51
0.0
  7
KANJI48
  0
LINE
  8
0
  6
CONTINUOUS
 62
     1
 10
1568.75
 20
638.5
 11
2006.25
 21
638.5
  0
LINE
  8
0
  6
CONTINUOUS
 62
     2
 10
1568.75
 20
673.5
 11
2006.25
 21
673.5
  0
TEXT
  8
0
  6
CONTINUOUS
 62
     2
 10
1606.25
 20
647.5
 30
5.0
 40
17.5
  1
概算重量（１台当り）
 50
0.0
 41
0.857142857
 51
0.0
  7
KANJI14
  0
TEXT
  8
0
  6
CONTINUOUS
 62
     2
 10
1960.25
 20
648.65
 30
0.0
 40
17.5
  1
ｋｇ
 50
0.0
 41
0.9
 51
0.0
  7
KANJI73
  0
LINE
  8
0
  6
CONTINUOUS
 62
     2
 10
1818.75
 20
1303.5
 11
1818.75
 21
638.5
  0
LINE
  8
0
  6
CONTINUOUS
 62
     1
 10
1568.75
 20
1353.5
 11
1568.75
 21
638.5
  0
TEXT
  8
0
  6
CONTINUOUS
 62
     2
 10
1824.75
 20
1276.625
 30
1.0
 40
15.0
  1
ＭＣＥＬＢＢ０１－　　
 50
0.0
 41
0.833333333
 51
0.0
  7
KANJI74
  0
TEXT
  8
0
  6
CONTINUOUS
 62
     2
 10
1553.75
 20
206.0
 30
0.0
 40
17.5
  1
ＭＣＥＬＢＢ０１
 50
0.0
 41
0.793650794
 51
0.0
  7
KANJI75
  0
TEXT
  8
0
  6
CONTINUOUS
 62
     2
 10
865.25
 20
1189.35
 30
0.8
 40
12.0
  1
ＭＣＥＬＢＢ０１－　　１
 50
0.0
 41
0.833333333
 51
0.0
  7
KANJI76
  0
TEXT
  8
0
  6
CONTINUOUS
 62
     2
 10
865.25
 20
1161.35
 30
0.8
 40
12.0
  1
ＭＣＥＬＢＢ０１－　　２
 50
0.0
 41
0.833333333
 51
0.0
  7
KANJI76
  0
TEXT
  8
0
  6
CONTINUOUS
 62
     2
 10
865.25
 20
1133.35
 30
0.8
 40
12.0
  1
ＭＣＥＬＢＢ０１－　　３
 50
0.0
 41
0.833333333
 51
0.0
  7
KANJI76
  0
TEXT
  8
0
  6
CONTINUOUS
 62
     2
 10
865.25
 20
1105.35
 30
0.8
 40
12.0
  1
ＭＣＥＬＢＢ０１－　　４
 50
0.0
 41
0.833333333
 51
0.0
  7
KANJI76
  0
TEXT
  8
0
  6
CONTINUOUS
 62
     2
 10
865.25
 20
1077.35
 30
0.8
 40
12.0
  1
ＭＣＥＬＢＢ０１－　　５
 50
0.0
 41
0.833333333
 51
0.0
  7
KANJI76
  0
TEXT
  8
0
  6
CONTINUOUS
 62
     2
 10
865.25
 20
1049.35
 30
0.8
 40
12.0
  1
ＭＣＥＬＢＢ０１－　　６
 50
0.0
 41
0.833333333
 51
0.0
  7
KANJI76
  0
TEXT
  8
0
  6
CONTINUOUS
 62
     2
 10
865.25
 20
1021.35
 30
0.8
 40
12.0
  1
ＭＣＥＬＢＢ０１－　　７
 50
0.0
 41
0.833333333
 51
0.0
  7
KANJI76
  0
TEXT
  8
0
  6
CONTINUOUS
 62
     2
 10
865.25
 20
993.35
 30
0.8
 40
12.0
  1
ＭＣＥＬＢＢ０１－　　
 50
0.0
 41
0.833333333
 51
0.0
  7
KANJI76
  0
TEXT
  8
0
  6
CONTINUOUS
 62
     2
 10
1905.916675
 20
127.41666125
 30
0.0
 40
15.0
  1
１
 50
0.0
 41
0.9
 51
0.0
  7
KANJI27
  0
POLYLINE
  8
0
  6
CONTINUOUS
 62
     4
 66
     1
  0
VERTEX
  8
0
  6
CONTINUOUS
 62
     4
 10
1010.66674325
 20
123.1666615
  0
VERTEX
  8
0
  6
CONTINUOUS
 62
     4
 10
996.583411
 20
101.4999965
  0
VERTEX
  8
0
  6
CONTINUOUS
 62
     4
 10
1024.7500755
 20
101.4999965
  0
SEQEND
  0
LINE
  8
0
  6
CONTINUOUS
 62
     4
 10
1010.66674325
 20
123.1666615
 11
1024.7500755
 21
101.4999965
  0
TEXT
  8
0
  6
CONTINUOUS
 62
     2
 10
1003.0834085
 20
101.999997
 30
0.0
 40
15.0
  1
１
 50
0.0
 41
0.9
 51
0.0
  7
KANJI27
  0
TEXT
  8
0
  6
CONTINUOUS
 62
     2
 10
1031.0834085
 20
100.999997
 30
0.0
 40
15.0
  1
０８．０８．０６　岡田　形式変更
 50
0.0
 41
0.9
 51
0.0
  7
KANJI27
  0
TEXT
  8
0
  6
CONTINUOUS
 62
     2
 10
1390.4166945
 20
207.166659
 30
5.0
 40
17.5
  1
田口
 50
0.0
 41
0.857142857
 51
0.0
  7
KANJI14
  0
TEXT
  8
0
  6
CONTINUOUS
 62
     2
 10
1390.4166945
 20
173.166659
 30
5.0
 40
17.5
  1
竹下
 50
0.0
 41
0.857142857
 51
0.0
  7
KANJI14
  0
LINE
  8
0
  6
CONTINUOUS
 62
     2
 10
1671.7500395
 20
204.999989
 11
1680.410293538
 21
219.999989
  0
LINE
  8
0
  6
CONTINUOUS
 62
     2
 10
1680.410293538
 20
219.999989
 11
1689.070547576
 21
204.999989
  0
LINE
  8
0
  6
CONTINUOUS
 62
     2
 10
1689.070547576
 20
204.999989
 11
1671.7500395
 21
204.999989
  0
TEXT
  8
0
  6
CONTINUOUS
 62
     2
 10
1676.874759632
 20
206.464455094
 30
0.0
 40
7.071067812
  1
１
 50
0.0
 41
1.0
 51
0.0
  7
KANJI77
  0
LINE
  8
0
  6
CONTINUOUS
 62
     2
 10
2011.7500395
 20
1274.999989
 11
2020.410293538
 21
1289.999989
  0
LINE
  8
0
  6
CONTINUOUS
 62
     2
 10
2020.410293538
 20
1289.999989
 11
2029.070547576
 21
1274.999989
  0
LINE
  8
0
  6
CONTINUOUS
 62
     2
 10
2029.070547576
 20
1274.999989
 11
2011.7500395
 21
1274.999989
  0
TEXT
  8
0
  6
CONTINUOUS
 62
     2
 10
2016.874759632
 20
1276.464455094
 30
0.0
 40
7.071067812
  1
１
 50
0.0
 41
1.0
 51
0.0
  7
KANJI77
  0
LINE
  8
0
  6
CONTINUOUS
 62
     2
 10
832.7500395
 20
1185.999989
 11
841.410293538
 21
1200.999989
  0
LINE
  8
0
  6
CONTINUOUS
 62
     2
 10
841.410293538
 20
1200.999989
 11
850.070547576
 21
1185.999989
  0
LINE
  8
0
  6
CONTINUOUS
 62
     2
 10
850.070547576
 20
1185.999989
 11
832.7500395
 21
1185.999989
  0
TEXT
  8
0
  6
CONTINUOUS
 62
     2
 10
837.874759632
 20
1187.464455094
 30
0.0
 40
7.071067812
  1
１
 50
0.0
 41
1.0
 51
0.0
  7
KANJI77
  0
LINE
  8
0
  6
CONTINUOUS
 62
     2
 10
832.7500395
 20
1157.999989
 11
841.410293538
 21
1172.999989
  0
LINE
  8
0
  6
CONTINUOUS
 62
     2
 10
841.410293538
 20
1172.999989
 11
850.070547576
 21
1157.999989
  0
LINE
  8
0
  6
CONTINUOUS
 62
     2
 10
850.070547576
 20
1157.999989
 11
832.7500395
 21
1157.999989
  0
TEXT
  8
0
  6
CONTINUOUS
 62
     2
 10
837.874759632
 20
1159.464455094
 30
0.0
 40
7.071067812
  1
１
 50
0.0
 41
1.0
 51
0.0
  7
KANJI77
  0
LINE
  8
0
  6
CONTINUOUS
 62
     2
 10
832.7500395
 20
1129.999989
 11
841.410293538
 21
1144.999989
  0
LINE
  8
0
  6
CONTINUOUS
 62
     2
 10
841.410293538
 20
1144.999989
 11
850.070547576
 21
1129.999989
  0
LINE
  8
0
  6
CONTINUOUS
 62
     2
 10
850.070547576
 20
1129.999989
 11
832.7500395
 21
1129.999989
  0
TEXT
  8
0
  6
CONTINUOUS
 62
     2
 10
837.874759632
 20
1131.464455094
 30
0.0
 40
7.071067812
  1
１
 50
0.0
 41
1.0
 51
0.0
  7
KANJI77
  0
LINE
  8
0
  6
CONTINUOUS
 62
     2
 10
832.7500395
 20
1101.999989
 11
841.410293538
 21
1116.999989
  0
LINE
  8
0
  6
CONTINUOUS
 62
     2
 10
841.410293538
 20
1116.999989
 11
850.070547576
 21
1101.999989
  0
LINE
  8
0
  6
CONTINUOUS
 62
     2
 10
850.070547576
 20
1101.999989
 11
832.7500395
 21
1101.999989
  0
TEXT
  8
0
  6
CONTINUOUS
 62
     2
 10
837.874759632
 20
1103.464455094
 30
0.0
 40
7.071067812
  1
１
 50
0.0
 41
1.0
 51
0.0
  7
KANJI77
  0
LINE
  8
0
  6
CONTINUOUS
 62
     2
 10
832.7500395
 20
1073.999989
 11
841.410293538
 21
1088.999989
  0
LINE
  8
0
  6
CONTINUOUS
 62
     2
 10
841.410293538
 20
1088.999989
 11
850.070547576
 21
1073.999989
  0
LINE
  8
0
  6
CONTINUOUS
 62
     2
 10
850.070547576
 20
1073.999989
 11
832.7500395
 21
1073.999989
  0
TEXT
  8
0
  6
CONTINUOUS
 62
     2
 10
837.874759632
 20
1075.464455094
 30
0.0
 40
7.071067812
  1
１
 50
0.0
 41
1.0
 51
0.0
  7
KANJI77
  0
LINE
  8
0
  6
CONTINUOUS
 62
     2
 10
832.7500395
 20
1045.999989
 11
841.410293538
 21
1060.999989
  0
LINE
  8
0
  6
CONTINUOUS
 62
     2
 10
841.410293538
 20
1060.999989
 11
850.070547576
 21
1045.999989
  0
LINE
  8
0
  6
CONTINUOUS
 62
     2
 10
850.070547576
 20
1045.999989
 11
832.7500395
 21
1045.999989
  0
TEXT
  8
0
  6
CONTINUOUS
 62
     2
 10
837.874759632
 20
1047.464455094
 30
0.0
 40
7.071067812
  1
１
 50
0.0
 41
1.0
 51
0.0
  7
KANJI77
  0
LINE
  8
0
  6
CONTINUOUS
 62
     2
 10
832.7500395
 20
1017.999989
 11
841.410293538
 21
1032.999989
  0
LINE
  8
0
  6
CONTINUOUS
 62
     2
 10
841.410293538
 20
1032.999989
 11
850.070547576
 21
1017.999989
  0
LINE
  8
0
  6
CONTINUOUS
 62
     2
 10
850.070547576
 20
1017.999989
 11
832.7500395
 21
1017.999989
  0
TEXT
  8
0
  6
CONTINUOUS
 62
     2
 10
837.874759632
 20
1019.464455094
 30
0.0
 40
7.071067812
  1
１
 50
0.0
 41
1.0
 51
0.0
  7
KANJI77
  0
LINE
  8
0
  6
CONTINUOUS
 62
     2
 10
832.7500395
 20
989.999989
 11
841.410293538
 21
1004.999989
  0
LINE
  8
0
  6
CONTINUOUS
 62
     2
 10
841.410293538
 20
1004.999989
 11
850.070547576
 21
989.999989
  0
LINE
  8
0
  6
CONTINUOUS
 62
     2
 10
850.070547576
 20
989.999989
 11
832.7500395
 21
989.999989
  0
TEXT
  8
0
  6
CONTINUOUS
 62
     2
 10
837.874759632
 20
991.464455094
 30
0.0
 40
7.071067812
  1
１
 50
0.0
 41
1.0
 51
0.0
  7
KANJI77
  0
TEXT
  8
0
  6
CONTINUOUS
 62
     2
 10
1437.7500395
 20
205.999989
 30
0.0
 40
15.0
  1
１０／３１
 50
0.0
 41
0.45
 51
0.0
  7
KANJI78
  0
TEXT
  8
0
  6
CONTINUOUS
 62
     2
 10
1431.7500395
 20
171.999989
 30
0.0
 40
15.0
  1
’０７　１１／７
 50
0.0
 41
0.9
 51
0.0
  7
KANJI27
  0
ENDSEC
  0
EOF
