  0
SECTION
  2
HEADER
  9
$EXTMIN
 10
0.0
 20
0.0
 30
0.0
  9
$EXTMAX
 10
2100.0
 20
1485.0
 30
0.0
  9
$LIMMIN
 10
0.0
 20
0.0
  9
$LIMMAX
 10
2100.0
 20
1485.0
  9
$LTSCALE
 40
1.0
  9
$PDMODE
 70
     0
  0
ENDSEC
  0
SECTION
  2
TABLES
  0
TABLE
  2
LTYPE
 70
     7
  0
LTYPE
  2
CONTINUOUS
 70
    64
  3
Solid line
 72
    65
 73
     0
 40
0.0
  0
LTYPE
  2
LTYPE1
 70
    64
  3
HIDDEN
 72
    65
 73
     2
 40
15.0
 49
9.0
 49
-6.0
  0
LTYPE
  2
LTYPE2
 70
    64
  3
CENTER
 72
    65
 73
     4
 40
75.0
 49
52.5
 49
-7.5
 49
7.5
 49
-7.5
  0
LTYPE
  2
LTYPE3
 70
    64
  3
CENTER
 72
    65
 73
     4
 40
50.0
 49
35.0
 49
-5.0
 49
5.0
 49
-5.0
  0
LTYPE
  2
LTYPE4
 70
    64
  3
CENTER
 72
    65
 73
     4
 40
45.0
 49
31.5
 49
-4.5
 49
4.5
 49
-4.5
  0
LTYPE
  2
LTYPE5
 70
    64
  3
PHANTOM
 72
    65
 73
     6
 40
50.0
 49
37.5
 49
-2.5
 49
2.5
 49
-2.5
 49
2.5
 49
-2.5
  0
LTYPE
  2
LTYPE6
 70
    64
  3
CENTER
 72
    65
 73
     4
 40
100.0
 49
70.0
 49
-10.0
 49
10.0
 49
-10.0
  0
ENDTAB
  0
TABLE
  2
LAYER
 70
   128
  0
LAYER
  2
0
 70
     0
 62
     7
  6
CONTINUOUS
  0
LAYER
  2
2
 70
     0
 62
     7
  6
CONTINUOUS
  0
LAYER
  2
3
 70
     0
 62
     7
  6
CONTINUOUS
  0
LAYER
  2
4
 70
     0
 62
     7
  6
CONTINUOUS
  0
LAYER
  2
5
 70
     0
 62
     7
  6
CONTINUOUS
  0
LAYER
  2
6
 70
     0
 62
     7
  6
CONTINUOUS
  0
LAYER
  2
7
 70
     0
 62
     7
  6
CONTINUOUS
  0
LAYER
  2
8
 70
     0
 62
     7
  6
CONTINUOUS
  0
LAYER
  2
9
 70
     0
 62
     7
  6
CONTINUOUS
  0
LAYER
  2
10
 70
     0
 62
     7
  6
CONTINUOUS
  0
LAYER
  2
11
 70
     0
 62
     7
  6
CONTINUOUS
  0
LAYER
  2
12
 70
     0
 62
     7
  6
CONTINUOUS
  0
LAYER
  2
13
 70
     0
 62
     7
  6
CONTINUOUS
  0
LAYER
  2
14
 70
     0
 62
     7
  6
CONTINUOUS
  0
LAYER
  2
15
 70
     0
 62
     7
  6
CONTINUOUS
  0
LAYER
  2
16
 70
     0
 62
     7
  6
CONTINUOUS
  0
LAYER
  2
17
 70
     0
 62
     7
  6
CONTINUOUS
  0
LAYER
  2
18
 70
     0
 62
     7
  6
CONTINUOUS
  0
LAYER
  2
19
 70
     0
 62
     7
  6
CONTINUOUS
  0
LAYER
  2
20
 70
     0
 62
     7
  6
CONTINUOUS
  0
LAYER
  2
21
 70
     0
 62
     7
  6
CONTINUOUS
  0
LAYER
  2
22
 70
     0
 62
     7
  6
CONTINUOUS
  0
LAYER
  2
23
 70
     0
 62
     7
  6
CONTINUOUS
  0
LAYER
  2
24
 70
     0
 62
     7
  6
CONTINUOUS
  0
LAYER
  2
25
 70
     0
 62
     7
  6
CONTINUOUS
  0
LAYER
  2
26
 70
     0
 62
     7
  6
CONTINUOUS
  0
LAYER
  2
27
 70
     0
 62
     7
  6
CONTINUOUS
  0
LAYER
  2
28
 70
     0
 62
     7
  6
CONTINUOUS
  0
LAYER
  2
29
 70
     0
 62
     7
  6
CONTINUOUS
  0
LAYER
  2
30
 70
     0
 62
     7
  6
CONTINUOUS
  0
LAYER
  2
31
 70
     0
 62
     7
  6
CONTINUOUS
  0
LAYER
  2
32
 70
     0
 62
     7
  6
CONTINUOUS
  0
LAYER
  2
33
 70
     0
 62
     7
  6
CONTINUOUS
  0
LAYER
  2
34
 70
     0
 62
     7
  6
CONTINUOUS
  0
LAYER
  2
35
 70
     0
 62
     7
  6
CONTINUOUS
  0
LAYER
  2
36
 70
     0
 62
     7
  6
CONTINUOUS
  0
LAYER
  2
37
 70
     0
 62
     7
  6
CONTINUOUS
  0
LAYER
  2
38
 70
     0
 62
     7
  6
CONTINUOUS
  0
LAYER
  2
39
 70
     0
 62
     7
  6
CONTINUOUS
  0
LAYER
  2
40
 70
     0
 62
     7
  6
CONTINUOUS
  0
LAYER
  2
41
 70
     0
 62
     7
  6
CONTINUOUS
  0
LAYER
  2
42
 70
     0
 62
     7
  6
CONTINUOUS
  0
LAYER
  2
43
 70
     0
 62
     7
  6
CONTINUOUS
  0
LAYER
  2
44
 70
     0
 62
     7
  6
CONTINUOUS
  0
LAYER
  2
45
 70
     0
 62
     7
  6
CONTINUOUS
  0
LAYER
  2
46
 70
     0
 62
     7
  6
CONTINUOUS
  0
LAYER
  2
47
 70
     0
 62
     7
  6
CONTINUOUS
  0
LAYER
  2
48
 70
     0
 62
     7
  6
CONTINUOUS
  0
LAYER
  2
49
 70
     0
 62
     7
  6
CONTINUOUS
  0
LAYER
  2
50
 70
     0
 62
     7
  6
CONTINUOUS
  0
LAYER
  2
51
 70
     0
 62
     7
  6
CONTINUOUS
  0
LAYER
  2
52
 70
     0
 62
     7
  6
CONTINUOUS
  0
LAYER
  2
53
 70
     0
 62
     7
  6
CONTINUOUS
  0
LAYER
  2
54
 70
     0
 62
     7
  6
CONTINUOUS
  0
LAYER
  2
55
 70
     0
 62
     7
  6
CONTINUOUS
  0
LAYER
  2
56
 70
     0
 62
     7
  6
CONTINUOUS
  0
LAYER
  2
57
 70
     0
 62
     7
  6
CONTINUOUS
  0
LAYER
  2
58
 70
     0
 62
     7
  6
CONTINUOUS
  0
LAYER
  2
59
 70
     0
 62
     7
  6
CONTINUOUS
  0
LAYER
  2
60
 70
     0
 62
     7
  6
CONTINUOUS
  0
LAYER
  2
61
 70
     0
 62
     7
  6
CONTINUOUS
  0
LAYER
  2
62
 70
     0
 62
     7
  6
CONTINUOUS
  0
LAYER
  2
63
 70
     0
 62
     7
  6
CONTINUOUS
  0
LAYER
  2
64
 70
     0
 62
     7
  6
CONTINUOUS
  0
LAYER
  2
65
 70
     0
 62
     7
  6
CONTINUOUS
  0
LAYER
  2
66
 70
     0
 62
     7
  6
CONTINUOUS
  0
LAYER
  2
67
 70
     0
 62
     7
  6
CONTINUOUS
  0
LAYER
  2
68
 70
     0
 62
     7
  6
CONTINUOUS
  0
LAYER
  2
69
 70
     0
 62
     7
  6
CONTINUOUS
  0
LAYER
  2
70
 70
     0
 62
     7
  6
CONTINUOUS
  0
LAYER
  2
71
 70
     0
 62
     7
  6
CONTINUOUS
  0
LAYER
  2
72
 70
     0
 62
     7
  6
CONTINUOUS
  0
LAYER
  2
73
 70
     0
 62
     7
  6
CONTINUOUS
  0
LAYER
  2
74
 70
     0
 62
     7
  6
CONTINUOUS
  0
LAYER
  2
75
 70
     0
 62
     7
  6
CONTINUOUS
  0
LAYER
  2
76
 70
     0
 62
     7
  6
CONTINUOUS
  0
LAYER
  2
77
 70
     0
 62
     7
  6
CONTINUOUS
  0
LAYER
  2
78
 70
     0
 62
     7
  6
CONTINUOUS
  0
LAYER
  2
79
 70
     0
 62
     7
  6
CONTINUOUS
  0
LAYER
  2
80
 70
     0
 62
     7
  6
CONTINUOUS
  0
LAYER
  2
81
 70
     0
 62
     7
  6
CONTINUOUS
  0
LAYER
  2
82
 70
     0
 62
     7
  6
CONTINUOUS
  0
LAYER
  2
83
 70
     0
 62
     7
  6
CONTINUOUS
  0
LAYER
  2
84
 70
     0
 62
     7
  6
CONTINUOUS
  0
LAYER
  2
85
 70
     0
 62
     7
  6
CONTINUOUS
  0
LAYER
  2
86
 70
     0
 62
     7
  6
CONTINUOUS
  0
LAYER
  2
87
 70
     0
 62
     7
  6
CONTINUOUS
  0
LAYER
  2
88
 70
     0
 62
     7
  6
CONTINUOUS
  0
LAYER
  2
89
 70
     0
 62
     7
  6
CONTINUOUS
  0
LAYER
  2
90
 70
     0
 62
     7
  6
CONTINUOUS
  0
LAYER
  2
91
 70
     0
 62
     7
  6
CONTINUOUS
  0
LAYER
  2
92
 70
     0
 62
     7
  6
CONTINUOUS
  0
LAYER
  2
93
 70
     0
 62
     7
  6
CONTINUOUS
  0
LAYER
  2
94
 70
     0
 62
     7
  6
CONTINUOUS
  0
LAYER
  2
95
 70
     0
 62
     7
  6
CONTINUOUS
  0
LAYER
  2
96
 70
     0
 62
     7
  6
CONTINUOUS
  0
LAYER
  2
97
 70
     0
 62
     7
  6
CONTINUOUS
  0
LAYER
  2
98
 70
     0
 62
     7
  6
CONTINUOUS
  0
LAYER
  2
99
 70
     0
 62
     7
  6
CONTINUOUS
  0
LAYER
  2
100
 70
     0
 62
     7
  6
CONTINUOUS
  0
LAYER
  2
101
 70
     0
 62
     7
  6
CONTINUOUS
  0
LAYER
  2
102
 70
     0
 62
     7
  6
CONTINUOUS
  0
LAYER
  2
103
 70
     0
 62
     7
  6
CONTINUOUS
  0
LAYER
  2
104
 70
     0
 62
     7
  6
CONTINUOUS
  0
LAYER
  2
105
 70
     0
 62
     7
  6
CONTINUOUS
  0
LAYER
  2
106
 70
     0
 62
     7
  6
CONTINUOUS
  0
LAYER
  2
107
 70
     0
 62
     7
  6
CONTINUOUS
  0
LAYER
  2
108
 70
     0
 62
     7
  6
CONTINUOUS
  0
LAYER
  2
109
 70
     0
 62
     7
  6
CONTINUOUS
  0
LAYER
  2
110
 70
     0
 62
     7
  6
CONTINUOUS
  0
LAYER
  2
111
 70
     0
 62
     7
  6
CONTINUOUS
  0
LAYER
  2
112
 70
     0
 62
     7
  6
CONTINUOUS
  0
LAYER
  2
113
 70
     0
 62
     7
  6
CONTINUOUS
  0
LAYER
  2
114
 70
     0
 62
     7
  6
CONTINUOUS
  0
LAYER
  2
115
 70
     0
 62
     7
  6
CONTINUOUS
  0
LAYER
  2
116
 70
     0
 62
     7
  6
CONTINUOUS
  0
LAYER
  2
117
 70
     0
 62
     7
  6
CONTINUOUS
  0
LAYER
  2
118
 70
     0
 62
     7
  6
CONTINUOUS
  0
LAYER
  2
119
 70
     0
 62
     7
  6
CONTINUOUS
  0
LAYER
  2
120
 70
     0
 62
     7
  6
CONTINUOUS
  0
LAYER
  2
121
 70
     0
 62
     7
  6
CONTINUOUS
  0
LAYER
  2
122
 70
     0
 62
     7
  6
CONTINUOUS
  0
LAYER
  2
123
 70
     0
 62
     7
  6
CONTINUOUS
  0
LAYER
  2
124
 70
     0
 62
     7
  6
CONTINUOUS
  0
LAYER
  2
125
 70
     0
 62
     7
  6
CONTINUOUS
  0
LAYER
  2
126
 70
     0
 62
     7
  6
CONTINUOUS
  0
LAYER
  2
127
 70
     0
 62
     7
  6
CONTINUOUS
  0
LAYER
  2
128
 70
     0
 62
     7
  6
CONTINUOUS
  0
ENDTAB
  0
TABLE
  2
STYLE
 70
    84
  0
STYLE
  2
STANDARD
 70
     0
 40
0.0
 41
1.0
 50
0.0
 71
     0
 42
0.2
  3
txt
  4

  0
STYLE
  2
KANJI0
 70
     0
 40
9.999997897
 41
0.6
 50
0.0
 71
     0
 42
9.999997897
  3

  4
bigfont
  0
STYLE
  2
KANJI1
 70
     0
 40
11.999997477
 41
0.9
 50
0.0
 71
     0
 42
11.999997477
  3

  4
bigfont
  0
STYLE
  2
KANJI2
 70
     0
 40
14.999996846
 41
0.9
 50
0.0
 71
     0
 42
14.999996846
  3

  4
bigfont
  0
STYLE
  2
KANJI3
 70
     0
 40
12.999999
 41
0.75
 50
0.0
 71
     0
 42
12.999999
  3

  4
bigfont
  0
STYLE
  2
KANJI4
 70
     0
 40
8.666666
 41
0.6
 50
0.0
 71
     0
 42
8.666666
  3

  4
bigfont
  0
STYLE
  2
KANJI5
 70
     0
 40
10.3999992
 41
0.6
 50
0.0
 71
     0
 42
10.3999992
  3

  4
bigfont
  0
STYLE
  2
KANJI6
 70
     0
 40
15.1666655
 41
0.42031746
 50
0.0
 71
     0
 42
15.1666655
  3

  4
bigfont
  0
STYLE
  2
KANJI7
 70
     0
 40
25.999998
 41
0.9
 50
0.0
 71
     0
 42
25.999998
  3

  4
bigfont
  0
STYLE
  2
KANJI8
 70
     0
 40
8.666666
 41
0.8
 50
0.0
 71
     0
 42
8.666666
  3

  4
bigfont
  0
STYLE
  2
KANJI9
 70
     0
 40
10.3999992
 41
0.8
 50
0.0
 71
     0
 42
10.3999992
  3

  4
bigfont
  0
STYLE
  2
KANJI10
 70
     0
 40
25.0
 41
1.0
 50
0.0
 71
     0
 42
25.0
  3

  4
bigfont
  0
STYLE
  2
KANJI11
 70
     0
 40
25.0
 41
1.0
 50
0.0
 71
     0
 42
25.0
  3

  4
bigfont
  0
STYLE
  2
KANJI12
 70
     0
 40
25.0
 41
0.8
 50
0.0
 71
     0
 42
25.0
  3

  4
bigfont
  0
STYLE
  2
KANJI13
 70
     0
 40
20.0
 41
1.0
 50
0.0
 71
     0
 42
20.0
  3

  4
bigfont
  0
STYLE
  2
KANJI14
 70
     0
 40
17.5
 41
0.857142857
 50
0.0
 71
     0
 42
17.5
  3

  4
bigfont
  0
STYLE
  2
KANJI15
 70
     0
 40
22.5
 41
0.666666667
 50
0.0
 71
     0
 42
22.5
  3

  4
bigfont
  0
STYLE
  2
KANJI16
 70
     0
 40
18.0
 41
1.111111111
 50
0.0
 71
     0
 42
18.0
  3

  4
bigfont
  0
STYLE
  2
KANJI17
 70
     0
 40
15.0
 41
1.0
 50
0.0
 71
     0
 42
15.0
  3

  4
bigfont
  0
STYLE
  2
KANJI18
 70
     0
 40
13.182
 41
0.85
 50
0.0
 71
     0
 42
13.182
  3

  4
bigfont
  0
STYLE
  2
KANJI19
 70
     0
 40
11.661
 41
0.822608696
 50
0.0
 71
     0
 42
11.661
  3

  4
bigfont
  0
STYLE
  2
KANJI20
 70
     0
 40
11.8638
 41
0.726495726
 50
0.0
 71
     0
 42
11.8638
  3

  4
bigfont
  0
STYLE
  2
KANJI21
 70
     4
 40
45.0
 41
0.538166667
 50
0.0
 71
     0
 42
45.0
  3

  4
bigfont
  0
STYLE
  2
KANJI22
 70
     0
 40
12.8
 41
0.9
 50
0.0
 71
     0
 42
12.8
  3

  4
bigfont
  0
STYLE
  2
KANJI23
 70
     0
 40
12.0
 41
0.9
 50
0.0
 71
     0
 42
12.0
  3

  4
bigfont
  0
STYLE
  2
KANJI24
 70
     0
 40
12.0
 41
0.9
 50
0.0
 71
     0
 42
12.0
  3

  4
bigfont
  0
STYLE
  2
KANJI25
 70
     0
 40
14.0
 41
0.9
 50
0.0
 71
     0
 42
14.0
  3

  4
bigfont
  0
STYLE
  2
KANJI26
 70
     0
 40
10.8
 41
0.740740741
 50
0.0
 71
     0
 42
10.8
  3

  4
bigfont
  0
STYLE
  2
KANJI27
 70
     0
 40
14.0
 41
0.857142857
 50
0.0
 71
     0
 42
14.0
  3

  4
bigfont
  0
STYLE
  2
KANJI28
 70
     0
 40
25.0
 41
0.8
 50
0.0
 71
     0
 42
25.0
  3

  4
bigfont
  0
STYLE
  2
KANJI29
 70
     0
 40
11.55
 41
0.9
 50
0.0
 71
     0
 42
11.55
  3

  4
bigfont
  0
STYLE
  2
KANJI30
 70
     0
 40
17.740702234
 41
0.880962996
 50
0.0
 71
     0
 42
17.740702234
  3

  4
bigfont
  0
STYLE
  2
KANJI31
 70
     0
 40
11.7
 41
0.8
 50
0.0
 71
     0
 42
11.7
  3

  4
bigfont
  0
STYLE
  2
KANJI32
 70
     0
 40
15.0
 41
0.911
 50
0.0
 71
     0
 42
15.0
  3

  4
bigfont
  0
STYLE
  2
KANJI33
 70
     0
 40
13.475
 41
0.9
 50
0.0
 71
     0
 42
13.475
  3

  4
bigfont
  0
STYLE
  2
KANJI34
 70
     0
 40
20.0
 41
0.925
 50
0.0
 71
     0
 42
20.0
  3

  4
bigfont
  0
STYLE
  2
KANJI35
 70
     0
 40
15.0
 41
0.9
 50
0.0
 71
     0
 42
15.0
  3

  4
bigfont
  0
STYLE
  2
KANJI36
 70
     0
 40
20.0
 41
0.925
 50
0.0
 71
     0
 42
20.0
  3

  4
bigfont
  0
STYLE
  2
KANJI37
 70
     0
 40
15.185977837
 41
0.66671875
 50
0.0
 71
     0
 42
15.185977837
  3

  4
bigfont
  0
STYLE
  2
KANJI38
 70
     0
 40
18.223173404
 41
0.9
 50
0.0
 71
     0
 42
18.223173404
  3

  4
bigfont
  0
STYLE
  2
KANJI39
 70
     0
 40
14.578538724
 41
0.9
 50
0.0
 71
     0
 42
14.578538724
  3

  4
bigfont
  0
STYLE
  2
KANJI40
 70
     0
 40
15.6
 41
0.925
 50
0.0
 71
     0
 42
15.6
  3

  4
bigfont
  0
STYLE
  2
KANJI41
 70
     0
 40
10.933904043
 41
0.9
 50
0.0
 71
     0
 42
10.933904043
  3

  4
bigfont
  0
STYLE
  2
KANJI42
 70
     0
 40
8.333333333
 41
0.85
 50
0.0
 71
     0
 42
8.333333333
  3

  4
bigfont
  0
STYLE
  2
KANJI43
 70
     0
 40
8.333333333
 41
0.75
 50
0.0
 71
     0
 42
8.333333333
  3

  4
bigfont
  0
STYLE
  2
KANJI44
 70
     0
 40
12.5
 41
0.9
 50
0.0
 71
     0
 42
12.5
  3

  4
bigfont
  0
STYLE
  2
KANJI45
 70
     0
 40
8.4
 41
0.9
 50
0.0
 71
     0
 42
8.4
  3

  4
bigfont
  0
STYLE
  2
KANJI46
 70
     0
 40
20.0
 41
0.9
 50
0.0
 71
     0
 42
20.0
  3

  4
bigfont
  0
STYLE
  2
KANJI47
 70
     0
 40
17.5
 41
0.857222222
 50
0.0
 71
     0
 42
17.5
  3

  4
bigfont
  0
STYLE
  2
KANJI48
 70
     0
 40
17.5
 41
0.857142857
 50
0.0
 71
     0
 42
17.5
  3

  4
bigfont
  0
STYLE
  2
KANJI49
 70
     0
 40
17.5
 41
0.9
 50
0.0
 71
     0
 42
17.5
  3

  4
bigfont
  0
STYLE
  2
KANJI50
 70
     0
 40
17.5
 41
0.9
 50
0.0
 71
     0
 42
17.5
  3

  4
bigfont
  0
STYLE
  2
KANJI51
 70
     0
 40
17.5
 41
0.9
 50
0.0
 71
     0
 42
17.5
  3

  4
bigfont
  0
STYLE
  2
KANJI52
 70
     0
 40
17.5
 41
0.9
 50
0.0
 71
     0
 42
17.5
  3

  4
bigfont
  0
STYLE
  2
KANJI53
 70
     0
 40
22.5
 41
0.9
 50
0.0
 71
     0
 42
22.5
  3

  4
bigfont
  0
STYLE
  2
KANJI54
 70
     0
 40
17.5
 41
0.9
 50
0.0
 71
     0
 42
17.5
  3

  4
bigfont
  0
STYLE
  2
KANJI55
 70
     0
 40
17.5
 41
0.9
 50
0.0
 71
     0
 42
17.5
  3

  4
bigfont
  0
STYLE
  2
KANJI56
 70
     0
 40
17.5
 41
0.9
 50
0.0
 71
     0
 42
17.5
  3

  4
bigfont
  0
STYLE
  2
KANJI57
 70
     0
 40
17.5
 41
0.9
 50
0.0
 71
     0
 42
17.5
  3

  4
bigfont
  0
STYLE
  2
KANJI58
 70
     0
 40
17.5
 41
0.9
 50
0.0
 71
     0
 42
17.5
  3

  4
bigfont
  0
STYLE
  2
KANJI59
 70
     4
 40
17.5
 41
0.9
 50
0.0
 71
     0
 42
17.5
  3

  4
bigfont
  0
STYLE
  2
KANJI60
 70
     4
 40
15.0
 41
0.9
 50
0.0
 71
     0
 42
15.0
  3

  4
bigfont
  0
STYLE
  2
KANJI61
 70
     0
 40
12.5
 41
0.8
 50
0.0
 71
     0
 42
12.5
  3

  4
bigfont
  0
STYLE
  2
KANJI62
 70
     0
 40
17.5
 41
0.9
 50
0.0
 71
     0
 42
17.5
  3

  4
bigfont
  0
STYLE
  2
KANJI63
 70
     0
 40
15.0
 41
0.9
 50
0.0
 71
     0
 42
15.0
  3

  4
bigfont
  0
STYLE
  2
KANJI64
 70
     0
 40
15.0
 41
0.857142857
 50
0.0
 71
     0
 42
15.0
  3

  4
bigfont
  0
STYLE
  2
KANJI65
 70
     0
 40
17.5
 41
0.9
 50
0.0
 71
     0
 42
17.5
  3

  4
bigfont
  0
STYLE
  2
KANJI66
 70
     0
 40
14.0
 41
0.9
 50
0.0
 71
     0
 42
14.0
  3

  4
bigfont
  0
STYLE
  2
KANJI67
 70
     0
 40
14.0
 41
0.785714286
 50
0.0
 71
     0
 42
14.0
  3

  4
bigfont
  0
STYLE
  2
KANJI68
 70
     0
 40
14.0
 41
0.8
 50
0.0
 71
     0
 42
14.0
  3

  4
bigfont
  0
STYLE
  2
KANJI69
 70
     0
 40
17.5
 41
0.9
 50
0.0
 71
     0
 42
17.5
  3

  4
bigfont
  0
STYLE
  2
KANJI70
 70
     0
 40
15.0
 41
0.8
 50
0.0
 71
     0
 42
15.0
  3

  4
bigfont
  0
STYLE
  2
KANJI71
 70
     0
 40
15.0
 41
0.9
 50
0.0
 71
     0
 42
15.0
  3

  4
bigfont
  0
STYLE
  2
KANJI72
 70
     0
 40
17.5
 41
0.9
 50
0.0
 71
     0
 42
17.5
  3

  4
bigfont
  0
STYLE
  2
KANJI73
 70
     0
 40
15.0
 41
0.833333333
 50
0.0
 71
     0
 42
15.0
  3

  4
bigfont
  0
STYLE
  2
KANJI74
 70
     0
 40
17.5
 41
0.9
 50
0.0
 71
     0
 42
17.5
  3

  4
bigfont
  0
STYLE
  2
KANJI75
 70
     0
 40
12.0
 41
0.9
 50
0.0
 71
     0
 42
12.0
  3

  4
bigfont
  0
STYLE
  2
KANJI76
 70
     0
 40
12.8
 41
0.84375
 50
0.0
 71
     0
 42
12.8
  3

  4
bigfont
  0
STYLE
  2
KANJI77
 70
     0
 40
17.5
 41
0.571428571
 50
0.0
 71
     0
 42
17.5
  3

  4
bigfont
  0
STYLE
  2
KANJI78
 70
     0
 40
12.0
 41
0.833333333
 50
0.0
 71
     0
 42
12.0
  3

  4
bigfont
  0
STYLE
  2
KANJI79
 70
     0
 40
15.0
 41
0.833333333
 50
0.0
 71
     0
 42
15.0
  3

  4
bigfont
  0
STYLE
  2
KANJI80
 70
     0
 40
17.5
 41
0.793650794
 50
0.0
 71
     0
 42
17.5
  3

  4
bigfont
  0
STYLE
  2
KANJI81
 70
     0
 40
7.071067812
 41
1.0
 50
0.0
 71
     0
 42
7.071067812
  3

  4
bigfont
  0
STYLE
  2
KANJI82
 70
     0
 40
15.0
 41
0.45
 50
0.0
 71
     0
 42
15.0
  3

  4
bigfont
  0
ENDTAB
  0
TABLE
  2
VIEW
 70
     0
  0
ENDTAB
  0
ENDSEC
  0
SECTION
  2
BLOCKS
  0
ENDSEC
  0
SECTION
  2
ENTITIES
  0
LINE
  8
0
  6
CONTINUOUS
 62
     6
 10
73.25
 20
55.0
 11
73.25
 21
1400.0
  0
TEXT
  8
0
  6
CONTINUOUS
 62
     4
 10
88.249996846
 20
79.999994744
 30
0.99999979
 40
9.999997897
  1
ＰＡＲＴＳ　ＬＩＳＴ
 50
0.0
 41
0.6
 51
0.0
  7
KANJI0
  0
TEXT
  8
0
  6
CONTINUOUS
 62
     4
 10
88.249996846
 20
64.999997897
 30
1.199999748
 40
11.999997477
  1
部品表
 50
0.0
 41
0.9
 51
0.0
  7
KANJI1
  0
LINE
  8
0
  6
CONTINUOUS
 62
     6
 10
2008.25
 20
55.0
 11
73.25
 21
55.0
  0
LINE
  8
0
  6
CONTINUOUS
 62
     6
 10
78.249998949
 20
129.999984231
 11
403.249930615
 21
129.999984231
  0
LINE
  8
0
  6
CONTINUOUS
 62
     6
 10
78.249998949
 20
59.999998949
 11
403.249930615
 21
59.999998949
  0
LINE
  8
0
  6
CONTINUOUS
 62
     6
 10
78.249998949
 20
59.999998949
 11
78.249998949
 21
129.999984231
  0
LINE
  8
0
  6
CONTINUOUS
 62
     6
 10
78.249998949
 20
94.99999159
 11
403.249930615
 21
94.99999159
  0
TEXT
  8
0
  6
CONTINUOUS
 62
     2
 10
88.249996846
 20
104.999989487
 30
1.499999685
 40
14.999996846
  1
ＰＬ
 50
0.0
 41
0.9
 51
0.0
  7
KANJI2
  0
LINE
  8
0
  6
CONTINUOUS
 62
     4
 10
16.333333
 20
59.333333
 11
68.333329
 21
59.333333
  0
LINE
  8
0
  6
CONTINUOUS
 62
     4
 10
16.333333
 20
85.333331
 11
68.333329
 21
85.333331
  0
LINE
  8
0
  6
CONTINUOUS
 62
     4
 10
16.333333
 20
111.333329
 11
68.333329
 21
111.333329
  0
LINE
  8
0
  6
CONTINUOUS
 62
     4
 10
16.333333
 20
137.333327
 11
68.333329
 21
137.333327
  0
LINE
  8
0
  6
CONTINUOUS
 62
     4
 10
16.333333
 20
163.333325
 11
68.333329
 21
163.333325
  0
LINE
  8
0
  6
CONTINUOUS
 62
     4
 10
16.333333
 20
189.333323
 11
68.333329
 21
189.333323
  0
LINE
  8
0
  6
CONTINUOUS
 62
     4
 10
16.333333
 20
215.333321
 11
68.333329
 21
215.333321
  0
LINE
  8
0
  6
CONTINUOUS
 62
     4
 10
16.333333
 20
241.333319
 11
68.333329
 21
241.333319
  0
LINE
  8
0
  6
CONTINUOUS
 62
     4
 10
16.333333
 20
267.333317
 11
68.333329
 21
267.333317
  0
LINE
  8
0
  6
CONTINUOUS
 62
     4
 10
16.333333
 20
293.333315
 11
68.333329
 21
293.333315
  0
LINE
  8
0
  6
CONTINUOUS
 62
     4
 10
68.333329
 20
59.333333
 11
68.333329
 21
293.333315
  0
LINE
  8
0
  6
CONTINUOUS
 62
     4
 10
42.333331
 20
59.333333
 11
42.333331
 21
267.333317
  0
TEXT
  8
0
  6
CONTINUOUS
 62
     4
 10
25.21666565
 20
66.91666575
 30
1.2999999
 40
12.999999
  1
計
 50
0.0
 41
0.75
 51
0.0
  7
KANJI3
  0
TEXT
  8
0
  6
CONTINUOUS
 62
     4
 10
25.21666565
 20
119.34999505
 30
1.2999999
 40
12.999999
  1
設
 50
0.0
 41
0.75
 51
0.0
  7
KANJI3
  0
TEXT
  8
0
  6
CONTINUOUS
 62
     4
 10
25.21666565
 20
144.91665975
 30
1.2999999
 40
12.999999
  1
管
 50
0.0
 41
0.75
 51
0.0
  7
KANJI3
  0
TEXT
  8
0
  6
CONTINUOUS
 62
     4
 10
25.21666565
 20
170.91665775
 30
1.2999999
 40
12.999999
  1
製
 50
0.0
 41
0.75
 51
0.0
  7
KANJI3
  0
TEXT
  8
0
  6
CONTINUOUS
 62
     4
 10
25.21666565
 20
196.91665575
 30
1.2999999
 40
12.999999
  1
資
 50
0.0
 41
0.75
 51
0.0
  7
KANJI3
  0
TEXT
  8
0
  6
CONTINUOUS
 62
     4
 10
25.21666565
 20
222.91665375
 30
1.2999999
 40
12.999999
  1
営
 50
0.0
 41
0.75
 51
0.0
  7
KANJI3
  0
TEXT
  8
0
  6
CONTINUOUS
 62
     4
 10
25.21666565
 20
248.91665175
 30
1.2999999
 40
12.999999
  1
客
 50
0.0
 41
0.75
 51
0.0
  7
KANJI3
  0
TEXT
  8
0
  6
CONTINUOUS
 62
     4
 10
24.999999
 20
275.999983
 30
1.2999999
 40
12.999999
  1
出　図
 50
0.0
 41
0.75
 51
0.0
  7
KANJI3
  0
LINE
  8
0
  6
CONTINUOUS
 62
     4
 10
16.333333
 20
59.333333
 11
16.333333
 21
293.333315
  0
TEXT
  8
0
  6
CONTINUOUS
 62
     4
 10
313.249949538
 20
79.999994744
 30
0.99999979
 40
9.999997897
  1
Ｎ０．
 50
0.0
 41
0.6
 51
0.0
  7
KANJI0
  0
TEXT
  8
0
  6
CONTINUOUS
 62
     4
 10
313.249949538
 20
64.999997897
 30
1.199999748
 40
11.999997477
  1
項番
 50
0.0
 41
0.9
 51
0.0
  7
KANJI1
  0
LINE
  8
0
  6
CONTINUOUS
 62
     6
 10
403.249930615
 20
59.999998949
 11
403.249930615
 21
129.999984231
  0
LINE
  8
0
  6
CONTINUOUS
 62
     6
 10
303.249951641
 20
59.999998949
 11
303.249951641
 21
129.999984231
  0
LINE
  8
0
  6
CONTINUOUS
 62
     4
 10
1336.583385
 20
93.999997
 11
1494.7500395
 21
93.999997
  0
TEXT
  8
0
  6
CONTINUOUS
 62
     4
 10
1345.250051
 20
78.8333315
 30
0.8666666
 40
8.666666
  1
ＳＣＡＬＥ
 50
0.0
 41
0.6
 51
0.0
  7
KANJI4
  0
TEXT
  8
0
  6
CONTINUOUS
 62
     4
 10
1345.250051
 20
113.4999955
 30
0.8666666
 40
8.666666
  1
ＤＡＴＥ
 50
0.0
 41
0.6
 51
0.0
  7
KANJI4
  0
TEXT
  8
0
  6
CONTINUOUS
 62
     4
 10
1345.250051
 20
65.8333325
 30
1.03999992
 40
10.3999992
  1
尺度
 50
0.0
 41
0.6
 51
0.0
  7
KANJI5
  0
TEXT
  8
0
  6
CONTINUOUS
 62
     4
 10
1345.250051
 20
100.4999965
 30
1.03999992
 40
10.3999992
  1
日付
 50
0.0
 41
0.6
 51
0.0
  7
KANJI5
  0
TEXT
  8
0
  6
CONTINUOUS
 62
     4
 10
1104.7500695
 20
78.8333315
 30
0.8666666
 40
8.666666
  1
ＢＹ
 50
0.0
 41
0.6
 51
0.0
  7
KANJI4
  0
TEXT
  8
0
  6
CONTINUOUS
 62
     4
 10
1200.0833955
 20
78.8333315
 30
0.8666666
 40
8.666666
  1
ＤＥＳＣＲＩＰＴＩＯＮ
 50
0.0
 41
0.6
 51
0.0
  7
KANJI4
  0
TEXT
  8
0
  6
CONTINUOUS
 62
     4
 10
1104.7500695
 20
65.8333325
 30
1.03999992
 40
10.3999992
  1
担当
 50
0.0
 41
0.6
 51
0.0
  7
KANJI5
  0
TEXT
  8
0
  6
CONTINUOUS
 62
     4
 10
1213.0833945
 20
65.8333325
 30
1.03999992
 40
10.3999992
  1
記　　　　事
 50
0.0
 41
0.6
 51
0.0
  7
KANJI5
  0
LINE
  8
0
  6
CONTINUOUS
 62
     4
 10
1012.66674325
 20
87.4999975
 11
998.583411
 21
65.8333325
  0
TEXT
  8
0
  6
CONTINUOUS
 62
     4
 10
1048.4167405
 20
78.8333315
 30
0.8666666
 40
8.666666
  1
ＤＡＴＥ
 50
0.0
 41
0.6
 51
0.0
  7
KANJI4
  0
TEXT
  8
0
  6
CONTINUOUS
 62
     4
 10
1054.91674
 20
65.8333325
 30
1.03999992
 40
10.3999992
  1
日付
 50
0.0
 41
0.6
 51
0.0
  7
KANJI5
  0
LINE
  8
0
  6
CONTINUOUS
 62
     4
 10
998.583411
 20
65.8333325
 11
1026.7500755
 21
65.8333325
  0
LINE
  8
0
  6
CONTINUOUS
 62
     4
 10
1012.66674325
 20
87.4999975
 11
1026.7500755
 21
65.8333325
  0
LINE
  8
0
  6
CONTINUOUS
 62
     4
 10
1494.7500395
 20
113.4999955
 11
2003.916667
 21
113.4999955
  0
LINE
  8
0
  6
LTYPE1
 62
     4
 10
1858.7500115
 20
119.999995
 11
1858.7500115
 21
154.666659
  0
LINE
  8
0
  6
LTYPE1
 62
     4
 10
1828.4166805
 20
119.999995
 11
1828.4166805
 21
154.666659
  0
LINE
  8
0
  6
LTYPE1
 62
     4
 10
1798.0833495
 20
119.999995
 11
1798.0833495
 21
154.666659
  0
LINE
  8
0
  6
LTYPE1
 62
     4
 10
1767.7500185
 20
119.999995
 11
1767.7500185
 21
154.666659
  0
LINE
  8
0
  6
LTYPE1
 62
     4
 10
1737.4166875
 20
119.999995
 11
1737.4166875
 21
154.666659
  0
LINE
  8
0
  6
LTYPE1
 62
     4
 10
1707.0833565
 20
119.999995
 11
1707.0833565
 21
154.666659
  0
LINE
  8
0
  6
LTYPE1
 62
     4
 10
1676.7500255
 20
119.999995
 11
1676.7500255
 21
154.666659
  0
LINE
  8
0
  6
LTYPE1
 62
     4
 10
1646.4166945
 20
119.999995
 11
1646.4166945
 21
154.666659
  0
LINE
  8
0
  6
LTYPE1
 62
     4
 10
1646.4166945
 20
119.999995
 11
1858.7500115
 21
119.999995
  0
LINE
  8
0
  6
CONTINUOUS
 62
     6
 10
2008.25
 20
1400.0
 11
2008.25
 21
55.0
  0
LINE
  8
0
  6
CONTINUOUS
 62
     6
 10
994.250078
 20
93.999997
 11
1336.583385
 21
93.999997
  0
LINE
  8
0
  6
CONTINUOUS
 62
     6
 10
994.250078
 20
59.333333
 11
2003.916667
 21
59.333333
  0
TEXT
  8
0
  6
CONTINUOUS
 62
     6
 10
1499.0833725
 20
78.8333315
 30
0.0
 40
15.1666655
  1
ＵＮＩＴＥＣ　ＩＮＤＵＳＴＲＹ　ＣＯ．，ＬＴＤ．
 50
0.0
 41
0.42031746
 51
0.0
  7
KANJI6
  0
TEXT
  8
0
  6
CONTINUOUS
 62
     6
 10
1711.795856138
 20
73.1999986
 30
2.5999998
 40
25.999998
  1
ユニテック工業株式会社
 50
0.0
 41
0.9
 51
0.0
  7
KANJI7
  0
LINE
  8
0
  6
CONTINUOUS
 62
     6
 10
994.250078
 20
59.333333
 11
994.250078
 21
93.999997
  0
LINE
  8
0
  6
CONTINUOUS
 62
     4
 10
1031.0834085
 20
59.333333
 11
1031.0834085
 21
93.999997
  0
LINE
  8
0
  6
CONTINUOUS
 62
     4
 10
1091.7500705
 20
59.333333
 11
1091.7500705
 21
93.999997
  0
LINE
  8
0
  6
CONTINUOUS
 62
     4
 10
1130.7500675
 20
59.333333
 11
1130.7500675
 21
93.999997
  0
LINE
  8
0
  6
CONTINUOUS
 62
     6
 10
1336.583385
 20
59.333333
 11
1336.583385
 21
336.666645
  0
LINE
  8
0
  6
CONTINUOUS
 62
     6
 10
2003.916667
 20
59.333333
 11
2003.916667
 21
336.666645
  0
LINE
  8
0
  6
CONTINUOUS
 62
     4
 10
1494.7500395
 20
59.333333
 11
1494.7500395
 21
336.666645
  0
LINE
  8
0
  6
CONTINUOUS
 62
     6
 10
1677.129192138
 20
82.2999979
 11
1665.689193018
 21
82.2999979
  0
LINE
  8
0
  6
CONTINUOUS
 62
     6
 10
1677.129192138
 20
84.37999774
 11
1665.689193018
 21
84.37999774
  0
LINE
  8
0
  6
CONTINUOUS
 62
     6
 10
1677.129192138
 20
82.2999979
 11
1688.569191258
 21
82.2999979
  0
LINE
  8
0
  6
CONTINUOUS
 62
     6
 10
1677.129192138
 20
84.37999774
 11
1688.569191258
 21
84.37999774
  0
LINE
  8
0
  6
CONTINUOUS
 62
     6
 10
1688.569191258
 20
84.37999774
 11
1688.569191258
 21
82.2999979
  0
ARC
  8
0
  6
CONTINUOUS
 62
     6
 10
1691.169191058
 20
83.33999782
 40
10.3999992
 50
185.739170477
 51
90.0
  0
ARC
  8
0
  6
CONTINUOUS
 62
     6
 10
1691.169191058
 20
83.33999782
 40
12.47999904
 50
184.780191847
 51
90.0
  0
LINE
  8
0
  6
CONTINUOUS
 62
     6
 10
1665.689193018
 20
82.2999979
 11
1665.689193018
 21
84.37999774
  0
LINE
  8
0
  6
CONTINUOUS
 62
     6
 10
1675.569192258
 20
95.81999686
 11
1663.089193218
 21
95.81999686
  0
LINE
  8
0
  6
CONTINUOUS
 62
     6
 10
1678.689192018
 20
95.81999686
 11
1691.169191058
 21
95.81999686
  0
ARC
  8
0
  6
CONTINUOUS
 62
     6
 10
1663.089193218
 20
83.33999782
 40
10.3999992
 50
90.0
 51
354.260829523
  0
ARC
  8
0
  6
CONTINUOUS
 62
     6
 10
1663.089193218
 20
83.33999782
 40
12.47999904
 50
90.0
 51
355.219808153
  0
LINE
  8
0
  6
CONTINUOUS
 62
     6
 10
1675.569192258
 20
95.81999686
 11
1675.569192258
 21
93.73999702
  0
LINE
  8
0
  6
CONTINUOUS
 62
     6
 10
1663.089193218
 20
93.73999702
 11
1675.569192258
 21
93.73999702
  0
LINE
  8
0
  6
CONTINUOUS
 62
     6
 10
1678.689192018
 20
95.81999686
 11
1678.689192018
 21
93.73999702
  0
LINE
  8
0
  6
CONTINUOUS
 62
     6
 10
1691.169191058
 20
93.73999702
 11
1678.689192018
 21
93.73999702
  0
TEXT
  8
0
  6
CONTINUOUS
 62
     4
 10
1345.250051
 20
148.1666595
 30
0.8666666
 40
8.666666
  1
ＤＲＡＷＮ
 50
0.0
 41
0.6
 51
0.0
  7
KANJI4
  0
TEXT
  8
0
  6
CONTINUOUS
 62
     4
 10
1345.250051
 20
182.8333235
 30
0.8666666
 40
8.666666
  1
ＤＥＳＩＧＮ
 50
0.0
 41
0.6
 51
0.0
  7
KANJI4
  0
TEXT
  8
0
  6
CONTINUOUS
 62
     4
 10
1345.250051
 20
217.4999875
 30
0.8666666
 40
8.666666
  1
ＣＨＥＣＫ
 50
0.0
 41
0.6
 51
0.0
  7
KANJI4
  0
LINE
  8
0
  6
CONTINUOUS
 62
     4
 10
1336.583385
 20
197.999989
 11
1494.7500395
 21
197.999989
  0
LINE
  8
0
  6
CONTINUOUS
 62
     4
 10
1336.583385
 20
163.333325
 11
1494.7500395
 21
163.333325
  0
LINE
  8
0
  6
CONTINUOUS
 62
     4
 10
1336.583385
 20
232.666653
 11
1494.7500395
 21
232.666653
  0
TEXT
  8
0
  6
CONTINUOUS
 62
     4
 10
1345.250051
 20
169.8333245
 30
1.03999992
 40
10.3999992
  1
設計
 50
0.0
 41
0.6
 51
0.0
  7
KANJI5
  0
TEXT
  8
0
  6
CONTINUOUS
 62
     4
 10
1345.250051
 20
204.4999885
 30
1.03999992
 40
10.3999992
  1
検図
 50
0.0
 41
0.6
 51
0.0
  7
KANJI5
  0
TEXT
  8
0
  6
CONTINUOUS
 62
     4
 10
1345.250051
 20
239.1666525
 30
1.03999992
 40
10.3999992
  1
分類
 50
0.0
 41
0.6
 51
0.0
  7
KANJI5
  0
LINE
  8
0
  6
CONTINUOUS
 62
     4
 10
1507.53337185
 20
232.666653
 11
2003.916667
 21
232.666653
  0
LINE
  8
0
  6
CONTINUOUS
 62
     4
 10
1494.7500395
 20
163.333325
 11
2003.916667
 21
163.333325
  0
TEXT
  8
0
  6
CONTINUOUS
 62
     4
 10
1503.4167055
 20
148.1666595
 30
0.8666666
 40
8.666666
  1
ＤＲＡＷＩＮＧ　ＮＯ．
 50
0.0
 41
0.8
 51
0.0
  7
KANJI8
  0
TEXT
  8
0
  6
CONTINUOUS
 62
     4
 10
1503.4167055
 20
182.8333235
 30
0.8666666
 40
8.666666
  1
ＭＦＧ　ＮＯ．
 50
0.0
 41
0.8
 51
0.0
  7
KANJI8
  0
TEXT
  8
0
  6
CONTINUOUS
 62
     4
 10
1503.4167055
 20
217.4999875
 30
0.8666666
 40
8.666666
  1
ＴＹＰＥ
 50
0.0
 41
0.8
 51
0.0
  7
KANJI8
  0
LINE
  8
0
  6
CONTINUOUS
 62
     4
 10
1507.7500385
 20
197.999989
 11
1707.0833565
 21
197.999989
  0
TEXT
  8
0
  6
CONTINUOUS
 62
     4
 10
1503.4167055
 20
132.999994
 30
1.03999992
 40
10.3999992
  1
図　面　番　号
 50
0.0
 41
0.8
 51
0.0
  7
KANJI9
  0
TEXT
  8
0
  6
CONTINUOUS
 62
     4
 10
1503.4167055
 20
167.666658
 30
1.03999992
 40
10.3999992
  1
製番
 50
0.0
 41
0.8
 51
0.0
  7
KANJI9
  0
TEXT
  8
0
  6
CONTINUOUS
 62
     4
 10
1503.4167055
 20
202.333322
 30
1.03999992
 40
10.3999992
  1
機種
 50
0.0
 41
0.8
 51
0.0
  7
KANJI9
  0
LINE
  8
0
  6
CONTINUOUS
 62
     4
 10
1336.583385
 20
128.666661
 11
1494.7500395
 21
128.666661
  0
TEXT
  8
0
  6
CONTINUOUS
 62
     4
 10
1345.250051
 20
135.1666605
 30
1.03999992
 40
10.3999992
  1
作図
 50
0.0
 41
0.6
 51
0.0
  7
KANJI5
  0
LINE
  8
0
  6
LTYPE1
 62
     4
 10
1646.4166945
 20
154.666659
 11
1858.7500115
 21
154.666659
  0
LINE
  8
0
  6
CONTINUOUS
 62
     4
 10
1876.0833435
 20
138.41666025
 11
1884.7500095
 21
138.41666025
  0
LINE
  8
0
  6
CONTINUOUS
 62
     4
 10
1930.250006
 20
125.41666125
 11
1899.916675
 21
125.41666125
  0
LINE
  8
0
  6
CONTINUOUS
 62
     4
 10
1899.916675
 20
125.41666125
 11
1915.0833405
 21
151.41665925
  0
LINE
  8
0
  6
CONTINUOUS
 62
     4
 10
1915.0833405
 20
151.41665925
 11
1930.250006
 21
125.41666125
  0
TEXT
  8
0
  6
CONTINUOUS
 62
     4
 10
1720.0833555
 20
217.4999875
 30
0.8666666
 40
8.666666
  1
ＴＩＴＬＥ
 50
0.0
 41
0.8
 51
0.0
  7
KANJI8
  0
TEXT
  8
0
  6
CONTINUOUS
 62
     4
 10
1720.0833555
 20
202.333322
 30
1.03999992
 40
10.3999992
  1
名称
 50
0.0
 41
0.8
 51
0.0
  7
KANJI9
  0
TEXT
  8
0
  6
CONTINUOUS
 62
     2
 10
1790.75
 20
170.0
 30
12.5
 40
25.0
  1
外形寸法図
 50
0.0
 41
1.0
 51
0.0
  7
KANJI10
  0
TEXT
  8
0
  6
CONTINUOUS
 62
     2
 10
1760.75
 20
200.0
 30
3.571428571
 40
25.0
  1
マイティシリンダ
 50
0.0
 41
1.0
 51
0.0
  7
KANJI11
  0
TEXT
  8
0
  6
CONTINUOUS
 62
     2
 10
1620.1666945
 20
124.999995
 30
1.5
 40
25.0
  1
Ａ
 50
0.0
 41
0.8
 51
0.0
  7
KANJI12
  0
CIRCLE
  8
0
  6
CONTINUOUS
 62
     2
 10
1587.6666945
 20
178.749995
 40
12.5
  0
TEXT
  8
0
  6
CONTINUOUS
 62
     2
 10
1578.2916945
 20
169.374995
 30
1.5
 40
20.0
  1
Ｓ
 50
0.0
 41
1.0
 51
0.0
  7
KANJI13
  0
TEXT
  8
0
  6
CONTINUOUS
 62
     2
 10
1392.4166945
 20
137.499995
 30
5.0
 40
17.5
  1
岡田
 50
0.0
 41
0.857142857
 51
0.0
  7
KANJI14
  0
TEXT
  8
0
  6
CONTINUOUS
 62
     2
 10
1428.25
 20
65.0
 30
1.5
 40
22.5
  1
１／５
 50
0.0
 41
0.666666667
 51
0.0
  7
KANJI15
  0
TEXT
  8
0
  6
CONTINUOUS
 62
     4
 10
1345.250051
 20
252.1666515
 30
0.8666666
 40
8.666666
  1
ＣＯＤＥ
 50
0.0
 41
0.6
 51
0.0
  7
KANJI4
  0
LINE
  8
0
  6
CONTINUOUS
 62
     4
 10
1336.583385
 20
267.333317
 11
2003.916667
 21
267.333317
  0
LINE
  8
0
  6
CONTINUOUS
 62
     4
 10
2003.916667
 20
301.999981
 11
2003.916667
 21
336.666645
  0
LINE
  8
0
  6
CONTINUOUS
 62
     6
 10
1337.208385
 20
301.999981
 11
2004.541667
 21
301.999981
  0
LINE
  8
0
  6
CONTINUOUS
 62
     6
 10
1336.583385
 20
336.666645
 11
2003.916667
 21
336.666645
  0
TEXT
  8
0
  6
CONTINUOUS
 62
     4
 10
1352.0
 20
307.166664
 30
5.0
 40
18.0
  1
ご用途
 50
0.0
 41
1.111111111
 51
0.0
  7
KANJI16
  0
TEXT
  8
0
  6
CONTINUOUS
 62
     4
 10
1352.0
 20
272.5
 30
5.0
 40
18.0
  1
ご注文主
 50
0.0
 41
1.111111111
 51
0.0
  7
KANJI16
  0
LINE
  8
0
  6
CONTINUOUS
 62
     6
 10
73.25
 20
1400.0
 11
2008.25
 21
1400.0
  0
TEXT
  8
0
  6
CONTINUOUS
 62
     2
 10
130.75
 20
22.5
 30
1.5
 40
15.0
  1
ＦＤ　Ｎｏ．ＭＣ１８６
 50
0.0
 41
1.0
 51
0.0
  7
KANJI17
  0
LINE
  8
0
  6
CONTINUOUS
 62
     6
 10
346.959425053
 20
1345.747759827
 11
114.914646507
 21
1345.747759827
  0
LINE
  8
0
  6
CONTINUOUS
 62
     3
 10
346.959425053
 20
1318.285259827
 11
114.914646507
 21
1318.285259827
  0
LINE
  8
0
  6
CONTINUOUS
 62
     6
 10
346.959425053
 20
1318.285259827
 11
114.914646507
 21
1318.285259827
  0
TEXT
  8
0
  6
CONTINUOUS
 62
     6
 10
372.542228
 20
1343.200410728
 30
1.232517
 40
13.182
  1
電気定格　　　
 50
0.0
 41
0.85
 51
0.0
  7
KANJI18
  0
TEXT
  8
0
  6
CONTINUOUS
 62
     6
 10
118.823517202
 20
1348.94592676
 30
1.0647
 40
11.661
  1
ＬＳ０１　　　：推力リミッタ（前進時過負荷用）
 50
0.0
 41
0.822608696
 51
0.0
  7
KANJI19
  0
TEXT
  8
0
  6
CONTINUOUS
 62
     6
 10
118.823517202
 20
1321.48342676
 30
1.0647
 40
11.661
  1
ＬＳ０２　　　：推力リミッタ（後進時過負荷用）
 50
0.0
 41
0.822608696
 51
0.0
  7
KANJI19
  0
TEXT
  8
0
  6
CONTINUOUS
 62
     6
 10
385.343715102
 20
1312.626958599
 30
0.0
 40
11.8638
  1
ＤＣ１２５Ｖ　０．６Ａ　，ＤＣ２５０Ｖ　０．３Ａ　
 50
0.0
 41
0.726495726
 51
0.0
  7
KANJI20
  0
LINE
  8
0
  6
LTYPE2
 62
     6
 10
645.35
 20
1373.2
 11
96.95
 21
1373.2
  0
TEXT
  8
0
  6
CONTINUOUS
 62
     6
 10
380.087132178
 20
1360.961726126
 30
0.0
 40
45.0
  1
｝
 50
0.0
 41
0.538166667
 51
0.0
  7
KANJI21
  0
LINE
  8
0
  6
LTYPE2
 62
     6
 10
645.35
 20
1114.2
 11
645.35
 21
1373.2
  0
LINE
  8
0
  6
LTYPE2
 62
     6
 10
96.95
 20
1114.2
 11
645.35
 21
1114.2
  0
LINE
  8
0
  6
LTYPE2
 62
     6
 10
96.95
 20
1373.2
 11
96.95
 21
1114.2
  0
LINE
  8
0
  6
CONTINUOUS
 62
     1
 10
854.25
 20
1237.95
 11
1502.25
 21
1237.95
  0
LINE
  8
0
  6
CONTINUOUS
 62
     1
 10
854.25
 20
1209.95
 11
1502.25
 21
1209.95
  0
TEXT
  8
0
  6
CONTINUOUS
 62
     2
 10
894.25
 20
1217.95
 30
1.28
 40
12.8
  1
形
 50
0.0
 41
0.9
 51
0.0
  7
KANJI22
  0
TEXT
  8
0
  6
CONTINUOUS
 62
     2
 10
972.25
 20
1217.95
 30
1.28
 40
12.8
  1
式
 50
0.0
 41
0.9
 51
0.0
  7
KANJI22
  0
TEXT
  8
0
  6
CONTINUOUS
 62
     2
 10
1032.65
 20
1217.15
 30
1.2
 40
12.0
  1
ストローク
 50
0.0
 41
0.9
 51
0.0
  7
KANJI23
  0
TEXT
  8
0
  6
CONTINUOUS
 62
     2
 10
1109.45
 20
1216.35
 30
0.0
 40
12.0
  1
ｍｉｎ　
 50
0.0
 41
0.9
 51
0.0
  7
KANJI24
  0
TEXT
  8
0
  6
CONTINUOUS
 62
     2
 10
1189.45
 20
1216.35
 30
0.0
 40
12.0
  1
ｍｉｎ　
 50
0.0
 41
0.9
 51
0.0
  7
KANJI24
  0
TEXT
  8
0
  6
CONTINUOUS
 62
     2
 10
1349.45
 20
1216.35
 30
0.0
 40
12.0
  1
ｍｉｎ　
 50
0.0
 41
0.9
 51
0.0
  7
KANJI24
  0
TEXT
  8
0
  6
CONTINUOUS
 62
     2
 10
1150.25
 20
1217.15
 30
1.4
 40
14.0
  1
ＡＬ
 50
0.0
 41
0.9
 51
0.0
  7
KANJI25
  0
TEXT
  8
0
  6
CONTINUOUS
 62
     2
 10
1230.25
 20
1217.15
 30
1.4
 40
14.0
  1
Ｌ
 50
0.0
 41
0.9
 51
0.0
  7
KANJI25
  0
TEXT
  8
0
  6
CONTINUOUS
 62
     2
 10
1298.25
 20
1217.15
 30
1.4
 40
14.0
  1
Ｃ
 50
0.0
 41
0.9
 51
0.0
  7
KANJI25
  0
TEXT
  8
0
  6
CONTINUOUS
 62
     2
 10
1390.25
 20
1217.15
 30
1.4
 40
14.0
  1
Ｐ
 50
0.0
 41
0.9
 51
0.0
  7
KANJI25
  0
TEXT
  8
0
  6
CONTINUOUS
 62
     2
 10
1472.55
 20
1216.85
 30
0.0
 40
10.8
  1
（ｋｇ）
 50
0.0
 41
0.740740741
 51
0.0
  7
KANJI26
  0
TEXT
  8
0
  6
CONTINUOUS
 62
     2
 10
1424.55
 20
1216.65
 30
1.2
 40
14.0
  1
概算重量
 50
0.0
 41
0.857142857
 51
0.0
  7
KANJI27
  0
TEXT
  8
0
  6
CONTINUOUS
 62
     2
 10
1040.25
 20
1188.65
 30
1.2
 40
12.0
  1
　１００
 50
0.0
 41
0.9
 51
0.0
  7
KANJI23
  0
TEXT
  8
0
  6
CONTINUOUS
 62
     2
 10
1040.25
 20
1160.65
 30
1.2
 40
12.0
  1
　２００
 50
0.0
 41
0.9
 51
0.0
  7
KANJI23
  0
TEXT
  8
0
  6
CONTINUOUS
 62
     2
 10
1040.25
 20
1132.65
 30
1.2
 40
12.0
  1
　３００
 50
0.0
 41
0.9
 51
0.0
  7
KANJI23
  0
TEXT
  8
0
  6
CONTINUOUS
 62
     2
 10
1200.25
 20
1132.65
 30
1.2
 40
12.0
  1
　５０８
 50
0.0
 41
0.9
 51
0.0
  7
KANJI23
  0
TEXT
  8
0
  6
CONTINUOUS
 62
     2
 10
1200.25
 20
1160.65
 30
1.2
 40
12.0
  1
　４０８
 50
0.0
 41
0.9
 51
0.0
  7
KANJI23
  0
TEXT
  8
0
  6
CONTINUOUS
 62
     2
 10
1280.25
 20
1188.65
 30
1.2
 40
12.0
  1
　２３８
 50
0.0
 41
0.9
 51
0.0
  7
KANJI23
  0
TEXT
  8
0
  6
CONTINUOUS
 62
     2
 10
1280.25
 20
1160.65
 30
1.2
 40
12.0
  1
　３３８
 50
0.0
 41
0.9
 51
0.0
  7
KANJI23
  0
TEXT
  8
0
  6
CONTINUOUS
 62
     2
 10
1280.25
 20
1132.65
 30
1.2
 40
12.0
  1
　４３８
 50
0.0
 41
0.9
 51
0.0
  7
KANJI23
  0
TEXT
  8
0
  6
CONTINUOUS
 62
     2
 10
1360.25
 20
1132.65
 30
1.2
 40
12.0
  1
　　３５
 50
0.0
 41
0.9
 51
0.0
  7
KANJI23
  0
TEXT
  8
0
  6
CONTINUOUS
 62
     2
 10
1360.25
 20
1160.65
 30
1.2
 40
12.0
  1
　　３５
 50
0.0
 41
0.9
 51
0.0
  7
KANJI23
  0
TEXT
  8
0
  6
CONTINUOUS
 62
     2
 10
1360.25
 20
1188.65
 30
1.2
 40
12.0
  1
　　３５
 50
0.0
 41
0.9
 51
0.0
  7
KANJI23
  0
TEXT
  8
0
  6
CONTINUOUS
 62
     2
 10
1040.25
 20
1020.65
 30
1.2
 40
12.0
  1
　７００
 50
0.0
 41
0.9
 51
0.0
  7
KANJI23
  0
TEXT
  8
0
  6
CONTINUOUS
 62
     2
 10
1280.25
 20
1020.65
 30
1.2
 40
12.0
  1
　８７８
 50
0.0
 41
0.9
 51
0.0
  7
KANJI23
  0
TEXT
  8
0
  6
CONTINUOUS
 62
     2
 10
1040.25
 20
1076.65
 30
1.2
 40
12.0
  1
　５００
 50
0.0
 41
0.9
 51
0.0
  7
KANJI23
  0
TEXT
  8
0
  6
CONTINUOUS
 62
     2
 10
1280.25
 20
1076.65
 30
1.2
 40
12.0
  1
　６３８
 50
0.0
 41
0.9
 51
0.0
  7
KANJI23
  0
TEXT
  8
0
  6
CONTINUOUS
 62
     2
 10
1040.25
 20
1104.65
 30
1.2
 40
12.0
  1
　４００
 50
0.0
 41
0.9
 51
0.0
  7
KANJI23
  0
TEXT
  8
0
  6
CONTINUOUS
 62
     2
 10
1040.25
 20
1048.65
 30
1.2
 40
12.0
  1
　６００
 50
0.0
 41
0.9
 51
0.0
  7
KANJI23
  0
TEXT
  8
0
  6
CONTINUOUS
 62
     2
 10
1280.25
 20
1104.65
 30
1.2
 40
12.0
  1
　５３８
 50
0.0
 41
0.9
 51
0.0
  7
KANJI23
  0
TEXT
  8
0
  6
CONTINUOUS
 62
     2
 10
1280.25
 20
1048.65
 30
1.2
 40
12.0
  1
　７７８
 50
0.0
 41
0.9
 51
0.0
  7
KANJI23
  0
TEXT
  8
0
  6
CONTINUOUS
 62
     2
 10
1200.25
 20
1188.65
 30
1.2
 40
12.0
  1
　３０８
 50
0.0
 41
0.9
 51
0.0
  7
KANJI23
  0
TEXT
  8
0
  6
CONTINUOUS
 62
     2
 10
1360.25
 20
1104.65
 30
1.2
 40
12.0
  1
　　３５
 50
0.0
 41
0.9
 51
0.0
  7
KANJI23
  0
TEXT
  8
0
  6
CONTINUOUS
 62
     2
 10
1360.25
 20
1076.65
 30
1.2
 40
12.0
  1
　　３５
 50
0.0
 41
0.9
 51
0.0
  7
KANJI23
  0
TEXT
  8
0
  6
CONTINUOUS
 62
     2
 10
1360.25
 20
1048.65
 30
1.2
 40
12.0
  1
　　３５
 50
0.0
 41
0.9
 51
0.0
  7
KANJI23
  0
TEXT
  8
0
  6
CONTINUOUS
 62
     2
 10
1360.25
 20
1020.65
 30
1.2
 40
12.0
  1
　　３５
 50
0.0
 41
0.9
 51
0.0
  7
KANJI23
  0
TEXT
  8
0
  6
CONTINUOUS
 62
     2
 10
1200.25
 20
1020.65
 30
1.2
 40
12.0
  1
　９４８
 50
0.0
 41
0.9
 51
0.0
  7
KANJI23
  0
TEXT
  8
0
  6
CONTINUOUS
 62
     2
 10
1200.25
 20
1048.65
 30
1.2
 40
12.0
  1
　８４８
 50
0.0
 41
0.9
 51
0.0
  7
KANJI23
  0
TEXT
  8
0
  6
CONTINUOUS
 62
     2
 10
1200.25
 20
1076.65
 30
1.2
 40
12.0
  1
　７０８
 50
0.0
 41
0.9
 51
0.0
  7
KANJI23
  0
TEXT
  8
0
  6
CONTINUOUS
 62
     2
 10
1200.25
 20
1104.65
 30
1.2
 40
12.0
  1
　６０８
 50
0.0
 41
0.9
 51
0.0
  7
KANJI23
  0
TEXT
  8
0
  6
CONTINUOUS
 62
     2
 10
1120.25
 20
1188.65
 30
1.2
 40
12.0
  1
　６８５
 50
0.0
 41
0.9
 51
0.0
  7
KANJI23
  0
TEXT
  8
0
  6
CONTINUOUS
 62
     2
 10
1120.25
 20
1160.65
 30
1.2
 40
12.0
  1
　７８５
 50
0.0
 41
0.9
 51
0.0
  7
KANJI23
  0
TEXT
  8
0
  6
CONTINUOUS
 62
     2
 10
1120.25
 20
1132.65
 30
1.2
 40
12.0
  1
　８８５
 50
0.0
 41
0.9
 51
0.0
  7
KANJI23
  0
TEXT
  8
0
  6
CONTINUOUS
 62
     2
 10
1120.25
 20
1104.65
 30
1.2
 40
12.0
  1
　９８５
 50
0.0
 41
0.9
 51
0.0
  7
KANJI23
  0
TEXT
  8
0
  6
CONTINUOUS
 62
     2
 10
1120.25
 20
1076.65
 30
1.2
 40
12.0
  1
１０８５
 50
0.0
 41
0.9
 51
0.0
  7
KANJI23
  0
TEXT
  8
0
  6
CONTINUOUS
 62
     2
 10
1120.25
 20
1048.65
 30
1.2
 40
12.0
  1
１２２５
 50
0.0
 41
0.9
 51
0.0
  7
KANJI23
  0
TEXT
  8
0
  6
CONTINUOUS
 62
     2
 10
1120.25
 20
1020.65
 30
1.2
 40
12.0
  1
１３２５
 50
0.0
 41
0.9
 51
0.0
  7
KANJI23
  0
TEXT
  8
0
  6
CONTINUOUS
 62
     2
 10
1651.4166945
 20
124.999995
 30
10.833333333
 40
25.0
  1
３００２３４５
 50
0.0
 41
0.8
 51
0.0
  7
KANJI28
  0
LINE
  8
0
  6
CONTINUOUS
 62
     1
 10
1278.625
 20
1391.0
 11
1278.625
 21
1290.9
  0
LINE
  8
0
  6
CONTINUOUS
 62
     2
 10
1220.875
 20
1391.0
 11
1220.875
 21
1290.9
  0
LINE
  8
0
  6
CONTINUOUS
 62
     2
 10
1163.125
 20
1391.0
 11
1163.125
 21
1290.9
  0
LINE
  8
0
  6
CONTINUOUS
 62
     1
 10
1086.125
 20
1391.0
 11
1086.125
 21
1290.9
  0
LINE
  8
0
  6
CONTINUOUS
 62
     1
 10
1086.125
 20
1391.0
 11
1278.625
 21
1391.0
  0
LINE
  8
0
  6
CONTINUOUS
 62
     1
 10
1086.125
 20
1360.2
 11
1278.625
 21
1360.2
  0
LINE
  8
0
  6
CONTINUOUS
 62
     2
 10
1086.125
 20
1337.1
 11
1278.625
 21
1337.1
  0
LINE
  8
0
  6
CONTINUOUS
 62
     2
 10
1086.125
 20
1314.0
 11
1278.625
 21
1314.0
  0
LINE
  8
0
  6
CONTINUOUS
 62
     1
 10
1086.125
 20
1290.9
 11
1278.625
 21
1290.9
  0
TEXT
  8
0
  6
CONTINUOUS
 62
     2
 10
1228.575
 20
1377.525
 30
1.155
 40
11.55
  1
起動電流
 50
0.0
 41
0.9
 51
0.0
  7
KANJI29
  0
TEXT
  8
0
  6
CONTINUOUS
 62
     2
 10
1228.575
 20
1364.05
 30
1.155
 40
11.55
  1
　　　Ａ
 50
0.0
 41
0.9
 51
0.0
  7
KANJI29
  0
TEXT
  8
0
  6
CONTINUOUS
 62
     2
 10
1170.825
 20
1377.525
 30
1.155
 40
11.55
  1
定格電流
 50
0.0
 41
0.9
 51
0.0
  7
KANJI29
  0
TEXT
  8
0
  6
CONTINUOUS
 62
     2
 10
1170.825
 20
1364.05
 30
1.155
 40
11.55
  1
　　　Ａ
 50
0.0
 41
0.9
 51
0.0
  7
KANJI29
  0
TEXT
  8
0
  6
CONTINUOUS
 62
     2
 10
1092.67
 20
1319.775
 30
1.155
 40
11.55
  1
２００／６０
 50
0.0
 41
0.9
 51
0.0
  7
KANJI29
  0
TEXT
  8
0
  6
CONTINUOUS
 62
     2
 10
1092.67
 20
1377.525
 30
1.155
 40
11.55
  1
電圧／周波数
 50
0.0
 41
0.9
 51
0.0
  7
KANJI29
  0
TEXT
  8
0
  6
CONTINUOUS
 62
     2
 10
1092.67
 20
1364.05
 30
1.155
 40
11.55
  1
　Ｖ／Ｈｚ
 50
0.0
 41
0.9
 51
0.0
  7
KANJI29
  0
TEXT
  8
0
  6
CONTINUOUS
 62
     2
 10
1092.67
 20
1342.875
 30
1.155
 40
11.55
  1
２００／５０
 50
0.0
 41
0.9
 51
0.0
  7
KANJI29
  0
TEXT
  8
0
  6
CONTINUOUS
 62
     2
 10
1092.67
 20
1296.675
 30
1.155
 40
11.55
  1
２２０／６０
 50
0.0
 41
0.9
 51
0.0
  7
KANJI29
  0
LINE
  8
0
  6
CONTINUOUS
 62
     1
 10
1047.625
 20
1391.0
 11
1047.625
 21
1290.9
  0
LINE
  8
0
  6
CONTINUOUS
 62
     2
 10
989.875
 20
1391.0
 11
989.875
 21
1290.9
  0
LINE
  8
0
  6
CONTINUOUS
 62
     2
 10
932.125
 20
1391.0
 11
932.125
 21
1290.9
  0
LINE
  8
0
  6
CONTINUOUS
 62
     1
 10
855.125
 20
1391.0
 11
855.125
 21
1290.9
  0
LINE
  8
0
  6
CONTINUOUS
 62
     1
 10
855.125
 20
1391.0
 11
1047.625
 21
1391.0
  0
LINE
  8
0
  6
CONTINUOUS
 62
     1
 10
855.125
 20
1360.2
 11
1047.625
 21
1360.2
  0
LINE
  8
0
  6
CONTINUOUS
 62
     2
 10
855.125
 20
1337.1
 11
1047.625
 21
1337.1
  0
LINE
  8
0
  6
CONTINUOUS
 62
     2
 10
855.125
 20
1314.0
 11
1047.625
 21
1314.0
  0
LINE
  8
0
  6
CONTINUOUS
 62
     1
 10
855.125
 20
1290.9
 11
1047.625
 21
1290.9
  0
TEXT
  8
0
  6
CONTINUOUS
 62
     2
 10
997.575
 20
1377.525
 30
1.155
 40
11.55
  1
起動電流
 50
0.0
 41
0.9
 51
0.0
  7
KANJI29
  0
TEXT
  8
0
  6
CONTINUOUS
 62
     2
 10
997.575
 20
1364.05
 30
1.155
 40
11.55
  1
　　　Ａ
 50
0.0
 41
0.9
 51
0.0
  7
KANJI29
  0
TEXT
  8
0
  6
CONTINUOUS
 62
     2
 10
939.825
 20
1377.525
 30
1.155
 40
11.55
  1
定格電流
 50
0.0
 41
0.9
 51
0.0
  7
KANJI29
  0
TEXT
  8
0
  6
CONTINUOUS
 62
     2
 10
939.825
 20
1364.05
 30
1.155
 40
11.55
  1
　　　Ａ
 50
0.0
 41
0.9
 51
0.0
  7
KANJI29
  0
TEXT
  8
0
  6
CONTINUOUS
 62
     2
 10
861.67
 20
1377.525
 30
1.155
 40
11.55
  1
電圧／周波数
 50
0.0
 41
0.9
 51
0.0
  7
KANJI29
  0
TEXT
  8
0
  6
CONTINUOUS
 62
     2
 10
861.67
 20
1364.05
 30
1.155
 40
11.55
  1
　Ｖ／Ｈｚ
 50
0.0
 41
0.9
 51
0.0
  7
KANJI29
  0
TEXT
  8
0
  6
CONTINUOUS
 62
     2
 10
861.67
 20
1342.875
 30
1.155
 40
11.55
  1
４００／５０
 50
0.0
 41
0.9
 51
0.0
  7
KANJI29
  0
TEXT
  8
0
  6
CONTINUOUS
 62
     2
 10
861.67
 20
1319.775
 30
1.155
 40
11.55
  1
４００／６０
 50
0.0
 41
0.9
 51
0.0
  7
KANJI29
  0
TEXT
  8
0
  6
CONTINUOUS
 62
     2
 10
861.67
 20
1296.675
 30
1.155
 40
11.55
  1
４４０／６０
 50
0.0
 41
0.9
 51
0.0
  7
KANJI29
  0
TEXT
  8
0
  6
CONTINUOUS
 62
     2
 10
939.825
 20
1342.875
 30
1.155
 40
11.55
  1
　２．０
 50
0.0
 41
0.9
 51
0.0
  7
KANJI29
  0
TEXT
  8
0
  6
CONTINUOUS
 62
     2
 10
939.825
 20
1319.775
 30
1.155
 40
11.55
  1
　１．４
 50
0.0
 41
0.9
 51
0.0
  7
KANJI29
  0
TEXT
  8
0
  6
CONTINUOUS
 62
     2
 10
939.825
 20
1296.675
 30
1.155
 40
11.55
  1
　１．７
 50
0.0
 41
0.9
 51
0.0
  7
KANJI29
  0
TEXT
  8
0
  6
CONTINUOUS
 62
     2
 10
1170.825
 20
1342.875
 30
1.155
 40
11.55
  1
　４．０
 50
0.0
 41
0.9
 51
0.0
  7
KANJI29
  0
TEXT
  8
0
  6
CONTINUOUS
 62
     2
 10
1170.825
 20
1319.775
 30
1.155
 40
11.55
  1
　２．８
 50
0.0
 41
0.9
 51
0.0
  7
KANJI29
  0
TEXT
  8
0
  6
CONTINUOUS
 62
     2
 10
1170.825
 20
1296.675
 30
1.155
 40
11.55
  1
　３．３
 50
0.0
 41
0.9
 51
0.0
  7
KANJI29
  0
TEXT
  8
0
  6
CONTINUOUS
 62
     2
 10
1228.575
 20
1342.875
 30
1.155
 40
11.55
  1
　９．２
 50
0.0
 41
0.9
 51
0.0
  7
KANJI29
  0
TEXT
  8
0
  6
CONTINUOUS
 62
     2
 10
1228.575
 20
1319.775
 30
1.155
 40
11.55
  1
　８
 50
0.0
 41
0.9
 51
0.0
  7
KANJI29
  0
TEXT
  8
0
  6
CONTINUOUS
 62
     2
 10
1228.575
 20
1296.675
 30
1.155
 40
11.55
  1
　８．８
 50
0.0
 41
0.9
 51
0.0
  7
KANJI29
  0
TEXT
  8
0
  6
CONTINUOUS
 62
     2
 10
997.575
 20
1342.875
 30
1.155
 40
11.55
  1
　４．６
 50
0.0
 41
0.9
 51
0.0
  7
KANJI29
  0
TEXT
  8
0
  6
CONTINUOUS
 62
     2
 10
997.575
 20
1319.775
 30
1.155
 40
11.55
  1
　４
 50
0.0
 41
0.9
 51
0.0
  7
KANJI29
  0
TEXT
  8
0
  6
CONTINUOUS
 62
     2
 10
997.575
 20
1296.675
 30
1.155
 40
11.55
  1
　４．４
 50
0.0
 41
0.9
 51
0.0
  7
KANJI29
  0
LINE
  8
0
  6
CONTINUOUS
 62
     2
 10
854.25
 20
1181.95
 11
1502.25
 21
1181.95
  0
LINE
  8
0
  6
CONTINUOUS
 62
     2
 10
854.25
 20
1153.95
 11
1502.25
 21
1153.95
  0
LINE
  8
0
  6
CONTINUOUS
 62
     2
 10
854.25
 20
1125.95
 11
1502.25
 21
1125.95
  0
LINE
  8
0
  6
CONTINUOUS
 62
     2
 10
854.25
 20
1069.95
 11
1502.25
 21
1069.95
  0
LINE
  8
0
  6
CONTINUOUS
 62
     2
 10
854.25
 20
1097.95
 11
1502.25
 21
1097.95
  0
LINE
  8
0
  6
CONTINUOUS
 62
     2
 10
854.25
 20
1013.95
 11
1502.25
 21
1013.95
  0
LINE
  8
0
  6
CONTINUOUS
 62
     2
 10
854.25
 20
1041.95
 11
1502.25
 21
1041.95
  0
TEXT
  8
0
  6
CONTINUOUS
 62
     2
 10
1418.25
 20
1188.65
 30
1.2
 40
12.0
  1
　　２４
 50
0.0
 41
0.9
 51
0.0
  7
KANJI23
  0
TEXT
  8
0
  6
CONTINUOUS
 62
     2
 10
1418.25
 20
1160.65
 30
1.2
 40
12.0
  1
　　２５
 50
0.0
 41
0.9
 51
0.0
  7
KANJI23
  0
TEXT
  8
0
  6
CONTINUOUS
 62
     2
 10
1418.25
 20
1132.65
 30
1.2
 40
12.0
  1
　　２６
 50
0.0
 41
0.9
 51
0.0
  7
KANJI23
  0
TEXT
  8
0
  6
CONTINUOUS
 62
     2
 10
1418.25
 20
1104.65
 30
1.2
 40
12.0
  1
　　２６．５
 50
0.0
 41
0.9
 51
0.0
  7
KANJI23
  0
TEXT
  8
0
  6
CONTINUOUS
 62
     2
 10
1418.25
 20
1076.65
 30
1.2
 40
12.0
  1
　　２７
 50
0.0
 41
0.9
 51
0.0
  7
KANJI23
  0
TEXT
  8
0
  6
CONTINUOUS
 62
     2
 10
1418.25
 20
1048.65
 30
1.2
 40
12.0
  1
　　２７．５
 50
0.0
 41
0.9
 51
0.0
  7
KANJI23
  0
TEXT
  8
0
  6
CONTINUOUS
 62
     2
 10
1418.25
 20
1020.65
 30
1.2
 40
12.0
  1
　　２８
 50
0.0
 41
0.9
 51
0.0
  7
KANJI23
  0
TEXT
  8
0
  6
CONTINUOUS
 62
     6
 10
309.962791539
 20
1132.22382165
 30
0.0
 40
17.740702234
  1
端子台　接続図
 50
0.0
 41
0.880962996
 51
0.0
  7
KANJI30
  0
LINE
  8
0
  6
CONTINUOUS
 62
     2
 10
344.927373465
 20
1183.228121884
 11
344.927373465
 21
1160.449155128
  0
LINE
  8
0
  6
CONTINUOUS
 62
     2
 10
371.50283468
 20
1183.228121884
 11
371.50283468
 21
1160.449155128
  0
LINE
  8
0
  6
CONTINUOUS
 62
     2
 10
398.078295894
 20
1183.228121884
 11
398.078295894
 21
1160.449155128
  0
LINE
  8
0
  6
CONTINUOUS
 62
     2
 10
424.653757109
 20
1183.228121884
 11
424.653757109
 21
1160.449155128
  0
CIRCLE
  8
0
  6
CONTINUOUS
 62
     6
 10
416.734269667
 20
1206.707921517
 40
4.100214016
  0
LINE
  8
0
  6
CONTINUOUS
 62
     6
 10
412.634055651
 20
1206.707921517
 11
411.366026502
 21
1206.707921517
  0
LINE
  8
0
  6
CONTINUOUS
 62
     6
 10
437.688027433
 20
1220.394562742
 11
433.773558096
 21
1198.059507138
  0
LINE
  8
0
  6
CONTINUOUS
 62
     6
 10
432.961699663
 20
1221.182284037
 11
429.046922494
 21
1198.847279739
  0
LINE
  8
0
  6
CONTINUOUS
 62
     6
 10
433.773558096
 20
1198.059507138
 11
429.046922494
 21
1198.847279739
  0
CIRCLE
  8
0
  6
CONTINUOUS
 62
     6
 10
437.941487717
 20
1197.239464335
 40
4.100214016
  0
LINE
  8
0
  6
CONTINUOUS
 62
     6
 10
437.941487717
 20
1193.139250319
 11
437.941487717
 21
1183.228121884
  0
LINE
  8
0
  6
CONTINUOUS
 62
     6
 10
411.366026502
 20
1206.707921517
 11
411.366026502
 21
1183.228121884
  0
LINE
  8
0
  6
CONTINUOUS
 62
     6
 10
384.790565287
 20
1183.228121884
 11
384.790565287
 21
1236.933332504
  0
LINE
  8
0
  6
CONTINUOUS
 62
     6
 10
305.317641926
 20
1220.394562742
 11
309.232111263
 21
1198.059507138
  0
LINE
  8
0
  6
CONTINUOUS
 62
     6
 10
310.043969696
 20
1221.182284037
 11
313.958746865
 21
1198.847279739
  0
LINE
  8
0
  6
CONTINUOUS
 62
     6
 10
309.232111263
 20
1198.059507138
 11
313.958746865
 21
1198.847279739
  0
CIRCLE
  8
0
  6
CONTINUOUS
 62
     6
 10
305.064181642
 20
1197.239464335
 40
4.100214016
  0
CIRCLE
  8
0
  6
CONTINUOUS
 62
     6
 10
326.271399692
 20
1206.707921517
 40
4.100214016
  0
LINE
  8
0
  6
CONTINUOUS
 62
     6
 10
330.371613708
 20
1206.707921517
 11
331.639642857
 21
1206.707921517
  0
LINE
  8
0
  6
CONTINUOUS
 62
     6
 10
305.064181642
 20
1193.139250319
 11
305.064181642
 21
1183.228121884
  0
LINE
  8
0
  6
CONTINUOUS
 62
     6
 10
331.639642857
 20
1206.707921517
 11
331.639642857
 21
1183.228121884
  0
LINE
  8
0
  6
CONTINUOUS
 62
     6
 10
358.215104072
 20
1183.228121884
 11
358.215104072
 21
1236.933332504
  0
LINE
  8
0
  6
CONTINUOUS
 62
     2
 10
451.229218324
 20
1183.228121884
 11
451.229218324
 21
1160.449155128
  0
LINE
  8
0
  6
CONTINUOUS
 62
     2
 10
291.776451035
 20
1183.228121884
 11
291.776451035
 21
1160.449155128
  0
LINE
  8
0
  6
CONTINUOUS
 62
     2
 10
318.35191225
 20
1183.228121884
 11
318.35191225
 21
1160.449155128
  0
LINE
  8
0
  6
CONTINUOUS
 62
     6
 10
437.941487717
 20
1236.933332504
 11
384.790565287
 21
1236.933332504
  0
CIRCLE
  8
0
  6
CONTINUOUS
 62
     6
 10
437.941487717
 20
1224.58941042
 40
4.100214016
  0
LINE
  8
0
  6
CONTINUOUS
 62
     6
 10
437.688027433
 20
1220.394562742
 11
432.961699663
 21
1221.182284037
  0
LINE
  8
0
  6
CONTINUOUS
 62
     6
 10
437.941487717
 20
1228.689624436
 11
437.941487717
 21
1236.933332504
  0
CIRCLE
  8
0
  6
CONTINUOUS
 62
     6
 10
305.064181642
 20
1224.58941042
 40
4.100214016
  0
LINE
  8
0
  6
CONTINUOUS
 62
     6
 10
305.317641926
 20
1220.394562742
 11
310.043969696
 21
1221.182284037
  0
LINE
  8
0
  6
CONTINUOUS
 62
     6
 10
305.064181642
 20
1228.689624436
 11
305.064181642
 21
1236.933332504
  0
LINE
  8
0
  6
CONTINUOUS
 62
     6
 10
358.215104072
 20
1236.933332504
 11
305.064181642
 21
1236.933332504
  0
TEXT
  8
0
  6
CONTINUOUS
 62
     6
 10
309.8272152
 20
1241.452473273
 30
0.819
 40
11.7
  1
ＬＳ０１
 50
0.0
 41
0.8
 51
0.0
  7
KANJI31
  0
TEXT
  8
0
  6
CONTINUOUS
 62
     6
 10
392.447398844
 20
1241.452473273
 30
0.819
 40
11.7
  1
ＬＳ０２
 50
0.0
 41
0.8
 51
0.0
  7
KANJI31
  0
TEXT
  8
0
  6
CONTINUOUS
 62
     3
 10
137.638775989
 20
1164.245649587
 30
0.0
 40
15.0
  1
　　　　　　　　　　　　　　　　　　１　　２　　　３　　　４　　　５　　　６
 50
0.0
 41
0.911
 51
0.0
  7
KANJI32
  0
LINE
  8
0
  6
CONTINUOUS
 62
     2
 10
291.776451035
 20
1183.228121884
 11
451.229218324
 21
1183.228121884
  0
LINE
  8
0
  6
CONTINUOUS
 62
     2
 10
291.776451035
 20
1160.449155128
 11
451.229218324
 21
1160.449155128
  0
TEXT
  8
0
  6
CONTINUOUS
 62
     6
 10
283.462791539
 20
1271.22382165
 30
0.0
 40
17.740702234
  1
推力リミッタ端子台配列
 50
0.0
 41
0.880962996
 51
0.0
  7
KANJI30
  0
LINE
  8
0
  6
CONTINUOUS
 62
     2
 10
880.7275
 20
1269.725
 11
1270.02
 21
1269.725
  0
TEXT
  8
0
  6
CONTINUOUS
 62
     2
 10
888.4275
 20
1273.575
 30
1.3475
 40
13.475
  1
注意：サーマルリレー等の選定は、上記の値で選定して下さい。
 50
0.0
 41
0.9
 51
0.0
  7
KANJI33
  0
TEXT
  8
0
  6
CONTINUOUS
 62
     2
 10
199.0
 20
460.5
 30
0.0
 40
20.0
  1
ブレーキ解放装置はありません。
 50
0.0
 41
0.925
 51
0.0
  7
KANJI34
  0
TEXT
  8
0
  6
CONTINUOUS
 62
     2
 10
200.0
 20
435.5
 30
0.0
 40
20.0
  1
そのまま手動操作をして下さい．
 50
0.0
 41
0.925
 51
0.0
  7
KANJI34
  0
CIRCLE
  8
0
  6
CONTINUOUS
 62
     1
 10
595.0
 20
591.0
 40
20.0
  0
CIRCLE
  8
0
  6
CONTINUOUS
 62
     1
 10
595.0
 20
591.0
 40
8.0
  0
CIRCLE
  8
0
  6
CONTINUOUS
 62
     1
 10
595.0
 20
591.0
 40
27.0
  0
LINE
  8
0
  6
CONTINUOUS
 62
     1
 10
701.0
 20
551.0
 11
701.0
 21
631.0
  0
LINE
  8
0
  6
CONTINUOUS
 62
     1
 10
693.0
 20
551.0
 11
701.0
 21
551.0
  0
LINE
  8
0
  6
CONTINUOUS
 62
     1
 10
693.0
 20
631.0
 11
701.0
 21
631.0
  0
LINE
  8
0
  6
CONTINUOUS
 62
     1
 10
693.0
 20
628.0
 11
701.0
 21
628.0
  0
LINE
  8
0
  6
CONTINUOUS
 62
     1
 10
693.0
 20
554.0
 11
701.0
 21
554.0
  0
LINE
  8
0
  6
CONTINUOUS
 62
     1
 10
693.0
 20
589.5
 11
701.0
 21
589.5
  0
LINE
  8
0
  6
CONTINUOUS
 62
     1
 10
693.0
 20
592.5
 11
701.0
 21
592.5
  0
LINE
  8
0
  6
CONTINUOUS
 62
     1
 10
619.0
 20
614.0
 11
693.0
 21
614.0
  0
LINE
  8
0
  6
CONTINUOUS
 62
     1
 10
515.0
 20
629.0
 11
619.0
 21
629.0
  0
LINE
  8
0
  6
CONTINUOUS
 62
     1
 10
515.0
 20
553.0
 11
693.0
 21
553.0
  0
LINE
  8
0
  6
CONTINUOUS
 62
     1
 10
693.0
 20
551.0
 11
693.0
 21
636.0
  0
LINE
  8
0
  6
CONTINUOUS
 62
     1
 10
619.0
 20
636.0
 11
693.0
 21
636.0
  0
LINE
  8
0
  6
CONTINUOUS
 62
     1
 10
619.0
 20
608.0
 11
619.0
 21
636.0
  0
LINE
  8
0
  6
CONTINUOUS
 62
     1
 10
568.0
 20
680.5
 11
701.0
 21
680.5
  0
LINE
  8
0
  6
CONTINUOUS
 62
     1
 10
611.0
 20
637.5
 11
698.0
 21
637.5
  0
ARC
  8
0
  6
CONTINUOUS
 62
     1
 10
698.0
 20
640.5
 40
3.0
 50
270.0
 51
0.0
  0
LINE
  8
0
  6
CONTINUOUS
 62
     1
 10
568.0
 20
680.5
 11
568.0
 21
641.5
  0
LINE
  8
0
  6
CONTINUOUS
 62
     1
 10
571.0
 20
638.5
 11
611.0
 21
638.5
  0
ARC
  8
0
  6
CONTINUOUS
 62
     1
 10
571.0
 20
641.5
 40
3.0
 50
180.0
 51
270.0
  0
LINE
  8
0
  6
CONTINUOUS
 62
     1
 10
573.0
 20
688.0
 11
573.0
 21
638.5
  0
LINE
  8
0
  6
CONTINUOUS
 62
     1
 10
573.0
 20
688.0
 11
701.0
 21
688.0
  0
LINE
  8
0
  6
CONTINUOUS
 62
     1
 10
701.0
 20
688.0
 11
701.0
 21
640.5
  0
LINE
  8
0
  6
CONTINUOUS
 62
     1
 10
573.0
 20
682.0
 11
701.0
 21
682.0
  0
LINE
  8
0
  6
CONTINUOUS
 62
     1
 10
619.0
 20
637.5
 11
619.0
 21
636.0
  0
LINE
  8
0
  6
CONTINUOUS
 62
     1
 10
693.0
 20
637.5
 11
693.0
 21
636.0
  0
LINE
  8
0
  6
CONTINUOUS
 62
     1
 10
611.0
 20
638.5
 11
611.0
 21
637.5
  0
LINE
  8
0
  6
LTYPE3
 62
     2
 10
595.0
 20
538.0
 11
595.0
 21
644.0
  0
LINE
  8
0
  6
CONTINUOUS
 62
     2
 10
595.0
 20
816.0
 11
604.659258263
 21
813.411809549
  0
LINE
  8
0
  6
CONTINUOUS
 62
     2
 10
595.0
 20
816.0
 11
604.659258263
 21
818.588190451
  0
LINE
  8
0
  6
CONTINUOUS
 62
     2
 10
595.0
 20
786.0
 11
604.659258263
 21
783.411809549
  0
LINE
  8
0
  6
CONTINUOUS
 62
     2
 10
595.0
 20
786.0
 11
604.659258263
 21
788.588190451
  0
LINE
  8
0
  6
CONTINUOUS
 62
     2
 10
595.0
 20
656.0
 11
595.0
 21
824.0
  0
LINE
  8
0
  6
LTYPE2
 62
     2
 10
562.0
 20
663.5
 11
579.0
 21
663.5
  0
LINE
  8
0
  6
LTYPE3
 62
     2
 10
656.0
 20
621.643325909
 11
656.0
 21
649.0
  0
LINE
  8
7
  6
CONTINUOUS
 62
     2
 10
568.0
 20
663.5
 11
563.0
 21
672.160254038
  0
LINE
  8
7
  6
CONTINUOUS
 62
     2
 10
568.0
 20
663.5
 11
559.339745962
 21
668.5
  0
LINE
  8
7
  6
CONTINUOUS
 62
     2
 10
568.0
 20
663.5
 11
543.0
 21
688.5
  0
LINE
  8
7
  6
CONTINUOUS
 62
     2
 10
633.0
 20
688.0
 11
640.189002379
 21
694.951132627
  0
LINE
  8
7
  6
CONTINUOUS
 62
     2
 10
633.0
 20
688.0
 11
635.750292375
 21
697.614358629
  0
LINE
  8
7
  6
CONTINUOUS
 62
     2
 10
633.0
 20
688.0
 11
648.0
 21
713.0
  0
LINE
  8
7
  6
CONTINUOUS
 62
     2
 10
648.0
 20
713.0
 11
718.8
 21
713.0
  0
LINE
  8
7
  6
CONTINUOUS
 62
     2
 10
595.0
 20
822.0
 11
595.0
 21
822.0
  0
LINE
  8
7
  6
CONTINUOUS
 62
     2
 10
595.0
 20
816.0
 11
585.340741737
 21
818.588190451
  0
LINE
  8
7
  6
CONTINUOUS
 62
     2
 10
595.0
 20
816.0
 11
585.340741737
 21
813.411809549
  0
LINE
  8
7
  6
CONTINUOUS
 62
     2
 10
595.0
 20
816.0
 11
218.0
 21
816.0
  0
LINE
  8
2
  6
CONTINUOUS
 62
     2
 10
595.0
 20
591.0
 11
588.382704924
 21
583.502573383
  0
LINE
  8
2
  6
CONTINUOUS
 62
     2
 10
595.0
 20
591.0
 11
593.017967669
 21
581.198390549
  0
TEXT
  8
0
  6
CONTINUOUS
 62
     2
 10
720.0
 20
790.0
 30
0.0
 40
15.0
  1
Ｃ
 50
0.0
 41
0.9
 51
0.0
  7
KANJI35
  0
TEXT
  8
0
  6
CONTINUOUS
 62
     2
 10
609.2
 20
850.0
 30
0.0
 40
15.0
  1
ｍｉｎ．ＡＬ
 50
0.0
 41
0.9
 51
0.0
  7
KANJI35
  0
TEXT
  8
0
  6
CONTINUOUS
 62
     2
 10
767.5
 20
820.0
 30
0.0
 40
15.0
  1
ｍｉｎ．Ｌ
 50
0.0
 41
0.9
 51
0.0
  7
KANJI35
  0
TEXT
  8
7
  6
CONTINUOUS
 62
     2
 10
648.0
 20
717.0
 30
0.0
 40
15.0
  1
推力リミッタ
 50
0.0
 41
0.9
 51
0.0
  7
KANJI35
  0
LINE
  8
0
  6
CONTINUOUS
 62
     1
 10
573.7
 20
688.0
 11
584.3
 21
688.0
  0
ARC
  8
0
  6
CONTINUOUS
 62
     1
 10
578.6
 20
687.0
 40
5.0
 50
92.3
 51
168.5
  0
ARC
  8
0
  6
CONTINUOUS
 62
     1
 10
579.4
 20
687.0
 40
5.0
 50
11.5
 51
87.7
  0
LINE
  8
0
  6
CONTINUOUS
 62
     1
 10
578.4
 20
692.0
 11
579.6
 21
692.0
  0
LINE
  8
0
  6
LTYPE4
 62
     2
 10
579.0
 20
695.4
 11
579.0
 21
682.0
  0
LINE
  8
0
  6
CONTINUOUS
 62
     1
 10
689.55
 20
688.1
 11
700.15
 21
688.1
  0
ARC
  8
0
  6
CONTINUOUS
 62
     1
 10
694.45
 20
687.1
 40
5.0
 50
92.3
 51
168.5
  0
ARC
  8
0
  6
CONTINUOUS
 62
     1
 10
695.25
 20
687.1
 40
5.0
 50
11.5
 51
87.7
  0
LINE
  8
0
  6
CONTINUOUS
 62
     1
 10
694.25
 20
692.1
 11
695.45
 21
692.1
  0
LINE
  8
0
  6
LTYPE4
 62
     2
 10
694.85
 20
695.5
 11
694.85
 21
682.1
  0
LINE
  8
0
  6
CONTINUOUS
 62
     2
 10
735.75
 20
591.0
 11
742.3
 21
591.0
  0
LINE
  8
0
  6
CONTINUOUS
 62
     1
 10
439.0
 20
533.0
 11
461.0
 21
533.0
  0
LINE
  8
0
  6
CONTINUOUS
 62
     1
 10
515.0
 20
553.0
 11
515.0
 21
629.0
  0
LINE
  8
0
  6
CONTINUOUS
 62
     1
 10
515.0
 20
553.0
 11
461.0
 21
533.0
  0
LINE
  8
0
  6
CONTINUOUS
 62
     1
 10
439.0
 20
649.0
 11
461.0
 21
649.0
  0
LINE
  8
0
  6
CONTINUOUS
 62
     1
 10
461.0
 20
533.0
 11
461.0
 21
649.0
  0
LINE
  8
0
  6
CONTINUOUS
 62
     1
 10
461.0
 20
649.0
 11
515.0
 21
629.0
  0
LINE
  8
0
  6
CONTINUOUS
 62
     1
 10
430.0
 20
531.0
 11
439.0
 21
531.0
  0
LINE
  8
0
  6
CONTINUOUS
 62
     1
 10
430.0
 20
651.0
 11
439.0
 21
651.0
  0
LINE
  8
0
  6
CONTINUOUS
 62
     1
 10
430.0
 20
531.0
 11
430.0
 21
651.0
  0
LINE
  8
0
  6
CONTINUOUS
 62
     1
 10
439.0
 20
531.0
 11
439.0
 21
651.0
  0
LINE
  8
0
  6
CONTINUOUS
 62
     1
 10
416.0
 20
591.0
 11
416.0
 21
648.0
  0
ARC
  8
0
  6
CONTINUOUS
 62
     1
 10
420.5
 20
649.5
 40
1.5
 50
270.0
 51
0.0
  0
LINE
  8
0
  6
CONTINUOUS
 62
     1
 10
423.5
 20
652.0
 11
430.0
 21
652.0
  0
LINE
  8
0
  6
CONTINUOUS
 62
     1
 10
422.0
 20
649.5
 11
422.0
 21
650.5
  0
ARC
  8
0
  6
CONTINUOUS
 62
     1
 10
423.5
 20
650.5
 40
1.5
 50
90.0
 51
180.0
  0
LINE
  8
0
  6
CONTINUOUS
 62
     1
 10
267.0
 20
591.0
 11
267.0
 21
648.0
  0
ARC
  8
0
  6
CONTINUOUS
 62
     1
 10
263.5
 20
646.5
 40
1.5
 50
90.0
 51
180.0
  0
LINE
  8
0
  6
CONTINUOUS
 62
     1
 10
422.0
 20
591.0
 11
422.0
 21
650.1
  0
LINE
  8
0
  6
CONTINUOUS
 62
     1
 10
262.0
 20
634.070524155
 11
262.0
 21
646.5
  0
ARC
  8
0
  6
CONTINUOUS
 62
     1
 10
260.5
 20
634.070524155
 40
1.5
 50
288.970407808
 51
0.0
  0
LINE
  8
0
  6
CONTINUOUS
 62
     1
 10
246.0
 20
591.0
 11
246.0
 21
626.429475845
  0
LINE
  8
0
  6
CONTINUOUS
 62
     1
 10
247.012380347
 20
627.848005744
 11
260.987619653
 21
632.651994256
  0
ARC
  8
0
  6
CONTINUOUS
 62
     1
 10
247.5
 20
626.429475845
 40
1.5
 50
108.970407808
 51
180.0
  0
LINE
  8
0
  6
CONTINUOUS
 62
     1
 10
262.0
 20
591.0
 11
262.0
 21
634.070524155
  0
ARC
  8
0
  6
CONTINUOUS
 62
     1
 10
234.0
 20
607.5
 40
1.0
 50
90.0
 51
180.0
  0
LINE
  8
0
  6
CONTINUOUS
 62
     1
 10
234.0
 20
608.5
 11
246.0
 21
608.5
  0
LINE
  8
0
  6
CONTINUOUS
 62
     1
 10
233.0
 20
591.0
 11
233.0
 21
607.5
  0
LINE
  8
0
  6
CONTINUOUS
 62
     1
 10
416.0
 20
591.0
 11
416.0
 21
534.0
  0
ARC
  8
0
  6
CONTINUOUS
 62
     1
 10
420.5
 20
532.5
 40
1.5
 50
0.0
 51
90.0
  0
LINE
  8
0
  6
CONTINUOUS
 62
     1
 10
423.5
 20
530.0
 11
430.0
 21
530.0
  0
LINE
  8
0
  6
CONTINUOUS
 62
     1
 10
422.0
 20
532.5
 11
422.0
 21
531.5
  0
ARC
  8
0
  6
CONTINUOUS
 62
     1
 10
423.5
 20
531.5
 40
1.5
 50
180.0
 51
270.0
  0
LINE
  8
0
  6
CONTINUOUS
 62
     1
 10
267.0
 20
591.0
 11
267.0
 21
534.0
  0
LINE
  8
0
  6
CONTINUOUS
 62
     1
 10
263.5
 20
534.0
 11
420.5
 21
534.0
  0
ARC
  8
0
  6
CONTINUOUS
 62
     1
 10
263.5
 20
535.5
 40
1.5
 50
180.0
 51
270.0
  0
LINE
  8
0
  6
CONTINUOUS
 62
     1
 10
422.0
 20
591.0
 11
422.0
 21
531.9
  0
LINE
  8
0
  6
CONTINUOUS
 62
     1
 10
246.0
 20
591.0
 11
246.0
 21
555.570524155
  0
ARC
  8
0
  6
CONTINUOUS
 62
     1
 10
247.5
 20
555.570524155
 40
1.5
 50
180.0
 51
251.029592192
  0
ARC
  8
0
  6
CONTINUOUS
 62
     1
 10
234.0
 20
574.5
 40
1.0
 50
180.0
 51
270.0
  0
LINE
  8
0
  6
CONTINUOUS
 62
     1
 10
234.0
 20
573.5
 11
246.0
 21
573.5
  0
LINE
  8
0
  6
CONTINUOUS
 62
     1
 10
233.0
 20
591.0
 11
233.0
 21
574.5
  0
LINE
  8
0
  6
CONTINUOUS
 62
     1
 10
260.7
 20
627.062445841
 11
260.7
 21
622.450565841
  0
LINE
  8
0
  6
CONTINUOUS
 62
     1
 10
260.7
 20
627.062445841
 11
260.7
 21
631.674325841
  0
LINE
  8
0
  6
CONTINUOUS
 62
     1
 10
257.1998
 20
623.580005841
 11
257.851882488
 21
622.450565841
  0
LINE
  8
0
  6
CONTINUOUS
 62
     1
 10
257.1998
 20
627.062445841
 11
257.1998
 21
623.580005841
  0
LINE
  8
0
  6
CONTINUOUS
 62
     1
 10
257.1998
 20
630.544885841
 11
257.851882488
 21
631.674325841
  0
LINE
  8
0
  6
CONTINUOUS
 62
     1
 10
257.1998
 20
627.062445841
 11
257.1998
 21
630.544885841
  0
ARC
  8
0
  6
CONTINUOUS
 62
     1
 10
261.603054926
 20
627.062445841
 40
4.403254926
 50
148.419912243
 51
211.580087757
  0
ARC
  8
0
  6
CONTINUOUS
 62
     1
 10
258.544720132
 20
623.603535841
 40
1.34512595
 50
121.002313915
 51
182.989498403
  0
LINE
  8
0
  6
CONTINUOUS
 62
     1
 10
257.1998
 20
630.544885841
 11
257.851882488
 21
631.674325841
  0
ARC
  8
0
  6
CONTINUOUS
 62
     1
 10
258.544720132
 20
630.521355841
 40
1.34512595
 50
177.010501597
 51
238.997686085
  0
LINE
  8
0
  6
CONTINUOUS
 62
     1
 10
260.7
 20
622.450565841
 11
257.851882488
 21
622.450565841
  0
LINE
  8
0
  6
CONTINUOUS
 62
     1
 10
260.7
 20
624.756505841
 11
257.851882488
 21
624.756505841
  0
LINE
  8
0
  6
CONTINUOUS
 62
     1
 10
260.7
 20
629.368385841
 11
257.851882488
 21
629.368385841
  0
LINE
  8
0
  6
CONTINUOUS
 62
     1
 10
260.7
 20
631.674325841
 11
257.851882488
 21
631.674325841
  0
LINE
  8
0
  6
CONTINUOUS
 62
     1
 10
262.0
 20
622.462445841
 11
260.7
 21
622.462445841
  0
LINE
  8
0
  6
CONTINUOUS
 62
     1
 10
262.0
 20
627.062445841
 11
260.700000446
 21
625.762446287
  0
LINE
  8
0
  6
CONTINUOUS
 62
     1
 10
260.700000446
 20
627.062445841
 11
262.0
 21
628.362445394
  0
LINE
  8
0
  6
CONTINUOUS
 62
     1
 10
262.0
 20
631.662445841
 11
260.7
 21
631.662445841
  0
LINE
  8
0
  6
CONTINUOUS
 62
     1
 10
262.0
 20
547.929475845
 11
262.0
 21
535.5
  0
ARC
  8
0
  6
CONTINUOUS
 62
     1
 10
260.5
 20
547.929475845
 40
1.5
 50
0.0
 51
71.029592192
  0
LINE
  8
0
  6
CONTINUOUS
 62
     1
 10
247.012380347
 20
554.151994256
 11
260.987619653
 21
549.348005744
  0
LINE
  8
0
  6
CONTINUOUS
 62
     1
 10
262.0
 20
591.0
 11
262.0
 21
547.929475845
  0
LINE
  8
0
  6
CONTINUOUS
 62
     1
 10
260.7
 20
554.937554159
 11
260.7
 21
559.549434159
  0
LINE
  8
0
  6
CONTINUOUS
 62
     1
 10
260.7
 20
554.937554159
 11
260.7
 21
550.325674159
  0
LINE
  8
0
  6
CONTINUOUS
 62
     1
 10
257.1998
 20
558.419994159
 11
257.851882488
 21
559.549434159
  0
LINE
  8
0
  6
CONTINUOUS
 62
     1
 10
257.1998
 20
554.937554159
 11
257.1998
 21
558.419994159
  0
LINE
  8
0
  6
CONTINUOUS
 62
     1
 10
257.1998
 20
551.455114159
 11
257.851882488
 21
550.325674159
  0
LINE
  8
0
  6
CONTINUOUS
 62
     1
 10
257.1998
 20
554.937554159
 11
257.1998
 21
551.455114159
  0
ARC
  8
0
  6
CONTINUOUS
 62
     1
 10
261.603054926
 20
554.937554159
 40
4.403254926
 50
148.419912243
 51
211.580087757
  0
ARC
  8
0
  6
CONTINUOUS
 62
     1
 10
258.544720132
 20
558.396464159
 40
1.34512595
 50
177.010501597
 51
238.997686085
  0
LINE
  8
0
  6
CONTINUOUS
 62
     1
 10
257.1998
 20
551.455114159
 11
257.851882488
 21
550.325674159
  0
ARC
  8
0
  6
CONTINUOUS
 62
     1
 10
258.544720132
 20
551.478644159
 40
1.34512595
 50
121.002313915
 51
182.989498403
  0
LINE
  8
0
  6
CONTINUOUS
 62
     1
 10
260.7
 20
559.549434159
 11
257.851882488
 21
559.549434159
  0
LINE
  8
0
  6
CONTINUOUS
 62
     1
 10
260.7
 20
557.243494159
 11
257.851882488
 21
557.243494159
  0
LINE
  8
0
  6
CONTINUOUS
 62
     1
 10
260.7
 20
552.631614159
 11
257.851882488
 21
552.631614159
  0
LINE
  8
0
  6
CONTINUOUS
 62
     1
 10
260.7
 20
550.325674159
 11
257.851882488
 21
550.325674159
  0
LINE
  8
0
  6
CONTINUOUS
 62
     1
 10
262.0
 20
559.537554159
 11
260.7
 21
559.537554159
  0
LINE
  8
0
  6
CONTINUOUS
 62
     1
 10
262.0
 20
554.937554159
 11
260.700000446
 21
556.237553713
  0
LINE
  8
0
  6
CONTINUOUS
 62
     1
 10
260.700000446
 20
554.937554159
 11
262.0
 21
553.637554606
  0
LINE
  8
0
  6
CONTINUOUS
 62
     1
 10
262.0
 20
550.337554159
 11
260.7
 21
550.337554159
  0
LINE
  8
0
  6
CONTINUOUS
 62
     1
 10
232.0
 20
594.8
 11
233.0
 21
594.8
  0
LINE
  8
0
  6
CONTINUOUS
 62
     1
 10
232.0
 20
591.0
 11
233.0
 21
592.0
  0
LINE
  8
0
  6
CONTINUOUS
 62
     1
 10
229.517542648
 20
595.05
 11
232.0
 21
595.05
  0
LINE
  8
0
  6
CONTINUOUS
 62
     1
 10
229.2
 20
594.5
 11
229.517542648
 21
595.05
  0
LINE
  8
0
  6
CONTINUOUS
 62
     1
 10
229.517542648
 20
593.025
 11
232.0
 21
593.025
  0
ARC
  8
0
  6
CONTINUOUS
 62
     1
 10
230.972973788
 20
594.0375
 40
1.772973788
 50
145.174816769
 51
214.825183231
  0
LINE
  8
0
  6
CONTINUOUS
 62
     1
 10
232.0
 20
587.2
 11
233.0
 21
587.2
  0
LINE
  8
0
  6
CONTINUOUS
 62
     1
 10
232.0
 20
590.0
 11
233.0
 21
591.0
  0
LINE
  8
0
  6
CONTINUOUS
 62
     1
 10
229.2
 20
587.5
 11
229.517542648
 21
586.95
  0
LINE
  8
0
  6
CONTINUOUS
 62
     1
 10
229.517542648
 20
586.95
 11
232.0
 21
586.95
  0
LINE
  8
0
  6
CONTINUOUS
 62
     1
 10
229.517542648
 20
588.975
 11
232.0
 21
588.975
  0
ARC
  8
0
  6
CONTINUOUS
 62
     1
 10
230.972973788
 20
587.9625
 40
1.772973788
 50
145.174816769
 51
214.825183231
  0
LINE
  8
0
  6
CONTINUOUS
 62
     1
 10
232.0
 20
595.05
 11
232.0
 21
586.95
  0
LINE
  8
0
  6
CONTINUOUS
 62
     1
 10
229.2
 20
594.5
 11
229.2
 21
587.5
  0
ARC
  8
0
  6
CONTINUOUS
 62
     1
 10
235.815581181
 20
591.0
 40
6.615581181
 50
162.175912681
 51
197.824087319
  0
LINE
  8
0
  6
CONTINUOUS
 62
     1
 10
317.0
 20
669.0
 11
317.0
 21
703.0
  0
LINE
  8
0
  6
CONTINUOUS
 62
     1
 10
317.0
 20
669.0
 11
343.0
 21
669.0
  0
LINE
  8
0
  6
CONTINUOUS
 62
     1
 10
317.0
 20
703.0
 11
343.0
 21
703.0
  0
LINE
  8
0
  6
CONTINUOUS
 62
     1
 10
413.0
 20
661.0
 11
413.0
 21
664.0
  0
ARC
  8
0
  6
CONTINUOUS
 62
     1
 10
409.0
 20
658.0
 40
3.0
 50
90.0
 51
180.0
  0
LINE
  8
0
  6
CONTINUOUS
 62
     1
 10
406.0
 20
651.0
 11
406.0
 21
658.0
  0
ARC
  8
0
  6
CONTINUOUS
 62
     1
 10
403.0
 20
651.0
 40
3.0
 50
270.0
 51
0.0
  0
LINE
  8
0
  6
CONTINUOUS
 62
     1
 10
263.5
 20
648.0
 11
420.5
 21
648.0
  0
LINE
  8
0
  6
CONTINUOUS
 62
     1
 10
353.0
 20
661.0
 11
353.0
 21
664.0
  0
ARC
  8
0
  6
CONTINUOUS
 62
     1
 10
357.0
 20
658.0
 40
3.0
 50
0.0
 51
90.0
  0
LINE
  8
0
  6
CONTINUOUS
 62
     1
 10
360.0
 20
651.0
 11
360.0
 21
658.0
  0
ARC
  8
0
  6
CONTINUOUS
 62
     1
 10
363.0
 20
651.0
 40
3.0
 50
180.0
 51
270.0
  0
LINE
  8
0
  6
CONTINUOUS
 62
     1
 10
353.0
 20
661.0
 11
413.0
 21
661.0
  0
LINE
  8
0
  6
CONTINUOUS
 62
     1
 10
428.087912088
 20
666.0
 11
336.0
 21
710.020045888
  0
LINE
  8
0
  6
CONTINUOUS
 62
     1
 10
430.0
 20
670.0
 11
428.087912088
 21
666.0
  0
LINE
  8
0
  6
CONTINUOUS
 62
     1
 10
430.0
 20
670.0
 11
337.912087912
 21
714.020045888
  0
LINE
  8
0
  6
CONTINUOUS
 62
     1
 10
337.912087912
 20
714.020045888
 11
336.0
 21
710.020045888
  0
LINE
  8
0
  6
CONTINUOUS
 62
     1
 10
423.0
 20
673.346153846
 11
423.0
 21
713.0
  0
ARC
  8
0
  6
CONTINUOUS
 62
     1
 10
420.0
 20
713.0
 40
3.0
 50
0.0
 51
90.0
  0
LINE
  8
0
  6
CONTINUOUS
 62
     1
 10
423.0
 20
667.0
 11
423.0
 21
668.4321338
  0
ARC
  8
0
  6
CONTINUOUS
 62
     1
 10
420.0
 20
667.0
 40
3.0
 50
270.0
 51
0.0
  0
LINE
  8
0
  6
CONTINUOUS
 62
     1
 10
343.0
 20
667.0
 11
343.0
 21
706.673892042
  0
LINE
  8
0
  6
CONTINUOUS
 62
     1
 10
346.0
 20
664.0
 11
420.0
 21
664.0
  0
ARC
  8
0
  6
CONTINUOUS
 62
     1
 10
346.0
 20
667.0
 40
3.0
 50
180.0
 51
270.0
  0
LINE
  8
0
  6
CONTINUOUS
 62
     1
 10
343.0
 20
711.587912088
 11
343.0
 21
713.0
  0
LINE
  8
0
  6
CONTINUOUS
 62
     1
 10
346.0
 20
716.0
 11
420.0
 21
716.0
  0
ARC
  8
0
  6
CONTINUOUS
 62
     1
 10
346.0
 20
713.0
 40
3.0
 50
90.0
 51
180.0
  0
LINE
  8
0
  6
CONTINUOUS
 62
     1
 10
218.0
 20
591.0
 11
218.0
 21
605.0
  0
ARC
  8
0
  6
CONTINUOUS
 62
     1
 10
219.5
 20
605.0
 40
1.5
 50
90.0
 51
180.0
  0
LINE
  8
0
  6
CONTINUOUS
 62
     1
 10
218.0
 20
591.0
 11
218.0
 21
577.0
  0
ARC
  8
0
  6
CONTINUOUS
 62
     1
 10
219.5
 20
577.0
 40
1.5
 50
180.0
 51
270.0
  0
LINE
  8
0
  6
CONTINUOUS
 62
     1
 10
219.500006877
 20
606.5
 11
233.0
 21
606.5
  0
LINE
  8
0
  6
CONTINUOUS
 62
     1
 10
219.500008314
 20
575.5
 11
233.0
 21
575.5
  0
LINE
  8
7
  6
CONTINUOUS
 62
     2
 10
543.0
 20
688.5
 11
484.2
 21
688.5
  0
LINE
  8
0
  6
LTYPE2
 62
     2
 10
254.0
 20
627.062445841
 11
265.0
 21
627.062445841
  0
LINE
  8
0
  6
LTYPE2
 62
     2
 10
254.0
 20
554.937554159
 11
265.0
 21
554.937554159
  0
LINE
  8
0
  6
LTYPE2
 62
     2
 10
310.070524155
 20
686.0
 11
350.070524155
 21
686.0
  0
LINE
  8
0
  6
LTYPE2
 62
     2
 10
383.0
 20
636.0
 11
383.0
 21
723.9321338
  0
LINE
  8
7
  6
CONTINUOUS
 62
     2
 10
218.0
 20
846.0
 11
227.659258263
 21
843.411809549
  0
LINE
  8
7
  6
CONTINUOUS
 62
     2
 10
218.0
 20
846.0
 11
227.659258263
 21
848.588190451
  0
LINE
  8
7
  6
CONTINUOUS
 62
     2
 10
218.0
 20
611.000007629
 11
218.0
 21
852.0
  0
LINE
  8
7
  6
CONTINUOUS
 62
     2
 10
218.0
 20
816.0
 11
227.659258263
 21
813.411809549
  0
LINE
  8
7
  6
CONTINUOUS
 62
     2
 10
218.0
 20
816.0
 11
227.659258263
 21
818.588190451
  0
LINE
  8
7
  6
CONTINUOUS
 62
     2
 10
218.0
 20
817.0
 11
218.0
 21
822.0
  0
LINE
  8
2
  6
CONTINUOUS
 62
     2
 10
218.0
 20
591.0
 11
213.56773406
 21
582.035903914
  0
LINE
  8
2
  6
CONTINUOUS
 62
     2
 10
218.0
 20
591.0
 11
218.643593142
 21
581.020732098
  0
LINE
  8
2
  6
CONTINUOUS
 62
     2
 10
218.0
 20
591.0
 11
197.5
 21
488.5
  0
LINE
  8
0
  6
CONTINUOUS
 62
     2
 10
317.0
 20
686.0
 11
314.146623303
 21
695.584270521
  0
LINE
  8
0
  6
CONTINUOUS
 62
     2
 10
317.0
 20
686.0
 11
309.736768034
 21
692.8735334
  0
LINE
  8
0
  6
CONTINUOUS
 62
     2
 10
317.0
 20
686.0
 11
287.31
 21
734.3
  0
LINE
  8
0
  6
CONTINUOUS
 62
     2
 10
287.31
 20
734.3
 11
233.31
 21
734.3
  0
TEXT
  8
7
  6
CONTINUOUS
 62
     2
 10
484.2
 20
692.5
 30
0.0
 40
15.0
  1
ＰＦ１／２
 50
0.0
 41
0.9
 51
0.0
  7
KANJI35
  0
TEXT
  8
7
  6
CONTINUOUS
 62
     2
 10
388.6
 20
820.0
 30
0.0
 40
15.0
  1
３７７
 50
0.0
 41
0.9
 51
0.0
  7
KANJI35
  0
TEXT
  8
0
  6
CONTINUOUS
 62
     3
 10
233.31
 20
736.3
 30
0.0
 40
15.0
  1
ＰＦ３／４
 50
0.0
 41
0.9
 51
0.0
  7
KANJI35
  0
ARC
  8
0
  6
CONTINUOUS
 62
     2
 10
173.0
 20
593.6
 40
20.0
 50
231.952957468
 51
156.801409486
  0
TEXT
  8
0
  6
CONTINUOUS
 62
     2
 10
92.6170994
 20
584.478385972
 30
0.0
 40
15.0
  1
前進方向
 50
0.0
 41
0.9
 51
0.0
  7
KANJI35
  0
LINE
  8
0
  6
CONTINUOUS
 62
     2
 10
154.6170994
 20
601.478385972
 11
156.91179211
 21
611.315824749
  0
LINE
  8
0
  6
CONTINUOUS
 62
     2
 10
154.6170994
 20
601.478385972
 11
162.885260778
 21
606.385722507
  0
TEXT
  8
2
  6
CONTINUOUS
 62
     2
 10
104.3
 20
492.1
 30
0.0
 40
15.0
  1
手動軸カバ－
 50
0.0
 41
0.9
 51
0.0
  7
KANJI35
  0
LINE
  8
2
  6
CONTINUOUS
 62
     2
 10
96.5
 20
488.5
 11
197.5
 21
488.5
  0
TEXT
  8
0
  6
CONTINUOUS
 62
     2
 10
279.74
 20
551.62
 30
0.0
 40
15.0
  1
エコノストップモータ
 50
0.0
 41
0.9
 51
0.0
  7
KANJI35
  0
TEXT
  8
0
  6
CONTINUOUS
 62
     2
 10
291.27
 20
569.65
 30
0.0
 40
15.0
  1
日本電産
 50
0.0
 41
0.9
 51
0.0
  7
KANJI35
  0
LINE
  8
0
  6
CONTINUOUS
 62
     1
 10
334.0
 20
640.5
 11
334.0
 21
597.5
  0
TEXT
  8
0
  6
CONTINUOUS
 62
     2
 10
345.0
 20
602.5
 30
5.0
 40
20.0
  1
銘板
 50
0.0
 41
0.925
 51
0.0
  7
KANJI36
  0
LINE
  8
0
  6
CONTINUOUS
 62
     1
 10
404.0
 20
640.5
 11
404.0
 21
597.5
  0
LINE
  8
0
  6
CONTINUOUS
 62
     1
 10
334.0
 20
597.5
 11
404.0
 21
597.5
  0
LINE
  8
0
  6
CONTINUOUS
 62
     1
 10
334.0
 20
640.5
 11
404.0
 21
640.5
  0
LINE
  8
0
  6
LTYPE2
 62
     6
 10
245.196929694
 20
986.95
 11
114.8
 21
986.95
  0
LINE
  8
0
  6
CONTINUOUS
 62
     6
 10
109.77521631
 20
962.244189033
 11
119.980193417
 21
972.44916614
  0
TEXT
  8
0
  6
CONTINUOUS
 62
     6
 10
125.045473047
 20
995.616131352
 30
1.518597784
 40
15.185977837
  1
エコノストップモータ
 50
0.0
 41
0.66671875
 51
0.0
  7
KANJI37
  0
LINE
  8
0
  6
LTYPE2
 62
     6
 10
245.196929694
 20
891.538267891
 11
245.196929694
 21
986.95
  0
CIRCLE
  8
0
  6
CONTINUOUS
 62
     6
 10
159.629006575
 20
941.756529957
 40
18.223173404
  0
TEXT
  8
0
  6
CONTINUOUS
 62
     6
 10
151.975273745
 20
933.009406723
 30
1.82231734
 40
18.223173404
  1
Ｍ
 50
0.0
 41
0.9
 51
0.0
  7
KANJI38
  0
LINE
  8
0
  6
CONTINUOUS
 62
     6
 10
135.574417681
 20
916.244087191
 11
146.872785192
 21
929.364772042
  0
LINE
  8
0
  6
CONTINUOUS
 62
     6
 10
135.574417681
 20
967.268972723
 11
146.872785192
 21
954.148287872
  0
LINE
  8
0
  6
CONTINUOUS
 62
     6
 10
135.574417681
 20
967.268972723
 11
119.173561617
 21
967.268972723
  0
LINE
  8
0
  6
CONTINUOUS
 62
     6
 10
141.770296639
 20
941.756529957
 11
119.173561617
 21
941.756529957
  0
LINE
  8
0
  6
CONTINUOUS
 62
     6
 10
135.574417681
 20
916.244087191
 11
119.173561617
 21
916.244087191
  0
LINE
  8
0
  6
CONTINUOUS
 62
     6
 10
109.77521631
 20
936.731746267
 11
119.980193417
 21
946.936723374
  0
LINE
  8
0
  6
CONTINUOUS
 62
     6
 10
109.77521631
 20
911.219303501
 11
119.980193417
 21
921.424280607
  0
LINE
  8
0
  6
LTYPE2
 62
     6
 10
245.196929694
 20
891.538267891
 11
114.8
 21
891.538267891
  0
TEXT
  8
0
  6
CONTINUOUS
 62
     6
 10
185.553688562
 20
933.501432405
 30
1.457853872
 40
14.578538724
  1
Ｂ
 50
0.0
 41
0.9
 51
0.0
  7
KANJI39
  0
CIRCLE
  8
0
  6
CONTINUOUS
 62
     6
 10
192.114030988
 20
941.756529957
 40
14.578538724
  0
LINE
  8
0
  6
LTYPE2
 62
     6
 10
114.8
 20
986.95
 11
114.8
 21
970.549143936
  0
CIRCLE
  8
0
  6
CONTINUOUS
 62
     6
 10
114.8
 20
967.268972723
 40
4.373561617
  0
CIRCLE
  8
0
  6
CONTINUOUS
 62
     6
 10
114.8
 20
941.756529957
 40
4.373561617
  0
LINE
  8
0
  6
LTYPE2
 62
     6
 10
114.8
 20
963.259874574
 11
114.8
 21
945.03670117
  0
CIRCLE
  8
0
  6
CONTINUOUS
 62
     6
 10
114.8
 20
916.244087191
 40
4.373561617
  0
LINE
  8
0
  6
LTYPE2
 62
     6
 10
114.8
 20
937.747431808
 11
114.8
 21
920.617648808
  0
LINE
  8
0
  6
LTYPE2
 62
     6
 10
114.8
 20
911.870525574
 11
114.8
 21
891.538267891
  0
TEXT
  8
0
  6
CONTINUOUS
 62
     2
 10
119.895393364
 20
866.328904811
 30
0.0
 40
15.6
  1
モーター結線図
 50
0.0
 41
0.925
 51
0.0
  7
KANJI40
  0
TEXT
  8
0
  6
CONTINUOUS
 62
     6
 10
97.265257591
 20
973.464851681
 30
1.093390404
 40
10.933904043
  1
Ｕ
 50
0.0
 41
0.9
 51
0.0
  7
KANJI41
  0
TEXT
  8
0
  6
CONTINUOUS
 62
     6
 10
98.358647995
 20
947.587945446
 30
1.093390404
 40
10.933904043
  1
Ｖ
 50
0.0
 41
0.9
 51
0.0
  7
KANJI41
  0
TEXT
  8
0
  6
CONTINUOUS
 62
     6
 10
99.452038399
 20
921.711039212
 30
1.093390404
 40
10.933904043
  1
Ｗ
 50
0.0
 41
0.9
 51
0.0
  7
KANJI41
  0
LINE
  8
0
  6
LTYPE2
 62
     2
 10
879.5
 20
219.5
 11
879.5
 21
517.5
  0
LINE
  8
0
  6
CONTINUOUS
 62
     1
 10
863.5
 20
269.6
 11
895.5
 21
269.6
  0
LINE
  8
0
  6
CONTINUOUS
 62
     1
 10
863.5
 20
237.6
 11
863.5
 21
269.6
  0
LINE
  8
0
  6
CONTINUOUS
 62
     1
 10
895.5
 20
237.6
 11
863.5
 21
237.6
  0
LINE
  8
0
  6
LTYPE3
 62
     2
 10
890.0
 20
210.7
 11
900.9
 21
210.7
  0
LINE
  8
0
  6
LTYPE3
 62
     2
 10
895.9
 20
204.68
 11
895.9
 21
214.6
  0
LINE
  8
0
  6
LTYPE3
 62
     2
 10
889.46
 20
180.5
 11
900.9
 21
180.5
  0
LINE
  8
0
  6
LTYPE3
 62
     2
 10
895.9
 20
176.6
 11
895.9
 21
185.58
  0
LINE
  8
0
  6
LTYPE3
 62
     2
 10
832.2
 20
180.5
 11
842.16
 21
180.5
  0
LINE
  8
0
  6
LTYPE3
 62
     2
 10
837.2
 20
176.6
 11
837.2
 21
184.48
  0
LINE
  8
0
  6
LTYPE3
 62
     2
 10
832.2
 20
210.7
 11
842.0
 21
210.7
  0
LINE
  8
0
  6
LTYPE3
 62
     2
 10
837.2
 20
204.58
 11
837.2
 21
214.6
  0
LINE
  8
0
  6
LTYPE3
 62
     2
 10
833.5
 20
233.6
 11
810.5
 21
233.6
  0
LINE
  8
0
  6
CONTINUOUS
 62
     1
 10
808.8
 20
182.9
 11
832.2
 21
182.9
  0
ARC
  8
0
  6
CONTINUOUS
 62
     1
 10
808.8
 20
184.9
 40
2.0
 50
180.0
 51
270.0
  0
LINE
  8
0
  6
CONTINUOUS
 62
     1
 10
806.8
 20
184.9
 11
806.8
 21
206.3
  0
ARC
  8
0
  6
CONTINUOUS
 62
     1
 10
808.8
 20
206.3
 40
2.0
 50
90.0
 51
180.0
  0
LINE
  8
0
  6
CONTINUOUS
 62
     1
 10
832.2
 20
177.6
 11
832.2
 21
213.6
  0
ARC
  8
0
  6
CONTINUOUS
 62
     1
 10
834.2
 20
213.6
 40
2.0
 50
90.0
 51
180.0
  0
LINE
  8
0
  6
CONTINUOUS
 62
     1
 10
834.2
 20
215.6
 11
898.9
 21
215.6
  0
ARC
  8
0
  6
CONTINUOUS
 62
     1
 10
898.9
 20
213.6
 40
2.0
 50
0.0
 51
90.0
  0
LINE
  8
0
  6
CONTINUOUS
 62
     1
 10
900.9
 20
177.6
 11
900.9
 21
213.6
  0
ARC
  8
0
  6
CONTINUOUS
 62
     1
 10
934.5
 20
181.1
 40
10.0
 50
270.0
 51
0.0
  0
LINE
  8
0
  6
CONTINUOUS
 62
     1
 10
814.5
 20
182.9
 11
814.5
 21
181.1
  0
ARC
  8
0
  6
CONTINUOUS
 62
     1
 10
824.5
 20
181.1
 40
10.0
 50
180.0
 51
270.0
  0
LINE
  8
0
  6
CONTINUOUS
 62
     1
 10
816.508316012
 20
195.915789474
 11
818.505544008
 21
233.810526316
  0
LINE
  8
0
  6
CONTINUOUS
 62
     1
 10
828.491683988
 20
195.915789474
 11
826.494455992
 21
233.810526316
  0
ARC
  8
0
  6
CONTINUOUS
 62
     1
 10
822.5
 20
233.6
 40
4.0
 50
356.983042101
 51
183.016952287
  0
ARC
  8
0
  6
CONTINUOUS
 62
     1
 10
822.5
 20
233.6
 40
8.75
 50
300.219855722
 51
239.780144278
  0
ARC
  8
0
  6
CONTINUOUS
 62
     1
 10
822.5
 20
195.6
 40
6.0
 50
176.983045121
 51
3.016954879
  0
LINE
  8
0
  6
CONTINUOUS
 62
     1
 10
827.838978783
 20
208.3
 11
832.2
 21
208.3
  0
LINE
  8
0
  6
CONTINUOUS
 62
     1
 10
808.8
 20
208.3
 11
817.161021217
 21
208.3
  0
LINE
  8
0
  6
LTYPE3
 62
     2
 10
822.5
 20
186.5
 11
822.5
 21
244.0
  0
LINE
  8
0
  6
LTYPE3
 62
     2
 10
813.238978783
 20
195.6
 11
904.5
 21
195.6
  0
LINE
  8
0
  6
CONTINUOUS
 62
     1
 10
895.5
 20
237.6
 11
895.5
 21
269.6
  0
LINE
  8
0
  6
CONTINUOUS
 62
     1
 10
814.5
 20
230.05563828
 11
814.5
 21
208.25
  0
LINE
  8
0
  6
CONTINUOUS
 62
     1
 10
814.5
 20
245.6
 11
814.5
 21
237.14436172
  0
LINE
  8
0
  6
CONTINUOUS
 62
     1
 10
944.5
 20
277.14436172
 11
944.5
 21
298.95
  0
LINE
  8
0
  6
CONTINUOUS
 62
     1
 10
944.5
 20
261.6
 11
944.5
 21
270.05563828
  0
LINE
  8
0
  6
CONTINUOUS
 62
     1
 10
798.120942983
 20
245.6
 11
863.5
 21
245.6
  0
LINE
  8
0
  6
CONTINUOUS
 62
     1
 10
863.5
 20
261.6
 11
798.190577963
 21
261.6
  0
ARC
  8
0
  6
CONTINUOUS
 62
     1
 10
803.745468578
 20
257.6
 40
6.845203412
 50
144.242860688
 51
215.757139312
  0
ARC
  8
0
  6
CONTINUOUS
 62
     1
 10
792.635687347
 20
257.6
 40
6.845203412
 50
324.242860688
 51
35.757139312
  0
ARC
  8
0
  6
CONTINUOUS
 62
     1
 10
792.635687347
 20
249.6
 40
6.845203412
 50
324.242860688
 51
35.757139312
  0
LINE
  8
0
  6
CONTINUOUS
 62
     1
 10
951.0
 20
243.6
 11
951.0
 21
263.6
  0
LINE
  8
0
  6
CONTINUOUS
 62
     1
 10
951.0
 20
263.6
 11
964.856406461
 21
271.6
  0
LINE
  8
0
  6
CONTINUOUS
 62
     1
 10
951.0
 20
243.6
 11
964.856406461
 21
235.6
  0
LINE
  8
0
  6
CONTINUOUS
 62
     1
 10
895.5
 20
261.6
 11
951.0
 21
261.6
  0
LINE
  8
0
  6
CONTINUOUS
 62
     1
 10
951.0
 20
245.6
 11
895.5
 21
245.6
  0
LINE
  8
0
  6
LTYPE2
 62
     2
 10
1028.0
 20
253.6
 11
793.155760473
 21
253.6
  0
LINE
  8
7
  6
CONTINUOUS
 62
     2
 10
900.9
 20
195.6
 11
909.267307585
 21
201.076144975
  0
LINE
  8
7
  6
CONTINUOUS
 62
     2
 10
900.9
 20
195.6
 11
905.408228442
 21
204.526134455
  0
LINE
  8
7
  6
CONTINUOUS
 62
     2
 10
900.9
 20
195.6
 11
913.55
 21
209.75
  0
LINE
  8
7
  6
CONTINUOUS
 62
     2
 10
913.55
 20
209.75
 11
972.35
 21
209.75
  0
TEXT
  8
7
  6
CONTINUOUS
 62
     2
 10
913.55
 20
213.75
 30
1.2
 40
12.0
  1
ＰＦ１／２
 50
0.0
 41
0.9
 51
0.0
  7
KANJI23
  0
LINE
  8
7
  6
CONTINUOUS
 62
     2
 10
858.1
 20
311.6
 11
849.79152211
 21
306.035002681
  0
LINE
  8
7
  6
CONTINUOUS
 62
     2
 10
858.1
 20
311.6
 11
853.68714574
 21
302.626332005
  0
LINE
  8
7
  6
CONTINUOUS
 62
     2
 10
858.1
 20
311.6
 11
846.9
 21
298.8
  0
LINE
  8
7
  6
CONTINUOUS
 62
     2
 10
846.9
 20
298.8
 11
788.1
 21
298.8
  0
TEXT
  8
7
  6
CONTINUOUS
 62
     2
 10
788.1
 20
302.8
 30
1.2
 40
12.0
  1
ＰＦ１／２
 50
0.0
 41
0.9
 51
0.0
  7
KANJI23
  0
LINE
  8
0
  6
CONTINUOUS
 62
     1
 10
814.5
 20
261.6
 11
814.5
 21
295.8
  0
LINE
  8
0
  6
CONTINUOUS
 62
     1
 10
944.5
 20
206.8
 11
944.5
 21
181.1
  0
LINE
  8
0
  6
CONTINUOUS
 62
     1
 10
858.1
 20
329.6
 11
858.1
 21
293.6
  0
LINE
  8
0
  6
LTYPE3
 62
     2
 10
869.0
 20
296.5
 11
858.1
 21
296.5
  0
LINE
  8
0
  6
LTYPE3
 62
     2
 10
863.1
 20
302.52
 11
863.1
 21
292.6
  0
LINE
  8
0
  6
CONTINUOUS
 62
     1
 10
924.8
 20
291.6
 11
860.1
 21
291.6
  0
ARC
  8
0
  6
CONTINUOUS
 62
     1
 10
860.1
 20
293.6
 40
2.0
 50
180.0
 51
270.0
  0
LINE
  8
0
  6
CONTINUOUS
 62
     1
 10
926.8
 20
329.6
 11
926.8
 21
293.6
  0
LINE
  8
0
  6
LTYPE3
 62
     2
 10
926.8
 20
296.5
 11
917.0
 21
296.5
  0
LINE
  8
0
  6
LTYPE3
 62
     2
 10
921.8
 20
302.62
 11
921.8
 21
292.6
  0
ARC
  8
0
  6
CONTINUOUS
 62
     1
 10
924.8
 20
293.6
 40
2.0
 50
270.0
 51
0.0
  0
LINE
  8
0
  6
CONTINUOUS
 62
     1
 10
931.161021217
 20
298.9
 11
926.8
 21
298.9
  0
LINE
  8
0
  6
CONTINUOUS
 62
     1
 10
952.2
 20
322.3
 11
952.2
 21
300.9
  0
LINE
  8
0
  6
LTYPE3
 62
     2
 10
936.5
 20
320.7
 11
936.5
 21
263.2
  0
LINE
  8
0
  6
CONTINUOUS
 62
     1
 10
942.491683988
 20
311.284210526
 11
940.494455992
 21
273.389473684
  0
LINE
  8
0
  6
CONTINUOUS
 62
     1
 10
930.508316012
 20
311.284210526
 11
932.505544008
 21
273.389473684
  0
ARC
  8
0
  6
CONTINUOUS
 62
     1
 10
950.2
 20
300.9
 40
2.0
 50
270.0
 51
0.0
  0
LINE
  8
0
  6
CONTINUOUS
 62
     1
 10
950.2
 20
298.9
 11
941.838978783
 21
298.9
  0
LINE
  8
0
  6
LTYPE3
 62
     2
 10
925.5
 20
273.6
 11
948.5
 21
273.6
  0
ARC
  8
0
  6
CONTINUOUS
 62
     1
 10
936.5
 20
273.6
 40
8.75
 50
120.219855722
 51
59.780144278
  0
ARC
  8
0
  6
CONTINUOUS
 62
     1
 10
936.5
 20
273.6
 40
4.0
 50
176.983042101
 51
3.016952287
  0
LINE
  8
0
  6
CONTINUOUS
 62
     1
 10
964.856406461
 20
235.6
 11
964.856406461
 21
271.6
  0
LINE
  8
0
  6
CONTINUOUS
 62
     1
 10
964.856406461
 20
271.6
 11
987.143593539
 21
271.6
  0
LINE
  8
0
  6
CONTINUOUS
 62
     1
 10
964.856406461
 20
235.6
 11
987.143593539
 21
235.6
  0
LINE
  8
0
  6
CONTINUOUS
 62
     1
 10
964.856406461
 20
235.6
 11
987.143593539
 21
235.6
  0
LINE
  8
0
  6
LTYPE2
 62
     2
 10
976.0
 20
243.6
 11
976.0
 21
263.6
  0
CIRCLE
  8
0
  6
CONTINUOUS
 62
     2
 10
976.0
 20
253.6
 40
5.0
  0
CIRCLE
  8
0
  6
CONTINUOUS
 62
     2
 10
976.0
 20
253.6
 40
4.0
  0
ARC
  8
0
  6
CONTINUOUS
 62
     1
 10
834.2
 20
177.6
 40
2.0
 50
180.0
 51
270.0
  0
ARC
  8
0
  6
CONTINUOUS
 62
     1
 10
898.9
 20
177.6
 40
2.0
 50
270.0
 51
0.0
  0
LINE
  8
0
  6
CONTINUOUS
 62
     1
 10
834.2
 20
175.6
 11
898.9
 21
175.6
  0
LINE
  8
0
  6
CONTINUOUS
 62
     1
 10
934.5
 20
171.1
 11
824.5
 21
171.1
  0
LINE
  8
0
  6
CONTINUOUS
 62
     2
 10
768.45
 20
336.1
 11
768.45
 21
171.1
  0
LINE
  8
0
  6
CONTINUOUS
 62
     2
 10
768.45
 20
171.1
 11
771.685238064
 21
183.174072829
  0
LINE
  8
0
  6
CONTINUOUS
 62
     2
 10
768.45
 20
171.1
 11
765.214761936
 21
183.174072829
  0
LINE
  8
0
  6
CONTINUOUS
 62
     2
 10
819.50001079
 20
171.1
 11
758.45
 21
171.1
  0
TEXT
  8
0
  6
CONTINUOUS
 62
     3
 10
760.95
 20
233.35
 30
0.0
 40
15.0
  1
１６５
 50
90.0
 41
0.9
 51
0.0
  7
KANJI35
  0
LINE
  8
0
  6
CONTINUOUS
 62
     2
 10
814.5
 20
177.9
 11
814.5
 21
119.15
  0
LINE
  8
0
  6
CONTINUOUS
 62
     2
 10
814.5
 20
129.15
 11
826.574072829
 21
125.914761936
  0
LINE
  8
0
  6
CONTINUOUS
 62
     2
 10
814.5
 20
129.15
 11
826.574072829
 21
132.385238064
  0
LINE
  8
0
  6
CONTINUOUS
 62
     2
 10
814.5
 20
129.15
 11
944.5
 21
129.15
  0
LINE
  8
0
  6
CONTINUOUS
 62
     2
 10
944.5
 20
129.15
 11
932.425927171
 21
132.385238064
  0
LINE
  8
0
  6
CONTINUOUS
 62
     2
 10
944.5
 20
129.15
 11
932.425927171
 21
125.914761936
  0
LINE
  8
0
  6
CONTINUOUS
 62
     2
 10
944.5
 20
176.1
 11
944.5
 21
119.15
  0
TEXT
  8
0
  6
CONTINUOUS
 62
     3
 10
859.25
 20
136.65
 30
0.0
 40
15.0
  1
１３０
 50
0.0
 41
0.9
 51
0.0
  7
KANJI35
  0
ARC
  8
0
  6
CONTINUOUS
 62
     1
 10
824.5
 20
326.1
 40
10.0
 50
90.0
 51
180.0
  0
LINE
  8
0
  6
CONTINUOUS
 62
     1
 10
944.5
 20
324.3
 11
944.5
 21
326.1
  0
LINE
  8
0
  6
CONTINUOUS
 62
     1
 10
824.5
 20
336.1
 11
934.5
 21
336.1
  0
ARC
  8
0
  6
CONTINUOUS
 62
     1
 10
934.5
 20
326.1
 40
10.0
 50
0.0
 51
90.0
  0
LINE
  8
0
  6
LTYPE3
 62
     2
 10
945.761021217
 20
311.6
 11
854.5
 21
311.6
  0
LINE
  8
0
  6
CONTINUOUS
 62
     1
 10
814.5
 20
315.8
 11
814.5
 21
326.1
  0
LINE
  8
0
  6
LTYPE3
 62
     2
 10
869.54
 20
326.7
 11
858.1
 21
326.7
  0
LINE
  8
0
  6
LTYPE3
 62
     2
 10
863.1
 20
330.6
 11
863.1
 21
321.62
  0
LINE
  8
0
  6
CONTINUOUS
 62
     1
 10
924.8
 20
331.6
 11
860.1
 21
331.6
  0
ARC
  8
0
  6
CONTINUOUS
 62
     1
 10
860.1
 20
329.6
 40
2.0
 50
90.0
 51
180.0
  0
LINE
  8
0
  6
LTYPE3
 62
     2
 10
926.8
 20
326.7
 11
916.84
 21
326.7
  0
LINE
  8
0
  6
LTYPE3
 62
     2
 10
921.8
 20
330.6
 11
921.8
 21
322.72
  0
ARC
  8
0
  6
CONTINUOUS
 62
     1
 10
924.8
 20
329.6
 40
2.0
 50
0.0
 51
90.0
  0
LINE
  8
0
  6
CONTINUOUS
 62
     1
 10
950.2
 20
324.3
 11
926.8
 21
324.3
  0
ARC
  8
0
  6
CONTINUOUS
 62
     1
 10
950.2
 20
322.3
 40
2.0
 50
0.0
 51
90.0
  0
ARC
  8
0
  6
CONTINUOUS
 62
     1
 10
936.5
 20
311.6
 40
6.0
 50
356.983045121
 51
183.016954879
  0
LINE
  8
0
  6
CONTINUOUS
 62
     2
 10
819.50001079
 20
336.1
 11
758.45
 21
336.1
  0
LINE
  8
0
  6
CONTINUOUS
 62
     2
 10
768.45
 20
336.1
 11
765.214761936
 21
324.025927171
  0
LINE
  8
0
  6
CONTINUOUS
 62
     2
 10
768.45
 20
336.1
 11
771.685238064
 21
324.025927171
  0
LINE
  8
0
  6
CONTINUOUS
 62
     1
 10
987.143593539
 20
235.6
 11
987.143593539
 21
271.6
  0
LINE
  8
0
  6
CONTINUOUS
 62
     1
 10
1001.0
 20
263.6
 11
987.143593539
 21
271.6
  0
LINE
  8
0
  6
CONTINUOUS
 62
     1
 10
1001.0
 20
243.6
 11
987.143593539
 21
235.6
  0
LINE
  8
0
  6
CONTINUOUS
 62
     2
 10
1063.5
 20
419.85
 11
1063.5
 21
428.35
  0
LINE
  8
0
  6
CONTINUOUS
 62
     1
 10
1001.0
 20
243.6
 11
1001.0
 21
263.6
  0
LINE
  8
0
  6
CONTINUOUS
 62
     1
 10
1001.0
 20
261.6
 11
1023.309422037
 21
261.6
  0
LINE
  8
0
  6
CONTINUOUS
 62
     1
 10
1023.309422037
 20
245.6
 11
1001.0
 21
245.6
  0
ARC
  8
0
  6
CONTINUOUS
 62
     1
 10
1017.754531422
 20
257.6
 40
6.845203412
 50
324.242860688
 51
35.757139312
  0
ARC
  8
0
  6
CONTINUOUS
 62
     1
 10
1028.864312653
 20
257.6
 40
6.845203412
 50
144.242860688
 51
215.757139312
  0
ARC
  8
0
  6
CONTINUOUS
 62
     1
 10
1028.864312653
 20
249.6
 40
6.845203412
 50
144.242860688
 51
215.757139312
  0
LINE
  8
0
  6
CONTINUOUS
 62
     1
 10
1012.5
 20
614.25
 11
1012.5
 21
572.0
  0
LINE
  8
0
  6
CONTINUOUS
 62
     1
 10
1012.5
 20
566.75
 11
1012.5
 21
590.5
  0
LINE
  8
0
  6
CONTINUOUS
 62
     1
 10
1078.5
 20
571.0
 11
1081.5
 21
574.0
  0
LINE
  8
0
  6
CONTINUOUS
 62
     1
 10
1078.5
 20
611.0
 11
1081.5
 21
608.0
  0
CIRCLE
  8
0
  6
CONTINUOUS
 62
     1
 10
1063.5
 20
591.0
 40
8.0
  0
LINE
  8
0
  6
LTYPE1
 62
     1
 10
1038.5
 20
611.0
 11
1038.5
 21
571.0
  0
LINE
  8
0
  6
CONTINUOUS
 62
     1
 10
1081.5
 20
608.0
 11
1081.5
 21
574.0
  0
LINE
  8
0
  6
CONTINUOUS
 62
     1
 10
1028.5
 20
611.0
 11
1078.5
 21
611.0
  0
LINE
  8
0
  6
CONTINUOUS
 62
     1
 10
1028.5
 20
571.0
 11
1078.5
 21
571.0
  0
LINE
  8
0
  6
CONTINUOUS
 62
     1
 10
1012.5
 20
617.0
 11
1012.5
 21
591.0
  0
LINE
  8
2
  6
CONTINUOUS
 62
     2
 10
1085.5
 20
611.0
 11
1125.4
 21
611.0
  0
LINE
  8
2
  6
CONTINUOUS
 62
     2
 10
1117.4
 20
611.0
 11
1114.811809549
 21
601.340741737
  0
LINE
  8
2
  6
CONTINUOUS
 62
     2
 10
1117.4
 20
611.0
 11
1119.988190451
 21
601.340741737
  0
LINE
  8
2
  6
CONTINUOUS
 62
     2
 10
1117.4
 20
611.0
 11
1117.4
 21
570.6
  0
LINE
  8
2
  6
CONTINUOUS
 62
     2
 10
1117.4
 20
570.6
 11
1119.988190451
 21
580.259258263
  0
LINE
  8
2
  6
CONTINUOUS
 62
     2
 10
1117.4
 20
570.6
 11
1114.811809549
 21
580.259258263
  0
LINE
  8
2
  6
CONTINUOUS
 62
     2
 10
1087.3
 20
570.6
 11
1125.4
 21
570.6
  0
LINE
  8
0
  6
CONTINUOUS
 62
     1
 10
971.5
 20
610.0
 11
1012.5
 21
610.0
  0
LINE
  8
0
  6
CONTINUOUS
 62
     1
 10
971.5
 20
572.0
 11
1012.5
 21
572.0
  0
TEXT
  8
2
  6
CONTINUOUS
 62
     2
 10
1113.4
 20
577.4
 30
0.0
 40
15.0
  1
４０
 50
90.0
 41
0.9
 51
0.0
  7
KANJI35
  0
LINE
  8
0
  6
CONTINUOUS
 62
     2
 10
1127.9
 20
656.2
 11
1115.825927171
 21
659.435238064
  0
LINE
  8
0
  6
CONTINUOUS
 62
     2
 10
1127.9
 20
656.2
 11
1115.825927171
 21
652.964761936
  0
LINE
  8
0
  6
CONTINUOUS
 62
     2
 10
1127.9
 20
656.2
 11
1086.9
 21
656.2
  0
LINE
  8
0
  6
CONTINUOUS
 62
     2
 10
815.950185255
 20
582.85
 11
795.397884886
 21
511.593820875
  0
LINE
  8
0
  6
CONTINUOUS
 62
     2
 10
746.5
 20
511.593820875
 11
795.397884886
 21
511.593820875
  0
TEXT
  8
0
  6
CONTINUOUS
 62
     2
 10
749.797884886
 20
515.593820875
 30
0.0
 40
15.0
  1
給脂口
 50
0.0
 41
0.9
 51
0.0
  7
KANJI35
  0
LINE
  8
0
  6
CONTINUOUS
 62
     1
 10
833.0
 20
578.5
 11
833.0
 21
603.5
  0
LINE
  8
0
  6
CONTINUOUS
 62
     1
 10
808.0
 20
578.5
 11
833.0
 21
578.5
  0
LINE
  8
0
  6
CONTINUOUS
 62
     1
 10
808.0
 20
578.5
 11
808.0
 21
603.5
  0
CIRCLE
  8
0
  6
CONTINUOUS
 62
     1
 10
820.5
 20
591.0
 40
12.5
  0
LINE
  8
0
  6
LTYPE3
 62
     2
 10
820.5
 20
609.7
 11
820.5
 21
570.0
  0
LINE
  8
0
  6
CONTINUOUS
 62
     2
 10
815.950185255
 20
582.85
 11
815.760119959
 21
572.851806404
  0
LINE
  8
0
  6
CONTINUOUS
 62
     2
 10
815.950185255
 20
582.85
 11
810.786487082
 21
574.286343002
  0
LINE
  8
0
  6
CONTINUOUS
 62
     1
 10
933.5
 20
622.75
 11
933.5
 21
559.25
  0
LINE
  8
0
  6
CONTINUOUS
 62
     1
 10
971.5
 20
622.75
 11
971.5
 21
559.25
  0
LINE
  8
0
  6
CONTINUOUS
 62
     2
 10
884.7
 20
559.25
 11
884.7
 21
622.75
  0
TEXT
  8
0
  6
CONTINUOUS
 62
     2
 10
880.7
 20
573.0
 30
0.0
 40
15.0
  1
φ６４
 50
90.0
 41
0.9
 51
0.0
  7
KANJI35
  0
LINE
  8
0
  6
CONTINUOUS
 62
     2
 10
884.7
 20
559.25
 11
887.288190451
 21
568.909258263
  0
LINE
  8
0
  6
CONTINUOUS
 62
     2
 10
884.7
 20
559.25
 11
882.111809549
 21
568.909258263
  0
LINE
  8
0
  6
CONTINUOUS
 62
     1
 10
933.5
 20
622.75
 11
933.5
 21
591.0
  0
LINE
  8
0
  6
CONTINUOUS
 62
     1
 10
808.0
 20
603.5
 11
833.0
 21
603.5
  0
LINE
  8
0
  6
CONTINUOUS
 62
     2
 10
971.5
 20
626.75
 11
971.5
 21
792.0
  0
LINE
  8
0
  6
CONTINUOUS
 62
     2
 10
884.7
 20
622.75
 11
882.111809549
 21
613.090741737
  0
LINE
  8
0
  6
CONTINUOUS
 62
     2
 10
884.7
 20
622.75
 11
887.288190451
 21
613.090741737
  0
LINE
  8
0
  6
CONTINUOUS
 62
     2
 10
1043.5
 20
846.0
 11
1101.5
 21
846.0
  0
LINE
  8
0
  6
CONTINUOUS
 62
     2
 10
1081.5
 20
846.0
 11
1091.159258263
 21
843.411809549
  0
LINE
  8
0
  6
CONTINUOUS
 62
     2
 10
1081.5
 20
846.0
 11
1091.159258263
 21
848.588190451
  0
LINE
  8
0
  6
CONTINUOUS
 62
     2
 10
1063.5
 20
816.0
 11
1053.840741737
 21
818.588190451
  0
LINE
  8
0
  6
CONTINUOUS
 62
     2
 10
1063.5
 20
816.0
 11
1053.840741737
 21
813.411809549
  0
LINE
  8
0
  6
CONTINUOUS
 62
     2
 10
1028.5
 20
786.0
 11
1038.159258263
 21
783.411809549
  0
LINE
  8
0
  6
CONTINUOUS
 62
     2
 10
1028.5
 20
786.0
 11
1038.159258263
 21
788.588190451
  0
LINE
  8
0
  6
CONTINUOUS
 62
     2
 10
1028.5
 20
786.0
 11
1063.5
 21
786.0
  0
LINE
  8
0
  6
CONTINUOUS
 62
     2
 10
1063.5
 20
786.0
 11
1053.840741737
 21
788.588190451
  0
LINE
  8
0
  6
CONTINUOUS
 62
     2
 10
1063.5
 20
786.0
 11
1053.840741737
 21
783.411809549
  0
LINE
  8
7
  6
CONTINUOUS
 62
     2
 10
1063.5
 20
846.0
 11
1053.840741737
 21
848.588190451
  0
LINE
  8
7
  6
CONTINUOUS
 62
     2
 10
1063.5
 20
846.0
 11
1053.840741737
 21
843.411809549
  0
LINE
  8
0
  6
CONTINUOUS
 62
     2
 10
1028.5
 20
779.32
 11
1028.5
 21
792.0
  0
LINE
  8
0
  6
CONTINUOUS
 62
     2
 10
1028.5
 20
786.0
 11
1018.840741737
 21
788.588190451
  0
LINE
  8
0
  6
CONTINUOUS
 62
     2
 10
1028.5
 20
786.0
 11
1018.840741737
 21
783.411809549
  0
LINE
  8
0
  6
CONTINUOUS
 62
     2
 10
1028.5
 20
786.0
 11
971.5
 21
786.0
  0
LINE
  8
0
  6
CONTINUOUS
 62
     2
 10
971.5
 20
786.0
 11
981.159258263
 21
783.411809549
  0
LINE
  8
0
  6
CONTINUOUS
 62
     2
 10
971.5
 20
786.0
 11
981.159258263
 21
788.588190451
  0
LINE
  8
0
  6
CONTINUOUS
 62
     2
 10
971.5
 20
786.0
 11
961.840741737
 21
783.411809549
  0
LINE
  8
0
  6
CONTINUOUS
 62
     2
 10
971.5
 20
786.0
 11
961.840741737
 21
788.588190451
  0
TEXT
  8
0
  6
CONTINUOUS
 62
     2
 10
1060.7
 20
850.0
 30
0.0
 40
15.0
  1
１８
 50
0.0
 41
0.9
 51
0.0
  7
KANJI35
  0
TEXT
  8
0
  6
CONTINUOUS
 62
     2
 10
1034.2
 20
790.0
 30
0.0
 40
15.0
  1
３５
 50
0.0
 41
0.9
 51
0.0
  7
KANJI35
  0
LINE
  8
0
  6
LTYPE5
 62
     2
 10
798.349814745
 20
554.0
 11
798.349814745
 21
625.45
  0
LINE
  8
0
  6
LTYPE5
 62
     2
 10
794.349814745
 20
554.0
 11
794.349814745
 21
625.45
  0
LINE
  8
0
  6
LTYPE3
 62
     2
 10
726.349814745
 20
591.0
 11
862.999814745
 21
591.0
  0
LINE
  8
0
  6
CONTINUOUS
 62
     1
 10
913.5
 20
622.75
 11
971.5
 21
622.75
  0
LINE
  8
0
  6
CONTINUOUS
 62
     1
 10
916.5
 20
559.25
 11
971.5
 21
559.25
  0
LINE
  8
0
  6
CONTINUOUS
 62
     1
 10
798.349814745
 20
559.25
 11
842.5
 21
559.25
  0
LINE
  8
0
  6
CONTINUOUS
 62
     1
 10
798.349814745
 20
622.75
 11
845.5
 21
622.75
  0
LINE
  8
0
  6
CONTINUOUS
 62
     1
 10
728.35
 20
622.75
 11
794.349814745
 21
622.75
  0
LINE
  8
0
  6
CONTINUOUS
 62
     1
 10
701.0
 20
622.75
 11
720.35
 21
622.75
  0
LINE
  8
0
  6
CONTINUOUS
 62
     1
 10
731.35
 20
559.25
 11
794.349814745
 21
559.25
  0
LINE
  8
0
  6
CONTINUOUS
 62
     1
 10
701.0
 20
559.25
 11
717.35
 21
559.25
  0
POLYLINE
  8
0
  6
CONTINUOUS
 62
     2
 66
     1
  0
VERTEX
  8
0
  6
CONTINUOUS
 62
     2
 10
747.8
 20
591.0
  0
VERTEX
  8
0
  6
CONTINUOUS
 62
     2
 10
747.8
 20
693.0
  0
VERTEX
  8
0
  6
CONTINUOUS
 62
     2
 10
744.564761936
 20
680.925927171
  0
SEQEND
  0
LINE
  8
0
  6
CONTINUOUS
 62
     2
 10
747.8
 20
693.0
 11
751.035238064
 21
680.925927171
  0
TEXT
  8
0
  6
CONTINUOUS
 62
     3
 10
744.2
 20
633.1
 30
0.0
 40
15.0
  1
１０２
 50
90.0
 41
0.9
 51
0.0
  7
KANJI35
  0
LINE
  8
0
  6
CONTINUOUS
 62
     2
 10
747.8
 20
591.0
 11
751.035238064
 21
603.074072829
  0
LINE
  8
0
  6
CONTINUOUS
 62
     2
 10
747.8
 20
591.0
 11
744.564761936
 21
603.074072829
  0
LINE
  8
0
  6
CONTINUOUS
 62
     2
 10
699.85
 20
693.0
 11
752.6
 21
693.0
  0
TEXT
  8
2
  6
CONTINUOUS
 62
     2
 10
463.8
 20
520.05
 30
0.0
 40
15.0
  1
φ１６深さ２２
 50
0.0
 41
0.9
 51
0.0
  7
KANJI35
  0
LINE
  8
2
  6
CONTINUOUS
 62
     2
 10
557.74245648
 20
516.05
 11
464.0
 21
516.05
  0
LINE
  8
2
  6
CONTINUOUS
 62
     2
 10
595.0
 20
591.0
 11
557.74245648
 21
516.05
  0
LINE
  8
0
  6
CONTINUOUS
 62
     2
 10
595.0
 20
786.0
 11
971.5
 21
786.0
  0
LINE
  8
0
  6
CONTINUOUS
 62
     2
 10
1063.5
 20
816.0
 11
595.0
 21
816.0
  0
LINE
  8
7
  6
CONTINUOUS
 62
     2
 10
1063.5
 20
846.0
 11
218.0
 21
846.0
  0
LINE
  8
0
  6
CONTINUOUS
 62
     1
 10
623.655833333
 20
254.068333333
 11
623.655833333
 21
200.151666667
  0
LINE
  8
0
  6
CONTINUOUS
 62
     1
 10
625.3225
 20
198.485
 11
655.3225
 21
198.485
  0
ARC
  8
0
  6
CONTINUOUS
 62
     1
 10
625.3225
 20
200.151666667
 40
1.666666667
 50
180.0
 51
270.0
  0
LINE
  8
0
  6
CONTINUOUS
 62
     1
 10
656.989166667
 20
254.068333333
 11
656.989166667
 21
200.151666667
  0
ARC
  8
0
  6
CONTINUOUS
 62
     1
 10
655.3225
 20
200.151666667
 40
1.666666667
 50
270.0
 51
0.0
  0
ARC
  8
0
  6
CONTINUOUS
 62
     1
 10
625.3225
 20
254.068333333
 40
1.666666667
 50
90.0
 51
180.0
  0
LINE
  8
0
  6
CONTINUOUS
 62
     1
 10
629.739166667
 20
275.235
 11
629.739166667
 21
255.735
  0
LINE
  8
0
  6
CONTINUOUS
 62
     1
 10
625.3225
 20
255.735
 11
655.3225
 21
255.735
  0
ARC
  8
0
  6
CONTINUOUS
 62
     1
 10
655.3225
 20
254.068333333
 40
1.666666667
 50
0.0
 51
90.0
  0
ARC
  8
0
  6
CONTINUOUS
 62
     1
 10
631.405833333
 20
275.235
 40
1.666666667
 50
90.0
 51
180.0
  0
ARC
  8
0
  6
CONTINUOUS
 62
     1
 10
640.3225
 20
263.818333333
 40
5.0
 50
131.983045121
 51
318.016954879
  0
LINE
  8
0
  6
LTYPE3
 62
     2
 10
634.960273576
 20
258.456106909
 11
668.842473508
 21
292.338306841
  0
LINE
  8
0
  6
CONTINUOUS
 62
     1
 10
636.977947083
 20
267.535047714
 11
660.484512793
 21
288.687857658
  0
LINE
  8
0
  6
CONTINUOUS
 62
     1
 10
644.039214381
 20
260.473780417
 11
665.192024325
 21
283.980346126
  0
LINE
  8
0
  6
LTYPE3
 62
     2
 10
669.196026898
 20
279.72823591
 11
655.643146926
 21
293.281115883
  0
ARC
  8
0
  6
CONTINUOUS
 62
     1
 10
662.714214738
 20
286.210048071
 40
7.291666667
 50
255.219855722
 51
194.780144278
  0
ARC
  8
0
  6
CONTINUOUS
 62
     1
 10
662.714214738
 20
286.210048071
 40
3.333333333
 50
311.983042101
 51
138.016952287
  0
LINE
  8
0
  6
CONTINUOUS
 62
     1
 10
650.905833333
 20
268.104474875
 11
650.905833333
 21
255.735
  0
LINE
  8
0
  6
CONTINUOUS
 62
     1
 10
631.405833333
 20
276.901666667
 11
647.386826304
 21
276.901666667
  0
LINE
  8
0
  6
LTYPE2
 62
     2
 10
627.926666667
 20
236.151666667
 11
652.926666667
 21
236.151666667
  0
LINE
  8
0
  6
LTYPE2
 62
     2
 10
652.926666667
 20
236.151666667
 11
652.926666667
 21
244.068333333
  0
LINE
  8
0
  6
LTYPE2
 62
     2
 10
652.926666667
 20
244.068333333
 11
627.926666667
 21
244.068333333
  0
LINE
  8
0
  6
LTYPE2
 62
     2
 10
627.926666667
 20
244.068333333
 11
627.926666667
 21
236.151666667
  0
LINE
  8
0
  6
CONTINUOUS
 62
     1
 10
627.926666667
 20
211.151666667
 11
652.926666667
 21
211.151666667
  0
LINE
  8
0
  6
CONTINUOUS
 62
     1
 10
652.926666667
 20
211.151666667
 11
652.926666667
 21
219.068333333
  0
LINE
  8
0
  6
CONTINUOUS
 62
     1
 10
652.926666667
 20
219.068333333
 11
627.926666667
 21
219.068333333
  0
LINE
  8
0
  6
CONTINUOUS
 62
     1
 10
627.926666667
 20
219.068333333
 11
627.926666667
 21
211.151666667
  0
TEXT
  8
0
  6
CONTINUOUS
 62
     2
 10
626.905833333
 20
246.818333333
 30
0.0
 40
8.333333333
  1
４
 50
0.0
 41
0.85
 51
0.0
  7
KANJI42
  0
TEXT
  8
0
  6
CONTINUOUS
 62
     2
 10
647.739166667
 20
246.818333333
 30
0.0
 40
8.333333333
  1
３
 50
0.0
 41
0.85
 51
0.0
  7
KANJI42
  0
POLYLINE
  8
0
  6
CONTINUOUS
 62
     2
 66
     1
 70
     1
  0
VERTEX
  8
0
  6
CONTINUOUS
 62
     2
 10
636.0725
 20
246.193333333
 42
0.021820078
  0
VERTEX
  8
0
  6
CONTINUOUS
 62
     2
 10
636.065365059
 20
246.356750351
 42
0.021820078
  0
VERTEX
  8
0
  6
CONTINUOUS
 62
     2
 10
636.044014537
 20
246.518923666
 42
0.021820078
  0
VERTEX
  8
0
  6
CONTINUOUS
 62
     2
 10
636.008610924
 20
246.678619043
 42
0.021820078
  0
VERTEX
  8
0
  6
CONTINUOUS
 62
     2
 10
635.959423664
 20
246.834621102
 42
0.021820078
  0
VERTEX
  8
0
  6
CONTINUOUS
 62
     2
 10
635.896827101
 20
246.985742574
 42
0.021820078
  0
VERTEX
  8
0
  6
CONTINUOUS
 62
     2
 10
635.821297632
 20
247.130833333
 42
0.021820078
  0
VERTEX
  8
0
  6
CONTINUOUS
 62
     2
 10
635.733410083
 20
247.268789151
 42
0.021820078
  0
VERTEX
  8
0
  6
CONTINUOUS
 62
     2
 10
635.633833331
 20
247.398560101
 42
0.021820078
  0
VERTEX
  8
0
  6
CONTINUOUS
 62
     2
 10
635.523325215
 20
247.519158548
 42
0.021820078
  0
VERTEX
  8
0
  6
CONTINUOUS
 62
     2
 10
635.402726768
 20
247.629666664
 42
0.021820078
  0
VERTEX
  8
0
  6
CONTINUOUS
 62
     2
 10
635.272955818
 20
247.729243416
 42
0.021820078
  0
VERTEX
  8
0
  6
CONTINUOUS
 62
     2
 10
635.135
 20
247.817130965
 42
0.021820078
  0
VERTEX
  8
0
  6
CONTINUOUS
 62
     2
 10
634.989909241
 20
247.892660434
 42
0.021820078
  0
VERTEX
  8
0
  6
CONTINUOUS
 62
     2
 10
634.838787769
 20
247.955256997
 42
0.021820078
  0
VERTEX
  8
0
  6
CONTINUOUS
 62
     2
 10
634.68278571
 20
248.004444258
 42
0.021820078
  0
VERTEX
  8
0
  6
CONTINUOUS
 62
     2
 10
634.523090333
 20
248.03984787
 42
0.021820078
  0
VERTEX
  8
0
  6
CONTINUOUS
 62
     2
 10
634.360917018
 20
248.061198392
 42
0.021820078
  0
VERTEX
  8
0
  6
CONTINUOUS
 62
     2
 10
634.1975
 20
248.068333333
 42
0.021820078
  0
VERTEX
  8
0
  6
CONTINUOUS
 62
     2
 10
634.034082982
 20
248.061198392
 42
0.021820078
  0
VERTEX
  8
0
  6
CONTINUOUS
 62
     2
 10
633.871909667
 20
248.03984787
 42
0.021820078
  0
VERTEX
  8
0
  6
CONTINUOUS
 62
     2
 10
633.71221429
 20
248.004444258
 42
0.021820078
  0
VERTEX
  8
0
  6
CONTINUOUS
 62
     2
 10
633.556212231
 20
247.955256997
 42
0.021820078
  0
VERTEX
  8
0
  6
CONTINUOUS
 62
     2
 10
633.405090759
 20
247.892660434
 42
0.021820078
  0
VERTEX
  8
0
  6
CONTINUOUS
 62
     2
 10
633.26
 20
247.817130965
 42
0.021820078
  0
VERTEX
  8
0
  6
CONTINUOUS
 62
     2
 10
633.122044182
 20
247.729243416
 42
0.021820078
  0
VERTEX
  8
0
  6
CONTINUOUS
 62
     2
 10
632.992273232
 20
247.629666664
 42
0.021820078
  0
VERTEX
  8
0
  6
CONTINUOUS
 62
     2
 10
632.871674785
 20
247.519158548
 42
0.021820078
  0
VERTEX
  8
0
  6
CONTINUOUS
 62
     2
 10
632.761166669
 20
247.398560101
 42
0.021820078
  0
VERTEX
  8
0
  6
CONTINUOUS
 62
     2
 10
632.661589917
 20
247.268789151
 42
0.021820078
  0
VERTEX
  8
0
  6
CONTINUOUS
 62
     2
 10
632.573702368
 20
247.130833333
 42
0.021820078
  0
VERTEX
  8
0
  6
CONTINUOUS
 62
     2
 10
632.498172899
 20
246.985742574
 42
0.021820078
  0
VERTEX
  8
0
  6
CONTINUOUS
 62
     2
 10
632.435576336
 20
246.834621102
 42
0.021820078
  0
VERTEX
  8
0
  6
CONTINUOUS
 62
     2
 10
632.386389076
 20
246.678619043
 42
0.021820078
  0
VERTEX
  8
0
  6
CONTINUOUS
 62
     2
 10
632.350985463
 20
246.518923666
 42
0.021820078
  0
VERTEX
  8
0
  6
CONTINUOUS
 62
     2
 10
632.329634941
 20
246.356750351
 42
0.021820078
  0
VERTEX
  8
0
  6
CONTINUOUS
 62
     2
 10
632.3225
 20
246.193333333
 42
0.021820078
  0
VERTEX
  8
0
  6
CONTINUOUS
 62
     2
 10
632.329634941
 20
246.029916316
 42
0.021820078
  0
VERTEX
  8
0
  6
CONTINUOUS
 62
     2
 10
632.350985463
 20
245.867743
 42
0.021820078
  0
VERTEX
  8
0
  6
CONTINUOUS
 62
     2
 10
632.386389076
 20
245.708047624
 42
0.021820078
  0
VERTEX
  8
0
  6
CONTINUOUS
 62
     2
 10
632.435576336
 20
245.552045565
 42
0.021820078
  0
VERTEX
  8
0
  6
CONTINUOUS
 62
     2
 10
632.498172899
 20
245.400924093
 42
0.021820078
  0
VERTEX
  8
0
  6
CONTINUOUS
 62
     2
 10
632.573702368
 20
245.255833333
 42
0.021820078
  0
VERTEX
  8
0
  6
CONTINUOUS
 62
     2
 10
632.661589917
 20
245.117877515
 42
0.021820078
  0
VERTEX
  8
0
  6
CONTINUOUS
 62
     2
 10
632.761166669
 20
244.988106565
 42
0.021820078
  0
VERTEX
  8
0
  6
CONTINUOUS
 62
     2
 10
632.871674785
 20
244.867508119
 42
0.021820078
  0
VERTEX
  8
0
  6
CONTINUOUS
 62
     2
 10
632.992273232
 20
244.757000002
 42
0.021820078
  0
VERTEX
  8
0
  6
CONTINUOUS
 62
     2
 10
633.122044182
 20
244.65742325
 42
0.021820078
  0
VERTEX
  8
0
  6
CONTINUOUS
 62
     2
 10
633.26
 20
244.569535701
 42
0.021820078
  0
VERTEX
  8
0
  6
CONTINUOUS
 62
     2
 10
633.405090759
 20
244.494006233
 42
0.021820078
  0
VERTEX
  8
0
  6
CONTINUOUS
 62
     2
 10
633.556212231
 20
244.431409669
 42
0.021820078
  0
VERTEX
  8
0
  6
CONTINUOUS
 62
     2
 10
633.71221429
 20
244.382222409
 42
0.021820078
  0
VERTEX
  8
0
  6
CONTINUOUS
 62
     2
 10
633.871909667
 20
244.346818796
 42
0.021820078
  0
VERTEX
  8
0
  6
CONTINUOUS
 62
     2
 10
634.034082982
 20
244.325468274
 42
0.021820078
  0
VERTEX
  8
0
  6
CONTINUOUS
 62
     2
 10
634.1975
 20
244.318333333
 42
0.021820078
  0
VERTEX
  8
0
  6
CONTINUOUS
 62
     2
 10
634.360917018
 20
244.325468274
 42
0.021820078
  0
VERTEX
  8
0
  6
CONTINUOUS
 62
     2
 10
634.523090333
 20
244.346818796
 42
0.021820078
  0
VERTEX
  8
0
  6
CONTINUOUS
 62
     2
 10
634.68278571
 20
244.382222409
 42
0.021820078
  0
VERTEX
  8
0
  6
CONTINUOUS
 62
     2
 10
634.838787769
 20
244.431409669
 42
0.021820078
  0
VERTEX
  8
0
  6
CONTINUOUS
 62
     2
 10
634.989909241
 20
244.494006233
 42
0.021820078
  0
VERTEX
  8
0
  6
CONTINUOUS
 62
     2
 10
635.135
 20
244.569535701
 42
0.021820078
  0
VERTEX
  8
0
  6
CONTINUOUS
 62
     2
 10
635.272955818
 20
244.65742325
 42
0.021820078
  0
VERTEX
  8
0
  6
CONTINUOUS
 62
     2
 10
635.402726768
 20
244.757000002
 42
0.021820078
  0
VERTEX
  8
0
  6
CONTINUOUS
 62
     2
 10
635.523325215
 20
244.867508119
 42
0.021820078
  0
VERTEX
  8
0
  6
CONTINUOUS
 62
     2
 10
635.633833331
 20
244.988106565
 42
0.021820078
  0
VERTEX
  8
0
  6
CONTINUOUS
 62
     2
 10
635.733410083
 20
245.117877515
 42
0.021820078
  0
VERTEX
  8
0
  6
CONTINUOUS
 62
     2
 10
635.821297632
 20
245.255833333
 42
0.021820078
  0
VERTEX
  8
0
  6
CONTINUOUS
 62
     2
 10
635.896827101
 20
245.400924093
 42
0.021820078
  0
VERTEX
  8
0
  6
CONTINUOUS
 62
     2
 10
635.959423664
 20
245.552045565
 42
0.021820078
  0
VERTEX
  8
0
  6
CONTINUOUS
 62
     2
 10
636.008610924
 20
245.708047624
 42
0.021820078
  0
VERTEX
  8
0
  6
CONTINUOUS
 62
     2
 10
636.044014537
 20
245.867743
 42
0.021820078
  0
VERTEX
  8
0
  6
CONTINUOUS
 62
     2
 10
636.065365059
 20
246.029916316
 42
0.021820078
  0
SEQEND
  8
0
  6
CONTINUOUS
 62
     2
  0
POLYLINE
  8
0
  6
CONTINUOUS
 62
     2
 66
     1
 70
     1
  0
VERTEX
  8
0
  6
CONTINUOUS
 62
     2
 10
648.5725
 20
246.193333333
 42
0.021820078
  0
VERTEX
  8
0
  6
CONTINUOUS
 62
     2
 10
648.565365059
 20
246.356750351
 42
0.021820078
  0
VERTEX
  8
0
  6
CONTINUOUS
 62
     2
 10
648.544014537
 20
246.518923666
 42
0.021820078
  0
VERTEX
  8
0
  6
CONTINUOUS
 62
     2
 10
648.508610924
 20
246.678619043
 42
0.021820078
  0
VERTEX
  8
0
  6
CONTINUOUS
 62
     2
 10
648.459423664
 20
246.834621102
 42
0.021820078
  0
VERTEX
  8
0
  6
CONTINUOUS
 62
     2
 10
648.396827101
 20
246.985742574
 42
0.021820078
  0
VERTEX
  8
0
  6
CONTINUOUS
 62
     2
 10
648.321297632
 20
247.130833333
 42
0.021820078
  0
VERTEX
  8
0
  6
CONTINUOUS
 62
     2
 10
648.233410083
 20
247.268789151
 42
0.021820078
  0
VERTEX
  8
0
  6
CONTINUOUS
 62
     2
 10
648.133833331
 20
247.398560101
 42
0.021820078
  0
VERTEX
  8
0
  6
CONTINUOUS
 62
     2
 10
648.023325215
 20
247.519158548
 42
0.021820078
  0
VERTEX
  8
0
  6
CONTINUOUS
 62
     2
 10
647.902726768
 20
247.629666664
 42
0.021820078
  0
VERTEX
  8
0
  6
CONTINUOUS
 62
     2
 10
647.772955818
 20
247.729243416
 42
0.021820078
  0
VERTEX
  8
0
  6
CONTINUOUS
 62
     2
 10
647.635
 20
247.817130965
 42
0.021820078
  0
VERTEX
  8
0
  6
CONTINUOUS
 62
     2
 10
647.489909241
 20
247.892660434
 42
0.021820078
  0
VERTEX
  8
0
  6
CONTINUOUS
 62
     2
 10
647.338787769
 20
247.955256997
 42
0.021820078
  0
VERTEX
  8
0
  6
CONTINUOUS
 62
     2
 10
647.18278571
 20
248.004444258
 42
0.021820078
  0
VERTEX
  8
0
  6
CONTINUOUS
 62
     2
 10
647.023090333
 20
248.03984787
 42
0.021820078
  0
VERTEX
  8
0
  6
CONTINUOUS
 62
     2
 10
646.860917018
 20
248.061198392
 42
0.021820078
  0
VERTEX
  8
0
  6
CONTINUOUS
 62
     2
 10
646.6975
 20
248.068333333
 42
0.021820078
  0
VERTEX
  8
0
  6
CONTINUOUS
 62
     2
 10
646.534082982
 20
248.061198392
 42
0.021820078
  0
VERTEX
  8
0
  6
CONTINUOUS
 62
     2
 10
646.371909667
 20
248.03984787
 42
0.021820078
  0
VERTEX
  8
0
  6
CONTINUOUS
 62
     2
 10
646.21221429
 20
248.004444258
 42
0.021820078
  0
VERTEX
  8
0
  6
CONTINUOUS
 62
     2
 10
646.056212231
 20
247.955256997
 42
0.021820078
  0
VERTEX
  8
0
  6
CONTINUOUS
 62
     2
 10
645.905090759
 20
247.892660434
 42
0.021820078
  0
VERTEX
  8
0
  6
CONTINUOUS
 62
     2
 10
645.76
 20
247.817130965
 42
0.021820078
  0
VERTEX
  8
0
  6
CONTINUOUS
 62
     2
 10
645.622044182
 20
247.729243416
 42
0.021820078
  0
VERTEX
  8
0
  6
CONTINUOUS
 62
     2
 10
645.492273232
 20
247.629666664
 42
0.021820078
  0
VERTEX
  8
0
  6
CONTINUOUS
 62
     2
 10
645.371674785
 20
247.519158548
 42
0.021820078
  0
VERTEX
  8
0
  6
CONTINUOUS
 62
     2
 10
645.261166669
 20
247.398560101
 42
0.021820078
  0
VERTEX
  8
0
  6
CONTINUOUS
 62
     2
 10
645.161589917
 20
247.268789151
 42
0.021820078
  0
VERTEX
  8
0
  6
CONTINUOUS
 62
     2
 10
645.073702368
 20
247.130833333
 42
0.021820078
  0
VERTEX
  8
0
  6
CONTINUOUS
 62
     2
 10
644.998172899
 20
246.985742574
 42
0.021820078
  0
VERTEX
  8
0
  6
CONTINUOUS
 62
     2
 10
644.935576336
 20
246.834621102
 42
0.021820078
  0
VERTEX
  8
0
  6
CONTINUOUS
 62
     2
 10
644.886389076
 20
246.678619043
 42
0.021820078
  0
VERTEX
  8
0
  6
CONTINUOUS
 62
     2
 10
644.850985463
 20
246.518923666
 42
0.021820078
  0
VERTEX
  8
0
  6
CONTINUOUS
 62
     2
 10
644.829634941
 20
246.356750351
 42
0.021820078
  0
VERTEX
  8
0
  6
CONTINUOUS
 62
     2
 10
644.8225
 20
246.193333333
 42
0.021820078
  0
VERTEX
  8
0
  6
CONTINUOUS
 62
     2
 10
644.829634941
 20
246.029916316
 42
0.021820078
  0
VERTEX
  8
0
  6
CONTINUOUS
 62
     2
 10
644.850985463
 20
245.867743
 42
0.021820078
  0
VERTEX
  8
0
  6
CONTINUOUS
 62
     2
 10
644.886389076
 20
245.708047624
 42
0.021820078
  0
VERTEX
  8
0
  6
CONTINUOUS
 62
     2
 10
644.935576336
 20
245.552045565
 42
0.021820078
  0
VERTEX
  8
0
  6
CONTINUOUS
 62
     2
 10
644.998172899
 20
245.400924093
 42
0.021820078
  0
VERTEX
  8
0
  6
CONTINUOUS
 62
     2
 10
645.073702368
 20
245.255833333
 42
0.021820078
  0
VERTEX
  8
0
  6
CONTINUOUS
 62
     2
 10
645.161589917
 20
245.117877515
 42
0.021820078
  0
VERTEX
  8
0
  6
CONTINUOUS
 62
     2
 10
645.261166669
 20
244.988106565
 42
0.021820078
  0
VERTEX
  8
0
  6
CONTINUOUS
 62
     2
 10
645.371674785
 20
244.867508119
 42
0.021820078
  0
VERTEX
  8
0
  6
CONTINUOUS
 62
     2
 10
645.492273232
 20
244.757000002
 42
0.021820078
  0
VERTEX
  8
0
  6
CONTINUOUS
 62
     2
 10
645.622044182
 20
244.65742325
 42
0.021820078
  0
VERTEX
  8
0
  6
CONTINUOUS
 62
     2
 10
645.76
 20
244.569535701
 42
0.021820078
  0
VERTEX
  8
0
  6
CONTINUOUS
 62
     2
 10
645.905090759
 20
244.494006233
 42
0.021820078
  0
VERTEX
  8
0
  6
CONTINUOUS
 62
     2
 10
646.056212231
 20
244.431409669
 42
0.021820078
  0
VERTEX
  8
0
  6
CONTINUOUS
 62
     2
 10
646.21221429
 20
244.382222409
 42
0.021820078
  0
VERTEX
  8
0
  6
CONTINUOUS
 62
     2
 10
646.371909667
 20
244.346818796
 42
0.021820078
  0
VERTEX
  8
0
  6
CONTINUOUS
 62
     2
 10
646.534082982
 20
244.325468274
 42
0.021820078
  0
VERTEX
  8
0
  6
CONTINUOUS
 62
     2
 10
646.6975
 20
244.318333333
 42
0.021820078
  0
VERTEX
  8
0
  6
CONTINUOUS
 62
     2
 10
646.860917018
 20
244.325468274
 42
0.021820078
  0
VERTEX
  8
0
  6
CONTINUOUS
 62
     2
 10
647.023090333
 20
244.346818796
 42
0.021820078
  0
VERTEX
  8
0
  6
CONTINUOUS
 62
     2
 10
647.18278571
 20
244.382222409
 42
0.021820078
  0
VERTEX
  8
0
  6
CONTINUOUS
 62
     2
 10
647.338787769
 20
244.431409669
 42
0.021820078
  0
VERTEX
  8
0
  6
CONTINUOUS
 62
     2
 10
647.489909241
 20
244.494006233
 42
0.021820078
  0
VERTEX
  8
0
  6
CONTINUOUS
 62
     2
 10
647.635
 20
244.569535701
 42
0.021820078
  0
VERTEX
  8
0
  6
CONTINUOUS
 62
     2
 10
647.772955818
 20
244.65742325
 42
0.021820078
  0
VERTEX
  8
0
  6
CONTINUOUS
 62
     2
 10
647.902726768
 20
244.757000002
 42
0.021820078
  0
VERTEX
  8
0
  6
CONTINUOUS
 62
     2
 10
648.023325215
 20
244.867508119
 42
0.021820078
  0
VERTEX
  8
0
  6
CONTINUOUS
 62
     2
 10
648.133833331
 20
244.988106565
 42
0.021820078
  0
VERTEX
  8
0
  6
CONTINUOUS
 62
     2
 10
648.233410083
 20
245.117877515
 42
0.021820078
  0
VERTEX
  8
0
  6
CONTINUOUS
 62
     2
 10
648.321297632
 20
245.255833333
 42
0.021820078
  0
VERTEX
  8
0
  6
CONTINUOUS
 62
     2
 10
648.396827101
 20
245.400924093
 42
0.021820078
  0
VERTEX
  8
0
  6
CONTINUOUS
 62
     2
 10
648.459423664
 20
245.552045565
 42
0.021820078
  0
VERTEX
  8
0
  6
CONTINUOUS
 62
     2
 10
648.508610924
 20
245.708047624
 42
0.021820078
  0
VERTEX
  8
0
  6
CONTINUOUS
 62
     2
 10
648.544014537
 20
245.867743
 42
0.021820078
  0
VERTEX
  8
0
  6
CONTINUOUS
 62
     2
 10
648.565365059
 20
246.029916316
 42
0.021820078
  0
SEQEND
  8
0
  6
CONTINUOUS
 62
     2
  0
POLYLINE
  8
0
  6
CONTINUOUS
 62
     2
 66
     1
 70
     1
  0
VERTEX
  8
0
  6
CONTINUOUS
 62
     2
 10
636.0725
 20
209.235
 42
-0.021820078
  0
VERTEX
  8
0
  6
CONTINUOUS
 62
     2
 10
636.065365059
 20
209.071582982
 42
-0.021820078
  0
VERTEX
  8
0
  6
CONTINUOUS
 62
     2
 10
636.044014537
 20
208.909409667
 42
-0.021820078
  0
VERTEX
  8
0
  6
CONTINUOUS
 62
     2
 10
636.008610924
 20
208.74971429
 42
-0.021820078
  0
VERTEX
  8
0
  6
CONTINUOUS
 62
     2
 10
635.959423664
 20
208.593712231
 42
-0.021820078
  0
VERTEX
  8
0
  6
CONTINUOUS
 62
     2
 10
635.896827101
 20
208.442590759
 42
-0.021820078
  0
VERTEX
  8
0
  6
CONTINUOUS
 62
     2
 10
635.821297632
 20
208.2975
 42
-0.021820078
  0
VERTEX
  8
0
  6
CONTINUOUS
 62
     2
 10
635.733410083
 20
208.159544182
 42
-0.021820078
  0
VERTEX
  8
0
  6
CONTINUOUS
 62
     2
 10
635.633833331
 20
208.029773232
 42
-0.021820078
  0
VERTEX
  8
0
  6
CONTINUOUS
 62
     2
 10
635.523325215
 20
207.909174785
 42
-0.021820078
  0
VERTEX
  8
0
  6
CONTINUOUS
 62
     2
 10
635.402726768
 20
207.798666669
 42
-0.021820078
  0
VERTEX
  8
0
  6
CONTINUOUS
 62
     2
 10
635.272955818
 20
207.699089917
 42
-0.021820078
  0
VERTEX
  8
0
  6
CONTINUOUS
 62
     2
 10
635.135
 20
207.611202368
 42
-0.021820078
  0
VERTEX
  8
0
  6
CONTINUOUS
 62
     2
 10
634.989909241
 20
207.535672899
 42
-0.021820078
  0
VERTEX
  8
0
  6
CONTINUOUS
 62
     2
 10
634.838787769
 20
207.473076336
 42
-0.021820078
  0
VERTEX
  8
0
  6
CONTINUOUS
 62
     2
 10
634.68278571
 20
207.423889076
 42
-0.021820078
  0
VERTEX
  8
0
  6
CONTINUOUS
 62
     2
 10
634.523090333
 20
207.388485463
 42
-0.021820078
  0
VERTEX
  8
0
  6
CONTINUOUS
 62
     2
 10
634.360917018
 20
207.367134941
 42
-0.021820078
  0
VERTEX
  8
0
  6
CONTINUOUS
 62
     2
 10
634.1975
 20
207.36
 42
-0.021820078
  0
VERTEX
  8
0
  6
CONTINUOUS
 62
     2
 10
634.034082982
 20
207.367134941
 42
-0.021820078
  0
VERTEX
  8
0
  6
CONTINUOUS
 62
     2
 10
633.871909667
 20
207.388485463
 42
-0.021820078
  0
VERTEX
  8
0
  6
CONTINUOUS
 62
     2
 10
633.71221429
 20
207.423889076
 42
-0.021820078
  0
VERTEX
  8
0
  6
CONTINUOUS
 62
     2
 10
633.556212231
 20
207.473076336
 42
-0.021820078
  0
VERTEX
  8
0
  6
CONTINUOUS
 62
     2
 10
633.405090759
 20
207.535672899
 42
-0.021820078
  0
VERTEX
  8
0
  6
CONTINUOUS
 62
     2
 10
633.26
 20
207.611202368
 42
-0.021820078
  0
VERTEX
  8
0
  6
CONTINUOUS
 62
     2
 10
633.122044182
 20
207.699089917
 42
-0.021820078
  0
VERTEX
  8
0
  6
CONTINUOUS
 62
     2
 10
632.992273232
 20
207.798666669
 42
-0.021820078
  0
VERTEX
  8
0
  6
CONTINUOUS
 62
     2
 10
632.871674785
 20
207.909174785
 42
-0.021820078
  0
VERTEX
  8
0
  6
CONTINUOUS
 62
     2
 10
632.761166669
 20
208.029773232
 42
-0.021820078
  0
VERTEX
  8
0
  6
CONTINUOUS
 62
     2
 10
632.661589917
 20
208.159544182
 42
-0.021820078
  0
VERTEX
  8
0
  6
CONTINUOUS
 62
     2
 10
632.573702368
 20
208.2975
 42
-0.021820078
  0
VERTEX
  8
0
  6
CONTINUOUS
 62
     2
 10
632.498172899
 20
208.442590759
 42
-0.021820078
  0
VERTEX
  8
0
  6
CONTINUOUS
 62
     2
 10
632.435576336
 20
208.593712231
 42
-0.021820078
  0
VERTEX
  8
0
  6
CONTINUOUS
 62
     2
 10
632.386389076
 20
208.74971429
 42
-0.021820078
  0
VERTEX
  8
0
  6
CONTINUOUS
 62
     2
 10
632.350985463
 20
208.909409667
 42
-0.021820078
  0
VERTEX
  8
0
  6
CONTINUOUS
 62
     2
 10
632.329634941
 20
209.071582982
 42
-0.021820078
  0
VERTEX
  8
0
  6
CONTINUOUS
 62
     2
 10
632.3225
 20
209.235
 42
-0.021820078
  0
VERTEX
  8
0
  6
CONTINUOUS
 62
     2
 10
632.329634941
 20
209.398417018
 42
-0.021820078
  0
VERTEX
  8
0
  6
CONTINUOUS
 62
     2
 10
632.350985463
 20
209.560590333
 42
-0.021820078
  0
VERTEX
  8
0
  6
CONTINUOUS
 62
     2
 10
632.386389076
 20
209.72028571
 42
-0.021820078
  0
VERTEX
  8
0
  6
CONTINUOUS
 62
     2
 10
632.435576336
 20
209.876287769
 42
-0.021820078
  0
VERTEX
  8
0
  6
CONTINUOUS
 62
     2
 10
632.498172899
 20
210.027409241
 42
-0.021820078
  0
VERTEX
  8
0
  6
CONTINUOUS
 62
     2
 10
632.573702368
 20
210.1725
 42
-0.021820078
  0
VERTEX
  8
0
  6
CONTINUOUS
 62
     2
 10
632.661589917
 20
210.310455818
 42
-0.021820078
  0
VERTEX
  8
0
  6
CONTINUOUS
 62
     2
 10
632.761166669
 20
210.440226768
 42
-0.021820078
  0
VERTEX
  8
0
  6
CONTINUOUS
 62
     2
 10
632.871674785
 20
210.560825215
 42
-0.021820078
  0
VERTEX
  8
0
  6
CONTINUOUS
 62
     2
 10
632.992273232
 20
210.671333331
 42
-0.021820078
  0
VERTEX
  8
0
  6
CONTINUOUS
 62
     2
 10
633.122044182
 20
210.770910083
 42
-0.021820078
  0
VERTEX
  8
0
  6
CONTINUOUS
 62
     2
 10
633.26
 20
210.858797632
 42
-0.021820078
  0
VERTEX
  8
0
  6
CONTINUOUS
 62
     2
 10
633.405090759
 20
210.934327101
 42
-0.021820078
  0
VERTEX
  8
0
  6
CONTINUOUS
 62
     2
 10
633.556212231
 20
210.996923664
 42
-0.021820078
  0
VERTEX
  8
0
  6
CONTINUOUS
 62
     2
 10
633.71221429
 20
211.046110924
 42
-0.021820078
  0
VERTEX
  8
0
  6
CONTINUOUS
 62
     2
 10
633.871909667
 20
211.081514537
 42
-0.021820078
  0
VERTEX
  8
0
  6
CONTINUOUS
 62
     2
 10
634.034082982
 20
211.102865059
 42
-0.021820078
  0
VERTEX
  8
0
  6
CONTINUOUS
 62
     2
 10
634.1975
 20
211.11
 42
-0.021820078
  0
VERTEX
  8
0
  6
CONTINUOUS
 62
     2
 10
634.360917018
 20
211.102865059
 42
-0.021820078
  0
VERTEX
  8
0
  6
CONTINUOUS
 62
     2
 10
634.523090333
 20
211.081514537
 42
-0.021820078
  0
VERTEX
  8
0
  6
CONTINUOUS
 62
     2
 10
634.68278571
 20
211.046110924
 42
-0.021820078
  0
VERTEX
  8
0
  6
CONTINUOUS
 62
     2
 10
634.838787769
 20
210.996923664
 42
-0.021820078
  0
VERTEX
  8
0
  6
CONTINUOUS
 62
     2
 10
634.989909241
 20
210.934327101
 42
-0.021820078
  0
VERTEX
  8
0
  6
CONTINUOUS
 62
     2
 10
635.135
 20
210.858797632
 42
-0.021820078
  0
VERTEX
  8
0
  6
CONTINUOUS
 62
     2
 10
635.272955818
 20
210.770910083
 42
-0.021820078
  0
VERTEX
  8
0
  6
CONTINUOUS
 62
     2
 10
635.402726768
 20
210.671333331
 42
-0.021820078
  0
VERTEX
  8
0
  6
CONTINUOUS
 62
     2
 10
635.523325215
 20
210.560825215
 42
-0.021820078
  0
VERTEX
  8
0
  6
CONTINUOUS
 62
     2
 10
635.633833331
 20
210.440226768
 42
-0.021820078
  0
VERTEX
  8
0
  6
CONTINUOUS
 62
     2
 10
635.733410083
 20
210.310455818
 42
-0.021820078
  0
VERTEX
  8
0
  6
CONTINUOUS
 62
     2
 10
635.821297632
 20
210.1725
 42
-0.021820078
  0
VERTEX
  8
0
  6
CONTINUOUS
 62
     2
 10
635.896827101
 20
210.027409241
 42
-0.021820078
  0
VERTEX
  8
0
  6
CONTINUOUS
 62
     2
 10
635.959423664
 20
209.876287769
 42
-0.021820078
  0
VERTEX
  8
0
  6
CONTINUOUS
 62
     2
 10
636.008610924
 20
209.72028571
 42
-0.021820078
  0
VERTEX
  8
0
  6
CONTINUOUS
 62
     2
 10
636.044014537
 20
209.560590333
 42
-0.021820078
  0
VERTEX
  8
0
  6
CONTINUOUS
 62
     2
 10
636.065365059
 20
209.398417018
 42
-0.021820078
  0
SEQEND
  8
0
  6
CONTINUOUS
 62
     2
  0
POLYLINE
  8
0
  6
CONTINUOUS
 62
     2
 66
     1
 70
     1
  0
VERTEX
  8
0
  6
CONTINUOUS
 62
     2
 10
648.5725
 20
209.235
 42
-0.021820078
  0
VERTEX
  8
0
  6
CONTINUOUS
 62
     2
 10
648.565365059
 20
209.071582982
 42
-0.021820078
  0
VERTEX
  8
0
  6
CONTINUOUS
 62
     2
 10
648.544014537
 20
208.909409667
 42
-0.021820078
  0
VERTEX
  8
0
  6
CONTINUOUS
 62
     2
 10
648.508610924
 20
208.74971429
 42
-0.021820078
  0
VERTEX
  8
0
  6
CONTINUOUS
 62
     2
 10
648.459423664
 20
208.593712231
 42
-0.021820078
  0
VERTEX
  8
0
  6
CONTINUOUS
 62
     2
 10
648.396827101
 20
208.442590759
 42
-0.021820078
  0
VERTEX
  8
0
  6
CONTINUOUS
 62
     2
 10
648.321297632
 20
208.2975
 42
-0.021820078
  0
VERTEX
  8
0
  6
CONTINUOUS
 62
     2
 10
648.233410083
 20
208.159544182
 42
-0.021820078
  0
VERTEX
  8
0
  6
CONTINUOUS
 62
     2
 10
648.133833331
 20
208.029773232
 42
-0.021820078
  0
VERTEX
  8
0
  6
CONTINUOUS
 62
     2
 10
648.023325215
 20
207.909174785
 42
-0.021820078
  0
VERTEX
  8
0
  6
CONTINUOUS
 62
     2
 10
647.902726768
 20
207.798666669
 42
-0.021820078
  0
VERTEX
  8
0
  6
CONTINUOUS
 62
     2
 10
647.772955818
 20
207.699089917
 42
-0.021820078
  0
VERTEX
  8
0
  6
CONTINUOUS
 62
     2
 10
647.635
 20
207.611202368
 42
-0.021820078
  0
VERTEX
  8
0
  6
CONTINUOUS
 62
     2
 10
647.489909241
 20
207.535672899
 42
-0.021820078
  0
VERTEX
  8
0
  6
CONTINUOUS
 62
     2
 10
647.338787769
 20
207.473076336
 42
-0.021820078
  0
VERTEX
  8
0
  6
CONTINUOUS
 62
     2
 10
647.18278571
 20
207.423889076
 42
-0.021820078
  0
VERTEX
  8
0
  6
CONTINUOUS
 62
     2
 10
647.023090333
 20
207.388485463
 42
-0.021820078
  0
VERTEX
  8
0
  6
CONTINUOUS
 62
     2
 10
646.860917018
 20
207.367134941
 42
-0.021820078
  0
VERTEX
  8
0
  6
CONTINUOUS
 62
     2
 10
646.6975
 20
207.36
 42
-0.021820078
  0
VERTEX
  8
0
  6
CONTINUOUS
 62
     2
 10
646.534082982
 20
207.367134941
 42
-0.021820078
  0
VERTEX
  8
0
  6
CONTINUOUS
 62
     2
 10
646.371909667
 20
207.388485463
 42
-0.021820078
  0
VERTEX
  8
0
  6
CONTINUOUS
 62
     2
 10
646.21221429
 20
207.423889076
 42
-0.021820078
  0
VERTEX
  8
0
  6
CONTINUOUS
 62
     2
 10
646.056212231
 20
207.473076336
 42
-0.021820078
  0
VERTEX
  8
0
  6
CONTINUOUS
 62
     2
 10
645.905090759
 20
207.535672899
 42
-0.021820078
  0
VERTEX
  8
0
  6
CONTINUOUS
 62
     2
 10
645.76
 20
207.611202368
 42
-0.021820078
  0
VERTEX
  8
0
  6
CONTINUOUS
 62
     2
 10
645.622044182
 20
207.699089917
 42
-0.021820078
  0
VERTEX
  8
0
  6
CONTINUOUS
 62
     2
 10
645.492273232
 20
207.798666669
 42
-0.021820078
  0
VERTEX
  8
0
  6
CONTINUOUS
 62
     2
 10
645.371674785
 20
207.909174785
 42
-0.021820078
  0
VERTEX
  8
0
  6
CONTINUOUS
 62
     2
 10
645.261166669
 20
208.029773232
 42
-0.021820078
  0
VERTEX
  8
0
  6
CONTINUOUS
 62
     2
 10
645.161589917
 20
208.159544182
 42
-0.021820078
  0
VERTEX
  8
0
  6
CONTINUOUS
 62
     2
 10
645.073702368
 20
208.2975
 42
-0.021820078
  0
VERTEX
  8
0
  6
CONTINUOUS
 62
     2
 10
644.998172899
 20
208.442590759
 42
-0.021820078
  0
VERTEX
  8
0
  6
CONTINUOUS
 62
     2
 10
644.935576336
 20
208.593712231
 42
-0.021820078
  0
VERTEX
  8
0
  6
CONTINUOUS
 62
     2
 10
644.886389076
 20
208.74971429
 42
-0.021820078
  0
VERTEX
  8
0
  6
CONTINUOUS
 62
     2
 10
644.850985463
 20
208.909409667
 42
-0.021820078
  0
VERTEX
  8
0
  6
CONTINUOUS
 62
     2
 10
644.829634941
 20
209.071582982
 42
-0.021820078
  0
VERTEX
  8
0
  6
CONTINUOUS
 62
     2
 10
644.8225
 20
209.235
 42
-0.021820078
  0
VERTEX
  8
0
  6
CONTINUOUS
 62
     2
 10
644.829634941
 20
209.398417018
 42
-0.021820078
  0
VERTEX
  8
0
  6
CONTINUOUS
 62
     2
 10
644.850985463
 20
209.560590333
 42
-0.021820078
  0
VERTEX
  8
0
  6
CONTINUOUS
 62
     2
 10
644.886389076
 20
209.72028571
 42
-0.021820078
  0
VERTEX
  8
0
  6
CONTINUOUS
 62
     2
 10
644.935576336
 20
209.876287769
 42
-0.021820078
  0
VERTEX
  8
0
  6
CONTINUOUS
 62
     2
 10
644.998172899
 20
210.027409241
 42
-0.021820078
  0
VERTEX
  8
0
  6
CONTINUOUS
 62
     2
 10
645.073702368
 20
210.1725
 42
-0.021820078
  0
VERTEX
  8
0
  6
CONTINUOUS
 62
     2
 10
645.161589917
 20
210.310455818
 42
-0.021820078
  0
VERTEX
  8
0
  6
CONTINUOUS
 62
     2
 10
645.261166669
 20
210.440226768
 42
-0.021820078
  0
VERTEX
  8
0
  6
CONTINUOUS
 62
     2
 10
645.371674785
 20
210.560825215
 42
-0.021820078
  0
VERTEX
  8
0
  6
CONTINUOUS
 62
     2
 10
645.492273232
 20
210.671333331
 42
-0.021820078
  0
VERTEX
  8
0
  6
CONTINUOUS
 62
     2
 10
645.622044182
 20
210.770910083
 42
-0.021820078
  0
VERTEX
  8
0
  6
CONTINUOUS
 62
     2
 10
645.76
 20
210.858797632
 42
-0.021820078
  0
VERTEX
  8
0
  6
CONTINUOUS
 62
     2
 10
645.905090759
 20
210.934327101
 42
-0.021820078
  0
VERTEX
  8
0
  6
CONTINUOUS
 62
     2
 10
646.056212231
 20
210.996923664
 42
-0.021820078
  0
VERTEX
  8
0
  6
CONTINUOUS
 62
     2
 10
646.21221429
 20
211.046110924
 42
-0.021820078
  0
VERTEX
  8
0
  6
CONTINUOUS
 62
     2
 10
646.371909667
 20
211.081514537
 42
-0.021820078
  0
VERTEX
  8
0
  6
CONTINUOUS
 62
     2
 10
646.534082982
 20
211.102865059
 42
-0.021820078
  0
VERTEX
  8
0
  6
CONTINUOUS
 62
     2
 10
646.6975
 20
211.11
 42
-0.021820078
  0
VERTEX
  8
0
  6
CONTINUOUS
 62
     2
 10
646.860917018
 20
211.102865059
 42
-0.021820078
  0
VERTEX
  8
0
  6
CONTINUOUS
 62
     2
 10
647.023090333
 20
211.081514537
 42
-0.021820078
  0
VERTEX
  8
0
  6
CONTINUOUS
 62
     2
 10
647.18278571
 20
211.046110924
 42
-0.021820078
  0
VERTEX
  8
0
  6
CONTINUOUS
 62
     2
 10
647.338787769
 20
210.996923664
 42
-0.021820078
  0
VERTEX
  8
0
  6
CONTINUOUS
 62
     2
 10
647.489909241
 20
210.934327101
 42
-0.021820078
  0
VERTEX
  8
0
  6
CONTINUOUS
 62
     2
 10
647.635
 20
210.858797632
 42
-0.021820078
  0
VERTEX
  8
0
  6
CONTINUOUS
 62
     2
 10
647.772955818
 20
210.770910083
 42
-0.021820078
  0
VERTEX
  8
0
  6
CONTINUOUS
 62
     2
 10
647.902726768
 20
210.671333331
 42
-0.021820078
  0
VERTEX
  8
0
  6
CONTINUOUS
 62
     2
 10
648.023325215
 20
210.560825215
 42
-0.021820078
  0
VERTEX
  8
0
  6
CONTINUOUS
 62
     2
 10
648.133833331
 20
210.440226768
 42
-0.021820078
  0
VERTEX
  8
0
  6
CONTINUOUS
 62
     2
 10
648.233410083
 20
210.310455818
 42
-0.021820078
  0
VERTEX
  8
0
  6
CONTINUOUS
 62
     2
 10
648.321297632
 20
210.1725
 42
-0.021820078
  0
VERTEX
  8
0
  6
CONTINUOUS
 62
     2
 10
648.396827101
 20
210.027409241
 42
-0.021820078
  0
VERTEX
  8
0
  6
CONTINUOUS
 62
     2
 10
648.459423664
 20
209.876287769
 42
-0.021820078
  0
VERTEX
  8
0
  6
CONTINUOUS
 62
     2
 10
648.508610924
 20
209.72028571
 42
-0.021820078
  0
VERTEX
  8
0
  6
CONTINUOUS
 62
     2
 10
648.544014537
 20
209.560590333
 42
-0.021820078
  0
VERTEX
  8
0
  6
CONTINUOUS
 62
     2
 10
648.565365059
 20
209.398417018
 42
-0.021820078
  0
SEQEND
  8
0
  6
CONTINUOUS
 62
     2
  0
TEXT
  8
0
  6
CONTINUOUS
 62
     2
 10
626.905833333
 20
200.568333333
 30
0.0
 40
8.333333333
  1
１
 50
0.0
 41
0.85
 51
0.0
  7
KANJI42
  0
TEXT
  8
0
  6
CONTINUOUS
 62
     2
 10
647.739166667
 20
200.568333333
 30
0.0
 40
8.333333333
  1
２
 50
0.0
 41
0.85
 51
0.0
  7
KANJI42
  0
TEXT
  8
0
  6
CONTINUOUS
 62
     2
 10
600.3225
 20
246.151666667
 30
0.0
 40
8.333333333
  1
（ＮＯ）
 50
0.0
 41
0.75
 51
0.0
  7
KANJI43
  0
TEXT
  8
0
  6
CONTINUOUS
 62
     2
 10
655.3225
 20
246.151666667
 30
0.0
 40
8.333333333
  1
（ＮＯ）
 50
0.0
 41
0.75
 51
0.0
  7
KANJI43
  0
TEXT
  8
0
  6
CONTINUOUS
 62
     2
 10
600.3225
 20
198.235
 30
0.0
 40
8.333333333
  1
（ＮＣ）
 50
0.0
 41
0.75
 51
0.0
  7
KANJI43
  0
TEXT
  8
0
  6
CONTINUOUS
 62
     2
 10
655.3225
 20
198.235
 30
0.0
 40
8.333333333
  1
（ＮＣ）
 50
0.0
 41
0.75
 51
0.0
  7
KANJI43
  0
TEXT
  8
0
  6
CONTINUOUS
 62
     2
 10
586.885
 20
174.068333333
 30
0.0
 40
12.5
  1
外部ＬＳリミットＳＷ
 50
0.0
 41
0.9
 51
0.0
  7
KANJI44
  0
TEXT
  8
0
  6
CONTINUOUS
 62
     2
 10
617.926666667
 20
158.235
 30
0.0
 40
12.5
  1
端子符号
 50
0.0
 41
0.9
 51
0.0
  7
KANJI44
  0
LINE
  8
0
  6
CONTINUOUS
 62
     2
 10
705.01
 20
163.651666667
 11
705.01
 21
305.11
  0
LINE
  8
0
  6
CONTINUOUS
 62
     2
 10
705.01
 20
305.11
 11
577.301666667
 21
305.11
  0
LINE
  8
0
  6
CONTINUOUS
 62
     2
 10
577.301666667
 20
305.11
 11
577.301666667
 21
163.651666667
  0
LINE
  8
0
  6
CONTINUOUS
 62
     2
 10
667.51
 20
163.651666667
 11
705.01
 21
163.651666667
  0
LINE
  8
0
  6
CONTINUOUS
 62
     2
 10
577.301666667
 20
163.651666667
 11
609.801666667
 21
163.651666667
  0
LINE
  8
0
  6
LTYPE2
 62
     2
 10
972.5
 20
339.5
 11
1012.5
 21
339.5
  0
LINE
  8
0
  6
CONTINUOUS
 62
     1
 10
1012.5
 20
364.25
 11
1012.5
 21
316.75
  0
LINE
  8
0
  6
CONTINUOUS
 62
     1
 10
1071.5
 20
309.5
 11
1055.5
 21
309.5
  0
LINE
  8
0
  6
CONTINUOUS
 62
     1
 10
1038.5
 20
332.5
 11
1081.5
 21
332.5
  0
LINE
  8
0
  6
CONTINUOUS
 62
     1
 10
1071.5
 20
371.5
 11
1055.5
 21
371.5
  0
LINE
  8
0
  6
CONTINUOUS
 62
     1
 10
1048.5
 20
363.5
 11
1078.5
 21
363.5
  0
LINE
  8
0
  6
CONTINUOUS
 62
     1
 10
1048.5
 20
360.5
 11
1048.5
 21
363.5
  0
LINE
  8
0
  6
CONTINUOUS
 62
     1
 10
1055.5
 20
371.5
 11
1055.5
 21
363.5
  0
LINE
  8
0
  6
CONTINUOUS
 62
     1
 10
1071.5
 20
309.5
 11
1055.5
 21
309.5
  0
LINE
  8
0
  6
CONTINUOUS
 62
     1
 10
1048.5
 20
317.5
 11
1078.5
 21
317.5
  0
LINE
  8
0
  6
CONTINUOUS
 62
     1
 10
1048.5
 20
320.5
 11
1048.5
 21
317.5
  0
LINE
  8
0
  6
CONTINUOUS
 62
     1
 10
1055.5
 20
309.5
 11
1055.5
 21
317.5
  0
LINE
  8
0
  6
CONTINUOUS
 62
     1
 10
1055.5
 20
309.5
 11
1055.5
 21
317.5
  0
LINE
  8
0
  6
CONTINUOUS
 62
     1
 10
1028.5
 20
320.5
 11
1081.5
 21
320.5
  0
LINE
  8
0
  6
CONTINUOUS
 62
     1
 10
1038.5
 20
348.5
 11
1081.5
 21
348.5
  0
LINE
  8
0
  6
CONTINUOUS
 62
     1
 10
1038.5
 20
348.5
 11
1038.5
 21
332.5
  0
LINE
  8
0
  6
CONTINUOUS
 62
     1
 10
1055.5
 20
348.5
 11
1055.5
 21
332.5
  0
LINE
  8
0
  6
CONTINUOUS
 62
     1
 10
1028.5
 20
360.5
 11
1081.5
 21
360.5
  0
LINE
  8
0
  6
LTYPE1
 62
     2
 10
1055.5
 20
362.5
 11
1055.5
 21
347.5
  0
LINE
  8
0
  6
LTYPE1
 62
     2
 10
1055.5
 20
316.5
 11
1055.5
 21
331.5
  0
LINE
  8
0
  6
CONTINUOUS
 62
     2
 10
1055.5
 20
397.6
 11
1045.840741737
 21
400.188190451
  0
LINE
  8
0
  6
CONTINUOUS
 62
     2
 10
1055.5
 20
397.6
 11
1045.840741737
 21
395.011809549
  0
LINE
  8
0
  6
CONTINUOUS
 62
     2
 10
1035.5
 20
397.6
 11
1127.5
 21
397.6
  0
LINE
  8
0
  6
CONTINUOUS
 62
     2
 10
1063.5
 20
410.35
 11
1053.840741737
 21
412.938190451
  0
LINE
  8
0
  6
CONTINUOUS
 62
     2
 10
1063.5
 20
410.35
 11
1053.840741737
 21
407.761809549
  0
LINE
  8
0
  6
CONTINUOUS
 62
     2
 10
1063.5
 20
410.35
 11
1038.5
 21
410.35
  0
LINE
  8
0
  6
CONTINUOUS
 62
     2
 10
1038.5
 20
410.35
 11
1048.159258263
 21
407.761809549
  0
LINE
  8
0
  6
CONTINUOUS
 62
     2
 10
1038.5
 20
410.35
 11
1048.159258263
 21
412.938190451
  0
LINE
  8
0
  6
CONTINUOUS
 62
     2
 10
1038.5
 20
350.8
 11
1038.5
 21
417.45
  0
LINE
  8
0
  6
CONTINUOUS
 62
     1
 10
1012.5
 20
304.5
 11
1028.5
 21
304.5
  0
LINE
  8
0
  6
CONTINUOUS
 62
     1
 10
1012.5
 20
374.5
 11
1012.5
 21
304.5
  0
LINE
  8
0
  6
CONTINUOUS
 62
     1
 10
1012.5
 20
374.5
 11
1028.5
 21
374.5
  0
LINE
  8
0
  6
CONTINUOUS
 62
     1
 10
1028.5
 20
374.5
 11
1028.5
 21
304.5
  0
LINE
  8
0
  6
LTYPE3
 62
     2
 10
1005.4
 20
339.5
 11
1092.4
 21
339.5
  0
TEXT
  8
0
  6
CONTINUOUS
 62
     2
 10
1037.2
 20
415.35
 30
0.0
 40
15.0
  1
２５
 50
0.0
 41
0.9
 51
0.0
  7
KANJI35
  0
LINE
  8
0
  6
CONTINUOUS
 62
     2
 10
1055.5
 20
373.5
 11
1055.5
 21
402.7
  0
LINE
  8
0
  6
CONTINUOUS
 62
     1
 10
1081.5
 20
332.5
 11
1081.5
 21
320.5
  0
LINE
  8
0
  6
CONTINUOUS
 62
     1
 10
1081.5
 20
348.5
 11
1081.5
 21
360.5
  0
LINE
  8
0
  6
CONTINUOUS
 62
     1
 10
1078.5
 20
360.5
 11
1078.5
 21
363.5
  0
LINE
  8
0
  6
CONTINUOUS
 62
     1
 10
1071.5
 20
363.5
 11
1071.5
 21
371.5
  0
LINE
  8
0
  6
CONTINUOUS
 62
     1
 10
1078.5
 20
320.5
 11
1078.5
 21
317.5
  0
LINE
  8
0
  6
CONTINUOUS
 62
     1
 10
1071.5
 20
317.5
 11
1071.5
 21
309.5
  0
LINE
  8
0
  6
CONTINUOUS
 62
     1
 10
1071.5
 20
317.5
 11
1071.5
 21
309.5
  0
LINE
  8
0
  6
CONTINUOUS
 62
     1
 10
1071.5
 20
332.5
 11
1071.5
 21
348.5
  0
LINE
  8
0
  6
LTYPE1
 62
     2
 10
1071.5
 20
347.5
 11
1071.5
 21
362.5
  0
LINE
  8
0
  6
LTYPE1
 62
     2
 10
1071.5
 20
331.5
 11
1071.5
 21
316.5
  0
LINE
  8
0
  6
CONTINUOUS
 62
     2
 10
1071.5
 20
397.6
 11
1081.159258263
 21
395.011809549
  0
LINE
  8
0
  6
CONTINUOUS
 62
     2
 10
1071.5
 20
397.6
 11
1081.159258263
 21
400.188190451
  0
TEXT
  8
0
  6
CONTINUOUS
 62
     2
 10
1119.25
 20
410.26
 30
0.84
 40
8.4
  1
Ｈ１０
 50
0.0
 41
0.9
 51
0.0
  7
KANJI45
  0
TEXT
  8
0
  6
CONTINUOUS
 62
     2
 10
1119.25
 20
401.86
 30
0.84
 40
8.4
  1
ｄ９
 50
0.0
 41
0.9
 51
0.0
  7
KANJI45
  0
TEXT
  8
0
  6
CONTINUOUS
 62
     2
 10
1077.5
 20
402.6
 30
0.0
 40
15.0
  1
φ１６
 50
0.0
 41
0.9
 51
0.0
  7
KANJI35
  0
LINE
  8
0
  6
CONTINUOUS
 62
     2
 10
1119.333854631
 20
348.5
 11
1116.74566418
 21
338.840741737
  0
LINE
  8
0
  6
CONTINUOUS
 62
     2
 10
1119.333854631
 20
348.5
 11
1121.922045082
 21
338.840741737
  0
LINE
  8
0
  6
CONTINUOUS
 62
     2
 10
1127.333854631
 20
360.5
 11
1172.5
 21
360.5
  0
LINE
  8
0
  6
CONTINUOUS
 62
     2
 10
1119.333854631
 20
360.5
 11
1121.922045082
 21
370.159258263
  0
LINE
  8
0
  6
CONTINUOUS
 62
     2
 10
1119.333854631
 20
360.5
 11
1116.74566418
 21
370.159258263
  0
LINE
  8
0
  6
CONTINUOUS
 62
     2
 10
1119.333854631
 20
352.5
 11
1119.333854631
 21
276.9
  0
LINE
  8
0
  6
CONTINUOUS
 62
     2
 10
1119.333854631
 20
320.5
 11
1121.922045082
 21
310.840741737
  0
LINE
  8
0
  6
CONTINUOUS
 62
     2
 10
1119.333854631
 20
320.5
 11
1116.74566418
 21
310.840741737
  0
LINE
  8
0
  6
CONTINUOUS
 62
     2
 10
1127.333854631
 20
320.5
 11
1173.5
 21
320.5
  0
LINE
  8
0
  6
CONTINUOUS
 62
     2
 10
1119.333854631
 20
328.5
 11
1119.333854631
 21
389.7
  0
TEXT
  8
0
  6
CONTINUOUS
 62
     2
 10
1114.833854631
 20
368.0
 30
0.0
 40
15.0
  1
１２
 50
90.0
 41
0.9
 51
0.0
  7
KANJI35
  0
TEXT
  8
0
  6
CONTINUOUS
 62
     2
 10
1115.333854631
 20
289.0
 30
0.0
 40
15.0
  1
１２
 50
90.0
 41
0.9
 51
0.0
  7
KANJI35
  0
TEXT
  8
0
  6
CONTINUOUS
 62
     2
 10
1143.233854631
 20
327.7
 30
0.0
 40
15.0
  1
１６
 50
90.0
 41
0.9
 51
0.0
  7
KANJI35
  0
LINE
  8
0
  6
CONTINUOUS
 62
     2
 10
1071.5
 20
373.5
 11
1071.5
 21
403.7
  0
LINE
  8
0
  6
CONTINUOUS
 62
     2
 10
1083.1
 20
360.5
 11
1127.333854631
 21
360.5
  0
LINE
  8
0
  6
CONTINUOUS
 62
     2
 10
1083.4
 20
348.5
 11
1127.233854631
 21
348.5
  0
LINE
  8
0
  6
CONTINUOUS
 62
     2
 10
1083.4
 20
332.5
 11
1127.233854631
 21
332.5
  0
LINE
  8
0
  6
CONTINUOUS
 62
     2
 10
1083.4
 20
320.5
 11
1127.333854631
 21
320.5
  0
LINE
  8
0
  6
CONTINUOUS
 62
     2
 10
1119.333854631
 20
332.5
 11
1116.74566418
 21
342.159258263
  0
LINE
  8
0
  6
CONTINUOUS
 62
     2
 10
1119.333854631
 20
332.5
 11
1121.922045082
 21
342.159258263
  0
LINE
  8
0
  6
CONTINUOUS
 62
     2
 10
1165.7
 20
320.5
 11
1168.288190451
 21
330.159258263
  0
LINE
  8
0
  6
CONTINUOUS
 62
     2
 10
1165.7
 20
320.5
 11
1163.111809549
 21
330.159258263
  0
LINE
  8
0
  6
CONTINUOUS
 62
     2
 10
1165.7
 20
320.5
 11
1165.7
 21
360.5
  0
LINE
  8
0
  6
CONTINUOUS
 62
     2
 10
1165.7
 20
360.5
 11
1163.111809549
 21
350.840741737
  0
LINE
  8
0
  6
CONTINUOUS
 62
     2
 10
1165.7
 20
360.5
 11
1168.288190451
 21
350.840741737
  0
TEXT
  8
0
  6
CONTINUOUS
 62
     2
 10
1161.7
 20
328.7
 30
0.0
 40
15.0
  1
４０
 50
90.0
 41
0.9
 51
0.0
  7
KANJI35
  0
LINE
  8
0
  6
LTYPE2
 62
     2
 10
1059.1
 20
365.15
 11
1067.5
 21
365.15
  0
LINE
  8
0
  6
LTYPE2
 62
     2
 10
1059.1
 20
313.85
 11
1067.5
 21
313.85
  0
CIRCLE
  8
0
  6
CONTINUOUS
 62
     2
 10
1063.5
 20
313.85
 40
2.0
  0
CIRCLE
  8
0
  6
CONTINUOUS
 62
     2
 10
1063.5
 20
365.15
 40
2.0
  0
LINE
  8
0
  6
LTYPE3
 62
     2
 10
1063.5
 20
299.6
 11
1063.5
 21
613.000007629
  0
LINE
  8
0
  6
CONTINUOUS
 62
     2
 10
1028.5
 20
790.75
 11
1028.5
 21
624.111809549
  0
LINE
  8
0
  6
CONTINUOUS
 62
     2
 10
1139.9
 20
591.0
 11
1136.664761936
 21
578.925927171
  0
LINE
  8
0
  6
CONTINUOUS
 62
     2
 10
1139.9
 20
591.0
 11
1143.135238064
 21
578.925927171
  0
LINE
  8
0
  6
CONTINUOUS
 62
     2
 10
1139.9
 20
591.0
 11
1139.9
 21
438.0
  0
LINE
  8
0
  6
CONTINUOUS
 62
     2
 10
1139.9
 20
438.0
 11
1143.135238064
 21
450.074072829
  0
LINE
  8
0
  6
CONTINUOUS
 62
     2
 10
1139.9
 20
438.0
 11
1136.664761936
 21
450.074072829
  0
LINE
  8
0
  6
CONTINUOUS
 62
     2
 10
1000.85
 20
438.0
 11
1149.9
 21
438.0
  0
TEXT
  8
0
  6
CONTINUOUS
 62
     3
 10
1132.4
 20
494.25
 30
0.0
 40
15.0
  1
１５３
 50
90.0
 41
0.9
 51
0.0
  7
KANJI35
  0
LINE
  8
0
  6
CONTINUOUS
 62
     2
 10
1117.4
 20
591.0
 11
1149.9
 21
591.0
  0
LINE
  8
0
  6
CONTINUOUS
 62
     2
 10
1092.9
 20
591.0
 11
1093.1
 21
591.0
  0
LINE
  8
0
  6
LTYPE3
 62
     2
 10
882.7
 20
591.0
 11
1092.9
 21
591.0
  0
LINE
  8
0
  6
CONTINUOUS
 62
     2
 10
1448.25
 20
587.0
 11
1568.25
 21
587.0
  0
TEXT
  8
0
  6
CONTINUOUS
 62
     2
 10
1458.75
 20
594.0
 30
10.0
 40
20.0
  1
特記事項
 50
0.0
 41
0.9
 51
0.0
  7
KANJI46
  0
TEXT
  8
0
  6
CONTINUOUS
 62
     2
 10
1453.75
 20
444.25
 30
4.9875
 40
17.5
  1
　　ストローク７００ｍｍ以上の場合２ロッド方式となります。
 50
0.0
 41
0.857222222
 51
0.0
  7
KANJI47
  0
TEXT
  8
0
  6
CONTINUOUS
 62
     2
 10
1453.75
 20
494.25
 30
4.9875
 40
17.5
  1
３．ＬＳユニット
 50
0.0
 41
0.857222222
 51
0.0
  7
KANJI47
  0
TEXT
  8
0
  6
CONTINUOUS
 62
     2
 10
1453.75
 20
556.75
 30
5.0
 40
17.5
  1
１．運転時は必ずピストンロッドの回転防止を行って下さい。
 50
0.0
 41
0.857142857
 51
0.0
  7
KANJI48
  0
TEXT
  8
0
  6
CONTINUOUS
 62
     2
 10
1453.75
 20
469.25
 30
4.9875
 40
17.5
  1
　　リミットスイッチ：１ＬＳ１－Ｊｘ２ケ（山武）
 50
0.0
 41
0.857222222
 51
0.0
  7
KANJI47
  0
TEXT
  8
0
  6
CONTINUOUS
 62
     2
 10
1453.75
 20
525.5
 30
4.9875
 40
17.5
  1
２．モートル：全閉自冷かご形３０分定格
 50
0.0
 41
0.857222222
 51
0.0
  7
KANJI47
  0
TEXT
  8
0
  6
CONTINUOUS
 62
     2
 10
1453.75
 20
416.75
 30
4.9875
 40
17.5
  1
４．呼称ストロークは、機械的ストロークです。
 50
0.0
 41
0.857222222
 51
0.0
  7
KANJI47
  0
TEXT
  8
0
  6
CONTINUOUS
 62
     2
 10
1453.75
 20
385.95
 30
4.9875
 40
17.5
  1
　　必ず、常用はストローク両端に必ず余裕を取って下さい。
 50
0.0
 41
0.857222222
 51
0.0
  7
KANJI47
  0
TEXT
  8
0
  6
CONTINUOUS
 62
     2
 10
1453.75
 20
354.47
 30
4.9875
 40
17.5
  1
　　前後の推奨余裕寸法は、各々４０ｍｍです。
 50
0.0
 41
0.857222222
 51
0.0
  7
KANJI47
  0
TEXT
  8
0
  6
CONTINUOUS
 62
     3
 10
1093.9
 20
666.2
 30
0.0
 40
20.0
  1
前進
 50
0.0
 41
0.925
 51
0.0
  7
KANJI34
  0
LINE
  8
0
  6
LTYPE3
 62
     2
 10
497.35
 20
454.0
 11
1055.5
 21
454.0
  0
LINE
  8
0
  6
CONTINUOUS
 62
     1
 10
545.85
 20
462.55
 11
545.85
 21
446.55
  0
LINE
  8
0
  6
CONTINUOUS
 62
     1
 10
545.85
 20
462.55
 11
559.35
 21
462.55
  0
LINE
  8
0
  6
LTYPE3
 62
     2
 10
515.35
 20
482.0
 11
526.85
 21
482.0
  0
LINE
  8
0
  6
LTYPE2
 62
     2
 10
476.85
 20
482.0
 11
816.11
 21
482.0
  0
LINE
  8
0
  6
LTYPE1
 62
     2
 10
559.35
 20
441.0
 11
559.35
 21
494.0
  0
LINE
  8
0
  6
LTYPE1
 62
     2
 10
486.85
 20
482.0
 11
486.85
 21
489.4
  0
LINE
  8
0
  6
LTYPE1
 62
     2
 10
493.85
 20
491.8
 11
488.235640646
 21
491.8
  0
LINE
  8
0
  6
LTYPE1
 62
     2
 10
486.85
 20
489.4
 11
488.235640646
 21
491.8
  0
LINE
  8
0
  6
LTYPE1
 62
     2
 10
493.85
 20
486.9
 11
488.235640646
 21
486.9
  0
LINE
  8
0
  6
LTYPE1
 62
     2
 10
486.85
 20
489.4
 11
488.235640646
 21
491.8
  0
ARC
  8
0
  6
LTYPE1
 62
     2
 10
489.707883832
 20
489.35
 40
2.858321186
 50
177.010501597
 51
238.997686085
  0
LINE
  8
0
  6
LTYPE1
 62
     2
 10
482.35
 20
486.0
 11
486.85
 21
486.0
  0
LINE
  8
0
  6
LTYPE1
 62
     2
 10
493.85
 20
482.0
 11
493.85
 21
491.8
  0
LINE
  8
0
  6
LTYPE1
 62
     2
 10
496.35
 20
491.2
 11
493.85
 21
491.2
  0
LINE
  8
0
  6
LTYPE1
 62
     2
 10
512.35
 20
492.4
 11
518.85
 21
492.4
  0
ARC
  8
0
  6
LTYPE1
 62
     2
 10
515.95
 20
489.8
 40
3.9
 50
317.9
 51
42.1
  0
LINE
  8
0
  6
LTYPE1
 62
     2
 10
518.85
 20
487.2
 11
512.35
 21
487.2
  0
LINE
  8
0
  6
LTYPE1
 62
     2
 10
504.35
 20
492.0
 11
504.35
 21
508.0
  0
LINE
  8
0
  6
LTYPE1
 62
     2
 10
519.85
 20
486.0
 11
527.35
 21
486.0
  0
LINE
  8
0
  6
LTYPE1
 62
     2
 10
559.35
 20
494.0
 11
527.35
 21
494.0
  0
LINE
  8
0
  6
LTYPE1
 62
     2
 10
527.35
 20
486.0
 11
532.35
 21
486.0
  0
LINE
  8
0
  6
LTYPE1
 62
     2
 10
559.35
 20
488.0
 11
527.35
 21
488.0
  0
LINE
  8
0
  6
LTYPE1
 62
     2
 10
519.85
 20
485.0
 11
527.35
 21
485.0
  0
LINE
  8
0
  6
LTYPE1
 62
     2
 10
527.35
 20
485.0
 11
532.35
 21
485.0
  0
LINE
  8
0
  6
LTYPE1
 62
     2
 10
482.35
 20
485.0
 11
486.85
 21
485.0
  0
LINE
  8
0
  6
LTYPE1
 62
     2
 10
493.850000004
 20
482.0
 11
496.35
 21
484.499999996
  0
LINE
  8
0
  6
LTYPE1
 62
     2
 10
498.69122
 20
507.4999
 11
496.85594
 21
506.440300598
  0
LINE
  8
0
  6
LTYPE1
 62
     2
 10
504.35
 20
507.4999
 11
498.69122
 21
507.4999
  0
ARC
  8
0
  6
LTYPE1
 62
     2
 10
498.729455
 20
505.314476233
 40
2.185758211
 50
31.002313915
 51
92.989498403
  0
ARC
  8
0
  6
LTYPE1
 62
     2
 10
504.35
 20
500.344844663
 40
7.155055337
 50
58.419912243
 51
121.580087757
  0
LINE
  8
0
  6
LTYPE1
 62
     2
 10
496.85594
 20
502.0
 11
496.85594
 21
506.440300598
  0
LINE
  8
0
  6
LTYPE1
 62
     2
 10
500.60297
 20
502.0
 11
500.60297
 21
506.440300598
  0
LINE
  8
0
  6
LTYPE1
 62
     2
 10
510.00878
 20
507.4999
 11
511.84406
 21
506.440300598
  0
LINE
  8
0
  6
LTYPE1
 62
     2
 10
504.35
 20
507.4999
 11
510.00878
 21
507.4999
  0
LINE
  8
0
  6
LTYPE1
 62
     2
 10
510.00878
 20
507.4999
 11
511.84406
 21
506.440300598
  0
ARC
  8
0
  6
LTYPE1
 62
     2
 10
509.970545
 20
505.314476233
 40
2.185758211
 50
87.010501597
 51
148.997686085
  0
LINE
  8
0
  6
LTYPE1
 62
     2
 10
508.09703
 20
502.0
 11
508.09703
 21
506.440300598
  0
LINE
  8
0
  6
LTYPE1
 62
     2
 10
511.84406
 20
502.0
 11
511.84406
 21
506.440300598
  0
LINE
  8
0
  6
LTYPE1
 62
     2
 10
731.35
 20
496.0
 11
496.35
 21
496.0
  0
LINE
  8
0
  6
LTYPE1
 62
     2
 10
731.35
 20
502.0
 11
496.35
 21
502.0
  0
LINE
  8
0
  6
LTYPE1
 62
     2
 10
512.35
 20
471.6
 11
518.85
 21
471.6
  0
ARC
  8
0
  6
LTYPE1
 62
     2
 10
515.95
 20
474.2
 40
3.9
 50
317.9
 51
42.1
  0
LINE
  8
0
  6
LTYPE1
 62
     2
 10
493.85
 20
472.2
 11
488.235640646
 21
472.2
  0
LINE
  8
0
  6
LTYPE1
 62
     2
 10
486.85
 20
474.6
 11
488.235640646
 21
472.2
  0
LINE
  8
0
  6
LTYPE1
 62
     2
 10
486.85
 20
482.0
 11
486.85
 21
474.6
  0
LINE
  8
0
  6
LTYPE1
 62
     2
 10
493.85
 20
477.1
 11
488.235640646
 21
477.1
  0
ARC
  8
0
  6
LTYPE1
 62
     2
 10
489.707883832
 20
474.65
 40
2.858321186
 50
121.002313915
 51
182.989498403
  0
LINE
  8
0
  6
LTYPE1
 62
     2
 10
482.35
 20
478.0
 11
486.85
 21
478.0
  0
LINE
  8
0
  6
LTYPE1
 62
     2
 10
482.35
 20
479.0
 11
486.85
 21
479.0
  0
LINE
  8
0
  6
LTYPE1
 62
     2
 10
493.85
 20
482.0
 11
493.85
 21
472.2
  0
LINE
  8
0
  6
LTYPE1
 62
     2
 10
512.35
 20
476.8
 11
518.85
 21
476.8
  0
LINE
  8
0
  6
LTYPE1
 62
     2
 10
519.85
 20
479.0
 11
527.35
 21
479.0
  0
LINE
  8
0
  6
LTYPE1
 62
     2
 10
519.85
 20
478.0
 11
527.35
 21
478.0
  0
LINE
  8
0
  6
LTYPE1
 62
     2
 10
527.35
 20
478.0
 11
532.35
 21
478.0
  0
LINE
  8
0
  6
LTYPE1
 62
     2
 10
527.35
 20
479.0
 11
532.35
 21
479.0
  0
LINE
  8
0
  6
LTYPE1
 62
     2
 10
527.35
 20
476.0
 11
559.35
 21
476.0
  0
LINE
  8
0
  6
LTYPE1
 62
     2
 10
512.35
 20
469.0
 11
512.35
 21
496.0
  0
LINE
  8
0
  6
LTYPE1
 62
     2
 10
512.35
 20
492.4
 11
512.35
 21
471.6
  0
ARC
  8
0
  6
LTYPE1
 62
     2
 10
496.2066828
 20
482.0
 40
9.3566828
 50
148.419912243
 51
211.580087757
  0
LINE
  8
0
  6
LTYPE1
 62
     2
 10
482.35
 20
478.0
 11
482.35
 21
486.0
  0
ARC
  8
0
  6
LTYPE1
 62
     2
 10
505.85
 20
482.0
 40
14.0
 50
338.2
 51
21.8
  0
LINE
  8
0
  6
LTYPE1
 62
     2
 10
519.85
 20
474.2
 11
519.85
 21
489.8
  0
LINE
  8
0
  6
LTYPE1
 62
     2
 10
532.35
 20
476.0
 11
532.35
 21
488.0
  0
LINE
  8
0
  6
LTYPE1
 62
     2
 10
496.35
 20
469.0
 11
512.35
 21
469.0
  0
LINE
  8
0
  6
LTYPE1
 62
     2
 10
496.35
 20
482.0
 11
493.850000004
 21
479.500000004
  0
LINE
  8
0
  6
LTYPE1
 62
     2
 10
496.35
 20
472.8
 11
493.85
 21
472.8
  0
LINE
  8
0
  6
LTYPE1
 62
     2
 10
496.35
 20
469.0
 11
496.35
 21
502.0
  0
LINE
  8
0
  6
LTYPE1
 62
     2
 10
524.85
 20
463.8
 11
519.235640646
 21
463.8
  0
LINE
  8
0
  6
LTYPE1
 62
     2
 10
517.85
 20
461.4
 11
519.235640646
 21
463.8
  0
LINE
  8
0
  6
LTYPE1
 62
     2
 10
517.85
 20
461.4
 11
519.235640646
 21
463.8
  0
LINE
  8
0
  6
LTYPE1
 62
     2
 10
527.35
 20
463.2
 11
524.85
 21
463.2
  0
LINE
  8
0
  6
LTYPE1
 62
     2
 10
517.85
 20
454.0
 11
517.85
 21
461.4
  0
LINE
  8
0
  6
LTYPE1
 62
     2
 10
524.85
 20
458.9
 11
519.235640646
 21
458.9
  0
ARC
  8
0
  6
LTYPE1
 62
     2
 10
520.707883832
 20
461.35
 40
2.858321186
 50
177.010501597
 51
238.997686085
  0
LINE
  8
0
  6
LTYPE1
 62
     2
 10
524.85
 20
454.0
 11
524.85
 21
463.8
  0
LINE
  8
0
  6
LTYPE1
 62
     2
 10
509.35
 20
458.0
 11
517.85
 21
458.0
  0
ARC
  8
0
  6
LTYPE1
 62
     2
 10
527.2066828
 20
454.0
 40
9.3566828
 50
148.419912243
 51
211.580087757
  0
LINE
  8
0
  6
LTYPE1
 62
     2
 10
509.35
 20
450.0
 11
509.35
 21
458.0
  0
LINE
  8
0
  6
LTYPE1
 62
     2
 10
527.35
 20
441.0
 11
527.35
 21
494.0
  0
LINE
  8
0
  6
CONTINUOUS
 62
     1
 10
545.85
 20
446.55
 11
559.35
 21
446.55
  0
LINE
  8
0
  6
LTYPE1
 62
     2
 10
527.35
 20
441.0
 11
559.35
 21
441.0
  0
LINE
  8
0
  6
LTYPE1
 62
     2
 10
524.85
 20
454.0
 11
524.85
 21
444.2
  0
LINE
  8
0
  6
LTYPE1
 62
     2
 10
524.85
 20
444.2
 11
519.235640646
 21
444.2
  0
LINE
  8
0
  6
LTYPE1
 62
     2
 10
517.85
 20
446.6
 11
519.235640646
 21
444.2
  0
LINE
  8
0
  6
LTYPE1
 62
     2
 10
517.85
 20
454.0
 11
517.85
 21
446.6
  0
LINE
  8
0
  6
LTYPE1
 62
     2
 10
524.85
 20
449.1
 11
519.235640646
 21
449.1
  0
ARC
  8
0
  6
LTYPE1
 62
     2
 10
520.707883832
 20
446.65
 40
2.858321186
 50
121.002313915
 51
182.989498403
  0
LINE
  8
0
  6
LTYPE1
 62
     2
 10
527.35
 20
444.8
 11
524.85
 21
444.8
  0
LINE
  8
0
  6
LTYPE1
 62
     2
 10
527.35
 20
454.0
 11
524.850000004
 21
451.500000004
  0
LINE
  8
0
  6
LTYPE1
 62
     2
 10
509.35
 20
450.0
 11
517.85
 21
450.0
  0
LINE
  8
0
  6
LTYPE1
 62
     2
 10
509.35
 20
451.0
 11
517.85
 21
451.0
  0
LINE
  8
0
  6
LTYPE1
 62
     2
 10
524.850000004
 20
454.0
 11
527.35
 21
456.499999996
  0
LINE
  8
0
  6
LTYPE1
 62
     2
 10
509.35
 20
457.0
 11
517.85
 21
457.0
  0
LINE
  8
0
  6
LTYPE1
 62
     2
 10
717.35
 20
502.5
 11
717.35
 21
571.5
  0
LINE
  8
0
  6
LTYPE1
 62
     2
 10
731.35
 20
496.0
 11
731.35
 21
571.5
  0
LINE
  8
0
  6
LTYPE1
 62
     2
 10
730.85
 20
496.0
 11
730.85
 21
491.4
  0
LINE
  8
0
  6
LTYPE1
 62
     2
 10
730.85
 20
496.0
 11
715.85
 21
496.0
  0
LINE
  8
0
  6
LTYPE1
 62
     2
 10
715.85
 20
496.0
 11
715.85
 21
491.4
  0
LINE
  8
0
  6
LTYPE1
 62
     2
 10
719.55
 20
496.0
 11
719.55
 21
491.4
  0
LINE
  8
0
  6
LTYPE1
 62
     2
 10
727.15
 20
496.0
 11
727.15
 21
491.4
  0
LINE
  8
0
  6
LTYPE1
 62
     2
 10
729.05
 20
490.7
 11
717.65
 21
490.7
  0
ARC
  8
0
  6
LTYPE1
 62
     2
 10
717.65
 20
493.5
 40
2.8
 50
228.5
 51
311.5
  0
ARC
  8
0
  6
LTYPE1
 62
     2
 10
723.35
 20
501.4
 40
10.7
 50
249.1
 51
290.9
  0
ARC
  8
0
  6
LTYPE1
 62
     2
 10
729.05
 20
493.5
 40
2.8
 50
228.5
 51
311.5
  0
LINE
  8
0
  6
LTYPE1
 62
     2
 10
723.35
 20
487.2
 11
723.35
 21
499.0
  0
LINE
  8
0
  6
LTYPE2
 62
     2
 10
723.35
 20
483.35
 11
723.35
 21
507.65
  0
LINE
  8
0
  6
CONTINUOUS
 62
     1
 10
568.0
 20
470.0
 11
592.7
 21
470.0
  0
LINE
  8
0
  6
CONTINUOUS
 62
     1
 10
568.0
 20
438.0
 11
568.0
 21
470.0
  0
LINE
  8
0
  6
CONTINUOUS
 62
     1
 10
559.35
 20
465.0
 11
568.010254038
 21
470.0
  0
LINE
  8
0
  6
CONTINUOUS
 62
     1
 10
559.35
 20
443.0
 11
559.35
 21
465.0
  0
LINE
  8
0
  6
CONTINUOUS
 62
     1
 10
592.7
 20
438.0
 11
592.7
 21
470.0
  0
LINE
  8
0
  6
CONTINUOUS
 62
     1
 10
568.0
 20
438.0
 11
592.7
 21
438.0
  0
LINE
  8
0
  6
CONTINUOUS
 62
     1
 10
601.35
 20
443.0
 11
592.689745962
 21
438.0
  0
LINE
  8
0
  6
CONTINUOUS
 62
     1
 10
559.35
 20
443.0
 11
568.010254038
 21
438.0
  0
LINE
  8
0
  6
CONTINUOUS
 62
     1
 10
601.35
 20
443.0
 11
601.35
 21
465.0
  0
LINE
  8
0
  6
CONTINUOUS
 62
     1
 10
601.35
 20
465.0
 11
592.689745962
 21
470.0
  0
LINE
  8
0
  6
LTYPE2
 62
     2
 10
580.35
 20
444.0
 11
580.35
 21
464.0
  0
CIRCLE
  8
0
  6
CONTINUOUS
 62
     2
 10
580.35
 20
454.0
 40
5.0
  0
CIRCLE
  8
0
  6
CONTINUOUS
 62
     2
 10
580.35
 20
454.0
 40
4.0
  0
LINE
  8
0
  6
CONTINUOUS
 62
     1
 10
601.35
 20
462.0
 11
832.2
 21
462.0
  0
LINE
  8
0
  6
CONTINUOUS
 62
     1
 10
601.35
 20
446.0
 11
863.5
 21
446.0
  0
LINE
  8
0
  6
LTYPE1
 62
     2
 10
559.35
 20
490.0
 11
806.8
 21
490.0
  0
LINE
  8
0
  6
LTYPE1
 62
     2
 10
559.35
 20
474.0
 11
806.8
 21
474.0
  0
LINE
  8
0
  6
CONTINUOUS
 62
     1
 10
863.5
 20
441.5
 11
895.5
 21
441.5
  0
LINE
  8
0
  6
CONTINUOUS
 62
     1
 10
858.1
 20
462.5
 11
926.8
 21
462.5
  0
LINE
  8
0
  6
CONTINUOUS
 62
     1
 10
858.1
 20
456.5
 11
926.8
 21
456.5
  0
LINE
  8
0
  6
CONTINUOUS
 62
     1
 10
814.5
 20
502.5
 11
944.5
 21
502.5
  0
LINE
  8
0
  6
CONTINUOUS
 62
     1
 10
814.5
 20
496.5
 11
944.5
 21
496.5
  0
LINE
  8
0
  6
CONTINUOUS
 62
     1
 10
858.1
 20
496.5
 11
858.1
 21
456.5
  0
LINE
  8
0
  6
CONTINUOUS
 62
     1
 10
806.8
 20
495.5
 11
806.8
 21
470.1
  0
LINE
  8
0
  6
CONTINUOUS
 62
     1
 10
832.2
 20
470.1
 11
806.8
 21
470.1
  0
LINE
  8
0
  6
CONTINUOUS
 62
     1
 10
832.2
 20
496.5
 11
832.2
 21
456.5
  0
LINE
  8
0
  6
CONTINUOUS
 62
     1
 10
863.5
 20
441.5
 11
863.5
 21
456.5
  0
LINE
  8
0
  6
LTYPE6
 62
     2
 10
867.6
 20
475.2
 11
850.6
 21
475.2
  0
LINE
  8
0
  6
CONTINUOUS
 62
     1
 10
814.5
 20
496.5
 11
814.5
 21
502.5
  0
LINE
  8
0
  6
CONTINUOUS
 62
     1
 10
832.2
 20
495.5
 11
806.8
 21
495.5
  0
LINE
  8
0
  6
CONTINUOUS
 62
     1
 10
832.2
 20
462.5
 11
858.1
 21
462.5
  0
LINE
  8
0
  6
CONTINUOUS
 62
     1
 10
832.2
 20
456.5
 11
858.1
 21
456.5
  0
LINE
  8
0
  6
CONTINUOUS
 62
     1
 10
856.5
 20
502.5
 11
856.5
 21
571.5
  0
LINE
  8
0
  6
CONTINUOUS
 62
     1
 10
842.5
 20
502.5
 11
842.5
 21
571.5
  0
LINE
  8
0
  6
CONTINUOUS
 62
     1
 10
952.2
 20
495.5
 11
952.2
 21
470.1
  0
LINE
  8
0
  6
CONTINUOUS
 62
     1
 10
926.8
 20
470.1
 11
952.2
 21
470.1
  0
LINE
  8
0
  6
CONTINUOUS
 62
     1
 10
926.8
 20
496.5
 11
926.8
 21
456.5
  0
LINE
  8
0
  6
CONTINUOUS
 62
     1
 10
895.5
 20
441.5
 11
895.5
 21
456.5
  0
LINE
  8
0
  6
CONTINUOUS
 62
     1
 10
926.8
 20
495.5
 11
952.2
 21
495.5
  0
LINE
  8
0
  6
CONTINUOUS
 62
     1
 10
944.5
 20
496.5
 11
944.5
 21
502.5
  0
LINE
  8
0
  6
CONTINUOUS
 62
     1
 10
916.5
 20
502.5
 11
916.5
 21
571.5
  0
LINE
  8
0
  6
CONTINUOUS
 62
     1
 10
902.5
 20
502.5
 11
902.5
 21
571.5
  0
LINE
  8
0
  6
CONTINUOUS
 62
     1
 10
926.8
 20
462.0
 11
962.5
 21
462.0
  0
LINE
  8
0
  6
CONTINUOUS
 62
     1
 10
895.5
 20
446.0
 11
962.5
 21
446.0
  0
LINE
  8
0
  6
CONTINUOUS
 62
     1
 10
962.5
 20
465.0
 11
971.160254038
 21
470.0
  0
LINE
  8
0
  6
CONTINUOUS
 62
     1
 10
971.15
 20
470.0
 11
995.85
 21
470.0
  0
LINE
  8
0
  6
CONTINUOUS
 62
     1
 10
971.15
 20
438.0
 11
971.15
 21
470.0
  0
CIRCLE
  8
0
  6
CONTINUOUS
 62
     2
 10
983.5
 20
454.0
 40
5.0
  0
CIRCLE
  8
0
  6
CONTINUOUS
 62
     2
 10
983.5
 20
454.0
 40
4.0
  0
LINE
  8
0
  6
CONTINUOUS
 62
     1
 10
971.15
 20
438.0
 11
995.85
 21
438.0
  0
LINE
  8
0
  6
CONTINUOUS
 62
     1
 10
962.5
 20
443.0
 11
971.160254038
 21
438.0
  0
LINE
  8
0
  6
CONTINUOUS
 62
     1
 10
962.5
 20
443.0
 11
962.5
 21
465.0
  0
LINE
  8
0
  6
LTYPE2
 62
     2
 10
983.5
 20
444.0
 11
983.5
 21
464.0
  0
LINE
  8
0
  6
CONTINUOUS
 62
     1
 10
995.85
 20
438.0
 11
995.85
 21
470.0
  0
LINE
  8
0
  6
CONTINUOUS
 62
     1
 10
1004.5
 20
465.0
 11
995.839745962
 21
470.0
  0
LINE
  8
0
  6
CONTINUOUS
 62
     1
 10
1004.5
 20
443.0
 11
995.839745962
 21
438.0
  0
LINE
  8
0
  6
CONTINUOUS
 62
     1
 10
1031.5
 20
454.0
 11
1031.5
 21
464.94954
  0
LINE
  8
0
  6
CONTINUOUS
 62
     1
 10
1031.5
 20
454.0
 11
1031.5
 21
443.05046
  0
LINE
  8
0
  6
CONTINUOUS
 62
     1
 10
1039.5211
 20
462.26802
 11
1037.972923706
 21
464.94954
  0
LINE
  8
0
  6
CONTINUOUS
 62
     1
 10
1039.5211
 20
454.0
 11
1039.5211
 21
462.26802
  0
LINE
  8
0
  6
CONTINUOUS
 62
     1
 10
1039.5211
 20
445.73198
 11
1037.972923706
 21
443.05046
  0
LINE
  8
0
  6
CONTINUOUS
 62
     1
 10
1039.5211
 20
454.0
 11
1039.5211
 21
445.73198
  0
ARC
  8
0
  6
CONTINUOUS
 62
     1
 10
1029.066878307
 20
454.0
 40
10.454221693
 50
328.419912243
 51
31.580087757
  0
ARC
  8
0
  6
CONTINUOUS
 62
     1
 10
1036.327986394
 20
462.212155
 40
3.193602261
 50
301.002313915
 51
2.989498403
  0
LINE
  8
0
  6
CONTINUOUS
 62
     1
 10
1039.5211
 20
445.73198
 11
1037.972923706
 21
443.05046
  0
ARC
  8
0
  6
CONTINUOUS
 62
     1
 10
1036.327986394
 20
445.787845
 40
3.193602261
 50
357.010501597
 51
58.997686085
  0
LINE
  8
0
  6
CONTINUOUS
 62
     1
 10
1031.5
 20
464.94954
 11
1037.972923706
 21
464.94954
  0
LINE
  8
0
  6
CONTINUOUS
 62
     1
 10
1031.5
 20
459.47477
 11
1037.972923706
 21
459.47477
  0
LINE
  8
0
  6
CONTINUOUS
 62
     1
 10
1031.5
 20
448.52523
 11
1037.972923706
 21
448.52523
  0
LINE
  8
0
  6
CONTINUOUS
 62
     1
 10
1031.5
 20
443.05046
 11
1037.972923706
 21
443.05046
  0
LINE
  8
0
  6
CONTINUOUS
 62
     1
 10
1028.5
 20
464.75
 11
1031.5
 21
464.75
  0
LINE
  8
0
  6
CONTINUOUS
 62
     1
 10
1028.5
 20
454.0
 11
1031.500254073
 21
457.000254073
  0
LINE
  8
0
  6
CONTINUOUS
 62
     1
 10
1031.500254073
 20
454.0
 11
1028.5
 21
450.999745927
  0
LINE
  8
0
  6
CONTINUOUS
 62
     1
 10
1028.5
 20
443.25
 11
1031.5
 21
443.25
  0
LINE
  8
0
  6
CONTINUOUS
 62
     1
 10
1039.5211
 20
448.0
 11
1052.5
 21
448.0
  0
LINE
  8
0
  6
CONTINUOUS
 62
     1
 10
1039.5211
 20
460.0
 11
1052.5
 21
460.0
  0
LINE
  8
0
  6
CONTINUOUS
 62
     1
 10
1052.5
 20
448.0
 11
1052.5
 21
460.0
  0
LINE
  8
0
  6
CONTINUOUS
 62
     1
 10
1012.5
 20
441.0
 11
1012.5
 21
617.0
  0
LINE
  8
0
  6
CONTINUOUS
 62
     1
 10
1028.5
 20
441.0
 11
1028.5
 21
617.0
  0
LINE
  8
0
  6
CONTINUOUS
 62
     1
 10
1004.5
 20
443.0
 11
1004.5
 21
465.0
  0
LINE
  8
0
  6
CONTINUOUS
 62
     1
 10
1004.5
 20
462.0
 11
1012.5
 21
462.0
  0
LINE
  8
0
  6
CONTINUOUS
 62
     1
 10
1004.5
 20
446.0
 11
1012.5
 21
446.0
  0
LINE
  8
0
  6
CONTINUOUS
 62
     1
 10
1012.5
 20
441.0
 11
1028.5
 21
441.0
  0
LINE
  8
0
  6
CONTINUOUS
 62
     1
 10
1012.5
 20
617.0
 11
1028.5
 21
617.0
  0
LINE
  8
0
  6
CONTINUOUS
 62
     1
 10
913.5
 20
571.5
 11
913.5
 21
627.25
  0
LINE
  8
0
  6
CONTINUOUS
 62
     1
 10
905.5
 20
571.5
 11
905.5
 21
627.25
  0
LINE
  8
0
  6
LTYPE3
 62
     2
 10
909.5
 20
541.25
 11
909.5
 21
635.25
  0
LINE
  8
0
  6
CONTINUOUS
 62
     1
 10
902.5
 20
571.5
 11
916.5
 21
571.5
  0
LINE
  8
0
  6
CONTINUOUS
 62
     1
 10
856.5
 20
559.25
 11
902.5
 21
559.25
  0
LINE
  8
0
  6
CONTINUOUS
 62
     1
 10
902.5
 20
551.5
 11
916.5
 21
551.5
  0
LINE
  8
0
  6
CONTINUOUS
 62
     1
 10
845.5
 20
571.5
 11
845.5
 21
627.25
  0
LINE
  8
0
  6
LTYPE3
 62
     2
 10
849.5
 20
541.25
 11
849.5
 21
635.25
  0
LINE
  8
0
  6
CONTINUOUS
 62
     1
 10
842.5
 20
551.5
 11
856.5
 21
551.5
  0
LINE
  8
0
  6
CONTINUOUS
 62
     1
 10
842.5
 20
571.5
 11
856.5
 21
571.5
  0
LINE
  8
0
  6
CONTINUOUS
 62
     1
 10
853.5
 20
571.5
 11
853.5
 21
627.25
  0
ARC
  8
0
  6
CONTINUOUS
 62
     1
 10
849.5
 20
627.25
 40
4.0
 50
0.0
 51
180.0
  0
LINE
  8
0
  6
CONTINUOUS
 62
     1
 10
853.5
 20
622.75
 11
905.5
 21
622.75
  0
ARC
  8
0
  6
CONTINUOUS
 62
     1
 10
909.5
 20
627.25
 40
4.0
 50
0.0
 51
180.0
  0
LINE
  8
0
  6
LTYPE3
 62
     2
 10
724.35
 20
541.25
 11
724.35
 21
635.25
  0
LINE
  8
0
  6
LTYPE1
 62
     2
 10
717.35
 20
551.5
 11
731.35
 21
551.5
  0
LINE
  8
0
  6
LTYPE1
 62
     2
 10
720.35
 20
571.5
 11
720.35
 21
627.25
  0
LINE
  8
0
  6
LTYPE1
 62
     2
 10
717.35
 20
571.5
 11
731.35
 21
571.5
  0
LINE
  8
0
  6
LTYPE1
 62
     2
 10
728.35
 20
571.5
 11
728.35
 21
627.25
  0
ARC
  8
0
  6
LTYPE1
 62
     2
 10
724.35
 20
627.25
 40
4.0
 50
0.0
 51
180.0
  0
CIRCLE
  8
0
  6
CONTINUOUS
 62
     1
 10
1063.5
 20
591.0
 40
15.0
  0
CIRCLE
  8
0
  6
CONTINUOUS
 62
     1
 10
1063.499984741
 20
602.0
 40
3.0
  0
LINE
  8
0
  6
CONTINUOUS
 62
     1
 10
1059.3
 20
578.7
 11
1061.3
 21
578.4
  0
LINE
  8
0
  6
CONTINUOUS
 62
     1
 10
1061.564615385
 20
581.530769231
 11
1059.3
 21
578.7
  0
LINE
  8
0
  6
CONTINUOUS
 62
     1
 10
1063.5
 20
581.1
 11
1061.3
 21
578.4
  0
LINE
  8
0
  6
CONTINUOUS
 62
     1
 10
1061.8
 20
583.1
 11
1061.564615385
 21
581.530769231
  0
LINE
  8
0
  6
CONTINUOUS
 62
     1
 10
1067.7
 20
578.7
 11
1065.7
 21
578.4
  0
LINE
  8
0
  6
CONTINUOUS
 62
     1
 10
1065.435384615
 20
581.530769231
 11
1067.7
 21
578.7
  0
LINE
  8
0
  6
CONTINUOUS
 62
     1
 10
1063.5
 20
581.1
 11
1065.7
 21
578.4
  0
LINE
  8
0
  6
CONTINUOUS
 62
     1
 10
1065.2
 20
583.1
 11
1065.435384615
 21
581.530769231
  0
TEXT
  8
0
  6
CONTINUOUS
 62
     6
 10
385.343715102
 20
1328.371931782
 30
0.0
 40
11.8638
  1
ＡＣ１００Ｖ　１２５Ｖ　２５０Ｖ　－１０Ａ
 50
0.0
 41
0.726495726
 51
0.0
  7
KANJI20
  0
LINE
  8
0
  6
CONTINUOUS
 62
     2
 10
111.0
 20
280.0
 11
118.72740661
 21
277.929447639
  0
LINE
  8
0
  6
CONTINUOUS
 62
     2
 10
111.0
 20
280.0
 11
118.72740661
 21
282.070552361
  0
LINE
  8
0
  6
CONTINUOUS
 62
     2
 10
111.0
 20
280.0
 11
248.6
 21
280.0
  0
LINE
  8
0
  6
CONTINUOUS
 62
     2
 10
248.6
 20
280.0
 11
240.87259339
 21
282.070552361
  0
LINE
  8
0
  6
CONTINUOUS
 62
     2
 10
248.6
 20
280.0
 11
240.87259339
 21
277.929447639
  0
LINE
  8
0
  6
CONTINUOUS
 62
     2
 10
248.6
 20
278.8
 11
248.6
 21
276.0
  0
LINE
  8
0
  6
CONTINUOUS
 62
     2
 10
248.6
 20
280.0
 11
256.32740661
 21
277.929447639
  0
LINE
  8
0
  6
CONTINUOUS
 62
     2
 10
248.6
 20
280.0
 11
256.32740661
 21
282.070552361
  0
LINE
  8
0
  6
CONTINUOUS
 62
     2
 10
248.6
 20
280.0
 11
451.0
 21
280.0
  0
LINE
  8
0
  6
CONTINUOUS
 62
     2
 10
451.0
 20
280.0
 11
443.27259339
 21
282.070552361
  0
LINE
  8
0
  6
CONTINUOUS
 62
     2
 10
451.0
 20
280.0
 11
443.27259339
 21
277.929447639
  0
LINE
  8
0
  6
CONTINUOUS
 62
     2
 10
248.6
 20
253.670552361
 11
240.87259339
 21
255.741104722
  0
LINE
  8
0
  6
CONTINUOUS
 62
     2
 10
248.6
 20
253.670552361
 11
240.87259339
 21
251.6
  0
LINE
  8
0
  6
CONTINUOUS
 62
     2
 10
236.6
 20
253.670552361
 11
248.6
 21
253.670552361
  0
LINE
  8
0
  6
CONTINUOUS
 62
     2
 10
248.6
 20
253.670552361
 11
269.4
 21
253.670552361
  0
LINE
  8
0
  6
CONTINUOUS
 62
     2
 10
269.4
 20
253.670552361
 11
277.12740661
 21
251.6
  0
LINE
  8
0
  6
CONTINUOUS
 62
     2
 10
269.4
 20
253.670552361
 11
277.12740661
 21
255.741104722
  0
LINE
  8
0
  6
CONTINUOUS
 62
     2
 10
111.0
 20
228.4
 11
111.0
 21
222.4
  0
LINE
  8
0
  6
CONTINUOUS
 62
     2
 10
111.0
 20
226.4
 11
118.72740661
 21
224.329447639
  0
LINE
  8
0
  6
CONTINUOUS
 62
     2
 10
111.0
 20
226.4
 11
118.72740661
 21
228.470552361
  0
LINE
  8
0
  6
CONTINUOUS
 62
     2
 10
111.0
 20
226.4
 11
269.4
 21
226.4
  0
LINE
  8
0
  6
CONTINUOUS
 62
     2
 10
269.4
 20
226.4
 11
261.67259339
 21
228.470552361
  0
LINE
  8
0
  6
CONTINUOUS
 62
     2
 10
269.4
 20
226.4
 11
261.67259339
 21
224.329447639
  0
LINE
  8
0
  6
CONTINUOUS
 62
     2
 10
269.4
 20
227.6
 11
269.4
 21
222.4
  0
LINE
  8
0
  6
CONTINUOUS
 62
     2
 10
269.4
 20
226.4
 11
277.12740661
 21
224.329447639
  0
LINE
  8
0
  6
CONTINUOUS
 62
     2
 10
269.4
 20
226.4
 11
277.12740661
 21
228.470552361
  0
LINE
  8
0
  6
CONTINUOUS
 62
     2
 10
451.0
 20
222.8
 11
451.0
 21
222.4
  0
LINE
  8
0
  6
CONTINUOUS
 62
     2
 10
111.0
 20
197.2
 11
118.72740661
 21
195.129447639
  0
LINE
  8
0
  6
CONTINUOUS
 62
     2
 10
111.0
 20
197.2
 11
118.72740661
 21
199.270552361
  0
LINE
  8
0
  6
CONTINUOUS
 62
     2
 10
111.0
 20
197.2
 11
428.6
 21
197.2
  0
LINE
  8
0
  6
CONTINUOUS
 62
     2
 10
428.6
 20
197.2
 11
420.87259339
 21
199.270552361
  0
LINE
  8
0
  6
CONTINUOUS
 62
     2
 10
428.6
 20
197.2
 11
420.87259339
 21
195.129447639
  0
LINE
  8
0
  6
CONTINUOUS
 62
     2
 10
428.6
 20
198.0
 11
428.6
 21
193.2
  0
LINE
  8
0
  6
CONTINUOUS
 62
     2
 10
428.6
 20
197.2
 11
420.87259339
 21
199.270552361
  0
LINE
  8
0
  6
CONTINUOUS
 62
     2
 10
428.6
 20
197.2
 11
420.87259339
 21
195.129447639
  0
LINE
  8
0
  6
CONTINUOUS
 62
     2
 10
416.6
 20
197.2
 11
428.6
 21
197.2
  0
LINE
  8
0
  6
CONTINUOUS
 62
     2
 10
428.6
 20
197.2
 11
451.0
 21
197.2
  0
LINE
  8
0
  6
CONTINUOUS
 62
     2
 10
451.0
 20
197.2
 11
458.72740661
 21
195.129447639
  0
LINE
  8
0
  6
CONTINUOUS
 62
     2
 10
451.0
 20
197.2
 11
458.72740661
 21
199.270552361
  0
LINE
  8
0
  6
CONTINUOUS
 62
     2
 10
111.0
 20
290.8
 11
111.0
 21
276.0
  0
LINE
  8
0
  6
CONTINUOUS
 62
     2
 10
451.0
 20
290.8
 11
451.0
 21
276.0
  0
LINE
  8
0
  6
CONTINUOUS
 62
     2
 10
248.6
 20
279.6
 11
248.6
 21
290.8
  0
LINE
  8
0
  6
CONTINUOUS
 62
     2
 10
269.4
 20
266.470552361
 11
269.4
 21
249.670552361
  0
LINE
  8
0
  6
CONTINUOUS
 62
     2
 10
111.0
 20
276.0
 11
111.0
 21
184.0
  0
LINE
  8
0
  6
CONTINUOUS
 62
     2
 10
451.0
 20
280.0
 11
451.0
 21
185.2
  0
LINE
  8
0
  6
CONTINUOUS
 62
     2
 10
269.4
 20
253.670552361
 11
269.4
 21
217.2
  0
LINE
  8
0
  6
CONTINUOUS
 62
     2
 10
248.6
 20
280.0
 11
248.6
 21
244.4
  0
TEXT
  8
0
  6
CONTINUOUS
 62
     3
 10
152.8
 20
282.0
 30
0.0
 40
15.0
  1
ｍｉｎ．Ｌ
 50
0.0
 41
0.9
 51
0.0
  7
KANJI35
  0
TEXT
  8
0
  6
CONTINUOUS
 62
     3
 10
306.6
 20
282.0
 30
0.0
 40
15.0
  1
機械的ストローク
 50
0.0
 41
0.9
 51
0.0
  7
KANJI35
  0
TEXT
  8
0
  6
CONTINUOUS
 62
     3
 10
281.4
 20
255.670552361
 30
0.0
 40
15.0
  1
余裕
 50
0.0
 41
0.9
 51
0.0
  7
KANJI35
  0
TEXT
  8
0
  6
CONTINUOUS
 62
     3
 10
163.2
 20
228.4
 30
0.0
 40
15.0
  1
常用ｍｉｎ
 50
0.0
 41
0.9
 51
0.0
  7
KANJI35
  0
TEXT
  8
0
  6
CONTINUOUS
 62
     3
 10
322.4
 20
228.4
 30
0.0
 40
15.0
  1
常用ストローク
 50
0.0
 41
0.9
 51
0.0
  7
KANJI35
  0
TEXT
  8
0
  6
CONTINUOUS
 62
     3
 10
242.8
 20
199.2
 30
0.0
 40
15.0
  1
常用ｍａｘ
 50
0.0
 41
0.9
 51
0.0
  7
KANJI35
  0
TEXT
  8
0
  6
CONTINUOUS
 62
     3
 10
463.0
 20
199.2
 30
0.0
 40
15.0
  1
余裕
 50
0.0
 41
0.9
 51
0.0
  7
KANJI35
  0
LINE
  8
0
  6
CONTINUOUS
 62
     2
 10
269.4
 20
253.670552361
 11
309.5
 21
253.670552361
  0
LINE
  8
0
  6
CONTINUOUS
 62
     2
 10
451.0
 20
197.2
 11
493.5
 21
197.2
  0
TEXT
  8
0
  6
CONTINUOUS
 62
     2
 10
618.45
 20
754.65
 30
0.0
 40
15.0
  1
推力リミッタの作動値は、約１１０ｋｇ（設計値）
 50
0.0
 41
0.9
 51
0.0
  7
KANJI35
  0
LINE
  8
0
  6
CONTINUOUS
 62
     2
 10
619.05
 20
750.45
 11
920.0
 21
750.45
  0
LINE
  8
0
  6
CONTINUOUS
 62
     1
 10
854.25
 20
985.95
 11
1502.25
 21
985.95
  0
LINE
  8
0
  6
CONTINUOUS
 62
     1
 10
854.25
 20
1237.95
 11
854.25
 21
985.95
  0
LINE
  8
0
  6
CONTINUOUS
 62
     1
 10
1022.25
 20
1237.95
 11
1022.25
 21
985.95
  0
LINE
  8
0
  6
CONTINUOUS
 62
     2
 10
1102.25
 20
1237.95
 11
1102.25
 21
985.95
  0
LINE
  8
0
  6
CONTINUOUS
 62
     2
 10
1182.25
 20
1237.95
 11
1182.25
 21
985.95
  0
LINE
  8
0
  6
CONTINUOUS
 62
     2
 10
1262.25
 20
1237.95
 11
1262.25
 21
985.95
  0
LINE
  8
0
  6
CONTINUOUS
 62
     2
 10
1342.25
 20
1237.95
 11
1342.25
 21
985.95
  0
LINE
  8
0
  6
CONTINUOUS
 62
     2
 10
1422.25
 20
1237.95
 11
1422.25
 21
985.95
  0
LINE
  8
0
  6
CONTINUOUS
 62
     1
 10
1502.25
 20
1237.95
 11
1502.25
 21
985.95
  0
LINE
  8
0
  6
CONTINUOUS
 62
     2
 10
428.6
 20
240.0
 11
428.6
 21
184.4
  0
LINE
  8
0
  6
CONTINUOUS
 62
     2
 10
428.6
 20
226.4
 11
420.87259339
 21
228.470552361
  0
LINE
  8
0
  6
CONTINUOUS
 62
     2
 10
428.6
 20
226.4
 11
420.87259339
 21
224.329447639
  0
LINE
  8
0
  6
CONTINUOUS
 62
     2
 10
269.4
 20
226.4
 11
428.6
 21
226.4
  0
TEXT
  8
2
  6
CONTINUOUS
 62
     2
 10
104.3
 20
469.9
 30
0.0
 40
15.0
  1
手動軸□１０
 50
0.0
 41
0.9
 51
0.0
  7
KANJI35
  0
LINE
  8
0
  6
LTYPE3
 62
     2
 10
208.0
 20
591.0
 11
722.349814745
 21
591.0
  0
LINE
  8
7
  6
CONTINUOUS
 62
     2
 10
1063.5
 20
620.511809549
 11
1063.5
 21
848.0
  0
LINE
  8
0
  6
CONTINUOUS
 62
     2
 10
1081.5
 20
611.0
 11
1081.5
 21
848.588190451
  0
TEXT
  8
0
  6
CONTINUOUS
 62
     2
 10
1608.25
 20
1276.5
 30
138.5
 40
17.5
  1
形式
 50
0.0
 41
0.9
 51
0.0
  7
KANJI49
  0
TEXT
  8
0
  6
CONTINUOUS
 62
     2
 10
1608.25
 20
1241.5
 30
138.5
 40
17.5
  1
推力
 50
0.0
 41
0.9
 51
0.0
  7
KANJI49
  0
TEXT
  8
0
  6
CONTINUOUS
 62
     2
 10
1608.25
 20
1101.5
 30
138.5
 40
17.5
  1
構造
 50
0.0
 41
0.9
 51
0.0
  7
KANJI49
  0
TEXT
  8
0
  6
CONTINUOUS
 62
     2
 10
1608.25
 20
681.5
 30
138.5
 40
17.5
  1
台数
 50
0.0
 41
0.9
 51
0.0
  7
KANJI49
  0
TEXT
  8
0
  6
CONTINUOUS
 62
     2
 10
1608.25
 20
716.5
 30
61.375
 40
17.5
  1
付属品
 50
0.0
 41
0.9
 51
0.0
  7
KANJI50
  0
TEXT
  8
0
  6
CONTINUOUS
 62
     2
 10
1608.25
 20
1031.5
 30
61.375
 40
17.5
  1
塗装色
 50
0.0
 41
0.9
 51
0.0
  7
KANJI50
  0
TEXT
  8
0
  6
CONTINUOUS
 62
     2
 10
1608.25
 20
1206.5
 30
22.8125
 40
17.5
  1
ストローク
 50
0.0
 41
0.9
 51
0.0
  7
KANJI51
  0
TEXT
  8
0
  6
CONTINUOUS
 62
     2
 10
1608.25
 20
1066.5
 30
9.958
 40
17.5
  1
過負荷安全装置
 50
0.0
 41
0.9
 51
0.0
  7
KANJI52
  0
TEXT
  8
0
  6
CONTINUOUS
 62
     2
 10
1633.25
 20
1316.0
 30
14.2497
 40
22.5
  1
マイティシリンダ仕様
 50
0.0
 41
0.9
 51
0.0
  7
KANJI53
  0
TEXT
  8
0
  6
CONTINUOUS
 62
     2
 10
1633.25
 20
996.5
 30
15.3125
 40
17.5
  1
出力　極数
 50
0.0
 41
0.9
 51
0.0
  7
KANJI54
  0
TEXT
  8
0
  6
CONTINUOUS
 62
     2
 10
1633.25
 20
961.5
 30
25.6665
 40
17.5
  1
電源電圧
 50
0.0
 41
0.9
 51
0.0
  7
KANJI55
  0
TEXT
  8
0
  6
CONTINUOUS
 62
     2
 10
1633.25
 20
926.5
 30
46.375
 40
17.5
  1
周波数
 50
0.0
 41
0.9
 51
0.0
  7
KANJI56
  0
TEXT
  8
0
  6
CONTINUOUS
 62
     2
 10
1633.25
 20
856.5
 30
46.375
 40
17.5
  1
絶縁級
 50
0.0
 41
0.9
 51
0.0
  7
KANJI56
  0
TEXT
  8
0
  6
CONTINUOUS
 62
     2
 10
1633.25
 20
891.5
 30
108.5
 40
17.5
  1
電流
 50
0.0
 41
0.9
 51
0.0
  7
KANJI57
  0
TEXT
  8
0
  6
CONTINUOUS
 62
     2
 10
1633.25
 20
786.5
 30
108.5
 40
17.5
  1
形式
 50
0.0
 41
0.9
 51
0.0
  7
KANJI57
  0
TEXT
  8
0
  6
CONTINUOUS
 62
     2
 10
1633.25
 20
751.5
 30
25.6665
 40
17.5
  1
操作方式
 50
0.0
 41
0.9
 51
0.0
  7
KANJI55
  0
TEXT
  8
0
  6
CONTINUOUS
 62
     2
 10
1593.25
 20
1136.5
 30
1.5
 40
17.5
  1
ピストンロッド回転トルク
 50
0.0
 41
0.9
 51
0.0
  7
KANJI58
  0
TEXT
  8
0
  6
CONTINUOUS
 62
     2
 10
1591.125
 20
1000.0
 30
11.0
 40
17.5
  1
モ　トル仕様
 50
0.0
 41
0.9
 51
0.0
  7
KANJI59
  0
TEXT
  8
0
  6
CONTINUOUS
 62
     2
 10
1590.0
 20
810.0
 30
0.857142857
 40
15.0
  1
ブレ　キ
 50
0.0
 41
0.9
 51
0.0
  7
KANJI60
  0
LINE
  8
0
  6
CONTINUOUS
 62
     2
 10
1589.75
 20
775.5
 11
1589.75
 21
765.0
  0
LINE
  8
0
  6
CONTINUOUS
 62
     2
 10
1589.75
 20
972.0
 11
1589.75
 21
960.5
  0
TEXT
  8
0
  6
CONTINUOUS
 62
     2
 10
1945.75
 20
1175.0
 30
0.1
 40
12.5
  1
ｍｍ／ｓｅｃ
 50
0.0
 41
0.8
 51
0.0
  7
KANJI61
  0
TEXT
  8
0
  6
CONTINUOUS
 62
     2
 10
1983.25
 20
1208.5
 30
0.1
 40
12.5
  1
ｍｍ
 50
0.0
 41
0.8
 51
0.0
  7
KANJI61
  0
TEXT
  8
0
  6
CONTINUOUS
 62
     2
 10
1857.75
 20
1066.5
 30
7.1
 40
17.5
  1
推力リミッタ
 50
0.0
 41
0.9
 51
0.0
  7
KANJI62
  0
TEXT
  8
0
  6
CONTINUOUS
 62
     2
 10
1990.25
 20
996.5
 30
10.982142857
 40
15.0
  1
Ｐ
 50
0.0
 41
0.9
 51
0.0
  7
KANJI63
  0
TEXT
  8
0
  6
CONTINUOUS
 62
     2
 10
1907.25
 20
996.5
 30
1.0
 40
15.0
  1
ＫＷ
 50
0.0
 41
0.857142857
 51
0.0
  7
KANJI64
  0
TEXT
  8
0
  6
CONTINUOUS
 62
     2
 10
1965.25
 20
996.5
 30
12.8125
 40
17.5
  1
４
 50
0.0
 41
0.9
 51
0.0
  7
KANJI65
  0
TEXT
  8
0
  6
CONTINUOUS
 62
     2
 10
1829.75
 20
1033.0
 30
0.5
 40
14.0
  1
マンセル
 50
0.0
 41
0.9
 51
0.0
  7
KANJI66
  0
TEXT
  8
0
  6
CONTINUOUS
 62
     2
 10
1888.25
 20
1034.0
 30
0.2
 40
14.0
  1
７．５ＧＹ５／４．５
 50
0.0
 41
0.785714286
 51
0.0
  7
KANJI67
  0
TEXT
  8
0
  6
CONTINUOUS
 62
     2
 10
1825.75
 20
787.0
 30
1.5
 40
14.0
  1
スプリング制動式電磁ブレーキ
 50
0.0
 41
0.8
 51
0.0
  7
KANJI68
  0
TEXT
  8
0
  6
CONTINUOUS
 62
     2
 10
1860.75
 20
751.5
 30
10.0
 40
17.5
  1
同時切り
 50
0.0
 41
0.9
 51
0.0
  7
KANJI69
  0
TEXT
  8
0
  6
CONTINUOUS
 62
     2
 10
1990.75
 20
961.5
 30
0.18
 40
15.0
  1
Ｖ
 50
0.0
 41
0.8
 51
0.0
  7
KANJI70
  0
TEXT
  8
0
  6
CONTINUOUS
 62
     2
 10
1981.75
 20
926.5
 30
0.18
 40
15.0
  1
Ｈｚ
 50
0.0
 41
0.8
 51
0.0
  7
KANJI70
  0
TEXT
  8
0
  6
CONTINUOUS
 62
     2
 10
1991.875
 20
892.625
 30
1.5
 40
15.0
  1
Ａ
 50
0.0
 41
0.9
 51
0.0
  7
KANJI71
  0
TEXT
  8
0
  6
CONTINUOUS
 62
     2
 10
1913.125
 20
858.875
 30
1.5
 40
15.0
  1
Ｅ
 50
0.0
 41
0.9
 51
0.0
  7
KANJI71
  0
LINE
  8
0
  6
CONTINUOUS
 62
     2
 10
1570.75
 20
742.5
 11
2008.25
 21
742.5
  0
LINE
  8
0
  6
CONTINUOUS
 62
     2
 10
1570.75
 20
1022.5
 11
2008.25
 21
1022.5
  0
LINE
  8
0
  6
CONTINUOUS
 62
     2
 10
1570.75
 20
812.5
 11
2008.25
 21
812.5
  0
LINE
  8
0
  6
CONTINUOUS
 62
     2
 10
1610.75
 20
777.5
 11
2008.25
 21
777.5
  0
LINE
  8
0
  6
CONTINUOUS
 62
     2
 10
1610.75
 20
847.5
 11
2008.25
 21
847.5
  0
LINE
  8
0
  6
CONTINUOUS
 62
     2
 10
1610.75
 20
882.5
 11
2008.25
 21
882.5
  0
LINE
  8
0
  6
CONTINUOUS
 62
     2
 10
1610.75
 20
952.5
 11
2008.25
 21
952.5
  0
LINE
  8
0
  6
CONTINUOUS
 62
     2
 10
1610.75
 20
917.5
 11
2008.25
 21
917.5
  0
LINE
  8
0
  6
CONTINUOUS
 62
     2
 10
1610.75
 20
987.5
 11
2008.25
 21
987.5
  0
LINE
  8
0
  6
CONTINUOUS
 62
     2
 10
1570.75
 20
1302.5
 11
2008.25
 21
1302.5
  0
LINE
  8
0
  6
CONTINUOUS
 62
     2
 10
1570.75
 20
1267.5
 11
2008.25
 21
1267.5
  0
LINE
  8
0
  6
CONTINUOUS
 62
     2
 10
1570.75
 20
1232.5
 11
2008.25
 21
1232.5
  0
LINE
  8
0
  6
CONTINUOUS
 62
     2
 10
1570.75
 20
1197.5
 11
2008.25
 21
1197.5
  0
LINE
  8
0
  6
CONTINUOUS
 62
     2
 10
1570.75
 20
1162.5
 11
2008.25
 21
1162.5
  0
LINE
  8
0
  6
CONTINUOUS
 62
     2
 10
1570.75
 20
1127.5
 11
2008.25
 21
1127.5
  0
LINE
  8
0
  6
CONTINUOUS
 62
     2
 10
1570.75
 20
1092.5
 11
2008.25
 21
1092.5
  0
LINE
  8
0
  6
CONTINUOUS
 62
     2
 10
1570.75
 20
1057.5
 11
2008.25
 21
1057.5
  0
LINE
  8
0
  6
CONTINUOUS
 62
     2
 10
1610.75
 20
1022.5
 11
1610.75
 21
742.5
  0
LINE
  8
0
  6
CONTINUOUS
 62
     1
 10
1570.75
 20
1352.5
 11
2008.25
 21
1352.5
  0
LINE
  8
0
  6
CONTINUOUS
 62
     2
 10
1570.75
 20
707.5
 11
2008.25
 21
707.5
  0
TEXT
  8
0
  6
CONTINUOUS
 62
     2
 10
1868.75
 20
962.0
 30
1.5
 40
15.0
  1
　　　／　
 50
0.0
 41
0.9
 51
0.0
  7
KANJI71
  0
TEXT
  8
0
  6
CONTINUOUS
 62
     2
 10
1883.125
 20
926.375
 30
1.5
 40
15.0
  1
　５０／６０
 50
0.0
 41
0.9
 51
0.0
  7
KANJI71
  0
TEXT
  8
0
  6
CONTINUOUS
 62
     2
 10
1849.375
 20
997.625
 30
1.5
 40
15.0
  1
０．３
 50
0.0
 41
0.9
 51
0.0
  7
KANJI71
  0
TEXT
  8
0
  6
CONTINUOUS
 62
     2
 10
1850.25
 20
1241.5
 30
1.5
 40
15.0
  1
９８０Ｎ（１００ｋｇ）
 50
0.0
 41
0.9
 51
0.0
  7
KANJI71
  0
TEXT
  8
0
  6
CONTINUOUS
 62
     2
 10
1608.25
 20
1171.5
 30
5.0
 40
17.5
  1
公称速度（５０／６０Ｈｚ）
 50
0.0
 41
0.9
 51
0.0
  7
KANJI72
  0
TEXT
  8
0
  6
CONTINUOUS
 62
     2
 10
1857.75
 20
1102.0
 30
12.8125
 40
17.5
  1
全閉屋内形
 50
0.0
 41
0.9
 51
0.0
  7
KANJI65
  0
TEXT
  8
0
  6
CONTINUOUS
 62
     2
 10
1838.125
 20
1171.375
 30
1.5
 40
15.0
  1
　７５／９０
 50
0.0
 41
0.9
 51
0.0
  7
KANJI71
  0
TEXT
  8
0
  6
CONTINUOUS
 62
     2
 10
1828.875
 20
1136.375
 30
0.0
 40
15.0
  1
２．９Ｎ・ｍ（０．３ｋｇ・ｍ）
 50
0.0
 41
0.833333333
 51
0.0
  7
KANJI73
  0
TEXT
  8
0
  6
CONTINUOUS
 62
     2
 10
1608.25
 20
681.5
 30
138.5
 40
17.5
  1
台数
 50
0.0
 41
0.9
 51
0.0
  7
KANJI49
  0
LINE
  8
0
  6
CONTINUOUS
 62
     1
 10
1570.75
 20
637.5
 11
2008.25
 21
637.5
  0
LINE
  8
0
  6
CONTINUOUS
 62
     2
 10
1570.75
 20
672.5
 11
2008.25
 21
672.5
  0
TEXT
  8
0
  6
CONTINUOUS
 62
     2
 10
1608.25
 20
646.5
 30
5.0
 40
17.5
  1
概算重量（１台当り）
 50
0.0
 41
0.857142857
 51
0.0
  7
KANJI14
  0
TEXT
  8
0
  6
CONTINUOUS
 62
     2
 10
1962.25
 20
647.65
 30
0.0
 40
17.5
  1
ｋｇ
 50
0.0
 41
0.9
 51
0.0
  7
KANJI74
  0
LINE
  8
0
  6
CONTINUOUS
 62
     2
 10
1820.75
 20
1302.5
 11
1820.75
 21
637.5
  0
LINE
  8
0
  6
CONTINUOUS
 62
     1
 10
1570.75
 20
1352.5
 11
1570.75
 21
637.5
  0
LINE
  8
0
  6
CONTINUOUS
 62
     1
 10
944.5
 20
245.6
 11
944.5
 21
227.8
  0
TEXT
  8
0
  6
CONTINUOUS
 62
     2
 10
963.81
 20
791.31
 30
0.0
 40
15.0
  1
ｍｉｎ．Ｐ
 50
0.0
 41
0.9
 51
0.0
  7
KANJI35
  0
LINE
  8
0
  6
CONTINUOUS
 62
     1
 10
1264.759379566
 20
688.580735804
 11
1265.466486348
 21
687.873629023
  0
LINE
  8
2
  6
CONTINUOUS
 62
     2
 10
1308.6
 20
733.739142961
 11
1308.6
 21
765.572652293
  0
ARC
  8
0
  6
CONTINUOUS
 62
     1
 10
1342.6
 20
714.0
 40
2.0
 50
0.0
 51
90.0
  0
ARC
  8
0
  6
CONTINUOUS
 62
     1
 10
1350.6
 20
712.020045888
 40
2.0
 50
0.0
 51
90.0
  0
LINE
  8
0
  6
CONTINUOUS
 62
     1
 10
1344.599899538
 20
714.020045888
 11
1350.6
 21
714.020045888
  0
LINE
  8
0
  6
LTYPE6
 62
     2
 10
1308.6
 20
729.739142961
 11
1308.6
 21
522.5
  0
LINE
  8
0
  6
CONTINUOUS
 62
     1
 10
1277.6
 20
599.0
 11
1277.6
 21
583.0
  0
LINE
  8
0
  6
CONTINUOUS
 62
     1
 10
1300.6
 20
611.0
 11
1300.6
 21
571.0
  0
LINE
  8
0
  6
CONTINUOUS
 62
     1
 10
1288.6
 20
611.0
 11
1288.6
 21
571.0
  0
LINE
  8
0
  6
CONTINUOUS
 62
     1
 10
1288.6
 20
611.0
 11
1308.6
 21
611.0
  0
LINE
  8
0
  6
CONTINUOUS
 62
     1
 10
1300.6
 20
599.0
 11
1308.6
 21
599.0
  0
LINE
  8
0
  6
CONTINUOUS
 62
     1
 10
1285.6
 20
576.0
 11
1285.6
 21
606.0
  0
LINE
  8
0
  6
CONTINUOUS
 62
     1
 10
1288.6
 20
606.0
 11
1285.6
 21
606.0
  0
LINE
  8
0
  6
LTYPE2
 62
     2
 10
1282.95
 20
586.6
 11
1282.95
 21
595.0
  0
CIRCLE
  8
0
  6
CONTINUOUS
 62
     1
 10
1282.95
 20
591.0
 40
2.0
  0
LINE
  8
0
  6
CONTINUOUS
 62
     1
 10
1328.6
 20
606.0
 11
1331.6
 21
606.0
  0
LINE
  8
0
  6
CONTINUOUS
 62
     1
 10
1277.6
 20
599.0
 11
1285.6
 21
599.0
  0
LINE
  8
0
  6
LTYPE1
 62
     2
 10
1300.6
 20
599.0
 11
1285.6
 21
599.0
  0
LINE
  8
0
  6
LTYPE1
 62
     2
 10
1270.6
 20
599.0
 11
1248.6
 21
599.0
  0
LINE
  8
0
  6
LTYPE1
 62
     2
 10
1270.6
 20
583.0
 11
1270.6
 21
599.0
  0
LINE
  8
0
  6
CONTINUOUS
 62
     2
 10
1250.6
 20
642.0
 11
1264.6
 21
642.0
  0
LINE
  8
0
  6
CONTINUOUS
 62
     2
 10
1257.6
 20
649.0
 11
1257.6
 21
635.0
  0
LINE
  8
0
  6
CONTINUOUS
 62
     2
 10
1366.6
 20
642.0
 11
1352.6
 21
642.0
  0
LINE
  8
0
  6
LTYPE1
 62
     2
 10
1346.6
 20
599.0
 11
1368.6
 21
599.0
  0
LINE
  8
0
  6
LTYPE1
 62
     2
 10
1346.6
 20
583.0
 11
1346.6
 21
599.0
  0
LINE
  8
0
  6
CONTINUOUS
 62
     1
 10
1331.6
 20
606.0
 11
1331.6
 21
576.0
  0
LINE
  8
0
  6
CONTINUOUS
 62
     1
 10
1339.6
 20
599.0
 11
1339.6
 21
583.0
  0
LINE
  8
0
  6
CONTINUOUS
 62
     1
 10
1328.6
 20
611.0
 11
1328.6
 21
571.0
  0
LINE
  8
0
  6
LTYPE2
 62
     2
 10
1334.25
 20
595.4
 11
1334.25
 21
587.0
  0
LINE
  8
0
  6
CONTINUOUS
 62
     1
 10
1339.6
 20
599.0
 11
1331.6
 21
599.0
  0
LINE
  8
0
  6
LTYPE1
 62
     2
 10
1316.6
 20
599.0
 11
1331.6
 21
599.0
  0
LINE
  8
0
  6
CONTINUOUS
 62
     1
 10
1316.6
 20
611.0
 11
1316.6
 21
571.0
  0
CIRCLE
  8
0
  6
CONTINUOUS
 62
     1
 10
1334.25
 20
591.0
 40
2.0
  0
LINE
  8
0
  6
CONTINUOUS
 62
     1
 10
1328.6
 20
611.0
 11
1308.6
 21
611.0
  0
LINE
  8
0
  6
CONTINUOUS
 62
     1
 10
1316.6
 20
599.0
 11
1308.6
 21
599.0
  0
LINE
  8
0
  6
LTYPE6
 62
     2
 10
1371.060039412
 20
591.0
 11
1245.6
 21
591.0
  0
LINE
  8
0
  6
CONTINUOUS
 62
     1
 10
1352.847895493
 20
613.92724872
 11
1368.6
 21
611.0
  0
LINE
  8
0
  6
CONTINUOUS
 62
     1
 10
1288.6
 20
571.0
 11
1308.6
 21
571.0
  0
LINE
  8
0
  6
CONTINUOUS
 62
     1
 10
1300.6
 20
583.0
 11
1308.6
 21
583.0
  0
LINE
  8
0
  6
CONTINUOUS
 62
     1
 10
1288.6
 20
576.0
 11
1285.6
 21
576.0
  0
LINE
  8
0
  6
CONTINUOUS
 62
     1
 10
1277.6
 20
583.0
 11
1285.6
 21
583.0
  0
LINE
  8
0
  6
LTYPE1
 62
     2
 10
1300.6
 20
583.0
 11
1285.6
 21
583.0
  0
LINE
  8
0
  6
LTYPE1
 62
     2
 10
1270.6
 20
583.0
 11
1248.6
 21
583.0
  0
LINE
  8
0
  6
CONTINUOUS
 62
     2
 10
1359.6
 20
649.0
 11
1359.6
 21
635.0
  0
ARC
  8
0
  6
CONTINUOUS
 62
     1
 10
1359.6
 20
642.0
 40
10.0
 50
0.0
 51
30.0
  0
LINE
  8
0
  6
CONTINUOUS
 62
     1
 10
1369.6
 20
555.5
 11
1369.6
 21
642.0
  0
LINE
  8
0
  6
CONTINUOUS
 62
     1
 10
1368.6
 20
571.0
 11
1368.6
 21
611.0
  0
LINE
  8
0
  6
LTYPE1
 62
     2
 10
1346.6
 20
583.0
 11
1368.6
 21
583.0
  0
LINE
  8
0
  6
CONTINUOUS
 62
     2
 10
1368.6
 20
569.9
 11
1368.6
 21
485.0
  0
LINE
  8
0
  6
CONTINUOUS
 62
     1
 10
1328.6
 20
576.0
 11
1331.6
 21
576.0
  0
ARC
  8
0
  6
CONTINUOUS
 62
     1
 10
1308.6
 20
591.0
 40
57.0
 50
201.813245084
 51
338.186754916
  0
LINE
  8
0
  6
CONTINUOUS
 62
     2
 10
1248.6
 20
569.1
 11
1248.6
 21
485.9
  0
LINE
  8
0
  6
CONTINUOUS
 62
     1
 10
1328.6
 20
571.0
 11
1308.6
 21
571.0
  0
LINE
  8
0
  6
CONTINUOUS
 62
     1
 10
1316.6
 20
583.0
 11
1308.6
 21
583.0
  0
LINE
  8
0
  6
CONTINUOUS
 62
     1
 10
1339.6
 20
583.0
 11
1331.6
 21
583.0
  0
LINE
  8
0
  6
LTYPE1
 62
     2
 10
1316.6
 20
583.0
 11
1331.6
 21
583.0
  0
LINE
  8
0
  6
CONTINUOUS
 62
     1
 10
1350.115396986
 20
567.919232831
 11
1368.6
 21
571.0
  0
LINE
  8
0
  6
CONTINUOUS
 62
     1
 10
1263.989826945
 20
568.435028843
 11
1248.6
 21
571.0
  0
LINE
  8
0
  6
CONTINUOUS
 62
     1
 10
1247.6
 20
609.275004474
 11
1247.6
 21
554.8
  0
LINE
  8
0
  6
CONTINUOUS
 62
     1
 10
1248.6
 20
571.0
 11
1248.6
 21
607.826406343
  0
ARC
  8
0
  6
LTYPE1
 62
     2
 10
1308.6
 20
591.0
 40
32.0
 50
352.014601875
 51
278.793467294
  0
CIRCLE
  8
0
  6
CONTINUOUS
 62
     1
 10
1359.6
 20
540.0
 40
4.5
  0
LINE
  8
0
  6
CONTINUOUS
 62
     2
 10
1366.6
 20
540.0
 11
1352.6
 21
540.0
  0
LINE
  8
0
  6
CONTINUOUS
 62
     2
 10
1359.6
 20
533.0
 11
1359.6
 21
547.0
  0
LINE
  8
0
  6
CONTINUOUS
 62
     1
 10
1369.6
 20
540.0
 11
1369.6
 21
555.5
  0
ARC
  8
0
  6
CONTINUOUS
 62
     1
 10
1359.6
 20
540.0
 40
10.0
 50
270.0
 51
0.0
  0
LINE
  8
0
  6
CONTINUOUS
 62
     1
 10
1308.6
 20
530.0
 11
1359.6
 21
530.0
  0
CIRCLE
  8
0
  6
CONTINUOUS
 62
     1
 10
1257.6
 20
540.0
 40
4.5
  0
LINE
  8
0
  6
CONTINUOUS
 62
     2
 10
1250.6
 20
540.0
 11
1264.6
 21
540.0
  0
LINE
  8
0
  6
CONTINUOUS
 62
     2
 10
1257.6
 20
533.0
 11
1257.6
 21
547.0
  0
LINE
  8
0
  6
CONTINUOUS
 62
     1
 10
1247.6
 20
554.8
 11
1247.6
 21
540.0
  0
ARC
  8
0
  6
CONTINUOUS
 62
     1
 10
1257.6
 20
540.0
 40
10.0
 50
180.0
 51
270.0
  0
LINE
  8
0
  6
CONTINUOUS
 62
     1
 10
1257.6
 20
530.0
 11
1308.6
 21
530.0
  0
TEXT
  8
0
  6
CONTINUOUS
 62
     2
 10
1291.6
 20
496.9
 30
0.8
 40
12.0
  1
１２０
 50
0.0
 41
0.9
 51
0.0
  7
KANJI75
  0
LINE
  8
0
  6
CONTINUOUS
 62
     2
 10
1248.6
 20
492.9
 11
1368.6
 21
492.9
  0
LINE
  8
0
  6
CONTINUOUS
 62
     2
 10
1368.6
 20
492.9
 11
1358.940741737
 21
495.488190451
  0
LINE
  8
0
  6
CONTINUOUS
 62
     2
 10
1368.6
 20
492.9
 11
1358.940741737
 21
490.311809549
  0
LINE
  8
0
  6
CONTINUOUS
 62
     2
 10
1248.6
 20
492.9
 11
1258.259258263
 21
490.311809549
  0
LINE
  8
0
  6
CONTINUOUS
 62
     2
 10
1248.6
 20
492.9
 11
1258.259258263
 21
495.488190451
  0
ARC
  8
0
  6
LTYPE1
 62
     2
 10
1308.6
 20
591.0
 40
40.25
 50
249.193960702
 51
264.113799684
  0
LINE
  8
0
  6
CONTINUOUS
 62
     2
 10
1247.6
 20
535.000015259
 11
1247.6
 21
428.020045888
  0
LINE
  8
0
  6
CONTINUOUS
 62
     2
 10
1247.6
 20
438.020045888
 11
1259.674072829
 21
434.784807824
  0
LINE
  8
0
  6
CONTINUOUS
 62
     2
 10
1247.6
 20
438.020045888
 11
1259.674072829
 21
441.255283952
  0
LINE
  8
0
  6
CONTINUOUS
 62
     2
 10
1247.6
 20
438.020045888
 11
1369.6
 21
438.020045888
  0
LINE
  8
0
  6
CONTINUOUS
 62
     2
 10
1369.6
 20
438.020045888
 11
1357.525927171
 21
441.255283952
  0
LINE
  8
0
  6
CONTINUOUS
 62
     2
 10
1369.6
 20
438.020045888
 11
1357.525927171
 21
434.784807824
  0
LINE
  8
0
  6
CONTINUOUS
 62
     2
 10
1369.6
 20
535.0
 11
1369.6
 21
428.020045888
  0
TEXT
  8
0
  6
CONTINUOUS
 62
     3
 10
1288.35
 20
443.020045888
 30
0.0
 40
15.0
  1
１２２
 50
0.0
 41
0.9
 51
0.0
  7
KANJI35
  0
LINE
  8
0
  6
CONTINUOUS
 62
     2
 10
1156.925595435
 20
658.043416229
 11
1156.925595435
 21
782.572652293
  0
LINE
  8
0
  6
CONTINUOUS
 62
     2
 10
1308.6
 20
778.572652293
 11
1156.925595435
 21
778.572652293
  0
LINE
  8
0
  6
CONTINUOUS
 62
     2
 10
1156.925595435
 20
778.572652293
 11
1167.79290757
 21
775.863127062
  0
LINE
  8
0
  6
CONTINUOUS
 62
     2
 10
1156.925595435
 20
778.572652293
 11
1167.79290757
 21
781.282177523
  0
LINE
  8
0
  6
CONTINUOUS
 62
     2
 10
1308.6
 20
737.739142961
 11
1308.6
 21
782.572652293
  0
LINE
  8
0
  6
CONTINUOUS
 62
     2
 10
1308.6
 20
778.572652293
 11
1297.732687866
 21
781.282177523
  0
LINE
  8
0
  6
CONTINUOUS
 62
     2
 10
1308.6
 20
778.572652293
 11
1297.732687866
 21
775.863127062
  0
LINE
  8
0
  6
LTYPE6
 62
     2
 10
1193.483016023
 20
669.630274068
 11
1228.838355082
 21
704.985613127
  0
ARC
  8
0
  6
LTYPE1
 62
     1
 10
1211.726370977
 20
687.873629023
 40
16.0
 50
225.0
 51
99.340912304
  0
ARC
  8
0
  6
CONTINUOUS
 62
     1
 10
1211.726370977
 20
687.873629023
 40
16.0
 50
99.340912304
 51
170.659087696
  0
LINE
  8
0
  6
CONTINUOUS
 62
     1
 10
1197.105465137
 20
678.202470651
 11
1188.922177284
 21
670.019182798
  0
LINE
  8
0
  6
CONTINUOUS
 62
     1
 10
1191.772701496
 20
684.890522289
 11
1156.925595435
 21
650.043416229
  0
LINE
  8
0
  6
CONTINUOUS
 62
     1
 10
1196.192118878
 20
677.996231173
 11
1188.568623894
 21
670.372736188
  0
LINE
  8
0
  6
LTYPE3
 62
     2
 10
1188.250425842
 20
683.06530291
 11
1201.826876041
 21
669.488852712
  0
LINE
  8
0
  6
LTYPE1
 62
     2
 10
1201.296545955
 20
682.393551468
 11
1206.246293423
 21
677.443804
  0
LINE
  8
0
  6
LTYPE1
 62
     2
 10
1206.246293423
 20
677.443804
 11
1200.920895477
 21
672.118406054
  0
ARC
  8
0
  6
LTYPE1
 62
     1
 10
1211.726370977
 20
687.873629023
 40
16.0
 50
170.659087696
 51
225.0
  0
LINE
  8
0
  6
LTYPE1
 62
     2
 10
1201.296545955
 20
682.393551468
 11
1197.105465137
 21
678.202470651
  0
LINE
  8
0
  6
LTYPE1
 62
     1
 10
1192.634487885
 20
685.752308679
 11
1191.772701496
 21
684.890522289
  0
LINE
  8
0
  6
LTYPE1
 62
     1
 10
1198.291342135
 20
680.09545443
 11
1196.192118878
 21
677.996231173
  0
LINE
  8
0
  6
LTYPE6
 62
     2
 10
1199.139870272
 20
700.460129728
 11
1313.844043872
 21
585.755956128
  0
LINE
  8
0
  6
CONTINUOUS
 62
     1
 10
1193.341594667
 20
687.873629023
 11
1269.002020254
 21
578.272077939
  0
LINE
  8
0
  6
CONTINUOUS
 62
     1
 10
1193.341594667
 20
687.873629023
 11
1211.726370977
 21
706.258405333
  0
LINE
  8
0
  6
LTYPE1
 62
     1
 10
1192.634487885
 20
685.752308679
 11
1199.646630132
 21
678.740166432
  0
CIRCLE
  8
0
  6
CONTINUOUS
 62
     1
 10
1211.726370977
 20
687.873629023
 40
6.49995
  0
LINE
  8
0
  6
CONTINUOUS
 62
     1
 10
1213.672979378
 20
695.119338067
 11
1206.427270333
 21
693.172729667
  0
CIRCLE
  8
0
  6
LTYPE1
 62
     2
 10
1211.726370977
 20
687.873629023
 40
3.2
  0
CIRCLE
  8
0
  6
CONTINUOUS
 62
     1
 10
1211.726370977
 20
687.873629023
 40
4.0
  0
LINE
  8
0
  6
CONTINUOUS
 62
     1
 10
1218.972080022
 20
689.820237423
 11
1217.025471622
 21
682.574528378
  0
LINE
  8
0
  6
CONTINUOUS
 62
     1
 10
1218.972080022
 20
689.820237423
 11
1213.672979378
 21
695.119338067
  0
LINE
  8
0
  6
LTYPE1
 62
     1
 10
1213.847691321
 20
706.965512115
 11
1214.709477711
 21
707.827298504
  0
LINE
  8
0
  6
LTYPE3
 62
     2
 10
1214.837640815
 20
713.046630433
 11
1230.111147288
 21
697.773123959
  0
LINE
  8
0
  6
LTYPE1
 62
     2
 10
1217.206448532
 20
698.303454045
 11
1222.156196
 21
693.353706577
  0
LINE
  8
0
  6
LTYPE1
 62
     2
 10
1227.481593946
 20
698.679104523
 11
1222.156196
 21
693.353706577
  0
LINE
  8
0
  6
CONTINUOUS
 62
     1
 10
1221.603768827
 20
703.407881122
 11
1229.227263812
 21
711.031376106
  0
LINE
  8
0
  6
CONTINUOUS
 62
     1
 10
1214.709477711
 20
707.827298504
 11
1249.556583771
 21
742.674404565
  0
LINE
  8
0
  6
LTYPE1
 62
     1
 10
1219.50454557
 20
701.308657865
 11
1221.603768827
 21
703.407881122
  0
LINE
  8
0
  6
CONTINUOUS
 62
     1
 10
1209.779762577
 20
680.627919978
 11
1204.480661933
 21
685.927020622
  0
LINE
  8
0
  6
CONTINUOUS
 62
     1
 10
1204.480661933
 20
685.927020622
 11
1206.427270333
 21
693.172729667
  0
LINE
  8
0
  6
CONTINUOUS
 62
     1
 10
1209.779762577
 20
680.627919978
 11
1217.025471622
 21
682.574528378
  0
LINE
  8
0
  6
LTYPE1
 62
     1
 10
1213.847691321
 20
706.965512115
 11
1220.859833568
 21
699.953369868
  0
LINE
  8
0
  6
CONTINUOUS
 62
     1
 10
1229.580817202
 20
710.677822716
 11
1219.858098961
 21
700.955104475
  0
LINE
  8
0
  6
LTYPE1
 62
     2
 10
1221.397529349
 20
702.494534863
 11
1219.858098961
 21
700.955104475
  0
LINE
  8
0
  6
CONTINUOUS
 62
     1
 10
1188.922177284
 20
670.019182798
 11
1193.871924752
 21
665.069435329
  0
LINE
  8
0
  6
CONTINUOUS
 62
     1
 10
1188.497913215
 20
670.443446866
 11
1183.44209973
 21
662.4177849
  0
LINE
  8
0
  6
CONTINUOUS
 62
     1
 10
1182.381439558
 20
600.545941546
 11
1186.624080245
 21
596.303300859
  0
LINE
  8
0
  6
LTYPE3
 62
     2
 10
1191.432406357
 20
604.788582233
 11
1158.198387642
 21
638.022600949
  0
LINE
  8
0
  6
LTYPE3
 62
     2
 10
1180.260119215
 20
658.67011896
 11
1213.49413793
 21
625.436100244
  0
LINE
  8
0
  6
CONTINUOUS
 62
     1
 10
1213.847691321
 20
632.012193309
 11
1185.563420074
 21
603.727922061
  0
LINE
  8
0
  6
CONTINUOUS
 62
     1
 10
1185.563420074
 20
603.727922061
 11
1185.634130752
 21
603.657211383
  0
LINE
  8
0
  6
CONTINUOUS
 62
     1
 10
1157.279148826
 20
632.012193309
 11
1185.563420074
 21
603.727922061
  0
LINE
  8
0
  6
CONTINUOUS
 62
     1
 10
1213.847691321
 20
632.012193309
 11
1185.563420074
 21
660.296464556
  0
LINE
  8
0
  6
LTYPE3
 62
     2
 10
1159.683311882
 20
657.8923015
 11
1200.695505191
 21
616.880108191
  0
LINE
  8
0
  6
CONTINUOUS
 62
     1
 10
1183.44209973
 20
662.4177849
 11
1174.603264965
 21
653.578950135
  0
LINE
  8
0
  6
CONTINUOUS
 62
     1
 10
1174.603264965
 20
653.578950135
 11
1163.996663247
 21
642.972348417
  0
ARC
  8
0
  6
CONTINUOUS
 62
     1
 10
1175.310371746
 20
627.133156519
 40
2.0
 50
135.0
 51
225.0
  0
LINE
  8
0
  6
CONTINUOUS
 62
     1
 10
1189.028243301
 20
643.679455198
 11
1173.896158184
 21
628.547370081
  0
ARC
  8
0
  6
CONTINUOUS
 62
     1
 10
1190.442456864
 20
642.265241636
 40
2.0
 50
45.0
 51
135.0
  0
LINE
  8
0
  6
CONTINUOUS
 62
     1
 10
1173.896158184
 20
625.718942956
 11
1189.028243301
 21
610.586857839
  0
ARC
  8
0
  6
CONTINUOUS
 62
     1
 10
1190.442456864
 20
612.001071401
 40
2.0
 50
225.0
 51
315.0
  0
LINE
  8
0
  6
LTYPE3
 62
     2
 10
1180.472251249
 20
617.162950904
 11
1200.554083835
 21
637.24478349
  0
LINE
  8
0
  6
CONTINUOUS
 62
     1
 10
1167.532197153
 20
660.650017947
 11
1186.765501602
 21
641.416713499
  0
LINE
  8
0
  6
CONTINUOUS
 62
     1
 10
1169.653517497
 20
637.315494168
 11
1160.814682732
 21
628.476659403
  0
LINE
  8
0
  6
CONTINUOUS
 62
     1
 10
1189.098953979
 20
656.76093065
 11
1180.189408537
 21
647.851385207
  0
LINE
  8
0
  6
CONTINUOUS
 62
     1
 10
1166.047272913
 20
640.780317396
 11
1157.279148826
 21
632.012193309
  0
LINE
  8
0
  6
CONTINUOUS
 62
     1
 10
1185.563420074
 20
660.296464556
 11
1176.724585309
 21
651.457629791
  0
LINE
  8
0
  6
CONTINUOUS
 62
     1
 10
1156.925595435
 20
650.043416229
 11
1176.158899884
 21
630.810111781
  0
LINE
  8
0
  6
CONTINUOUS
 62
     1
 10
1200.920895477
 20
672.118406054
 11
1193.871924752
 21
665.069435329
  0
LINE
  8
0
  6
CONTINUOUS
 62
     1
 10
1191.856670426
 20
643.679455198
 11
1206.988755543
 21
628.547370081
  0
LINE
  8
0
  6
CONTINUOUS
 62
     1
 10
1206.988755543
 20
625.718942956
 11
1191.856670426
 21
610.586857839
  0
LINE
  8
0
  6
CONTINUOUS
 62
     1
 10
1227.995224706
 20
637.67444532
 11
1186.624080245
 21
596.303300859
  0
LINE
  8
0
  6
CONTINUOUS
 62
     1
 10
1182.381439558
 20
600.545941546
 11
1224.529861702
 21
642.69436369
  0
ARC
  8
0
  6
CONTINUOUS
 62
     1
 10
1205.574541981
 20
627.133156519
 40
2.0
 50
315.0
 51
45.0
  0
LINE
  8
0
  6
CONTINUOUS
 62
     1
 10
1220.211652352
 20
629.890872965
 11
1240.364195615
 21
609.738329701
  0
LINE
  8
0
  6
CONTINUOUS
 62
     1
 10
1321.327922061
 20
630.597979746
 11
1211.726370977
 21
706.258405333
  0
LINE
  8
0
  6
CONTINUOUS
 62
     1
 10
1193.341594667
 20
687.873629023
 11
1211.726370977
 21
706.258405333
  0
LINE
  8
0
  6
CONTINUOUS
 62
     1
 10
1229.580817202
 20
710.677822716
 11
1234.530564671
 21
705.728075248
  0
LINE
  8
0
  6
CONTINUOUS
 62
     1
 10
1229.156553134
 20
711.102086785
 11
1237.1822151
 21
716.15790027
  0
LINE
  8
0
  6
CONTINUOUS
 62
     1
 10
1234.530564671
 20
705.728075248
 11
1225.531146496
 21
696.728657072
  0
LINE
  8
0
  6
LTYPE3
 62
     2
 10
1240.293484937
 20
741.33090168
 11
1281.305678246
 21
700.318708371
  0
LINE
  8
0
  6
CONTINUOUS
 62
     1
 10
1271.123340597
 20
738.785317268
 11
1242.83906935
 21
710.501046021
  0
LINE
  8
0
  6
CONTINUOUS
 62
     1
 10
1267.537938583
 20
735.199915254
 11
1242.83906935
 21
710.501046021
  0
LINE
  8
0
  6
CONTINUOUS
 62
     1
 10
1267.587806691
 20
742.320851174
 11
1239.303535444
 21
714.036579926
  0
LINE
  8
0
  6
CONTINUOUS
 62
     1
 10
1249.556583771
 20
742.674404565
 11
1258.748971926
 21
733.482016409
  0
LINE
  8
0
  6
CONTINUOUS
 62
     1
 10
1238.949982053
 20
732.067802847
 11
1248.142370209
 21
722.875414691
  0
LINE
  8
0
  6
LTYPE3
 62
     2
 10
1262.284505832
 20
740.694505577
 11
1295.518524548
 21
707.460486861
  0
LINE
  8
0
  6
CONTINUOUS
 62
     1
 10
1295.872077939
 20
714.036579926
 11
1267.587806691
 21
742.320851174
  0
CIRCLE
  8
0
  6
CONTINUOUS
 62
     1
 10
1266.456435841
 20
715.167950776
 40
9.36
  0
LINE
  8
0
  6
LTYPE3
 62
     2
 10
1275.648823997
 20
724.360338932
 11
1257.264047686
 21
705.975562621
  0
CIRCLE
  8
0
  6
CONTINUOUS
 62
     2
 10
1266.456435841
 20
715.167950776
 40
10.47
  0
LINE
  8
0
  6
LTYPE3
 62
     2
 10
1273.456792975
 20
686.812968851
 11
1240.222774259
 21
720.046987567
  0
LINE
  8
0
  6
CONTINUOUS
 62
     1
 10
1239.303535444
 20
714.036579926
 11
1267.587806691
 21
685.752308679
  0
LINE
  8
0
  6
CONTINUOUS
 62
     1
 10
1237.1822151
 20
716.15790027
 11
1246.021049865
 21
724.996735035
  0
LINE
  8
0
  6
CONTINUOUS
 62
     1
 10
1303.296699141
 20
712.975919755
 11
1261.92555468
 21
671.604775294
  0
LINE
  8
0
  6
CONTINUOUS
 62
     1
 10
1256.90563631
 20
675.070138298
 11
1299.054058454
 21
717.218560442
  0
LINE
  8
0
  6
CONTINUOUS
 62
     1
 10
1299.054058454
 20
717.218560442
 11
1303.296699141
 21
712.975919755
  0
LINE
  8
0
  6
CONTINUOUS
 62
     1
 10
1293.043650814
 20
716.865007051
 11
1264.759379566
 21
688.580735804
  0
LINE
  8
0
  6
CONTINUOUS
 62
     1
 10
1275.012427894
 20
717.218560442
 11
1284.204816049
 21
708.026172286
  0
LINE
  8
0
  6
CONTINUOUS
 62
     1
 10
1264.405826176
 20
706.611958724
 11
1273.598214331
 21
697.419570569
  0
LINE
  8
0
  6
CONTINUOUS
 62
     1
 10
1262.638059223
 20
690.702056147
 11
1271.476893988
 21
699.540890912
  0
LINE
  8
0
  6
CONTINUOUS
 62
     1
 10
1269.709127035
 20
679.388347648
 11
1289.861670299
 21
659.235804385
  0
ARC
  8
0
  6
CONTINUOUS
 62
     1
 10
1288.447456736
 20
657.821590822
 40
2.0
 50
315.0
 51
45.0
  0
LINE
  8
0
  6
CONTINUOUS
 62
     1
 10
1287.740349955
 20
654.286056916
 11
1289.861670299
 21
656.40737726
  0
LINE
  8
0
  6
CONTINUOUS
 62
     1
 10
1308.396991924
 20
639.587359826
 11
1315.317514421
 21
646.507882323
  0
LINE
  8
0
  6
CONTINUOUS
 62
     1
 10
1318.145941546
 20
646.507882323
 11
1329.459650045
 21
635.194173824
  0
ARC
  8
0
  6
CONTINUOUS
 62
     1
 10
1316.731727984
 20
645.093668761
 40
2.0
 50
45.0
 51
135.0
  0
ARC
  8
0
  6
CONTINUOUS
 62
     1
 10
1328.045436483
 20
633.779960262
 40
2.0
 50
315.0
 51
45.0
  0
LINE
  8
0
  6
CONTINUOUS
 62
     1
 10
1324.509902577
 20
627.415999231
 11
1329.459650045
 21
632.365746699
  0
LINE
  8
0
  6
CONTINUOUS
 62
     1
 10
1326.807999616
 20
629.71409627
 11
1337.061047943
 21
619.461047943
  0
LINE
  8
0
  6
CONTINUOUS
 62
     1
 10
1333.702290732
 20
618.223611076
 11
1321.327922061
 21
630.597979746
  0
LINE
  8
0
  6
LTYPE1
 62
     2
 10
1272.184000769
 20
575.090097423
 11
1324.807999616
 21
627.71409627
  0
LINE
  8
0
  6
LTYPE1
 62
     2
 10
1321.151145366
 20
624.05724202
 11
1331.404215272
 21
613.804172114
  0
ARC
  8
0
  6
CONTINUOUS
 62
     1
 10
1241.778409178
 20
611.152543264
 40
2.0
 50
225.0
 51
315.0
  0
LINE
  8
0
  6
CONTINUOUS
 62
     1
 10
1245.313943084
 20
611.859650045
 11
1243.19262274
 21
609.738329701
  0
LINE
  8
0
  6
CONTINUOUS
 62
     1
 10
1259.782337765
 20
590.972705667
 11
1253.092117677
 21
584.282485579
  0
ARC
  8
0
  6
CONTINUOUS
 62
     1
 10
1254.506331239
 20
582.868272016
 40
2.0
 50
135.0
 51
225.0
  0
LINE
  8
0
  6
CONTINUOUS
 62
     1
 10
1253.092117677
 20
581.454058454
 11
1264.405826176
 21
570.140349955
  0
ARC
  8
0
  6
CONTINUOUS
 62
     1
 10
1265.820039738
 20
571.554563517
 40
2.0
 50
225.0
 51
315.0
  0
LINE
  8
0
  6
CONTINUOUS
 62
     1
 10
1267.234253301
 20
570.140349955
 11
1272.184000769
 21
575.090097423
  0
LINE
  8
0
  6
CONTINUOUS
 62
     1
 10
1269.88590373
 20
572.792000384
 11
1280.138967316
 21
562.538936798
  0
LINE
  8
0
  6
LTYPE1
 62
     2
 10
1275.54275798
 20
578.448854634
 11
1285.795806307
 21
568.195806307
  0
ARC
  8
0
  6
CONTINUOUS
 62
     1
 10
1308.6
 20
591.0
 40
32.0
 50
279.340912304
 51
349.457045617
  0
LINE
  8
0
  6
CONTINUOUS
 62
     1
 10
1353.147727215
 20
598.778174593
 11
1300.821825407
 21
546.452272785
  0
ARC
  8
0
  6
CONTINUOUS
 62
     1
 10
1308.6
 20
591.0
 40
40.25
 50
265.237896308
 51
4.762103692
  0
ARC
  8
0
  6
CONTINUOUS
 62
     1
 10
1308.6
 20
591.0
 40
40.25
 50
225.000030718
 51
248.182639826
  0
LINE
  8
0
  6
LTYPE6
 62
     2
 10
1339.147012947
 20
621.547012947
 11
1264.052272785
 21
546.452272785
  0
LINE
  8
0
  6
LTYPE6
 62
     2
 10
1339.147012947
 20
621.547012947
 11
1264.052272785
 21
546.452272785
  0
LINE
  8
0
  6
CONTINUOUS
 62
     1
 10
1281.376388924
 20
565.897709268
 11
1269.002020254
 21
578.272077939
  0
LINE
  8
0
  6
CONTINUOUS
 62
     1
 10
1285.619029611
 20
570.140349955
 11
1281.376388924
 21
565.897709268
  0
LINE
  8
0
  6
CONTINUOUS
 62
     1
 10
1287.740349955
 20
568.019029611
 11
1283.497709268
 21
563.776388924
  0
LINE
  8
0
  6
CONTINUOUS
 62
     1
 10
1300.821825407
 20
546.452272785
 11
1283.497709268
 21
563.776388924
  0
LINE
  8
0
  6
CONTINUOUS
 62
     1
 10
1333.702290732
 20
618.223611076
 11
1329.459650045
 21
613.980970389
  0
LINE
  8
0
  6
CONTINUOUS
 62
     1
 10
1353.147727215
 20
598.778174593
 11
1335.823611076
 21
616.102290732
  0
LINE
  8
0
  6
CONTINUOUS
 62
     1
 10
1335.823611076
 20
616.102290732
 11
1331.580970389
 21
611.859650045
  0
ARC
  8
0
  6
CONTINUOUS
 62
     1
 10
1308.6
 20
591.0
 40
40.25
 50
21.817360174
 51
45.0
  0
ARC
  8
0
  6
LTYPE1
 62
     2
 10
1308.6
 20
591.0
 40
40.25
 50
5.886200316
 51
21.817360174
  0
TEXT
  8
0
  6
CONTINUOUS
 62
     2
 10
1272.681202688
 20
474.319799552
 30
1.2
 40
12.8
  1
トラニオン幅
 50
0.0
 41
0.84375
 51
0.0
  7
KANJI76
  0
ARC
  8
0
  6
LTYPE1
 62
     2
 10
1266.6
 20
712.020045888
 40
2.0
 50
90.0
 51
180.0
  0
LINE
  8
0
  6
LTYPE1
 62
     2
 10
1264.6
 20
706.611958724
 11
1264.6
 21
712.020045888
  0
ARC
  8
0
  6
LTYPE1
 62
     2
 10
1274.6
 20
714.0
 40
2.0
 50
90.0
 51
180.0
  0
LINE
  8
0
  6
LTYPE1
 62
     2
 10
1266.6
 20
714.020045888
 11
1272.600100462
 21
714.020045888
  0
LINE
  8
2
  6
CONTINUOUS
 62
     2
 10
1265.1
 20
725.3
 11
1266.198851058
 21
735.23944296
  0
LINE
  8
2
  6
CONTINUOUS
 62
     2
 10
1265.1
 20
725.3
 11
1261.081911451
 21
734.457235632
  0
LINE
  8
2
  6
CONTINUOUS
 62
     2
 10
1265.074649635
 20
725.070698219
 11
1239.238779867
 21
845.772652293
  0
TEXT
  8
2
  6
CONTINUOUS
 62
     2
 10
1124.719716322
 20
849.772652293
 30
0.0
 40
15.0
  1
２－ＰＦ１／２
 50
0.0
 41
0.9
 51
0.0
  7
KANJI35
  0
LINE
  8
2
  6
CONTINUOUS
 62
     2
 10
1239.238779867
 20
845.772652293
 11
1124.719716322
 21
845.772652293
  0
TEXT
  8
0
  6
CONTINUOUS
 62
     2
 10
1203.362797718
 20
782.572652293
 30
0.0
 40
15.0
  1
１５２
 50
0.0
 41
0.9
 51
0.0
  7
KANJI35
  0
ARC
  8
0
  6
CONTINUOUS
 62
     1
 10
1261.1
 20
687.05
 40
5.0
 50
92.3
 51
168.5
  0
LINE
  8
0
  6
CONTINUOUS
 62
     1
 10
1260.9
 20
692.05
 11
1262.1
 21
692.05
  0
LINE
  8
0
  6
CONTINUOUS
 62
     1
 10
1361.6
 20
688.0
 11
1361.6
 21
640.5
  0
LINE
  8
0
  6
CONTINUOUS
 62
     1
 10
1350.2
 20
688.05
 11
1360.8
 21
688.05
  0
LINE
  8
0
  6
CONTINUOUS
 62
     1
 10
1354.9
 20
692.05
 11
1356.1
 21
692.05
  0
LINE
  8
0
  6
LTYPE4
 62
     2
 10
1355.5
 20
695.45
 11
1355.5
 21
682.05
  0
ARC
  8
0
  6
CONTINUOUS
 62
     1
 10
1358.6
 20
640.5
 40
3.0
 50
270.0
 51
0.0
  0
LINE
  8
0
  6
CONTINUOUS
 62
     1
 10
1353.6
 20
637.5
 11
1353.6
 21
613.787483461
  0
LINE
  8
0
  6
LTYPE2
 62
     2
 10
1324.6
 20
663.5
 11
1293.6
 21
663.5
  0
CIRCLE
  8
0
  6
LTYPE1
 62
     2
 10
1308.6
 20
663.5
 40
11.0
  0
LINE
  8
0
  6
CONTINUOUS
 62
     1
 10
1344.6
 20
714.020045888
 11
1344.6
 21
688.0
  0
LINE
  8
0
  6
CONTINUOUS
 62
     1
 10
1352.6
 20
688.0
 11
1352.6
 21
712.020045888
  0
LINE
  8
0
  6
LTYPE1
 62
     2
 10
1272.6
 20
713.267046966
 11
1272.6
 21
688.0
  0
LINE
  8
0
  6
LTYPE1
 62
     2
 10
1264.6
 20
688.0
 11
1264.6
 21
706.611958724
  0
LINE
  8
0
  6
LTYPE1
 62
     2
 10
1274.6
 20
716.0
 11
1293.908657865
 21
716.0
  0
LINE
  8
0
  6
CONTINUOUS
 62
     1
 10
1298.0
 20
716.0
 11
1293.908657865
 21
716.0
  0
LINE
  8
0
  6
CONTINUOUS
 62
     1
 10
1342.6
 20
716.0
 11
1300.0
 21
716.0
  0
LINE
  8
0
  6
CONTINUOUS
 62
     1
 10
1265.0
 20
688.0
 11
1255.6
 21
688.0
  0
LINE
  8
0
  6
CONTINUOUS
 62
     1
 10
1361.6
 20
688.0
 11
1278.0
 21
688.0
  0
LINE
  8
0
  6
CONTINUOUS
 62
     1
 10
1263.0
 20
682.0
 11
1255.6
 21
682.0
  0
LINE
  8
0
  6
CONTINUOUS
 62
     1
 10
1361.6
 20
682.0
 11
1272.0
 21
682.0
  0
LINE
  8
0
  6
CONTINUOUS
 62
     1
 10
1262.0
 20
680.5
 11
1255.6
 21
680.5
  0
LINE
  8
0
  6
CONTINUOUS
 62
     1
 10
1361.6
 20
680.5
 11
1271.0
 21
680.5
  0
LINE
  8
0
  6
LTYPE1
 62
     2
 10
1272.0
 20
682.0
 11
1263.0
 21
682.0
  0
LINE
  8
0
  6
LTYPE1
 62
     2
 10
1271.0
 20
680.5
 11
1262.0
 21
680.5
  0
LINE
  8
0
  6
LTYPE1
 62
     2
 10
1278.0
 20
688.0
 11
1265.0
 21
688.0
  0
LINE
  8
0
  6
CONTINUOUS
 62
     1
 10
1256.2
 20
688.05
 11
1265.29011537
 21
688.05
  0
ARC
  8
0
  6
CONTINUOUS
 62
     1
 10
1355.9
 20
687.05
 40
5.0
 50
11.5
 51
126.285267125
  0
ARC
  8
0
  6
CONTINUOUS
 62
     1
 10
1359.6
 20
642.0
 40
10.0
 50
30.0
 51
75.068582822
  0
ARC
  8
0
  6
CONTINUOUS
 62
     1
 10
1308.6
 20
591.0
 40
57.0
 50
21.972132448
 51
36.829491602
  0
LINE
  8
0
  6
CONTINUOUS
 62
     1
 10
1358.6
 20
637.5
 11
1327.0
 21
637.5
  0
LINE
  8
0
  6
CONTINUOUS
 62
     1
 10
1329.0
 20
636.0
 11
1353.6
 21
636.0
  0
LINE
  8
0
  6
CONTINUOUS
 62
     1
 10
1255.6
 20
688.0
 11
1255.6
 21
676.0
  0
LINE
  8
0
  6
LTYPE1
 62
     2
 10
1255.6
 20
676.0
 11
1255.6
 21
640.5
  0
ARC
  8
0
  6
LTYPE1
 62
     2
 10
1258.6
 20
640.5
 40
3.0
 50
180.0
 51
270.0
  0
LINE
  8
0
  6
LTYPE1
 62
     2
 10
1327.0
 20
637.5
 11
1258.6
 21
637.5
  0
LINE
  8
0
  6
LTYPE1
 62
     2
 10
1263.6
 20
636.0
 11
1328.0
 21
636.0
  0
LINE
  8
0
  6
LTYPE1
 62
     2
 10
1263.6
 20
637.5
 11
1263.6
 21
613.787483461
  0
LINE
  8
0
  6
LTYPE1
 62
     2
 10
1247.6
 20
642.0
 11
1247.6
 21
609.275004474
  0
LINE
  8
0
  6
LTYPE1
 62
     2
 10
1248.6
 20
607.826406343
 11
1248.6
 21
611.0
  0
LINE
  8
0
  6
LTYPE1
 62
     2
 10
1270.6
 20
615.088309077
 11
1252.57747451
 21
611.739142961
  0
LINE
  8
0
  6
LTYPE1
 62
     2
 10
1252.57747451
 20
611.739142961
 11
1248.6
 21
611.0
  0
ARC
  8
0
  6
LTYPE1
 62
     2
 10
1257.6
 20
642.0
 40
10.0
 50
104.574216198
 51
180.0
  0
ARC
  8
0
  6
LTYPE1
 62
     2
 10
1308.6
 20
591.0
 40
57.0
 50
37.629531997
 51
158.027867552
  0
LINE
  8
0
  6
CONTINUOUS
 62
     2
 10
1402.9
 20
591.0
 11
1432.1
 21
591.0
  0
LINE
  8
0
  6
CONTINUOUS
 62
     2
 10
1424.1
 20
591.0
 11
1438.1
 21
591.0
  0
LINE
  8
0
  6
CONTINUOUS
 62
     2
 10
1428.1
 20
591.0
 11
1424.864761936
 21
578.925927171
  0
TEXT
  8
0
  6
CONTINUOUS
 62
     3
 10
1423.1
 20
547.0
 30
0.0
 40
15.0
  1
６１
 50
90.0
 41
0.9
 51
0.0
  7
KANJI35
  0
LINE
  8
0
  6
CONTINUOUS
 62
     2
 10
1428.1
 20
530.0
 11
1424.864761936
 21
542.074072829
  0
LINE
  8
0
  6
CONTINUOUS
 62
     2
 10
1384.600015259
 20
530.0
 11
1438.1
 21
530.0
  0
LINE
  8
0
  6
CONTINUOUS
 62
     2
 10
1424.1
 20
591.0
 11
1438.1
 21
591.0
  0
LINE
  8
0
  6
CONTINUOUS
 62
     2
 10
1428.1
 20
591.0
 11
1424.864761936
 21
603.074072829
  0
LINE
  8
0
  6
CONTINUOUS
 62
     2
 10
1428.1
 20
716.0
 11
1424.864761936
 21
703.925927171
  0
TEXT
  8
0
  6
CONTINUOUS
 62
     3
 10
1423.1
 20
633.25
 30
0.0
 40
15.0
  1
１２５
 50
90.0
 41
0.9
 51
0.0
  7
KANJI35
  0
LINE
  8
0
  6
CONTINUOUS
 62
     2
 10
1428.1
 20
591.0
 11
1431.335238064
 21
578.925927171
  0
LINE
  8
0
  6
CONTINUOUS
 62
     2
 10
1428.1
 20
591.0
 11
1428.1
 21
530.0
  0
LINE
  8
0
  6
CONTINUOUS
 62
     2
 10
1428.1
 20
530.0
 11
1431.335238064
 21
542.074072829
  0
LINE
  8
0
  6
CONTINUOUS
 62
     2
 10
1428.1
 20
591.0
 11
1431.335238064
 21
603.074072829
  0
LINE
  8
0
  6
CONTINUOUS
 62
     2
 10
1428.1
 20
591.0
 11
1428.1
 21
716.0
  0
LINE
  8
0
  6
CONTINUOUS
 62
     2
 10
1428.1
 20
716.0
 11
1431.335238064
 21
703.925927171
  0
LINE
  8
0
  6
CONTINUOUS
 62
     2
 10
1373.6
 20
599.0
 11
1404.864761936
 21
599.0
  0
LINE
  8
0
  6
CONTINUOUS
 62
     2
 10
1399.864761936
 20
599.0
 11
1403.1
 21
611.074072829
  0
LINE
  8
0
  6
CONTINUOUS
 62
     2
 10
1399.864761936
 20
599.0
 11
1396.629523872
 21
611.074072829
  0
LINE
  8
0
  6
CONTINUOUS
 62
     2
 10
1399.864761936
 20
599.0
 11
1399.864761936
 21
583.0
  0
LINE
  8
0
  6
CONTINUOUS
 62
     2
 10
1399.864761936
 20
583.0
 11
1399.864761936
 21
564.25
  0
LINE
  8
0
  6
CONTINUOUS
 62
     2
 10
1399.864761936
 20
583.0
 11
1396.629523872
 21
570.925927171
  0
LINE
  8
0
  6
CONTINUOUS
 62
     2
 10
1399.864761936
 20
583.0
 11
1403.1
 21
570.925927171
  0
LINE
  8
0
  6
CONTINUOUS
 62
     2
 10
1373.6
 20
583.0
 11
1404.864761936
 21
583.0
  0
TEXT
  8
0
  6
CONTINUOUS
 62
     3
 10
1397.364761936
 20
617.75
 30
0.0
 40
15.0
  1
φ１６Ｈ１０深さ２２
 50
90.0
 41
0.9
 51
0.0
  7
KANJI35
  0
LINE
  8
0
  6
CONTINUOUS
 62
     2
 10
1398.6
 20
716.0
 11
1438.1
 21
716.0
  0
LINE
  8
0
  6
CONTINUOUS
 62
     2
 10
1367.600015259
 20
716.0
 11
1380.6
 21
716.0
  0
LINE
  8
0
  6
CONTINUOUS
 62
     2
 10
1399.864761936
 20
751.75
 11
1399.864761936
 21
599.0
  0
LINE
  8
7
  6
CONTINUOUS
 62
     2
 10
1371.060039412
 20
591.0
 11
1433.1
 21
591.0
  0
TEXT
  8
0
  6
CONTINUOUS
 62
     2
 10
1377.9166945
 20
100.999995
 30
1.5
 40
17.5
  1
０７．１１．０７
 50
0.0
 41
0.571428571
 51
0.0
  7
KANJI77
  0
TEXT
  8
0
  6
CONTINUOUS
 62
     2
 10
867.25
 20
1188.35
 30
0.8
 40
12.0
  1
ＭＣＥＬＢＢ０１－　　１Ｌ
 50
0.0
 41
0.833333333
 51
0.0
  7
KANJI78
  0
TEXT
  8
0
  6
CONTINUOUS
 62
     2
 10
867.25
 20
1160.35
 30
0.8
 40
12.0
  1
ＭＣＥＬＢＢ０１－　　２Ｌ
 50
0.0
 41
0.833333333
 51
0.0
  7
KANJI78
  0
TEXT
  8
0
  6
CONTINUOUS
 62
     2
 10
867.25
 20
1132.35
 30
0.8
 40
12.0
  1
ＭＣＥＬＢＢ０１－　　３Ｌ
 50
0.0
 41
0.833333333
 51
0.0
  7
KANJI78
  0
TEXT
  8
0
  6
CONTINUOUS
 62
     2
 10
867.25
 20
1104.35
 30
0.8
 40
12.0
  1
ＭＣＥＬＢＢ０１－　　４Ｌ
 50
0.0
 41
0.833333333
 51
0.0
  7
KANJI78
  0
TEXT
  8
0
  6
CONTINUOUS
 62
     2
 10
867.25
 20
1076.35
 30
0.8
 40
12.0
  1
ＭＣＥＬＢＢ０１－　　５Ｌ
 50
0.0
 41
0.833333333
 51
0.0
  7
KANJI78
  0
TEXT
  8
0
  6
CONTINUOUS
 62
     2
 10
867.25
 20
1048.35
 30
0.8
 40
12.0
  1
ＭＣＥＬＢＢ０１－　　６Ｌ
 50
0.0
 41
0.833333333
 51
0.0
  7
KANJI78
  0
TEXT
  8
0
  6
CONTINUOUS
 62
     2
 10
867.25
 20
1020.35
 30
0.8
 40
12.0
  1
ＭＣＥＬＢＢ０１－　　７Ｌ
 50
0.0
 41
0.833333333
 51
0.0
  7
KANJI78
  0
TEXT
  8
0
  6
CONTINUOUS
 62
     2
 10
867.25
 20
992.35
 30
0.8
 40
12.0
  1
ＭＣＥＬＢＢ０１－　　　Ｌ
 50
0.0
 41
0.833333333
 51
0.0
  7
KANJI78
  0
TEXT
  8
0
  6
CONTINUOUS
 62
     2
 10
1826.75
 20
1275.625
 30
1.0
 40
15.0
  1
ＭＣＥＬＢＢ０１－　　Ｌ
 50
0.0
 41
0.833333333
 51
0.0
  7
KANJI79
  0
TEXT
  8
0
  6
CONTINUOUS
 62
     2
 10
1555.75
 20
205.0
 30
0.0
 40
17.5
  1
ＭＣＥＬＢＢ０１－Ｌ
 50
0.0
 41
0.793650794
 51
0.0
  7
KANJI80
  0
TEXT
  8
0
  6
CONTINUOUS
 62
     2
 10
1907.4166805
 20
125.999995
 30
0.0
 40
15.0
  1
１
 50
0.0
 41
0.9
 51
0.0
  7
KANJI35
  0
POLYLINE
  8
0
  6
CONTINUOUS
 62
     4
 66
     1
  0
VERTEX
  8
0
  6
CONTINUOUS
 62
     4
 10
1012.66674325
 20
122.1666615
  0
VERTEX
  8
0
  6
CONTINUOUS
 62
     4
 10
998.583411
 20
100.4999965
  0
VERTEX
  8
0
  6
CONTINUOUS
 62
     4
 10
1026.7500755
 20
100.4999965
  0
SEQEND
  0
LINE
  8
0
  6
CONTINUOUS
 62
     4
 10
1012.66674325
 20
122.1666615
 11
1026.7500755
 21
100.4999965
  0
TEXT
  8
0
  6
CONTINUOUS
 62
     2
 10
1007.0834085
 20
100.999997
 30
0.0
 40
15.0
  1
１
 50
0.0
 41
0.9
 51
0.0
  7
KANJI35
  0
TEXT
  8
0
  6
CONTINUOUS
 62
     2
 10
1034.0834085
 20
99.999997
 30
0.0
 40
15.0
  1
０８．０８．０６　岡田　形式変更
 50
0.0
 41
0.9
 51
0.0
  7
KANJI35
  0
LINE
  8
0
  6
CONTINUOUS
 62
     2
 10
832.0
 20
1186.0
 11
840.660254038
 21
1201.0
  0
LINE
  8
0
  6
CONTINUOUS
 62
     2
 10
840.660254038
 20
1201.0
 11
849.320508076
 21
1186.0
  0
LINE
  8
0
  6
CONTINUOUS
 62
     2
 10
849.320508076
 20
1186.0
 11
832.0
 21
1186.0
  0
TEXT
  8
0
  6
CONTINUOUS
 62
     2
 10
837.124720132
 20
1187.464466094
 30
0.0
 40
7.071067812
  1
１
 50
0.0
 41
1.0
 51
0.0
  7
KANJI81
  0
LINE
  8
0
  6
CONTINUOUS
 62
     2
 10
832.0
 20
1158.0
 11
840.660254038
 21
1173.0
  0
LINE
  8
0
  6
CONTINUOUS
 62
     2
 10
840.660254038
 20
1173.0
 11
849.320508076
 21
1158.0
  0
LINE
  8
0
  6
CONTINUOUS
 62
     2
 10
849.320508076
 20
1158.0
 11
832.0
 21
1158.0
  0
TEXT
  8
0
  6
CONTINUOUS
 62
     2
 10
837.124720132
 20
1159.464466094
 30
0.0
 40
7.071067812
  1
１
 50
0.0
 41
1.0
 51
0.0
  7
KANJI81
  0
LINE
  8
0
  6
CONTINUOUS
 62
     2
 10
832.0
 20
1130.0
 11
840.660254038
 21
1145.0
  0
LINE
  8
0
  6
CONTINUOUS
 62
     2
 10
840.660254038
 20
1145.0
 11
849.320508076
 21
1130.0
  0
LINE
  8
0
  6
CONTINUOUS
 62
     2
 10
849.320508076
 20
1130.0
 11
832.0
 21
1130.0
  0
TEXT
  8
0
  6
CONTINUOUS
 62
     2
 10
837.124720132
 20
1131.464466094
 30
0.0
 40
7.071067812
  1
１
 50
0.0
 41
1.0
 51
0.0
  7
KANJI81
  0
LINE
  8
0
  6
CONTINUOUS
 62
     2
 10
832.0
 20
1102.0
 11
840.660254038
 21
1117.0
  0
LINE
  8
0
  6
CONTINUOUS
 62
     2
 10
840.660254038
 20
1117.0
 11
849.320508076
 21
1102.0
  0
LINE
  8
0
  6
CONTINUOUS
 62
     2
 10
849.320508076
 20
1102.0
 11
832.0
 21
1102.0
  0
TEXT
  8
0
  6
CONTINUOUS
 62
     2
 10
837.124720132
 20
1103.464466094
 30
0.0
 40
7.071067812
  1
１
 50
0.0
 41
1.0
 51
0.0
  7
KANJI81
  0
LINE
  8
0
  6
CONTINUOUS
 62
     2
 10
832.0
 20
1074.0
 11
840.660254038
 21
1089.0
  0
LINE
  8
0
  6
CONTINUOUS
 62
     2
 10
840.660254038
 20
1089.0
 11
849.320508076
 21
1074.0
  0
LINE
  8
0
  6
CONTINUOUS
 62
     2
 10
849.320508076
 20
1074.0
 11
832.0
 21
1074.0
  0
TEXT
  8
0
  6
CONTINUOUS
 62
     2
 10
837.124720132
 20
1075.464466094
 30
0.0
 40
7.071067812
  1
１
 50
0.0
 41
1.0
 51
0.0
  7
KANJI81
  0
LINE
  8
0
  6
CONTINUOUS
 62
     2
 10
832.0
 20
1046.0
 11
840.660254038
 21
1061.0
  0
LINE
  8
0
  6
CONTINUOUS
 62
     2
 10
840.660254038
 20
1061.0
 11
849.320508076
 21
1046.0
  0
LINE
  8
0
  6
CONTINUOUS
 62
     2
 10
849.320508076
 20
1046.0
 11
832.0
 21
1046.0
  0
TEXT
  8
0
  6
CONTINUOUS
 62
     2
 10
837.124720132
 20
1047.464466094
 30
0.0
 40
7.071067812
  1
１
 50
0.0
 41
1.0
 51
0.0
  7
KANJI81
  0
LINE
  8
0
  6
CONTINUOUS
 62
     2
 10
832.0
 20
1018.0
 11
840.660254038
 21
1033.0
  0
LINE
  8
0
  6
CONTINUOUS
 62
     2
 10
840.660254038
 20
1033.0
 11
849.320508076
 21
1018.0
  0
LINE
  8
0
  6
CONTINUOUS
 62
     2
 10
849.320508076
 20
1018.0
 11
832.0
 21
1018.0
  0
TEXT
  8
0
  6
CONTINUOUS
 62
     2
 10
837.124720132
 20
1019.464466094
 30
0.0
 40
7.071067812
  1
１
 50
0.0
 41
1.0
 51
0.0
  7
KANJI81
  0
LINE
  8
0
  6
CONTINUOUS
 62
     2
 10
832.0
 20
990.0
 11
840.660254038
 21
1005.0
  0
LINE
  8
0
  6
CONTINUOUS
 62
     2
 10
840.660254038
 20
1005.0
 11
849.320508076
 21
990.0
  0
LINE
  8
0
  6
CONTINUOUS
 62
     2
 10
849.320508076
 20
990.0
 11
832.0
 21
990.0
  0
TEXT
  8
0
  6
CONTINUOUS
 62
     2
 10
837.124720132
 20
991.464466094
 30
0.0
 40
7.071067812
  1
１
 50
0.0
 41
1.0
 51
0.0
  7
KANJI81
  0
LINE
  8
0
  6
CONTINUOUS
 62
     2
 10
2013.25
 20
1275.95
 11
2021.910254038
 21
1290.95
  0
LINE
  8
0
  6
CONTINUOUS
 62
     2
 10
2021.910254038
 20
1290.95
 11
2030.570508076
 21
1275.95
  0
LINE
  8
0
  6
CONTINUOUS
 62
     2
 10
2030.570508076
 20
1275.95
 11
2013.25
 21
1275.95
  0
TEXT
  8
0
  6
CONTINUOUS
 62
     2
 10
2018.374720132
 20
1277.414466094
 30
0.0
 40
7.071067812
  1
１
 50
0.0
 41
1.0
 51
0.0
  7
KANJI81
  0
LINE
  8
0
  6
CONTINUOUS
 62
     2
 10
1695.25
 20
203.95
 11
1703.910254038
 21
218.95
  0
LINE
  8
0
  6
CONTINUOUS
 62
     2
 10
1703.910254038
 20
218.95
 11
1712.570508076
 21
203.95
  0
LINE
  8
0
  6
CONTINUOUS
 62
     2
 10
1712.570508076
 20
203.95
 11
1695.25
 21
203.95
  0
TEXT
  8
0
  6
CONTINUOUS
 62
     2
 10
1700.374720132
 20
205.414466094
 30
0.0
 40
7.071067812
  1
１
 50
0.0
 41
1.0
 51
0.0
  7
KANJI81
  0
TEXT
  8
0
  6
CONTINUOUS
 62
     2
 10
1392.4166945
 20
206.833323
 30
5.0
 40
17.5
  1
田口
 50
0.0
 41
0.857142857
 51
0.0
  7
KANJI14
  0
TEXT
  8
0
  6
CONTINUOUS
 62
     2
 10
1392.4166945
 20
172.166659
 30
5.0
 40
17.5
  1
竹下
 50
0.0
 41
0.857142857
 51
0.0
  7
KANJI14
  0
TEXT
  8
0
  6
CONTINUOUS
 62
     2
 10
1441.7500395
 20
207.666653
 30
0.0
 40
15.0
  1
１１／１０
 50
0.0
 41
0.45
 51
0.0
  7
KANJI82
  0
TEXT
  8
0
  6
CONTINUOUS
 62
     2
 10
1433.7500395
 20
170.666653
 30
0.0
 40
15.0
  1
’０７　１１／７
 50
0.0
 41
0.9
 51
0.0
  7
KANJI35
  0
ENDSEC
  0
EOF
