  0
SECTION
  2
HEADER
  9
$EXTMIN
 10
0.0
 20
0.0
 30
0.0
  9
$EXTMAX
 10
2100.0
 20
1485.0
 30
0.0
  9
$LIMMIN
 10
0.0
 20
0.0
  9
$LIMMAX
 10
2100.0
 20
1485.0
  9
$LTSCALE
 40
1.0
  9
$PDMODE
 70
     0
  0
ENDSEC
  0
SECTION
  2
TABLES
  0
TABLE
  2
LTYPE
 70
     7
  0
LTYPE
  2
CONTINUOUS
 70
    64
  3
Solid line
 72
    65
 73
     0
 40
0.0
  0
LTYPE
  2
LTYPE1
 70
    64
  3
HIDDEN
 72
    65
 73
     2
 40
15.0
 49
9.0
 49
-6.0
  0
LTYPE
  2
LTYPE2
 70
    64
  3
CENTER
 72
    65
 73
     4
 40
75.0
 49
52.5
 49
-7.5
 49
7.5
 49
-7.5
  0
LTYPE
  2
LTYPE3
 70
    64
  3
CENTER
 72
    65
 73
     4
 40
50.0
 49
35.0
 49
-5.0
 49
5.0
 49
-5.0
  0
LTYPE
  2
LTYPE4
 70
    64
  3
CENTER
 72
    65
 73
     4
 40
45.0
 49
31.5
 49
-4.5
 49
4.5
 49
-4.5
  0
LTYPE
  2
LTYPE5
 70
    64
  3
PHANTOM
 72
    65
 73
     6
 40
50.0
 49
37.5
 49
-2.5
 49
2.5
 49
-2.5
 49
2.5
 49
-2.5
  0
LTYPE
  2
LTYPE6
 70
    64
  3
CENTER
 72
    65
 73
     4
 40
100.0
 49
70.0
 49
-10.0
 49
10.0
 49
-10.0
  0
ENDTAB
  0
TABLE
  2
LAYER
 70
   128
  0
LAYER
  2
0
 70
     0
 62
     7
  6
CONTINUOUS
  0
LAYER
  2
2
 70
     0
 62
     7
  6
CONTINUOUS
  0
LAYER
  2
3
 70
     0
 62
     7
  6
CONTINUOUS
  0
LAYER
  2
4
 70
     0
 62
     7
  6
CONTINUOUS
  0
LAYER
  2
5
 70
     0
 62
     7
  6
CONTINUOUS
  0
LAYER
  2
6
 70
     0
 62
     7
  6
CONTINUOUS
  0
LAYER
  2
7
 70
     0
 62
     7
  6
CONTINUOUS
  0
LAYER
  2
8
 70
     0
 62
     7
  6
CONTINUOUS
  0
LAYER
  2
9
 70
     0
 62
     7
  6
CONTINUOUS
  0
LAYER
  2
10
 70
     0
 62
     7
  6
CONTINUOUS
  0
LAYER
  2
11
 70
     0
 62
     7
  6
CONTINUOUS
  0
LAYER
  2
12
 70
     0
 62
     7
  6
CONTINUOUS
  0
LAYER
  2
13
 70
     0
 62
     7
  6
CONTINUOUS
  0
LAYER
  2
14
 70
     0
 62
     7
  6
CONTINUOUS
  0
LAYER
  2
15
 70
     0
 62
     7
  6
CONTINUOUS
  0
LAYER
  2
16
 70
     0
 62
     7
  6
CONTINUOUS
  0
LAYER
  2
17
 70
     0
 62
     7
  6
CONTINUOUS
  0
LAYER
  2
18
 70
     0
 62
     7
  6
CONTINUOUS
  0
LAYER
  2
19
 70
     0
 62
     7
  6
CONTINUOUS
  0
LAYER
  2
20
 70
     0
 62
     7
  6
CONTINUOUS
  0
LAYER
  2
21
 70
     0
 62
     7
  6
CONTINUOUS
  0
LAYER
  2
22
 70
     0
 62
     7
  6
CONTINUOUS
  0
LAYER
  2
23
 70
     0
 62
     7
  6
CONTINUOUS
  0
LAYER
  2
24
 70
     0
 62
     7
  6
CONTINUOUS
  0
LAYER
  2
25
 70
     0
 62
     7
  6
CONTINUOUS
  0
LAYER
  2
26
 70
     0
 62
     7
  6
CONTINUOUS
  0
LAYER
  2
27
 70
     0
 62
     7
  6
CONTINUOUS
  0
LAYER
  2
28
 70
     0
 62
     7
  6
CONTINUOUS
  0
LAYER
  2
29
 70
     0
 62
     7
  6
CONTINUOUS
  0
LAYER
  2
30
 70
     0
 62
     7
  6
CONTINUOUS
  0
LAYER
  2
31
 70
     0
 62
     7
  6
CONTINUOUS
  0
LAYER
  2
32
 70
     0
 62
     7
  6
CONTINUOUS
  0
LAYER
  2
33
 70
     0
 62
     7
  6
CONTINUOUS
  0
LAYER
  2
34
 70
     0
 62
     7
  6
CONTINUOUS
  0
LAYER
  2
35
 70
     0
 62
     7
  6
CONTINUOUS
  0
LAYER
  2
36
 70
     0
 62
     7
  6
CONTINUOUS
  0
LAYER
  2
37
 70
     0
 62
     7
  6
CONTINUOUS
  0
LAYER
  2
38
 70
     0
 62
     7
  6
CONTINUOUS
  0
LAYER
  2
39
 70
     0
 62
     7
  6
CONTINUOUS
  0
LAYER
  2
40
 70
     0
 62
     7
  6
CONTINUOUS
  0
LAYER
  2
41
 70
     0
 62
     7
  6
CONTINUOUS
  0
LAYER
  2
42
 70
     0
 62
     7
  6
CONTINUOUS
  0
LAYER
  2
43
 70
     0
 62
     7
  6
CONTINUOUS
  0
LAYER
  2
44
 70
     0
 62
     7
  6
CONTINUOUS
  0
LAYER
  2
45
 70
     0
 62
     7
  6
CONTINUOUS
  0
LAYER
  2
46
 70
     0
 62
     7
  6
CONTINUOUS
  0
LAYER
  2
47
 70
     0
 62
     7
  6
CONTINUOUS
  0
LAYER
  2
48
 70
     0
 62
     7
  6
CONTINUOUS
  0
LAYER
  2
49
 70
     0
 62
     7
  6
CONTINUOUS
  0
LAYER
  2
50
 70
     0
 62
     7
  6
CONTINUOUS
  0
LAYER
  2
51
 70
     0
 62
     7
  6
CONTINUOUS
  0
LAYER
  2
52
 70
     0
 62
     7
  6
CONTINUOUS
  0
LAYER
  2
53
 70
     0
 62
     7
  6
CONTINUOUS
  0
LAYER
  2
54
 70
     0
 62
     7
  6
CONTINUOUS
  0
LAYER
  2
55
 70
     0
 62
     7
  6
CONTINUOUS
  0
LAYER
  2
56
 70
     0
 62
     7
  6
CONTINUOUS
  0
LAYER
  2
57
 70
     0
 62
     7
  6
CONTINUOUS
  0
LAYER
  2
58
 70
     0
 62
     7
  6
CONTINUOUS
  0
LAYER
  2
59
 70
     0
 62
     7
  6
CONTINUOUS
  0
LAYER
  2
60
 70
     0
 62
     7
  6
CONTINUOUS
  0
LAYER
  2
61
 70
     0
 62
     7
  6
CONTINUOUS
  0
LAYER
  2
62
 70
     0
 62
     7
  6
CONTINUOUS
  0
LAYER
  2
63
 70
     0
 62
     7
  6
CONTINUOUS
  0
LAYER
  2
64
 70
     0
 62
     7
  6
CONTINUOUS
  0
LAYER
  2
65
 70
     0
 62
     7
  6
CONTINUOUS
  0
LAYER
  2
66
 70
     0
 62
     7
  6
CONTINUOUS
  0
LAYER
  2
67
 70
     0
 62
     7
  6
CONTINUOUS
  0
LAYER
  2
68
 70
     0
 62
     7
  6
CONTINUOUS
  0
LAYER
  2
69
 70
     0
 62
     7
  6
CONTINUOUS
  0
LAYER
  2
70
 70
     0
 62
     7
  6
CONTINUOUS
  0
LAYER
  2
71
 70
     0
 62
     7
  6
CONTINUOUS
  0
LAYER
  2
72
 70
     0
 62
     7
  6
CONTINUOUS
  0
LAYER
  2
73
 70
     0
 62
     7
  6
CONTINUOUS
  0
LAYER
  2
74
 70
     0
 62
     7
  6
CONTINUOUS
  0
LAYER
  2
75
 70
     0
 62
     7
  6
CONTINUOUS
  0
LAYER
  2
76
 70
     0
 62
     7
  6
CONTINUOUS
  0
LAYER
  2
77
 70
     0
 62
     7
  6
CONTINUOUS
  0
LAYER
  2
78
 70
     0
 62
     7
  6
CONTINUOUS
  0
LAYER
  2
79
 70
     0
 62
     7
  6
CONTINUOUS
  0
LAYER
  2
80
 70
     0
 62
     7
  6
CONTINUOUS
  0
LAYER
  2
81
 70
     0
 62
     7
  6
CONTINUOUS
  0
LAYER
  2
82
 70
     0
 62
     7
  6
CONTINUOUS
  0
LAYER
  2
83
 70
     0
 62
     7
  6
CONTINUOUS
  0
LAYER
  2
84
 70
     0
 62
     7
  6
CONTINUOUS
  0
LAYER
  2
85
 70
     0
 62
     7
  6
CONTINUOUS
  0
LAYER
  2
86
 70
     0
 62
     7
  6
CONTINUOUS
  0
LAYER
  2
87
 70
     0
 62
     7
  6
CONTINUOUS
  0
LAYER
  2
88
 70
     0
 62
     7
  6
CONTINUOUS
  0
LAYER
  2
89
 70
     0
 62
     7
  6
CONTINUOUS
  0
LAYER
  2
90
 70
     0
 62
     7
  6
CONTINUOUS
  0
LAYER
  2
91
 70
     0
 62
     7
  6
CONTINUOUS
  0
LAYER
  2
92
 70
     0
 62
     7
  6
CONTINUOUS
  0
LAYER
  2
93
 70
     0
 62
     7
  6
CONTINUOUS
  0
LAYER
  2
94
 70
     0
 62
     7
  6
CONTINUOUS
  0
LAYER
  2
95
 70
     0
 62
     7
  6
CONTINUOUS
  0
LAYER
  2
96
 70
     0
 62
     7
  6
CONTINUOUS
  0
LAYER
  2
97
 70
     0
 62
     7
  6
CONTINUOUS
  0
LAYER
  2
98
 70
     0
 62
     7
  6
CONTINUOUS
  0
LAYER
  2
99
 70
     0
 62
     7
  6
CONTINUOUS
  0
LAYER
  2
100
 70
     0
 62
     7
  6
CONTINUOUS
  0
LAYER
  2
101
 70
     0
 62
     7
  6
CONTINUOUS
  0
LAYER
  2
102
 70
     0
 62
     7
  6
CONTINUOUS
  0
LAYER
  2
103
 70
     0
 62
     7
  6
CONTINUOUS
  0
LAYER
  2
104
 70
     0
 62
     7
  6
CONTINUOUS
  0
LAYER
  2
105
 70
     0
 62
     7
  6
CONTINUOUS
  0
LAYER
  2
106
 70
     0
 62
     7
  6
CONTINUOUS
  0
LAYER
  2
107
 70
     0
 62
     7
  6
CONTINUOUS
  0
LAYER
  2
108
 70
     0
 62
     7
  6
CONTINUOUS
  0
LAYER
  2
109
 70
     0
 62
     7
  6
CONTINUOUS
  0
LAYER
  2
110
 70
     0
 62
     7
  6
CONTINUOUS
  0
LAYER
  2
111
 70
     0
 62
     7
  6
CONTINUOUS
  0
LAYER
  2
112
 70
     0
 62
     7
  6
CONTINUOUS
  0
LAYER
  2
113
 70
     0
 62
     7
  6
CONTINUOUS
  0
LAYER
  2
114
 70
     0
 62
     7
  6
CONTINUOUS
  0
LAYER
  2
115
 70
     0
 62
     7
  6
CONTINUOUS
  0
LAYER
  2
116
 70
     0
 62
     7
  6
CONTINUOUS
  0
LAYER
  2
117
 70
     0
 62
     7
  6
CONTINUOUS
  0
LAYER
  2
118
 70
     0
 62
     7
  6
CONTINUOUS
  0
LAYER
  2
119
 70
     0
 62
     7
  6
CONTINUOUS
  0
LAYER
  2
120
 70
     0
 62
     7
  6
CONTINUOUS
  0
LAYER
  2
121
 70
     0
 62
     7
  6
CONTINUOUS
  0
LAYER
  2
122
 70
     0
 62
     7
  6
CONTINUOUS
  0
LAYER
  2
123
 70
     0
 62
     7
  6
CONTINUOUS
  0
LAYER
  2
124
 70
     0
 62
     7
  6
CONTINUOUS
  0
LAYER
  2
125
 70
     0
 62
     7
  6
CONTINUOUS
  0
LAYER
  2
126
 70
     0
 62
     7
  6
CONTINUOUS
  0
LAYER
  2
127
 70
     0
 62
     7
  6
CONTINUOUS
  0
LAYER
  2
128
 70
     0
 62
     7
  6
CONTINUOUS
  0
ENDTAB
  0
TABLE
  2
STYLE
 70
    83
  0
STYLE
  2
STANDARD
 70
     0
 40
0.0
 41
1.0
 50
0.0
 71
     0
 42
0.2
  3
txt
  4

  0
STYLE
  2
KANJI0
 70
     0
 40
8.666666
 41
0.6
 50
0.0
 71
     0
 42
8.666666
  3

  4
bigfont
  0
STYLE
  2
KANJI1
 70
     0
 40
10.3999992
 41
0.6
 50
0.0
 71
     0
 42
10.3999992
  3

  4
bigfont
  0
STYLE
  2
KANJI2
 70
     0
 40
15.1666655
 41
0.42031746
 50
0.0
 71
     0
 42
15.1666655
  3

  4
bigfont
  0
STYLE
  2
KANJI3
 70
     0
 40
25.999998
 41
0.9
 50
0.0
 71
     0
 42
25.999998
  3

  4
bigfont
  0
STYLE
  2
KANJI4
 70
     0
 40
8.666666
 41
0.8
 50
0.0
 71
     0
 42
8.666666
  3

  4
bigfont
  0
STYLE
  2
KANJI5
 70
     0
 40
10.3999992
 41
0.8
 50
0.0
 71
     0
 42
10.3999992
  3

  4
bigfont
  0
STYLE
  2
KANJI6
 70
     0
 40
25.0
 41
1.0
 50
0.0
 71
     0
 42
25.0
  3

  4
bigfont
  0
STYLE
  2
KANJI7
 70
     0
 40
25.0
 41
1.0
 50
0.0
 71
     0
 42
25.0
  3

  4
bigfont
  0
STYLE
  2
KANJI8
 70
     0
 40
25.0
 41
0.8
 50
0.0
 71
     0
 42
25.0
  3

  4
bigfont
  0
STYLE
  2
KANJI9
 70
     0
 40
20.0
 41
1.0
 50
0.0
 71
     0
 42
20.0
  3

  4
bigfont
  0
STYLE
  2
KANJI10
 70
     0
 40
18.0
 41
1.111111111
 50
0.0
 71
     0
 42
18.0
  3

  4
bigfont
  0
STYLE
  2
KANJI11
 70
     0
 40
17.5
 41
0.857142857
 50
0.0
 71
     0
 42
17.5
  3

  4
bigfont
  0
STYLE
  2
KANJI12
 70
     0
 40
22.5
 41
0.666666667
 50
0.0
 71
     0
 42
22.5
  3

  4
bigfont
  0
STYLE
  2
KANJI13
 70
     0
 40
9.999997897
 41
0.6
 50
0.0
 71
     0
 42
9.999997897
  3

  4
bigfont
  0
STYLE
  2
KANJI14
 70
     0
 40
11.999997477
 41
0.9
 50
0.0
 71
     0
 42
11.999997477
  3

  4
bigfont
  0
STYLE
  2
KANJI15
 70
     0
 40
14.999996846
 41
0.9
 50
0.0
 71
     0
 42
14.999996846
  3

  4
bigfont
  0
STYLE
  2
KANJI16
 70
     0
 40
12.999999
 41
0.75
 50
0.0
 71
     0
 42
12.999999
  3

  4
bigfont
  0
STYLE
  2
KANJI17
 70
     0
 40
13.182
 41
0.85
 50
0.0
 71
     0
 42
13.182
  3

  4
bigfont
  0
STYLE
  2
KANJI18
 70
     0
 40
11.661
 41
0.822608696
 50
0.0
 71
     0
 42
11.661
  3

  4
bigfont
  0
STYLE
  2
KANJI19
 70
     0
 40
11.8638
 41
0.726495726
 50
0.0
 71
     0
 42
11.8638
  3

  4
bigfont
  0
STYLE
  2
KANJI20
 70
     4
 40
45.0
 41
0.538166667
 50
0.0
 71
     0
 42
45.0
  3

  4
bigfont
  0
STYLE
  2
KANJI21
 70
     0
 40
12.8
 41
0.9
 50
0.0
 71
     0
 42
12.8
  3

  4
bigfont
  0
STYLE
  2
KANJI22
 70
     0
 40
12.0
 41
0.9
 50
0.0
 71
     0
 42
12.0
  3

  4
bigfont
  0
STYLE
  2
KANJI23
 70
     0
 40
12.0
 41
0.9
 50
0.0
 71
     0
 42
12.0
  3

  4
bigfont
  0
STYLE
  2
KANJI24
 70
     0
 40
14.0
 41
0.9
 50
0.0
 71
     0
 42
14.0
  3

  4
bigfont
  0
STYLE
  2
KANJI25
 70
     0
 40
10.8
 41
0.740740741
 50
0.0
 71
     0
 42
10.8
  3

  4
bigfont
  0
STYLE
  2
KANJI26
 70
     0
 40
14.0
 41
0.857142857
 50
0.0
 71
     0
 42
14.0
  3

  4
bigfont
  0
STYLE
  2
KANJI27
 70
     0
 40
15.0
 41
1.0
 50
0.0
 71
     0
 42
15.0
  3

  4
bigfont
  0
STYLE
  2
KANJI28
 70
     0
 40
25.0
 41
0.8
 50
0.0
 71
     0
 42
25.0
  3

  4
bigfont
  0
STYLE
  2
KANJI29
 70
     0
 40
11.55
 41
0.9
 50
0.0
 71
     0
 42
11.55
  3

  4
bigfont
  0
STYLE
  2
KANJI30
 70
     0
 40
17.740702234
 41
0.880962996
 50
0.0
 71
     0
 42
17.740702234
  3

  4
bigfont
  0
STYLE
  2
KANJI31
 70
     0
 40
11.7
 41
0.8
 50
0.0
 71
     0
 42
11.7
  3

  4
bigfont
  0
STYLE
  2
KANJI32
 70
     0
 40
15.0
 41
0.911
 50
0.0
 71
     0
 42
15.0
  3

  4
bigfont
  0
STYLE
  2
KANJI33
 70
     0
 40
13.475
 41
0.9
 50
0.0
 71
     0
 42
13.475
  3

  4
bigfont
  0
STYLE
  2
KANJI34
 70
     0
 40
15.185977837
 41
0.66671875
 50
0.0
 71
     0
 42
15.185977837
  3

  4
bigfont
  0
STYLE
  2
KANJI35
 70
     0
 40
18.223173404
 41
0.9
 50
0.0
 71
     0
 42
18.223173404
  3

  4
bigfont
  0
STYLE
  2
KANJI36
 70
     0
 40
14.578538724
 41
0.9
 50
0.0
 71
     0
 42
14.578538724
  3

  4
bigfont
  0
STYLE
  2
KANJI37
 70
     0
 40
15.6
 41
0.925
 50
0.0
 71
     0
 42
15.6
  3

  4
bigfont
  0
STYLE
  2
KANJI38
 70
     0
 40
10.933904043
 41
0.9
 50
0.0
 71
     0
 42
10.933904043
  3

  4
bigfont
  0
STYLE
  2
KANJI39
 70
     0
 40
15.0
 41
0.9
 50
0.0
 71
     0
 42
15.0
  3

  4
bigfont
  0
STYLE
  2
KANJI40
 70
     0
 40
20.0
 41
0.925
 50
0.0
 71
     0
 42
20.0
  3

  4
bigfont
  0
STYLE
  2
KANJI41
 70
     0
 40
20.0
 41
0.925
 50
0.0
 71
     0
 42
20.0
  3

  4
bigfont
  0
STYLE
  2
KANJI42
 70
     0
 40
8.333333333
 41
0.85
 50
0.0
 71
     0
 42
8.333333333
  3

  4
bigfont
  0
STYLE
  2
KANJI43
 70
     0
 40
8.333333333
 41
0.75
 50
0.0
 71
     0
 42
8.333333333
  3

  4
bigfont
  0
STYLE
  2
KANJI44
 70
     0
 40
12.5
 41
0.9
 50
0.0
 71
     0
 42
12.5
  3

  4
bigfont
  0
STYLE
  2
KANJI45
 70
     0
 40
8.4
 41
0.9
 50
0.0
 71
     0
 42
8.4
  3

  4
bigfont
  0
STYLE
  2
KANJI46
 70
     0
 40
17.5
 41
0.9
 50
0.0
 71
     0
 42
17.5
  3

  4
bigfont
  0
STYLE
  2
KANJI47
 70
     0
 40
17.5
 41
0.9
 50
0.0
 71
     0
 42
17.5
  3

  4
bigfont
  0
STYLE
  2
KANJI48
 70
     0
 40
17.5
 41
0.9
 50
0.0
 71
     0
 42
17.5
  3

  4
bigfont
  0
STYLE
  2
KANJI49
 70
     0
 40
17.5
 41
0.9
 50
0.0
 71
     0
 42
17.5
  3

  4
bigfont
  0
STYLE
  2
KANJI50
 70
     0
 40
22.5
 41
0.9
 50
0.0
 71
     0
 42
22.5
  3

  4
bigfont
  0
STYLE
  2
KANJI51
 70
     0
 40
17.5
 41
0.9
 50
0.0
 71
     0
 42
17.5
  3

  4
bigfont
  0
STYLE
  2
KANJI52
 70
     0
 40
17.5
 41
0.9
 50
0.0
 71
     0
 42
17.5
  3

  4
bigfont
  0
STYLE
  2
KANJI53
 70
     0
 40
17.5
 41
0.9
 50
0.0
 71
     0
 42
17.5
  3

  4
bigfont
  0
STYLE
  2
KANJI54
 70
     0
 40
17.5
 41
0.9
 50
0.0
 71
     0
 42
17.5
  3

  4
bigfont
  0
STYLE
  2
KANJI55
 70
     0
 40
17.5
 41
0.9
 50
0.0
 71
     0
 42
17.5
  3

  4
bigfont
  0
STYLE
  2
KANJI56
 70
     4
 40
17.5
 41
0.9
 50
0.0
 71
     0
 42
17.5
  3

  4
bigfont
  0
STYLE
  2
KANJI57
 70
     4
 40
15.0
 41
0.9
 50
0.0
 71
     0
 42
15.0
  3

  4
bigfont
  0
STYLE
  2
KANJI58
 70
     0
 40
12.5
 41
0.8
 50
0.0
 71
     0
 42
12.5
  3

  4
bigfont
  0
STYLE
  2
KANJI59
 70
     0
 40
17.5
 41
0.9
 50
0.0
 71
     0
 42
17.5
  3

  4
bigfont
  0
STYLE
  2
KANJI60
 70
     0
 40
15.0
 41
0.9
 50
0.0
 71
     0
 42
15.0
  3

  4
bigfont
  0
STYLE
  2
KANJI61
 70
     0
 40
15.0
 41
0.857142857
 50
0.0
 71
     0
 42
15.0
  3

  4
bigfont
  0
STYLE
  2
KANJI62
 70
     0
 40
17.5
 41
0.9
 50
0.0
 71
     0
 42
17.5
  3

  4
bigfont
  0
STYLE
  2
KANJI63
 70
     0
 40
14.0
 41
0.9
 50
0.0
 71
     0
 42
14.0
  3

  4
bigfont
  0
STYLE
  2
KANJI64
 70
     0
 40
14.0
 41
0.785714286
 50
0.0
 71
     0
 42
14.0
  3

  4
bigfont
  0
STYLE
  2
KANJI65
 70
     0
 40
14.0
 41
0.8
 50
0.0
 71
     0
 42
14.0
  3

  4
bigfont
  0
STYLE
  2
KANJI66
 70
     0
 40
17.5
 41
0.9
 50
0.0
 71
     0
 42
17.5
  3

  4
bigfont
  0
STYLE
  2
KANJI67
 70
     0
 40
15.0
 41
0.8
 50
0.0
 71
     0
 42
15.0
  3

  4
bigfont
  0
STYLE
  2
KANJI68
 70
     0
 40
15.0
 41
0.9
 50
0.0
 71
     0
 42
15.0
  3

  4
bigfont
  0
STYLE
  2
KANJI69
 70
     0
 40
17.5
 41
0.9
 50
0.0
 71
     0
 42
17.5
  3

  4
bigfont
  0
STYLE
  2
KANJI70
 70
     0
 40
15.0
 41
0.833333333
 50
0.0
 71
     0
 42
15.0
  3

  4
bigfont
  0
STYLE
  2
KANJI71
 70
     0
 40
17.5
 41
0.9
 50
0.0
 71
     0
 42
17.5
  3

  4
bigfont
  0
STYLE
  2
KANJI72
 70
     0
 40
12.8
 41
0.84375
 50
0.0
 71
     0
 42
12.8
  3

  4
bigfont
  0
STYLE
  2
KANJI73
 70
     0
 40
20.0
 41
0.9
 50
0.0
 71
     0
 42
20.0
  3

  4
bigfont
  0
STYLE
  2
KANJI74
 70
     0
 40
17.5
 41
0.857222222
 50
0.0
 71
     0
 42
17.5
  3

  4
bigfont
  0
STYLE
  2
KANJI75
 70
     0
 40
17.5
 41
0.857142857
 50
0.0
 71
     0
 42
17.5
  3

  4
bigfont
  0
STYLE
  2
KANJI76
 70
     0
 40
17.5
 41
0.571428571
 50
0.0
 71
     0
 42
17.5
  3

  4
bigfont
  0
STYLE
  2
KANJI77
 70
     0
 40
12.0
 41
0.833333333
 50
0.0
 71
     0
 42
12.0
  3

  4
bigfont
  0
STYLE
  2
KANJI78
 70
     0
 40
15.0
 41
0.833333333
 50
0.0
 71
     0
 42
15.0
  3

  4
bigfont
  0
STYLE
  2
KANJI79
 70
     0
 40
15.0
 41
0.45
 50
0.0
 71
     0
 42
15.0
  3

  4
bigfont
  0
STYLE
  2
KANJI80
 70
     0
 40
17.5
 41
0.793650794
 50
0.0
 71
     0
 42
17.5
  3

  4
bigfont
  0
STYLE
  2
KANJI81
 70
     0
 40
7.071067812
 41
1.0
 50
0.0
 71
     0
 42
7.071067812
  3

  4
bigfont
  0
ENDTAB
  0
TABLE
  2
VIEW
 70
     0
  0
ENDTAB
  0
ENDSEC
  0
SECTION
  2
BLOCKS
  0
ENDSEC
  0
SECTION
  2
ENTITIES
  0
LINE
  8
0
  6
CONTINUOUS
 62
     6
 10
61.05
 20
1402.25
 11
1996.05
 21
1402.25
  0
LINE
  8
0
  6
CONTINUOUS
 62
     6
 10
1996.05
 20
1402.25
 11
1996.05
 21
57.25
  0
LINE
  8
0
  6
CONTINUOUS
 62
     6
 10
1996.05
 20
57.25
 11
61.05
 21
57.25
  0
LINE
  8
0
  6
CONTINUOUS
 62
     4
 10
1324.383385
 20
96.249997
 11
1482.5500395
 21
96.249997
  0
TEXT
  8
0
  6
CONTINUOUS
 62
     4
 10
1333.050051
 20
81.0833315
 30
0.8666666
 40
8.666666
  1
ＳＣＡＬＥ
 50
0.0
 41
0.6
 51
0.0
  7
KANJI0
  0
TEXT
  8
0
  6
CONTINUOUS
 62
     4
 10
1333.050051
 20
115.7499955
 30
0.8666666
 40
8.666666
  1
ＤＡＴＥ
 50
0.0
 41
0.6
 51
0.0
  7
KANJI0
  0
TEXT
  8
0
  6
CONTINUOUS
 62
     4
 10
1333.050051
 20
68.0833325
 30
1.03999992
 40
10.3999992
  1
尺度
 50
0.0
 41
0.6
 51
0.0
  7
KANJI1
  0
TEXT
  8
0
  6
CONTINUOUS
 62
     4
 10
1333.050051
 20
102.7499965
 30
1.03999992
 40
10.3999992
  1
日付
 50
0.0
 41
0.6
 51
0.0
  7
KANJI1
  0
LINE
  8
0
  6
CONTINUOUS
 62
     4
 10
1482.5500395
 20
115.7499955
 11
1991.716667
 21
115.7499955
  0
LINE
  8
0
  6
LTYPE1
 62
     4
 10
1846.5500115
 20
122.249995
 11
1846.5500115
 21
156.916659
  0
LINE
  8
0
  6
LTYPE1
 62
     4
 10
1816.2166805
 20
122.249995
 11
1816.2166805
 21
156.916659
  0
LINE
  8
0
  6
LTYPE1
 62
     4
 10
1785.8833495
 20
122.249995
 11
1785.8833495
 21
156.916659
  0
LINE
  8
0
  6
LTYPE1
 62
     4
 10
1755.5500185
 20
122.249995
 11
1755.5500185
 21
156.916659
  0
LINE
  8
0
  6
LTYPE1
 62
     4
 10
1725.2166875
 20
122.249995
 11
1725.2166875
 21
156.916659
  0
LINE
  8
0
  6
LTYPE1
 62
     4
 10
1694.8833565
 20
122.249995
 11
1694.8833565
 21
156.916659
  0
LINE
  8
0
  6
LTYPE1
 62
     4
 10
1664.5500255
 20
122.249995
 11
1664.5500255
 21
156.916659
  0
LINE
  8
0
  6
LTYPE1
 62
     4
 10
1634.2166945
 20
122.249995
 11
1634.2166945
 21
156.916659
  0
LINE
  8
0
  6
LTYPE1
 62
     4
 10
1634.2166945
 20
122.249995
 11
1846.5500115
 21
122.249995
  0
LINE
  8
0
  6
CONTINUOUS
 62
     6
 10
982.050078
 20
96.249997
 11
1324.383385
 21
96.249997
  0
LINE
  8
0
  6
CONTINUOUS
 62
     6
 10
982.050078
 20
61.583333
 11
1991.716667
 21
61.583333
  0
TEXT
  8
0
  6
CONTINUOUS
 62
     6
 10
1486.8833725
 20
81.0833315
 30
0.0
 40
15.1666655
  1
ＵＮＩＴＥＣ　ＩＮＤＵＳＴＲＹ　ＣＯ．，ＬＴＤ．
 50
0.0
 41
0.42031746
 51
0.0
  7
KANJI2
  0
TEXT
  8
0
  6
CONTINUOUS
 62
     6
 10
1699.595856138
 20
75.4499986
 30
2.5999998
 40
25.999998
  1
ユニテック工業株式会社
 50
0.0
 41
0.9
 51
0.0
  7
KANJI3
  0
LINE
  8
0
  6
CONTINUOUS
 62
     6
 10
1324.383385
 20
61.583333
 11
1324.383385
 21
338.916645
  0
LINE
  8
0
  6
CONTINUOUS
 62
     6
 10
1991.716667
 20
61.583333
 11
1991.716667
 21
338.916645
  0
LINE
  8
0
  6
CONTINUOUS
 62
     4
 10
1482.5500395
 20
61.583333
 11
1482.5500395
 21
338.916645
  0
LINE
  8
0
  6
CONTINUOUS
 62
     6
 10
1664.929192138
 20
84.5499979
 11
1653.489193018
 21
84.5499979
  0
LINE
  8
0
  6
CONTINUOUS
 62
     6
 10
1664.929192138
 20
86.62999774
 11
1653.489193018
 21
86.62999774
  0
LINE
  8
0
  6
CONTINUOUS
 62
     6
 10
1664.929192138
 20
84.5499979
 11
1676.369191258
 21
84.5499979
  0
LINE
  8
0
  6
CONTINUOUS
 62
     6
 10
1664.929192138
 20
86.62999774
 11
1676.369191258
 21
86.62999774
  0
LINE
  8
0
  6
CONTINUOUS
 62
     6
 10
1676.369191258
 20
86.62999774
 11
1676.369191258
 21
84.5499979
  0
ARC
  8
0
  6
CONTINUOUS
 62
     6
 10
1678.969191058
 20
85.58999782
 40
10.3999992
 50
185.739170477
 51
90.0
  0
ARC
  8
0
  6
CONTINUOUS
 62
     6
 10
1678.969191058
 20
85.58999782
 40
12.47999904
 50
184.780191847
 51
90.0
  0
LINE
  8
0
  6
CONTINUOUS
 62
     6
 10
1653.489193018
 20
84.5499979
 11
1653.489193018
 21
86.62999774
  0
LINE
  8
0
  6
CONTINUOUS
 62
     6
 10
1663.369192258
 20
98.06999686
 11
1650.889193218
 21
98.06999686
  0
LINE
  8
0
  6
CONTINUOUS
 62
     6
 10
1666.489192018
 20
98.06999686
 11
1678.969191058
 21
98.06999686
  0
ARC
  8
0
  6
CONTINUOUS
 62
     6
 10
1650.889193218
 20
85.58999782
 40
10.3999992
 50
90.0
 51
354.260829523
  0
ARC
  8
0
  6
CONTINUOUS
 62
     6
 10
1650.889193218
 20
85.58999782
 40
12.47999904
 50
90.0
 51
355.219808153
  0
LINE
  8
0
  6
CONTINUOUS
 62
     6
 10
1663.369192258
 20
98.06999686
 11
1663.369192258
 21
95.98999702
  0
LINE
  8
0
  6
CONTINUOUS
 62
     6
 10
1650.889193218
 20
95.98999702
 11
1663.369192258
 21
95.98999702
  0
LINE
  8
0
  6
CONTINUOUS
 62
     6
 10
1666.489192018
 20
98.06999686
 11
1666.489192018
 21
95.98999702
  0
LINE
  8
0
  6
CONTINUOUS
 62
     6
 10
1678.969191058
 20
95.98999702
 11
1666.489192018
 21
95.98999702
  0
TEXT
  8
0
  6
CONTINUOUS
 62
     4
 10
1333.050051
 20
150.4166595
 30
0.8666666
 40
8.666666
  1
ＤＲＡＷＮ
 50
0.0
 41
0.6
 51
0.0
  7
KANJI0
  0
TEXT
  8
0
  6
CONTINUOUS
 62
     4
 10
1333.050051
 20
185.0833235
 30
0.8666666
 40
8.666666
  1
ＤＥＳＩＧＮ
 50
0.0
 41
0.6
 51
0.0
  7
KANJI0
  0
TEXT
  8
0
  6
CONTINUOUS
 62
     4
 10
1333.050051
 20
219.7499875
 30
0.8666666
 40
8.666666
  1
ＣＨＥＣＫ
 50
0.0
 41
0.6
 51
0.0
  7
KANJI0
  0
TEXT
  8
0
  6
CONTINUOUS
 62
     4
 10
1333.050051
 20
254.4166515
 30
0.8666666
 40
8.666666
  1
ＣＯＤＥ
 50
0.0
 41
0.6
 51
0.0
  7
KANJI0
  0
LINE
  8
0
  6
CONTINUOUS
 62
     4
 10
1324.383385
 20
200.249989
 11
1482.5500395
 21
200.249989
  0
LINE
  8
0
  6
CONTINUOUS
 62
     4
 10
1324.383385
 20
165.583325
 11
1482.5500395
 21
165.583325
  0
LINE
  8
0
  6
CONTINUOUS
 62
     4
 10
1324.383385
 20
234.916653
 11
1482.5500395
 21
234.916653
  0
LINE
  8
0
  6
CONTINUOUS
 62
     4
 10
1324.383385
 20
269.583317
 11
1991.716667
 21
269.583317
  0
TEXT
  8
0
  6
CONTINUOUS
 62
     4
 10
1333.050051
 20
172.0833245
 30
1.03999992
 40
10.3999992
  1
設計
 50
0.0
 41
0.6
 51
0.0
  7
KANJI1
  0
TEXT
  8
0
  6
CONTINUOUS
 62
     4
 10
1333.050051
 20
206.7499885
 30
1.03999992
 40
10.3999992
  1
検図
 50
0.0
 41
0.6
 51
0.0
  7
KANJI1
  0
TEXT
  8
0
  6
CONTINUOUS
 62
     4
 10
1333.050051
 20
241.4166525
 30
1.03999992
 40
10.3999992
  1
分類
 50
0.0
 41
0.6
 51
0.0
  7
KANJI1
  0
LINE
  8
0
  6
CONTINUOUS
 62
     4
 10
1495.33337185
 20
234.916653
 11
1991.716667
 21
234.916653
  0
LINE
  8
0
  6
CONTINUOUS
 62
     4
 10
1482.5500395
 20
165.583325
 11
1991.716667
 21
165.583325
  0
TEXT
  8
0
  6
CONTINUOUS
 62
     4
 10
1491.2167055
 20
150.4166595
 30
0.8666666
 40
8.666666
  1
ＤＲＡＷＩＮＧ　ＮＯ．
 50
0.0
 41
0.8
 51
0.0
  7
KANJI4
  0
TEXT
  8
0
  6
CONTINUOUS
 62
     4
 10
1491.2167055
 20
185.0833235
 30
0.8666666
 40
8.666666
  1
ＭＦＧ　ＮＯ．
 50
0.0
 41
0.8
 51
0.0
  7
KANJI4
  0
TEXT
  8
0
  6
CONTINUOUS
 62
     4
 10
1491.2167055
 20
219.7499875
 30
0.8666666
 40
8.666666
  1
ＴＹＰＥ
 50
0.0
 41
0.8
 51
0.0
  7
KANJI4
  0
LINE
  8
0
  6
CONTINUOUS
 62
     4
 10
1495.5500385
 20
200.249989
 11
1694.8833565
 21
200.249989
  0
TEXT
  8
0
  6
CONTINUOUS
 62
     4
 10
1491.2167055
 20
135.249994
 30
1.03999992
 40
10.3999992
  1
図　面　番　号
 50
0.0
 41
0.8
 51
0.0
  7
KANJI5
  0
TEXT
  8
0
  6
CONTINUOUS
 62
     4
 10
1491.2167055
 20
169.916658
 30
1.03999992
 40
10.3999992
  1
製番
 50
0.0
 41
0.8
 51
0.0
  7
KANJI5
  0
TEXT
  8
0
  6
CONTINUOUS
 62
     4
 10
1491.2167055
 20
204.583322
 30
1.03999992
 40
10.3999992
  1
機種
 50
0.0
 41
0.8
 51
0.0
  7
KANJI5
  0
LINE
  8
0
  6
CONTINUOUS
 62
     4
 10
1324.383385
 20
130.916661
 11
1482.5500395
 21
130.916661
  0
TEXT
  8
0
  6
CONTINUOUS
 62
     4
 10
1333.050051
 20
137.4166605
 30
1.03999992
 40
10.3999992
  1
作図
 50
0.0
 41
0.6
 51
0.0
  7
KANJI1
  0
LINE
  8
0
  6
LTYPE1
 62
     4
 10
1634.2166945
 20
156.916659
 11
1846.5500115
 21
156.916659
  0
LINE
  8
0
  6
CONTINUOUS
 62
     4
 10
1863.8833435
 20
140.66666025
 11
1872.5500095
 21
140.66666025
  0
LINE
  8
0
  6
CONTINUOUS
 62
     4
 10
1918.050006
 20
127.66666125
 11
1887.716675
 21
127.66666125
  0
LINE
  8
0
  6
CONTINUOUS
 62
     4
 10
1887.716675
 20
127.66666125
 11
1902.8833405
 21
153.66665925
  0
LINE
  8
0
  6
CONTINUOUS
 62
     4
 10
1902.8833405
 20
153.66665925
 11
1918.050006
 21
127.66666125
  0
LINE
  8
0
  6
CONTINUOUS
 62
     4
 10
1991.716667
 20
304.249981
 11
1991.716667
 21
338.916645
  0
TEXT
  8
0
  6
CONTINUOUS
 62
     4
 10
1707.8833555
 20
219.7499875
 30
0.8666666
 40
8.666666
  1
ＴＩＴＬＥ
 50
0.0
 41
0.8
 51
0.0
  7
KANJI4
  0
TEXT
  8
0
  6
CONTINUOUS
 62
     4
 10
1707.8833555
 20
204.583322
 30
1.03999992
 40
10.3999992
  1
名称
 50
0.0
 41
0.8
 51
0.0
  7
KANJI5
  0
TEXT
  8
0
  6
CONTINUOUS
 62
     2
 10
1778.55
 20
172.25
 30
12.5
 40
25.0
  1
外形寸法図
 50
0.0
 41
1.0
 51
0.0
  7
KANJI6
  0
TEXT
  8
0
  6
CONTINUOUS
 62
     2
 10
1748.55
 20
202.25
 30
3.571428571
 40
25.0
  1
マイティシリンダ
 50
0.0
 41
1.0
 51
0.0
  7
KANJI7
  0
TEXT
  8
0
  6
CONTINUOUS
 62
     2
 10
1607.9666945
 20
127.249995
 30
1.5
 40
25.0
  1
Ａ
 50
0.0
 41
0.8
 51
0.0
  7
KANJI8
  0
CIRCLE
  8
0
  6
CONTINUOUS
 62
     2
 10
1575.4666945
 20
180.999995
 40
12.5
  0
TEXT
  8
0
  6
CONTINUOUS
 62
     2
 10
1566.0916945
 20
171.624995
 30
1.5
 40
20.0
  1
Ｓ
 50
0.0
 41
1.0
 51
0.0
  7
KANJI9
  0
LINE
  8
0
  6
CONTINUOUS
 62
     6
 10
1325.008385
 20
304.249981
 11
1992.341667
 21
304.249981
  0
LINE
  8
0
  6
CONTINUOUS
 62
     6
 10
1324.383385
 20
338.916645
 11
1991.716667
 21
338.916645
  0
TEXT
  8
0
  6
CONTINUOUS
 62
     4
 10
1339.8
 20
309.416664
 30
5.0
 40
18.0
  1
ご用途
 50
0.0
 41
1.111111111
 51
0.0
  7
KANJI10
  0
TEXT
  8
0
  6
CONTINUOUS
 62
     4
 10
1339.8
 20
274.75
 30
5.0
 40
18.0
  1
ご注文主
 50
0.0
 41
1.111111111
 51
0.0
  7
KANJI10
  0
TEXT
  8
0
  6
CONTINUOUS
 62
     2
 10
1380.2166945
 20
139.749995
 30
5.0
 40
17.5
  1
岡田
 50
0.0
 41
0.857142857
 51
0.0
  7
KANJI11
  0
TEXT
  8
0
  6
CONTINUOUS
 62
     2
 10
1416.05
 20
67.25
 30
1.5
 40
22.5
  1
１／５
 50
0.0
 41
0.666666667
 51
0.0
  7
KANJI12
  0
TEXT
  8
0
  6
CONTINUOUS
 62
     4
 10
1092.5500695
 20
81.0833315
 30
0.8666666
 40
8.666666
  1
ＢＹ
 50
0.0
 41
0.6
 51
0.0
  7
KANJI0
  0
TEXT
  8
0
  6
CONTINUOUS
 62
     4
 10
1187.8833955
 20
81.0833315
 30
0.8666666
 40
8.666666
  1
ＤＥＳＣＲＩＰＴＩＯＮ
 50
0.0
 41
0.6
 51
0.0
  7
KANJI0
  0
TEXT
  8
0
  6
CONTINUOUS
 62
     4
 10
1092.5500695
 20
68.0833325
 30
1.03999992
 40
10.3999992
  1
担当
 50
0.0
 41
0.6
 51
0.0
  7
KANJI1
  0
TEXT
  8
0
  6
CONTINUOUS
 62
     4
 10
1200.8833945
 20
68.0833325
 30
1.03999992
 40
10.3999992
  1
記　　　　事
 50
0.0
 41
0.6
 51
0.0
  7
KANJI1
  0
LINE
  8
0
  6
CONTINUOUS
 62
     4
 10
1000.46674325
 20
89.7499975
 11
986.383411
 21
68.0833325
  0
TEXT
  8
0
  6
CONTINUOUS
 62
     4
 10
1036.2167405
 20
81.0833315
 30
0.8666666
 40
8.666666
  1
ＤＡＴＥ
 50
0.0
 41
0.6
 51
0.0
  7
KANJI0
  0
TEXT
  8
0
  6
CONTINUOUS
 62
     4
 10
1042.71674
 20
68.0833325
 30
1.03999992
 40
10.3999992
  1
日付
 50
0.0
 41
0.6
 51
0.0
  7
KANJI1
  0
LINE
  8
0
  6
CONTINUOUS
 62
     4
 10
986.383411
 20
68.0833325
 11
1014.5500755
 21
68.0833325
  0
LINE
  8
0
  6
CONTINUOUS
 62
     4
 10
1000.46674325
 20
89.7499975
 11
1014.5500755
 21
68.0833325
  0
LINE
  8
0
  6
CONTINUOUS
 62
     6
 10
982.050078
 20
61.583333
 11
982.050078
 21
96.249997
  0
LINE
  8
0
  6
CONTINUOUS
 62
     4
 10
1018.8834085
 20
61.583333
 11
1018.8834085
 21
96.249997
  0
LINE
  8
0
  6
CONTINUOUS
 62
     4
 10
1079.5500705
 20
61.583333
 11
1079.5500705
 21
96.249997
  0
LINE
  8
0
  6
CONTINUOUS
 62
     4
 10
1118.5500675
 20
61.583333
 11
1118.5500675
 21
96.249997
  0
LINE
  8
0
  6
CONTINUOUS
 62
     6
 10
61.05
 20
57.25
 11
61.05
 21
1402.25
  0
TEXT
  8
0
  6
CONTINUOUS
 62
     4
 10
76.049996846
 20
82.249994744
 30
0.99999979
 40
9.999997897
  1
ＰＡＲＴＳ　ＬＩＳＴ
 50
0.0
 41
0.6
 51
0.0
  7
KANJI13
  0
TEXT
  8
0
  6
CONTINUOUS
 62
     4
 10
76.049996846
 20
67.249997897
 30
1.199999748
 40
11.999997477
  1
部品表
 50
0.0
 41
0.9
 51
0.0
  7
KANJI14
  0
LINE
  8
0
  6
CONTINUOUS
 62
     6
 10
66.049998949
 20
132.249984231
 11
391.049930615
 21
132.249984231
  0
LINE
  8
0
  6
CONTINUOUS
 62
     6
 10
66.049998949
 20
62.249998949
 11
391.049930615
 21
62.249998949
  0
LINE
  8
0
  6
CONTINUOUS
 62
     6
 10
66.049998949
 20
62.249998949
 11
66.049998949
 21
132.249984231
  0
LINE
  8
0
  6
CONTINUOUS
 62
     6
 10
66.049998949
 20
97.24999159
 11
391.049930615
 21
97.24999159
  0
TEXT
  8
0
  6
CONTINUOUS
 62
     2
 10
76.049996846
 20
107.249989487
 30
1.499999685
 40
14.999996846
  1
ＰＬ
 50
0.0
 41
0.9
 51
0.0
  7
KANJI15
  0
LINE
  8
0
  6
CONTINUOUS
 62
     4
 10
4.133333
 20
61.583333
 11
56.133329
 21
61.583333
  0
LINE
  8
0
  6
CONTINUOUS
 62
     4
 10
4.133333
 20
87.583331
 11
56.133329
 21
87.583331
  0
LINE
  8
0
  6
CONTINUOUS
 62
     4
 10
4.133333
 20
113.583329
 11
56.133329
 21
113.583329
  0
LINE
  8
0
  6
CONTINUOUS
 62
     4
 10
4.133333
 20
139.583327
 11
56.133329
 21
139.583327
  0
LINE
  8
0
  6
CONTINUOUS
 62
     4
 10
4.133333
 20
165.583325
 11
56.133329
 21
165.583325
  0
LINE
  8
0
  6
CONTINUOUS
 62
     4
 10
4.133333
 20
191.583323
 11
56.133329
 21
191.583323
  0
LINE
  8
0
  6
CONTINUOUS
 62
     4
 10
4.133333
 20
217.583321
 11
56.133329
 21
217.583321
  0
LINE
  8
0
  6
CONTINUOUS
 62
     4
 10
4.133333
 20
243.583319
 11
56.133329
 21
243.583319
  0
LINE
  8
0
  6
CONTINUOUS
 62
     4
 10
4.133333
 20
269.583317
 11
56.133329
 21
269.583317
  0
LINE
  8
0
  6
CONTINUOUS
 62
     4
 10
4.133333
 20
295.583315
 11
56.133329
 21
295.583315
  0
LINE
  8
0
  6
CONTINUOUS
 62
     4
 10
56.133329
 20
61.583333
 11
56.133329
 21
295.583315
  0
LINE
  8
0
  6
CONTINUOUS
 62
     4
 10
30.133331
 20
61.583333
 11
30.133331
 21
269.583317
  0
TEXT
  8
0
  6
CONTINUOUS
 62
     4
 10
13.01666565
 20
69.16666575
 30
1.2999999
 40
12.999999
  1
計
 50
0.0
 41
0.75
 51
0.0
  7
KANJI16
  0
TEXT
  8
0
  6
CONTINUOUS
 62
     4
 10
13.01666565
 20
121.59999505
 30
1.2999999
 40
12.999999
  1
設
 50
0.0
 41
0.75
 51
0.0
  7
KANJI16
  0
TEXT
  8
0
  6
CONTINUOUS
 62
     4
 10
13.01666565
 20
147.16665975
 30
1.2999999
 40
12.999999
  1
管
 50
0.0
 41
0.75
 51
0.0
  7
KANJI16
  0
TEXT
  8
0
  6
CONTINUOUS
 62
     4
 10
13.01666565
 20
173.16665775
 30
1.2999999
 40
12.999999
  1
製
 50
0.0
 41
0.75
 51
0.0
  7
KANJI16
  0
TEXT
  8
0
  6
CONTINUOUS
 62
     4
 10
13.01666565
 20
199.16665575
 30
1.2999999
 40
12.999999
  1
資
 50
0.0
 41
0.75
 51
0.0
  7
KANJI16
  0
TEXT
  8
0
  6
CONTINUOUS
 62
     4
 10
13.01666565
 20
225.16665375
 30
1.2999999
 40
12.999999
  1
営
 50
0.0
 41
0.75
 51
0.0
  7
KANJI16
  0
TEXT
  8
0
  6
CONTINUOUS
 62
     4
 10
13.01666565
 20
251.16665175
 30
1.2999999
 40
12.999999
  1
客
 50
0.0
 41
0.75
 51
0.0
  7
KANJI16
  0
TEXT
  8
0
  6
CONTINUOUS
 62
     4
 10
12.799999
 20
278.249983
 30
1.2999999
 40
12.999999
  1
出　図
 50
0.0
 41
0.75
 51
0.0
  7
KANJI16
  0
LINE
  8
0
  6
CONTINUOUS
 62
     4
 10
4.133333
 20
61.583333
 11
4.133333
 21
295.583315
  0
TEXT
  8
0
  6
CONTINUOUS
 62
     4
 10
301.049949538
 20
82.249994744
 30
0.99999979
 40
9.999997897
  1
Ｎ０．
 50
0.0
 41
0.6
 51
0.0
  7
KANJI13
  0
TEXT
  8
0
  6
CONTINUOUS
 62
     4
 10
301.049949538
 20
67.249997897
 30
1.199999748
 40
11.999997477
  1
項番
 50
0.0
 41
0.9
 51
0.0
  7
KANJI14
  0
LINE
  8
0
  6
CONTINUOUS
 62
     6
 10
391.049930615
 20
62.249998949
 11
391.049930615
 21
132.249984231
  0
LINE
  8
0
  6
CONTINUOUS
 62
     6
 10
291.049951641
 20
62.249998949
 11
291.049951641
 21
132.249984231
  0
LINE
  8
0
  6
CONTINUOUS
 62
     6
 10
334.759425053
 20
1347.997759827
 11
102.714646507
 21
1347.997759827
  0
LINE
  8
0
  6
CONTINUOUS
 62
     3
 10
334.759425053
 20
1320.535259827
 11
102.714646507
 21
1320.535259827
  0
LINE
  8
0
  6
CONTINUOUS
 62
     6
 10
334.759425053
 20
1320.535259827
 11
102.714646507
 21
1320.535259827
  0
TEXT
  8
0
  6
CONTINUOUS
 62
     6
 10
360.342228
 20
1345.450410728
 30
1.232517
 40
13.182
  1
電気定格　　　
 50
0.0
 41
0.85
 51
0.0
  7
KANJI17
  0
TEXT
  8
0
  6
CONTINUOUS
 62
     6
 10
106.623517202
 20
1351.19592676
 30
1.0647
 40
11.661
  1
ＬＳ０１　　　：推力リミッタ（前進時過負荷用）
 50
0.0
 41
0.822608696
 51
0.0
  7
KANJI18
  0
TEXT
  8
0
  6
CONTINUOUS
 62
     6
 10
106.623517202
 20
1323.73342676
 30
1.0647
 40
11.661
  1
ＬＳ０２　　　：推力リミッタ（後進時過負荷用）
 50
0.0
 41
0.822608696
 51
0.0
  7
KANJI18
  0
TEXT
  8
0
  6
CONTINUOUS
 62
     6
 10
373.143715102
 20
1314.876958599
 30
0.0
 40
11.8638
  1
ＤＣ１２５Ｖ　０．６Ａ　，ＤＣ２５０Ｖ　０．３Ａ　
 50
0.0
 41
0.726495726
 51
0.0
  7
KANJI19
  0
TEXT
  8
0
  6
CONTINUOUS
 62
     6
 10
367.887132178
 20
1363.211726126
 30
0.0
 40
45.0
  1
｝
 50
0.0
 41
0.538166667
 51
0.0
  7
KANJI20
  0
LINE
  8
0
  6
LTYPE2
 62
     6
 10
84.75
 20
1375.45
 11
84.75
 21
1116.45
  0
LINE
  8
0
  6
CONTINUOUS
 62
     1
 10
842.05
 20
1240.2
 11
1490.05
 21
1240.2
  0
LINE
  8
0
  6
CONTINUOUS
 62
     1
 10
842.05
 20
1212.2
 11
1490.05
 21
1212.2
  0
TEXT
  8
0
  6
CONTINUOUS
 62
     2
 10
882.05
 20
1220.2
 30
1.28
 40
12.8
  1
形
 50
0.0
 41
0.9
 51
0.0
  7
KANJI21
  0
TEXT
  8
0
  6
CONTINUOUS
 62
     2
 10
960.05
 20
1220.2
 30
1.28
 40
12.8
  1
式
 50
0.0
 41
0.9
 51
0.0
  7
KANJI21
  0
TEXT
  8
0
  6
CONTINUOUS
 62
     2
 10
1020.45
 20
1219.4
 30
1.2
 40
12.0
  1
ストローク
 50
0.0
 41
0.9
 51
0.0
  7
KANJI22
  0
TEXT
  8
0
  6
CONTINUOUS
 62
     2
 10
1097.25
 20
1218.6
 30
0.0
 40
12.0
  1
ｍｉｎ　
 50
0.0
 41
0.9
 51
0.0
  7
KANJI23
  0
TEXT
  8
0
  6
CONTINUOUS
 62
     2
 10
1177.25
 20
1218.6
 30
0.0
 40
12.0
  1
ｍｉｎ　
 50
0.0
 41
0.9
 51
0.0
  7
KANJI23
  0
TEXT
  8
0
  6
CONTINUOUS
 62
     2
 10
1337.25
 20
1218.6
 30
0.0
 40
12.0
  1
ｍｉｎ　
 50
0.0
 41
0.9
 51
0.0
  7
KANJI23
  0
TEXT
  8
0
  6
CONTINUOUS
 62
     2
 10
1138.05
 20
1219.4
 30
1.4
 40
14.0
  1
ＡＬ
 50
0.0
 41
0.9
 51
0.0
  7
KANJI24
  0
TEXT
  8
0
  6
CONTINUOUS
 62
     2
 10
1218.05
 20
1219.4
 30
1.4
 40
14.0
  1
Ｌ
 50
0.0
 41
0.9
 51
0.0
  7
KANJI24
  0
TEXT
  8
0
  6
CONTINUOUS
 62
     2
 10
1286.05
 20
1219.4
 30
1.4
 40
14.0
  1
Ｃ
 50
0.0
 41
0.9
 51
0.0
  7
KANJI24
  0
TEXT
  8
0
  6
CONTINUOUS
 62
     2
 10
1378.05
 20
1219.4
 30
1.4
 40
14.0
  1
Ｐ
 50
0.0
 41
0.9
 51
0.0
  7
KANJI24
  0
TEXT
  8
0
  6
CONTINUOUS
 62
     2
 10
1460.35
 20
1219.1
 30
0.0
 40
10.8
  1
（ｋｇ）
 50
0.0
 41
0.740740741
 51
0.0
  7
KANJI25
  0
TEXT
  8
0
  6
CONTINUOUS
 62
     2
 10
1412.35
 20
1218.9
 30
1.2
 40
14.0
  1
概算重量
 50
0.0
 41
0.857142857
 51
0.0
  7
KANJI26
  0
TEXT
  8
0
  6
CONTINUOUS
 62
     2
 10
1028.05
 20
1190.9
 30
1.2
 40
12.0
  1
　１００
 50
0.0
 41
0.9
 51
0.0
  7
KANJI22
  0
TEXT
  8
0
  6
CONTINUOUS
 62
     2
 10
1028.05
 20
1162.9
 30
1.2
 40
12.0
  1
　２００
 50
0.0
 41
0.9
 51
0.0
  7
KANJI22
  0
TEXT
  8
0
  6
CONTINUOUS
 62
     2
 10
1028.05
 20
1134.9
 30
1.2
 40
12.0
  1
　３００
 50
0.0
 41
0.9
 51
0.0
  7
KANJI22
  0
TEXT
  8
0
  6
CONTINUOUS
 62
     2
 10
1268.05
 20
1190.9
 30
1.2
 40
12.0
  1
　２３８
 50
0.0
 41
0.9
 51
0.0
  7
KANJI22
  0
TEXT
  8
0
  6
CONTINUOUS
 62
     2
 10
1268.05
 20
1162.9
 30
1.2
 40
12.0
  1
　３３８
 50
0.0
 41
0.9
 51
0.0
  7
KANJI22
  0
TEXT
  8
0
  6
CONTINUOUS
 62
     2
 10
1268.05
 20
1134.9
 30
1.2
 40
12.0
  1
　４３８
 50
0.0
 41
0.9
 51
0.0
  7
KANJI22
  0
TEXT
  8
0
  6
CONTINUOUS
 62
     2
 10
1348.05
 20
1134.9
 30
1.2
 40
12.0
  1
　　３５
 50
0.0
 41
0.9
 51
0.0
  7
KANJI22
  0
TEXT
  8
0
  6
CONTINUOUS
 62
     2
 10
1348.05
 20
1162.9
 30
1.2
 40
12.0
  1
　　３５
 50
0.0
 41
0.9
 51
0.0
  7
KANJI22
  0
TEXT
  8
0
  6
CONTINUOUS
 62
     2
 10
1348.05
 20
1190.9
 30
1.2
 40
12.0
  1
　　３５
 50
0.0
 41
0.9
 51
0.0
  7
KANJI22
  0
TEXT
  8
0
  6
CONTINUOUS
 62
     2
 10
1028.05
 20
1022.9
 30
1.2
 40
12.0
  1
　７００
 50
0.0
 41
0.9
 51
0.0
  7
KANJI22
  0
TEXT
  8
0
  6
CONTINUOUS
 62
     2
 10
1268.05
 20
1022.9
 30
1.2
 40
12.0
  1
　８７８
 50
0.0
 41
0.9
 51
0.0
  7
KANJI22
  0
TEXT
  8
0
  6
CONTINUOUS
 62
     2
 10
1028.05
 20
1078.9
 30
1.2
 40
12.0
  1
　５００
 50
0.0
 41
0.9
 51
0.0
  7
KANJI22
  0
TEXT
  8
0
  6
CONTINUOUS
 62
     2
 10
1268.05
 20
1078.9
 30
1.2
 40
12.0
  1
　６３８
 50
0.0
 41
0.9
 51
0.0
  7
KANJI22
  0
TEXT
  8
0
  6
CONTINUOUS
 62
     2
 10
1028.05
 20
1106.9
 30
1.2
 40
12.0
  1
　４００
 50
0.0
 41
0.9
 51
0.0
  7
KANJI22
  0
TEXT
  8
0
  6
CONTINUOUS
 62
     2
 10
1028.05
 20
1050.9
 30
1.2
 40
12.0
  1
　６００
 50
0.0
 41
0.9
 51
0.0
  7
KANJI22
  0
TEXT
  8
0
  6
CONTINUOUS
 62
     2
 10
1268.05
 20
1106.9
 30
1.2
 40
12.0
  1
　５３８
 50
0.0
 41
0.9
 51
0.0
  7
KANJI22
  0
TEXT
  8
0
  6
CONTINUOUS
 62
     2
 10
1268.05
 20
1050.9
 30
1.2
 40
12.0
  1
　７７８
 50
0.0
 41
0.9
 51
0.0
  7
KANJI22
  0
TEXT
  8
0
  6
CONTINUOUS
 62
     2
 10
1348.05
 20
1106.9
 30
1.2
 40
12.0
  1
　　８５
 50
0.0
 41
0.9
 51
0.0
  7
KANJI22
  0
TEXT
  8
0
  6
CONTINUOUS
 62
     2
 10
1348.05
 20
1078.9
 30
1.2
 40
12.0
  1
　１１２
 50
0.0
 41
0.9
 51
0.0
  7
KANJI22
  0
TEXT
  8
0
  6
CONTINUOUS
 62
     2
 10
1348.05
 20
1050.9
 30
1.2
 40
12.0
  1
　１２８
 50
0.0
 41
0.9
 51
0.0
  7
KANJI22
  0
TEXT
  8
0
  6
CONTINUOUS
 62
     2
 10
1348.05
 20
1022.9
 30
1.2
 40
12.0
  1
　１４８
 50
0.0
 41
0.9
 51
0.0
  7
KANJI22
  0
TEXT
  8
0
  6
CONTINUOUS
 62
     2
 10
1188.05
 20
1022.9
 30
1.2
 40
12.0
  1
１０６１
 50
0.0
 41
0.9
 51
0.0
  7
KANJI22
  0
TEXT
  8
0
  6
CONTINUOUS
 62
     2
 10
1188.05
 20
1050.9
 30
1.2
 40
12.0
  1
　９４１
 50
0.0
 41
0.9
 51
0.0
  7
KANJI22
  0
TEXT
  8
0
  6
CONTINUOUS
 62
     2
 10
1188.05
 20
1078.9
 30
1.2
 40
12.0
  1
　７８５
 50
0.0
 41
0.9
 51
0.0
  7
KANJI22
  0
TEXT
  8
0
  6
CONTINUOUS
 62
     2
 10
1188.05
 20
1106.9
 30
1.2
 40
12.0
  1
　６５８
 50
0.0
 41
0.9
 51
0.0
  7
KANJI22
  0
TEXT
  8
0
  6
CONTINUOUS
 62
     2
 10
1188.05
 20
1134.9
 30
1.2
 40
12.0
  1
　５０８
 50
0.0
 41
0.9
 51
0.0
  7
KANJI22
  0
TEXT
  8
0
  6
CONTINUOUS
 62
     2
 10
1188.05
 20
1162.9
 30
1.2
 40
12.0
  1
　４０８
 50
0.0
 41
0.9
 51
0.0
  7
KANJI22
  0
TEXT
  8
0
  6
CONTINUOUS
 62
     2
 10
1188.05
 20
1190.9
 30
1.2
 40
12.0
  1
　３０８
 50
0.0
 41
0.9
 51
0.0
  7
KANJI22
  0
TEXT
  8
0
  6
CONTINUOUS
 62
     2
 10
1108.05
 20
1162.9
 30
1.2
 40
12.0
  1
　７８５
 50
0.0
 41
0.9
 51
0.0
  7
KANJI22
  0
TEXT
  8
0
  6
CONTINUOUS
 62
     2
 10
1108.05
 20
1134.9
 30
1.2
 40
12.0
  1
　８８５
 50
0.0
 41
0.9
 51
0.0
  7
KANJI22
  0
TEXT
  8
0
  6
CONTINUOUS
 62
     2
 10
1108.05
 20
1190.9
 30
1.2
 40
12.0
  1
　６８５
 50
0.0
 41
0.9
 51
0.0
  7
KANJI22
  0
TEXT
  8
0
  6
CONTINUOUS
 62
     2
 10
1108.05
 20
1106.9
 30
1.2
 40
12.0
  1
１０３５
 50
0.0
 41
0.9
 51
0.0
  7
KANJI22
  0
TEXT
  8
0
  6
CONTINUOUS
 62
     2
 10
1108.05
 20
1078.9
 30
1.2
 40
12.0
  1
１１６２
 50
0.0
 41
0.9
 51
0.0
  7
KANJI22
  0
TEXT
  8
0
  6
CONTINUOUS
 62
     2
 10
1108.05
 20
1050.9
 30
1.2
 40
12.0
  1
１３１８
 50
0.0
 41
0.9
 51
0.0
  7
KANJI22
  0
TEXT
  8
0
  6
CONTINUOUS
 62
     2
 10
1108.05
 20
1022.9
 30
1.2
 40
12.0
  1
１４３８
 50
0.0
 41
0.9
 51
0.0
  7
KANJI22
  0
TEXT
  8
0
  6
CONTINUOUS
 62
     2
 10
118.55
 20
24.75
 30
1.5
 40
15.0
  1
ＦＤ　Ｎｏ．ＭＣ１８６
 50
0.0
 41
1.0
 51
0.0
  7
KANJI27
  0
TEXT
  8
0
  6
CONTINUOUS
 62
     2
 10
1639.2166945
 20
127.249995
 30
10.833333333
 40
25.0
  1
３００２３４６
 50
0.0
 41
0.8
 51
0.0
  7
KANJI28
  0
LINE
  8
0
  6
CONTINUOUS
 62
     1
 10
1266.425
 20
1393.25
 11
1266.425
 21
1293.15
  0
LINE
  8
0
  6
CONTINUOUS
 62
     2
 10
1208.675
 20
1393.25
 11
1208.675
 21
1293.15
  0
LINE
  8
0
  6
CONTINUOUS
 62
     2
 10
1150.925
 20
1393.25
 11
1150.925
 21
1293.15
  0
LINE
  8
0
  6
CONTINUOUS
 62
     1
 10
1073.925
 20
1393.25
 11
1073.925
 21
1293.15
  0
LINE
  8
0
  6
CONTINUOUS
 62
     1
 10
1073.925
 20
1393.25
 11
1266.425
 21
1393.25
  0
LINE
  8
0
  6
CONTINUOUS
 62
     1
 10
1073.925
 20
1362.45
 11
1266.425
 21
1362.45
  0
LINE
  8
0
  6
CONTINUOUS
 62
     2
 10
1073.925
 20
1339.35
 11
1266.425
 21
1339.35
  0
LINE
  8
0
  6
CONTINUOUS
 62
     2
 10
1073.925
 20
1316.25
 11
1266.425
 21
1316.25
  0
LINE
  8
0
  6
CONTINUOUS
 62
     1
 10
1073.925
 20
1293.15
 11
1266.425
 21
1293.15
  0
TEXT
  8
0
  6
CONTINUOUS
 62
     2
 10
1216.375
 20
1379.775
 30
1.155
 40
11.55
  1
起動電流
 50
0.0
 41
0.9
 51
0.0
  7
KANJI29
  0
TEXT
  8
0
  6
CONTINUOUS
 62
     2
 10
1216.375
 20
1366.3
 30
1.155
 40
11.55
  1
　　　Ａ
 50
0.0
 41
0.9
 51
0.0
  7
KANJI29
  0
TEXT
  8
0
  6
CONTINUOUS
 62
     2
 10
1158.625
 20
1379.775
 30
1.155
 40
11.55
  1
定格電流
 50
0.0
 41
0.9
 51
0.0
  7
KANJI29
  0
TEXT
  8
0
  6
CONTINUOUS
 62
     2
 10
1158.625
 20
1366.3
 30
1.155
 40
11.55
  1
　　　Ａ
 50
0.0
 41
0.9
 51
0.0
  7
KANJI29
  0
TEXT
  8
0
  6
CONTINUOUS
 62
     2
 10
1080.47
 20
1322.025
 30
1.155
 40
11.55
  1
２００／６０
 50
0.0
 41
0.9
 51
0.0
  7
KANJI29
  0
TEXT
  8
0
  6
CONTINUOUS
 62
     2
 10
1080.47
 20
1379.775
 30
1.155
 40
11.55
  1
電圧／周波数
 50
0.0
 41
0.9
 51
0.0
  7
KANJI29
  0
TEXT
  8
0
  6
CONTINUOUS
 62
     2
 10
1080.47
 20
1366.3
 30
1.155
 40
11.55
  1
　Ｖ／Ｈｚ
 50
0.0
 41
0.9
 51
0.0
  7
KANJI29
  0
TEXT
  8
0
  6
CONTINUOUS
 62
     2
 10
1080.47
 20
1345.125
 30
1.155
 40
11.55
  1
２００／５０
 50
0.0
 41
0.9
 51
0.0
  7
KANJI29
  0
TEXT
  8
0
  6
CONTINUOUS
 62
     2
 10
1080.47
 20
1298.925
 30
1.155
 40
11.55
  1
２２０／６０
 50
0.0
 41
0.9
 51
0.0
  7
KANJI29
  0
LINE
  8
0
  6
CONTINUOUS
 62
     1
 10
1035.425
 20
1393.25
 11
1035.425
 21
1293.15
  0
LINE
  8
0
  6
CONTINUOUS
 62
     2
 10
977.675
 20
1393.25
 11
977.675
 21
1293.15
  0
LINE
  8
0
  6
CONTINUOUS
 62
     2
 10
919.925
 20
1393.25
 11
919.925
 21
1293.15
  0
LINE
  8
0
  6
CONTINUOUS
 62
     1
 10
842.925
 20
1393.25
 11
842.925
 21
1293.15
  0
LINE
  8
0
  6
CONTINUOUS
 62
     1
 10
842.925
 20
1393.25
 11
1035.425
 21
1393.25
  0
LINE
  8
0
  6
CONTINUOUS
 62
     1
 10
842.925
 20
1362.45
 11
1035.425
 21
1362.45
  0
LINE
  8
0
  6
CONTINUOUS
 62
     2
 10
842.925
 20
1339.35
 11
1035.425
 21
1339.35
  0
LINE
  8
0
  6
CONTINUOUS
 62
     2
 10
842.925
 20
1316.25
 11
1035.425
 21
1316.25
  0
LINE
  8
0
  6
CONTINUOUS
 62
     1
 10
842.925
 20
1293.15
 11
1035.425
 21
1293.15
  0
TEXT
  8
0
  6
CONTINUOUS
 62
     2
 10
985.375
 20
1379.775
 30
1.155
 40
11.55
  1
起動電流
 50
0.0
 41
0.9
 51
0.0
  7
KANJI29
  0
TEXT
  8
0
  6
CONTINUOUS
 62
     2
 10
985.375
 20
1366.3
 30
1.155
 40
11.55
  1
　　　Ａ
 50
0.0
 41
0.9
 51
0.0
  7
KANJI29
  0
TEXT
  8
0
  6
CONTINUOUS
 62
     2
 10
927.625
 20
1379.775
 30
1.155
 40
11.55
  1
定格電流
 50
0.0
 41
0.9
 51
0.0
  7
KANJI29
  0
TEXT
  8
0
  6
CONTINUOUS
 62
     2
 10
927.625
 20
1366.3
 30
1.155
 40
11.55
  1
　　　Ａ
 50
0.0
 41
0.9
 51
0.0
  7
KANJI29
  0
TEXT
  8
0
  6
CONTINUOUS
 62
     2
 10
849.47
 20
1379.775
 30
1.155
 40
11.55
  1
電圧／周波数
 50
0.0
 41
0.9
 51
0.0
  7
KANJI29
  0
TEXT
  8
0
  6
CONTINUOUS
 62
     2
 10
849.47
 20
1366.3
 30
1.155
 40
11.55
  1
　Ｖ／Ｈｚ
 50
0.0
 41
0.9
 51
0.0
  7
KANJI29
  0
TEXT
  8
0
  6
CONTINUOUS
 62
     2
 10
849.47
 20
1345.125
 30
1.155
 40
11.55
  1
４００／５０
 50
0.0
 41
0.9
 51
0.0
  7
KANJI29
  0
TEXT
  8
0
  6
CONTINUOUS
 62
     2
 10
849.47
 20
1322.025
 30
1.155
 40
11.55
  1
４００／６０
 50
0.0
 41
0.9
 51
0.0
  7
KANJI29
  0
TEXT
  8
0
  6
CONTINUOUS
 62
     2
 10
849.47
 20
1298.925
 30
1.155
 40
11.55
  1
４４０／６０
 50
0.0
 41
0.9
 51
0.0
  7
KANJI29
  0
TEXT
  8
0
  6
CONTINUOUS
 62
     2
 10
927.625
 20
1345.125
 30
1.155
 40
11.55
  1
　２．０
 50
0.0
 41
0.9
 51
0.0
  7
KANJI29
  0
TEXT
  8
0
  6
CONTINUOUS
 62
     2
 10
927.625
 20
1322.025
 30
1.155
 40
11.55
  1
　１．４
 50
0.0
 41
0.9
 51
0.0
  7
KANJI29
  0
TEXT
  8
0
  6
CONTINUOUS
 62
     2
 10
927.625
 20
1298.925
 30
1.155
 40
11.55
  1
　１．７
 50
0.0
 41
0.9
 51
0.0
  7
KANJI29
  0
TEXT
  8
0
  6
CONTINUOUS
 62
     2
 10
1158.625
 20
1345.125
 30
1.155
 40
11.55
  1
　４．０
 50
0.0
 41
0.9
 51
0.0
  7
KANJI29
  0
TEXT
  8
0
  6
CONTINUOUS
 62
     2
 10
1158.625
 20
1322.025
 30
1.155
 40
11.55
  1
　２．８
 50
0.0
 41
0.9
 51
0.0
  7
KANJI29
  0
TEXT
  8
0
  6
CONTINUOUS
 62
     2
 10
1158.625
 20
1298.925
 30
1.155
 40
11.55
  1
　３．３
 50
0.0
 41
0.9
 51
0.0
  7
KANJI29
  0
TEXT
  8
0
  6
CONTINUOUS
 62
     2
 10
1216.375
 20
1345.125
 30
1.155
 40
11.55
  1
　９．２
 50
0.0
 41
0.9
 51
0.0
  7
KANJI29
  0
TEXT
  8
0
  6
CONTINUOUS
 62
     2
 10
1216.375
 20
1322.025
 30
1.155
 40
11.55
  1
　８
 50
0.0
 41
0.9
 51
0.0
  7
KANJI29
  0
TEXT
  8
0
  6
CONTINUOUS
 62
     2
 10
1216.375
 20
1298.925
 30
1.155
 40
11.55
  1
　８．８
 50
0.0
 41
0.9
 51
0.0
  7
KANJI29
  0
TEXT
  8
0
  6
CONTINUOUS
 62
     2
 10
985.375
 20
1345.125
 30
1.155
 40
11.55
  1
　４．６
 50
0.0
 41
0.9
 51
0.0
  7
KANJI29
  0
TEXT
  8
0
  6
CONTINUOUS
 62
     2
 10
985.375
 20
1322.025
 30
1.155
 40
11.55
  1
　４
 50
0.0
 41
0.9
 51
0.0
  7
KANJI29
  0
TEXT
  8
0
  6
CONTINUOUS
 62
     2
 10
985.375
 20
1298.925
 30
1.155
 40
11.55
  1
　４．４
 50
0.0
 41
0.9
 51
0.0
  7
KANJI29
  0
LINE
  8
0
  6
CONTINUOUS
 62
     2
 10
842.05
 20
1184.2
 11
1490.05
 21
1184.2
  0
LINE
  8
0
  6
CONTINUOUS
 62
     2
 10
842.05
 20
1156.2
 11
1490.05
 21
1156.2
  0
LINE
  8
0
  6
CONTINUOUS
 62
     2
 10
842.05
 20
1128.2
 11
1490.05
 21
1128.2
  0
LINE
  8
0
  6
CONTINUOUS
 62
     2
 10
842.05
 20
1072.2
 11
1490.05
 21
1072.2
  0
LINE
  8
0
  6
CONTINUOUS
 62
     2
 10
842.05
 20
1100.2
 11
1490.05
 21
1100.2
  0
LINE
  8
0
  6
CONTINUOUS
 62
     2
 10
842.05
 20
1016.2
 11
1490.05
 21
1016.2
  0
LINE
  8
0
  6
CONTINUOUS
 62
     2
 10
842.05
 20
1044.2
 11
1490.05
 21
1044.2
  0
TEXT
  8
0
  6
CONTINUOUS
 62
     2
 10
1406.05
 20
1191.9
 30
1.2
 40
12.0
  1
　　２４
 50
0.0
 41
0.9
 51
0.0
  7
KANJI22
  0
TEXT
  8
0
  6
CONTINUOUS
 62
     2
 10
1406.05
 20
1163.9
 30
1.2
 40
12.0
  1
　　２５
 50
0.0
 41
0.9
 51
0.0
  7
KANJI22
  0
TEXT
  8
0
  6
CONTINUOUS
 62
     2
 10
1406.05
 20
1135.9
 30
1.2
 40
12.0
  1
　　２６
 50
0.0
 41
0.9
 51
0.0
  7
KANJI22
  0
TEXT
  8
0
  6
CONTINUOUS
 62
     2
 10
1406.05
 20
1107.9
 30
1.2
 40
12.0
  1
　　２６．５
 50
0.0
 41
0.9
 51
0.0
  7
KANJI22
  0
TEXT
  8
0
  6
CONTINUOUS
 62
     2
 10
1406.05
 20
1079.9
 30
1.2
 40
12.0
  1
　　２７
 50
0.0
 41
0.9
 51
0.0
  7
KANJI22
  0
TEXT
  8
0
  6
CONTINUOUS
 62
     2
 10
1406.05
 20
1051.9
 30
1.2
 40
12.0
  1
　　２８
 50
0.0
 41
0.9
 51
0.0
  7
KANJI22
  0
TEXT
  8
0
  6
CONTINUOUS
 62
     2
 10
1406.05
 20
1023.9
 30
1.2
 40
12.0
  1
　　２９
 50
0.0
 41
0.9
 51
0.0
  7
KANJI22
  0
TEXT
  8
0
  6
CONTINUOUS
 62
     6
 10
297.762791539
 20
1134.47382165
 30
0.0
 40
17.740702234
  1
端子台　接続図
 50
0.0
 41
0.880962996
 51
0.0
  7
KANJI30
  0
LINE
  8
0
  6
CONTINUOUS
 62
     2
 10
332.727373465
 20
1185.478121884
 11
332.727373465
 21
1162.699155128
  0
LINE
  8
0
  6
CONTINUOUS
 62
     2
 10
359.30283468
 20
1185.478121884
 11
359.30283468
 21
1162.699155128
  0
LINE
  8
0
  6
CONTINUOUS
 62
     2
 10
385.878295894
 20
1185.478121884
 11
385.878295894
 21
1162.699155128
  0
LINE
  8
0
  6
CONTINUOUS
 62
     2
 10
412.453757109
 20
1185.478121884
 11
412.453757109
 21
1162.699155128
  0
CIRCLE
  8
0
  6
CONTINUOUS
 62
     6
 10
404.534269667
 20
1208.957921517
 40
4.100214016
  0
LINE
  8
0
  6
CONTINUOUS
 62
     6
 10
400.434055651
 20
1208.957921517
 11
399.166026502
 21
1208.957921517
  0
LINE
  8
0
  6
CONTINUOUS
 62
     6
 10
425.488027433
 20
1222.644562742
 11
421.573558096
 21
1200.309507138
  0
LINE
  8
0
  6
CONTINUOUS
 62
     6
 10
420.761699663
 20
1223.432284037
 11
416.846922494
 21
1201.097279739
  0
LINE
  8
0
  6
CONTINUOUS
 62
     6
 10
421.573558096
 20
1200.309507138
 11
416.846922494
 21
1201.097279739
  0
CIRCLE
  8
0
  6
CONTINUOUS
 62
     6
 10
425.741487717
 20
1199.489464335
 40
4.100214016
  0
LINE
  8
0
  6
CONTINUOUS
 62
     6
 10
425.741487717
 20
1195.389250319
 11
425.741487717
 21
1185.478121884
  0
LINE
  8
0
  6
CONTINUOUS
 62
     6
 10
399.166026502
 20
1208.957921517
 11
399.166026502
 21
1185.478121884
  0
LINE
  8
0
  6
CONTINUOUS
 62
     6
 10
372.590565287
 20
1185.478121884
 11
372.590565287
 21
1239.183332504
  0
LINE
  8
0
  6
CONTINUOUS
 62
     6
 10
293.117641926
 20
1222.644562742
 11
297.032111263
 21
1200.309507138
  0
LINE
  8
0
  6
CONTINUOUS
 62
     6
 10
297.843969696
 20
1223.432284037
 11
301.758746865
 21
1201.097279739
  0
LINE
  8
0
  6
CONTINUOUS
 62
     6
 10
297.032111263
 20
1200.309507138
 11
301.758746865
 21
1201.097279739
  0
CIRCLE
  8
0
  6
CONTINUOUS
 62
     6
 10
292.864181642
 20
1199.489464335
 40
4.100214016
  0
CIRCLE
  8
0
  6
CONTINUOUS
 62
     6
 10
314.071399692
 20
1208.957921517
 40
4.100214016
  0
LINE
  8
0
  6
CONTINUOUS
 62
     6
 10
318.171613708
 20
1208.957921517
 11
319.439642857
 21
1208.957921517
  0
LINE
  8
0
  6
CONTINUOUS
 62
     6
 10
292.864181642
 20
1195.389250319
 11
292.864181642
 21
1185.478121884
  0
LINE
  8
0
  6
CONTINUOUS
 62
     6
 10
319.439642857
 20
1208.957921517
 11
319.439642857
 21
1185.478121884
  0
LINE
  8
0
  6
CONTINUOUS
 62
     6
 10
346.015104072
 20
1185.478121884
 11
346.015104072
 21
1239.183332504
  0
LINE
  8
0
  6
CONTINUOUS
 62
     2
 10
439.029218324
 20
1185.478121884
 11
439.029218324
 21
1162.699155128
  0
LINE
  8
0
  6
CONTINUOUS
 62
     2
 10
279.576451035
 20
1185.478121884
 11
279.576451035
 21
1162.699155128
  0
LINE
  8
0
  6
CONTINUOUS
 62
     2
 10
306.15191225
 20
1185.478121884
 11
306.15191225
 21
1162.699155128
  0
LINE
  8
0
  6
CONTINUOUS
 62
     6
 10
425.741487717
 20
1239.183332504
 11
372.590565287
 21
1239.183332504
  0
CIRCLE
  8
0
  6
CONTINUOUS
 62
     6
 10
425.741487717
 20
1226.83941042
 40
4.100214016
  0
LINE
  8
0
  6
CONTINUOUS
 62
     6
 10
425.488027433
 20
1222.644562742
 11
420.761699663
 21
1223.432284037
  0
LINE
  8
0
  6
CONTINUOUS
 62
     6
 10
425.741487717
 20
1230.939624436
 11
425.741487717
 21
1239.183332504
  0
CIRCLE
  8
0
  6
CONTINUOUS
 62
     6
 10
292.864181642
 20
1226.83941042
 40
4.100214016
  0
LINE
  8
0
  6
CONTINUOUS
 62
     6
 10
293.117641926
 20
1222.644562742
 11
297.843969696
 21
1223.432284037
  0
LINE
  8
0
  6
CONTINUOUS
 62
     6
 10
292.864181642
 20
1230.939624436
 11
292.864181642
 21
1239.183332504
  0
LINE
  8
0
  6
CONTINUOUS
 62
     6
 10
346.015104072
 20
1239.183332504
 11
292.864181642
 21
1239.183332504
  0
TEXT
  8
0
  6
CONTINUOUS
 62
     6
 10
297.6272152
 20
1243.702473273
 30
0.819
 40
11.7
  1
ＬＳ０１
 50
0.0
 41
0.8
 51
0.0
  7
KANJI31
  0
TEXT
  8
0
  6
CONTINUOUS
 62
     6
 10
380.247398844
 20
1243.702473273
 30
0.819
 40
11.7
  1
ＬＳ０２
 50
0.0
 41
0.8
 51
0.0
  7
KANJI31
  0
TEXT
  8
0
  6
CONTINUOUS
 62
     3
 10
125.438775989
 20
1166.495649587
 30
0.0
 40
15.0
  1
　　　　　　　　　　　　　　　　　　１　　２　　　３　　　４　　　５　　　６
 50
0.0
 41
0.911
 51
0.0
  7
KANJI32
  0
LINE
  8
0
  6
CONTINUOUS
 62
     2
 10
279.576451035
 20
1185.478121884
 11
439.029218324
 21
1185.478121884
  0
LINE
  8
0
  6
CONTINUOUS
 62
     2
 10
279.576451035
 20
1162.699155128
 11
439.029218324
 21
1162.699155128
  0
TEXT
  8
0
  6
CONTINUOUS
 62
     6
 10
271.262791539
 20
1273.47382165
 30
0.0
 40
17.740702234
  1
推力リミッタ端子台配列
 50
0.0
 41
0.880962996
 51
0.0
  7
KANJI30
  0
TEXT
  8
0
  6
CONTINUOUS
 62
     2
 10
876.2275
 20
1275.825
 30
1.3475
 40
13.475
  1
注意：サーマルリレー等の選定は、上記の値を選定して下さい。
 50
0.0
 41
0.9
 51
0.0
  7
KANJI33
  0
LINE
  8
0
  6
CONTINUOUS
 62
     2
 10
868.5275
 20
1271.975
 11
1261.0675
 21
1271.975
  0
LINE
  8
0
  6
LTYPE2
 62
     6
 10
227.196929694
 20
970.45
 11
96.8
 21
970.45
  0
LINE
  8
0
  6
CONTINUOUS
 62
     6
 10
91.77521631
 20
945.744189033
 11
101.980193417
 21
955.94916614
  0
TEXT
  8
0
  6
CONTINUOUS
 62
     6
 10
107.045473047
 20
979.116131352
 30
1.518597784
 40
15.185977837
  1
エコノストップモータ
 50
0.0
 41
0.66671875
 51
0.0
  7
KANJI34
  0
LINE
  8
0
  6
LTYPE2
 62
     6
 10
227.196929694
 20
875.038267891
 11
227.196929694
 21
970.45
  0
CIRCLE
  8
0
  6
CONTINUOUS
 62
     6
 10
141.629006575
 20
925.256529957
 40
18.223173404
  0
TEXT
  8
0
  6
CONTINUOUS
 62
     6
 10
133.975273745
 20
916.509406723
 30
1.82231734
 40
18.223173404
  1
Ｍ
 50
0.0
 41
0.9
 51
0.0
  7
KANJI35
  0
LINE
  8
0
  6
CONTINUOUS
 62
     6
 10
117.574417681
 20
899.744087191
 11
128.872785192
 21
912.864772042
  0
LINE
  8
0
  6
CONTINUOUS
 62
     6
 10
117.574417681
 20
950.768972723
 11
128.872785192
 21
937.648287872
  0
LINE
  8
0
  6
CONTINUOUS
 62
     6
 10
117.574417681
 20
950.768972723
 11
101.173561617
 21
950.768972723
  0
LINE
  8
0
  6
CONTINUOUS
 62
     6
 10
123.770296639
 20
925.256529957
 11
101.173561617
 21
925.256529957
  0
LINE
  8
0
  6
CONTINUOUS
 62
     6
 10
117.574417681
 20
899.744087191
 11
101.173561617
 21
899.744087191
  0
LINE
  8
0
  6
CONTINUOUS
 62
     6
 10
91.77521631
 20
920.231746267
 11
101.980193417
 21
930.436723374
  0
LINE
  8
0
  6
CONTINUOUS
 62
     6
 10
91.77521631
 20
894.719303501
 11
101.980193417
 21
904.924280607
  0
LINE
  8
0
  6
LTYPE2
 62
     6
 10
227.196929694
 20
875.038267891
 11
96.8
 21
875.038267891
  0
TEXT
  8
0
  6
CONTINUOUS
 62
     6
 10
167.553688562
 20
917.001432405
 30
1.457853872
 40
14.578538724
  1
Ｂ
 50
0.0
 41
0.9
 51
0.0
  7
KANJI36
  0
CIRCLE
  8
0
  6
CONTINUOUS
 62
     6
 10
174.114030988
 20
925.256529957
 40
14.578538724
  0
LINE
  8
0
  6
LTYPE2
 62
     6
 10
96.8
 20
970.45
 11
96.8
 21
954.049143936
  0
CIRCLE
  8
0
  6
CONTINUOUS
 62
     6
 10
96.8
 20
950.768972723
 40
4.373561617
  0
CIRCLE
  8
0
  6
CONTINUOUS
 62
     6
 10
96.8
 20
925.256529957
 40
4.373561617
  0
LINE
  8
0
  6
LTYPE2
 62
     6
 10
96.8
 20
946.759874574
 11
96.8
 21
928.53670117
  0
CIRCLE
  8
0
  6
CONTINUOUS
 62
     6
 10
96.8
 20
899.744087191
 40
4.373561617
  0
LINE
  8
0
  6
LTYPE2
 62
     6
 10
96.8
 20
921.247431808
 11
96.8
 21
904.117648808
  0
LINE
  8
0
  6
LTYPE2
 62
     6
 10
96.8
 20
895.370525574
 11
96.8
 21
875.038267891
  0
TEXT
  8
0
  6
CONTINUOUS
 62
     2
 10
101.895393364
 20
849.828904811
 30
0.0
 40
15.6
  1
モーター結線図
 50
0.0
 41
0.925
 51
0.0
  7
KANJI37
  0
TEXT
  8
0
  6
CONTINUOUS
 62
     6
 10
79.265257591
 20
956.964851681
 30
1.093390404
 40
10.933904043
  1
Ｕ
 50
0.0
 41
0.9
 51
0.0
  7
KANJI38
  0
TEXT
  8
0
  6
CONTINUOUS
 62
     6
 10
80.358647995
 20
931.087945446
 30
1.093390404
 40
10.933904043
  1
Ｖ
 50
0.0
 41
0.9
 51
0.0
  7
KANJI38
  0
TEXT
  8
0
  6
CONTINUOUS
 62
     6
 10
81.452038399
 20
905.211039212
 30
1.093390404
 40
10.933904043
  1
Ｗ
 50
0.0
 41
0.9
 51
0.0
  7
KANJI38
  0
CIRCLE
  8
0
  6
CONTINUOUS
 62
     1
 10
577.0
 20
598.5
 40
20.0
  0
CIRCLE
  8
0
  6
CONTINUOUS
 62
     1
 10
577.0
 20
598.5
 40
8.0
  0
CIRCLE
  8
0
  6
CONTINUOUS
 62
     1
 10
577.0
 20
598.5
 40
27.0
  0
LINE
  8
0
  6
CONTINUOUS
 62
     1
 10
683.0
 20
558.5
 11
683.0
 21
638.5
  0
LINE
  8
0
  6
CONTINUOUS
 62
     1
 10
675.0
 20
558.5
 11
683.0
 21
558.5
  0
LINE
  8
0
  6
CONTINUOUS
 62
     1
 10
675.0
 20
638.5
 11
683.0
 21
638.5
  0
LINE
  8
0
  6
CONTINUOUS
 62
     1
 10
675.0
 20
635.5
 11
683.0
 21
635.5
  0
LINE
  8
0
  6
CONTINUOUS
 62
     1
 10
675.0
 20
561.5
 11
683.0
 21
561.5
  0
LINE
  8
0
  6
CONTINUOUS
 62
     1
 10
675.0
 20
597.0
 11
683.0
 21
597.0
  0
LINE
  8
0
  6
CONTINUOUS
 62
     1
 10
675.0
 20
600.0
 11
683.0
 21
600.0
  0
LINE
  8
0
  6
CONTINUOUS
 62
     1
 10
601.0
 20
621.5
 11
675.0
 21
621.5
  0
LINE
  8
0
  6
CONTINUOUS
 62
     1
 10
421.0
 20
540.5
 11
443.0
 21
540.5
  0
LINE
  8
0
  6
CONTINUOUS
 62
     1
 10
497.0
 20
636.5
 11
601.0
 21
636.5
  0
LINE
  8
0
  6
CONTINUOUS
 62
     1
 10
497.0
 20
560.5
 11
497.0
 21
636.5
  0
LINE
  8
0
  6
CONTINUOUS
 62
     1
 10
497.0
 20
560.5
 11
675.0
 21
560.5
  0
LINE
  8
0
  6
CONTINUOUS
 62
     1
 10
497.0
 20
560.5
 11
443.0
 21
540.5
  0
LINE
  8
0
  6
CONTINUOUS
 62
     1
 10
421.0
 20
656.5
 11
443.0
 21
656.5
  0
LINE
  8
0
  6
CONTINUOUS
 62
     1
 10
443.0
 20
540.5
 11
443.0
 21
656.5
  0
LINE
  8
0
  6
CONTINUOUS
 62
     1
 10
443.0
 20
656.5
 11
497.0
 21
636.5
  0
LINE
  8
0
  6
CONTINUOUS
 62
     1
 10
675.0
 20
558.5
 11
675.0
 21
643.5
  0
LINE
  8
0
  6
CONTINUOUS
 62
     1
 10
601.0
 20
643.5
 11
675.0
 21
643.5
  0
LINE
  8
0
  6
CONTINUOUS
 62
     1
 10
601.0
 20
615.5
 11
601.0
 21
643.5
  0
LINE
  8
0
  6
CONTINUOUS
 62
     1
 10
550.0
 20
688.0
 11
683.0
 21
688.0
  0
LINE
  8
0
  6
CONTINUOUS
 62
     1
 10
593.0
 20
645.0
 11
680.0
 21
645.0
  0
ARC
  8
0
  6
CONTINUOUS
 62
     1
 10
680.0
 20
648.0
 40
3.0
 50
270.0
 51
0.0
  0
LINE
  8
0
  6
CONTINUOUS
 62
     1
 10
550.0
 20
688.0
 11
550.0
 21
649.0
  0
LINE
  8
0
  6
CONTINUOUS
 62
     1
 10
553.0
 20
646.0
 11
593.0
 21
646.0
  0
ARC
  8
0
  6
CONTINUOUS
 62
     1
 10
553.0
 20
649.0
 40
3.0
 50
180.0
 51
270.0
  0
LINE
  8
0
  6
CONTINUOUS
 62
     1
 10
555.0
 20
695.5
 11
555.0
 21
646.0
  0
LINE
  8
0
  6
CONTINUOUS
 62
     1
 10
555.0
 20
695.5
 11
683.0
 21
695.5
  0
LINE
  8
0
  6
CONTINUOUS
 62
     1
 10
683.0
 20
695.5
 11
683.0
 21
648.0
  0
LINE
  8
0
  6
CONTINUOUS
 62
     1
 10
555.0
 20
689.5
 11
683.0
 21
689.5
  0
LINE
  8
0
  6
CONTINUOUS
 62
     1
 10
601.0
 20
645.0
 11
601.0
 21
643.5
  0
LINE
  8
0
  6
CONTINUOUS
 62
     1
 10
675.0
 20
645.0
 11
675.0
 21
643.5
  0
LINE
  8
0
  6
CONTINUOUS
 62
     1
 10
593.0
 20
646.0
 11
593.0
 21
645.0
  0
LINE
  8
0
  6
CONTINUOUS
 62
     1
 10
412.0
 20
538.5
 11
421.0
 21
538.5
  0
LINE
  8
0
  6
CONTINUOUS
 62
     1
 10
412.0
 20
658.5
 11
421.0
 21
658.5
  0
LINE
  8
0
  6
CONTINUOUS
 62
     1
 10
421.0
 20
538.5
 11
421.0
 21
658.5
  0
LINE
  8
0
  6
LTYPE3
 62
     2
 10
577.0
 20
545.5
 11
577.0
 21
651.5
  0
LINE
  8
0
  6
LTYPE2
 62
     2
 10
544.0
 20
671.0
 11
561.0
 21
671.0
  0
LINE
  8
0
  6
LTYPE3
 62
     2
 10
638.0
 20
629.143325909
 11
638.0
 21
656.5
  0
LINE
  8
7
  6
CONTINUOUS
 62
     2
 10
550.0
 20
671.0
 11
545.0
 21
679.660254038
  0
LINE
  8
7
  6
CONTINUOUS
 62
     2
 10
550.0
 20
671.0
 11
541.339745962
 21
676.0
  0
LINE
  8
7
  6
CONTINUOUS
 62
     2
 10
550.0
 20
671.0
 11
525.0
 21
696.0
  0
LINE
  8
7
  6
CONTINUOUS
 62
     2
 10
525.0
 20
696.0
 11
466.2
 21
696.0
  0
LINE
  8
7
  6
CONTINUOUS
 62
     2
 10
615.0
 20
695.5
 11
622.189002379
 21
702.451132627
  0
LINE
  8
7
  6
CONTINUOUS
 62
     2
 10
615.0
 20
695.5
 11
617.750292375
 21
705.114358629
  0
LINE
  8
7
  6
CONTINUOUS
 62
     2
 10
615.0
 20
695.5
 11
630.0
 21
720.5
  0
LINE
  8
7
  6
CONTINUOUS
 62
     2
 10
630.0
 20
720.5
 11
700.8
 21
720.5
  0
LINE
  8
2
  6
CONTINUOUS
 62
     2
 10
577.0
 20
598.5
 11
570.382704924
 21
591.002573383
  0
LINE
  8
2
  6
CONTINUOUS
 62
     2
 10
577.0
 20
598.5
 11
575.017967669
 21
588.698390549
  0
LINE
  8
0
  6
CONTINUOUS
 62
     2
 10
577.0
 20
793.5
 11
586.659258263
 21
790.911809549
  0
LINE
  8
0
  6
CONTINUOUS
 62
     2
 10
577.0
 20
793.5
 11
586.659258263
 21
796.088190451
  0
LINE
  8
0
  6
CONTINUOUS
 62
     2
 10
577.0
 20
763.5
 11
586.659258263
 21
760.911809549
  0
LINE
  8
0
  6
CONTINUOUS
 62
     2
 10
577.0
 20
763.5
 11
586.659258263
 21
766.088190451
  0
LINE
  8
0
  6
CONTINUOUS
 62
     2
 10
577.0
 20
633.5
 11
577.0
 21
801.5
  0
LINE
  8
7
  6
CONTINUOUS
 62
     2
 10
577.0
 20
799.5
 11
577.0
 21
799.5
  0
LINE
  8
7
  6
CONTINUOUS
 62
     2
 10
577.0
 20
793.5
 11
567.340741737
 21
796.088190451
  0
LINE
  8
7
  6
CONTINUOUS
 62
     2
 10
577.0
 20
793.5
 11
567.340741737
 21
790.911809549
  0
LINE
  8
7
  6
CONTINUOUS
 62
     2
 10
577.0
 20
793.5
 11
200.0
 21
793.5
  0
TEXT
  8
7
  6
CONTINUOUS
 62
     2
 10
466.2
 20
700.0
 30
0.0
 40
15.0
  1
ＰＦ１／２
 50
0.0
 41
0.9
 51
0.0
  7
KANJI39
  0
TEXT
  8
7
  6
CONTINUOUS
 62
     2
 10
630.0
 20
724.5
 30
0.0
 40
15.0
  1
推力リミッタ
 50
0.0
 41
0.9
 51
0.0
  7
KANJI39
  0
TEXT
  8
0
  6
CONTINUOUS
 62
     2
 10
702.0
 20
767.5
 30
0.0
 40
15.0
  1
Ｃ
 50
0.0
 41
0.9
 51
0.0
  7
KANJI39
  0
TEXT
  8
0
  6
CONTINUOUS
 62
     2
 10
591.2
 20
827.5
 30
0.0
 40
15.0
  1
ｍｉｎ．ＡＬ
 50
0.0
 41
0.9
 51
0.0
  7
KANJI39
  0
LINE
  8
0
  6
LTYPE3
 62
     2
 10
192.0
 20
598.5
 11
704.349814745
 21
598.5
  0
LINE
  8
0
  6
CONTINUOUS
 62
     1
 10
555.7
 20
695.5
 11
566.3
 21
695.5
  0
ARC
  8
0
  6
CONTINUOUS
 62
     1
 10
560.6
 20
694.5
 40
5.0
 50
92.3
 51
168.5
  0
ARC
  8
0
  6
CONTINUOUS
 62
     1
 10
561.4
 20
694.5
 40
5.0
 50
11.5
 51
87.7
  0
LINE
  8
0
  6
CONTINUOUS
 62
     1
 10
560.4
 20
699.5
 11
561.6
 21
699.5
  0
LINE
  8
0
  6
LTYPE4
 62
     2
 10
561.0
 20
702.9
 11
561.0
 21
689.5
  0
LINE
  8
0
  6
CONTINUOUS
 62
     1
 10
671.7
 20
695.5
 11
682.3
 21
695.5
  0
ARC
  8
0
  6
CONTINUOUS
 62
     1
 10
676.6
 20
694.5
 40
5.0
 50
92.3
 51
168.5
  0
ARC
  8
0
  6
CONTINUOUS
 62
     1
 10
677.4
 20
694.5
 40
5.0
 50
11.5
 51
87.7
  0
LINE
  8
0
  6
CONTINUOUS
 62
     1
 10
676.4
 20
699.5
 11
677.6
 21
699.5
  0
LINE
  8
0
  6
LTYPE4
 62
     2
 10
677.0
 20
702.9
 11
677.0
 21
689.5
  0
TEXT
  8
0
  6
CONTINUOUS
 62
     2
 10
181.0
 20
468.0
 30
0.0
 40
20.0
  1
ブレーキ解放装置はありません。
 50
0.0
 41
0.925
 51
0.0
  7
KANJI40
  0
TEXT
  8
0
  6
CONTINUOUS
 62
     2
 10
182.0
 20
443.0
 30
0.0
 40
20.0
  1
そのまま手動操作をして下さい．
 50
0.0
 41
0.925
 51
0.0
  7
KANJI40
  0
LINE
  8
0
  6
CONTINUOUS
 62
     1
 10
412.0
 20
538.5
 11
412.0
 21
658.5
  0
LINE
  8
0
  6
CONTINUOUS
 62
     1
 10
398.0
 20
598.5
 11
398.0
 21
655.5
  0
ARC
  8
0
  6
CONTINUOUS
 62
     1
 10
402.5
 20
657.0
 40
1.5
 50
270.0
 51
0.0
  0
LINE
  8
0
  6
CONTINUOUS
 62
     1
 10
405.5
 20
659.5
 11
412.0
 21
659.5
  0
LINE
  8
0
  6
CONTINUOUS
 62
     1
 10
404.0
 20
657.0
 11
404.0
 21
658.0
  0
ARC
  8
0
  6
CONTINUOUS
 62
     1
 10
405.5
 20
658.0
 40
1.5
 50
90.0
 51
180.0
  0
LINE
  8
0
  6
CONTINUOUS
 62
     1
 10
404.0
 20
598.5
 11
404.0
 21
657.6
  0
LINE
  8
0
  6
CONTINUOUS
 62
     1
 10
398.0
 20
598.5
 11
398.0
 21
541.5
  0
ARC
  8
0
  6
CONTINUOUS
 62
     1
 10
402.5
 20
540.0
 40
1.5
 50
0.0
 51
90.0
  0
LINE
  8
0
  6
CONTINUOUS
 62
     1
 10
405.5
 20
537.5
 11
412.0
 21
537.5
  0
LINE
  8
0
  6
CONTINUOUS
 62
     1
 10
404.0
 20
540.0
 11
404.0
 21
539.0
  0
ARC
  8
0
  6
CONTINUOUS
 62
     1
 10
405.5
 20
539.0
 40
1.5
 50
180.0
 51
270.0
  0
LINE
  8
0
  6
CONTINUOUS
 62
     1
 10
245.5
 20
541.5
 11
402.5
 21
541.5
  0
LINE
  8
0
  6
CONTINUOUS
 62
     1
 10
404.0
 20
598.5
 11
404.0
 21
539.4
  0
LINE
  8
0
  6
CONTINUOUS
 62
     1
 10
299.0
 20
676.5
 11
299.0
 21
710.5
  0
LINE
  8
0
  6
CONTINUOUS
 62
     1
 10
299.0
 20
676.5
 11
325.0
 21
676.5
  0
LINE
  8
0
  6
CONTINUOUS
 62
     1
 10
299.0
 20
710.5
 11
325.0
 21
710.5
  0
LINE
  8
0
  6
CONTINUOUS
 62
     1
 10
395.0
 20
668.5
 11
395.0
 21
671.5
  0
ARC
  8
0
  6
CONTINUOUS
 62
     1
 10
391.0
 20
665.5
 40
3.0
 50
90.0
 51
180.0
  0
LINE
  8
0
  6
CONTINUOUS
 62
     1
 10
388.0
 20
658.5
 11
388.0
 21
665.5
  0
ARC
  8
0
  6
CONTINUOUS
 62
     1
 10
385.0
 20
658.5
 40
3.0
 50
270.0
 51
0.0
  0
LINE
  8
0
  6
CONTINUOUS
 62
     1
 10
245.5
 20
655.5
 11
402.5
 21
655.5
  0
LINE
  8
0
  6
CONTINUOUS
 62
     1
 10
335.0
 20
668.5
 11
335.0
 21
671.5
  0
ARC
  8
0
  6
CONTINUOUS
 62
     1
 10
339.0
 20
665.5
 40
3.0
 50
0.0
 51
90.0
  0
LINE
  8
0
  6
CONTINUOUS
 62
     1
 10
342.0
 20
658.5
 11
342.0
 21
665.5
  0
ARC
  8
0
  6
CONTINUOUS
 62
     1
 10
345.0
 20
658.5
 40
3.0
 50
180.0
 51
270.0
  0
LINE
  8
0
  6
CONTINUOUS
 62
     1
 10
335.0
 20
668.5
 11
395.0
 21
668.5
  0
LINE
  8
0
  6
CONTINUOUS
 62
     1
 10
410.087912088
 20
673.5
 11
318.0
 21
717.520045888
  0
LINE
  8
0
  6
CONTINUOUS
 62
     1
 10
412.0
 20
677.5
 11
410.087912088
 21
673.5
  0
LINE
  8
0
  6
CONTINUOUS
 62
     1
 10
412.0
 20
677.5
 11
319.912087912
 21
721.520045888
  0
LINE
  8
0
  6
CONTINUOUS
 62
     1
 10
319.912087912
 20
721.520045888
 11
318.0
 21
717.520045888
  0
LINE
  8
0
  6
CONTINUOUS
 62
     1
 10
405.0
 20
680.846153846
 11
405.0
 21
720.5
  0
ARC
  8
0
  6
CONTINUOUS
 62
     1
 10
402.0
 20
720.5
 40
3.0
 50
0.0
 51
90.0
  0
LINE
  8
0
  6
CONTINUOUS
 62
     1
 10
405.0
 20
674.5
 11
405.0
 21
675.9321338
  0
ARC
  8
0
  6
CONTINUOUS
 62
     1
 10
402.0
 20
674.5
 40
3.0
 50
270.0
 51
0.0
  0
LINE
  8
0
  6
CONTINUOUS
 62
     1
 10
325.0
 20
674.5
 11
325.0
 21
714.173892042
  0
LINE
  8
0
  6
CONTINUOUS
 62
     1
 10
328.0
 20
671.5
 11
402.0
 21
671.5
  0
ARC
  8
0
  6
CONTINUOUS
 62
     1
 10
328.0
 20
674.5
 40
3.0
 50
180.0
 51
270.0
  0
LINE
  8
0
  6
CONTINUOUS
 62
     1
 10
325.0
 20
719.087912088
 11
325.0
 21
720.5
  0
LINE
  8
0
  6
CONTINUOUS
 62
     1
 10
328.0
 20
723.5
 11
402.0
 21
723.5
  0
ARC
  8
0
  6
CONTINUOUS
 62
     1
 10
328.0
 20
720.5
 40
3.0
 50
90.0
 51
180.0
  0
LINE
  8
0
  6
LTYPE2
 62
     2
 10
292.070524155
 20
693.5
 11
332.070524155
 21
693.5
  0
LINE
  8
0
  6
LTYPE2
 62
     2
 10
365.0
 20
643.5
 11
365.0
 21
731.4321338
  0
LINE
  8
7
  6
CONTINUOUS
 62
     2
 10
299.0
 20
693.5
 11
294.202698351
 21
702.274160751
  0
LINE
  8
7
  6
CONTINUOUS
 62
     2
 10
299.0
 20
693.5
 11
290.458334526
 21
698.699995283
  0
LINE
  8
7
  6
CONTINUOUS
 62
     2
 10
299.0
 20
693.5
 11
278.0
 21
715.5
  0
TEXT
  8
7
  6
CONTINUOUS
 62
     2
 10
370.6
 20
797.5
 30
0.0
 40
15.0
  1
３７７
 50
0.0
 41
0.9
 51
0.0
  7
KANJI39
  0
LINE
  8
0
  6
CONTINUOUS
 62
     1
 10
249.0
 20
598.5
 11
249.0
 21
655.5
  0
ARC
  8
0
  6
CONTINUOUS
 62
     1
 10
245.5
 20
654.0
 40
1.5
 50
90.0
 51
180.0
  0
LINE
  8
0
  6
CONTINUOUS
 62
     1
 10
244.0
 20
641.570524155
 11
244.0
 21
654.0
  0
ARC
  8
0
  6
CONTINUOUS
 62
     1
 10
242.5
 20
641.570524155
 40
1.5
 50
288.970407808
 51
0.0
  0
LINE
  8
0
  6
CONTINUOUS
 62
     1
 10
228.0
 20
598.5
 11
228.0
 21
633.929475845
  0
LINE
  8
0
  6
CONTINUOUS
 62
     1
 10
229.012380347
 20
635.348005744
 11
242.987619653
 21
640.151994256
  0
ARC
  8
0
  6
CONTINUOUS
 62
     1
 10
229.5
 20
633.929475845
 40
1.5
 50
108.970407808
 51
180.0
  0
LINE
  8
0
  6
CONTINUOUS
 62
     1
 10
244.0
 20
598.5
 11
244.0
 21
641.570524155
  0
ARC
  8
0
  6
CONTINUOUS
 62
     1
 10
216.0
 20
615.0
 40
1.0
 50
90.0
 51
180.0
  0
LINE
  8
0
  6
CONTINUOUS
 62
     1
 10
216.0
 20
616.0
 11
228.0
 21
616.0
  0
LINE
  8
0
  6
CONTINUOUS
 62
     1
 10
215.0
 20
598.5
 11
215.0
 21
615.0
  0
LINE
  8
0
  6
CONTINUOUS
 62
     1
 10
249.0
 20
598.5
 11
249.0
 21
541.5
  0
ARC
  8
0
  6
CONTINUOUS
 62
     1
 10
245.5
 20
543.0
 40
1.5
 50
180.0
 51
270.0
  0
LINE
  8
0
  6
CONTINUOUS
 62
     1
 10
228.0
 20
598.5
 11
228.0
 21
563.070524155
  0
ARC
  8
0
  6
CONTINUOUS
 62
     1
 10
229.5
 20
563.070524155
 40
1.5
 50
180.0
 51
251.029592192
  0
ARC
  8
0
  6
CONTINUOUS
 62
     1
 10
216.0
 20
582.0
 40
1.0
 50
180.0
 51
270.0
  0
LINE
  8
0
  6
CONTINUOUS
 62
     1
 10
216.0
 20
581.0
 11
228.0
 21
581.0
  0
LINE
  8
0
  6
CONTINUOUS
 62
     1
 10
215.0
 20
598.5
 11
215.0
 21
582.0
  0
LINE
  8
0
  6
CONTINUOUS
 62
     1
 10
242.7
 20
634.562445841
 11
242.7
 21
629.950565841
  0
LINE
  8
0
  6
CONTINUOUS
 62
     1
 10
242.7
 20
634.562445841
 11
242.7
 21
639.174325841
  0
LINE
  8
0
  6
CONTINUOUS
 62
     1
 10
239.1998
 20
631.080005841
 11
239.851882488
 21
629.950565841
  0
LINE
  8
0
  6
CONTINUOUS
 62
     1
 10
239.1998
 20
634.562445841
 11
239.1998
 21
631.080005841
  0
LINE
  8
0
  6
CONTINUOUS
 62
     1
 10
239.1998
 20
638.044885841
 11
239.851882488
 21
639.174325841
  0
LINE
  8
0
  6
CONTINUOUS
 62
     1
 10
239.1998
 20
634.562445841
 11
239.1998
 21
638.044885841
  0
ARC
  8
0
  6
CONTINUOUS
 62
     1
 10
243.603054926
 20
634.562445841
 40
4.403254926
 50
148.419912243
 51
211.580087757
  0
ARC
  8
0
  6
CONTINUOUS
 62
     1
 10
240.544720132
 20
631.103535841
 40
1.34512595
 50
121.002313915
 51
182.989498403
  0
LINE
  8
0
  6
CONTINUOUS
 62
     1
 10
239.1998
 20
638.044885841
 11
239.851882488
 21
639.174325841
  0
ARC
  8
0
  6
CONTINUOUS
 62
     1
 10
240.544720132
 20
638.021355841
 40
1.34512595
 50
177.010501597
 51
238.997686085
  0
LINE
  8
0
  6
CONTINUOUS
 62
     1
 10
242.7
 20
629.950565841
 11
239.851882488
 21
629.950565841
  0
LINE
  8
0
  6
CONTINUOUS
 62
     1
 10
242.7
 20
632.256505841
 11
239.851882488
 21
632.256505841
  0
LINE
  8
0
  6
CONTINUOUS
 62
     1
 10
242.7
 20
636.868385841
 11
239.851882488
 21
636.868385841
  0
LINE
  8
0
  6
CONTINUOUS
 62
     1
 10
242.7
 20
639.174325841
 11
239.851882488
 21
639.174325841
  0
LINE
  8
0
  6
CONTINUOUS
 62
     1
 10
244.0
 20
629.962445841
 11
242.7
 21
629.962445841
  0
LINE
  8
0
  6
CONTINUOUS
 62
     1
 10
244.0
 20
634.562445841
 11
242.700000446
 21
633.262446287
  0
LINE
  8
0
  6
CONTINUOUS
 62
     1
 10
242.700000446
 20
634.562445841
 11
244.0
 21
635.862445394
  0
LINE
  8
0
  6
CONTINUOUS
 62
     1
 10
244.0
 20
639.162445841
 11
242.7
 21
639.162445841
  0
LINE
  8
0
  6
CONTINUOUS
 62
     1
 10
244.0
 20
555.429475845
 11
244.0
 21
543.0
  0
ARC
  8
0
  6
CONTINUOUS
 62
     1
 10
242.5
 20
555.429475845
 40
1.5
 50
0.0
 51
71.029592192
  0
LINE
  8
0
  6
CONTINUOUS
 62
     1
 10
229.012380347
 20
561.651994256
 11
242.987619653
 21
556.848005744
  0
LINE
  8
0
  6
CONTINUOUS
 62
     1
 10
244.0
 20
598.5
 11
244.0
 21
555.429475845
  0
LINE
  8
0
  6
CONTINUOUS
 62
     1
 10
242.7
 20
562.437554159
 11
242.7
 21
567.049434159
  0
LINE
  8
0
  6
CONTINUOUS
 62
     1
 10
242.7
 20
562.437554159
 11
242.7
 21
557.825674159
  0
LINE
  8
0
  6
CONTINUOUS
 62
     1
 10
239.1998
 20
565.919994159
 11
239.851882488
 21
567.049434159
  0
LINE
  8
0
  6
CONTINUOUS
 62
     1
 10
239.1998
 20
562.437554159
 11
239.1998
 21
565.919994159
  0
LINE
  8
0
  6
CONTINUOUS
 62
     1
 10
239.1998
 20
558.955114159
 11
239.851882488
 21
557.825674159
  0
LINE
  8
0
  6
CONTINUOUS
 62
     1
 10
239.1998
 20
562.437554159
 11
239.1998
 21
558.955114159
  0
ARC
  8
0
  6
CONTINUOUS
 62
     1
 10
243.603054926
 20
562.437554159
 40
4.403254926
 50
148.419912243
 51
211.580087757
  0
ARC
  8
0
  6
CONTINUOUS
 62
     1
 10
240.544720132
 20
565.896464159
 40
1.34512595
 50
177.010501597
 51
238.997686085
  0
LINE
  8
0
  6
CONTINUOUS
 62
     1
 10
239.1998
 20
558.955114159
 11
239.851882488
 21
557.825674159
  0
ARC
  8
0
  6
CONTINUOUS
 62
     1
 10
240.544720132
 20
558.978644159
 40
1.34512595
 50
121.002313915
 51
182.989498403
  0
LINE
  8
0
  6
CONTINUOUS
 62
     1
 10
242.7
 20
567.049434159
 11
239.851882488
 21
567.049434159
  0
LINE
  8
0
  6
CONTINUOUS
 62
     1
 10
242.7
 20
564.743494159
 11
239.851882488
 21
564.743494159
  0
LINE
  8
0
  6
CONTINUOUS
 62
     1
 10
242.7
 20
560.131614159
 11
239.851882488
 21
560.131614159
  0
LINE
  8
0
  6
CONTINUOUS
 62
     1
 10
242.7
 20
557.825674159
 11
239.851882488
 21
557.825674159
  0
LINE
  8
0
  6
CONTINUOUS
 62
     1
 10
244.0
 20
567.037554159
 11
242.7
 21
567.037554159
  0
LINE
  8
0
  6
CONTINUOUS
 62
     1
 10
244.0
 20
562.437554159
 11
242.700000446
 21
563.737553713
  0
LINE
  8
0
  6
CONTINUOUS
 62
     1
 10
242.700000446
 20
562.437554159
 11
244.0
 21
561.137554606
  0
LINE
  8
0
  6
CONTINUOUS
 62
     1
 10
244.0
 20
557.837554159
 11
242.7
 21
557.837554159
  0
LINE
  8
0
  6
CONTINUOUS
 62
     1
 10
214.0
 20
602.3
 11
215.0
 21
602.3
  0
LINE
  8
0
  6
CONTINUOUS
 62
     1
 10
214.0
 20
598.5
 11
215.0
 21
599.5
  0
LINE
  8
0
  6
CONTINUOUS
 62
     1
 10
211.517542648
 20
602.55
 11
214.0
 21
602.55
  0
LINE
  8
0
  6
CONTINUOUS
 62
     1
 10
211.2
 20
602.0
 11
211.517542648
 21
602.55
  0
LINE
  8
0
  6
CONTINUOUS
 62
     1
 10
211.517542648
 20
600.525
 11
214.0
 21
600.525
  0
ARC
  8
0
  6
CONTINUOUS
 62
     1
 10
212.972973788
 20
601.5375
 40
1.772973788
 50
145.174816769
 51
214.825183231
  0
LINE
  8
0
  6
CONTINUOUS
 62
     1
 10
214.0
 20
594.7
 11
215.0
 21
594.7
  0
LINE
  8
0
  6
CONTINUOUS
 62
     1
 10
214.0
 20
597.5
 11
215.0
 21
598.5
  0
LINE
  8
0
  6
CONTINUOUS
 62
     1
 10
211.2
 20
595.0
 11
211.517542648
 21
594.45
  0
LINE
  8
0
  6
CONTINUOUS
 62
     1
 10
211.517542648
 20
594.45
 11
214.0
 21
594.45
  0
LINE
  8
0
  6
CONTINUOUS
 62
     1
 10
211.517542648
 20
596.475
 11
214.0
 21
596.475
  0
ARC
  8
0
  6
CONTINUOUS
 62
     1
 10
212.972973788
 20
595.4625
 40
1.772973788
 50
145.174816769
 51
214.825183231
  0
LINE
  8
0
  6
CONTINUOUS
 62
     1
 10
214.0
 20
602.55
 11
214.0
 21
594.45
  0
LINE
  8
0
  6
CONTINUOUS
 62
     1
 10
211.2
 20
602.0
 11
211.2
 21
595.0
  0
ARC
  8
0
  6
CONTINUOUS
 62
     1
 10
217.815581181
 20
598.5
 40
6.615581181
 50
162.175912681
 51
197.824087319
  0
LINE
  8
0
  6
CONTINUOUS
 62
     1
 10
200.0
 20
598.5
 11
200.0
 21
612.5
  0
ARC
  8
0
  6
CONTINUOUS
 62
     1
 10
201.5
 20
612.5
 40
1.5
 50
90.0
 51
180.0
  0
LINE
  8
0
  6
CONTINUOUS
 62
     1
 10
200.0
 20
598.5
 11
200.0
 21
584.5
  0
ARC
  8
0
  6
CONTINUOUS
 62
     1
 10
201.5
 20
584.5
 40
1.5
 50
180.0
 51
270.0
  0
LINE
  8
0
  6
CONTINUOUS
 62
     1
 10
201.500006877
 20
614.0
 11
215.0
 21
614.0
  0
LINE
  8
0
  6
CONTINUOUS
 62
     1
 10
201.500008314
 20
583.0
 11
215.0
 21
583.0
  0
LINE
  8
0
  6
LTYPE2
 62
     2
 10
236.0
 20
634.562445841
 11
247.0
 21
634.562445841
  0
LINE
  8
0
  6
LTYPE2
 62
     2
 10
236.0
 20
562.437554159
 11
247.0
 21
562.437554159
  0
LINE
  8
7
  6
CONTINUOUS
 62
     2
 10
278.0
 20
715.5
 11
219.2
 21
715.5
  0
LINE
  8
2
  6
CONTINUOUS
 62
     2
 10
200.0
 20
598.5
 11
195.56773406
 21
589.535903914
  0
LINE
  8
2
  6
CONTINUOUS
 62
     2
 10
200.0
 20
598.5
 11
200.643593142
 21
588.520732098
  0
LINE
  8
2
  6
CONTINUOUS
 62
     2
 10
200.0
 20
598.5
 11
179.5
 21
496.0
  0
LINE
  8
7
  6
CONTINUOUS
 62
     2
 10
200.0
 20
793.5
 11
209.659258263
 21
790.911809549
  0
LINE
  8
7
  6
CONTINUOUS
 62
     2
 10
200.0
 20
793.5
 11
209.659258263
 21
796.088190451
  0
LINE
  8
7
  6
CONTINUOUS
 62
     2
 10
200.0
 20
794.5
 11
200.0
 21
799.5
  0
LINE
  8
7
  6
CONTINUOUS
 62
     2
 10
200.0
 20
614.0
 11
200.0
 21
829.5
  0
TEXT
  8
7
  6
CONTINUOUS
 62
     2
 10
219.2
 20
719.5
 30
0.0
 40
15.0
  1
ＰＦ３／４
 50
0.0
 41
0.9
 51
0.0
  7
KANJI39
  0
LINE
  8
7
  6
CONTINUOUS
 62
     2
 10
200.0
 20
823.5
 11
209.659258263
 21
820.911809549
  0
LINE
  8
7
  6
CONTINUOUS
 62
     2
 10
200.0
 20
823.5
 11
209.659258263
 21
826.088190451
  0
ARC
  8
0
  6
CONTINUOUS
 62
     2
 10
155.0
 20
601.1
 40
20.0
 50
231.952957468
 51
156.801409486
  0
TEXT
  8
0
  6
CONTINUOUS
 62
     2
 10
74.6170994
 20
591.978385972
 30
0.0
 40
15.0
  1
前進方向
 50
0.0
 41
0.9
 51
0.0
  7
KANJI39
  0
LINE
  8
0
  6
CONTINUOUS
 62
     2
 10
136.6170994
 20
608.978385972
 11
138.91179211
 21
618.815824749
  0
LINE
  8
0
  6
CONTINUOUS
 62
     2
 10
136.6170994
 20
608.978385972
 11
144.885260778
 21
613.885722507
  0
TEXT
  8
2
  6
CONTINUOUS
 62
     2
 10
86.3
 20
499.6
 30
0.0
 40
15.0
  1
手動軸カバ－
 50
0.0
 41
0.9
 51
0.0
  7
KANJI39
  0
LINE
  8
2
  6
CONTINUOUS
 62
     2
 10
78.5
 20
496.0
 11
179.5
 21
496.0
  0
TEXT
  8
0
  6
CONTINUOUS
 62
     2
 10
261.74
 20
559.12
 30
0.0
 40
15.0
  1
エコノストップモータ
 50
0.0
 41
0.9
 51
0.0
  7
KANJI39
  0
TEXT
  8
0
  6
CONTINUOUS
 62
     2
 10
273.27
 20
577.15
 30
0.0
 40
15.0
  1
日本電産
 50
0.0
 41
0.9
 51
0.0
  7
KANJI39
  0
LINE
  8
0
  6
CONTINUOUS
 62
     1
 10
316.0
 20
648.0
 11
316.0
 21
605.0
  0
TEXT
  8
0
  6
CONTINUOUS
 62
     2
 10
327.0
 20
610.0
 30
5.0
 40
20.0
  1
銘板
 50
0.0
 41
0.925
 51
0.0
  7
KANJI41
  0
LINE
  8
0
  6
CONTINUOUS
 62
     1
 10
386.0
 20
648.0
 11
386.0
 21
605.0
  0
LINE
  8
0
  6
CONTINUOUS
 62
     1
 10
316.0
 20
605.0
 11
386.0
 21
605.0
  0
LINE
  8
0
  6
CONTINUOUS
 62
     1
 10
316.0
 20
648.0
 11
386.0
 21
648.0
  0
LINE
  8
0
  6
CONTINUOUS
 62
     2
 10
1036.0
 20
427.35
 11
1036.0
 21
435.85
  0
LINE
  8
0
  6
LTYPE3
 62
     2
 10
1036.0
 20
317.1
 11
1036.0
 21
630.500007629
  0
LINE
  8
0
  6
CONTINUOUS
 62
     1
 10
925.0
 20
617.5
 11
985.0
 21
617.5
  0
LINE
  8
0
  6
CONTINUOUS
 62
     1
 10
925.0
 20
617.5
 11
944.0
 21
617.5
  0
LINE
  8
0
  6
CONTINUOUS
 62
     1
 10
892.5
 20
562.75
 11
902.5
 21
562.75
  0
LINE
  8
0
  6
CONTINUOUS
 62
     1
 10
902.5
 20
564.75
 11
905.0
 21
564.75
  0
LINE
  8
0
  6
CONTINUOUS
 62
     1
 10
905.0
 20
564.75
 11
905.0
 21
598.5
  0
LINE
  8
0
  6
CONTINUOUS
 62
     1
 10
892.5
 20
562.75
 11
892.5
 21
598.5
  0
LINE
  8
0
  6
CONTINUOUS
 62
     1
 10
902.5
 20
562.75
 11
902.5
 21
598.5
  0
LINE
  8
0
  6
CONTINUOUS
 62
     1
 10
890.0
 20
632.25
 11
905.0
 21
632.25
  0
ARC
  8
0
  6
CONTINUOUS
 62
     1
 10
910.121501365
 20
645.0
 40
1.0
 50
90.0
 51
165.0
  0
ARC
  8
0
  6
CONTINUOUS
 62
     1
 10
910.121501365
 20
645.0
 40
1.0
 50
15.0
 51
90.0
  0
ARC
  8
0
  6
CONTINUOUS
 62
     1
 10
910.121501365
 20
552.0
 40
1.0
 50
195.0
 51
270.0
  0
ARC
  8
0
  6
CONTINUOUS
 62
     1
 10
910.121501365
 20
552.0
 40
1.0
 50
270.0
 51
345.0
  0
LINE
  8
0
  6
CONTINUOUS
 62
     1
 10
909.155575539
 20
645.258819045
 11
905.0
 21
632.25
  0
LINE
  8
0
  6
CONTINUOUS
 62
     1
 10
909.155575539
 20
551.741180955
 11
905.0
 21
564.75
  0
LINE
  8
0
  6
CONTINUOUS
 62
     1
 10
910.121501365
 20
551.0
 11
910.121501365
 21
598.5
  0
LINE
  8
0
  6
CONTINUOUS
 62
     1
 10
906.0
 20
630.25
 11
906.0
 21
598.5
  0
LINE
  8
0
  6
CONTINUOUS
 62
     1
 10
951.671294531
 20
564.75
 11
951.671294531
 21
598.5
  0
LINE
  8
0
  6
CONTINUOUS
 62
     1
 10
961.006941796
 20
564.75
 11
961.006941796
 21
598.5
  0
LINE
  8
0
  6
CONTINUOUS
 62
     1
 10
952.637220357
 20
636.741180955
 11
954.919514604
 21
645.258819045
  0
ARC
  8
0
  6
CONTINUOUS
 62
     1
 10
951.671294531
 20
637.0
 40
1.0
 50
270.0
 51
345.0
  0
LINE
  8
0
  6
CONTINUOUS
 62
     1
 10
952.637220357
 20
560.258819045
 11
954.919514604
 21
551.741180955
  0
ARC
  8
0
  6
CONTINUOUS
 62
     1
 10
951.671294531
 20
560.0
 40
1.0
 50
15.0
 51
90.0
  0
LINE
  8
0
  6
CONTINUOUS
 62
     1
 10
956.851366257
 20
645.258819045
 11
961.006941796
 21
632.25
  0
LINE
  8
0
  6
CONTINUOUS
 62
     1
 10
956.851366257
 20
551.741180955
 11
961.006941796
 21
564.75
  0
LINE
  8
0
  6
CONTINUOUS
 62
     1
 10
951.671294531
 20
561.0
 11
951.671294531
 21
598.5
  0
ARC
  8
0
  6
CONTINUOUS
 62
     1
 10
965.221087696
 20
645.0
 40
1.0
 50
15.0
 51
90.0
  0
ARC
  8
0
  6
CONTINUOUS
 62
     1
 10
965.221087696
 20
645.0
 40
1.0
 50
90.0
 51
165.0
  0
LINE
  8
0
  6
CONTINUOUS
 62
     1
 10
961.972867622
 20
636.741180955
 11
964.25516187
 21
645.258819045
  0
ARC
  8
0
  6
CONTINUOUS
 62
     1
 10
961.006941796
 20
637.0
 40
1.0
 50
270.0
 51
345.0
  0
ARC
  8
0
  6
CONTINUOUS
 62
     1
 10
965.221087696
 20
552.0
 40
1.0
 50
270.0
 51
345.0
  0
ARC
  8
0
  6
CONTINUOUS
 62
     1
 10
965.221087696
 20
552.0
 40
1.0
 50
195.0
 51
270.0
  0
LINE
  8
0
  6
CONTINUOUS
 62
     1
 10
961.972867622
 20
560.258819045
 11
964.25516187
 21
551.741180955
  0
ARC
  8
0
  6
CONTINUOUS
 62
     1
 10
961.006941796
 20
560.0
 40
1.0
 50
15.0
 51
90.0
  0
LINE
  8
0
  6
CONTINUOUS
 62
     1
 10
961.006941796
 20
561.0
 11
961.006941796
 21
598.5
  0
LINE
  8
0
  6
CONTINUOUS
 62
     1
 10
965.221087696
 20
598.5
 11
965.221087696
 21
551.0
  0
LINE
  8
0
  6
CONTINUOUS
 62
     1
 10
961.006941796
 20
636.0
 11
961.006941796
 21
632.25
  0
LINE
  8
0
  6
CONTINUOUS
 62
     1
 10
966.187013522
 20
551.741180955
 11
970.182867586
 21
564.25
  0
LINE
  8
0
  6
CONTINUOUS
 62
     1
 10
966.187013522
 20
645.258819045
 11
970.502310536
 21
631.75
  0
LINE
  8
0
  6
CONTINUOUS
 62
     1
 10
970.502310536
 20
631.75
 11
970.502310536
 21
617.5
  0
LINE
  8
0
  6
CONTINUOUS
 62
     1
 10
970.342589061
 20
564.25
 11
970.342589061
 21
598.5
  0
LINE
  8
0
  6
CONTINUOUS
 62
     1
 10
911.087427191
 20
645.258819045
 11
915.24300273
 21
632.25
  0
ARC
  8
0
  6
CONTINUOUS
 62
     1
 10
919.45714863
 20
645.0
 40
1.0
 50
15.0
 51
90.0
  0
ARC
  8
0
  6
CONTINUOUS
 62
     1
 10
919.45714863
 20
645.0
 40
1.0
 50
90.0
 51
165.0
  0
LINE
  8
0
  6
CONTINUOUS
 62
     1
 10
916.208928556
 20
636.741180955
 11
918.491222804
 21
645.258819045
  0
ARC
  8
0
  6
CONTINUOUS
 62
     1
 10
915.24300273
 20
637.0
 40
1.0
 50
270.0
 51
345.0
  0
LINE
  8
0
  6
CONTINUOUS
 62
     1
 10
915.24300273
 20
636.0
 11
915.24300273
 21
632.25
  0
ARC
  8
0
  6
CONTINUOUS
 62
     1
 10
920.096034531
 20
552.0
 40
1.0
 50
270.0
 51
345.0
  0
ARC
  8
0
  6
CONTINUOUS
 62
     1
 10
920.096034531
 20
552.0
 40
1.0
 50
195.0
 51
270.0
  0
LINE
  8
0
  6
CONTINUOUS
 62
     1
 10
916.847814457
 20
560.258819045
 11
919.130108705
 21
551.741180955
  0
ARC
  8
0
  6
CONTINUOUS
 62
     1
 10
915.881888631
 20
560.0
 40
1.0
 50
15.0
 51
90.0
  0
LINE
  8
0
  6
CONTINUOUS
 62
     1
 10
915.881888631
 20
561.0
 11
915.881888631
 21
598.5
  0
LINE
  8
0
  6
CONTINUOUS
 62
     1
 10
920.096034531
 20
598.5
 11
920.096034531
 21
551.0
  0
LINE
  8
0
  6
CONTINUOUS
 62
     1
 10
911.087427191
 20
551.741180955
 11
915.881888631
 21
566.75
  0
LINE
  8
0
  6
CONTINUOUS
 62
     1
 10
906.0
 20
630.25
 11
906.0
 21
598.5
  0
ARC
  8
0
  6
CONTINUOUS
 62
     1
 10
937.431681797
 20
551.95
 40
1.0
 50
270.0
 51
345.0
  0
ARC
  8
0
  6
CONTINUOUS
 62
     1
 10
937.431681797
 20
551.95
 40
1.0
 50
195.0
 51
270.0
  0
LINE
  8
0
  6
CONTINUOUS
 62
     1
 10
934.183461723
 20
560.208819045
 11
936.46575597
 21
551.691180955
  0
ARC
  8
0
  6
CONTINUOUS
 62
     1
 10
933.217535896
 20
559.95
 40
1.0
 50
15.0
 51
90.0
  0
LINE
  8
0
  6
CONTINUOUS
 62
     1
 10
920.423074457
 20
645.258819045
 11
923.380738931
 21
636.0
  0
LINE
  8
0
  6
CONTINUOUS
 62
     1
 10
921.061960358
 20
551.741180955
 11
924.01151122
 21
560.97460075
  0
LINE
  8
0
  6
CONTINUOUS
 62
     1
 10
938.397607623
 20
551.691180955
 11
941.368221982
 21
560.99053896
  0
LINE
  8
0
  6
CONTINUOUS
 62
     1
 10
925.0
 20
630.25
 11
925.0
 21
598.5
  0
ARC
  8
0
  6
CONTINUOUS
 62
     1
 10
955.885440431
 20
645.0
 40
1.0
 50
15.0
 51
90.0
  0
ARC
  8
0
  6
CONTINUOUS
 62
     1
 10
955.885429641
 20
645.0
 40
1.0
 50
90.0
 51
165.0
  0
ARC
  8
0
  6
CONTINUOUS
 62
     1
 10
955.885440431
 20
552.0
 40
1.0
 50
270.0
 51
345.0
  0
ARC
  8
0
  6
CONTINUOUS
 62
     1
 10
955.885440431
 20
552.0
 40
1.0
 50
195.0
 51
270.0
  0
ARC
  8
0
  6
CONTINUOUS
 62
     1
 10
937.492795895
 20
644.95
 40
1.0
 50
15.0
 51
90.0
  0
ARC
  8
0
  6
CONTINUOUS
 62
     1
 10
937.492795895
 20
644.95
 40
1.0
 50
90.0
 51
165.0
  0
LINE
  8
0
  6
CONTINUOUS
 62
     1
 10
934.244575822
 20
636.691180955
 11
936.526870069
 21
645.208819045
  0
ARC
  8
0
  6
CONTINUOUS
 62
     1
 10
933.278649995
 20
636.95
 40
1.0
 50
270.0
 51
345.0
  0
LINE
  8
0
  6
CONTINUOUS
 62
     1
 10
938.458721722
 20
645.208819045
 11
941.400414048
 21
636.0
  0
LINE
  8
0
  6
CONTINUOUS
 62
     1
 10
955.885440431
 20
598.5
 11
955.885440431
 21
551.0
  0
LINE
  8
0
  6
CONTINUOUS
 62
     1
 10
982.5
 20
572.25
 11
972.5
 21
572.25
  0
LINE
  8
0
  6
CONTINUOUS
 62
     1
 10
985.0
 20
574.25
 11
982.5
 21
574.25
  0
LINE
  8
0
  6
CONTINUOUS
 62
     1
 10
972.5
 20
574.25
 11
970.182867586
 21
574.25
  0
LINE
  8
0
  6
CONTINUOUS
 62
     1
 10
985.0
 20
621.75
 11
970.502310536
 21
621.75
  0
LINE
  8
0
  6
CONTINUOUS
 62
     1
 10
985.0
 20
621.75
 11
985.0
 21
579.5
  0
LINE
  8
0
  6
CONTINUOUS
 62
     1
 10
985.0
 20
574.25
 11
985.0
 21
598.0
  0
LINE
  8
0
  6
CONTINUOUS
 62
     1
 10
972.5
 20
572.25
 11
972.5
 21
598.5
  0
LINE
  8
0
  6
CONTINUOUS
 62
     1
 10
982.5
 20
572.25
 11
982.5
 21
598.5
  0
LINE
  8
0
  6
CONTINUOUS
 62
     1
 10
1051.0
 20
578.5
 11
1054.0
 21
581.5
  0
LINE
  8
0
  6
CONTINUOUS
 62
     1
 10
1051.0
 20
618.5
 11
1054.0
 21
615.5
  0
CIRCLE
  8
0
  6
CONTINUOUS
 62
     1
 10
1036.0
 20
598.5
 40
8.0
  0
LINE
  8
0
  6
LTYPE1
 62
     1
 10
1011.0
 20
618.5
 11
1011.0
 21
578.5
  0
LINE
  8
0
  6
CONTINUOUS
 62
     1
 10
1054.0
 20
615.5
 11
1054.0
 21
581.5
  0
LINE
  8
0
  6
CONTINUOUS
 62
     1
 10
1001.0
 20
618.5
 11
1051.0
 21
618.5
  0
LINE
  8
0
  6
CONTINUOUS
 62
     1
 10
1001.0
 20
578.5
 11
1051.0
 21
578.5
  0
LINE
  8
0
  6
CONTINUOUS
 62
     1
 10
985.0
 20
624.5
 11
1001.0
 21
624.5
  0
LINE
  8
0
  6
CONTINUOUS
 62
     1
 10
985.0
 20
624.5
 11
985.0
 21
598.5
  0
LINE
  8
0
  6
LTYPE2
 62
     2
 10
955.885440431
 20
646.0
 11
919.45714863
 21
646.0
  0
LINE
  8
0
  6
LTYPE2
 62
     2
 10
951.671294531
 20
636.0
 11
941.400414048
 21
636.0
  0
LINE
  8
0
  6
LTYPE2
 62
     2
 10
933.278649995
 20
636.0
 11
923.380738931
 21
636.0
  0
LINE
  8
0
  6
LTYPE2
 62
     2
 10
933.217535896
 20
560.9830544
 11
924.01151122
 21
560.97460075
  0
LINE
  8
0
  6
LTYPE2
 62
     2
 10
951.671294531
 20
561.0
 11
941.368221982
 21
560.99053896
  0
LINE
  8
0
  6
LTYPE2
 62
     2
 10
920.095856131
 20
550.950706066
 11
955.885262031
 21
550.950706066
  0
LINE
  8
2
  6
CONTINUOUS
 62
     2
 10
1058.0
 20
618.5
 11
1097.9
 21
618.5
  0
LINE
  8
2
  6
CONTINUOUS
 62
     2
 10
1089.9
 20
618.5
 11
1087.311809549
 21
608.840741737
  0
LINE
  8
2
  6
CONTINUOUS
 62
     2
 10
1089.9
 20
618.5
 11
1092.488190451
 21
608.840741737
  0
LINE
  8
2
  6
CONTINUOUS
 62
     2
 10
1089.9
 20
618.5
 11
1089.9
 21
578.1
  0
LINE
  8
2
  6
CONTINUOUS
 62
     2
 10
1089.9
 20
578.1
 11
1092.488190451
 21
587.759258263
  0
LINE
  8
2
  6
CONTINUOUS
 62
     2
 10
1089.9
 20
578.1
 11
1087.311809549
 21
587.759258263
  0
LINE
  8
2
  6
CONTINUOUS
 62
     2
 10
1059.8
 20
578.1
 11
1097.9
 21
578.1
  0
LINE
  8
0
  6
CONTINUOUS
 62
     2
 10
1016.0
 20
823.5
 11
1074.0
 21
823.5
  0
LINE
  8
0
  6
CONTINUOUS
 62
     2
 10
1054.0
 20
823.5
 11
1063.659258263
 21
820.911809549
  0
LINE
  8
0
  6
CONTINUOUS
 62
     2
 10
1054.0
 20
823.5
 11
1063.659258263
 21
826.088190451
  0
LINE
  8
0
  6
CONTINUOUS
 62
     2
 10
1036.0
 20
793.5
 11
1026.340741737
 21
796.088190451
  0
LINE
  8
0
  6
CONTINUOUS
 62
     2
 10
1036.0
 20
793.5
 11
1026.340741737
 21
790.911809549
  0
LINE
  8
0
  6
CONTINUOUS
 62
     2
 10
1001.0
 20
763.5
 11
991.340741737
 21
766.088190451
  0
LINE
  8
0
  6
CONTINUOUS
 62
     2
 10
1001.0
 20
763.5
 11
991.340741737
 21
760.911809549
  0
LINE
  8
0
  6
CONTINUOUS
 62
     2
 10
1001.0
 20
763.5
 11
1010.659258263
 21
760.911809549
  0
LINE
  8
0
  6
CONTINUOUS
 62
     2
 10
1001.0
 20
763.5
 11
1010.659258263
 21
766.088190451
  0
LINE
  8
0
  6
CONTINUOUS
 62
     2
 10
1001.0
 20
763.5
 11
1036.0
 21
763.5
  0
LINE
  8
0
  6
CONTINUOUS
 62
     2
 10
1036.0
 20
763.5
 11
1026.340741737
 21
766.088190451
  0
LINE
  8
0
  6
CONTINUOUS
 62
     2
 10
1036.0
 20
763.5
 11
1026.340741737
 21
760.911809549
  0
LINE
  8
7
  6
CONTINUOUS
 62
     2
 10
1036.0
 20
823.5
 11
1026.340741737
 21
826.088190451
  0
LINE
  8
7
  6
CONTINUOUS
 62
     2
 10
1036.0
 20
823.5
 11
1026.340741737
 21
820.911809549
  0
LINE
  8
0
  6
CONTINUOUS
 62
     2
 10
925.0
 20
763.5
 11
1001.0
 21
763.5
  0
TEXT
  8
2
  6
CONTINUOUS
 62
     2
 10
1085.9
 20
584.9
 30
0.0
 40
15.0
  1
４０
 50
90.0
 41
0.9
 51
0.0
  7
KANJI39
  0
TEXT
  8
0
  6
CONTINUOUS
 62
     2
 10
915.4
 20
767.5
 30
0.0
 40
15.0
  1
ｍｉｎ．Ｐ
 50
0.0
 41
0.9
 51
0.0
  7
KANJI39
  0
TEXT
  8
0
  6
CONTINUOUS
 62
     2
 10
811.5
 20
797.5
 30
0.0
 40
15.0
  1
ｍｉｎ．Ｌ
 50
0.0
 41
0.9
 51
0.0
  7
KANJI39
  0
TEXT
  8
0
  6
CONTINUOUS
 62
     2
 10
1033.2
 20
827.5
 30
0.0
 40
15.0
  1
１８
 50
0.0
 41
0.9
 51
0.0
  7
KANJI39
  0
TEXT
  8
0
  6
CONTINUOUS
 62
     2
 10
1006.7
 20
767.5
 30
0.0
 40
15.0
  1
３５
 50
0.0
 41
0.9
 51
0.0
  7
KANJI39
  0
LINE
  8
0
  6
CONTINUOUS
 62
     2
 10
857.2
 20
566.75
 11
857.2
 21
630.25
  0
LINE
  8
0
  6
CONTINUOUS
 62
     2
 10
857.2
 20
630.25
 11
854.611809549
 21
620.590741737
  0
LINE
  8
0
  6
CONTINUOUS
 62
     2
 10
857.2
 20
630.25
 11
859.788190451
 21
620.590741737
  0
LINE
  8
0
  6
CONTINUOUS
 62
     2
 10
857.2
 20
566.75
 11
854.611809549
 21
576.409258263
  0
LINE
  8
0
  6
CONTINUOUS
 62
     2
 10
857.2
 20
566.75
 11
859.788190451
 21
576.409258263
  0
LINE
  8
0
  6
CONTINUOUS
 62
     2
 10
925.0
 20
763.5
 11
915.340741737
 21
766.088190451
  0
LINE
  8
0
  6
CONTINUOUS
 62
     2
 10
925.0
 20
763.5
 11
934.659258263
 21
766.088190451
  0
LINE
  8
0
  6
CONTINUOUS
 62
     2
 10
925.0
 20
603.5
 11
925.0
 21
768.25
  0
LINE
  8
0
  6
CONTINUOUS
 62
     2
 10
925.0
 20
763.5
 11
915.340741737
 21
760.911809549
  0
LINE
  8
0
  6
CONTINUOUS
 62
     2
 10
925.0
 20
763.5
 11
934.659258263
 21
760.911809549
  0
LINE
  8
0
  6
CONTINUOUS
 62
     2
 10
1001.0
 20
768.25
 11
1001.0
 21
626.0
  0
CIRCLE
  8
0
  6
CONTINUOUS
 62
     1
 10
1036.0
 20
598.5
 40
15.0
  0
LINE
  8
0
  6
CONTINUOUS
 62
     2
 10
1100.4
 20
663.7
 11
1088.325927171
 21
666.935238064
  0
LINE
  8
0
  6
CONTINUOUS
 62
     2
 10
1100.4
 20
663.7
 11
1088.325927171
 21
660.464761936
  0
LINE
  8
0
  6
CONTINUOUS
 62
     2
 10
1100.4
 20
663.7
 11
1059.4
 21
663.7
  0
TEXT
  8
0
  6
CONTINUOUS
 62
     2
 10
853.2
 20
580.5
 30
0.0
 40
15.0
  1
φ６４
 50
90.0
 41
0.9
 51
0.0
  7
KANJI39
  0
LINE
  8
0
  6
CONTINUOUS
 62
     1
 10
780.5
 20
611.0
 11
805.5
 21
611.0
  0
LINE
  8
0
  6
CONTINUOUS
 62
     1
 10
805.5
 20
586.0
 11
805.5
 21
611.0
  0
LINE
  8
0
  6
CONTINUOUS
 62
     1
 10
780.5
 20
586.0
 11
780.5
 21
611.0
  0
LINE
  8
0
  6
LTYPE3
 62
     2
 10
793.0
 20
617.2
 11
793.0
 21
577.5
  0
LINE
  8
0
  6
CONTINUOUS
 62
     1
 10
780.5
 20
586.0
 11
805.5
 21
586.0
  0
CIRCLE
  8
0
  6
CONTINUOUS
 62
     1
 10
793.0
 20
598.5
 40
12.5
  0
LINE
  8
0
  6
CONTINUOUS
 62
     2
 10
788.450185255
 20
590.35
 11
788.260119959
 21
580.351806404
  0
LINE
  8
0
  6
CONTINUOUS
 62
     2
 10
788.450185255
 20
590.35
 11
783.286487082
 21
581.786343002
  0
LINE
  8
0
  6
CONTINUOUS
 62
     2
 10
788.450185255
 20
590.35
 11
767.897884886
 21
519.093820875
  0
LINE
  8
0
  6
LTYPE3
 62
     2
 10
770.349814745
 20
598.5
 11
837.2
 21
598.5
  0
LINE
  8
0
  6
CONTINUOUS
 62
     2
 10
725.0
 20
519.093820875
 11
767.897884886
 21
519.093820875
  0
TEXT
  8
0
  6
CONTINUOUS
 62
     2
 10
723.297884886
 20
523.093820875
 30
0.0
 40
15.0
  1
給脂口
 50
0.0
 41
0.9
 51
0.0
  7
KANJI39
  0
LINE
  8
0
  6
LTYPE5
 62
     2
 10
770.349814745
 20
561.5
 11
770.349814745
 21
632.95
  0
LINE
  8
0
  6
LTYPE5
 62
     2
 10
766.349814745
 20
561.5
 11
766.349814745
 21
632.95
  0
LINE
  8
0
  6
CONTINUOUS
 62
     1
 10
836.0
 20
240.6
 11
868.0
 21
240.6
  0
LINE
  8
0
  6
CONTINUOUS
 62
     1
 10
836.0
 20
208.6
 11
836.0
 21
240.6
  0
ARC
  8
0
  6
CONTINUOUS
 62
     1
 10
797.0
 20
297.1
 40
10.0
 50
90.0
 51
180.0
  0
LINE
  8
0
  6
CONTINUOUS
 62
     1
 10
917.0
 20
295.3
 11
917.0
 21
297.1
  0
LINE
  8
0
  6
CONTINUOUS
 62
     1
 10
797.0
 20
307.1
 11
907.0
 21
307.1
  0
ARC
  8
0
  6
CONTINUOUS
 62
     1
 10
907.0
 20
297.1
 40
10.0
 50
0.0
 51
90.0
  0
LINE
  8
0
  6
LTYPE3
 62
     2
 10
918.261021217
 20
282.6
 11
827.0
 21
282.6
  0
ARC
  8
0
  6
CONTINUOUS
 62
     1
 10
795.0
 20
204.6
 40
8.75
 50
300.219855722
 51
239.780144278
  0
LINE
  8
0
  6
LTYPE3
 62
     2
 10
795.0
 20
157.5
 11
795.0
 21
215.0
  0
LINE
  8
0
  6
CONTINUOUS
 62
     1
 10
868.0
 20
208.6
 11
868.0
 21
240.6
  0
LINE
  8
0
  6
CONTINUOUS
 62
     1
 10
787.0
 20
216.6
 11
787.0
 21
208.14436172
  0
LINE
  8
0
  6
CONTINUOUS
 62
     1
 10
917.0
 20
248.14436172
 11
917.0
 21
269.95
  0
LINE
  8
0
  6
CONTINUOUS
 62
     1
 10
917.0
 20
232.6
 11
917.0
 21
241.05563828
  0
LINE
  8
0
  6
CONTINUOUS
 62
     1
 10
770.620942983
 20
216.6
 11
836.0
 21
216.6
  0
LINE
  8
0
  6
CONTINUOUS
 62
     1
 10
836.0
 20
232.6
 11
770.690577963
 21
232.6
  0
ARC
  8
0
  6
CONTINUOUS
 62
     1
 10
776.245468578
 20
228.6
 40
6.845203412
 50
144.242860688
 51
215.757139312
  0
ARC
  8
0
  6
CONTINUOUS
 62
     1
 10
765.135687347
 20
228.6
 40
6.845203412
 50
324.242860688
 51
35.757139312
  0
ARC
  8
0
  6
CONTINUOUS
 62
     1
 10
765.135687347
 20
220.6
 40
6.845203412
 50
324.242860688
 51
35.757139312
  0
LINE
  8
0
  6
CONTINUOUS
 62
     1
 10
868.0
 20
232.6
 11
923.5
 21
232.6
  0
LINE
  8
0
  6
CONTINUOUS
 62
     1
 10
923.5
 20
216.6
 11
868.0
 21
216.6
  0
LINE
  8
0
  6
LTYPE2
 62
     2
 10
1000.5
 20
224.6
 11
765.655760473
 21
224.6
  0
LINE
  8
7
  6
CONTINUOUS
 62
     2
 10
830.6
 20
282.6
 11
822.29152211
 21
277.035002681
  0
LINE
  8
7
  6
CONTINUOUS
 62
     2
 10
830.6
 20
282.6
 11
826.18714574
 21
273.626332005
  0
LINE
  8
7
  6
CONTINUOUS
 62
     2
 10
830.6
 20
282.6
 11
819.4
 21
269.8
  0
LINE
  8
7
  6
CONTINUOUS
 62
     2
 10
819.4
 20
269.8
 11
760.6
 21
269.8
  0
TEXT
  8
7
  6
CONTINUOUS
 62
     2
 10
760.6
 20
273.8
 30
1.2
 40
12.0
  1
ＰＦ１／２
 50
0.0
 41
0.9
 51
0.0
  7
KANJI22
  0
LINE
  8
0
  6
CONTINUOUS
 62
     1
 10
787.0
 20
286.8
 11
787.0
 21
297.1
  0
LINE
  8
0
  6
CONTINUOUS
 62
     1
 10
787.0
 20
232.6
 11
787.0
 21
266.8
  0
LINE
  8
0
  6
LTYPE3
 62
     2
 10
842.04
 20
297.7
 11
830.6
 21
297.7
  0
LINE
  8
0
  6
LTYPE3
 62
     2
 10
835.6
 20
301.6
 11
835.6
 21
292.62
  0
LINE
  8
0
  6
CONTINUOUS
 62
     1
 10
897.3
 20
302.6
 11
832.6
 21
302.6
  0
LINE
  8
0
  6
CONTINUOUS
 62
     1
 10
830.6
 20
300.6
 11
830.6
 21
264.6
  0
ARC
  8
0
  6
CONTINUOUS
 62
     1
 10
832.6
 20
300.6
 40
2.0
 50
90.0
 51
180.0
  0
LINE
  8
0
  6
LTYPE3
 62
     2
 10
841.5
 20
267.5
 11
830.6
 21
267.5
  0
LINE
  8
0
  6
LTYPE3
 62
     2
 10
835.6
 20
273.52
 11
835.6
 21
263.6
  0
LINE
  8
0
  6
CONTINUOUS
 62
     1
 10
897.3
 20
262.6
 11
832.6
 21
262.6
  0
ARC
  8
0
  6
CONTINUOUS
 62
     1
 10
832.6
 20
264.6
 40
2.0
 50
180.0
 51
270.0
  0
LINE
  8
0
  6
LTYPE3
 62
     2
 10
899.3
 20
297.7
 11
889.34
 21
297.7
  0
LINE
  8
0
  6
LTYPE3
 62
     2
 10
894.3
 20
301.6
 11
894.3
 21
293.72
  0
ARC
  8
0
  6
CONTINUOUS
 62
     1
 10
897.3
 20
300.6
 40
2.0
 50
0.0
 51
90.0
  0
LINE
  8
0
  6
CONTINUOUS
 62
     1
 10
922.7
 20
295.3
 11
899.3
 21
295.3
  0
LINE
  8
0
  6
CONTINUOUS
 62
     1
 10
899.3
 20
300.6
 11
899.3
 21
264.6
  0
LINE
  8
0
  6
LTYPE3
 62
     2
 10
899.3
 20
267.5
 11
889.5
 21
267.5
  0
LINE
  8
0
  6
LTYPE3
 62
     2
 10
894.3
 20
273.62
 11
894.3
 21
263.6
  0
ARC
  8
0
  6
CONTINUOUS
 62
     1
 10
897.3
 20
264.6
 40
2.0
 50
270.0
 51
0.0
  0
LINE
  8
0
  6
CONTINUOUS
 62
     1
 10
903.661021217
 20
269.9
 11
899.3
 21
269.9
  0
ARC
  8
0
  6
CONTINUOUS
 62
     1
 10
909.0
 20
282.6
 40
6.0
 50
356.983045121
 51
183.016954879
  0
LINE
  8
0
  6
LTYPE3
 62
     2
 10
909.0
 20
291.7
 11
909.0
 21
234.2
  0
LINE
  8
0
  6
CONTINUOUS
 62
     1
 10
914.991683988
 20
282.284210526
 11
912.994455992
 21
244.389473684
  0
LINE
  8
0
  6
CONTINUOUS
 62
     1
 10
903.008316012
 20
282.284210526
 11
905.005544008
 21
244.389473684
  0
LINE
  8
0
  6
CONTINUOUS
 62
     1
 10
922.7
 20
269.9
 11
914.338978783
 21
269.9
  0
LINE
  8
0
  6
LTYPE3
 62
     2
 10
898.0
 20
244.6
 11
921.0
 21
244.6
  0
ARC
  8
0
  6
CONTINUOUS
 62
     1
 10
909.0
 20
244.6
 40
8.75
 50
120.219855722
 51
59.780144278
  0
ARC
  8
0
  6
CONTINUOUS
 62
     1
 10
909.0
 20
244.6
 40
4.0
 50
176.983042101
 51
3.016952287
  0
LINE
  8
0
  6
CONTINUOUS
 62
     2
 10
792.000007629
 20
307.1
 11
733.5
 21
307.1
  0
LINE
  8
0
  6
CONTINUOUS
 62
     2
 10
743.5
 20
307.1
 11
740.264761936
 21
295.025927171
  0
LINE
  8
0
  6
CONTINUOUS
 62
     2
 10
743.5
 20
307.1
 11
746.735238064
 21
295.025927171
  0
LINE
  8
0
  6
CONTINUOUS
 62
     2
 10
743.5
 20
307.1
 11
743.5
 21
142.1
  0
TEXT
  8
0
  6
CONTINUOUS
 62
     3
 10
736.0
 20
204.35
 30
0.0
 40
15.0
  1
１６５
 50
90.0
 41
0.9
 51
0.0
  7
KANJI39
  0
LINE
  8
0
  6
CONTINUOUS
 62
     1
 10
868.0
 20
208.6
 11
836.0
 21
208.6
  0
ARC
  8
0
  6
CONTINUOUS
 62
     1
 10
795.0
 20
204.6
 40
4.0
 50
356.983042101
 51
183.016952287
  0
LINE
  8
0
  6
LTYPE3
 62
     2
 10
806.0
 20
204.6
 11
783.0
 21
204.6
  0
LINE
  8
0
  6
CONTINUOUS
 62
     1
 10
789.008316012
 20
166.915789474
 11
791.005544008
 21
204.810526316
  0
LINE
  8
0
  6
CONTINUOUS
 62
     1
 10
800.991683988
 20
166.915789474
 11
798.994455992
 21
204.810526316
  0
LINE
  8
0
  6
LTYPE3
 62
     2
 10
862.5
 20
181.7
 11
873.4
 21
181.7
  0
LINE
  8
0
  6
LTYPE3
 62
     2
 10
868.4
 20
175.68
 11
868.4
 21
185.6
  0
LINE
  8
0
  6
LTYPE3
 62
     2
 10
861.96
 20
151.5
 11
873.4
 21
151.5
  0
LINE
  8
0
  6
LTYPE3
 62
     2
 10
868.4
 20
147.6
 11
868.4
 21
156.58
  0
LINE
  8
0
  6
LTYPE3
 62
     2
 10
804.7
 20
151.5
 11
814.66
 21
151.5
  0
LINE
  8
0
  6
LTYPE3
 62
     2
 10
809.7
 20
147.6
 11
809.7
 21
155.48
  0
LINE
  8
0
  6
LTYPE3
 62
     2
 10
804.7
 20
181.7
 11
814.5
 21
181.7
  0
LINE
  8
0
  6
LTYPE3
 62
     2
 10
809.7
 20
175.58
 11
809.7
 21
185.6
  0
LINE
  8
0
  6
CONTINUOUS
 62
     1
 10
781.3
 20
153.9
 11
804.7
 21
153.9
  0
ARC
  8
0
  6
CONTINUOUS
 62
     1
 10
781.3
 20
155.9
 40
2.0
 50
180.0
 51
270.0
  0
LINE
  8
0
  6
CONTINUOUS
 62
     1
 10
779.3
 20
155.9
 11
779.3
 21
177.3
  0
ARC
  8
0
  6
CONTINUOUS
 62
     1
 10
781.3
 20
177.3
 40
2.0
 50
90.0
 51
180.0
  0
LINE
  8
0
  6
CONTINUOUS
 62
     1
 10
804.7
 20
148.6
 11
804.7
 21
184.6
  0
ARC
  8
0
  6
CONTINUOUS
 62
     1
 10
806.7
 20
184.6
 40
2.0
 50
90.0
 51
180.0
  0
LINE
  8
0
  6
CONTINUOUS
 62
     1
 10
806.7
 20
186.6
 11
871.4
 21
186.6
  0
ARC
  8
0
  6
CONTINUOUS
 62
     1
 10
871.4
 20
184.6
 40
2.0
 50
0.0
 51
90.0
  0
LINE
  8
0
  6
CONTINUOUS
 62
     1
 10
873.4
 20
148.6
 11
873.4
 21
184.6
  0
ARC
  8
0
  6
CONTINUOUS
 62
     1
 10
907.0
 20
152.1
 40
10.0
 50
270.0
 51
0.0
  0
LINE
  8
0
  6
CONTINUOUS
 62
     1
 10
787.0
 20
153.9
 11
787.0
 21
152.1
  0
ARC
  8
0
  6
CONTINUOUS
 62
     1
 10
797.0
 20
152.1
 40
10.0
 50
180.0
 51
270.0
  0
ARC
  8
0
  6
CONTINUOUS
 62
     1
 10
795.0
 20
166.6
 40
6.0
 50
176.983045121
 51
3.016954879
  0
LINE
  8
0
  6
CONTINUOUS
 62
     1
 10
800.338978783
 20
179.3
 11
804.7
 21
179.3
  0
LINE
  8
0
  6
CONTINUOUS
 62
     1
 10
781.3
 20
179.3
 11
789.661021217
 21
179.3
  0
LINE
  8
0
  6
LTYPE3
 62
     2
 10
785.738978783
 20
166.6
 11
877.0
 21
166.6
  0
LINE
  8
0
  6
CONTINUOUS
 62
     1
 10
787.0
 20
201.05563828
 11
787.0
 21
179.25
  0
LINE
  8
7
  6
CONTINUOUS
 62
     2
 10
873.4
 20
166.6
 11
881.767307585
 21
172.076144975
  0
LINE
  8
7
  6
CONTINUOUS
 62
     2
 10
873.4
 20
166.6
 11
877.908228442
 21
175.526134455
  0
LINE
  8
7
  6
CONTINUOUS
 62
     2
 10
873.4
 20
166.6
 11
886.05
 21
180.75
  0
LINE
  8
7
  6
CONTINUOUS
 62
     2
 10
886.05
 20
180.75
 11
944.85
 21
180.75
  0
TEXT
  8
7
  6
CONTINUOUS
 62
     2
 10
886.05
 20
184.75
 30
1.2
 40
12.0
  1
ＰＦ１／２
 50
0.0
 41
0.9
 51
0.0
  7
KANJI22
  0
LINE
  8
0
  6
CONTINUOUS
 62
     1
 10
917.0
 20
177.8
 11
917.0
 21
152.1
  0
ARC
  8
0
  6
CONTINUOUS
 62
     1
 10
806.7
 20
148.6
 40
2.0
 50
180.0
 51
270.0
  0
ARC
  8
0
  6
CONTINUOUS
 62
     1
 10
871.4
 20
148.6
 40
2.0
 50
270.0
 51
0.0
  0
LINE
  8
0
  6
CONTINUOUS
 62
     1
 10
806.7
 20
146.6
 11
871.4
 21
146.6
  0
LINE
  8
0
  6
CONTINUOUS
 62
     1
 10
907.0
 20
142.1
 11
797.0
 21
142.1
  0
LINE
  8
0
  6
CONTINUOUS
 62
     2
 10
743.5
 20
142.1
 11
746.735238064
 21
154.174072829
  0
LINE
  8
0
  6
CONTINUOUS
 62
     2
 10
743.5
 20
142.1
 11
740.264761936
 21
154.174072829
  0
LINE
  8
0
  6
CONTINUOUS
 62
     2
 10
792.0
 20
142.1
 11
733.5
 21
142.1
  0
LINE
  8
0
  6
CONTINUOUS
 62
     2
 10
787.0
 20
147.1
 11
787.0
 21
101.1
  0
LINE
  8
0
  6
CONTINUOUS
 62
     2
 10
917.0
 20
147.1
 11
917.0
 21
101.1
  0
TEXT
  8
0
  6
CONTINUOUS
 62
     3
 10
831.75
 20
118.6
 30
0.0
 40
15.0
  1
１３０
 50
0.0
 41
0.9
 51
0.0
  7
KANJI39
  0
LINE
  8
0
  6
CONTINUOUS
 62
     2
 10
787.0
 20
111.1
 11
799.074072829
 21
107.864761936
  0
LINE
  8
0
  6
CONTINUOUS
 62
     2
 10
787.0
 20
111.1
 11
799.074072829
 21
114.335238064
  0
LINE
  8
0
  6
CONTINUOUS
 62
     2
 10
787.0
 20
111.1
 11
917.0
 21
111.1
  0
LINE
  8
0
  6
CONTINUOUS
 62
     2
 10
917.0
 20
111.1
 11
904.925927171
 21
114.335238064
  0
LINE
  8
0
  6
CONTINUOUS
 62
     2
 10
917.0
 20
111.1
 11
904.925927171
 21
107.864761936
  0
LINE
  8
0
  6
CONTINUOUS
 62
     1
 10
923.5
 20
214.6
 11
923.5
 21
234.6
  0
LINE
  8
0
  6
CONTINUOUS
 62
     1
 10
923.5
 20
234.6
 11
937.356406461
 21
242.6
  0
LINE
  8
0
  6
CONTINUOUS
 62
     1
 10
923.5
 20
214.6
 11
937.356406461
 21
206.6
  0
LINE
  8
0
  6
CONTINUOUS
 62
     1
 10
937.356406461
 20
206.6
 11
937.356406461
 21
242.6
  0
LINE
  8
0
  6
CONTINUOUS
 62
     1
 10
937.356406461
 20
242.6
 11
959.643593539
 21
242.6
  0
CIRCLE
  8
0
  6
CONTINUOUS
 62
     2
 10
948.5
 20
224.6
 40
5.0
  0
CIRCLE
  8
0
  6
CONTINUOUS
 62
     2
 10
948.5
 20
224.6
 40
4.0
  0
LINE
  8
0
  6
CONTINUOUS
 62
     1
 10
937.356406461
 20
206.6
 11
959.643593539
 21
206.6
  0
LINE
  8
0
  6
CONTINUOUS
 62
     1
 10
937.356406461
 20
206.6
 11
959.643593539
 21
206.6
  0
LINE
  8
0
  6
LTYPE2
 62
     2
 10
948.5
 20
214.6
 11
948.5
 21
234.6
  0
ARC
  8
0
  6
CONTINUOUS
 62
     1
 10
990.254531422
 20
228.6
 40
6.845203412
 50
324.242860688
 51
35.757139312
  0
ARC
  8
0
  6
CONTINUOUS
 62
     1
 10
1001.364312653
 20
228.6
 40
6.845203412
 50
144.242860688
 51
215.757139312
  0
ARC
  8
0
  6
CONTINUOUS
 62
     1
 10
1001.364312653
 20
220.6
 40
6.845203412
 50
144.242860688
 51
215.757139312
  0
LINE
  8
0
  6
CONTINUOUS
 62
     1
 10
973.5
 20
214.6
 11
973.5
 21
234.6
  0
LINE
  8
0
  6
CONTINUOUS
 62
     1
 10
959.643593539
 20
206.6
 11
959.643593539
 21
242.6
  0
LINE
  8
0
  6
CONTINUOUS
 62
     1
 10
973.5
 20
214.6
 11
959.643593539
 21
206.6
  0
LINE
  8
0
  6
CONTINUOUS
 62
     1
 10
995.809422037
 20
216.6
 11
973.5
 21
216.6
  0
LINE
  8
0
  6
CONTINUOUS
 62
     1
 10
973.5
 20
234.6
 11
959.643593539
 21
242.6
  0
LINE
  8
0
  6
CONTINUOUS
 62
     1
 10
973.5
 20
232.6
 11
995.809422037
 21
232.6
  0
ARC
  8
0
  6
CONTINUOUS
 62
     1
 10
922.7
 20
293.3
 40
2.0
 50
0.0
 51
90.0
  0
LINE
  8
0
  6
CONTINUOUS
 62
     1
 10
924.7
 20
293.3
 11
924.7
 21
271.9
  0
ARC
  8
0
  6
CONTINUOUS
 62
     1
 10
922.7
 20
271.9
 40
2.0
 50
270.0
 51
0.0
  0
LINE
  8
0
  6
CONTINUOUS
 62
     1
 10
683.0
 20
566.75
 11
766.349814745
 21
566.75
  0
LINE
  8
0
  6
CONTINUOUS
 62
     1
 10
683.0
 20
630.25
 11
766.349814745
 21
630.25
  0
LINE
  8
0
  6
CONTINUOUS
 62
     1
 10
886.0
 20
630.25
 11
925.0
 21
630.25
  0
LINE
  8
0
  6
CONTINUOUS
 62
     1
 10
889.0
 20
564.75
 11
892.5
 21
564.75
  0
LINE
  8
0
  6
CONTINUOUS
 62
     1
 10
826.0
 20
630.25
 11
878.0
 21
630.25
  0
LINE
  8
0
  6
CONTINUOUS
 62
     1
 10
770.349814745
 20
630.25
 11
818.0
 21
630.25
  0
LINE
  8
0
  6
CONTINUOUS
 62
     1
 10
829.0
 20
566.75
 11
875.0
 21
566.75
  0
LINE
  8
0
  6
CONTINUOUS
 62
     1
 10
770.349814745
 20
566.75
 11
815.0
 21
566.75
  0
TEXT
  8
2
  6
CONTINUOUS
 62
     2
 10
452.05
 20
530.25
 30
0.0
 40
15.0
  1
φ１６深さ２２
 50
0.0
 41
0.9
 51
0.0
  7
KANJI39
  0
LINE
  8
2
  6
CONTINUOUS
 62
     2
 10
541.084622824
 20
526.25
 11
459.05
 21
526.25
  0
LINE
  8
2
  6
CONTINUOUS
 62
     2
 10
577.0
 20
598.5
 11
541.084622824
 21
526.25
  0
LINE
  8
0
  6
CONTINUOUS
 62
     2
 10
717.849341037
 20
598.5
 11
766.649341037
 21
598.5
  0
POLYLINE
  8
0
  6
CONTINUOUS
 62
     2
 66
     1
  0
VERTEX
  8
0
  6
CONTINUOUS
 62
     2
 10
739.999341037
 20
598.5
  0
VERTEX
  8
0
  6
CONTINUOUS
 62
     2
 10
739.999341037
 20
700.5
  0
VERTEX
  8
0
  6
CONTINUOUS
 62
     2
 10
736.764102974
 20
688.425927171
  0
SEQEND
  0
LINE
  8
0
  6
CONTINUOUS
 62
     2
 10
739.999341037
 20
700.5
 11
743.234579101
 21
688.425927171
  0
TEXT
  8
0
  6
CONTINUOUS
 62
     3
 10
731.999341037
 20
640.15
 30
0.0
 40
15.0
  1
１０２
 50
90.0
 41
0.9
 51
0.0
  7
KANJI39
  0
LINE
  8
0
  6
CONTINUOUS
 62
     2
 10
739.999341037
 20
598.5
 11
743.234579101
 21
610.574072829
  0
LINE
  8
0
  6
CONTINUOUS
 62
     2
 10
739.999341037
 20
598.5
 11
736.764102974
 21
610.574072829
  0
LINE
  8
0
  6
CONTINUOUS
 62
     2
 10
682.0
 20
700.5
 11
744.664102974
 21
700.5
  0
LINE
  8
0
  6
CONTINUOUS
 62
     2
 10
577.0
 20
763.5
 11
925.0
 21
763.5
  0
LINE
  8
0
  6
CONTINUOUS
 62
     2
 10
1036.0
 20
793.5
 11
577.0
 21
793.5
  0
LINE
  8
7
  6
CONTINUOUS
 62
     2
 10
1036.0
 20
823.5
 11
200.0
 21
823.5
  0
LINE
  8
0
  6
CONTINUOUS
 62
     1
 10
612.505833333
 20
247.818333333
 11
612.505833333
 21
193.901666667
  0
LINE
  8
0
  6
CONTINUOUS
 62
     1
 10
645.839166667
 20
247.818333333
 11
645.839166667
 21
193.901666667
  0
ARC
  8
0
  6
CONTINUOUS
 62
     1
 10
614.1725
 20
247.818333333
 40
1.666666667
 50
90.0
 51
180.0
  0
LINE
  8
0
  6
CONTINUOUS
 62
     1
 10
618.589166667
 20
268.985
 11
618.589166667
 21
249.485
  0
LINE
  8
0
  6
CONTINUOUS
 62
     1
 10
614.1725
 20
249.485
 11
644.1725
 21
249.485
  0
ARC
  8
0
  6
CONTINUOUS
 62
     1
 10
644.1725
 20
247.818333333
 40
1.666666667
 50
0.0
 51
90.0
  0
ARC
  8
0
  6
CONTINUOUS
 62
     1
 10
620.255833333
 20
268.985
 40
1.666666667
 50
90.0
 51
180.0
  0
ARC
  8
0
  6
CONTINUOUS
 62
     1
 10
629.1725
 20
257.568333333
 40
5.0
 50
131.983045121
 51
318.016954879
  0
LINE
  8
0
  6
LTYPE3
 62
     2
 10
623.810273576
 20
252.206106909
 11
657.692473508
 21
286.088306841
  0
LINE
  8
0
  6
CONTINUOUS
 62
     1
 10
625.827947083
 20
261.285047714
 11
649.334512793
 21
282.437857658
  0
LINE
  8
0
  6
CONTINUOUS
 62
     1
 10
632.889214381
 20
254.223780417
 11
654.042024325
 21
277.730346126
  0
LINE
  8
0
  6
LTYPE3
 62
     2
 10
658.046026898
 20
273.47823591
 11
644.493146926
 21
287.031115883
  0
ARC
  8
0
  6
CONTINUOUS
 62
     1
 10
651.564214738
 20
279.960048071
 40
7.291666667
 50
255.219855722
 51
194.780144278
  0
ARC
  8
0
  6
CONTINUOUS
 62
     1
 10
651.564214738
 20
279.960048071
 40
3.333333333
 50
311.983042101
 51
138.016952287
  0
LINE
  8
0
  6
CONTINUOUS
 62
     1
 10
639.755833333
 20
261.854474875
 11
639.755833333
 21
249.485
  0
LINE
  8
0
  6
CONTINUOUS
 62
     1
 10
620.255833333
 20
270.651666667
 11
636.236826304
 21
270.651666667
  0
LINE
  8
0
  6
LTYPE2
 62
     2
 10
616.776666667
 20
229.901666667
 11
641.776666667
 21
229.901666667
  0
LINE
  8
0
  6
LTYPE2
 62
     2
 10
641.776666667
 20
229.901666667
 11
641.776666667
 21
237.818333333
  0
LINE
  8
0
  6
LTYPE2
 62
     2
 10
641.776666667
 20
237.818333333
 11
616.776666667
 21
237.818333333
  0
LINE
  8
0
  6
LTYPE2
 62
     2
 10
616.776666667
 20
237.818333333
 11
616.776666667
 21
229.901666667
  0
TEXT
  8
0
  6
CONTINUOUS
 62
     2
 10
615.755833333
 20
240.568333333
 30
0.0
 40
8.333333333
  1
４
 50
0.0
 41
0.85
 51
0.0
  7
KANJI42
  0
TEXT
  8
0
  6
CONTINUOUS
 62
     2
 10
636.589166667
 20
240.568333333
 30
0.0
 40
8.333333333
  1
３
 50
0.0
 41
0.85
 51
0.0
  7
KANJI42
  0
POLYLINE
  8
0
  6
CONTINUOUS
 62
     2
 66
     1
 70
     1
  0
VERTEX
  8
0
  6
CONTINUOUS
 62
     2
 10
624.9225
 20
239.943333333
 42
0.021820078
  0
VERTEX
  8
0
  6
CONTINUOUS
 62
     2
 10
624.915365059
 20
240.106750351
 42
0.021820078
  0
VERTEX
  8
0
  6
CONTINUOUS
 62
     2
 10
624.894014537
 20
240.268923666
 42
0.021820078
  0
VERTEX
  8
0
  6
CONTINUOUS
 62
     2
 10
624.858610924
 20
240.428619043
 42
0.021820078
  0
VERTEX
  8
0
  6
CONTINUOUS
 62
     2
 10
624.809423664
 20
240.584621102
 42
0.021820078
  0
VERTEX
  8
0
  6
CONTINUOUS
 62
     2
 10
624.746827101
 20
240.735742574
 42
0.021820078
  0
VERTEX
  8
0
  6
CONTINUOUS
 62
     2
 10
624.671297632
 20
240.880833333
 42
0.021820078
  0
VERTEX
  8
0
  6
CONTINUOUS
 62
     2
 10
624.583410083
 20
241.018789151
 42
0.021820078
  0
VERTEX
  8
0
  6
CONTINUOUS
 62
     2
 10
624.483833331
 20
241.148560101
 42
0.021820078
  0
VERTEX
  8
0
  6
CONTINUOUS
 62
     2
 10
624.373325215
 20
241.269158548
 42
0.021820078
  0
VERTEX
  8
0
  6
CONTINUOUS
 62
     2
 10
624.252726768
 20
241.379666664
 42
0.021820078
  0
VERTEX
  8
0
  6
CONTINUOUS
 62
     2
 10
624.122955818
 20
241.479243416
 42
0.021820078
  0
VERTEX
  8
0
  6
CONTINUOUS
 62
     2
 10
623.985
 20
241.567130965
 42
0.021820078
  0
VERTEX
  8
0
  6
CONTINUOUS
 62
     2
 10
623.839909241
 20
241.642660434
 42
0.021820078
  0
VERTEX
  8
0
  6
CONTINUOUS
 62
     2
 10
623.688787769
 20
241.705256997
 42
0.021820078
  0
VERTEX
  8
0
  6
CONTINUOUS
 62
     2
 10
623.53278571
 20
241.754444258
 42
0.021820078
  0
VERTEX
  8
0
  6
CONTINUOUS
 62
     2
 10
623.373090333
 20
241.78984787
 42
0.021820078
  0
VERTEX
  8
0
  6
CONTINUOUS
 62
     2
 10
623.210917018
 20
241.811198392
 42
0.021820078
  0
VERTEX
  8
0
  6
CONTINUOUS
 62
     2
 10
623.0475
 20
241.818333333
 42
0.021820078
  0
VERTEX
  8
0
  6
CONTINUOUS
 62
     2
 10
622.884082982
 20
241.811198392
 42
0.021820078
  0
VERTEX
  8
0
  6
CONTINUOUS
 62
     2
 10
622.721909667
 20
241.78984787
 42
0.021820078
  0
VERTEX
  8
0
  6
CONTINUOUS
 62
     2
 10
622.56221429
 20
241.754444258
 42
0.021820078
  0
VERTEX
  8
0
  6
CONTINUOUS
 62
     2
 10
622.406212231
 20
241.705256997
 42
0.021820078
  0
VERTEX
  8
0
  6
CONTINUOUS
 62
     2
 10
622.255090759
 20
241.642660434
 42
0.021820078
  0
VERTEX
  8
0
  6
CONTINUOUS
 62
     2
 10
622.11
 20
241.567130965
 42
0.021820078
  0
VERTEX
  8
0
  6
CONTINUOUS
 62
     2
 10
621.972044182
 20
241.479243416
 42
0.021820078
  0
VERTEX
  8
0
  6
CONTINUOUS
 62
     2
 10
621.842273232
 20
241.379666664
 42
0.021820078
  0
VERTEX
  8
0
  6
CONTINUOUS
 62
     2
 10
621.721674785
 20
241.269158548
 42
0.021820078
  0
VERTEX
  8
0
  6
CONTINUOUS
 62
     2
 10
621.611166669
 20
241.148560101
 42
0.021820078
  0
VERTEX
  8
0
  6
CONTINUOUS
 62
     2
 10
621.511589917
 20
241.018789151
 42
0.021820078
  0
VERTEX
  8
0
  6
CONTINUOUS
 62
     2
 10
621.423702368
 20
240.880833333
 42
0.021820078
  0
VERTEX
  8
0
  6
CONTINUOUS
 62
     2
 10
621.348172899
 20
240.735742574
 42
0.021820078
  0
VERTEX
  8
0
  6
CONTINUOUS
 62
     2
 10
621.285576336
 20
240.584621102
 42
0.021820078
  0
VERTEX
  8
0
  6
CONTINUOUS
 62
     2
 10
621.236389076
 20
240.428619043
 42
0.021820078
  0
VERTEX
  8
0
  6
CONTINUOUS
 62
     2
 10
621.200985463
 20
240.268923666
 42
0.021820078
  0
VERTEX
  8
0
  6
CONTINUOUS
 62
     2
 10
621.179634941
 20
240.106750351
 42
0.021820078
  0
VERTEX
  8
0
  6
CONTINUOUS
 62
     2
 10
621.1725
 20
239.943333333
 42
0.021820078
  0
VERTEX
  8
0
  6
CONTINUOUS
 62
     2
 10
621.179634941
 20
239.779916316
 42
0.021820078
  0
VERTEX
  8
0
  6
CONTINUOUS
 62
     2
 10
621.200985463
 20
239.617743
 42
0.021820078
  0
VERTEX
  8
0
  6
CONTINUOUS
 62
     2
 10
621.236389076
 20
239.458047624
 42
0.021820078
  0
VERTEX
  8
0
  6
CONTINUOUS
 62
     2
 10
621.285576336
 20
239.302045565
 42
0.021820078
  0
VERTEX
  8
0
  6
CONTINUOUS
 62
     2
 10
621.348172899
 20
239.150924093
 42
0.021820078
  0
VERTEX
  8
0
  6
CONTINUOUS
 62
     2
 10
621.423702368
 20
239.005833333
 42
0.021820078
  0
VERTEX
  8
0
  6
CONTINUOUS
 62
     2
 10
621.511589917
 20
238.867877515
 42
0.021820078
  0
VERTEX
  8
0
  6
CONTINUOUS
 62
     2
 10
621.611166669
 20
238.738106565
 42
0.021820078
  0
VERTEX
  8
0
  6
CONTINUOUS
 62
     2
 10
621.721674785
 20
238.617508119
 42
0.021820078
  0
VERTEX
  8
0
  6
CONTINUOUS
 62
     2
 10
621.842273232
 20
238.507000002
 42
0.021820078
  0
VERTEX
  8
0
  6
CONTINUOUS
 62
     2
 10
621.972044182
 20
238.40742325
 42
0.021820078
  0
VERTEX
  8
0
  6
CONTINUOUS
 62
     2
 10
622.11
 20
238.319535701
 42
0.021820078
  0
VERTEX
  8
0
  6
CONTINUOUS
 62
     2
 10
622.255090759
 20
238.244006233
 42
0.021820078
  0
VERTEX
  8
0
  6
CONTINUOUS
 62
     2
 10
622.406212231
 20
238.181409669
 42
0.021820078
  0
VERTEX
  8
0
  6
CONTINUOUS
 62
     2
 10
622.56221429
 20
238.132222409
 42
0.021820078
  0
VERTEX
  8
0
  6
CONTINUOUS
 62
     2
 10
622.721909667
 20
238.096818796
 42
0.021820078
  0
VERTEX
  8
0
  6
CONTINUOUS
 62
     2
 10
622.884082982
 20
238.075468274
 42
0.021820078
  0
VERTEX
  8
0
  6
CONTINUOUS
 62
     2
 10
623.0475
 20
238.068333333
 42
0.021820078
  0
VERTEX
  8
0
  6
CONTINUOUS
 62
     2
 10
623.210917018
 20
238.075468274
 42
0.021820078
  0
VERTEX
  8
0
  6
CONTINUOUS
 62
     2
 10
623.373090333
 20
238.096818796
 42
0.021820078
  0
VERTEX
  8
0
  6
CONTINUOUS
 62
     2
 10
623.53278571
 20
238.132222409
 42
0.021820078
  0
VERTEX
  8
0
  6
CONTINUOUS
 62
     2
 10
623.688787769
 20
238.181409669
 42
0.021820078
  0
VERTEX
  8
0
  6
CONTINUOUS
 62
     2
 10
623.839909241
 20
238.244006233
 42
0.021820078
  0
VERTEX
  8
0
  6
CONTINUOUS
 62
     2
 10
623.985
 20
238.319535701
 42
0.021820078
  0
VERTEX
  8
0
  6
CONTINUOUS
 62
     2
 10
624.122955818
 20
238.40742325
 42
0.021820078
  0
VERTEX
  8
0
  6
CONTINUOUS
 62
     2
 10
624.252726768
 20
238.507000002
 42
0.021820078
  0
VERTEX
  8
0
  6
CONTINUOUS
 62
     2
 10
624.373325215
 20
238.617508119
 42
0.021820078
  0
VERTEX
  8
0
  6
CONTINUOUS
 62
     2
 10
624.483833331
 20
238.738106565
 42
0.021820078
  0
VERTEX
  8
0
  6
CONTINUOUS
 62
     2
 10
624.583410083
 20
238.867877515
 42
0.021820078
  0
VERTEX
  8
0
  6
CONTINUOUS
 62
     2
 10
624.671297632
 20
239.005833333
 42
0.021820078
  0
VERTEX
  8
0
  6
CONTINUOUS
 62
     2
 10
624.746827101
 20
239.150924093
 42
0.021820078
  0
VERTEX
  8
0
  6
CONTINUOUS
 62
     2
 10
624.809423664
 20
239.302045565
 42
0.021820078
  0
VERTEX
  8
0
  6
CONTINUOUS
 62
     2
 10
624.858610924
 20
239.458047624
 42
0.021820078
  0
VERTEX
  8
0
  6
CONTINUOUS
 62
     2
 10
624.894014537
 20
239.617743
 42
0.021820078
  0
VERTEX
  8
0
  6
CONTINUOUS
 62
     2
 10
624.915365059
 20
239.779916316
 42
0.021820078
  0
SEQEND
  8
0
  6
CONTINUOUS
 62
     2
  0
POLYLINE
  8
0
  6
CONTINUOUS
 62
     2
 66
     1
 70
     1
  0
VERTEX
  8
0
  6
CONTINUOUS
 62
     2
 10
637.4225
 20
239.943333333
 42
0.021820078
  0
VERTEX
  8
0
  6
CONTINUOUS
 62
     2
 10
637.415365059
 20
240.106750351
 42
0.021820078
  0
VERTEX
  8
0
  6
CONTINUOUS
 62
     2
 10
637.394014537
 20
240.268923666
 42
0.021820078
  0
VERTEX
  8
0
  6
CONTINUOUS
 62
     2
 10
637.358610924
 20
240.428619043
 42
0.021820078
  0
VERTEX
  8
0
  6
CONTINUOUS
 62
     2
 10
637.309423664
 20
240.584621102
 42
0.021820078
  0
VERTEX
  8
0
  6
CONTINUOUS
 62
     2
 10
637.246827101
 20
240.735742574
 42
0.021820078
  0
VERTEX
  8
0
  6
CONTINUOUS
 62
     2
 10
637.171297632
 20
240.880833333
 42
0.021820078
  0
VERTEX
  8
0
  6
CONTINUOUS
 62
     2
 10
637.083410083
 20
241.018789151
 42
0.021820078
  0
VERTEX
  8
0
  6
CONTINUOUS
 62
     2
 10
636.983833331
 20
241.148560101
 42
0.021820078
  0
VERTEX
  8
0
  6
CONTINUOUS
 62
     2
 10
636.873325215
 20
241.269158548
 42
0.021820078
  0
VERTEX
  8
0
  6
CONTINUOUS
 62
     2
 10
636.752726768
 20
241.379666664
 42
0.021820078
  0
VERTEX
  8
0
  6
CONTINUOUS
 62
     2
 10
636.622955818
 20
241.479243416
 42
0.021820078
  0
VERTEX
  8
0
  6
CONTINUOUS
 62
     2
 10
636.485
 20
241.567130965
 42
0.021820078
  0
VERTEX
  8
0
  6
CONTINUOUS
 62
     2
 10
636.339909241
 20
241.642660434
 42
0.021820078
  0
VERTEX
  8
0
  6
CONTINUOUS
 62
     2
 10
636.188787769
 20
241.705256997
 42
0.021820078
  0
VERTEX
  8
0
  6
CONTINUOUS
 62
     2
 10
636.03278571
 20
241.754444258
 42
0.021820078
  0
VERTEX
  8
0
  6
CONTINUOUS
 62
     2
 10
635.873090333
 20
241.78984787
 42
0.021820078
  0
VERTEX
  8
0
  6
CONTINUOUS
 62
     2
 10
635.710917018
 20
241.811198392
 42
0.021820078
  0
VERTEX
  8
0
  6
CONTINUOUS
 62
     2
 10
635.5475
 20
241.818333333
 42
0.021820078
  0
VERTEX
  8
0
  6
CONTINUOUS
 62
     2
 10
635.384082982
 20
241.811198392
 42
0.021820078
  0
VERTEX
  8
0
  6
CONTINUOUS
 62
     2
 10
635.221909667
 20
241.78984787
 42
0.021820078
  0
VERTEX
  8
0
  6
CONTINUOUS
 62
     2
 10
635.06221429
 20
241.754444258
 42
0.021820078
  0
VERTEX
  8
0
  6
CONTINUOUS
 62
     2
 10
634.906212231
 20
241.705256997
 42
0.021820078
  0
VERTEX
  8
0
  6
CONTINUOUS
 62
     2
 10
634.755090759
 20
241.642660434
 42
0.021820078
  0
VERTEX
  8
0
  6
CONTINUOUS
 62
     2
 10
634.61
 20
241.567130965
 42
0.021820078
  0
VERTEX
  8
0
  6
CONTINUOUS
 62
     2
 10
634.472044182
 20
241.479243416
 42
0.021820078
  0
VERTEX
  8
0
  6
CONTINUOUS
 62
     2
 10
634.342273232
 20
241.379666664
 42
0.021820078
  0
VERTEX
  8
0
  6
CONTINUOUS
 62
     2
 10
634.221674785
 20
241.269158548
 42
0.021820078
  0
VERTEX
  8
0
  6
CONTINUOUS
 62
     2
 10
634.111166669
 20
241.148560101
 42
0.021820078
  0
VERTEX
  8
0
  6
CONTINUOUS
 62
     2
 10
634.011589917
 20
241.018789151
 42
0.021820078
  0
VERTEX
  8
0
  6
CONTINUOUS
 62
     2
 10
633.923702368
 20
240.880833333
 42
0.021820078
  0
VERTEX
  8
0
  6
CONTINUOUS
 62
     2
 10
633.848172899
 20
240.735742574
 42
0.021820078
  0
VERTEX
  8
0
  6
CONTINUOUS
 62
     2
 10
633.785576336
 20
240.584621102
 42
0.021820078
  0
VERTEX
  8
0
  6
CONTINUOUS
 62
     2
 10
633.736389076
 20
240.428619043
 42
0.021820078
  0
VERTEX
  8
0
  6
CONTINUOUS
 62
     2
 10
633.700985463
 20
240.268923666
 42
0.021820078
  0
VERTEX
  8
0
  6
CONTINUOUS
 62
     2
 10
633.679634941
 20
240.106750351
 42
0.021820078
  0
VERTEX
  8
0
  6
CONTINUOUS
 62
     2
 10
633.6725
 20
239.943333333
 42
0.021820078
  0
VERTEX
  8
0
  6
CONTINUOUS
 62
     2
 10
633.679634941
 20
239.779916316
 42
0.021820078
  0
VERTEX
  8
0
  6
CONTINUOUS
 62
     2
 10
633.700985463
 20
239.617743
 42
0.021820078
  0
VERTEX
  8
0
  6
CONTINUOUS
 62
     2
 10
633.736389076
 20
239.458047624
 42
0.021820078
  0
VERTEX
  8
0
  6
CONTINUOUS
 62
     2
 10
633.785576336
 20
239.302045565
 42
0.021820078
  0
VERTEX
  8
0
  6
CONTINUOUS
 62
     2
 10
633.848172899
 20
239.150924093
 42
0.021820078
  0
VERTEX
  8
0
  6
CONTINUOUS
 62
     2
 10
633.923702368
 20
239.005833333
 42
0.021820078
  0
VERTEX
  8
0
  6
CONTINUOUS
 62
     2
 10
634.011589917
 20
238.867877515
 42
0.021820078
  0
VERTEX
  8
0
  6
CONTINUOUS
 62
     2
 10
634.111166669
 20
238.738106565
 42
0.021820078
  0
VERTEX
  8
0
  6
CONTINUOUS
 62
     2
 10
634.221674785
 20
238.617508119
 42
0.021820078
  0
VERTEX
  8
0
  6
CONTINUOUS
 62
     2
 10
634.342273232
 20
238.507000002
 42
0.021820078
  0
VERTEX
  8
0
  6
CONTINUOUS
 62
     2
 10
634.472044182
 20
238.40742325
 42
0.021820078
  0
VERTEX
  8
0
  6
CONTINUOUS
 62
     2
 10
634.61
 20
238.319535701
 42
0.021820078
  0
VERTEX
  8
0
  6
CONTINUOUS
 62
     2
 10
634.755090759
 20
238.244006233
 42
0.021820078
  0
VERTEX
  8
0
  6
CONTINUOUS
 62
     2
 10
634.906212231
 20
238.181409669
 42
0.021820078
  0
VERTEX
  8
0
  6
CONTINUOUS
 62
     2
 10
635.06221429
 20
238.132222409
 42
0.021820078
  0
VERTEX
  8
0
  6
CONTINUOUS
 62
     2
 10
635.221909667
 20
238.096818796
 42
0.021820078
  0
VERTEX
  8
0
  6
CONTINUOUS
 62
     2
 10
635.384082982
 20
238.075468274
 42
0.021820078
  0
VERTEX
  8
0
  6
CONTINUOUS
 62
     2
 10
635.5475
 20
238.068333333
 42
0.021820078
  0
VERTEX
  8
0
  6
CONTINUOUS
 62
     2
 10
635.710917018
 20
238.075468274
 42
0.021820078
  0
VERTEX
  8
0
  6
CONTINUOUS
 62
     2
 10
635.873090333
 20
238.096818796
 42
0.021820078
  0
VERTEX
  8
0
  6
CONTINUOUS
 62
     2
 10
636.03278571
 20
238.132222409
 42
0.021820078
  0
VERTEX
  8
0
  6
CONTINUOUS
 62
     2
 10
636.188787769
 20
238.181409669
 42
0.021820078
  0
VERTEX
  8
0
  6
CONTINUOUS
 62
     2
 10
636.339909241
 20
238.244006233
 42
0.021820078
  0
VERTEX
  8
0
  6
CONTINUOUS
 62
     2
 10
636.485
 20
238.319535701
 42
0.021820078
  0
VERTEX
  8
0
  6
CONTINUOUS
 62
     2
 10
636.622955818
 20
238.40742325
 42
0.021820078
  0
VERTEX
  8
0
  6
CONTINUOUS
 62
     2
 10
636.752726768
 20
238.507000002
 42
0.021820078
  0
VERTEX
  8
0
  6
CONTINUOUS
 62
     2
 10
636.873325215
 20
238.617508119
 42
0.021820078
  0
VERTEX
  8
0
  6
CONTINUOUS
 62
     2
 10
636.983833331
 20
238.738106565
 42
0.021820078
  0
VERTEX
  8
0
  6
CONTINUOUS
 62
     2
 10
637.083410083
 20
238.867877515
 42
0.021820078
  0
VERTEX
  8
0
  6
CONTINUOUS
 62
     2
 10
637.171297632
 20
239.005833333
 42
0.021820078
  0
VERTEX
  8
0
  6
CONTINUOUS
 62
     2
 10
637.246827101
 20
239.150924093
 42
0.021820078
  0
VERTEX
  8
0
  6
CONTINUOUS
 62
     2
 10
637.309423664
 20
239.302045565
 42
0.021820078
  0
VERTEX
  8
0
  6
CONTINUOUS
 62
     2
 10
637.358610924
 20
239.458047624
 42
0.021820078
  0
VERTEX
  8
0
  6
CONTINUOUS
 62
     2
 10
637.394014537
 20
239.617743
 42
0.021820078
  0
VERTEX
  8
0
  6
CONTINUOUS
 62
     2
 10
637.415365059
 20
239.779916316
 42
0.021820078
  0
SEQEND
  8
0
  6
CONTINUOUS
 62
     2
  0
TEXT
  8
0
  6
CONTINUOUS
 62
     2
 10
589.1725
 20
239.901666667
 30
0.0
 40
8.333333333
  1
（ＮＯ）
 50
0.0
 41
0.75
 51
0.0
  7
KANJI43
  0
TEXT
  8
0
  6
CONTINUOUS
 62
     2
 10
644.1725
 20
239.901666667
 30
0.0
 40
8.333333333
  1
（ＮＯ）
 50
0.0
 41
0.75
 51
0.0
  7
KANJI43
  0
LINE
  8
0
  6
CONTINUOUS
 62
     2
 10
693.86
 20
157.401666667
 11
693.86
 21
298.86
  0
LINE
  8
0
  6
CONTINUOUS
 62
     2
 10
693.86
 20
298.86
 11
566.151666667
 21
298.86
  0
LINE
  8
0
  6
CONTINUOUS
 62
     2
 10
566.151666667
 20
298.86
 11
566.151666667
 21
157.401666667
  0
LINE
  8
0
  6
CONTINUOUS
 62
     1
 10
641.776666667
 20
204.901666667
 11
641.776666667
 21
212.818333333
  0
LINE
  8
0
  6
CONTINUOUS
 62
     1
 10
641.776666667
 20
212.818333333
 11
616.776666667
 21
212.818333333
  0
LINE
  8
0
  6
CONTINUOUS
 62
     1
 10
616.776666667
 20
212.818333333
 11
616.776666667
 21
204.901666667
  0
LINE
  8
0
  6
CONTINUOUS
 62
     1
 10
616.776666667
 20
204.901666667
 11
641.776666667
 21
204.901666667
  0
POLYLINE
  8
0
  6
CONTINUOUS
 62
     2
 66
     1
 70
     1
  0
VERTEX
  8
0
  6
CONTINUOUS
 62
     2
 10
624.9225
 20
202.985
 42
-0.021820078
  0
VERTEX
  8
0
  6
CONTINUOUS
 62
     2
 10
624.915365059
 20
202.821582982
 42
-0.021820078
  0
VERTEX
  8
0
  6
CONTINUOUS
 62
     2
 10
624.894014537
 20
202.659409667
 42
-0.021820078
  0
VERTEX
  8
0
  6
CONTINUOUS
 62
     2
 10
624.858610924
 20
202.49971429
 42
-0.021820078
  0
VERTEX
  8
0
  6
CONTINUOUS
 62
     2
 10
624.809423664
 20
202.343712231
 42
-0.021820078
  0
VERTEX
  8
0
  6
CONTINUOUS
 62
     2
 10
624.746827101
 20
202.192590759
 42
-0.021820078
  0
VERTEX
  8
0
  6
CONTINUOUS
 62
     2
 10
624.671297632
 20
202.0475
 42
-0.021820078
  0
VERTEX
  8
0
  6
CONTINUOUS
 62
     2
 10
624.583410083
 20
201.909544182
 42
-0.021820078
  0
VERTEX
  8
0
  6
CONTINUOUS
 62
     2
 10
624.483833331
 20
201.779773232
 42
-0.021820078
  0
VERTEX
  8
0
  6
CONTINUOUS
 62
     2
 10
624.373325215
 20
201.659174785
 42
-0.021820078
  0
VERTEX
  8
0
  6
CONTINUOUS
 62
     2
 10
624.252726768
 20
201.548666669
 42
-0.021820078
  0
VERTEX
  8
0
  6
CONTINUOUS
 62
     2
 10
624.122955818
 20
201.449089917
 42
-0.021820078
  0
VERTEX
  8
0
  6
CONTINUOUS
 62
     2
 10
623.985
 20
201.361202368
 42
-0.021820078
  0
VERTEX
  8
0
  6
CONTINUOUS
 62
     2
 10
623.839909241
 20
201.285672899
 42
-0.021820078
  0
VERTEX
  8
0
  6
CONTINUOUS
 62
     2
 10
623.688787769
 20
201.223076336
 42
-0.021820078
  0
VERTEX
  8
0
  6
CONTINUOUS
 62
     2
 10
623.53278571
 20
201.173889076
 42
-0.021820078
  0
VERTEX
  8
0
  6
CONTINUOUS
 62
     2
 10
623.373090333
 20
201.138485463
 42
-0.021820078
  0
VERTEX
  8
0
  6
CONTINUOUS
 62
     2
 10
623.210917018
 20
201.117134941
 42
-0.021820078
  0
VERTEX
  8
0
  6
CONTINUOUS
 62
     2
 10
623.0475
 20
201.11
 42
-0.021820078
  0
VERTEX
  8
0
  6
CONTINUOUS
 62
     2
 10
622.884082982
 20
201.117134941
 42
-0.021820078
  0
VERTEX
  8
0
  6
CONTINUOUS
 62
     2
 10
622.721909667
 20
201.138485463
 42
-0.021820078
  0
VERTEX
  8
0
  6
CONTINUOUS
 62
     2
 10
622.56221429
 20
201.173889076
 42
-0.021820078
  0
VERTEX
  8
0
  6
CONTINUOUS
 62
     2
 10
622.406212231
 20
201.223076336
 42
-0.021820078
  0
VERTEX
  8
0
  6
CONTINUOUS
 62
     2
 10
622.255090759
 20
201.285672899
 42
-0.021820078
  0
VERTEX
  8
0
  6
CONTINUOUS
 62
     2
 10
622.11
 20
201.361202368
 42
-0.021820078
  0
VERTEX
  8
0
  6
CONTINUOUS
 62
     2
 10
621.972044182
 20
201.449089917
 42
-0.021820078
  0
VERTEX
  8
0
  6
CONTINUOUS
 62
     2
 10
621.842273232
 20
201.548666669
 42
-0.021820078
  0
VERTEX
  8
0
  6
CONTINUOUS
 62
     2
 10
621.721674785
 20
201.659174785
 42
-0.021820078
  0
VERTEX
  8
0
  6
CONTINUOUS
 62
     2
 10
621.611166669
 20
201.779773232
 42
-0.021820078
  0
VERTEX
  8
0
  6
CONTINUOUS
 62
     2
 10
621.511589917
 20
201.909544182
 42
-0.021820078
  0
VERTEX
  8
0
  6
CONTINUOUS
 62
     2
 10
621.423702368
 20
202.0475
 42
-0.021820078
  0
VERTEX
  8
0
  6
CONTINUOUS
 62
     2
 10
621.348172899
 20
202.192590759
 42
-0.021820078
  0
VERTEX
  8
0
  6
CONTINUOUS
 62
     2
 10
621.285576336
 20
202.343712231
 42
-0.021820078
  0
VERTEX
  8
0
  6
CONTINUOUS
 62
     2
 10
621.236389076
 20
202.49971429
 42
-0.021820078
  0
VERTEX
  8
0
  6
CONTINUOUS
 62
     2
 10
621.200985463
 20
202.659409667
 42
-0.021820078
  0
VERTEX
  8
0
  6
CONTINUOUS
 62
     2
 10
621.179634941
 20
202.821582982
 42
-0.021820078
  0
VERTEX
  8
0
  6
CONTINUOUS
 62
     2
 10
621.1725
 20
202.985
 42
-0.021820078
  0
VERTEX
  8
0
  6
CONTINUOUS
 62
     2
 10
621.179634941
 20
203.148417018
 42
-0.021820078
  0
VERTEX
  8
0
  6
CONTINUOUS
 62
     2
 10
621.200985463
 20
203.310590333
 42
-0.021820078
  0
VERTEX
  8
0
  6
CONTINUOUS
 62
     2
 10
621.236389076
 20
203.47028571
 42
-0.021820078
  0
VERTEX
  8
0
  6
CONTINUOUS
 62
     2
 10
621.285576336
 20
203.626287769
 42
-0.021820078
  0
VERTEX
  8
0
  6
CONTINUOUS
 62
     2
 10
621.348172899
 20
203.777409241
 42
-0.021820078
  0
VERTEX
  8
0
  6
CONTINUOUS
 62
     2
 10
621.423702368
 20
203.9225
 42
-0.021820078
  0
VERTEX
  8
0
  6
CONTINUOUS
 62
     2
 10
621.511589917
 20
204.060455818
 42
-0.021820078
  0
VERTEX
  8
0
  6
CONTINUOUS
 62
     2
 10
621.611166669
 20
204.190226768
 42
-0.021820078
  0
VERTEX
  8
0
  6
CONTINUOUS
 62
     2
 10
621.721674785
 20
204.310825215
 42
-0.021820078
  0
VERTEX
  8
0
  6
CONTINUOUS
 62
     2
 10
621.842273232
 20
204.421333331
 42
-0.021820078
  0
VERTEX
  8
0
  6
CONTINUOUS
 62
     2
 10
621.972044182
 20
204.520910083
 42
-0.021820078
  0
VERTEX
  8
0
  6
CONTINUOUS
 62
     2
 10
622.11
 20
204.608797632
 42
-0.021820078
  0
VERTEX
  8
0
  6
CONTINUOUS
 62
     2
 10
622.255090759
 20
204.684327101
 42
-0.021820078
  0
VERTEX
  8
0
  6
CONTINUOUS
 62
     2
 10
622.406212231
 20
204.746923664
 42
-0.021820078
  0
VERTEX
  8
0
  6
CONTINUOUS
 62
     2
 10
622.56221429
 20
204.796110924
 42
-0.021820078
  0
VERTEX
  8
0
  6
CONTINUOUS
 62
     2
 10
622.721909667
 20
204.831514537
 42
-0.021820078
  0
VERTEX
  8
0
  6
CONTINUOUS
 62
     2
 10
622.884082982
 20
204.852865059
 42
-0.021820078
  0
VERTEX
  8
0
  6
CONTINUOUS
 62
     2
 10
623.0475
 20
204.86
 42
-0.021820078
  0
VERTEX
  8
0
  6
CONTINUOUS
 62
     2
 10
623.210917018
 20
204.852865059
 42
-0.021820078
  0
VERTEX
  8
0
  6
CONTINUOUS
 62
     2
 10
623.373090333
 20
204.831514537
 42
-0.021820078
  0
VERTEX
  8
0
  6
CONTINUOUS
 62
     2
 10
623.53278571
 20
204.796110924
 42
-0.021820078
  0
VERTEX
  8
0
  6
CONTINUOUS
 62
     2
 10
623.688787769
 20
204.746923664
 42
-0.021820078
  0
VERTEX
  8
0
  6
CONTINUOUS
 62
     2
 10
623.839909241
 20
204.684327101
 42
-0.021820078
  0
VERTEX
  8
0
  6
CONTINUOUS
 62
     2
 10
623.985
 20
204.608797632
 42
-0.021820078
  0
VERTEX
  8
0
  6
CONTINUOUS
 62
     2
 10
624.122955818
 20
204.520910083
 42
-0.021820078
  0
VERTEX
  8
0
  6
CONTINUOUS
 62
     2
 10
624.252726768
 20
204.421333331
 42
-0.021820078
  0
VERTEX
  8
0
  6
CONTINUOUS
 62
     2
 10
624.373325215
 20
204.310825215
 42
-0.021820078
  0
VERTEX
  8
0
  6
CONTINUOUS
 62
     2
 10
624.483833331
 20
204.190226768
 42
-0.021820078
  0
VERTEX
  8
0
  6
CONTINUOUS
 62
     2
 10
624.583410083
 20
204.060455818
 42
-0.021820078
  0
VERTEX
  8
0
  6
CONTINUOUS
 62
     2
 10
624.671297632
 20
203.9225
 42
-0.021820078
  0
VERTEX
  8
0
  6
CONTINUOUS
 62
     2
 10
624.746827101
 20
203.777409241
 42
-0.021820078
  0
VERTEX
  8
0
  6
CONTINUOUS
 62
     2
 10
624.809423664
 20
203.626287769
 42
-0.021820078
  0
VERTEX
  8
0
  6
CONTINUOUS
 62
     2
 10
624.858610924
 20
203.47028571
 42
-0.021820078
  0
VERTEX
  8
0
  6
CONTINUOUS
 62
     2
 10
624.894014537
 20
203.310590333
 42
-0.021820078
  0
VERTEX
  8
0
  6
CONTINUOUS
 62
     2
 10
624.915365059
 20
203.148417018
 42
-0.021820078
  0
SEQEND
  8
0
  6
CONTINUOUS
 62
     2
  0
POLYLINE
  8
0
  6
CONTINUOUS
 62
     2
 66
     1
 70
     1
  0
VERTEX
  8
0
  6
CONTINUOUS
 62
     2
 10
637.4225
 20
202.985
 42
-0.021820078
  0
VERTEX
  8
0
  6
CONTINUOUS
 62
     2
 10
637.415365059
 20
202.821582982
 42
-0.021820078
  0
VERTEX
  8
0
  6
CONTINUOUS
 62
     2
 10
637.394014537
 20
202.659409667
 42
-0.021820078
  0
VERTEX
  8
0
  6
CONTINUOUS
 62
     2
 10
637.358610924
 20
202.49971429
 42
-0.021820078
  0
VERTEX
  8
0
  6
CONTINUOUS
 62
     2
 10
637.309423664
 20
202.343712231
 42
-0.021820078
  0
VERTEX
  8
0
  6
CONTINUOUS
 62
     2
 10
637.246827101
 20
202.192590759
 42
-0.021820078
  0
VERTEX
  8
0
  6
CONTINUOUS
 62
     2
 10
637.171297632
 20
202.0475
 42
-0.021820078
  0
VERTEX
  8
0
  6
CONTINUOUS
 62
     2
 10
637.083410083
 20
201.909544182
 42
-0.021820078
  0
VERTEX
  8
0
  6
CONTINUOUS
 62
     2
 10
636.983833331
 20
201.779773232
 42
-0.021820078
  0
VERTEX
  8
0
  6
CONTINUOUS
 62
     2
 10
636.873325215
 20
201.659174785
 42
-0.021820078
  0
VERTEX
  8
0
  6
CONTINUOUS
 62
     2
 10
636.752726768
 20
201.548666669
 42
-0.021820078
  0
VERTEX
  8
0
  6
CONTINUOUS
 62
     2
 10
636.622955818
 20
201.449089917
 42
-0.021820078
  0
VERTEX
  8
0
  6
CONTINUOUS
 62
     2
 10
636.485
 20
201.361202368
 42
-0.021820078
  0
VERTEX
  8
0
  6
CONTINUOUS
 62
     2
 10
636.339909241
 20
201.285672899
 42
-0.021820078
  0
VERTEX
  8
0
  6
CONTINUOUS
 62
     2
 10
636.188787769
 20
201.223076336
 42
-0.021820078
  0
VERTEX
  8
0
  6
CONTINUOUS
 62
     2
 10
636.03278571
 20
201.173889076
 42
-0.021820078
  0
VERTEX
  8
0
  6
CONTINUOUS
 62
     2
 10
635.873090333
 20
201.138485463
 42
-0.021820078
  0
VERTEX
  8
0
  6
CONTINUOUS
 62
     2
 10
635.710917018
 20
201.117134941
 42
-0.021820078
  0
VERTEX
  8
0
  6
CONTINUOUS
 62
     2
 10
635.5475
 20
201.11
 42
-0.021820078
  0
VERTEX
  8
0
  6
CONTINUOUS
 62
     2
 10
635.384082982
 20
201.117134941
 42
-0.021820078
  0
VERTEX
  8
0
  6
CONTINUOUS
 62
     2
 10
635.221909667
 20
201.138485463
 42
-0.021820078
  0
VERTEX
  8
0
  6
CONTINUOUS
 62
     2
 10
635.06221429
 20
201.173889076
 42
-0.021820078
  0
VERTEX
  8
0
  6
CONTINUOUS
 62
     2
 10
634.906212231
 20
201.223076336
 42
-0.021820078
  0
VERTEX
  8
0
  6
CONTINUOUS
 62
     2
 10
634.755090759
 20
201.285672899
 42
-0.021820078
  0
VERTEX
  8
0
  6
CONTINUOUS
 62
     2
 10
634.61
 20
201.361202368
 42
-0.021820078
  0
VERTEX
  8
0
  6
CONTINUOUS
 62
     2
 10
634.472044182
 20
201.449089917
 42
-0.021820078
  0
VERTEX
  8
0
  6
CONTINUOUS
 62
     2
 10
634.342273232
 20
201.548666669
 42
-0.021820078
  0
VERTEX
  8
0
  6
CONTINUOUS
 62
     2
 10
634.221674785
 20
201.659174785
 42
-0.021820078
  0
VERTEX
  8
0
  6
CONTINUOUS
 62
     2
 10
634.111166669
 20
201.779773232
 42
-0.021820078
  0
VERTEX
  8
0
  6
CONTINUOUS
 62
     2
 10
634.011589917
 20
201.909544182
 42
-0.021820078
  0
VERTEX
  8
0
  6
CONTINUOUS
 62
     2
 10
633.923702368
 20
202.0475
 42
-0.021820078
  0
VERTEX
  8
0
  6
CONTINUOUS
 62
     2
 10
633.848172899
 20
202.192590759
 42
-0.021820078
  0
VERTEX
  8
0
  6
CONTINUOUS
 62
     2
 10
633.785576336
 20
202.343712231
 42
-0.021820078
  0
VERTEX
  8
0
  6
CONTINUOUS
 62
     2
 10
633.736389076
 20
202.49971429
 42
-0.021820078
  0
VERTEX
  8
0
  6
CONTINUOUS
 62
     2
 10
633.700985463
 20
202.659409667
 42
-0.021820078
  0
VERTEX
  8
0
  6
CONTINUOUS
 62
     2
 10
633.679634941
 20
202.821582982
 42
-0.021820078
  0
VERTEX
  8
0
  6
CONTINUOUS
 62
     2
 10
633.6725
 20
202.985
 42
-0.021820078
  0
VERTEX
  8
0
  6
CONTINUOUS
 62
     2
 10
633.679634941
 20
203.148417018
 42
-0.021820078
  0
VERTEX
  8
0
  6
CONTINUOUS
 62
     2
 10
633.700985463
 20
203.310590333
 42
-0.021820078
  0
VERTEX
  8
0
  6
CONTINUOUS
 62
     2
 10
633.736389076
 20
203.47028571
 42
-0.021820078
  0
VERTEX
  8
0
  6
CONTINUOUS
 62
     2
 10
633.785576336
 20
203.626287769
 42
-0.021820078
  0
VERTEX
  8
0
  6
CONTINUOUS
 62
     2
 10
633.848172899
 20
203.777409241
 42
-0.021820078
  0
VERTEX
  8
0
  6
CONTINUOUS
 62
     2
 10
633.923702368
 20
203.9225
 42
-0.021820078
  0
VERTEX
  8
0
  6
CONTINUOUS
 62
     2
 10
634.011589917
 20
204.060455818
 42
-0.021820078
  0
VERTEX
  8
0
  6
CONTINUOUS
 62
     2
 10
634.111166669
 20
204.190226768
 42
-0.021820078
  0
VERTEX
  8
0
  6
CONTINUOUS
 62
     2
 10
634.221674785
 20
204.310825215
 42
-0.021820078
  0
VERTEX
  8
0
  6
CONTINUOUS
 62
     2
 10
634.342273232
 20
204.421333331
 42
-0.021820078
  0
VERTEX
  8
0
  6
CONTINUOUS
 62
     2
 10
634.472044182
 20
204.520910083
 42
-0.021820078
  0
VERTEX
  8
0
  6
CONTINUOUS
 62
     2
 10
634.61
 20
204.608797632
 42
-0.021820078
  0
VERTEX
  8
0
  6
CONTINUOUS
 62
     2
 10
634.755090759
 20
204.684327101
 42
-0.021820078
  0
VERTEX
  8
0
  6
CONTINUOUS
 62
     2
 10
634.906212231
 20
204.746923664
 42
-0.021820078
  0
VERTEX
  8
0
  6
CONTINUOUS
 62
     2
 10
635.06221429
 20
204.796110924
 42
-0.021820078
  0
VERTEX
  8
0
  6
CONTINUOUS
 62
     2
 10
635.221909667
 20
204.831514537
 42
-0.021820078
  0
VERTEX
  8
0
  6
CONTINUOUS
 62
     2
 10
635.384082982
 20
204.852865059
 42
-0.021820078
  0
VERTEX
  8
0
  6
CONTINUOUS
 62
     2
 10
635.5475
 20
204.86
 42
-0.021820078
  0
VERTEX
  8
0
  6
CONTINUOUS
 62
     2
 10
635.710917018
 20
204.852865059
 42
-0.021820078
  0
VERTEX
  8
0
  6
CONTINUOUS
 62
     2
 10
635.873090333
 20
204.831514537
 42
-0.021820078
  0
VERTEX
  8
0
  6
CONTINUOUS
 62
     2
 10
636.03278571
 20
204.796110924
 42
-0.021820078
  0
VERTEX
  8
0
  6
CONTINUOUS
 62
     2
 10
636.188787769
 20
204.746923664
 42
-0.021820078
  0
VERTEX
  8
0
  6
CONTINUOUS
 62
     2
 10
636.339909241
 20
204.684327101
 42
-0.021820078
  0
VERTEX
  8
0
  6
CONTINUOUS
 62
     2
 10
636.485
 20
204.608797632
 42
-0.021820078
  0
VERTEX
  8
0
  6
CONTINUOUS
 62
     2
 10
636.622955818
 20
204.520910083
 42
-0.021820078
  0
VERTEX
  8
0
  6
CONTINUOUS
 62
     2
 10
636.752726768
 20
204.421333331
 42
-0.021820078
  0
VERTEX
  8
0
  6
CONTINUOUS
 62
     2
 10
636.873325215
 20
204.310825215
 42
-0.021820078
  0
VERTEX
  8
0
  6
CONTINUOUS
 62
     2
 10
636.983833331
 20
204.190226768
 42
-0.021820078
  0
VERTEX
  8
0
  6
CONTINUOUS
 62
     2
 10
637.083410083
 20
204.060455818
 42
-0.021820078
  0
VERTEX
  8
0
  6
CONTINUOUS
 62
     2
 10
637.171297632
 20
203.9225
 42
-0.021820078
  0
VERTEX
  8
0
  6
CONTINUOUS
 62
     2
 10
637.246827101
 20
203.777409241
 42
-0.021820078
  0
VERTEX
  8
0
  6
CONTINUOUS
 62
     2
 10
637.309423664
 20
203.626287769
 42
-0.021820078
  0
VERTEX
  8
0
  6
CONTINUOUS
 62
     2
 10
637.358610924
 20
203.47028571
 42
-0.021820078
  0
VERTEX
  8
0
  6
CONTINUOUS
 62
     2
 10
637.394014537
 20
203.310590333
 42
-0.021820078
  0
VERTEX
  8
0
  6
CONTINUOUS
 62
     2
 10
637.415365059
 20
203.148417018
 42
-0.021820078
  0
SEQEND
  8
0
  6
CONTINUOUS
 62
     2
  0
TEXT
  8
0
  6
CONTINUOUS
 62
     2
 10
615.755833333
 20
194.318333333
 30
0.0
 40
8.333333333
  1
１
 50
0.0
 41
0.85
 51
0.0
  7
KANJI42
  0
TEXT
  8
0
  6
CONTINUOUS
 62
     2
 10
636.589166667
 20
194.318333333
 30
0.0
 40
8.333333333
  1
２
 50
0.0
 41
0.85
 51
0.0
  7
KANJI42
  0
TEXT
  8
0
  6
CONTINUOUS
 62
     2
 10
589.1725
 20
191.985
 30
0.0
 40
8.333333333
  1
（ＮＣ）
 50
0.0
 41
0.75
 51
0.0
  7
KANJI43
  0
TEXT
  8
0
  6
CONTINUOUS
 62
     2
 10
644.1725
 20
191.985
 30
0.0
 40
8.333333333
  1
（ＮＣ）
 50
0.0
 41
0.75
 51
0.0
  7
KANJI43
  0
LINE
  8
0
  6
CONTINUOUS
 62
     1
 10
614.1725
 20
192.235
 11
644.1725
 21
192.235
  0
ARC
  8
0
  6
CONTINUOUS
 62
     1
 10
614.1725
 20
193.901666667
 40
1.666666667
 50
180.0
 51
270.0
  0
ARC
  8
0
  6
CONTINUOUS
 62
     1
 10
644.1725
 20
193.901666667
 40
1.666666667
 50
270.0
 51
0.0
  0
TEXT
  8
0
  6
CONTINUOUS
 62
     2
 10
575.735
 20
167.818333333
 30
0.0
 40
12.5
  1
外部ＬＳリミットＳＷ
 50
0.0
 41
0.9
 51
0.0
  7
KANJI44
  0
TEXT
  8
0
  6
CONTINUOUS
 62
     2
 10
606.776666667
 20
151.985
 30
0.0
 40
12.5
  1
端子符号
 50
0.0
 41
0.9
 51
0.0
  7
KANJI44
  0
LINE
  8
0
  6
CONTINUOUS
 62
     2
 10
656.36
 20
157.401666667
 11
693.86
 21
157.401666667
  0
LINE
  8
0
  6
CONTINUOUS
 62
     2
 10
566.151666667
 20
157.401666667
 11
598.651666667
 21
157.401666667
  0
LINE
  8
0
  6
CONTINUOUS
 62
     1
 10
1031.8
 20
586.2
 11
1033.8
 21
585.9
  0
LINE
  8
0
  6
CONTINUOUS
 62
     1
 10
1034.3
 20
590.6
 11
1034.064615385
 21
589.030769231
  0
LINE
  8
0
  6
CONTINUOUS
 62
     1
 10
1034.064615385
 20
589.030769231
 11
1031.8
 21
586.2
  0
LINE
  8
0
  6
CONTINUOUS
 62
     1
 10
1036.0
 20
588.6
 11
1033.8
 21
585.9
  0
LINE
  8
0
  6
CONTINUOUS
 62
     1
 10
1040.2
 20
586.2
 11
1038.2
 21
585.9
  0
LINE
  8
0
  6
CONTINUOUS
 62
     1
 10
1037.7
 20
590.6
 11
1037.935384615
 21
589.030769231
  0
LINE
  8
0
  6
CONTINUOUS
 62
     1
 10
1037.935384615
 20
589.030769231
 11
1040.2
 21
586.2
  0
LINE
  8
0
  6
CONTINUOUS
 62
     1
 10
1036.0
 20
588.6
 11
1038.2
 21
585.9
  0
CIRCLE
  8
0
  6
CONTINUOUS
 62
     1
 10
1035.999984741
 20
609.5
 40
3.0
  0
LINE
  8
0
  6
CONTINUOUS
 62
     1
 10
826.0
 20
579.0
 11
826.0
 21
634.75
  0
LINE
  8
0
  6
CONTINUOUS
 62
     1
 10
818.0
 20
579.0
 11
818.0
 21
634.75
  0
LINE
  8
0
  6
LTYPE3
 62
     2
 10
822.0
 20
548.75
 11
822.0
 21
642.75
  0
ARC
  8
0
  6
CONTINUOUS
 62
     1
 10
822.0
 20
634.75
 40
4.0
 50
0.0
 51
180.0
  0
LINE
  8
0
  6
CONTINUOUS
 62
     1
 10
886.0
 20
579.0
 11
886.0
 21
634.75
  0
LINE
  8
0
  6
CONTINUOUS
 62
     1
 10
878.0
 20
579.0
 11
878.0
 21
634.75
  0
ARC
  8
0
  6
CONTINUOUS
 62
     1
 10
882.0
 20
634.75
 40
4.0
 50
0.0
 51
180.0
  0
LINE
  8
0
  6
LTYPE3
 62
     2
 10
882.0
 20
548.75
 11
882.0
 21
642.75
  0
LINE
  8
0
  6
CONTINUOUS
 62
     1
 10
875.0
 20
579.0
 11
889.0
 21
579.0
  0
LINE
  8
0
  6
CONTINUOUS
 62
     1
 10
875.0
 20
510.0
 11
875.0
 21
579.0
  0
LINE
  8
0
  6
CONTINUOUS
 62
     1
 10
889.0
 20
510.0
 11
889.0
 21
579.0
  0
LINE
  8
0
  6
CONTINUOUS
 62
     1
 10
875.0
 20
559.0
 11
889.0
 21
559.0
  0
LINE
  8
0
  6
CONTINUOUS
 62
     1
 10
815.0
 20
510.0
 11
815.0
 21
579.0
  0
LINE
  8
0
  6
CONTINUOUS
 62
     1
 10
815.0
 20
579.0
 11
829.0
 21
579.0
  0
LINE
  8
0
  6
CONTINUOUS
 62
     1
 10
829.0
 20
510.0
 11
829.0
 21
579.0
  0
LINE
  8
0
  6
CONTINUOUS
 62
     1
 10
815.0
 20
559.0
 11
829.0
 21
559.0
  0
LINE
  8
0
  6
CONTINUOUS
 62
     1
 10
787.0
 20
510.0
 11
917.0
 21
510.0
  0
LINE
  8
0
  6
CONTINUOUS
 62
     1
 10
924.7
 20
503.0
 11
924.7
 21
477.6
  0
LINE
  8
0
  6
CONTINUOUS
 62
     1
 10
899.3
 20
503.0
 11
924.7
 21
503.0
  0
LINE
  8
0
  6
CONTINUOUS
 62
     1
 10
787.0
 20
504.0
 11
787.0
 21
510.0
  0
LINE
  8
0
  6
CONTINUOUS
 62
     1
 10
787.0
 20
504.0
 11
917.0
 21
504.0
  0
LINE
  8
0
  6
CONTINUOUS
 62
     1
 10
917.0
 20
504.0
 11
917.0
 21
510.0
  0
LINE
  8
0
  6
CONTINUOUS
 62
     1
 10
899.3
 20
477.6
 11
924.7
 21
477.6
  0
LINE
  8
0
  6
CONTINUOUS
 62
     1
 10
830.6
 20
504.0
 11
830.6
 21
464.0
  0
LINE
  8
0
  6
CONTINUOUS
 62
     1
 10
899.3
 20
504.0
 11
899.3
 21
464.0
  0
LINE
  8
0
  6
CONTINUOUS
 62
     1
 10
779.3
 20
503.0
 11
779.3
 21
477.6
  0
LINE
  8
0
  6
CONTINUOUS
 62
     1
 10
804.7
 20
503.0
 11
779.3
 21
503.0
  0
LINE
  8
0
  6
CONTINUOUS
 62
     1
 10
804.7
 20
477.6
 11
779.3
 21
477.6
  0
LINE
  8
0
  6
CONTINUOUS
 62
     1
 10
804.7
 20
504.0
 11
804.7
 21
464.0
  0
LINE
  8
0
  6
LTYPE6
 62
     2
 10
840.1
 20
482.7
 11
823.1
 21
482.7
  0
LINE
  8
0
  6
LTYPE2
 62
     2
 10
852.0
 20
190.5
 11
852.0
 21
488.5
  0
LINE
  8
0
  6
LTYPE1
 62
     2
 10
541.35
 20
495.5
 11
779.3
 21
495.5
  0
LINE
  8
0
  6
LTYPE1
 62
     2
 10
541.35
 20
483.5
 11
779.3
 21
483.5
  0
LINE
  8
0
  6
CONTINUOUS
 62
     1
 10
836.0
 20
449.0
 11
836.0
 21
464.0
  0
LINE
  8
0
  6
CONTINUOUS
 62
     1
 10
836.0
 20
449.0
 11
868.0
 21
449.0
  0
LINE
  8
0
  6
CONTINUOUS
 62
     1
 10
830.6
 20
470.0
 11
899.3
 21
470.0
  0
LINE
  8
0
  6
CONTINUOUS
 62
     1
 10
830.6
 20
464.0
 11
899.3
 21
464.0
  0
LINE
  8
0
  6
CONTINUOUS
 62
     1
 10
804.7
 20
470.0
 11
830.6
 21
470.0
  0
LINE
  8
0
  6
CONTINUOUS
 62
     1
 10
804.7
 20
464.0
 11
830.6
 21
464.0
  0
LINE
  8
0
  6
CONTINUOUS
 62
     1
 10
868.0
 20
449.0
 11
868.0
 21
464.0
  0
LINE
  8
0
  6
CONTINUOUS
 62
     1
 10
1001.0
 20
450.75
 11
1004.0
 21
450.75
  0
LINE
  8
0
  6
CONTINUOUS
 62
     1
 10
985.0
 20
448.5
 11
985.0
 21
624.5
  0
LINE
  8
0
  6
CONTINUOUS
 62
     1
 10
1001.0
 20
448.5
 11
1001.0
 21
624.5
  0
LINE
  8
0
  6
CONTINUOUS
 62
     1
 10
985.0
 20
448.5
 11
1001.0
 21
448.5
  0
LINE
  8
0
  6
CONTINUOUS
 62
     1
 10
1001.0
 20
472.25
 11
1004.0
 21
472.25
  0
LINE
  8
0
  6
CONTINUOUS
 62
     1
 10
1001.0
 20
461.5
 11
1004.000254073
 21
464.500254073
  0
LINE
  8
0
  6
CONTINUOUS
 62
     1
 10
1004.000254073
 20
461.5
 11
1001.0
 21
458.499745927
  0
LINE
  8
0
  6
CONTINUOUS
 62
     1
 10
1004.0
 20
461.5
 11
1004.0
 21
450.55046
  0
LINE
  8
0
  6
CONTINUOUS
 62
     1
 10
1012.0211
 20
461.5
 11
1012.0211
 21
453.23198
  0
ARC
  8
0
  6
CONTINUOUS
 62
     1
 10
1001.566878307
 20
461.5
 40
10.454221693
 50
328.419912243
 51
31.580087757
  0
ARC
  8
0
  6
CONTINUOUS
 62
     1
 10
1008.827986394
 20
453.287845
 40
3.193602261
 50
357.010501597
 51
58.997686085
  0
LINE
  8
0
  6
CONTINUOUS
 62
     1
 10
1004.0
 20
456.02523
 11
1010.472923706
 21
456.02523
  0
LINE
  8
0
  6
CONTINUOUS
 62
     1
 10
1012.0211
 20
455.5
 11
1025.0
 21
455.5
  0
LINE
  8
0
  6
CONTINUOUS
 62
     1
 10
1025.0
 20
455.5
 11
1025.0
 21
467.5
  0
LINE
  8
0
  6
CONTINUOUS
 62
     1
 10
1004.0
 20
461.5
 11
1004.0
 21
472.44954
  0
LINE
  8
0
  6
CONTINUOUS
 62
     1
 10
1012.0211
 20
469.76802
 11
1010.472923706
 21
472.44954
  0
LINE
  8
0
  6
CONTINUOUS
 62
     1
 10
1012.0211
 20
461.5
 11
1012.0211
 21
469.76802
  0
ARC
  8
0
  6
CONTINUOUS
 62
     1
 10
1008.827986394
 20
469.712155
 40
3.193602261
 50
301.002313915
 51
2.989498403
  0
LINE
  8
0
  6
CONTINUOUS
 62
     1
 10
1004.0
 20
472.44954
 11
1010.472923706
 21
472.44954
  0
LINE
  8
0
  6
CONTINUOUS
 62
     1
 10
1004.0
 20
466.97477
 11
1010.472923706
 21
466.97477
  0
LINE
  8
0
  6
CONTINUOUS
 62
     1
 10
1012.0211
 20
467.5
 11
1025.0
 21
467.5
  0
LINE
  8
0
  6
CONTINUOUS
 62
     1
 10
1012.0211
 20
453.23198
 11
1010.472923706
 21
450.55046
  0
LINE
  8
0
  6
CONTINUOUS
 62
     1
 10
1012.0211
 20
453.23198
 11
1010.472923706
 21
450.55046
  0
LINE
  8
0
  6
CONTINUOUS
 62
     1
 10
1004.0
 20
450.55046
 11
1010.472923706
 21
450.55046
  0
LINE
  8
0
  6
LTYPE3
 62
     2
 10
706.35
 20
548.75
 11
706.35
 21
642.75
  0
LINE
  8
0
  6
LTYPE1
 62
     2
 10
710.35
 20
579.0
 11
710.35
 21
634.75
  0
ARC
  8
0
  6
LTYPE1
 62
     2
 10
706.35
 20
634.75
 40
4.0
 50
0.0
 51
180.0
  0
LINE
  8
0
  6
LTYPE1
 62
     2
 10
702.35
 20
579.0
 11
702.35
 21
634.75
  0
LINE
  8
0
  6
LTYPE1
 62
     2
 10
699.35
 20
510.0
 11
699.35
 21
579.0
  0
LINE
  8
0
  6
LTYPE1
 62
     2
 10
713.35
 20
503.5
 11
713.35
 21
579.0
  0
LINE
  8
0
  6
LTYPE1
 62
     2
 10
699.35
 20
579.0
 11
713.35
 21
579.0
  0
LINE
  8
0
  6
LTYPE1
 62
     2
 10
699.35
 20
559.0
 11
713.35
 21
559.0
  0
LINE
  8
0
  6
LTYPE1
 62
     2
 10
713.35
 20
503.5
 11
478.35
 21
503.5
  0
LINE
  8
0
  6
LTYPE1
 62
     2
 10
713.35
 20
509.5
 11
478.35
 21
509.5
  0
LINE
  8
0
  6
LTYPE1
 62
     2
 10
712.85
 20
503.5
 11
712.85
 21
498.9
  0
LINE
  8
0
  6
LTYPE1
 62
     2
 10
712.85
 20
503.5
 11
697.85
 21
503.5
  0
LINE
  8
0
  6
LTYPE1
 62
     2
 10
697.85
 20
503.5
 11
697.85
 21
498.9
  0
LINE
  8
0
  6
LTYPE1
 62
     2
 10
701.55
 20
503.5
 11
701.55
 21
498.9
  0
LINE
  8
0
  6
LTYPE1
 62
     2
 10
709.15
 20
503.5
 11
709.15
 21
498.9
  0
LINE
  8
0
  6
LTYPE1
 62
     2
 10
711.05
 20
498.2
 11
699.65
 21
498.2
  0
ARC
  8
0
  6
LTYPE1
 62
     2
 10
699.65
 20
501.0
 40
2.8
 50
228.5
 51
311.5
  0
ARC
  8
0
  6
LTYPE1
 62
     2
 10
705.35
 20
508.9
 40
10.7
 50
249.1
 51
290.9
  0
ARC
  8
0
  6
LTYPE1
 62
     2
 10
711.05
 20
501.0
 40
2.8
 50
228.5
 51
311.5
  0
LINE
  8
0
  6
LTYPE1
 62
     2
 10
705.35
 20
494.7
 11
705.35
 21
506.5
  0
LINE
  8
0
  6
LTYPE2
 62
     2
 10
705.35
 20
490.85
 11
705.35
 21
515.15
  0
LINE
  8
0
  6
LTYPE1
 62
     2
 10
468.85
 20
489.5
 11
468.85
 21
496.9
  0
LINE
  8
0
  6
LTYPE1
 62
     2
 10
475.85
 20
499.3
 11
470.235640646
 21
499.3
  0
LINE
  8
0
  6
LTYPE1
 62
     2
 10
468.85
 20
496.9
 11
470.235640646
 21
499.3
  0
LINE
  8
0
  6
LTYPE1
 62
     2
 10
468.85
 20
496.9
 11
470.235640646
 21
499.3
  0
ARC
  8
0
  6
LTYPE1
 62
     2
 10
471.707883832
 20
496.85
 40
2.858321186
 50
177.010501597
 51
238.997686085
  0
LINE
  8
0
  6
LTYPE1
 62
     2
 10
475.85
 20
489.5
 11
475.85
 21
499.3
  0
LINE
  8
0
  6
LTYPE1
 62
     2
 10
478.35
 20
498.7
 11
475.85
 21
498.7
  0
LINE
  8
0
  6
LTYPE1
 62
     2
 10
494.35
 20
499.9
 11
500.85
 21
499.9
  0
LINE
  8
0
  6
LTYPE1
 62
     2
 10
500.85
 20
494.7
 11
494.35
 21
494.7
  0
LINE
  8
0
  6
LTYPE1
 62
     2
 10
486.35
 20
499.5
 11
486.35
 21
515.5
  0
LINE
  8
0
  6
LTYPE1
 62
     2
 10
480.69122
 20
514.9999
 11
478.85594
 21
513.940300598
  0
LINE
  8
0
  6
LTYPE1
 62
     2
 10
486.35
 20
514.9999
 11
480.69122
 21
514.9999
  0
ARC
  8
0
  6
LTYPE1
 62
     2
 10
480.729455
 20
512.814476233
 40
2.185758211
 50
31.002313915
 51
92.989498403
  0
ARC
  8
0
  6
LTYPE1
 62
     2
 10
486.35
 20
507.844844663
 40
7.155055337
 50
58.419912243
 51
121.580087757
  0
LINE
  8
0
  6
LTYPE1
 62
     2
 10
478.85594
 20
509.5
 11
478.85594
 21
513.940300598
  0
LINE
  8
0
  6
LTYPE1
 62
     2
 10
482.60297
 20
509.5
 11
482.60297
 21
513.940300598
  0
LINE
  8
0
  6
LTYPE1
 62
     2
 10
492.00878
 20
514.9999
 11
493.84406
 21
513.940300598
  0
LINE
  8
0
  6
LTYPE1
 62
     2
 10
486.35
 20
514.9999
 11
492.00878
 21
514.9999
  0
LINE
  8
0
  6
LTYPE1
 62
     2
 10
492.00878
 20
514.9999
 11
493.84406
 21
513.940300598
  0
ARC
  8
0
  6
LTYPE1
 62
     2
 10
491.970545
 20
512.814476233
 40
2.185758211
 50
87.010501597
 51
148.997686085
  0
LINE
  8
0
  6
LTYPE1
 62
     2
 10
490.09703
 20
509.5
 11
490.09703
 21
513.940300598
  0
LINE
  8
0
  6
LTYPE1
 62
     2
 10
493.84406
 20
509.5
 11
493.84406
 21
513.940300598
  0
LINE
  8
0
  6
LTYPE1
 62
     2
 10
494.35
 20
476.5
 11
494.35
 21
503.5
  0
LINE
  8
0
  6
LTYPE1
 62
     2
 10
494.35
 20
499.9
 11
494.35
 21
479.1
  0
LINE
  8
0
  6
LTYPE1
 62
     2
 10
478.35
 20
476.5
 11
478.35
 21
509.5
  0
LINE
  8
0
  6
LTYPE1
 62
     2
 10
541.35
 20
448.5
 11
541.35
 21
501.5
  0
ARC
  8
0
  6
LTYPE1
 62
     2
 10
497.95
 20
497.3
 40
3.9
 50
317.9
 51
42.1
  0
LINE
  8
0
  6
LTYPE1
 62
     2
 10
541.35
 20
501.5
 11
509.35
 21
501.5
  0
LINE
  8
0
  6
LTYPE1
 62
     2
 10
509.35
 20
448.5
 11
509.35
 21
501.5
  0
LINE
  8
0
  6
CONTINUOUS
 62
     1
 10
527.85
 20
470.05
 11
527.85
 21
454.05
  0
LINE
  8
0
  6
CONTINUOUS
 62
     1
 10
527.85
 20
470.05
 11
541.35
 21
470.05
  0
LINE
  8
0
  6
LTYPE3
 62
     2
 10
497.35
 20
489.5
 11
508.85
 21
489.5
  0
LINE
  8
0
  6
LTYPE1
 62
     2
 10
475.85
 20
494.4
 11
470.235640646
 21
494.4
  0
LINE
  8
0
  6
LTYPE1
 62
     2
 10
464.35
 20
493.5
 11
468.85
 21
493.5
  0
LINE
  8
0
  6
LTYPE1
 62
     2
 10
501.85
 20
493.5
 11
509.35
 21
493.5
  0
LINE
  8
0
  6
LTYPE1
 62
     2
 10
509.35
 20
493.5
 11
514.35
 21
493.5
  0
LINE
  8
0
  6
LTYPE1
 62
     2
 10
541.35
 20
495.5
 11
509.35
 21
495.5
  0
LINE
  8
0
  6
LTYPE1
 62
     2
 10
501.85
 20
492.5
 11
509.35
 21
492.5
  0
LINE
  8
0
  6
LTYPE1
 62
     2
 10
509.35
 20
492.5
 11
514.35
 21
492.5
  0
LINE
  8
0
  6
LTYPE1
 62
     2
 10
464.35
 20
492.5
 11
468.85
 21
492.5
  0
LINE
  8
0
  6
LTYPE1
 62
     2
 10
475.850000004
 20
489.5
 11
478.35
 21
491.999999996
  0
LINE
  8
0
  6
LTYPE1
 62
     2
 10
494.35
 20
479.1
 11
500.85
 21
479.1
  0
ARC
  8
0
  6
LTYPE1
 62
     2
 10
497.95
 20
481.7
 40
3.9
 50
317.9
 51
42.1
  0
LINE
  8
0
  6
LTYPE1
 62
     2
 10
475.85
 20
479.7
 11
470.235640646
 21
479.7
  0
LINE
  8
0
  6
LTYPE1
 62
     2
 10
468.85
 20
482.1
 11
470.235640646
 21
479.7
  0
LINE
  8
0
  6
LTYPE1
 62
     2
 10
468.85
 20
489.5
 11
468.85
 21
482.1
  0
LINE
  8
0
  6
LTYPE1
 62
     2
 10
475.85
 20
484.6
 11
470.235640646
 21
484.6
  0
ARC
  8
0
  6
LTYPE1
 62
     2
 10
471.707883832
 20
482.15
 40
2.858321186
 50
121.002313915
 51
182.989498403
  0
LINE
  8
0
  6
LTYPE1
 62
     2
 10
464.35
 20
485.5
 11
468.85
 21
485.5
  0
LINE
  8
0
  6
LTYPE1
 62
     2
 10
464.35
 20
486.5
 11
468.85
 21
486.5
  0
LINE
  8
0
  6
LTYPE1
 62
     2
 10
475.85
 20
489.5
 11
475.85
 21
479.7
  0
LINE
  8
0
  6
LTYPE1
 62
     2
 10
494.35
 20
484.3
 11
500.85
 21
484.3
  0
LINE
  8
0
  6
LTYPE1
 62
     2
 10
501.85
 20
486.5
 11
509.35
 21
486.5
  0
LINE
  8
0
  6
LTYPE1
 62
     2
 10
501.85
 20
485.5
 11
509.35
 21
485.5
  0
LINE
  8
0
  6
LTYPE1
 62
     2
 10
509.35
 20
485.5
 11
514.35
 21
485.5
  0
LINE
  8
0
  6
LTYPE1
 62
     2
 10
509.35
 20
486.5
 11
514.35
 21
486.5
  0
LINE
  8
0
  6
LTYPE1
 62
     2
 10
509.35
 20
483.5
 11
541.35
 21
483.5
  0
ARC
  8
0
  6
LTYPE1
 62
     2
 10
478.2066828
 20
489.5
 40
9.3566828
 50
148.419912243
 51
211.580087757
  0
LINE
  8
0
  6
LTYPE1
 62
     2
 10
464.35
 20
485.5
 11
464.35
 21
493.5
  0
ARC
  8
0
  6
LTYPE1
 62
     2
 10
487.85
 20
489.5
 40
14.0
 50
338.2
 51
21.8
  0
LINE
  8
0
  6
LTYPE1
 62
     2
 10
501.85
 20
481.7
 11
501.85
 21
497.3
  0
LINE
  8
0
  6
LTYPE1
 62
     2
 10
514.35
 20
483.5
 11
514.35
 21
495.5
  0
LINE
  8
0
  6
LTYPE1
 62
     2
 10
478.35
 20
476.5
 11
494.35
 21
476.5
  0
LINE
  8
0
  6
LTYPE1
 62
     2
 10
478.35
 20
489.5
 11
475.850000004
 21
487.000000004
  0
LINE
  8
0
  6
LTYPE1
 62
     2
 10
478.35
 20
480.3
 11
475.85
 21
480.3
  0
LINE
  8
0
  6
LTYPE1
 62
     2
 10
506.85
 20
471.3
 11
501.235640646
 21
471.3
  0
LINE
  8
0
  6
LTYPE1
 62
     2
 10
499.85
 20
468.9
 11
501.235640646
 21
471.3
  0
LINE
  8
0
  6
LTYPE1
 62
     2
 10
499.85
 20
468.9
 11
501.235640646
 21
471.3
  0
LINE
  8
0
  6
LTYPE1
 62
     2
 10
509.35
 20
470.7
 11
506.85
 21
470.7
  0
LINE
  8
0
  6
LTYPE1
 62
     2
 10
499.85
 20
461.5
 11
499.85
 21
468.9
  0
LINE
  8
0
  6
LTYPE1
 62
     2
 10
506.85
 20
466.4
 11
501.235640646
 21
466.4
  0
ARC
  8
0
  6
LTYPE1
 62
     2
 10
502.707883832
 20
468.85
 40
2.858321186
 50
177.010501597
 51
238.997686085
  0
LINE
  8
0
  6
LTYPE1
 62
     2
 10
506.85
 20
461.5
 11
506.85
 21
471.3
  0
LINE
  8
0
  6
LTYPE1
 62
     2
 10
491.35
 20
465.5
 11
499.85
 21
465.5
  0
ARC
  8
0
  6
LTYPE1
 62
     2
 10
509.2066828
 20
461.5
 40
9.3566828
 50
148.419912243
 51
211.580087757
  0
LINE
  8
0
  6
LTYPE1
 62
     2
 10
491.35
 20
457.5
 11
491.35
 21
465.5
  0
LINE
  8
0
  6
CONTINUOUS
 62
     1
 10
527.85
 20
454.05
 11
541.35
 21
454.05
  0
LINE
  8
0
  6
LTYPE1
 62
     2
 10
509.35
 20
448.5
 11
541.35
 21
448.5
  0
LINE
  8
0
  6
LTYPE1
 62
     2
 10
506.85
 20
461.5
 11
506.85
 21
451.7
  0
LINE
  8
0
  6
LTYPE1
 62
     2
 10
506.85
 20
451.7
 11
501.235640646
 21
451.7
  0
LINE
  8
0
  6
LTYPE1
 62
     2
 10
499.85
 20
454.1
 11
501.235640646
 21
451.7
  0
LINE
  8
0
  6
LTYPE1
 62
     2
 10
499.85
 20
461.5
 11
499.85
 21
454.1
  0
LINE
  8
0
  6
LTYPE1
 62
     2
 10
506.85
 20
456.6
 11
501.235640646
 21
456.6
  0
ARC
  8
0
  6
LTYPE1
 62
     2
 10
502.707883832
 20
454.15
 40
2.858321186
 50
121.002313915
 51
182.989498403
  0
LINE
  8
0
  6
LTYPE1
 62
     2
 10
509.35
 20
452.3
 11
506.85
 21
452.3
  0
LINE
  8
0
  6
LTYPE1
 62
     2
 10
509.35
 20
461.5
 11
506.850000004
 21
459.000000004
  0
LINE
  8
0
  6
LTYPE1
 62
     2
 10
491.35
 20
457.5
 11
499.85
 21
457.5
  0
LINE
  8
0
  6
LTYPE1
 62
     2
 10
491.35
 20
458.5
 11
499.85
 21
458.5
  0
LINE
  8
0
  6
LTYPE1
 62
     2
 10
506.850000004
 20
461.5
 11
509.35
 21
463.999999996
  0
LINE
  8
0
  6
LTYPE1
 62
     2
 10
491.35
 20
464.5
 11
499.85
 21
464.5
  0
LINE
  8
0
  6
LTYPE2
 62
     2
 10
458.85
 20
489.5
 11
798.11
 21
489.5
  0
LINE
  8
0
  6
LTYPE3
 62
     2
 10
483.95
 20
461.5
 11
1028.0
 21
461.5
  0
LINE
  8
0
  6
CONTINUOUS
 62
     1
 10
583.35
 20
469.5
 11
804.7
 21
469.5
  0
LINE
  8
0
  6
CONTINUOUS
 62
     1
 10
583.35
 20
453.5
 11
836.0
 21
453.5
  0
LINE
  8
0
  6
CONTINUOUS
 62
     1
 10
977.0
 20
469.5
 11
985.0
 21
469.5
  0
LINE
  8
0
  6
CONTINUOUS
 62
     1
 10
977.0
 20
453.5
 11
985.0
 21
453.5
  0
LINE
  8
0
  6
CONTINUOUS
 62
     1
 10
899.3
 20
469.5
 11
935.0
 21
469.5
  0
LINE
  8
0
  6
CONTINUOUS
 62
     1
 10
868.0
 20
453.5
 11
935.0
 21
453.5
  0
LINE
  8
0
  6
LTYPE2
 62
     2
 10
956.0
 20
451.5
 11
956.0
 21
471.5
  0
LINE
  8
0
  6
CONTINUOUS
 62
     1
 10
935.0
 20
472.5
 11
943.660254038
 21
477.5
  0
LINE
  8
0
  6
CONTINUOUS
 62
     1
 10
943.65
 20
477.5
 11
968.35
 21
477.5
  0
LINE
  8
0
  6
CONTINUOUS
 62
     1
 10
943.65
 20
445.5
 11
943.65
 21
477.5
  0
LINE
  8
0
  6
CONTINUOUS
 62
     1
 10
968.35
 20
445.5
 11
968.35
 21
477.5
  0
LINE
  8
0
  6
CONTINUOUS
 62
     1
 10
977.0
 20
472.5
 11
968.339745962
 21
477.5
  0
CIRCLE
  8
0
  6
CONTINUOUS
 62
     2
 10
956.0
 20
461.5
 40
5.0
  0
CIRCLE
  8
0
  6
CONTINUOUS
 62
     2
 10
956.0
 20
461.5
 40
4.0
  0
LINE
  8
0
  6
CONTINUOUS
 62
     1
 10
943.65
 20
445.5
 11
968.35
 21
445.5
  0
LINE
  8
0
  6
CONTINUOUS
 62
     1
 10
935.0
 20
450.5
 11
943.660254038
 21
445.5
  0
LINE
  8
0
  6
CONTINUOUS
 62
     1
 10
977.0
 20
450.5
 11
968.339745962
 21
445.5
  0
LINE
  8
0
  6
CONTINUOUS
 62
     1
 10
935.0
 20
450.5
 11
935.0
 21
472.5
  0
LINE
  8
0
  6
CONTINUOUS
 62
     1
 10
977.0
 20
450.5
 11
977.0
 21
472.5
  0
LINE
  8
0
  6
CONTINUOUS
 62
     1
 10
550.0
 20
477.5
 11
574.7
 21
477.5
  0
LINE
  8
0
  6
CONTINUOUS
 62
     1
 10
550.0
 20
445.5
 11
550.0
 21
477.5
  0
LINE
  8
0
  6
CONTINUOUS
 62
     1
 10
541.35
 20
472.5
 11
550.010254038
 21
477.5
  0
LINE
  8
0
  6
CONTINUOUS
 62
     1
 10
541.35
 20
450.5
 11
541.35
 21
472.5
  0
LINE
  8
0
  6
CONTINUOUS
 62
     1
 10
574.7
 20
445.5
 11
574.7
 21
477.5
  0
LINE
  8
0
  6
CONTINUOUS
 62
     1
 10
550.0
 20
445.5
 11
574.7
 21
445.5
  0
LINE
  8
0
  6
CONTINUOUS
 62
     1
 10
583.35
 20
450.5
 11
574.689745962
 21
445.5
  0
LINE
  8
0
  6
CONTINUOUS
 62
     1
 10
541.35
 20
450.5
 11
550.010254038
 21
445.5
  0
LINE
  8
0
  6
CONTINUOUS
 62
     1
 10
583.35
 20
450.5
 11
583.35
 21
472.5
  0
LINE
  8
0
  6
CONTINUOUS
 62
     1
 10
583.35
 20
472.5
 11
574.689745962
 21
477.5
  0
LINE
  8
0
  6
LTYPE2
 62
     2
 10
562.35
 20
451.5
 11
562.35
 21
471.5
  0
CIRCLE
  8
0
  6
CONTINUOUS
 62
     2
 10
562.35
 20
461.5
 40
5.0
  0
CIRCLE
  8
0
  6
CONTINUOUS
 62
     2
 10
562.35
 20
461.5
 40
4.0
  0
POLYLINE
  8
7
  6
CONTINUOUS
 62
     2
 66
     1
  0
VERTEX
  8
7
  6
CONTINUOUS
 62
     2
 10
937.969424461
 20
389.5
  0
VERTEX
  8
7
  6
CONTINUOUS
 62
     2
 10
937.969424461
 20
294.5
  0
VERTEX
  8
7
  6
CONTINUOUS
 62
     2
 10
940.557614912
 20
304.159258263
  0
SEQEND
  0
LINE
  8
7
  6
CONTINUOUS
 62
     2
 10
937.969424461
 20
294.5
 11
935.38123401
 21
304.159258263
  0
LINE
  8
7
  6
CONTINUOUS
 62
     2
 10
943.469424461
 20
294.5
 11
943.969424461
 21
294.5
  0
LINE
  8
0
  6
LTYPE2
 62
     2
 10
945.0
 20
342.0
 11
985.0
 21
342.0
  0
LINE
  8
0
  6
CONTINUOUS
 62
     2
 10
930.0
 20
294.5
 11
964.878498635
 21
294.5
  0
TEXT
  8
0
  6
CONTINUOUS
 62
     2
 10
936.75
 20
322.8
 30
0.0
 40
15.0
  1
φ９５
 50
90.0
 41
0.9
 51
0.0
  7
KANJI39
  0
ARC
  8
0
  6
CONTINUOUS
 62
     1
 10
964.878498635
 20
389.5
 40
1.0
 50
15.0
 51
90.0
  0
ARC
  8
0
  6
CONTINUOUS
 62
     1
 10
964.878498635
 20
389.5
 40
1.0
 50
90.0
 51
165.0
  0
LINE
  8
0
  6
CONTINUOUS
 62
     1
 10
961.630278561
 20
381.241180955
 11
963.912572809
 21
389.758819045
  0
LINE
  8
0
  6
CONTINUOUS
 62
     1
 10
964.878498635
 20
295.5
 11
964.878498635
 21
390.5
  0
LINE
  8
0
  6
CONTINUOUS
 62
     1
 10
970.0
 20
376.75
 11
965.844424461
 21
389.758819045
  0
LINE
  8
7
  6
CONTINUOUS
 62
     2
 10
935.969424461
 20
389.5
 11
931.969424461
 21
389.5
  0
LINE
  8
7
  6
CONTINUOUS
 62
     2
 10
937.969424461
 20
389.5
 11
935.38123401
 21
379.840741737
  0
LINE
  8
7
  6
CONTINUOUS
 62
     2
 10
937.969424461
 20
389.5
 11
940.557614912
 21
379.840741737
  0
LINE
  8
0
  6
CONTINUOUS
 62
     2
 10
930.0
 20
389.5
 11
964.878498635
 21
389.5
  0
LINE
  8
0
  6
CONTINUOUS
 62
     1
 10
970.0
 20
376.75
 11
970.0
 21
309.25
  0
ARC
  8
0
  6
CONTINUOUS
 62
     1
 10
964.878498635
 20
296.5
 40
1.0
 50
270.0
 51
345.0
  0
ARC
  8
0
  6
CONTINUOUS
 62
     1
 10
964.878498635
 20
296.5
 40
1.0
 50
195.0
 51
270.0
  0
LINE
  8
0
  6
CONTINUOUS
 62
     1
 10
961.630278561
 20
304.758819045
 11
963.912572809
 21
296.241180955
  0
ARC
  8
0
  6
CONTINUOUS
 62
     1
 10
960.664352735
 20
304.5
 40
1.0
 50
15.0
 51
90.0
  0
ARC
  8
0
  6
CONTINUOUS
 62
     1
 10
960.664352735
 20
381.5
 40
1.0
 50
270.0
 51
345.0
  0
LINE
  8
0
  6
CONTINUOUS
 62
     1
 10
960.664352735
 20
380.5
 11
960.664352735
 21
305.5
  0
LINE
  8
0
  6
CONTINUOUS
 62
     1
 10
970.0
 20
309.25
 11
965.844424461
 21
296.241180955
  0
LINE
  8
0
  6
CONTINUOUS
 62
     1
 10
972.5
 20
366.75
 11
970.0
 21
366.75
  0
LINE
  8
0
  6
CONTINUOUS
 62
     1
 10
972.5
 20
319.25
 11
970.0
 21
319.25
  0
LINE
  8
0
  6
CONTINUOUS
 62
     1
 10
982.5
 20
317.25
 11
972.5
 21
317.25
  0
LINE
  8
0
  6
CONTINUOUS
 62
     1
 10
972.5
 20
368.75
 11
972.5
 21
317.25
  0
LINE
  8
0
  6
CONTINUOUS
 62
     1
 10
982.5
 20
368.75
 11
972.5
 21
368.75
  0
LINE
  8
0
  6
CONTINUOUS
 62
     2
 10
1028.0
 20
400.1
 11
1018.340741737
 21
402.688190451
  0
LINE
  8
0
  6
CONTINUOUS
 62
     2
 10
1028.0
 20
400.1
 11
1018.340741737
 21
397.511809549
  0
LINE
  8
0
  6
CONTINUOUS
 62
     2
 10
1008.0
 20
400.1
 11
1100.0
 21
400.1
  0
LINE
  8
0
  6
CONTINUOUS
 62
     2
 10
1036.0
 20
412.85
 11
1026.340741737
 21
415.438190451
  0
LINE
  8
0
  6
CONTINUOUS
 62
     2
 10
1036.0
 20
412.85
 11
1026.340741737
 21
410.261809549
  0
LINE
  8
0
  6
CONTINUOUS
 62
     2
 10
1036.0
 20
412.85
 11
1011.0
 21
412.85
  0
LINE
  8
0
  6
CONTINUOUS
 62
     2
 10
1011.0
 20
412.85
 11
1020.659258263
 21
410.261809549
  0
LINE
  8
0
  6
CONTINUOUS
 62
     2
 10
1011.0
 20
412.85
 11
1020.659258263
 21
415.438190451
  0
LINE
  8
0
  6
CONTINUOUS
 62
     2
 10
1011.0
 20
353.3
 11
1011.0
 21
419.95
  0
LINE
  8
0
  6
CONTINUOUS
 62
     1
 10
985.0
 20
366.75
 11
982.5
 21
366.75
  0
LINE
  8
0
  6
CONTINUOUS
 62
     1
 10
985.0
 20
319.25
 11
982.5
 21
319.25
  0
LINE
  8
0
  6
CONTINUOUS
 62
     1
 10
982.5
 20
368.75
 11
982.5
 21
317.25
  0
LINE
  8
0
  6
CONTINUOUS
 62
     1
 10
985.0
 20
366.75
 11
985.0
 21
319.25
  0
LINE
  8
0
  6
CONTINUOUS
 62
     1
 10
1044.0
 20
312.0
 11
1028.0
 21
312.0
  0
LINE
  8
0
  6
CONTINUOUS
 62
     1
 10
1011.0
 20
335.0
 11
1054.0
 21
335.0
  0
LINE
  8
0
  6
CONTINUOUS
 62
     1
 10
1044.0
 20
374.0
 11
1028.0
 21
374.0
  0
LINE
  8
0
  6
CONTINUOUS
 62
     1
 10
1021.0
 20
366.0
 11
1051.0
 21
366.0
  0
LINE
  8
0
  6
CONTINUOUS
 62
     1
 10
1021.0
 20
363.0
 11
1021.0
 21
366.0
  0
LINE
  8
0
  6
CONTINUOUS
 62
     1
 10
1028.0
 20
374.0
 11
1028.0
 21
366.0
  0
LINE
  8
0
  6
CONTINUOUS
 62
     1
 10
1044.0
 20
312.0
 11
1028.0
 21
312.0
  0
LINE
  8
0
  6
CONTINUOUS
 62
     1
 10
1021.0
 20
320.0
 11
1051.0
 21
320.0
  0
LINE
  8
0
  6
CONTINUOUS
 62
     1
 10
1021.0
 20
323.0
 11
1021.0
 21
320.0
  0
LINE
  8
0
  6
CONTINUOUS
 62
     1
 10
1028.0
 20
312.0
 11
1028.0
 21
320.0
  0
LINE
  8
0
  6
CONTINUOUS
 62
     1
 10
1028.0
 20
312.0
 11
1028.0
 21
320.0
  0
LINE
  8
0
  6
CONTINUOUS
 62
     1
 10
1001.0
 20
323.0
 11
1054.0
 21
323.0
  0
LINE
  8
0
  6
CONTINUOUS
 62
     1
 10
1011.0
 20
351.0
 11
1054.0
 21
351.0
  0
LINE
  8
0
  6
CONTINUOUS
 62
     1
 10
1011.0
 20
351.0
 11
1011.0
 21
335.0
  0
LINE
  8
0
  6
CONTINUOUS
 62
     1
 10
1028.0
 20
351.0
 11
1028.0
 21
335.0
  0
LINE
  8
0
  6
CONTINUOUS
 62
     1
 10
1001.0
 20
363.0
 11
1054.0
 21
363.0
  0
LINE
  8
0
  6
LTYPE1
 62
     2
 10
1028.0
 20
365.0
 11
1028.0
 21
350.0
  0
LINE
  8
0
  6
LTYPE1
 62
     2
 10
1028.0
 20
319.0
 11
1028.0
 21
334.0
  0
LINE
  8
0
  6
CONTINUOUS
 62
     1
 10
985.0
 20
307.0
 11
1001.0
 21
307.0
  0
LINE
  8
0
  6
CONTINUOUS
 62
     1
 10
985.0
 20
377.0
 11
985.0
 21
307.0
  0
LINE
  8
0
  6
CONTINUOUS
 62
     1
 10
985.0
 20
377.0
 11
1001.0
 21
377.0
  0
LINE
  8
0
  6
CONTINUOUS
 62
     1
 10
1001.0
 20
377.0
 11
1001.0
 21
307.0
  0
LINE
  8
0
  6
LTYPE2
 62
     2
 10
993.0
 20
375.0
 11
993.0
 21
361.0
  0
LINE
  8
0
  6
LTYPE2
 62
     2
 10
987.0
 20
368.0
 11
999.0
 21
368.0
  0
LINE
  8
0
  6
LTYPE2
 62
     2
 10
993.0
 20
309.0
 11
993.0
 21
323.0
  0
LINE
  8
0
  6
LTYPE2
 62
     2
 10
987.0
 20
316.0
 11
999.0
 21
316.0
  0
LINE
  8
0
  6
LTYPE3
 62
     2
 10
977.9
 20
342.0
 11
1064.9
 21
342.0
  0
TEXT
  8
0
  6
CONTINUOUS
 62
     2
 10
1008.7
 20
417.85
 30
0.0
 40
15.0
  1
２５
 50
0.0
 41
0.9
 51
0.0
  7
KANJI39
  0
LINE
  8
0
  6
CONTINUOUS
 62
     2
 10
1028.0
 20
375.5
 11
1028.0
 21
405.2
  0
LINE
  8
0
  6
CONTINUOUS
 62
     2
 10
1044.0
 20
400.1
 11
1053.659258263
 21
397.511809549
  0
LINE
  8
0
  6
CONTINUOUS
 62
     2
 10
1044.0
 20
400.1
 11
1053.659258263
 21
402.688190451
  0
TEXT
  8
0
  6
CONTINUOUS
 62
     2
 10
1091.75
 20
412.76
 30
0.84
 40
8.4
  1
Ｈ１０
 50
0.0
 41
0.9
 51
0.0
  7
KANJI45
  0
TEXT
  8
0
  6
CONTINUOUS
 62
     2
 10
1091.75
 20
404.36
 30
0.84
 40
8.4
  1
ｄ９
 50
0.0
 41
0.9
 51
0.0
  7
KANJI45
  0
LINE
  8
0
  6
CONTINUOUS
 62
     1
 10
1054.0
 20
335.0
 11
1054.0
 21
323.0
  0
LINE
  8
0
  6
CONTINUOUS
 62
     1
 10
1054.0
 20
351.0
 11
1054.0
 21
363.0
  0
LINE
  8
0
  6
CONTINUOUS
 62
     1
 10
1051.0
 20
363.0
 11
1051.0
 21
366.0
  0
LINE
  8
0
  6
CONTINUOUS
 62
     1
 10
1044.0
 20
366.0
 11
1044.0
 21
374.0
  0
LINE
  8
0
  6
CONTINUOUS
 62
     1
 10
1051.0
 20
323.0
 11
1051.0
 21
320.0
  0
LINE
  8
0
  6
CONTINUOUS
 62
     1
 10
1044.0
 20
320.0
 11
1044.0
 21
312.0
  0
LINE
  8
0
  6
CONTINUOUS
 62
     1
 10
1044.0
 20
320.0
 11
1044.0
 21
312.0
  0
LINE
  8
0
  6
CONTINUOUS
 62
     1
 10
1044.0
 20
335.0
 11
1044.0
 21
351.0
  0
LINE
  8
0
  6
LTYPE1
 62
     2
 10
1044.0
 20
350.0
 11
1044.0
 21
365.0
  0
LINE
  8
0
  6
LTYPE2
 62
     2
 10
1031.6
 20
367.65
 11
1040.0
 21
367.65
  0
LINE
  8
0
  6
LTYPE2
 62
     2
 10
1031.6
 20
316.35
 11
1040.0
 21
316.35
  0
LINE
  8
0
  6
LTYPE1
 62
     2
 10
1044.0
 20
334.0
 11
1044.0
 21
319.0
  0
TEXT
  8
0
  6
CONTINUOUS
 62
     2
 10
1051.0
 20
405.1
 30
0.0
 40
15.0
  1
φ１６
 50
0.0
 41
0.9
 51
0.0
  7
KANJI39
  0
LINE
  8
0
  6
CONTINUOUS
 62
     2
 10
1044.0
 20
375.5
 11
1044.0
 21
406.2
  0
LINE
  8
0
  6
CONTINUOUS
 62
     2
 10
1091.833854631
 20
331.0
 11
1091.833854631
 21
392.2
  0
LINE
  8
0
  6
CONTINUOUS
 62
     2
 10
1099.833854631
 20
363.0
 11
1145.0
 21
363.0
  0
LINE
  8
0
  6
CONTINUOUS
 62
     2
 10
1091.833854631
 20
363.0
 11
1094.422045082
 21
372.659258263
  0
LINE
  8
0
  6
CONTINUOUS
 62
     2
 10
1091.833854631
 20
363.0
 11
1089.24566418
 21
372.659258263
  0
LINE
  8
0
  6
CONTINUOUS
 62
     2
 10
1055.5
 20
363.0
 11
1099.833854631
 21
363.0
  0
TEXT
  8
0
  6
CONTINUOUS
 62
     2
 10
1115.733854631
 20
330.2
 30
0.0
 40
15.0
  1
１６
 50
90.0
 41
0.9
 51
0.0
  7
KANJI39
  0
LINE
  8
0
  6
CONTINUOUS
 62
     2
 10
1055.5
 20
351.0
 11
1099.733854631
 21
351.0
  0
LINE
  8
0
  6
CONTINUOUS
 62
     2
 10
1055.5
 20
335.0
 11
1099.733854631
 21
335.0
  0
LINE
  8
0
  6
CONTINUOUS
 62
     2
 10
1091.833854631
 20
355.0
 11
1091.833854631
 21
279.4
  0
LINE
  8
0
  6
CONTINUOUS
 62
     2
 10
1091.833854631
 20
323.0
 11
1094.422045082
 21
313.340741737
  0
LINE
  8
0
  6
CONTINUOUS
 62
     2
 10
1091.833854631
 20
323.0
 11
1089.24566418
 21
313.340741737
  0
LINE
  8
0
  6
CONTINUOUS
 62
     2
 10
1099.833854631
 20
323.0
 11
1146.0
 21
323.0
  0
TEXT
  8
0
  6
CONTINUOUS
 62
     2
 10
1087.833854631
 20
291.5
 30
0.0
 40
15.0
  1
１２
 50
90.0
 41
0.9
 51
0.0
  7
KANJI39
  0
LINE
  8
0
  6
CONTINUOUS
 62
     2
 10
1055.5
 20
323.0
 11
1099.833854631
 21
323.0
  0
LINE
  8
0
  6
CONTINUOUS
 62
     2
 10
1091.833854631
 20
351.0
 11
1089.24566418
 21
341.340741737
  0
LINE
  8
0
  6
CONTINUOUS
 62
     2
 10
1091.833854631
 20
351.0
 11
1094.422045082
 21
341.340741737
  0
TEXT
  8
0
  6
CONTINUOUS
 62
     2
 10
1087.333854631
 20
370.5
 30
0.0
 40
15.0
  1
１２
 50
90.0
 41
0.9
 51
0.0
  7
KANJI39
  0
LINE
  8
0
  6
CONTINUOUS
 62
     2
 10
1091.833854631
 20
335.0
 11
1089.24566418
 21
344.659258263
  0
LINE
  8
0
  6
CONTINUOUS
 62
     2
 10
1091.833854631
 20
335.0
 11
1094.422045082
 21
344.659258263
  0
TEXT
  8
0
  6
CONTINUOUS
 62
     2
 10
1134.2
 20
331.2
 30
0.0
 40
15.0
  1
４０
 50
90.0
 41
0.9
 51
0.0
  7
KANJI39
  0
LINE
  8
0
  6
CONTINUOUS
 62
     2
 10
1138.2
 20
323.0
 11
1140.788190451
 21
332.659258263
  0
LINE
  8
0
  6
CONTINUOUS
 62
     2
 10
1138.2
 20
323.0
 11
1135.611809549
 21
332.659258263
  0
LINE
  8
0
  6
CONTINUOUS
 62
     2
 10
1138.2
 20
323.0
 11
1138.2
 21
363.0
  0
LINE
  8
0
  6
CONTINUOUS
 62
     2
 10
1138.2
 20
363.0
 11
1135.611809549
 21
353.340741737
  0
LINE
  8
0
  6
CONTINUOUS
 62
     2
 10
1138.2
 20
363.0
 11
1140.788190451
 21
353.340741737
  0
CIRCLE
  8
0
  6
CONTINUOUS
 62
     2
 10
1036.0
 20
316.35
 40
2.0
  0
CIRCLE
  8
0
  6
CONTINUOUS
 62
     2
 10
1036.0
 20
367.65
 40
2.0
  0
LINE
  8
0
  6
CONTINUOUS
 62
     2
 10
1111.1
 20
598.5
 11
1107.864761936
 21
586.425927171
  0
LINE
  8
0
  6
CONTINUOUS
 62
     2
 10
1111.1
 20
598.5
 11
1114.335238064
 21
586.425927171
  0
LINE
  8
0
  6
CONTINUOUS
 62
     2
 10
1111.1
 20
598.5
 11
1111.1
 21
445.5
  0
LINE
  8
0
  6
CONTINUOUS
 62
     2
 10
1111.1
 20
445.5
 11
1114.335238064
 21
457.574072829
  0
LINE
  8
0
  6
CONTINUOUS
 62
     2
 10
1111.1
 20
445.5
 11
1107.864761936
 21
457.574072829
  0
LINE
  8
0
  6
CONTINUOUS
 62
     2
 10
973.35
 20
445.5
 11
1121.1
 21
445.5
  0
TEXT
  8
0
  6
CONTINUOUS
 62
     3
 10
1103.6
 20
501.75
 30
0.0
 40
15.0
  1
１５３
 50
90.0
 41
0.9
 51
0.0
  7
KANJI39
  0
LINE
  8
0
  6
CONTINUOUS
 62
     2
 10
1089.9
 20
598.5
 11
1121.1
 21
598.5
  0
LINE
  8
0
  6
LTYPE3
 62
     2
 10
853.2
 20
598.5
 11
1069.339501379
 21
598.5
  0
TEXT
  8
0
  6
CONTINUOUS
 62
     3
 10
1069.4
 20
674.7
 30
0.0
 40
20.0
  1
前進
 50
0.0
 41
0.925
 51
0.0
  7
KANJI40
  0
TEXT
  8
0
  6
CONTINUOUS
 62
     6
 10
373.143715102
 20
1330.621931782
 30
0.0
 40
11.8638
  1
ＡＣ１００Ｖ　１２５Ｖ　２５０Ｖ　－１０Ａ
 50
0.0
 41
0.726495726
 51
0.0
  7
KANJI19
  0
LINE
  8
0
  6
LTYPE2
 62
     6
 10
624.15
 20
1375.45
 11
84.75
 21
1375.45
  0
LINE
  8
0
  6
LTYPE2
 62
     6
 10
624.15
 20
1116.45
 11
624.15
 21
1375.45
  0
LINE
  8
0
  6
LTYPE2
 62
     6
 10
84.75
 20
1116.45
 11
624.15
 21
1116.45
  0
LINE
  8
0
  6
CONTINUOUS
 62
     2
 10
106.0
 20
294.8
 11
113.72740661
 21
292.729447639
  0
LINE
  8
0
  6
CONTINUOUS
 62
     2
 10
106.0
 20
294.8
 11
113.72740661
 21
296.870552361
  0
LINE
  8
0
  6
CONTINUOUS
 62
     2
 10
106.0
 20
294.8
 11
243.6
 21
294.8
  0
LINE
  8
0
  6
CONTINUOUS
 62
     2
 10
243.6
 20
294.8
 11
235.87259339
 21
296.870552361
  0
LINE
  8
0
  6
CONTINUOUS
 62
     2
 10
243.6
 20
294.8
 11
235.87259339
 21
292.729447639
  0
LINE
  8
0
  6
CONTINUOUS
 62
     2
 10
243.6
 20
293.6
 11
243.6
 21
290.8
  0
LINE
  8
0
  6
CONTINUOUS
 62
     2
 10
243.6
 20
294.8
 11
251.32740661
 21
292.729447639
  0
LINE
  8
0
  6
CONTINUOUS
 62
     2
 10
243.6
 20
294.8
 11
251.32740661
 21
296.870552361
  0
LINE
  8
0
  6
CONTINUOUS
 62
     2
 10
243.6
 20
294.8
 11
446.0
 21
294.8
  0
LINE
  8
0
  6
CONTINUOUS
 62
     2
 10
446.0
 20
294.8
 11
438.27259339
 21
296.870552361
  0
LINE
  8
0
  6
CONTINUOUS
 62
     2
 10
446.0
 20
294.8
 11
438.27259339
 21
292.729447639
  0
LINE
  8
0
  6
CONTINUOUS
 62
     2
 10
243.6
 20
268.470552361
 11
235.87259339
 21
270.541104722
  0
LINE
  8
0
  6
CONTINUOUS
 62
     2
 10
243.6
 20
268.470552361
 11
235.87259339
 21
266.4
  0
LINE
  8
0
  6
CONTINUOUS
 62
     2
 10
231.6
 20
268.470552361
 11
243.6
 21
268.470552361
  0
LINE
  8
0
  6
CONTINUOUS
 62
     2
 10
243.6
 20
268.470552361
 11
264.4
 21
268.470552361
  0
LINE
  8
0
  6
CONTINUOUS
 62
     2
 10
264.4
 20
268.470552361
 11
272.12740661
 21
266.4
  0
LINE
  8
0
  6
CONTINUOUS
 62
     2
 10
264.4
 20
268.470552361
 11
272.12740661
 21
270.541104722
  0
LINE
  8
0
  6
CONTINUOUS
 62
     2
 10
106.0
 20
243.2
 11
106.0
 21
237.2
  0
LINE
  8
0
  6
CONTINUOUS
 62
     2
 10
106.0
 20
241.2
 11
113.72740661
 21
239.129447639
  0
LINE
  8
0
  6
CONTINUOUS
 62
     2
 10
106.0
 20
241.2
 11
113.72740661
 21
243.270552361
  0
LINE
  8
0
  6
CONTINUOUS
 62
     2
 10
106.0
 20
241.2
 11
264.4
 21
241.2
  0
LINE
  8
0
  6
CONTINUOUS
 62
     2
 10
264.4
 20
241.2
 11
256.67259339
 21
243.270552361
  0
LINE
  8
0
  6
CONTINUOUS
 62
     2
 10
264.4
 20
241.2
 11
256.67259339
 21
239.129447639
  0
LINE
  8
0
  6
CONTINUOUS
 62
     2
 10
264.4
 20
242.4
 11
264.4
 21
237.2
  0
LINE
  8
0
  6
CONTINUOUS
 62
     2
 10
264.4
 20
241.2
 11
272.12740661
 21
239.129447639
  0
LINE
  8
0
  6
CONTINUOUS
 62
     2
 10
264.4
 20
241.2
 11
272.12740661
 21
243.270552361
  0
LINE
  8
0
  6
CONTINUOUS
 62
     2
 10
446.0
 20
237.6
 11
446.0
 21
237.2
  0
LINE
  8
0
  6
CONTINUOUS
 62
     2
 10
106.0
 20
212.0
 11
113.72740661
 21
209.929447639
  0
LINE
  8
0
  6
CONTINUOUS
 62
     2
 10
106.0
 20
212.0
 11
113.72740661
 21
214.070552361
  0
LINE
  8
0
  6
CONTINUOUS
 62
     2
 10
106.0
 20
212.0
 11
423.6
 21
212.0
  0
LINE
  8
0
  6
CONTINUOUS
 62
     2
 10
423.6
 20
212.0
 11
415.87259339
 21
214.070552361
  0
LINE
  8
0
  6
CONTINUOUS
 62
     2
 10
423.6
 20
212.0
 11
415.87259339
 21
209.929447639
  0
LINE
  8
0
  6
CONTINUOUS
 62
     2
 10
423.6
 20
212.8
 11
423.6
 21
208.0
  0
LINE
  8
0
  6
CONTINUOUS
 62
     2
 10
423.6
 20
212.0
 11
415.87259339
 21
214.070552361
  0
LINE
  8
0
  6
CONTINUOUS
 62
     2
 10
423.6
 20
212.0
 11
415.87259339
 21
209.929447639
  0
LINE
  8
0
  6
CONTINUOUS
 62
     2
 10
411.6
 20
212.0
 11
423.6
 21
212.0
  0
LINE
  8
0
  6
CONTINUOUS
 62
     2
 10
423.6
 20
212.0
 11
446.0
 21
212.0
  0
LINE
  8
0
  6
CONTINUOUS
 62
     2
 10
446.0
 20
212.0
 11
453.72740661
 21
209.929447639
  0
LINE
  8
0
  6
CONTINUOUS
 62
     2
 10
446.0
 20
212.0
 11
453.72740661
 21
214.070552361
  0
LINE
  8
0
  6
CONTINUOUS
 62
     2
 10
106.0
 20
305.6
 11
106.0
 21
290.8
  0
LINE
  8
0
  6
CONTINUOUS
 62
     2
 10
446.0
 20
305.6
 11
446.0
 21
290.8
  0
LINE
  8
0
  6
CONTINUOUS
 62
     2
 10
243.6
 20
294.4
 11
243.6
 21
305.6
  0
LINE
  8
0
  6
CONTINUOUS
 62
     2
 10
264.4
 20
281.270552361
 11
264.4
 21
264.470552361
  0
LINE
  8
0
  6
CONTINUOUS
 62
     2
 10
106.0
 20
290.8
 11
106.0
 21
198.8
  0
LINE
  8
0
  6
CONTINUOUS
 62
     2
 10
446.0
 20
294.8
 11
446.0
 21
200.0
  0
LINE
  8
0
  6
CONTINUOUS
 62
     2
 10
264.4
 20
268.470552361
 11
264.4
 21
232.0
  0
LINE
  8
0
  6
CONTINUOUS
 62
     2
 10
243.6
 20
294.8
 11
243.6
 21
259.2
  0
TEXT
  8
0
  6
CONTINUOUS
 62
     3
 10
147.8
 20
296.8
 30
0.0
 40
15.0
  1
ｍｉｎ．Ｌ
 50
0.0
 41
0.9
 51
0.0
  7
KANJI39
  0
TEXT
  8
0
  6
CONTINUOUS
 62
     3
 10
301.6
 20
296.8
 30
0.0
 40
15.0
  1
機械的ストローク
 50
0.0
 41
0.9
 51
0.0
  7
KANJI39
  0
TEXT
  8
0
  6
CONTINUOUS
 62
     3
 10
276.4
 20
270.470552361
 30
0.0
 40
15.0
  1
余裕
 50
0.0
 41
0.9
 51
0.0
  7
KANJI39
  0
TEXT
  8
0
  6
CONTINUOUS
 62
     3
 10
158.2
 20
243.2
 30
0.0
 40
15.0
  1
常用ｍｉｎ
 50
0.0
 41
0.9
 51
0.0
  7
KANJI39
  0
TEXT
  8
0
  6
CONTINUOUS
 62
     3
 10
317.4
 20
243.2
 30
0.0
 40
15.0
  1
常用ストローク
 50
0.0
 41
0.9
 51
0.0
  7
KANJI39
  0
TEXT
  8
0
  6
CONTINUOUS
 62
     3
 10
237.8
 20
214.0
 30
0.0
 40
15.0
  1
常用ｍａｘ
 50
0.0
 41
0.9
 51
0.0
  7
KANJI39
  0
TEXT
  8
0
  6
CONTINUOUS
 62
     3
 10
458.0
 20
214.0
 30
0.0
 40
15.0
  1
余裕
 50
0.0
 41
0.9
 51
0.0
  7
KANJI39
  0
LINE
  8
0
  6
CONTINUOUS
 62
     2
 10
264.4
 20
268.470552361
 11
304.5
 21
268.470552361
  0
LINE
  8
0
  6
CONTINUOUS
 62
     2
 10
446.0
 20
212.0
 11
488.5
 21
212.0
  0
TEXT
  8
0
  6
CONTINUOUS
 62
     2
 10
577.7
 20
860.65
 30
0.0
 40
15.0
  1
推力リミッタの作動値は、約１１０ｋｇ（設計値）
 50
0.0
 41
0.9
 51
0.0
  7
KANJI39
  0
LINE
  8
0
  6
CONTINUOUS
 62
     2
 10
578.3
 20
856.45
 11
882.719716322
 21
856.45
  0
LINE
  8
0
  6
CONTINUOUS
 62
     1
 10
842.05
 20
988.2
 11
1490.05
 21
988.2
  0
LINE
  8
0
  6
CONTINUOUS
 62
     1
 10
842.05
 20
1240.2
 11
842.05
 21
988.2
  0
LINE
  8
0
  6
CONTINUOUS
 62
     1
 10
1010.05
 20
1240.2
 11
1010.05
 21
988.2
  0
LINE
  8
0
  6
CONTINUOUS
 62
     2
 10
1090.05
 20
1240.2
 11
1090.05
 21
988.2
  0
LINE
  8
0
  6
CONTINUOUS
 62
     2
 10
1170.05
 20
1240.2
 11
1170.05
 21
988.2
  0
LINE
  8
0
  6
CONTINUOUS
 62
     2
 10
1250.05
 20
1240.2
 11
1250.05
 21
988.2
  0
LINE
  8
0
  6
CONTINUOUS
 62
     2
 10
1330.05
 20
1240.2
 11
1330.05
 21
988.2
  0
LINE
  8
0
  6
CONTINUOUS
 62
     2
 10
1410.05
 20
1240.2
 11
1410.05
 21
988.2
  0
LINE
  8
0
  6
CONTINUOUS
 62
     1
 10
1490.05
 20
1240.2
 11
1490.05
 21
988.2
  0
LINE
  8
0
  6
CONTINUOUS
 62
     2
 10
423.6
 20
253.0
 11
423.6
 21
199.2
  0
LINE
  8
0
  6
CONTINUOUS
 62
     2
 10
264.4
 20
241.2
 11
423.6
 21
241.2
  0
LINE
  8
0
  6
CONTINUOUS
 62
     2
 10
423.6
 20
241.2
 11
415.87259339
 21
243.270552361
  0
LINE
  8
0
  6
CONTINUOUS
 62
     2
 10
423.6
 20
241.2
 11
415.87259339
 21
239.129447639
  0
TEXT
  8
2
  6
CONTINUOUS
 62
     2
 10
86.3
 20
477.4
 30
0.0
 40
15.0
  1
手動軸□１０
 50
0.0
 41
0.9
 51
0.0
  7
KANJI39
  0
LINE
  8
7
  6
CONTINUOUS
 62
     2
 10
1036.0
 20
606.500007629
 11
1036.0
 21
826.088190451
  0
LINE
  8
0
  6
CONTINUOUS
 62
     2
 10
1054.0
 20
618.5
 11
1054.0
 21
826.088190451
  0
LINE
  8
0
  6
CONTINUOUS
 62
     1
 10
917.0
 20
216.6
 11
917.0
 21
199.6
  0
TEXT
  8
0
  6
CONTINUOUS
 62
     2
 10
1596.05
 20
1278.75
 30
138.5
 40
17.5
  1
形式
 50
0.0
 41
0.9
 51
0.0
  7
KANJI46
  0
TEXT
  8
0
  6
CONTINUOUS
 62
     2
 10
1596.05
 20
1243.75
 30
138.5
 40
17.5
  1
推力
 50
0.0
 41
0.9
 51
0.0
  7
KANJI46
  0
TEXT
  8
0
  6
CONTINUOUS
 62
     2
 10
1596.05
 20
1103.75
 30
138.5
 40
17.5
  1
構造
 50
0.0
 41
0.9
 51
0.0
  7
KANJI46
  0
TEXT
  8
0
  6
CONTINUOUS
 62
     2
 10
1596.05
 20
683.75
 30
138.5
 40
17.5
  1
台数
 50
0.0
 41
0.9
 51
0.0
  7
KANJI46
  0
TEXT
  8
0
  6
CONTINUOUS
 62
     2
 10
1596.05
 20
718.75
 30
61.375
 40
17.5
  1
付属品
 50
0.0
 41
0.9
 51
0.0
  7
KANJI47
  0
TEXT
  8
0
  6
CONTINUOUS
 62
     2
 10
1596.05
 20
1033.75
 30
61.375
 40
17.5
  1
塗装色
 50
0.0
 41
0.9
 51
0.0
  7
KANJI47
  0
TEXT
  8
0
  6
CONTINUOUS
 62
     2
 10
1596.05
 20
1208.75
 30
22.8125
 40
17.5
  1
ストローク
 50
0.0
 41
0.9
 51
0.0
  7
KANJI48
  0
TEXT
  8
0
  6
CONTINUOUS
 62
     2
 10
1596.05
 20
1068.75
 30
9.958
 40
17.5
  1
過負荷安全装置
 50
0.0
 41
0.9
 51
0.0
  7
KANJI49
  0
TEXT
  8
0
  6
CONTINUOUS
 62
     2
 10
1621.05
 20
1318.25
 30
14.2497
 40
22.5
  1
マイティシリンダ仕様
 50
0.0
 41
0.9
 51
0.0
  7
KANJI50
  0
TEXT
  8
0
  6
CONTINUOUS
 62
     2
 10
1621.05
 20
998.75
 30
15.3125
 40
17.5
  1
出力　極数
 50
0.0
 41
0.9
 51
0.0
  7
KANJI51
  0
TEXT
  8
0
  6
CONTINUOUS
 62
     2
 10
1621.05
 20
963.75
 30
25.6665
 40
17.5
  1
電源電圧
 50
0.0
 41
0.9
 51
0.0
  7
KANJI52
  0
TEXT
  8
0
  6
CONTINUOUS
 62
     2
 10
1621.05
 20
928.75
 30
46.375
 40
17.5
  1
周波数
 50
0.0
 41
0.9
 51
0.0
  7
KANJI53
  0
TEXT
  8
0
  6
CONTINUOUS
 62
     2
 10
1621.05
 20
858.75
 30
46.375
 40
17.5
  1
絶縁級
 50
0.0
 41
0.9
 51
0.0
  7
KANJI53
  0
TEXT
  8
0
  6
CONTINUOUS
 62
     2
 10
1621.05
 20
893.75
 30
108.5
 40
17.5
  1
電流
 50
0.0
 41
0.9
 51
0.0
  7
KANJI54
  0
TEXT
  8
0
  6
CONTINUOUS
 62
     2
 10
1621.05
 20
788.75
 30
108.5
 40
17.5
  1
形式
 50
0.0
 41
0.9
 51
0.0
  7
KANJI54
  0
TEXT
  8
0
  6
CONTINUOUS
 62
     2
 10
1621.05
 20
753.75
 30
25.6665
 40
17.5
  1
操作方式
 50
0.0
 41
0.9
 51
0.0
  7
KANJI52
  0
TEXT
  8
0
  6
CONTINUOUS
 62
     2
 10
1581.05
 20
1138.75
 30
1.5
 40
17.5
  1
ピストンロッド回転トルク
 50
0.0
 41
0.9
 51
0.0
  7
KANJI55
  0
TEXT
  8
0
  6
CONTINUOUS
 62
     2
 10
1578.925
 20
1002.25
 30
11.0
 40
17.5
  1
モ　トル仕様
 50
0.0
 41
0.9
 51
0.0
  7
KANJI56
  0
TEXT
  8
0
  6
CONTINUOUS
 62
     2
 10
1577.8
 20
812.25
 30
0.857142857
 40
15.0
  1
ブレ　キ
 50
0.0
 41
0.9
 51
0.0
  7
KANJI57
  0
LINE
  8
0
  6
CONTINUOUS
 62
     2
 10
1577.55
 20
777.75
 11
1577.55
 21
767.25
  0
LINE
  8
0
  6
CONTINUOUS
 62
     2
 10
1577.55
 20
974.25
 11
1577.55
 21
962.75
  0
TEXT
  8
0
  6
CONTINUOUS
 62
     2
 10
1933.55
 20
1177.25
 30
0.1
 40
12.5
  1
ｍｍ／ｓｅｃ
 50
0.0
 41
0.8
 51
0.0
  7
KANJI58
  0
TEXT
  8
0
  6
CONTINUOUS
 62
     2
 10
1971.05
 20
1210.75
 30
0.1
 40
12.5
  1
ｍｍ
 50
0.0
 41
0.8
 51
0.0
  7
KANJI58
  0
TEXT
  8
0
  6
CONTINUOUS
 62
     2
 10
1845.55
 20
1068.75
 30
7.1
 40
17.5
  1
推力リミッタ
 50
0.0
 41
0.9
 51
0.0
  7
KANJI59
  0
TEXT
  8
0
  6
CONTINUOUS
 62
     2
 10
1978.05
 20
998.75
 30
10.982142857
 40
15.0
  1
Ｐ
 50
0.0
 41
0.9
 51
0.0
  7
KANJI60
  0
TEXT
  8
0
  6
CONTINUOUS
 62
     2
 10
1895.05
 20
998.75
 30
1.0
 40
15.0
  1
ＫＷ
 50
0.0
 41
0.857142857
 51
0.0
  7
KANJI61
  0
TEXT
  8
0
  6
CONTINUOUS
 62
     2
 10
1953.05
 20
998.75
 30
12.8125
 40
17.5
  1
４
 50
0.0
 41
0.9
 51
0.0
  7
KANJI62
  0
TEXT
  8
0
  6
CONTINUOUS
 62
     2
 10
1817.55
 20
1035.25
 30
0.5
 40
14.0
  1
マンセル
 50
0.0
 41
0.9
 51
0.0
  7
KANJI63
  0
TEXT
  8
0
  6
CONTINUOUS
 62
     2
 10
1876.05
 20
1036.25
 30
0.2
 40
14.0
  1
７．５ＧＹ５／４．５
 50
0.0
 41
0.785714286
 51
0.0
  7
KANJI64
  0
TEXT
  8
0
  6
CONTINUOUS
 62
     2
 10
1813.55
 20
789.25
 30
1.5
 40
14.0
  1
スプリング制動式電磁ブレーキ
 50
0.0
 41
0.8
 51
0.0
  7
KANJI65
  0
TEXT
  8
0
  6
CONTINUOUS
 62
     2
 10
1848.55
 20
753.75
 30
10.0
 40
17.5
  1
同時切り
 50
0.0
 41
0.9
 51
0.0
  7
KANJI66
  0
TEXT
  8
0
  6
CONTINUOUS
 62
     2
 10
1978.55
 20
963.75
 30
0.18
 40
15.0
  1
Ｖ
 50
0.0
 41
0.8
 51
0.0
  7
KANJI67
  0
TEXT
  8
0
  6
CONTINUOUS
 62
     2
 10
1969.55
 20
928.75
 30
0.18
 40
15.0
  1
Ｈｚ
 50
0.0
 41
0.8
 51
0.0
  7
KANJI67
  0
TEXT
  8
0
  6
CONTINUOUS
 62
     2
 10
1979.675
 20
894.875
 30
1.5
 40
15.0
  1
Ａ
 50
0.0
 41
0.9
 51
0.0
  7
KANJI68
  0
TEXT
  8
0
  6
CONTINUOUS
 62
     2
 10
1900.925
 20
861.125
 30
1.5
 40
15.0
  1
Ｅ
 50
0.0
 41
0.9
 51
0.0
  7
KANJI68
  0
LINE
  8
0
  6
CONTINUOUS
 62
     2
 10
1558.55
 20
744.75
 11
1996.05
 21
744.75
  0
LINE
  8
0
  6
CONTINUOUS
 62
     2
 10
1558.55
 20
1024.75
 11
1996.05
 21
1024.75
  0
LINE
  8
0
  6
CONTINUOUS
 62
     2
 10
1558.55
 20
814.75
 11
1996.05
 21
814.75
  0
LINE
  8
0
  6
CONTINUOUS
 62
     2
 10
1598.55
 20
779.75
 11
1996.05
 21
779.75
  0
LINE
  8
0
  6
CONTINUOUS
 62
     2
 10
1598.55
 20
849.75
 11
1996.05
 21
849.75
  0
LINE
  8
0
  6
CONTINUOUS
 62
     2
 10
1598.55
 20
884.75
 11
1996.05
 21
884.75
  0
LINE
  8
0
  6
CONTINUOUS
 62
     2
 10
1598.55
 20
954.75
 11
1996.05
 21
954.75
  0
LINE
  8
0
  6
CONTINUOUS
 62
     2
 10
1598.55
 20
919.75
 11
1996.05
 21
919.75
  0
LINE
  8
0
  6
CONTINUOUS
 62
     2
 10
1598.55
 20
989.75
 11
1996.05
 21
989.75
  0
LINE
  8
0
  6
CONTINUOUS
 62
     2
 10
1558.55
 20
1304.75
 11
1996.05
 21
1304.75
  0
LINE
  8
0
  6
CONTINUOUS
 62
     2
 10
1558.55
 20
1269.75
 11
1996.05
 21
1269.75
  0
LINE
  8
0
  6
CONTINUOUS
 62
     2
 10
1558.55
 20
1234.75
 11
1996.05
 21
1234.75
  0
LINE
  8
0
  6
CONTINUOUS
 62
     2
 10
1558.55
 20
1199.75
 11
1996.05
 21
1199.75
  0
LINE
  8
0
  6
CONTINUOUS
 62
     2
 10
1558.55
 20
1164.75
 11
1996.05
 21
1164.75
  0
LINE
  8
0
  6
CONTINUOUS
 62
     2
 10
1558.55
 20
1129.75
 11
1996.05
 21
1129.75
  0
LINE
  8
0
  6
CONTINUOUS
 62
     2
 10
1558.55
 20
1094.75
 11
1996.05
 21
1094.75
  0
LINE
  8
0
  6
CONTINUOUS
 62
     2
 10
1558.55
 20
1059.75
 11
1996.05
 21
1059.75
  0
LINE
  8
0
  6
CONTINUOUS
 62
     2
 10
1598.55
 20
1024.75
 11
1598.55
 21
744.75
  0
LINE
  8
0
  6
CONTINUOUS
 62
     1
 10
1558.55
 20
1354.75
 11
1996.05
 21
1354.75
  0
LINE
  8
0
  6
CONTINUOUS
 62
     2
 10
1558.55
 20
709.75
 11
1996.05
 21
709.75
  0
TEXT
  8
0
  6
CONTINUOUS
 62
     2
 10
1856.55
 20
964.25
 30
1.5
 40
15.0
  1
　　　／　
 50
0.0
 41
0.9
 51
0.0
  7
KANJI68
  0
TEXT
  8
0
  6
CONTINUOUS
 62
     2
 10
1870.925
 20
928.625
 30
1.5
 40
15.0
  1
　５０／６０
 50
0.0
 41
0.9
 51
0.0
  7
KANJI68
  0
TEXT
  8
0
  6
CONTINUOUS
 62
     2
 10
1845.55
 20
1104.25
 30
12.8125
 40
17.5
  1
全閉屋外形
 50
0.0
 41
0.9
 51
0.0
  7
KANJI62
  0
TEXT
  8
0
  6
CONTINUOUS
 62
     2
 10
1837.175
 20
999.875
 30
1.5
 40
15.0
  1
０．３
 50
0.0
 41
0.9
 51
0.0
  7
KANJI68
  0
TEXT
  8
0
  6
CONTINUOUS
 62
     2
 10
1838.05
 20
1243.75
 30
1.5
 40
15.0
  1
９８０Ｎ（１００ｋｇ）
 50
0.0
 41
0.9
 51
0.0
  7
KANJI68
  0
TEXT
  8
0
  6
CONTINUOUS
 62
     2
 10
1596.05
 20
1173.75
 30
5.0
 40
17.5
  1
公称速度（５０／６０Ｈｚ）
 50
0.0
 41
0.9
 51
0.0
  7
KANJI69
  0
TEXT
  8
0
  6
CONTINUOUS
 62
     2
 10
1825.925
 20
1173.625
 30
1.5
 40
15.0
  1
　７５／９０
 50
0.0
 41
0.9
 51
0.0
  7
KANJI68
  0
TEXT
  8
0
  6
CONTINUOUS
 62
     2
 10
1816.675
 20
1138.625
 30
0.0
 40
15.0
  1
２．９Ｎ・ｍ（０．３ｋｇ・ｍ）
 50
0.0
 41
0.833333333
 51
0.0
  7
KANJI70
  0
TEXT
  8
0
  6
CONTINUOUS
 62
     2
 10
1596.05
 20
683.75
 30
138.5
 40
17.5
  1
台数
 50
0.0
 41
0.9
 51
0.0
  7
KANJI46
  0
LINE
  8
0
  6
CONTINUOUS
 62
     1
 10
1558.55
 20
639.75
 11
1996.05
 21
639.75
  0
LINE
  8
0
  6
CONTINUOUS
 62
     2
 10
1558.55
 20
674.75
 11
1996.05
 21
674.75
  0
TEXT
  8
0
  6
CONTINUOUS
 62
     2
 10
1596.05
 20
648.75
 30
5.0
 40
17.5
  1
概算重量（１台当り）
 50
0.0
 41
0.857142857
 51
0.0
  7
KANJI11
  0
TEXT
  8
0
  6
CONTINUOUS
 62
     2
 10
1950.05
 20
649.9
 30
0.0
 40
17.5
  1
ｋｇ
 50
0.0
 41
0.9
 51
0.0
  7
KANJI71
  0
LINE
  8
0
  6
CONTINUOUS
 62
     2
 10
1808.55
 20
1304.75
 11
1808.55
 21
639.75
  0
LINE
  8
0
  6
CONTINUOUS
 62
     1
 10
1558.55
 20
1354.75
 11
1558.55
 21
639.75
  0
LINE
  8
0
  6
LTYPE6
 62
     2
 10
1154.683016023
 20
677.130274068
 11
1190.038355082
 21
712.485613127
  0
ARC
  8
0
  6
LTYPE1
 62
     1
 10
1172.926370977
 20
695.373629023
 40
16.0
 50
225.0
 51
99.340912304
  0
ARC
  8
0
  6
CONTINUOUS
 62
     1
 10
1172.926370977
 20
695.373629023
 40
16.0
 50
99.340912304
 51
170.659087696
  0
LINE
  8
0
  6
CONTINUOUS
 62
     1
 10
1158.305465137
 20
685.702470651
 11
1150.122177284
 21
677.519182798
  0
LINE
  8
0
  6
CONTINUOUS
 62
     1
 10
1152.972701496
 20
692.390522289
 11
1118.125595435
 21
657.543416229
  0
LINE
  8
0
  6
CONTINUOUS
 62
     1
 10
1157.392118878
 20
685.496231173
 11
1149.768623894
 21
677.872736188
  0
LINE
  8
0
  6
LTYPE3
 62
     2
 10
1149.450425842
 20
690.56530291
 11
1163.026876041
 21
676.988852712
  0
LINE
  8
0
  6
LTYPE1
 62
     2
 10
1162.496545955
 20
689.893551468
 11
1167.446293423
 21
684.943804
  0
LINE
  8
0
  6
LTYPE1
 62
     2
 10
1167.446293423
 20
684.943804
 11
1162.120895477
 21
679.618406054
  0
ARC
  8
0
  6
LTYPE1
 62
     1
 10
1172.926370977
 20
695.373629023
 40
16.0
 50
170.659087696
 51
225.0
  0
LINE
  8
0
  6
LTYPE1
 62
     2
 10
1162.496545955
 20
689.893551468
 11
1158.305465137
 21
685.702470651
  0
LINE
  8
0
  6
LTYPE1
 62
     1
 10
1153.834487885
 20
693.252308679
 11
1152.972701496
 21
692.390522289
  0
LINE
  8
0
  6
LTYPE1
 62
     1
 10
1159.491342135
 20
687.59545443
 11
1157.392118878
 21
685.496231173
  0
LINE
  8
0
  6
LTYPE6
 62
     2
 10
1160.339870272
 20
707.960129728
 11
1275.044043872
 21
593.255956128
  0
LINE
  8
0
  6
CONTINUOUS
 62
     1
 10
1154.541594667
 20
695.373629023
 11
1230.202020254
 21
585.772077939
  0
LINE
  8
0
  6
CONTINUOUS
 62
     1
 10
1154.541594667
 20
695.373629023
 11
1172.926370977
 21
713.758405333
  0
LINE
  8
0
  6
LTYPE1
 62
     1
 10
1153.834487885
 20
693.252308679
 11
1160.846630132
 21
686.240166432
  0
LINE
  8
0
  6
CONTINUOUS
 62
     2
 10
1118.125595435
 20
665.543416229
 11
1118.125595435
 21
790.072652293
  0
LINE
  8
0
  6
CONTINUOUS
 62
     1
 10
1225.959379566
 20
696.080735804
 11
1226.666486348
 21
695.373629023
  0
LINE
  8
0
  6
CONTINUOUS
 62
     1
 10
1254.243650814
 20
724.365007051
 11
1225.959379566
 21
696.080735804
  0
LINE
  8
0
  6
CONTINUOUS
 62
     1
 10
1236.212427894
 20
724.718560442
 11
1245.404816049
 21
715.526172286
  0
LINE
  8
0
  6
CONTINUOUS
 62
     1
 10
1225.605826176
 20
714.111958724
 11
1234.798214331
 21
704.919570569
  0
LINE
  8
0
  6
CONTINUOUS
 62
     1
 10
1223.838059223
 20
698.202056147
 11
1232.676893988
 21
707.040890912
  0
LINE
  8
2
  6
CONTINUOUS
 62
     2
 10
1253.3
 20
706.8
 11
1254.398851058
 21
716.73944296
  0
LINE
  8
2
  6
CONTINUOUS
 62
     2
 10
1253.3
 20
706.8
 11
1249.281911451
 21
715.957235632
  0
LINE
  8
2
  6
CONTINUOUS
 62
     2
 10
1269.8
 20
741.239142961
 11
1269.8
 21
773.072652293
  0
CIRCLE
  8
0
  6
CONTINUOUS
 62
     1
 10
1172.926370977
 20
695.373629023
 40
6.49995
  0
LINE
  8
0
  6
CONTINUOUS
 62
     1
 10
1174.872979378
 20
702.619338067
 11
1167.627270333
 21
700.672729667
  0
CIRCLE
  8
0
  6
LTYPE1
 62
     2
 10
1172.926370977
 20
695.373629023
 40
3.2
  0
CIRCLE
  8
0
  6
CONTINUOUS
 62
     1
 10
1172.926370977
 20
695.373629023
 40
4.0
  0
LINE
  8
0
  6
CONTINUOUS
 62
     1
 10
1180.172080022
 20
697.320237423
 11
1178.225471622
 21
690.074528378
  0
LINE
  8
0
  6
CONTINUOUS
 62
     1
 10
1180.172080022
 20
697.320237423
 11
1174.872979378
 21
702.619338067
  0
LINE
  8
0
  6
LTYPE1
 62
     1
 10
1175.047691321
 20
714.465512115
 11
1175.909477711
 21
715.327298504
  0
LINE
  8
0
  6
CONTINUOUS
 62
     1
 10
1190.780817202
 20
718.177822716
 11
1195.730564671
 21
713.228075248
  0
LINE
  8
0
  6
LTYPE3
 62
     2
 10
1176.037640815
 20
720.546630433
 11
1191.311147288
 21
705.273123959
  0
LINE
  8
0
  6
CONTINUOUS
 62
     1
 10
1190.356553134
 20
718.602086785
 11
1198.3822151
 21
723.65790027
  0
LINE
  8
0
  6
LTYPE1
 62
     2
 10
1178.406448532
 20
705.803454045
 11
1183.356196
 21
700.853706577
  0
LINE
  8
0
  6
LTYPE1
 62
     2
 10
1188.681593946
 20
706.179104523
 11
1183.356196
 21
700.853706577
  0
LINE
  8
0
  6
CONTINUOUS
 62
     1
 10
1182.803768827
 20
710.907881122
 11
1190.427263812
 21
718.531376106
  0
LINE
  8
0
  6
CONTINUOUS
 62
     1
 10
1175.909477711
 20
715.327298504
 11
1210.756583771
 21
750.174404565
  0
LINE
  8
0
  6
LTYPE1
 62
     1
 10
1180.70454557
 20
708.808657865
 11
1182.803768827
 21
710.907881122
  0
LINE
  8
0
  6
CONTINUOUS
 62
     1
 10
1170.979762577
 20
688.127919978
 11
1165.680661933
 21
693.427020622
  0
LINE
  8
0
  6
CONTINUOUS
 62
     1
 10
1165.680661933
 20
693.427020622
 11
1167.627270333
 21
700.672729667
  0
LINE
  8
0
  6
CONTINUOUS
 62
     1
 10
1170.979762577
 20
688.127919978
 11
1178.225471622
 21
690.074528378
  0
LINE
  8
0
  6
CONTINUOUS
 62
     1
 10
1260.254058454
 20
724.718560442
 11
1264.496699141
 21
720.475919755
  0
LINE
  8
0
  6
LTYPE3
 62
     2
 10
1223.484505832
 20
748.194505577
 11
1256.718524548
 21
714.960486861
  0
LINE
  8
0
  6
CONTINUOUS
 62
     1
 10
1257.072077939
 20
721.536579926
 11
1228.787806691
 21
749.820851174
  0
LINE
  8
0
  6
LTYPE3
 62
     2
 10
1201.493484937
 20
748.83090168
 11
1242.505678246
 21
707.818708371
  0
CIRCLE
  8
0
  6
CONTINUOUS
 62
     1
 10
1227.656435841
 20
722.667950776
 40
9.36
  0
LINE
  8
0
  6
LTYPE3
 62
     2
 10
1236.848823997
 20
731.860338932
 11
1218.464047686
 21
713.475562621
  0
CIRCLE
  8
0
  6
CONTINUOUS
 62
     2
 10
1227.656435841
 20
722.667950776
 40
10.47
  0
LINE
  8
0
  6
LTYPE3
 62
     2
 10
1234.656792975
 20
694.312968851
 11
1201.422774259
 21
727.546987567
  0
LINE
  8
0
  6
CONTINUOUS
 62
     1
 10
1232.323340597
 20
746.285317268
 11
1204.03906935
 21
718.001046021
  0
LINE
  8
0
  6
CONTINUOUS
 62
     1
 10
1228.737938583
 20
742.699915254
 11
1204.03906935
 21
718.001046021
  0
LINE
  8
0
  6
CONTINUOUS
 62
     1
 10
1228.787806691
 20
749.820851174
 11
1200.503535444
 21
721.536579926
  0
LINE
  8
0
  6
CONTINUOUS
 62
     1
 10
1210.756583771
 20
750.174404565
 11
1219.948971926
 21
740.982016409
  0
LINE
  8
0
  6
CONTINUOUS
 62
     1
 10
1200.149982053
 20
739.567802847
 11
1209.342370209
 21
730.375414691
  0
LINE
  8
0
  6
CONTINUOUS
 62
     1
 10
1200.503535444
 20
721.536579926
 11
1228.787806691
 21
693.252308679
  0
LINE
  8
0
  6
CONTINUOUS
 62
     1
 10
1198.3822151
 20
723.65790027
 11
1207.221049865
 21
732.496735035
  0
LINE
  8
0
  6
LTYPE1
 62
     1
 10
1175.047691321
 20
714.465512115
 11
1182.059833568
 21
707.453369868
  0
LINE
  8
0
  6
CONTINUOUS
 62
     1
 10
1195.730564671
 20
713.228075248
 11
1186.731146496
 21
704.228657072
  0
LINE
  8
0
  6
CONTINUOUS
 62
     1
 10
1190.780817202
 20
718.177822716
 11
1181.058098961
 21
708.455104475
  0
LINE
  8
0
  6
LTYPE1
 62
     2
 10
1182.597529349
 20
709.994534863
 11
1181.058098961
 21
708.455104475
  0
LINE
  8
0
  6
CONTINUOUS
 62
     1
 10
1264.496699141
 20
720.475919755
 11
1223.12555468
 21
679.104775294
  0
LINE
  8
0
  6
CONTINUOUS
 62
     1
 10
1218.10563631
 20
682.570138298
 11
1260.254058454
 21
724.718560442
  0
LINE
  8
0
  6
CONTINUOUS
 62
     2
 10
1269.8
 20
745.239142961
 11
1269.8
 21
790.072652293
  0
ARC
  8
0
  6
CONTINUOUS
 62
     1
 10
1303.8
 20
721.5
 40
2.0
 50
0.0
 51
90.0
  0
ARC
  8
0
  6
CONTINUOUS
 62
     1
 10
1311.8
 20
719.520045888
 40
2.0
 50
0.0
 51
90.0
  0
LINE
  8
0
  6
CONTINUOUS
 62
     1
 10
1305.799899538
 20
721.520045888
 11
1311.8
 21
721.520045888
  0
LINE
  8
0
  6
LTYPE6
 62
     2
 10
1269.8
 20
737.239142961
 11
1269.8
 21
530.0
  0
LINE
  8
0
  6
CONTINUOUS
 62
     2
 10
1269.8
 20
786.072652293
 11
1118.125595435
 21
786.072652293
  0
LINE
  8
0
  6
CONTINUOUS
 62
     2
 10
1118.125595435
 20
786.072652293
 11
1128.99290757
 21
783.363127062
  0
LINE
  8
0
  6
CONTINUOUS
 62
     2
 10
1118.125595435
 20
786.072652293
 11
1128.99290757
 21
788.782177523
  0
LINE
  8
0
  6
CONTINUOUS
 62
     2
 10
1269.8
 20
786.072652293
 11
1258.932687866
 21
788.782177523
  0
LINE
  8
0
  6
CONTINUOUS
 62
     2
 10
1269.8
 20
786.072652293
 11
1258.932687866
 21
783.363127062
  0
TEXT
  8
0
  6
CONTINUOUS
 62
     2
 10
1176.562797718
 20
790.072652293
 30
0.0
 40
15.0
  1
１５２
 50
0.0
 41
0.9
 51
0.0
  7
KANJI39
  0
LINE
  8
0
  6
CONTINUOUS
 62
     1
 10
1150.122177284
 20
677.519182798
 11
1155.071924752
 21
672.569435329
  0
LINE
  8
0
  6
CONTINUOUS
 62
     1
 10
1149.697913215
 20
677.943446866
 11
1144.64209973
 21
669.9177849
  0
LINE
  8
0
  6
CONTINUOUS
 62
     1
 10
1143.581439558
 20
608.045941546
 11
1147.824080245
 21
603.803300859
  0
LINE
  8
0
  6
LTYPE3
 62
     2
 10
1152.632406357
 20
612.288582233
 11
1119.398387642
 21
645.522600949
  0
LINE
  8
0
  6
LTYPE3
 62
     2
 10
1141.460119215
 20
666.17011896
 11
1174.69413793
 21
632.936100244
  0
LINE
  8
0
  6
CONTINUOUS
 62
     1
 10
1175.047691321
 20
639.512193309
 11
1146.763420074
 21
611.227922061
  0
LINE
  8
0
  6
CONTINUOUS
 62
     1
 10
1146.763420074
 20
611.227922061
 11
1146.834130752
 21
611.157211383
  0
LINE
  8
0
  6
CONTINUOUS
 62
     1
 10
1118.479148826
 20
639.512193309
 11
1146.763420074
 21
611.227922061
  0
LINE
  8
0
  6
CONTINUOUS
 62
     1
 10
1175.047691321
 20
639.512193309
 11
1146.763420074
 21
667.796464556
  0
LINE
  8
0
  6
LTYPE3
 62
     2
 10
1120.883311882
 20
665.3923015
 11
1161.895505191
 21
624.380108191
  0
LINE
  8
0
  6
CONTINUOUS
 62
     1
 10
1144.64209973
 20
669.9177849
 11
1135.803264965
 21
661.078950135
  0
LINE
  8
0
  6
CONTINUOUS
 62
     1
 10
1135.803264965
 20
661.078950135
 11
1125.196663247
 21
650.472348417
  0
ARC
  8
0
  6
CONTINUOUS
 62
     1
 10
1136.510371746
 20
634.633156519
 40
2.0
 50
135.0
 51
225.0
  0
LINE
  8
0
  6
CONTINUOUS
 62
     1
 10
1150.228243301
 20
651.179455198
 11
1135.096158184
 21
636.047370081
  0
ARC
  8
0
  6
CONTINUOUS
 62
     1
 10
1151.642456864
 20
649.765241636
 40
2.0
 50
45.0
 51
135.0
  0
LINE
  8
0
  6
CONTINUOUS
 62
     1
 10
1135.096158184
 20
633.218942956
 11
1150.228243301
 21
618.086857839
  0
ARC
  8
0
  6
CONTINUOUS
 62
     1
 10
1151.642456864
 20
619.501071401
 40
2.0
 50
225.0
 51
315.0
  0
LINE
  8
0
  6
LTYPE3
 62
     2
 10
1141.672251249
 20
624.662950904
 11
1161.754083835
 21
644.74478349
  0
LINE
  8
0
  6
CONTINUOUS
 62
     1
 10
1128.732197153
 20
668.150017947
 11
1147.965501602
 21
648.916713499
  0
LINE
  8
0
  6
CONTINUOUS
 62
     1
 10
1130.853517497
 20
644.815494168
 11
1122.014682732
 21
635.976659403
  0
LINE
  8
0
  6
CONTINUOUS
 62
     1
 10
1150.298953979
 20
664.26093065
 11
1141.389408537
 21
655.351385207
  0
LINE
  8
0
  6
CONTINUOUS
 62
     1
 10
1127.247272913
 20
648.280317396
 11
1118.479148826
 21
639.512193309
  0
LINE
  8
0
  6
CONTINUOUS
 62
     1
 10
1146.763420074
 20
667.796464556
 11
1137.924585309
 21
658.957629791
  0
LINE
  8
0
  6
CONTINUOUS
 62
     1
 10
1118.125595435
 20
657.543416229
 11
1137.358899884
 21
638.310111781
  0
LINE
  8
0
  6
CONTINUOUS
 62
     1
 10
1162.120895477
 20
679.618406054
 11
1155.071924752
 21
672.569435329
  0
LINE
  8
0
  6
CONTINUOUS
 62
     1
 10
1153.056670426
 20
651.179455198
 11
1168.188755543
 21
636.047370081
  0
LINE
  8
0
  6
CONTINUOUS
 62
     1
 10
1168.188755543
 20
633.218942956
 11
1153.056670426
 21
618.086857839
  0
LINE
  8
0
  6
CONTINUOUS
 62
     1
 10
1189.195224706
 20
645.17444532
 11
1147.824080245
 21
603.803300859
  0
LINE
  8
0
  6
CONTINUOUS
 62
     1
 10
1143.581439558
 20
608.045941546
 11
1185.729861702
 21
650.19436369
  0
LINE
  8
0
  6
CONTINUOUS
 62
     1
 10
1238.8
 20
606.5
 11
1238.8
 21
590.5
  0
LINE
  8
0
  6
CONTINUOUS
 62
     1
 10
1261.8
 20
618.5
 11
1261.8
 21
578.5
  0
LINE
  8
0
  6
CONTINUOUS
 62
     1
 10
1249.8
 20
618.5
 11
1249.8
 21
578.5
  0
LINE
  8
0
  6
CONTINUOUS
 62
     1
 10
1249.8
 20
618.5
 11
1269.8
 21
618.5
  0
LINE
  8
0
  6
CONTINUOUS
 62
     1
 10
1261.8
 20
606.5
 11
1269.8
 21
606.5
  0
LINE
  8
0
  6
CONTINUOUS
 62
     1
 10
1246.8
 20
583.5
 11
1246.8
 21
613.5
  0
LINE
  8
0
  6
CONTINUOUS
 62
     1
 10
1249.8
 20
613.5
 11
1246.8
 21
613.5
  0
LINE
  8
0
  6
LTYPE2
 62
     2
 10
1244.15
 20
594.1
 11
1244.15
 21
602.5
  0
CIRCLE
  8
0
  6
CONTINUOUS
 62
     1
 10
1244.15
 20
598.5
 40
2.0
  0
LINE
  8
0
  6
CONTINUOUS
 62
     1
 10
1289.8
 20
613.5
 11
1292.8
 21
613.5
  0
LINE
  8
0
  6
CONTINUOUS
 62
     1
 10
1238.8
 20
606.5
 11
1246.8
 21
606.5
  0
LINE
  8
0
  6
LTYPE1
 62
     2
 10
1261.8
 20
606.5
 11
1246.8
 21
606.5
  0
LINE
  8
0
  6
LTYPE1
 62
     2
 10
1231.8
 20
606.5
 11
1209.8
 21
606.5
  0
LINE
  8
0
  6
LTYPE1
 62
     2
 10
1231.8
 20
590.5
 11
1231.8
 21
606.5
  0
LINE
  8
0
  6
CONTINUOUS
 62
     2
 10
1211.8
 20
649.5
 11
1225.8
 21
649.5
  0
LINE
  8
0
  6
CONTINUOUS
 62
     2
 10
1218.8
 20
656.5
 11
1218.8
 21
642.5
  0
LINE
  8
0
  6
LTYPE1
 62
     1
 10
1231.8
 20
622.588309077
 11
1213.77747451
 21
619.239142961
  0
LINE
  8
0
  6
LTYPE1
 62
     1
 10
1213.77747451
 20
619.239142961
 11
1209.8
 21
618.5
  0
LINE
  8
0
  6
LTYPE6
 62
     2
 10
1300.347012947
 20
629.047012947
 11
1225.252272785
 21
553.952272785
  0
ARC
  8
0
  6
CONTINUOUS
 62
     1
 10
1166.774541981
 20
634.633156519
 40
2.0
 50
315.0
 51
45.0
  0
LINE
  8
0
  6
LTYPE6
 62
     2
 10
1300.347012947
 20
629.047012947
 11
1225.252272785
 21
553.952272785
  0
LINE
  8
0
  6
CONTINUOUS
 62
     2
 10
1327.8
 20
649.5
 11
1313.8
 21
649.5
  0
LINE
  8
0
  6
LTYPE1
 62
     2
 10
1307.8
 20
606.5
 11
1329.8
 21
606.5
  0
LINE
  8
0
  6
LTYPE1
 62
     2
 10
1307.8
 20
590.5
 11
1307.8
 21
606.5
  0
LINE
  8
0
  6
CONTINUOUS
 62
     1
 10
1292.8
 20
613.5
 11
1292.8
 21
583.5
  0
LINE
  8
0
  6
CONTINUOUS
 62
     1
 10
1314.347727215
 20
606.278174593
 11
1262.021825407
 21
553.952272785
  0
LINE
  8
0
  6
CONTINUOUS
 62
     1
 10
1300.8
 20
606.5
 11
1300.8
 21
590.5
  0
LINE
  8
0
  6
CONTINUOUS
 62
     1
 10
1289.8
 20
618.5
 11
1289.8
 21
578.5
  0
LINE
  8
0
  6
LTYPE2
 62
     2
 10
1295.45
 20
602.9
 11
1295.45
 21
594.5
  0
LINE
  8
0
  6
CONTINUOUS
 62
     1
 10
1300.8
 20
606.5
 11
1292.8
 21
606.5
  0
LINE
  8
0
  6
LTYPE1
 62
     2
 10
1277.8
 20
606.5
 11
1292.8
 21
606.5
  0
LINE
  8
0
  6
CONTINUOUS
 62
     1
 10
1277.8
 20
618.5
 11
1277.8
 21
578.5
  0
CIRCLE
  8
0
  6
CONTINUOUS
 62
     1
 10
1295.45
 20
598.5
 40
2.0
  0
LINE
  8
0
  6
CONTINUOUS
 62
     1
 10
1289.8
 20
618.5
 11
1269.8
 21
618.5
  0
LINE
  8
0
  6
CONTINUOUS
 62
     1
 10
1277.8
 20
606.5
 11
1269.8
 21
606.5
  0
LINE
  8
0
  6
LTYPE6
 62
     2
 10
1332.260039412
 20
598.5
 11
1206.8
 21
598.5
  0
LINE
  8
0
  6
CONTINUOUS
 62
     1
 10
1314.047895493
 20
621.42724872
 11
1329.8
 21
618.5
  0
CIRCLE
  8
0
  6
LTYPE1
 62
     2
 10
1269.8
 20
598.5
 40
32.25
  0
LINE
  8
0
  6
CONTINUOUS
 62
     1
 10
1249.8
 20
578.5
 11
1269.8
 21
578.5
  0
LINE
  8
0
  6
CONTINUOUS
 62
     1
 10
1261.8
 20
590.5
 11
1269.8
 21
590.5
  0
LINE
  8
0
  6
CONTINUOUS
 62
     1
 10
1249.8
 20
583.5
 11
1246.8
 21
583.5
  0
LINE
  8
0
  6
CONTINUOUS
 62
     1
 10
1238.8
 20
590.5
 11
1246.8
 21
590.5
  0
LINE
  8
0
  6
LTYPE1
 62
     2
 10
1261.8
 20
590.5
 11
1246.8
 21
590.5
  0
LINE
  8
0
  6
LTYPE1
 62
     2
 10
1231.8
 20
590.5
 11
1209.8
 21
590.5
  0
LINE
  8
0
  6
CONTINUOUS
 62
     2
 10
1320.8
 20
656.5
 11
1320.8
 21
642.5
  0
ARC
  8
0
  6
CONTINUOUS
 62
     1
 10
1320.8
 20
649.5
 40
10.0
 50
0.0
 51
30.0
  0
LINE
  8
0
  6
CONTINUOUS
 62
     1
 10
1330.8
 20
563.0
 11
1330.8
 21
649.5
  0
LINE
  8
0
  6
CONTINUOUS
 62
     1
 10
1329.8
 20
578.5
 11
1329.8
 21
618.5
  0
LINE
  8
0
  6
LTYPE1
 62
     2
 10
1307.8
 20
590.5
 11
1329.8
 21
590.5
  0
LINE
  8
0
  6
CONTINUOUS
 62
     2
 10
1329.8
 20
577.4
 11
1329.8
 21
492.5
  0
LINE
  8
0
  6
CONTINUOUS
 62
     1
 10
1289.8
 20
583.5
 11
1292.8
 21
583.5
  0
ARC
  8
0
  6
CONTINUOUS
 62
     1
 10
1269.8
 20
598.5
 40
57.0
 50
201.813245084
 51
338.186754916
  0
CIRCLE
  8
0
  6
CONTINUOUS
 62
     1
 10
1320.8
 20
547.5
 40
4.5
  0
LINE
  8
0
  6
CONTINUOUS
 62
     2
 10
1327.8
 20
547.5
 11
1313.8
 21
547.5
  0
LINE
  8
0
  6
CONTINUOUS
 62
     2
 10
1320.8
 20
540.5
 11
1320.8
 21
554.5
  0
LINE
  8
0
  6
CONTINUOUS
 62
     1
 10
1330.8
 20
547.5
 11
1330.8
 21
563.0
  0
ARC
  8
0
  6
CONTINUOUS
 62
     1
 10
1320.8
 20
547.5
 40
10.0
 50
270.0
 51
0.0
  0
LINE
  8
0
  6
CONTINUOUS
 62
     1
 10
1269.8
 20
537.5
 11
1320.8
 21
537.5
  0
LINE
  8
0
  6
CONTINUOUS
 62
     2
 10
1209.8
 20
576.6
 11
1209.8
 21
493.4
  0
CIRCLE
  8
0
  6
CONTINUOUS
 62
     1
 10
1218.8
 20
547.5
 40
4.5
  0
LINE
  8
0
  6
CONTINUOUS
 62
     2
 10
1211.8
 20
547.5
 11
1225.8
 21
547.5
  0
LINE
  8
0
  6
CONTINUOUS
 62
     2
 10
1218.8
 20
540.5
 11
1218.8
 21
554.5
  0
LINE
  8
0
  6
CONTINUOUS
 62
     1
 10
1208.8
 20
562.3
 11
1208.8
 21
547.5
  0
ARC
  8
0
  6
CONTINUOUS
 62
     1
 10
1218.8
 20
547.5
 40
10.0
 50
180.0
 51
270.0
  0
LINE
  8
0
  6
CONTINUOUS
 62
     1
 10
1218.8
 20
537.5
 11
1269.8
 21
537.5
  0
LINE
  8
0
  6
CONTINUOUS
 62
     1
 10
1289.8
 20
578.5
 11
1269.8
 21
578.5
  0
LINE
  8
0
  6
CONTINUOUS
 62
     1
 10
1277.8
 20
590.5
 11
1269.8
 21
590.5
  0
LINE
  8
0
  6
CONTINUOUS
 62
     1
 10
1300.8
 20
590.5
 11
1292.8
 21
590.5
  0
LINE
  8
0
  6
LTYPE1
 62
     2
 10
1277.8
 20
590.5
 11
1292.8
 21
590.5
  0
LINE
  8
0
  6
CONTINUOUS
 62
     1
 10
1311.315396986
 20
575.419232831
 11
1329.8
 21
578.5
  0
LINE
  8
0
  6
CONTINUOUS
 62
     1
 10
1225.189826945
 20
575.935028843
 11
1209.8
 21
578.5
  0
LINE
  8
0
  6
CONTINUOUS
 62
     2
 10
1209.8
 20
500.4
 11
1329.8
 21
500.4
  0
LINE
  8
0
  6
CONTINUOUS
 62
     2
 10
1329.8
 20
500.4
 11
1320.140741737
 21
502.988190451
  0
LINE
  8
0
  6
CONTINUOUS
 62
     2
 10
1329.8
 20
500.4
 11
1320.140741737
 21
497.811809549
  0
LINE
  8
0
  6
CONTINUOUS
 62
     2
 10
1209.8
 20
500.4
 11
1219.459258263
 21
497.811809549
  0
LINE
  8
0
  6
CONTINUOUS
 62
     2
 10
1209.8
 20
500.4
 11
1219.459258263
 21
502.988190451
  0
LINE
  8
0
  6
CONTINUOUS
 62
     1
 10
1242.576388924
 20
573.397709268
 11
1230.202020254
 21
585.772077939
  0
LINE
  8
0
  6
CONTINUOUS
 62
     1
 10
1246.819029611
 20
577.640349955
 11
1242.576388924
 21
573.397709268
  0
LINE
  8
0
  6
CONTINUOUS
 62
     1
 10
1248.940349955
 20
575.519029611
 11
1244.697709268
 21
571.276388924
  0
LINE
  8
0
  6
CONTINUOUS
 62
     1
 10
1262.021825407
 20
553.952272785
 11
1244.697709268
 21
571.276388924
  0
LINE
  8
0
  6
CONTINUOUS
 62
     1
 10
1314.347727215
 20
606.278174593
 11
1297.023611076
 21
623.602290732
  0
LINE
  8
0
  6
CONTINUOUS
 62
     1
 10
1297.023611076
 20
623.602290732
 11
1292.780970389
 21
619.359650045
  0
LINE
  8
0
  6
CONTINUOUS
 62
     1
 10
1294.902290732
 20
625.723611076
 11
1290.659650045
 21
621.480970389
  0
LINE
  8
0
  6
CONTINUOUS
 62
     1
 10
1294.902290732
 20
625.723611076
 11
1282.527922061
 21
638.097979746
  0
LINE
  8
0
  6
CONTINUOUS
 62
     1
 10
1181.411652352
 20
637.390872965
 11
1201.564195615
 21
617.238329701
  0
ARC
  8
0
  6
CONTINUOUS
 62
     1
 10
1202.978409178
 20
618.652543264
 40
2.0
 50
225.0
 51
315.0
  0
LINE
  8
0
  6
CONTINUOUS
 62
     1
 10
1206.513943084
 20
619.359650045
 11
1204.39262274
 21
617.238329701
  0
ARC
  8
0
  6
CONTINUOUS
 62
     1
 10
1215.706331239
 20
590.368272016
 40
2.0
 50
135.0
 51
225.0
  0
LINE
  8
0
  6
CONTINUOUS
 62
     1
 10
1214.292117677
 20
588.954058454
 11
1225.605826176
 21
577.640349955
  0
ARC
  8
0
  6
CONTINUOUS
 62
     1
 10
1227.020039738
 20
579.054563517
 40
2.0
 50
225.0
 51
315.0
  0
LINE
  8
0
  6
CONTINUOUS
 62
     1
 10
1230.909127035
 20
686.888347648
 11
1251.061670299
 21
666.735804385
  0
ARC
  8
0
  6
CONTINUOUS
 62
     1
 10
1249.647456736
 20
665.321590822
 40
2.0
 50
315.0
 51
45.0
  0
LINE
  8
0
  6
CONTINUOUS
 62
     1
 10
1248.940349955
 20
661.786056916
 11
1251.061670299
 21
663.90737726
  0
ARC
  8
0
  6
CONTINUOUS
 62
     1
 10
1277.931727984
 20
652.593668761
 40
2.0
 50
45.0
 51
135.0
  0
LINE
  8
0
  6
CONTINUOUS
 62
     1
 10
1279.345941546
 20
654.007882323
 11
1290.659650045
 21
642.694173824
  0
ARC
  8
0
  6
CONTINUOUS
 62
     1
 10
1289.245436483
 20
641.279960262
 40
2.0
 50
315.0
 51
45.0
  0
LINE
  8
0
  6
CONTINUOUS
 62
     1
 10
1220.982337765
 20
598.472705667
 11
1214.292117677
 21
591.782485579
  0
LINE
  8
0
  6
CONTINUOUS
 62
     1
 10
1269.596991924
 20
647.087359826
 11
1276.517514421
 21
654.007882323
  0
LINE
  8
0
  6
LTYPE1
 62
     1
 10
1209.8
 20
615.326406343
 11
1209.8
 21
618.5
  0
LINE
  8
0
  6
CONTINUOUS
 62
     1
 10
1208.8
 20
616.775004474
 11
1208.8
 21
562.3
  0
LINE
  8
0
  6
CONTINUOUS
 62
     1
 10
1209.8
 20
578.5
 11
1209.8
 21
615.326406343
  0
ARC
  8
0
  6
CONTINUOUS
 62
     1
 10
1269.8
 20
598.5
 40
47.5
 50
181.646196586
 51
63.239400847
  0
LINE
  8
0
  6
CONTINUOUS
 62
     1
 10
1282.527922061
 20
638.097979746
 11
1172.926370977
 21
713.758405333
  0
LINE
  8
0
  6
CONTINUOUS
 62
     1
 10
1154.541594667
 20
695.373629023
 11
1172.926370977
 21
713.758405333
  0
LINE
  8
0
  6
LTYPE1
 62
     2
 10
1285.709902577
 20
634.915999231
 11
1290.659650045
 21
639.865746699
  0
LINE
  8
0
  6
LTYPE1
 62
     2
 10
1233.384000769
 20
582.590097423
 11
1228.434253301
 21
577.640349955
  0
LINE
  8
0
  6
CONTINUOUS
 62
     2
 10
1208.8
 20
542.500007629
 11
1208.8
 21
435.7
  0
LINE
  8
0
  6
CONTINUOUS
 62
     2
 10
1208.8
 20
445.7
 11
1220.874072829
 21
442.464761936
  0
LINE
  8
0
  6
CONTINUOUS
 62
     2
 10
1208.8
 20
445.7
 11
1220.874072829
 21
448.935238064
  0
LINE
  8
0
  6
CONTINUOUS
 62
     2
 10
1208.8
 20
445.7
 11
1330.8
 21
445.7
  0
LINE
  8
0
  6
CONTINUOUS
 62
     2
 10
1330.8
 20
445.7
 11
1318.725927171
 21
448.935238064
  0
LINE
  8
0
  6
CONTINUOUS
 62
     2
 10
1330.8
 20
445.7
 11
1318.725927171
 21
442.464761936
  0
LINE
  8
0
  6
CONTINUOUS
 62
     2
 10
1330.8
 20
542.50001706
 11
1330.8
 21
435.7
  0
TEXT
  8
0
  6
CONTINUOUS
 62
     3
 10
1249.55
 20
450.7
 30
0.0
 40
15.0
  1
１２２
 50
0.0
 41
0.9
 51
0.0
  7
KANJI39
  0
TEXT
  8
2
  6
CONTINUOUS
 62
     2
 10
1114.919716322
 20
833.272652293
 30
0.0
 40
15.0
  1
２－ＰＦ１／２
 50
0.0
 41
0.9
 51
0.0
  7
KANJI39
  0
POLYLINE
  8
2
  6
CONTINUOUS
 62
     2
 66
     1
  0
VERTEX
  8
2
  6
CONTINUOUS
 62
     2
 10
1253.274649635
 20
706.570698219
  0
VERTEX
  8
2
  6
CONTINUOUS
 62
     2
 10
1227.010686222
 20
829.272652293
  0
VERTEX
  8
2
  6
CONTINUOUS
 62
     2
 10
1114.919716322
 20
829.272652293
  0
SEQEND
  0
TEXT
  8
0
  6
CONTINUOUS
 62
     2
 10
1233.881202688
 20
481.819799552
 30
1.2
 40
12.8
  1
トラニオン幅
 50
0.0
 41
0.84375
 51
0.0
  7
KANJI72
  0
ARC
  8
0
  6
LTYPE1
 62
     2
 10
1235.8
 20
721.5
 40
2.0
 50
90.0
 51
180.0
  0
ARC
  8
0
  6
LTYPE1
 62
     2
 10
1227.8
 20
719.520045888
 40
2.0
 50
90.0
 51
180.0
  0
LINE
  8
0
  6
LTYPE1
 62
     2
 10
1227.8
 20
721.520045888
 11
1233.800100462
 21
721.520045888
  0
LINE
  8
0
  6
LTYPE1
 62
     2
 10
1225.8
 20
714.111958724
 11
1225.8
 21
719.520045888
  0
LINE
  8
0
  6
LTYPE1
 62
     2
 10
1235.8
 20
723.5
 11
1253.378643763
 21
723.5
  0
LINE
  8
0
  6
CONTINUOUS
 62
     1
 10
1217.5
 20
695.5
 11
1228.1
 21
695.5
  0
LINE
  8
0
  6
CONTINUOUS
 62
     1
 10
1222.2
 20
699.5
 11
1223.4
 21
699.5
  0
LINE
  8
0
  6
LTYPE4
 62
     2
 10
1222.8
 20
702.9
 11
1222.8
 21
689.5
  0
LINE
  8
0
  6
LTYPE2
 62
     2
 10
1285.8
 20
671.0
 11
1254.8
 21
671.0
  0
CIRCLE
  8
0
  6
LTYPE1
 62
     2
 10
1269.8
 20
671.0
 40
11.0
  0
ARC
  8
0
  6
CONTINUOUS
 62
     1
 10
1319.8
 20
648.0
 40
3.0
 50
270.0
 51
0.0
  0
LINE
  8
0
  6
CONTINUOUS
 62
     1
 10
1314.8
 20
645.0
 11
1314.8
 21
621.287483461
  0
LINE
  8
0
  6
CONTINUOUS
 62
     1
 10
1322.8
 20
695.5
 11
1322.8
 21
648.0
  0
LINE
  8
0
  6
CONTINUOUS
 62
     1
 10
1311.5
 20
695.5
 11
1322.1
 21
695.5
  0
ARC
  8
0
  6
CONTINUOUS
 62
     1
 10
1316.4
 20
694.5
 40
5.0
 50
92.3
 51
168.5
  0
ARC
  8
0
  6
CONTINUOUS
 62
     1
 10
1317.2
 20
694.5
 40
5.0
 50
11.5
 51
87.7
  0
LINE
  8
0
  6
CONTINUOUS
 62
     1
 10
1316.2
 20
699.5
 11
1317.4
 21
699.5
  0
LINE
  8
0
  6
LTYPE4
 62
     2
 10
1316.8
 20
702.9
 11
1316.8
 21
689.5
  0
LINE
  8
0
  6
CONTINUOUS
 62
     1
 10
1305.8
 20
721.520045888
 11
1305.8
 21
695.5
  0
LINE
  8
0
  6
LTYPE1
 62
     2
 10
1233.8
 20
720.767046966
 11
1233.8
 21
695.5
  0
LINE
  8
0
  6
LTYPE1
 62
     2
 10
1225.8
 20
695.5
 11
1225.8
 21
714.111958724
  0
ARC
  8
0
  6
CONTINUOUS
 62
     1
 10
1320.8
 20
649.5
 40
10.0
 50
30.0
 51
76.961343417
  0
ARC
  8
0
  6
CONTINUOUS
 62
     1
 10
1269.8
 20
598.5
 40
57.0
 50
21.972132448
 51
37.353564915
  0
ARC
  8
0
  6
LTYPE1
 62
     1
 10
1269.8
 20
598.5
 40
57.0
 50
37.973568502
 51
158.027867552
  0
ARC
  8
0
  6
LTYPE1
 62
     2
 10
1218.8
 20
649.5
 40
10.0
 50
100.728859298
 51
180.0
  0
LINE
  8
0
  6
LTYPE1
 62
     2
 10
1208.8
 20
649.5
 11
1208.8
 21
616.775004474
  0
ARC
  8
0
  6
LTYPE1
 62
     2
 10
1219.8
 20
648.0
 40
3.0
 50
180.0
 51
270.0
  0
LINE
  8
0
  6
LTYPE1
 62
     2
 10
1260.104640285
 20
645.0
 11
1219.8
 21
645.0
  0
LINE
  8
0
  6
LTYPE1
 62
     2
 10
1224.8
 20
643.5
 11
1254.593093674
 21
643.5
  0
LINE
  8
0
  6
LTYPE1
 62
     2
 10
1224.8
 20
645.0
 11
1224.8
 21
621.287483461
  0
LINE
  8
0
  6
CONTINUOUS
 62
     1
 10
1290.0
 20
643.5
 11
1314.8
 21
643.5
  0
LINE
  8
0
  6
CONTINUOUS
 62
     1
 10
1319.8
 20
645.0
 11
1289.0
 21
645.0
  0
LINE
  8
0
  6
LTYPE1
 62
     2
 10
1285.006906326
 20
643.5
 11
1290.0
 21
643.5
  0
LINE
  8
0
  6
LTYPE1
 62
     2
 10
1289.0
 20
645.0
 11
1279.495359715
 21
645.0
  0
ARC
  8
0
  6
LTYPE1
 62
     2
 10
1269.8
 20
598.5
 40
47.5
 50
63.239400847
 51
181.576892564
  0
LINE
  8
0
  6
CONTINUOUS
 62
     1
 10
1216.8
 20
695.5
 11
1216.8
 21
683.471448524
  0
LINE
  8
0
  6
LTYPE1
 62
     2
 10
1216.8
 20
683.0
 11
1216.8
 21
648.0
  0
ARC
  8
0
  6
CONTINUOUS
 62
     1
 10
1222.4
 20
694.5
 40
5.0
 50
95.079607858
 51
168.5
  0
LINE
  8
0
  6
CONTINUOUS
 62
     1
 10
1226.0
 20
695.5
 11
1216.8
 21
695.5
  0
LINE
  8
0
  6
CONTINUOUS
 62
     1
 10
1322.8
 20
695.5
 11
1239.0
 21
695.5
  0
LINE
  8
0
  6
CONTINUOUS
 62
     1
 10
1224.0
 20
689.5
 11
1216.8
 21
689.5
  0
LINE
  8
0
  6
CONTINUOUS
 62
     1
 10
1322.8
 20
689.5
 11
1234.0
 21
689.5
  0
LINE
  8
0
  6
CONTINUOUS
 62
     1
 10
1224.0
 20
688.0
 11
1216.8
 21
688.0
  0
LINE
  8
0
  6
CONTINUOUS
 62
     1
 10
1322.8
 20
688.0
 11
1232.0
 21
688.0
  0
LINE
  8
0
  6
LTYPE1
 62
     2
 10
1234.0
 20
689.5
 11
1225.0
 21
689.5
  0
LINE
  8
0
  6
LTYPE1
 62
     2
 10
1232.0
 20
688.0
 11
1224.0
 21
688.0
  0
LINE
  8
0
  6
LTYPE1
 62
     2
 10
1239.0
 20
695.5
 11
1227.0
 21
695.5
  0
LINE
  8
0
  6
CONTINUOUS
 62
     1
 10
1259.0
 20
723.5
 11
1255.108657865
 21
723.5
  0
LINE
  8
0
  6
CONTINUOUS
 62
     1
 10
1303.8
 20
723.5
 11
1262.0
 21
723.5
  0
LINE
  8
0
  6
CONTINUOUS
 62
     1
 10
1313.8
 20
699.0
 11
1313.8
 21
719.520045888
  0
TEXT
  8
0
  6
CONTINUOUS
 62
     2
 10
1252.8
 20
504.4
 30
0.0
 40
15.0
  1
１２０
 50
0.0
 41
0.9
 51
0.0
  7
KANJI39
  0
LINE
  8
0
  6
CONTINUOUS
 62
     2
 10
1364.1
 20
598.5
 11
1393.3
 21
598.5
  0
LINE
  8
0
  6
CONTINUOUS
 62
     2
 10
1345.800026429
 20
537.5
 11
1399.3
 21
537.5
  0
TEXT
  8
0
  6
CONTINUOUS
 62
     3
 10
1384.3
 20
554.5
 30
0.0
 40
15.0
  1
６１
 50
90.0
 41
0.9
 51
0.0
  7
KANJI39
  0
LINE
  8
0
  6
CONTINUOUS
 62
     2
 10
1388.3
 20
598.5
 11
1399.3
 21
598.5
  0
LINE
  8
0
  6
CONTINUOUS
 62
     2
 10
1389.3
 20
598.5
 11
1386.064761936
 21
586.425927171
  0
LINE
  8
0
  6
CONTINUOUS
 62
     2
 10
1389.3
 20
598.5
 11
1392.535238064
 21
586.425927171
  0
LINE
  8
0
  6
CONTINUOUS
 62
     2
 10
1389.3
 20
598.5
 11
1389.3
 21
537.5
  0
LINE
  8
0
  6
CONTINUOUS
 62
     2
 10
1389.3
 20
537.5
 11
1392.535238064
 21
549.574072829
  0
LINE
  8
0
  6
CONTINUOUS
 62
     2
 10
1389.3
 20
537.5
 11
1386.064761936
 21
549.574072829
  0
LINE
  8
0
  6
CONTINUOUS
 62
     2
 10
1390.3
 20
598.5
 11
1399.3
 21
598.5
  0
LINE
  8
0
  6
CONTINUOUS
 62
     2
 10
1389.3
 20
598.5
 11
1392.535238064
 21
610.574072829
  0
LINE
  8
0
  6
CONTINUOUS
 62
     2
 10
1389.3
 20
598.5
 11
1386.064761936
 21
610.574072829
  0
LINE
  8
0
  6
CONTINUOUS
 62
     2
 10
1389.3
 20
598.5
 11
1389.3
 21
723.5
  0
LINE
  8
0
  6
CONTINUOUS
 62
     2
 10
1389.3
 20
723.5
 11
1386.064761936
 21
711.425927171
  0
LINE
  8
0
  6
CONTINUOUS
 62
     2
 10
1389.3
 20
723.5
 11
1392.535238064
 21
711.425927171
  0
TEXT
  8
0
  6
CONTINUOUS
 62
     3
 10
1384.3
 20
640.75
 30
0.0
 40
15.0
  1
１２５
 50
90.0
 41
0.9
 51
0.0
  7
KANJI39
  0
LINE
  8
0
  6
CONTINUOUS
 62
     2
 10
1334.8
 20
606.5
 11
1369.1
 21
606.5
  0
LINE
  8
0
  6
CONTINUOUS
 62
     2
 10
1364.1
 20
606.5
 11
1367.335238064
 21
618.574072829
  0
LINE
  8
0
  6
CONTINUOUS
 62
     2
 10
1364.1
 20
606.5
 11
1360.864761936
 21
618.574072829
  0
LINE
  8
0
  6
CONTINUOUS
 62
     2
 10
1364.1
 20
606.5
 11
1364.1
 21
590.5
  0
LINE
  8
0
  6
CONTINUOUS
 62
     2
 10
1364.1
 20
590.5
 11
1364.1
 21
571.75
  0
LINE
  8
0
  6
CONTINUOUS
 62
     2
 10
1364.1
 20
590.5
 11
1360.864761936
 21
578.425927171
  0
LINE
  8
0
  6
CONTINUOUS
 62
     2
 10
1364.1
 20
590.5
 11
1367.335238064
 21
578.425927171
  0
LINE
  8
0
  6
CONTINUOUS
 62
     2
 10
1334.8
 20
590.5
 11
1369.1
 21
590.5
  0
LINE
  8
7
  6
CONTINUOUS
 62
     2
 10
1333.8
 20
598.5
 11
1394.3
 21
598.5
  0
TEXT
  8
0
  6
CONTINUOUS
 62
     3
 10
1361.6
 20
625.25
 30
0.0
 40
15.0
  1
φ１６Ｈ１０深さ２２
 50
90.0
 41
0.9
 51
0.0
  7
KANJI39
  0
LINE
  8
0
  6
CONTINUOUS
 62
     2
 10
1364.1
 20
756.5
 11
1364.1
 21
606.5
  0
LINE
  8
0
  6
CONTINUOUS
 62
     2
 10
1363.8
 20
723.5
 11
1399.3
 21
723.5
  0
LINE
  8
0
  6
CONTINUOUS
 62
     2
 10
1328.8
 20
723.5
 11
1344.8
 21
723.5
  0
LINE
  8
0
  6
CONTINUOUS
 62
     2
 10
1436.05
 20
589.25
 11
1556.05
 21
589.25
  0
TEXT
  8
0
  6
CONTINUOUS
 62
     2
 10
1446.55
 20
596.25
 30
10.0
 40
20.0
  1
特記事項
 50
0.0
 41
0.9
 51
0.0
  7
KANJI73
  0
TEXT
  8
0
  6
CONTINUOUS
 62
     2
 10
1441.55
 20
446.5
 30
4.9875
 40
17.5
  1
　　ストローク７００ｍｍ以上の場合２ロッド方式となります。
 50
0.0
 41
0.857222222
 51
0.0
  7
KANJI74
  0
TEXT
  8
0
  6
CONTINUOUS
 62
     2
 10
1441.55
 20
496.5
 30
4.9875
 40
17.5
  1
３．ＬＳユニット
 50
0.0
 41
0.857222222
 51
0.0
  7
KANJI74
  0
TEXT
  8
0
  6
CONTINUOUS
 62
     2
 10
1441.55
 20
559.0
 30
5.0
 40
17.5
  1
１．運転時は必ずピストンロッドの回転防止を行って下さい。
 50
0.0
 41
0.857142857
 51
0.0
  7
KANJI75
  0
TEXT
  8
0
  6
CONTINUOUS
 62
     2
 10
1441.55
 20
471.5
 30
4.9875
 40
17.5
  1
　　リミットスイッチ：１ＬＳ１－Ｊｘ２ケ（山武）
 50
0.0
 41
0.857222222
 51
0.0
  7
KANJI74
  0
TEXT
  8
0
  6
CONTINUOUS
 62
     2
 10
1441.55
 20
527.75
 30
4.9875
 40
17.5
  1
２．モートル：全閉自冷かご形３０分定格
 50
0.0
 41
0.857222222
 51
0.0
  7
KANJI74
  0
TEXT
  8
0
  6
CONTINUOUS
 62
     2
 10
1441.55
 20
419.0
 30
4.9875
 40
17.5
  1
４．呼称ストロークは、機械的ストロークです。
 50
0.0
 41
0.857222222
 51
0.0
  7
KANJI74
  0
TEXT
  8
0
  6
CONTINUOUS
 62
     2
 10
1441.55
 20
388.2
 30
4.9875
 40
17.5
  1
　　必ず、常用はストローク両端に必ず余裕を取って下さい。
 50
0.0
 41
0.857222222
 51
0.0
  7
KANJI74
  0
TEXT
  8
0
  6
CONTINUOUS
 62
     2
 10
1441.55
 20
356.72
 30
4.9875
 40
17.5
  1
　　前後の推奨余裕寸法は、各々４０ｍｍです。
 50
0.0
 41
0.857222222
 51
0.0
  7
KANJI74
  0
TEXT
  8
0
  6
CONTINUOUS
 62
     2
 10
1365.7166945
 20
103.249995
 30
1.5
 40
17.5
  1
０７．１１．０７
 50
0.0
 41
0.571428571
 51
0.0
  7
KANJI76
  0
TEXT
  8
0
  6
CONTINUOUS
 62
     2
 10
855.05
 20
1190.6
 30
0.8
 40
12.0
  1
ＭＣＥＬＢＢ０１－　　１ＪＬ
 50
0.0
 41
0.833333333
 51
0.0
  7
KANJI77
  0
TEXT
  8
0
  6
CONTINUOUS
 62
     2
 10
855.05
 20
1162.6
 30
0.8
 40
12.0
  1
ＭＣＥＬＢＢ０１－　　２ＪＬ
 50
0.0
 41
0.833333333
 51
0.0
  7
KANJI77
  0
TEXT
  8
0
  6
CONTINUOUS
 62
     2
 10
855.05
 20
1134.6
 30
0.8
 40
12.0
  1
ＭＣＥＬＢＢ０１－　　３ＪＬ
 50
0.0
 41
0.833333333
 51
0.0
  7
KANJI77
  0
TEXT
  8
0
  6
CONTINUOUS
 62
     2
 10
855.05
 20
1106.6
 30
0.8
 40
12.0
  1
ＭＣＥＬＢＢ０１－　　４ＪＬ
 50
0.0
 41
0.833333333
 51
0.0
  7
KANJI77
  0
TEXT
  8
0
  6
CONTINUOUS
 62
     2
 10
855.05
 20
1078.6
 30
0.8
 40
12.0
  1
ＭＣＥＬＢＢ０１－　　５ＪＬ
 50
0.0
 41
0.833333333
 51
0.0
  7
KANJI77
  0
TEXT
  8
0
  6
CONTINUOUS
 62
     2
 10
855.05
 20
1050.6
 30
0.8
 40
12.0
  1
ＭＣＥＬＢＢ０１－　　６ＪＬ
 50
0.0
 41
0.833333333
 51
0.0
  7
KANJI77
  0
TEXT
  8
0
  6
CONTINUOUS
 62
     2
 10
855.05
 20
1022.6
 30
0.8
 40
12.0
  1
ＭＣＥＬＢＢ０１－　　７ＪＬ
 50
0.0
 41
0.833333333
 51
0.0
  7
KANJI77
  0
TEXT
  8
0
  6
CONTINUOUS
 62
     2
 10
855.05
 20
994.6
 30
0.8
 40
12.0
  1
ＭＣＥＬＢＢ０１－　　　ＪＬ
 50
0.0
 41
0.833333333
 51
0.0
  7
KANJI77
  0
TEXT
  8
0
  6
CONTINUOUS
 62
     2
 10
1814.55
 20
1277.875
 30
1.0
 40
15.0
  1
ＭＣＥＬＢＢ０１－　　ＪＬ
 50
0.0
 41
0.833333333
 51
0.0
  7
KANJI78
  0
TEXT
  8
0
  6
CONTINUOUS
 62
     2
 10
1897.050006
 20
128.66666125
 30
0.0
 40
15.0
  1
１
 50
0.0
 41
0.9
 51
0.0
  7
KANJI39
  0
POLYLINE
  8
0
  6
CONTINUOUS
 62
     4
 66
     1
  0
VERTEX
  8
0
  6
CONTINUOUS
 62
     4
 10
1000.46674325
 20
124.4166615
  0
VERTEX
  8
0
  6
CONTINUOUS
 62
     4
 10
986.383411
 20
102.7499965
  0
VERTEX
  8
0
  6
CONTINUOUS
 62
     4
 10
1014.5500755
 20
102.7499965
  0
SEQEND
  0
LINE
  8
0
  6
CONTINUOUS
 62
     4
 10
1000.46674325
 20
124.4166615
 11
1014.5500755
 21
102.7499965
  0
TEXT
  8
0
  6
CONTINUOUS
 62
     2
 10
993.8834085
 20
103.249997
 30
0.0
 40
15.0
  1
１
 50
0.0
 41
0.9
 51
0.0
  7
KANJI39
  0
TEXT
  8
0
  6
CONTINUOUS
 62
     2
 10
1019.8834085
 20
102.249997
 30
0.0
 40
15.0
  1
０８．０８．０６　岡田　形式変更
 50
0.0
 41
0.9
 51
0.0
  7
KANJI39
  0
TEXT
  8
0
  6
CONTINUOUS
 62
     2
 10
1381.2166945
 20
209.083323
 30
5.0
 40
17.5
  1
田口
 50
0.0
 41
0.857142857
 51
0.0
  7
KANJI11
  0
TEXT
  8
0
  6
CONTINUOUS
 62
     2
 10
1380.2166945
 20
174.416659
 30
5.0
 40
17.5
  1
竹下
 50
0.0
 41
0.857142857
 51
0.0
  7
KANJI11
  0
TEXT
  8
0
  6
CONTINUOUS
 62
     2
 10
1421.5500395
 20
174.916653
 30
0.0
 40
15.0
  1
’０７　１１／７
 50
0.0
 41
0.9
 51
0.0
  7
KANJI39
  0
TEXT
  8
0
  6
CONTINUOUS
 62
     2
 10
1431.5500395
 20
209.916653
 30
0.0
 40
15.0
  1
１１／１０
 50
0.0
 41
0.45
 51
0.0
  7
KANJI79
  0
TEXT
  8
0
  6
CONTINUOUS
 62
     2
 10
1529.55
 20
207.25
 30
0.0
 40
17.5
  1
ＭＣＥＬＢＢ０１－ＪＬ
 50
0.0
 41
0.793650794
 51
0.0
  7
KANJI80
  0
LINE
  8
0
  6
CONTINUOUS
 62
     2
 10
1684.5500395
 20
209.916653
 11
1693.210293538
 21
224.916653
  0
LINE
  8
0
  6
CONTINUOUS
 62
     2
 10
1693.210293538
 20
224.916653
 11
1701.870547576
 21
209.916653
  0
LINE
  8
0
  6
CONTINUOUS
 62
     2
 10
1701.870547576
 20
209.916653
 11
1684.5500395
 21
209.916653
  0
TEXT
  8
0
  6
CONTINUOUS
 62
     2
 10
1689.674759632
 20
211.381119094
 30
0.0
 40
7.071067812
  1
１
 50
0.0
 41
1.0
 51
0.0
  7
KANJI81
  0
LINE
  8
0
  6
CONTINUOUS
 62
     2
 10
1998.5500395
 20
1279.916653
 11
2007.210293538
 21
1294.916653
  0
LINE
  8
0
  6
CONTINUOUS
 62
     2
 10
2007.210293538
 20
1294.916653
 11
2015.870547576
 21
1279.916653
  0
LINE
  8
0
  6
CONTINUOUS
 62
     2
 10
2015.870547576
 20
1279.916653
 11
1998.5500395
 21
1279.916653
  0
TEXT
  8
0
  6
CONTINUOUS
 62
     2
 10
2003.674759632
 20
1281.381119094
 30
0.0
 40
7.071067812
  1
１
 50
0.0
 41
1.0
 51
0.0
  7
KANJI81
  0
LINE
  8
0
  6
CONTINUOUS
 62
     2
 10
818.5500395
 20
1187.916653
 11
827.210293538
 21
1202.916653
  0
LINE
  8
0
  6
CONTINUOUS
 62
     2
 10
827.210293538
 20
1202.916653
 11
835.870547576
 21
1187.916653
  0
LINE
  8
0
  6
CONTINUOUS
 62
     2
 10
835.870547576
 20
1187.916653
 11
818.5500395
 21
1187.916653
  0
TEXT
  8
0
  6
CONTINUOUS
 62
     2
 10
823.674759632
 20
1189.381119094
 30
0.0
 40
7.071067812
  1
１
 50
0.0
 41
1.0
 51
0.0
  7
KANJI81
  0
LINE
  8
0
  6
CONTINUOUS
 62
     2
 10
818.5500395
 20
1159.916653
 11
827.210293538
 21
1174.916653
  0
LINE
  8
0
  6
CONTINUOUS
 62
     2
 10
827.210293538
 20
1174.916653
 11
835.870547576
 21
1159.916653
  0
LINE
  8
0
  6
CONTINUOUS
 62
     2
 10
835.870547576
 20
1159.916653
 11
818.5500395
 21
1159.916653
  0
TEXT
  8
0
  6
CONTINUOUS
 62
     2
 10
823.674759632
 20
1161.381119094
 30
0.0
 40
7.071067812
  1
１
 50
0.0
 41
1.0
 51
0.0
  7
KANJI81
  0
LINE
  8
0
  6
CONTINUOUS
 62
     2
 10
818.5500395
 20
1131.916653
 11
827.210293538
 21
1146.916653
  0
LINE
  8
0
  6
CONTINUOUS
 62
     2
 10
827.210293538
 20
1146.916653
 11
835.870547576
 21
1131.916653
  0
LINE
  8
0
  6
CONTINUOUS
 62
     2
 10
835.870547576
 20
1131.916653
 11
818.5500395
 21
1131.916653
  0
TEXT
  8
0
  6
CONTINUOUS
 62
     2
 10
823.674759632
 20
1133.381119094
 30
0.0
 40
7.071067812
  1
１
 50
0.0
 41
1.0
 51
0.0
  7
KANJI81
  0
LINE
  8
0
  6
CONTINUOUS
 62
     2
 10
818.5500395
 20
1103.916653
 11
827.210293538
 21
1118.916653
  0
LINE
  8
0
  6
CONTINUOUS
 62
     2
 10
827.210293538
 20
1118.916653
 11
835.870547576
 21
1103.916653
  0
LINE
  8
0
  6
CONTINUOUS
 62
     2
 10
835.870547576
 20
1103.916653
 11
818.5500395
 21
1103.916653
  0
TEXT
  8
0
  6
CONTINUOUS
 62
     2
 10
823.674759632
 20
1105.381119094
 30
0.0
 40
7.071067812
  1
１
 50
0.0
 41
1.0
 51
0.0
  7
KANJI81
  0
LINE
  8
0
  6
CONTINUOUS
 62
     2
 10
818.5500395
 20
1075.916653
 11
827.210293538
 21
1090.916653
  0
LINE
  8
0
  6
CONTINUOUS
 62
     2
 10
827.210293538
 20
1090.916653
 11
835.870547576
 21
1075.916653
  0
LINE
  8
0
  6
CONTINUOUS
 62
     2
 10
835.870547576
 20
1075.916653
 11
818.5500395
 21
1075.916653
  0
TEXT
  8
0
  6
CONTINUOUS
 62
     2
 10
823.674759632
 20
1077.381119094
 30
0.0
 40
7.071067812
  1
１
 50
0.0
 41
1.0
 51
0.0
  7
KANJI81
  0
LINE
  8
0
  6
CONTINUOUS
 62
     2
 10
818.5500395
 20
1047.916653
 11
827.210293538
 21
1062.916653
  0
LINE
  8
0
  6
CONTINUOUS
 62
     2
 10
827.210293538
 20
1062.916653
 11
835.870547576
 21
1047.916653
  0
LINE
  8
0
  6
CONTINUOUS
 62
     2
 10
835.870547576
 20
1047.916653
 11
818.5500395
 21
1047.916653
  0
TEXT
  8
0
  6
CONTINUOUS
 62
     2
 10
823.674759632
 20
1049.381119094
 30
0.0
 40
7.071067812
  1
１
 50
0.0
 41
1.0
 51
0.0
  7
KANJI81
  0
LINE
  8
0
  6
CONTINUOUS
 62
     2
 10
818.5500395
 20
1019.916653
 11
827.210293538
 21
1034.916653
  0
LINE
  8
0
  6
CONTINUOUS
 62
     2
 10
827.210293538
 20
1034.916653
 11
835.870547576
 21
1019.916653
  0
LINE
  8
0
  6
CONTINUOUS
 62
     2
 10
835.870547576
 20
1019.916653
 11
818.5500395
 21
1019.916653
  0
TEXT
  8
0
  6
CONTINUOUS
 62
     2
 10
823.674759632
 20
1021.381119094
 30
0.0
 40
7.071067812
  1
１
 50
0.0
 41
1.0
 51
0.0
  7
KANJI81
  0
LINE
  8
0
  6
CONTINUOUS
 62
     2
 10
818.5500395
 20
991.916653
 11
827.210293538
 21
1006.916653
  0
LINE
  8
0
  6
CONTINUOUS
 62
     2
 10
827.210293538
 20
1006.916653
 11
835.870547576
 21
991.916653
  0
LINE
  8
0
  6
CONTINUOUS
 62
     2
 10
835.870547576
 20
991.916653
 11
818.5500395
 21
991.916653
  0
TEXT
  8
0
  6
CONTINUOUS
 62
     2
 10
823.674759632
 20
993.381119094
 30
0.0
 40
7.071067812
  1
１
 50
0.0
 41
1.0
 51
0.0
  7
KANJI81
  0
ENDSEC
  0
EOF
