  0
SECTION
  2
HEADER
  9
$EXTMIN
 10
0.0
 20
0.0
 30
0.0
  9
$EXTMAX
 10
2100.0
 20
1485.0
 30
0.0
  9
$LIMMIN
 10
0.0
 20
0.0
  9
$LIMMAX
 10
2100.0
 20
1485.0
  9
$LTSCALE
 40
1.0
  9
$PDMODE
 70
     0
  0
ENDSEC
  0
SECTION
  2
TABLES
  0
TABLE
  2
LTYPE
 70
     6
  0
LTYPE
  2
CONTINUOUS
 70
    64
  3
Solid line
 72
    65
 73
     0
 40
0.0
  0
LTYPE
  2
LTYPE1
 70
    64
  3
HIDDEN
 72
    65
 73
     2
 40
15.0
 49
9.0
 49
-6.0
  0
LTYPE
  2
LTYPE2
 70
    64
  3
CENTER
 72
    65
 73
     4
 40
75.0
 49
52.5
 49
-7.5
 49
7.5
 49
-7.5
  0
LTYPE
  2
LTYPE3
 70
    64
  3
CENTER
 72
    65
 73
     4
 40
50.0
 49
35.0
 49
-5.0
 49
5.0
 49
-5.0
  0
LTYPE
  2
LTYPE4
 70
    64
  3
PHANTOM
 72
    65
 73
     6
 40
50.0
 49
37.5
 49
-2.5
 49
2.5
 49
-2.5
 49
2.5
 49
-2.5
  0
LTYPE
  2
LTYPE5
 70
    64
  3
CENTER
 72
    65
 73
     4
 40
45.0
 49
31.5
 49
-4.5
 49
4.5
 49
-4.5
  0
ENDTAB
  0
TABLE
  2
LAYER
 70
   128
  0
LAYER
  2
0
 70
     0
 62
     7
  6
CONTINUOUS
  0
LAYER
  2
2
 70
     0
 62
     7
  6
CONTINUOUS
  0
LAYER
  2
3
 70
     0
 62
     7
  6
CONTINUOUS
  0
LAYER
  2
4
 70
     0
 62
     7
  6
CONTINUOUS
  0
LAYER
  2
5
 70
     0
 62
     7
  6
CONTINUOUS
  0
LAYER
  2
6
 70
     0
 62
     7
  6
CONTINUOUS
  0
LAYER
  2
7
 70
     0
 62
     7
  6
CONTINUOUS
  0
LAYER
  2
8
 70
     0
 62
     7
  6
CONTINUOUS
  0
LAYER
  2
9
 70
     0
 62
     7
  6
CONTINUOUS
  0
LAYER
  2
10
 70
     0
 62
     7
  6
CONTINUOUS
  0
LAYER
  2
11
 70
     0
 62
     7
  6
CONTINUOUS
  0
LAYER
  2
12
 70
     0
 62
     7
  6
CONTINUOUS
  0
LAYER
  2
13
 70
     0
 62
     7
  6
CONTINUOUS
  0
LAYER
  2
14
 70
     0
 62
     7
  6
CONTINUOUS
  0
LAYER
  2
15
 70
     0
 62
     7
  6
CONTINUOUS
  0
LAYER
  2
16
 70
     0
 62
     7
  6
CONTINUOUS
  0
LAYER
  2
17
 70
     0
 62
     7
  6
CONTINUOUS
  0
LAYER
  2
18
 70
     0
 62
     7
  6
CONTINUOUS
  0
LAYER
  2
19
 70
     0
 62
     7
  6
CONTINUOUS
  0
LAYER
  2
20
 70
     0
 62
     7
  6
CONTINUOUS
  0
LAYER
  2
21
 70
     0
 62
     7
  6
CONTINUOUS
  0
LAYER
  2
22
 70
     0
 62
     7
  6
CONTINUOUS
  0
LAYER
  2
23
 70
     0
 62
     7
  6
CONTINUOUS
  0
LAYER
  2
24
 70
     0
 62
     7
  6
CONTINUOUS
  0
LAYER
  2
25
 70
     0
 62
     7
  6
CONTINUOUS
  0
LAYER
  2
26
 70
     0
 62
     7
  6
CONTINUOUS
  0
LAYER
  2
27
 70
     0
 62
     7
  6
CONTINUOUS
  0
LAYER
  2
28
 70
     0
 62
     7
  6
CONTINUOUS
  0
LAYER
  2
29
 70
     0
 62
     7
  6
CONTINUOUS
  0
LAYER
  2
30
 70
     0
 62
     7
  6
CONTINUOUS
  0
LAYER
  2
31
 70
     0
 62
     7
  6
CONTINUOUS
  0
LAYER
  2
32
 70
     0
 62
     7
  6
CONTINUOUS
  0
LAYER
  2
33
 70
     0
 62
     7
  6
CONTINUOUS
  0
LAYER
  2
34
 70
     0
 62
     7
  6
CONTINUOUS
  0
LAYER
  2
35
 70
     0
 62
     7
  6
CONTINUOUS
  0
LAYER
  2
36
 70
     0
 62
     7
  6
CONTINUOUS
  0
LAYER
  2
37
 70
     0
 62
     7
  6
CONTINUOUS
  0
LAYER
  2
38
 70
     0
 62
     7
  6
CONTINUOUS
  0
LAYER
  2
39
 70
     0
 62
     7
  6
CONTINUOUS
  0
LAYER
  2
40
 70
     0
 62
     7
  6
CONTINUOUS
  0
LAYER
  2
41
 70
     0
 62
     7
  6
CONTINUOUS
  0
LAYER
  2
42
 70
     0
 62
     7
  6
CONTINUOUS
  0
LAYER
  2
43
 70
     0
 62
     7
  6
CONTINUOUS
  0
LAYER
  2
44
 70
     0
 62
     7
  6
CONTINUOUS
  0
LAYER
  2
45
 70
     0
 62
     7
  6
CONTINUOUS
  0
LAYER
  2
46
 70
     0
 62
     7
  6
CONTINUOUS
  0
LAYER
  2
47
 70
     0
 62
     7
  6
CONTINUOUS
  0
LAYER
  2
48
 70
     0
 62
     7
  6
CONTINUOUS
  0
LAYER
  2
49
 70
     0
 62
     7
  6
CONTINUOUS
  0
LAYER
  2
50
 70
     0
 62
     7
  6
CONTINUOUS
  0
LAYER
  2
51
 70
     0
 62
     7
  6
CONTINUOUS
  0
LAYER
  2
52
 70
     0
 62
     7
  6
CONTINUOUS
  0
LAYER
  2
53
 70
     0
 62
     7
  6
CONTINUOUS
  0
LAYER
  2
54
 70
     0
 62
     7
  6
CONTINUOUS
  0
LAYER
  2
55
 70
     0
 62
     7
  6
CONTINUOUS
  0
LAYER
  2
56
 70
     0
 62
     7
  6
CONTINUOUS
  0
LAYER
  2
57
 70
     0
 62
     7
  6
CONTINUOUS
  0
LAYER
  2
58
 70
     0
 62
     7
  6
CONTINUOUS
  0
LAYER
  2
59
 70
     0
 62
     7
  6
CONTINUOUS
  0
LAYER
  2
60
 70
     0
 62
     7
  6
CONTINUOUS
  0
LAYER
  2
61
 70
     0
 62
     7
  6
CONTINUOUS
  0
LAYER
  2
62
 70
     0
 62
     7
  6
CONTINUOUS
  0
LAYER
  2
63
 70
     0
 62
     7
  6
CONTINUOUS
  0
LAYER
  2
64
 70
     0
 62
     7
  6
CONTINUOUS
  0
LAYER
  2
65
 70
     0
 62
     7
  6
CONTINUOUS
  0
LAYER
  2
66
 70
     0
 62
     7
  6
CONTINUOUS
  0
LAYER
  2
67
 70
     0
 62
     7
  6
CONTINUOUS
  0
LAYER
  2
68
 70
     0
 62
     7
  6
CONTINUOUS
  0
LAYER
  2
69
 70
     0
 62
     7
  6
CONTINUOUS
  0
LAYER
  2
70
 70
     0
 62
     7
  6
CONTINUOUS
  0
LAYER
  2
71
 70
     0
 62
     7
  6
CONTINUOUS
  0
LAYER
  2
72
 70
     0
 62
     7
  6
CONTINUOUS
  0
LAYER
  2
73
 70
     0
 62
     7
  6
CONTINUOUS
  0
LAYER
  2
74
 70
     0
 62
     7
  6
CONTINUOUS
  0
LAYER
  2
75
 70
     0
 62
     7
  6
CONTINUOUS
  0
LAYER
  2
76
 70
     0
 62
     7
  6
CONTINUOUS
  0
LAYER
  2
77
 70
     0
 62
     7
  6
CONTINUOUS
  0
LAYER
  2
78
 70
     0
 62
     7
  6
CONTINUOUS
  0
LAYER
  2
79
 70
     0
 62
     7
  6
CONTINUOUS
  0
LAYER
  2
80
 70
     0
 62
     7
  6
CONTINUOUS
  0
LAYER
  2
81
 70
     0
 62
     7
  6
CONTINUOUS
  0
LAYER
  2
82
 70
     0
 62
     7
  6
CONTINUOUS
  0
LAYER
  2
83
 70
     0
 62
     7
  6
CONTINUOUS
  0
LAYER
  2
84
 70
     0
 62
     7
  6
CONTINUOUS
  0
LAYER
  2
85
 70
     0
 62
     7
  6
CONTINUOUS
  0
LAYER
  2
86
 70
     0
 62
     7
  6
CONTINUOUS
  0
LAYER
  2
87
 70
     0
 62
     7
  6
CONTINUOUS
  0
LAYER
  2
88
 70
     0
 62
     7
  6
CONTINUOUS
  0
LAYER
  2
89
 70
     0
 62
     7
  6
CONTINUOUS
  0
LAYER
  2
90
 70
     0
 62
     7
  6
CONTINUOUS
  0
LAYER
  2
91
 70
     0
 62
     7
  6
CONTINUOUS
  0
LAYER
  2
92
 70
     0
 62
     7
  6
CONTINUOUS
  0
LAYER
  2
93
 70
     0
 62
     7
  6
CONTINUOUS
  0
LAYER
  2
94
 70
     0
 62
     7
  6
CONTINUOUS
  0
LAYER
  2
95
 70
     0
 62
     7
  6
CONTINUOUS
  0
LAYER
  2
96
 70
     0
 62
     7
  6
CONTINUOUS
  0
LAYER
  2
97
 70
     0
 62
     7
  6
CONTINUOUS
  0
LAYER
  2
98
 70
     0
 62
     7
  6
CONTINUOUS
  0
LAYER
  2
99
 70
     0
 62
     7
  6
CONTINUOUS
  0
LAYER
  2
100
 70
     0
 62
     7
  6
CONTINUOUS
  0
LAYER
  2
101
 70
     0
 62
     7
  6
CONTINUOUS
  0
LAYER
  2
102
 70
     0
 62
     7
  6
CONTINUOUS
  0
LAYER
  2
103
 70
     0
 62
     7
  6
CONTINUOUS
  0
LAYER
  2
104
 70
     0
 62
     7
  6
CONTINUOUS
  0
LAYER
  2
105
 70
     0
 62
     7
  6
CONTINUOUS
  0
LAYER
  2
106
 70
     0
 62
     7
  6
CONTINUOUS
  0
LAYER
  2
107
 70
     0
 62
     7
  6
CONTINUOUS
  0
LAYER
  2
108
 70
     0
 62
     7
  6
CONTINUOUS
  0
LAYER
  2
109
 70
     0
 62
     7
  6
CONTINUOUS
  0
LAYER
  2
110
 70
     0
 62
     7
  6
CONTINUOUS
  0
LAYER
  2
111
 70
     0
 62
     7
  6
CONTINUOUS
  0
LAYER
  2
112
 70
     0
 62
     7
  6
CONTINUOUS
  0
LAYER
  2
113
 70
     0
 62
     7
  6
CONTINUOUS
  0
LAYER
  2
114
 70
     0
 62
     7
  6
CONTINUOUS
  0
LAYER
  2
115
 70
     0
 62
     7
  6
CONTINUOUS
  0
LAYER
  2
116
 70
     0
 62
     7
  6
CONTINUOUS
  0
LAYER
  2
117
 70
     0
 62
     7
  6
CONTINUOUS
  0
LAYER
  2
118
 70
     0
 62
     7
  6
CONTINUOUS
  0
LAYER
  2
119
 70
     0
 62
     7
  6
CONTINUOUS
  0
LAYER
  2
120
 70
     0
 62
     7
  6
CONTINUOUS
  0
LAYER
  2
121
 70
     0
 62
     7
  6
CONTINUOUS
  0
LAYER
  2
122
 70
     0
 62
     7
  6
CONTINUOUS
  0
LAYER
  2
123
 70
     0
 62
     7
  6
CONTINUOUS
  0
LAYER
  2
124
 70
     0
 62
     7
  6
CONTINUOUS
  0
LAYER
  2
125
 70
     0
 62
     7
  6
CONTINUOUS
  0
LAYER
  2
126
 70
     0
 62
     7
  6
CONTINUOUS
  0
LAYER
  2
127
 70
     0
 62
     7
  6
CONTINUOUS
  0
LAYER
  2
128
 70
     0
 62
     7
  6
CONTINUOUS
  0
ENDTAB
  0
TABLE
  2
STYLE
 70
    79
  0
STYLE
  2
STANDARD
 70
     0
 40
0.0
 41
1.0
 50
0.0
 71
     0
 42
0.2
  3
txt
  4

  0
STYLE
  2
KANJI0
 70
     0
 40
8.666666
 41
0.6
 50
0.0
 71
     0
 42
8.666666
  3

  4
bigfont
  0
STYLE
  2
KANJI1
 70
     0
 40
10.3999992
 41
0.6
 50
0.0
 71
     0
 42
10.3999992
  3

  4
bigfont
  0
STYLE
  2
KANJI2
 70
     0
 40
15.1666655
 41
0.42031746
 50
0.0
 71
     0
 42
15.1666655
  3

  4
bigfont
  0
STYLE
  2
KANJI3
 70
     0
 40
25.999998
 41
0.9
 50
0.0
 71
     0
 42
25.999998
  3

  4
bigfont
  0
STYLE
  2
KANJI4
 70
     0
 40
8.666666
 41
0.8
 50
0.0
 71
     0
 42
8.666666
  3

  4
bigfont
  0
STYLE
  2
KANJI5
 70
     0
 40
10.3999992
 41
0.8
 50
0.0
 71
     0
 42
10.3999992
  3

  4
bigfont
  0
STYLE
  2
KANJI6
 70
     0
 40
25.0
 41
1.0
 50
0.0
 71
     0
 42
25.0
  3

  4
bigfont
  0
STYLE
  2
KANJI7
 70
     0
 40
25.0
 41
1.0
 50
0.0
 71
     0
 42
25.0
  3

  4
bigfont
  0
STYLE
  2
KANJI8
 70
     0
 40
25.0
 41
0.8
 50
0.0
 71
     0
 42
25.0
  3

  4
bigfont
  0
STYLE
  2
KANJI9
 70
     0
 40
20.0
 41
1.0
 50
0.0
 71
     0
 42
20.0
  3

  4
bigfont
  0
STYLE
  2
KANJI10
 70
     0
 40
18.0
 41
1.111111111
 50
0.0
 71
     0
 42
18.0
  3

  4
bigfont
  0
STYLE
  2
KANJI11
 70
     0
 40
17.5
 41
0.857142857
 50
0.0
 71
     0
 42
17.5
  3

  4
bigfont
  0
STYLE
  2
KANJI12
 70
     0
 40
22.5
 41
0.666666667
 50
0.0
 71
     0
 42
22.5
  3

  4
bigfont
  0
STYLE
  2
KANJI13
 70
     0
 40
9.999997897
 41
0.6
 50
0.0
 71
     0
 42
9.999997897
  3

  4
bigfont
  0
STYLE
  2
KANJI14
 70
     0
 40
11.999997477
 41
0.9
 50
0.0
 71
     0
 42
11.999997477
  3

  4
bigfont
  0
STYLE
  2
KANJI15
 70
     0
 40
14.999996846
 41
0.9
 50
0.0
 71
     0
 42
14.999996846
  3

  4
bigfont
  0
STYLE
  2
KANJI16
 70
     0
 40
12.999999
 41
0.75
 50
0.0
 71
     0
 42
12.999999
  3

  4
bigfont
  0
STYLE
  2
KANJI17
 70
     0
 40
13.182
 41
0.85
 50
0.0
 71
     0
 42
13.182
  3

  4
bigfont
  0
STYLE
  2
KANJI18
 70
     0
 40
11.661
 41
0.822608696
 50
0.0
 71
     0
 42
11.661
  3

  4
bigfont
  0
STYLE
  2
KANJI19
 70
     0
 40
11.8638
 41
0.726495726
 50
0.0
 71
     0
 42
11.8638
  3

  4
bigfont
  0
STYLE
  2
KANJI20
 70
     4
 40
45.0
 41
0.538166667
 50
0.0
 71
     0
 42
45.0
  3

  4
bigfont
  0
STYLE
  2
KANJI21
 70
     0
 40
12.8
 41
0.9
 50
0.0
 71
     0
 42
12.8
  3

  4
bigfont
  0
STYLE
  2
KANJI22
 70
     0
 40
12.0
 41
0.9
 50
0.0
 71
     0
 42
12.0
  3

  4
bigfont
  0
STYLE
  2
KANJI23
 70
     0
 40
12.0
 41
0.9
 50
0.0
 71
     0
 42
12.0
  3

  4
bigfont
  0
STYLE
  2
KANJI24
 70
     0
 40
14.0
 41
0.9
 50
0.0
 71
     0
 42
14.0
  3

  4
bigfont
  0
STYLE
  2
KANJI25
 70
     0
 40
10.8
 41
0.740740741
 50
0.0
 71
     0
 42
10.8
  3

  4
bigfont
  0
STYLE
  2
KANJI26
 70
     0
 40
14.0
 41
0.857142857
 50
0.0
 71
     0
 42
14.0
  3

  4
bigfont
  0
STYLE
  2
KANJI27
 70
     0
 40
25.0
 41
0.8
 50
0.0
 71
     0
 42
25.0
  3

  4
bigfont
  0
STYLE
  2
KANJI28
 70
     0
 40
8.4
 41
0.9
 50
0.0
 71
     0
 42
8.4
  3

  4
bigfont
  0
STYLE
  2
KANJI29
 70
     0
 40
15.0
 41
1.0
 50
0.0
 71
     0
 42
15.0
  3

  4
bigfont
  0
STYLE
  2
KANJI30
 70
     0
 40
15.0
 41
0.9
 50
0.0
 71
     0
 42
15.0
  3

  4
bigfont
  0
STYLE
  2
KANJI31
 70
     0
 40
11.55
 41
0.9
 50
0.0
 71
     0
 42
11.55
  3

  4
bigfont
  0
STYLE
  2
KANJI32
 70
     0
 40
17.740702234
 41
0.880962996
 50
0.0
 71
     0
 42
17.740702234
  3

  4
bigfont
  0
STYLE
  2
KANJI33
 70
     0
 40
11.7
 41
0.8
 50
0.0
 71
     0
 42
11.7
  3

  4
bigfont
  0
STYLE
  2
KANJI34
 70
     0
 40
15.0
 41
0.911
 50
0.0
 71
     0
 42
15.0
  3

  4
bigfont
  0
STYLE
  2
KANJI35
 70
     0
 40
13.475
 41
0.9
 50
0.0
 71
     0
 42
13.475
  3

  4
bigfont
  0
STYLE
  2
KANJI36
 70
     0
 40
20.0
 41
0.9
 50
0.0
 71
     0
 42
20.0
  3

  4
bigfont
  0
STYLE
  2
KANJI37
 70
     0
 40
18.0
 41
0.857142857
 50
0.0
 71
     0
 42
18.0
  3

  4
bigfont
  0
STYLE
  2
KANJI38
 70
     0
 40
18.0
 41
0.857222222
 50
0.0
 71
     0
 42
18.0
  3

  4
bigfont
  0
STYLE
  2
KANJI39
 70
     0
 40
15.185977837
 41
0.66671875
 50
0.0
 71
     0
 42
15.185977837
  3

  4
bigfont
  0
STYLE
  2
KANJI40
 70
     0
 40
18.223173404
 41
0.9
 50
0.0
 71
     0
 42
18.223173404
  3

  4
bigfont
  0
STYLE
  2
KANJI41
 70
     0
 40
14.578538724
 41
0.9
 50
0.0
 71
     0
 42
14.578538724
  3

  4
bigfont
  0
STYLE
  2
KANJI42
 70
     0
 40
15.6
 41
0.925
 50
0.0
 71
     0
 42
15.6
  3

  4
bigfont
  0
STYLE
  2
KANJI43
 70
     0
 40
10.933904043
 41
0.9
 50
0.0
 71
     0
 42
10.933904043
  3

  4
bigfont
  0
STYLE
  2
KANJI44
 70
     0
 40
20.0
 41
0.925
 50
0.0
 71
     0
 42
20.0
  3

  4
bigfont
  0
STYLE
  2
KANJI45
 70
     0
 40
20.0
 41
0.925
 50
0.0
 71
     0
 42
20.0
  3

  4
bigfont
  0
STYLE
  2
KANJI46
 70
     0
 40
17.5
 41
0.571428571
 50
0.0
 71
     0
 42
17.5
  3

  4
bigfont
  0
STYLE
  2
KANJI47
 70
     0
 40
17.5
 41
0.9
 50
0.0
 71
     0
 42
17.5
  3

  4
bigfont
  0
STYLE
  2
KANJI48
 70
     0
 40
17.5
 41
0.9
 50
0.0
 71
     0
 42
17.5
  3

  4
bigfont
  0
STYLE
  2
KANJI49
 70
     0
 40
17.5
 41
0.9
 50
0.0
 71
     0
 42
17.5
  3

  4
bigfont
  0
STYLE
  2
KANJI50
 70
     0
 40
17.5
 41
0.9
 50
0.0
 71
     0
 42
17.5
  3

  4
bigfont
  0
STYLE
  2
KANJI51
 70
     0
 40
22.5
 41
0.9
 50
0.0
 71
     0
 42
22.5
  3

  4
bigfont
  0
STYLE
  2
KANJI52
 70
     0
 40
17.5
 41
0.9
 50
0.0
 71
     0
 42
17.5
  3

  4
bigfont
  0
STYLE
  2
KANJI53
 70
     0
 40
17.5
 41
0.9
 50
0.0
 71
     0
 42
17.5
  3

  4
bigfont
  0
STYLE
  2
KANJI54
 70
     0
 40
17.5
 41
0.9
 50
0.0
 71
     0
 42
17.5
  3

  4
bigfont
  0
STYLE
  2
KANJI55
 70
     0
 40
17.5
 41
0.9
 50
0.0
 71
     0
 42
17.5
  3

  4
bigfont
  0
STYLE
  2
KANJI56
 70
     0
 40
17.5
 41
0.9
 50
0.0
 71
     0
 42
17.5
  3

  4
bigfont
  0
STYLE
  2
KANJI57
 70
     4
 40
17.5
 41
0.9
 50
0.0
 71
     0
 42
17.5
  3

  4
bigfont
  0
STYLE
  2
KANJI58
 70
     4
 40
15.0
 41
0.9
 50
0.0
 71
     0
 42
15.0
  3

  4
bigfont
  0
STYLE
  2
KANJI59
 70
     0
 40
12.5
 41
0.8
 50
0.0
 71
     0
 42
12.5
  3

  4
bigfont
  0
STYLE
  2
KANJI60
 70
     0
 40
17.5
 41
0.9
 50
0.0
 71
     0
 42
17.5
  3

  4
bigfont
  0
STYLE
  2
KANJI61
 70
     0
 40
15.0
 41
0.9
 50
0.0
 71
     0
 42
15.0
  3

  4
bigfont
  0
STYLE
  2
KANJI62
 70
     0
 40
15.0
 41
0.857142857
 50
0.0
 71
     0
 42
15.0
  3

  4
bigfont
  0
STYLE
  2
KANJI63
 70
     0
 40
17.5
 41
0.9
 50
0.0
 71
     0
 42
17.5
  3

  4
bigfont
  0
STYLE
  2
KANJI64
 70
     0
 40
14.0
 41
0.9
 50
0.0
 71
     0
 42
14.0
  3

  4
bigfont
  0
STYLE
  2
KANJI65
 70
     0
 40
14.0
 41
0.785714286
 50
0.0
 71
     0
 42
14.0
  3

  4
bigfont
  0
STYLE
  2
KANJI66
 70
     0
 40
14.0
 41
0.8
 50
0.0
 71
     0
 42
14.0
  3

  4
bigfont
  0
STYLE
  2
KANJI67
 70
     0
 40
17.5
 41
0.9
 50
0.0
 71
     0
 42
17.5
  3

  4
bigfont
  0
STYLE
  2
KANJI68
 70
     0
 40
15.0
 41
0.8
 50
0.0
 71
     0
 42
15.0
  3

  4
bigfont
  0
STYLE
  2
KANJI69
 70
     0
 40
15.0
 41
0.9
 50
0.0
 71
     0
 42
15.0
  3

  4
bigfont
  0
STYLE
  2
KANJI70
 70
     0
 40
17.5
 41
0.9
 50
0.0
 71
     0
 42
17.5
  3

  4
bigfont
  0
STYLE
  2
KANJI71
 70
     0
 40
15.0
 41
0.833333333
 50
0.0
 71
     0
 42
15.0
  3

  4
bigfont
  0
STYLE
  2
KANJI72
 70
     0
 40
17.5
 41
0.9
 50
0.0
 71
     0
 42
17.5
  3

  4
bigfont
  0
STYLE
  2
KANJI73
 70
     0
 40
12.0
 41
0.833333333
 50
0.0
 71
     0
 42
12.0
  3

  4
bigfont
  0
STYLE
  2
KANJI74
 70
     0
 40
15.0
 41
0.833333333
 50
0.0
 71
     0
 42
15.0
  3

  4
bigfont
  0
STYLE
  2
KANJI75
 70
     0
 40
17.5
 41
0.793650794
 50
0.0
 71
     0
 42
17.5
  3

  4
bigfont
  0
STYLE
  2
KANJI76
 70
     0
 40
15.0
 41
0.45
 50
0.0
 71
     0
 42
15.0
  3

  4
bigfont
  0
STYLE
  2
KANJI77
 70
     0
 40
7.071067812
 41
1.0
 50
0.0
 71
     0
 42
7.071067812
  3

  4
bigfont
  0
ENDTAB
  0
TABLE
  2
VIEW
 70
     0
  0
ENDTAB
  0
ENDSEC
  0
SECTION
  2
BLOCKS
  0
ENDSEC
  0
SECTION
  2
ENTITIES
  0
LINE
  8
0
  6
CONTINUOUS
 62
     6
 10
70.25
 20
1389.0
 11
2005.25
 21
1389.0
  0
LINE
  8
0
  6
CONTINUOUS
 62
     6
 10
2005.25
 20
1389.0
 11
2005.25
 21
44.0
  0
LINE
  8
0
  6
CONTINUOUS
 62
     6
 10
2005.25
 20
44.0
 11
70.25
 21
44.0
  0
LINE
  8
0
  6
CONTINUOUS
 62
     4
 10
1333.583385
 20
82.999997
 11
1491.7500395
 21
82.999997
  0
TEXT
  8
0
  6
CONTINUOUS
 62
     4
 10
1342.250051
 20
67.8333315
 30
0.8666666
 40
8.666666
  1
ＳＣＡＬＥ
 50
0.0
 41
0.6
 51
0.0
  7
KANJI0
  0
TEXT
  8
0
  6
CONTINUOUS
 62
     4
 10
1342.250051
 20
102.4999955
 30
0.8666666
 40
8.666666
  1
ＤＡＴＥ
 50
0.0
 41
0.6
 51
0.0
  7
KANJI0
  0
TEXT
  8
0
  6
CONTINUOUS
 62
     4
 10
1342.250051
 20
54.8333325
 30
1.03999992
 40
10.3999992
  1
尺度
 50
0.0
 41
0.6
 51
0.0
  7
KANJI1
  0
TEXT
  8
0
  6
CONTINUOUS
 62
     4
 10
1342.250051
 20
89.4999965
 30
1.03999992
 40
10.3999992
  1
日付
 50
0.0
 41
0.6
 51
0.0
  7
KANJI1
  0
LINE
  8
0
  6
CONTINUOUS
 62
     4
 10
1491.7500395
 20
102.4999955
 11
2000.916667
 21
102.4999955
  0
LINE
  8
0
  6
LTYPE1
 62
     4
 10
1855.7500115
 20
108.999995
 11
1855.7500115
 21
143.666659
  0
LINE
  8
0
  6
LTYPE1
 62
     4
 10
1825.4166805
 20
108.999995
 11
1825.4166805
 21
143.666659
  0
LINE
  8
0
  6
LTYPE1
 62
     4
 10
1795.0833495
 20
108.999995
 11
1795.0833495
 21
143.666659
  0
LINE
  8
0
  6
LTYPE1
 62
     4
 10
1764.7500185
 20
108.999995
 11
1764.7500185
 21
143.666659
  0
LINE
  8
0
  6
LTYPE1
 62
     4
 10
1734.4166875
 20
108.999995
 11
1734.4166875
 21
143.666659
  0
LINE
  8
0
  6
LTYPE1
 62
     4
 10
1704.0833565
 20
108.999995
 11
1704.0833565
 21
143.666659
  0
LINE
  8
0
  6
LTYPE1
 62
     4
 10
1673.7500255
 20
108.999995
 11
1673.7500255
 21
143.666659
  0
LINE
  8
0
  6
LTYPE1
 62
     4
 10
1643.4166945
 20
108.999995
 11
1643.4166945
 21
143.666659
  0
LINE
  8
0
  6
LTYPE1
 62
     4
 10
1643.4166945
 20
108.999995
 11
1855.7500115
 21
108.999995
  0
LINE
  8
0
  6
CONTINUOUS
 62
     6
 10
991.250078
 20
82.999997
 11
1333.583385
 21
82.999997
  0
LINE
  8
0
  6
CONTINUOUS
 62
     6
 10
991.250078
 20
48.333333
 11
2000.916667
 21
48.333333
  0
TEXT
  8
0
  6
CONTINUOUS
 62
     6
 10
1496.0833725
 20
67.8333315
 30
0.0
 40
15.1666655
  1
ＵＮＩＴＥＣ　ＩＮＤＵＳＴＲＹ　ＣＯ．，ＬＴＤ．
 50
0.0
 41
0.42031746
 51
0.0
  7
KANJI2
  0
TEXT
  8
0
  6
CONTINUOUS
 62
     6
 10
1708.795856138
 20
62.1999986
 30
2.5999998
 40
25.999998
  1
ユニテック工業株式会社
 50
0.0
 41
0.9
 51
0.0
  7
KANJI3
  0
LINE
  8
0
  6
CONTINUOUS
 62
     6
 10
1333.583385
 20
48.333333
 11
1333.583385
 21
325.666645
  0
LINE
  8
0
  6
CONTINUOUS
 62
     6
 10
2000.916667
 20
48.333333
 11
2000.916667
 21
325.666645
  0
LINE
  8
0
  6
CONTINUOUS
 62
     4
 10
1491.7500395
 20
48.333333
 11
1491.7500395
 21
325.666645
  0
LINE
  8
0
  6
CONTINUOUS
 62
     6
 10
1674.129192138
 20
71.2999979
 11
1662.689193018
 21
71.2999979
  0
LINE
  8
0
  6
CONTINUOUS
 62
     6
 10
1674.129192138
 20
73.37999774
 11
1662.689193018
 21
73.37999774
  0
LINE
  8
0
  6
CONTINUOUS
 62
     6
 10
1674.129192138
 20
71.2999979
 11
1685.569191258
 21
71.2999979
  0
LINE
  8
0
  6
CONTINUOUS
 62
     6
 10
1674.129192138
 20
73.37999774
 11
1685.569191258
 21
73.37999774
  0
LINE
  8
0
  6
CONTINUOUS
 62
     6
 10
1685.569191258
 20
73.37999774
 11
1685.569191258
 21
71.2999979
  0
ARC
  8
0
  6
CONTINUOUS
 62
     6
 10
1688.169191058
 20
72.33999782
 40
10.3999992
 50
185.739170477
 51
90.0
  0
ARC
  8
0
  6
CONTINUOUS
 62
     6
 10
1688.169191058
 20
72.33999782
 40
12.47999904
 50
184.780191847
 51
90.0
  0
LINE
  8
0
  6
CONTINUOUS
 62
     6
 10
1662.689193018
 20
71.2999979
 11
1662.689193018
 21
73.37999774
  0
LINE
  8
0
  6
CONTINUOUS
 62
     6
 10
1672.569192258
 20
84.81999686
 11
1660.089193218
 21
84.81999686
  0
LINE
  8
0
  6
CONTINUOUS
 62
     6
 10
1675.689192018
 20
84.81999686
 11
1688.169191058
 21
84.81999686
  0
ARC
  8
0
  6
CONTINUOUS
 62
     6
 10
1660.089193218
 20
72.33999782
 40
10.3999992
 50
90.0
 51
354.260829523
  0
ARC
  8
0
  6
CONTINUOUS
 62
     6
 10
1660.089193218
 20
72.33999782
 40
12.47999904
 50
90.0
 51
355.219808153
  0
LINE
  8
0
  6
CONTINUOUS
 62
     6
 10
1672.569192258
 20
84.81999686
 11
1672.569192258
 21
82.73999702
  0
LINE
  8
0
  6
CONTINUOUS
 62
     6
 10
1660.089193218
 20
82.73999702
 11
1672.569192258
 21
82.73999702
  0
LINE
  8
0
  6
CONTINUOUS
 62
     6
 10
1675.689192018
 20
84.81999686
 11
1675.689192018
 21
82.73999702
  0
LINE
  8
0
  6
CONTINUOUS
 62
     6
 10
1688.169191058
 20
82.73999702
 11
1675.689192018
 21
82.73999702
  0
TEXT
  8
0
  6
CONTINUOUS
 62
     4
 10
1342.250051
 20
137.1666595
 30
0.8666666
 40
8.666666
  1
ＤＲＡＷＮ
 50
0.0
 41
0.6
 51
0.0
  7
KANJI0
  0
TEXT
  8
0
  6
CONTINUOUS
 62
     4
 10
1342.250051
 20
171.8333235
 30
0.8666666
 40
8.666666
  1
ＤＥＳＩＧＮ
 50
0.0
 41
0.6
 51
0.0
  7
KANJI0
  0
TEXT
  8
0
  6
CONTINUOUS
 62
     4
 10
1342.250051
 20
206.4999875
 30
0.8666666
 40
8.666666
  1
ＣＨＥＣＫ
 50
0.0
 41
0.6
 51
0.0
  7
KANJI0
  0
TEXT
  8
0
  6
CONTINUOUS
 62
     4
 10
1342.250051
 20
241.1666515
 30
0.8666666
 40
8.666666
  1
ＣＯＤＥ
 50
0.0
 41
0.6
 51
0.0
  7
KANJI0
  0
LINE
  8
0
  6
CONTINUOUS
 62
     4
 10
1333.583385
 20
186.999989
 11
1491.7500395
 21
186.999989
  0
LINE
  8
0
  6
CONTINUOUS
 62
     4
 10
1333.583385
 20
152.333325
 11
1491.7500395
 21
152.333325
  0
LINE
  8
0
  6
CONTINUOUS
 62
     4
 10
1333.583385
 20
221.666653
 11
1491.7500395
 21
221.666653
  0
LINE
  8
0
  6
CONTINUOUS
 62
     4
 10
1333.583385
 20
256.333317
 11
2000.916667
 21
256.333317
  0
TEXT
  8
0
  6
CONTINUOUS
 62
     4
 10
1342.250051
 20
158.8333245
 30
1.03999992
 40
10.3999992
  1
設計
 50
0.0
 41
0.6
 51
0.0
  7
KANJI1
  0
TEXT
  8
0
  6
CONTINUOUS
 62
     4
 10
1342.250051
 20
193.4999885
 30
1.03999992
 40
10.3999992
  1
検図
 50
0.0
 41
0.6
 51
0.0
  7
KANJI1
  0
TEXT
  8
0
  6
CONTINUOUS
 62
     4
 10
1342.250051
 20
228.1666525
 30
1.03999992
 40
10.3999992
  1
分類
 50
0.0
 41
0.6
 51
0.0
  7
KANJI1
  0
LINE
  8
0
  6
CONTINUOUS
 62
     4
 10
1504.53337185
 20
221.666653
 11
2000.916667
 21
221.666653
  0
LINE
  8
0
  6
CONTINUOUS
 62
     4
 10
1491.7500395
 20
152.333325
 11
2000.916667
 21
152.333325
  0
TEXT
  8
0
  6
CONTINUOUS
 62
     4
 10
1500.4167055
 20
137.1666595
 30
0.8666666
 40
8.666666
  1
ＤＲＡＷＩＮＧ　ＮＯ．
 50
0.0
 41
0.8
 51
0.0
  7
KANJI4
  0
TEXT
  8
0
  6
CONTINUOUS
 62
     4
 10
1500.4167055
 20
171.8333235
 30
0.8666666
 40
8.666666
  1
ＭＦＧ　ＮＯ．
 50
0.0
 41
0.8
 51
0.0
  7
KANJI4
  0
TEXT
  8
0
  6
CONTINUOUS
 62
     4
 10
1500.4167055
 20
206.4999875
 30
0.8666666
 40
8.666666
  1
ＴＹＰＥ
 50
0.0
 41
0.8
 51
0.0
  7
KANJI4
  0
LINE
  8
0
  6
CONTINUOUS
 62
     4
 10
1504.7500385
 20
186.999989
 11
1704.0833565
 21
186.999989
  0
TEXT
  8
0
  6
CONTINUOUS
 62
     4
 10
1500.4167055
 20
121.999994
 30
1.03999992
 40
10.3999992
  1
図　面　番　号
 50
0.0
 41
0.8
 51
0.0
  7
KANJI5
  0
TEXT
  8
0
  6
CONTINUOUS
 62
     4
 10
1500.4167055
 20
156.666658
 30
1.03999992
 40
10.3999992
  1
製番
 50
0.0
 41
0.8
 51
0.0
  7
KANJI5
  0
TEXT
  8
0
  6
CONTINUOUS
 62
     4
 10
1500.4167055
 20
191.333322
 30
1.03999992
 40
10.3999992
  1
機種
 50
0.0
 41
0.8
 51
0.0
  7
KANJI5
  0
LINE
  8
0
  6
CONTINUOUS
 62
     4
 10
1333.583385
 20
117.666661
 11
1491.7500395
 21
117.666661
  0
TEXT
  8
0
  6
CONTINUOUS
 62
     4
 10
1342.250051
 20
124.1666605
 30
1.03999992
 40
10.3999992
  1
作図
 50
0.0
 41
0.6
 51
0.0
  7
KANJI1
  0
LINE
  8
0
  6
LTYPE1
 62
     4
 10
1643.4166945
 20
143.666659
 11
1855.7500115
 21
143.666659
  0
LINE
  8
0
  6
CONTINUOUS
 62
     4
 10
1873.0833435
 20
127.41666025
 11
1881.7500095
 21
127.41666025
  0
LINE
  8
0
  6
CONTINUOUS
 62
     4
 10
1927.250006
 20
114.41666125
 11
1896.916675
 21
114.41666125
  0
LINE
  8
0
  6
CONTINUOUS
 62
     4
 10
1896.916675
 20
114.41666125
 11
1912.0833405
 21
140.41665925
  0
LINE
  8
0
  6
CONTINUOUS
 62
     4
 10
1912.0833405
 20
140.41665925
 11
1927.250006
 21
114.41666125
  0
LINE
  8
0
  6
CONTINUOUS
 62
     4
 10
2000.916667
 20
290.999981
 11
2000.916667
 21
325.666645
  0
TEXT
  8
0
  6
CONTINUOUS
 62
     4
 10
1717.0833555
 20
206.4999875
 30
0.8666666
 40
8.666666
  1
ＴＩＴＬＥ
 50
0.0
 41
0.8
 51
0.0
  7
KANJI4
  0
TEXT
  8
0
  6
CONTINUOUS
 62
     4
 10
1717.0833555
 20
191.333322
 30
1.03999992
 40
10.3999992
  1
名称
 50
0.0
 41
0.8
 51
0.0
  7
KANJI5
  0
TEXT
  8
0
  6
CONTINUOUS
 62
     2
 10
1787.75
 20
159.0
 30
12.5
 40
25.0
  1
外形寸法図
 50
0.0
 41
1.0
 51
0.0
  7
KANJI6
  0
TEXT
  8
0
  6
CONTINUOUS
 62
     2
 10
1757.75
 20
189.0
 30
3.571428571
 40
25.0
  1
マイティシリンダ
 50
0.0
 41
1.0
 51
0.0
  7
KANJI7
  0
TEXT
  8
0
  6
CONTINUOUS
 62
     2
 10
1617.1666945
 20
113.999995
 30
1.5
 40
25.0
  1
Ａ
 50
0.0
 41
0.8
 51
0.0
  7
KANJI8
  0
CIRCLE
  8
0
  6
CONTINUOUS
 62
     2
 10
1584.6666945
 20
167.749995
 40
12.5
  0
TEXT
  8
0
  6
CONTINUOUS
 62
     2
 10
1575.2916945
 20
158.374995
 30
1.5
 40
20.0
  1
Ｓ
 50
0.0
 41
1.0
 51
0.0
  7
KANJI9
  0
LINE
  8
0
  6
CONTINUOUS
 62
     6
 10
1334.208385
 20
290.999981
 11
2001.541667
 21
290.999981
  0
LINE
  8
0
  6
CONTINUOUS
 62
     6
 10
1333.583385
 20
325.666645
 11
2000.916667
 21
325.666645
  0
TEXT
  8
0
  6
CONTINUOUS
 62
     4
 10
1349.0
 20
296.166664
 30
5.0
 40
18.0
  1
ご用途
 50
0.0
 41
1.111111111
 51
0.0
  7
KANJI10
  0
TEXT
  8
0
  6
CONTINUOUS
 62
     4
 10
1349.0
 20
261.5
 30
5.0
 40
18.0
  1
ご注文主
 50
0.0
 41
1.111111111
 51
0.0
  7
KANJI10
  0
TEXT
  8
0
  6
CONTINUOUS
 62
     2
 10
1389.4166945
 20
126.499995
 30
5.0
 40
17.5
  1
岡田
 50
0.0
 41
0.857142857
 51
0.0
  7
KANJI11
  0
TEXT
  8
0
  6
CONTINUOUS
 62
     2
 10
1425.25
 20
54.0
 30
1.5
 40
22.5
  1
１／５
 50
0.0
 41
0.666666667
 51
0.0
  7
KANJI12
  0
TEXT
  8
0
  6
CONTINUOUS
 62
     4
 10
1101.7500695
 20
67.8333315
 30
0.8666666
 40
8.666666
  1
ＢＹ
 50
0.0
 41
0.6
 51
0.0
  7
KANJI0
  0
TEXT
  8
0
  6
CONTINUOUS
 62
     4
 10
1197.0833955
 20
67.8333315
 30
0.8666666
 40
8.666666
  1
ＤＥＳＣＲＩＰＴＩＯＮ
 50
0.0
 41
0.6
 51
0.0
  7
KANJI0
  0
TEXT
  8
0
  6
CONTINUOUS
 62
     4
 10
1101.7500695
 20
54.8333325
 30
1.03999992
 40
10.3999992
  1
担当
 50
0.0
 41
0.6
 51
0.0
  7
KANJI1
  0
TEXT
  8
0
  6
CONTINUOUS
 62
     4
 10
1210.0833945
 20
54.8333325
 30
1.03999992
 40
10.3999992
  1
記　　　　事
 50
0.0
 41
0.6
 51
0.0
  7
KANJI1
  0
LINE
  8
0
  6
CONTINUOUS
 62
     4
 10
1009.66674325
 20
76.4999975
 11
995.583411
 21
54.8333325
  0
TEXT
  8
0
  6
CONTINUOUS
 62
     4
 10
1045.4167405
 20
67.8333315
 30
0.8666666
 40
8.666666
  1
ＤＡＴＥ
 50
0.0
 41
0.6
 51
0.0
  7
KANJI0
  0
TEXT
  8
0
  6
CONTINUOUS
 62
     4
 10
1051.91674
 20
54.8333325
 30
1.03999992
 40
10.3999992
  1
日付
 50
0.0
 41
0.6
 51
0.0
  7
KANJI1
  0
LINE
  8
0
  6
CONTINUOUS
 62
     4
 10
995.583411
 20
54.8333325
 11
1023.7500755
 21
54.8333325
  0
LINE
  8
0
  6
CONTINUOUS
 62
     4
 10
1009.66674325
 20
76.4999975
 11
1023.7500755
 21
54.8333325
  0
LINE
  8
0
  6
CONTINUOUS
 62
     6
 10
991.250078
 20
48.333333
 11
991.250078
 21
82.999997
  0
LINE
  8
0
  6
CONTINUOUS
 62
     4
 10
1028.0834085
 20
48.333333
 11
1028.0834085
 21
82.999997
  0
LINE
  8
0
  6
CONTINUOUS
 62
     4
 10
1088.7500705
 20
48.333333
 11
1088.7500705
 21
82.999997
  0
LINE
  8
0
  6
CONTINUOUS
 62
     4
 10
1127.7500675
 20
48.333333
 11
1127.7500675
 21
82.999997
  0
LINE
  8
0
  6
CONTINUOUS
 62
     6
 10
70.25
 20
44.0
 11
70.25
 21
1389.0
  0
TEXT
  8
0
  6
CONTINUOUS
 62
     4
 10
85.249996846
 20
68.999994744
 30
0.99999979
 40
9.999997897
  1
ＰＡＲＴＳ　ＬＩＳＴ
 50
0.0
 41
0.6
 51
0.0
  7
KANJI13
  0
TEXT
  8
0
  6
CONTINUOUS
 62
     4
 10
85.249996846
 20
53.999997897
 30
1.199999748
 40
11.999997477
  1
部品表
 50
0.0
 41
0.9
 51
0.0
  7
KANJI14
  0
LINE
  8
0
  6
CONTINUOUS
 62
     6
 10
75.249998949
 20
118.999984231
 11
400.249930615
 21
118.999984231
  0
LINE
  8
0
  6
CONTINUOUS
 62
     6
 10
75.249998949
 20
48.999998949
 11
400.249930615
 21
48.999998949
  0
LINE
  8
0
  6
CONTINUOUS
 62
     6
 10
75.249998949
 20
48.999998949
 11
75.249998949
 21
118.999984231
  0
LINE
  8
0
  6
CONTINUOUS
 62
     6
 10
75.249998949
 20
83.99999159
 11
400.249930615
 21
83.99999159
  0
TEXT
  8
0
  6
CONTINUOUS
 62
     2
 10
85.249996846
 20
93.999989487
 30
1.499999685
 40
14.999996846
  1
ＰＬ
 50
0.0
 41
0.9
 51
0.0
  7
KANJI15
  0
LINE
  8
0
  6
CONTINUOUS
 62
     4
 10
13.333333
 20
48.333333
 11
65.333329
 21
48.333333
  0
LINE
  8
0
  6
CONTINUOUS
 62
     4
 10
13.333333
 20
74.333331
 11
65.333329
 21
74.333331
  0
LINE
  8
0
  6
CONTINUOUS
 62
     4
 10
13.333333
 20
100.333329
 11
65.333329
 21
100.333329
  0
LINE
  8
0
  6
CONTINUOUS
 62
     4
 10
13.333333
 20
126.333327
 11
65.333329
 21
126.333327
  0
LINE
  8
0
  6
CONTINUOUS
 62
     4
 10
13.333333
 20
152.333325
 11
65.333329
 21
152.333325
  0
LINE
  8
0
  6
CONTINUOUS
 62
     4
 10
13.333333
 20
178.333323
 11
65.333329
 21
178.333323
  0
LINE
  8
0
  6
CONTINUOUS
 62
     4
 10
13.333333
 20
204.333321
 11
65.333329
 21
204.333321
  0
LINE
  8
0
  6
CONTINUOUS
 62
     4
 10
13.333333
 20
230.333319
 11
65.333329
 21
230.333319
  0
LINE
  8
0
  6
CONTINUOUS
 62
     4
 10
13.333333
 20
256.333317
 11
65.333329
 21
256.333317
  0
LINE
  8
0
  6
CONTINUOUS
 62
     4
 10
13.333333
 20
282.333315
 11
65.333329
 21
282.333315
  0
LINE
  8
0
  6
CONTINUOUS
 62
     4
 10
65.333329
 20
48.333333
 11
65.333329
 21
282.333315
  0
LINE
  8
0
  6
CONTINUOUS
 62
     4
 10
39.333331
 20
48.333333
 11
39.333331
 21
256.333317
  0
TEXT
  8
0
  6
CONTINUOUS
 62
     4
 10
22.21666565
 20
55.91666575
 30
1.2999999
 40
12.999999
  1
計
 50
0.0
 41
0.75
 51
0.0
  7
KANJI16
  0
TEXT
  8
0
  6
CONTINUOUS
 62
     4
 10
22.21666565
 20
108.34999505
 30
1.2999999
 40
12.999999
  1
設
 50
0.0
 41
0.75
 51
0.0
  7
KANJI16
  0
TEXT
  8
0
  6
CONTINUOUS
 62
     4
 10
22.21666565
 20
133.91665975
 30
1.2999999
 40
12.999999
  1
管
 50
0.0
 41
0.75
 51
0.0
  7
KANJI16
  0
TEXT
  8
0
  6
CONTINUOUS
 62
     4
 10
22.21666565
 20
159.91665775
 30
1.2999999
 40
12.999999
  1
製
 50
0.0
 41
0.75
 51
0.0
  7
KANJI16
  0
TEXT
  8
0
  6
CONTINUOUS
 62
     4
 10
22.21666565
 20
185.91665575
 30
1.2999999
 40
12.999999
  1
資
 50
0.0
 41
0.75
 51
0.0
  7
KANJI16
  0
TEXT
  8
0
  6
CONTINUOUS
 62
     4
 10
22.21666565
 20
211.91665375
 30
1.2999999
 40
12.999999
  1
営
 50
0.0
 41
0.75
 51
0.0
  7
KANJI16
  0
TEXT
  8
0
  6
CONTINUOUS
 62
     4
 10
22.21666565
 20
237.91665175
 30
1.2999999
 40
12.999999
  1
客
 50
0.0
 41
0.75
 51
0.0
  7
KANJI16
  0
TEXT
  8
0
  6
CONTINUOUS
 62
     4
 10
21.999999
 20
264.999983
 30
1.2999999
 40
12.999999
  1
出　図
 50
0.0
 41
0.75
 51
0.0
  7
KANJI16
  0
LINE
  8
0
  6
CONTINUOUS
 62
     4
 10
13.333333
 20
48.333333
 11
13.333333
 21
282.333315
  0
TEXT
  8
0
  6
CONTINUOUS
 62
     4
 10
310.249949538
 20
68.999994744
 30
0.99999979
 40
9.999997897
  1
Ｎ０．
 50
0.0
 41
0.6
 51
0.0
  7
KANJI13
  0
TEXT
  8
0
  6
CONTINUOUS
 62
     4
 10
310.249949538
 20
53.999997897
 30
1.199999748
 40
11.999997477
  1
項番
 50
0.0
 41
0.9
 51
0.0
  7
KANJI14
  0
LINE
  8
0
  6
CONTINUOUS
 62
     6
 10
400.249930615
 20
48.999998949
 11
400.249930615
 21
118.999984231
  0
LINE
  8
0
  6
CONTINUOUS
 62
     6
 10
300.249951641
 20
48.999998949
 11
300.249951641
 21
118.999984231
  0
LINE
  8
0
  6
CONTINUOUS
 62
     6
 10
343.959425053
 20
1334.747759827
 11
111.914646507
 21
1334.747759827
  0
LINE
  8
0
  6
CONTINUOUS
 62
     3
 10
343.959425053
 20
1307.285259827
 11
111.914646507
 21
1307.285259827
  0
LINE
  8
0
  6
CONTINUOUS
 62
     6
 10
343.959425053
 20
1307.285259827
 11
111.914646507
 21
1307.285259827
  0
TEXT
  8
0
  6
CONTINUOUS
 62
     6
 10
369.542228
 20
1332.200410728
 30
1.232517
 40
13.182
  1
電気定格　　　
 50
0.0
 41
0.85
 51
0.0
  7
KANJI17
  0
TEXT
  8
0
  6
CONTINUOUS
 62
     6
 10
115.823517202
 20
1337.94592676
 30
1.0647
 40
11.661
  1
ＬＳ０１　　　：推力リミッタ（前進時過負荷用）
 50
0.0
 41
0.822608696
 51
0.0
  7
KANJI18
  0
TEXT
  8
0
  6
CONTINUOUS
 62
     6
 10
115.823517202
 20
1310.48342676
 30
1.0647
 40
11.661
  1
ＬＳ０２　　　：推力リミッタ（後進時過負荷用）
 50
0.0
 41
0.822608696
 51
0.0
  7
KANJI18
  0
TEXT
  8
0
  6
CONTINUOUS
 62
     6
 10
382.343715102
 20
1301.626958599
 30
0.0
 40
11.8638
  1
ＤＣ１２５Ｖ　０．６Ａ　，ＤＣ２５０Ｖ　０．３Ａ　
 50
0.0
 41
0.726495726
 51
0.0
  7
KANJI19
  0
TEXT
  8
0
  6
CONTINUOUS
 62
     6
 10
377.087132178
 20
1349.961726126
 30
0.0
 40
45.0
  1
｝
 50
0.0
 41
0.538166667
 51
0.0
  7
KANJI20
  0
LINE
  8
0
  6
LTYPE2
 62
     6
 10
93.95
 20
1362.2
 11
93.95
 21
1103.2
  0
LINE
  8
0
  6
CONTINUOUS
 62
     1
 10
851.25
 20
1226.95
 11
1499.25
 21
1226.95
  0
LINE
  8
0
  6
CONTINUOUS
 62
     1
 10
851.25
 20
1198.95
 11
1499.25
 21
1198.95
  0
LINE
  8
0
  6
CONTINUOUS
 62
     2
 10
851.25
 20
1170.95
 11
1499.25
 21
1170.95
  0
LINE
  8
0
  6
CONTINUOUS
 62
     2
 10
851.25
 20
1142.95
 11
1499.25
 21
1142.95
  0
LINE
  8
0
  6
CONTINUOUS
 62
     2
 10
851.25
 20
1114.95
 11
1499.25
 21
1114.95
  0
TEXT
  8
0
  6
CONTINUOUS
 62
     2
 10
891.25
 20
1206.95
 30
1.28
 40
12.8
  1
形
 50
0.0
 41
0.9
 51
0.0
  7
KANJI21
  0
TEXT
  8
0
  6
CONTINUOUS
 62
     2
 10
969.25
 20
1206.95
 30
1.28
 40
12.8
  1
式
 50
0.0
 41
0.9
 51
0.0
  7
KANJI21
  0
TEXT
  8
0
  6
CONTINUOUS
 62
     2
 10
1029.65
 20
1206.15
 30
1.2
 40
12.0
  1
ストローク
 50
0.0
 41
0.9
 51
0.0
  7
KANJI22
  0
TEXT
  8
0
  6
CONTINUOUS
 62
     2
 10
1106.45
 20
1205.35
 30
0.0
 40
12.0
  1
ｍｉｎ　
 50
0.0
 41
0.9
 51
0.0
  7
KANJI23
  0
TEXT
  8
0
  6
CONTINUOUS
 62
     2
 10
1186.45
 20
1205.35
 30
0.0
 40
12.0
  1
ｍｉｎ　
 50
0.0
 41
0.9
 51
0.0
  7
KANJI23
  0
TEXT
  8
0
  6
CONTINUOUS
 62
     2
 10
1346.45
 20
1205.35
 30
0.0
 40
12.0
  1
ｍｉｎ　
 50
0.0
 41
0.9
 51
0.0
  7
KANJI23
  0
TEXT
  8
0
  6
CONTINUOUS
 62
     2
 10
1147.25
 20
1206.15
 30
1.4
 40
14.0
  1
ＡＬ
 50
0.0
 41
0.9
 51
0.0
  7
KANJI24
  0
TEXT
  8
0
  6
CONTINUOUS
 62
     2
 10
1227.25
 20
1206.15
 30
1.4
 40
14.0
  1
Ｌ
 50
0.0
 41
0.9
 51
0.0
  7
KANJI24
  0
TEXT
  8
0
  6
CONTINUOUS
 62
     2
 10
1295.25
 20
1206.15
 30
1.4
 40
14.0
  1
Ｃ
 50
0.0
 41
0.9
 51
0.0
  7
KANJI24
  0
TEXT
  8
0
  6
CONTINUOUS
 62
     2
 10
1387.25
 20
1206.15
 30
1.4
 40
14.0
  1
Ｐ
 50
0.0
 41
0.9
 51
0.0
  7
KANJI24
  0
TEXT
  8
0
  6
CONTINUOUS
 62
     2
 10
1469.55
 20
1205.85
 30
0.0
 40
10.8
  1
（ｋｇ）
 50
0.0
 41
0.740740741
 51
0.0
  7
KANJI25
  0
TEXT
  8
0
  6
CONTINUOUS
 62
     2
 10
1421.55
 20
1205.65
 30
1.2
 40
14.0
  1
概算重量
 50
0.0
 41
0.857142857
 51
0.0
  7
KANJI26
  0
TEXT
  8
0
  6
CONTINUOUS
 62
     2
 10
1037.25
 20
1177.65
 30
1.2
 40
12.0
  1
　１００
 50
0.0
 41
0.9
 51
0.0
  7
KANJI22
  0
TEXT
  8
0
  6
CONTINUOUS
 62
     2
 10
1037.25
 20
1149.65
 30
1.2
 40
12.0
  1
　２００
 50
0.0
 41
0.9
 51
0.0
  7
KANJI22
  0
TEXT
  8
0
  6
CONTINUOUS
 62
     2
 10
1037.25
 20
1121.65
 30
1.2
 40
12.0
  1
　３００
 50
0.0
 41
0.9
 51
0.0
  7
KANJI22
  0
TEXT
  8
0
  6
CONTINUOUS
 62
     2
 10
1277.25
 20
1177.65
 30
1.2
 40
12.0
  1
　２３８
 50
0.0
 41
0.9
 51
0.0
  7
KANJI22
  0
TEXT
  8
0
  6
CONTINUOUS
 62
     2
 10
1277.25
 20
1149.65
 30
1.2
 40
12.0
  1
　３３８
 50
0.0
 41
0.9
 51
0.0
  7
KANJI22
  0
TEXT
  8
0
  6
CONTINUOUS
 62
     2
 10
1277.25
 20
1121.65
 30
1.2
 40
12.0
  1
　４３８
 50
0.0
 41
0.9
 51
0.0
  7
KANJI22
  0
TEXT
  8
0
  6
CONTINUOUS
 62
     2
 10
1357.25
 20
1121.65
 30
1.2
 40
12.0
  1
　　３５
 50
0.0
 41
0.9
 51
0.0
  7
KANJI22
  0
TEXT
  8
0
  6
CONTINUOUS
 62
     2
 10
1357.25
 20
1149.65
 30
1.2
 40
12.0
  1
　　３５
 50
0.0
 41
0.9
 51
0.0
  7
KANJI22
  0
TEXT
  8
0
  6
CONTINUOUS
 62
     2
 10
1357.25
 20
1177.65
 30
1.2
 40
12.0
  1
　　３５
 50
0.0
 41
0.9
 51
0.0
  7
KANJI22
  0
TEXT
  8
0
  6
CONTINUOUS
 62
     2
 10
1037.25
 20
1009.65
 30
1.2
 40
12.0
  1
　７００
 50
0.0
 41
0.9
 51
0.0
  7
KANJI22
  0
TEXT
  8
0
  6
CONTINUOUS
 62
     2
 10
1277.25
 20
1009.65
 30
1.2
 40
12.0
  1
　８７８
 50
0.0
 41
0.9
 51
0.0
  7
KANJI22
  0
LINE
  8
0
  6
CONTINUOUS
 62
     2
 10
851.25
 20
1058.95
 11
1499.25
 21
1058.95
  0
LINE
  8
0
  6
CONTINUOUS
 62
     2
 10
851.25
 20
1086.95
 11
1499.25
 21
1086.95
  0
LINE
  8
0
  6
CONTINUOUS
 62
     2
 10
851.25
 20
1002.95
 11
1499.25
 21
1002.95
  0
LINE
  8
0
  6
CONTINUOUS
 62
     2
 10
851.25
 20
1030.95
 11
1499.25
 21
1030.95
  0
TEXT
  8
0
  6
CONTINUOUS
 62
     2
 10
1037.25
 20
1065.65
 30
1.2
 40
12.0
  1
　５００
 50
0.0
 41
0.9
 51
0.0
  7
KANJI22
  0
TEXT
  8
0
  6
CONTINUOUS
 62
     2
 10
1277.25
 20
1065.65
 30
1.2
 40
12.0
  1
　６３８
 50
0.0
 41
0.9
 51
0.0
  7
KANJI22
  0
TEXT
  8
0
  6
CONTINUOUS
 62
     2
 10
1037.25
 20
1093.65
 30
1.2
 40
12.0
  1
　４００
 50
0.0
 41
0.9
 51
0.0
  7
KANJI22
  0
TEXT
  8
0
  6
CONTINUOUS
 62
     2
 10
1037.25
 20
1037.65
 30
1.2
 40
12.0
  1
　６００
 50
0.0
 41
0.9
 51
0.0
  7
KANJI22
  0
TEXT
  8
0
  6
CONTINUOUS
 62
     2
 10
1277.25
 20
1093.65
 30
1.2
 40
12.0
  1
　５３８
 50
0.0
 41
0.9
 51
0.0
  7
KANJI22
  0
TEXT
  8
0
  6
CONTINUOUS
 62
     2
 10
1277.25
 20
1037.65
 30
1.2
 40
12.0
  1
　７７８
 50
0.0
 41
0.9
 51
0.0
  7
KANJI22
  0
TEXT
  8
0
  6
CONTINUOUS
 62
     2
 10
1357.25
 20
1093.65
 30
1.2
 40
12.0
  1
　　８５
 50
0.0
 41
0.9
 51
0.0
  7
KANJI22
  0
TEXT
  8
0
  6
CONTINUOUS
 62
     2
 10
1357.25
 20
1065.65
 30
1.2
 40
12.0
  1
　１１２
 50
0.0
 41
0.9
 51
0.0
  7
KANJI22
  0
TEXT
  8
0
  6
CONTINUOUS
 62
     2
 10
1357.25
 20
1037.65
 30
1.2
 40
12.0
  1
　１２８
 50
0.0
 41
0.9
 51
0.0
  7
KANJI22
  0
TEXT
  8
0
  6
CONTINUOUS
 62
     2
 10
1357.25
 20
1009.65
 30
1.2
 40
12.0
  1
　１４８
 50
0.0
 41
0.9
 51
0.0
  7
KANJI22
  0
TEXT
  8
0
  6
CONTINUOUS
 62
     2
 10
1197.25
 20
1009.65
 30
1.2
 40
12.0
  1
１０６１
 50
0.0
 41
0.9
 51
0.0
  7
KANJI22
  0
TEXT
  8
0
  6
CONTINUOUS
 62
     2
 10
1197.25
 20
1037.65
 30
1.2
 40
12.0
  1
　９４１
 50
0.0
 41
0.9
 51
0.0
  7
KANJI22
  0
TEXT
  8
0
  6
CONTINUOUS
 62
     2
 10
1197.25
 20
1065.65
 30
1.2
 40
12.0
  1
　７８５
 50
0.0
 41
0.9
 51
0.0
  7
KANJI22
  0
TEXT
  8
0
  6
CONTINUOUS
 62
     2
 10
1197.25
 20
1093.65
 30
1.2
 40
12.0
  1
　６５８
 50
0.0
 41
0.9
 51
0.0
  7
KANJI22
  0
TEXT
  8
0
  6
CONTINUOUS
 62
     2
 10
1197.25
 20
1121.65
 30
1.2
 40
12.0
  1
　５０８
 50
0.0
 41
0.9
 51
0.0
  7
KANJI22
  0
TEXT
  8
0
  6
CONTINUOUS
 62
     2
 10
1197.25
 20
1149.65
 30
1.2
 40
12.0
  1
　４０８
 50
0.0
 41
0.9
 51
0.0
  7
KANJI22
  0
TEXT
  8
0
  6
CONTINUOUS
 62
     2
 10
1197.25
 20
1177.65
 30
1.2
 40
12.0
  1
　３０８
 50
0.0
 41
0.9
 51
0.0
  7
KANJI22
  0
TEXT
  8
0
  6
CONTINUOUS
 62
     2
 10
1648.4166945
 20
113.999995
 30
10.833333333
 40
25.0
  1
３００２３４４
 50
0.0
 41
0.8
 51
0.0
  7
KANJI27
  0
TEXT
  8
0
  6
CONTINUOUS
 62
     2
 10
1117.25
 20
1149.65
 30
1.2
 40
12.0
  1
　７８５
 50
0.0
 41
0.9
 51
0.0
  7
KANJI22
  0
TEXT
  8
0
  6
CONTINUOUS
 62
     2
 10
1117.25
 20
1121.65
 30
1.2
 40
12.0
  1
　８８５
 50
0.0
 41
0.9
 51
0.0
  7
KANJI22
  0
TEXT
  8
0
  6
CONTINUOUS
 62
     2
 10
1117.25
 20
1177.65
 30
1.2
 40
12.0
  1
　６８５
 50
0.0
 41
0.9
 51
0.0
  7
KANJI22
  0
TEXT
  8
0
  6
CONTINUOUS
 62
     2
 10
1117.25
 20
1093.65
 30
1.2
 40
12.0
  1
１０３５
 50
0.0
 41
0.9
 51
0.0
  7
KANJI22
  0
TEXT
  8
0
  6
CONTINUOUS
 62
     2
 10
1117.25
 20
1065.65
 30
1.2
 40
12.0
  1
１１６２
 50
0.0
 41
0.9
 51
0.0
  7
KANJI22
  0
TEXT
  8
0
  6
CONTINUOUS
 62
     2
 10
1117.25
 20
1037.65
 30
1.2
 40
12.0
  1
１３１８
 50
0.0
 41
0.9
 51
0.0
  7
KANJI22
  0
TEXT
  8
0
  6
CONTINUOUS
 62
     2
 10
1117.25
 20
1009.65
 30
1.2
 40
12.0
  1
１４３８
 50
0.0
 41
0.9
 51
0.0
  7
KANJI22
  0
CIRCLE
  8
0
  6
CONTINUOUS
 62
     1
 10
691.0
 20
587.5
 40
20.0
  0
CIRCLE
  8
0
  6
CONTINUOUS
 62
     1
 10
691.0
 20
587.5
 40
8.0
  0
CIRCLE
  8
0
  6
CONTINUOUS
 62
     1
 10
691.0
 20
587.5
 40
27.0
  0
LINE
  8
0
  6
CONTINUOUS
 62
     1
 10
1087.0
 20
567.5
 11
1090.0
 21
570.5
  0
LINE
  8
0
  6
CONTINUOUS
 62
     1
 10
1087.0
 20
607.5
 11
1090.0
 21
604.5
  0
CIRCLE
  8
0
  6
CONTINUOUS
 62
     1
 10
1072.0
 20
587.5
 40
8.0
  0
LINE
  8
0
  6
CONTINUOUS
 62
     1
 10
797.0
 20
547.5
 11
797.0
 21
627.5
  0
LINE
  8
0
  6
CONTINUOUS
 62
     1
 10
789.0
 20
547.5
 11
797.0
 21
547.5
  0
LINE
  8
0
  6
CONTINUOUS
 62
     1
 10
789.0
 20
627.5
 11
797.0
 21
627.5
  0
LINE
  8
0
  6
CONTINUOUS
 62
     1
 10
789.0
 20
624.5
 11
797.0
 21
624.5
  0
LINE
  8
0
  6
CONTINUOUS
 62
     1
 10
789.0
 20
550.5
 11
797.0
 21
550.5
  0
LINE
  8
0
  6
CONTINUOUS
 62
     1
 10
789.0
 20
586.0
 11
797.0
 21
586.0
  0
LINE
  8
0
  6
CONTINUOUS
 62
     1
 10
789.0
 20
589.0
 11
797.0
 21
589.0
  0
LINE
  8
0
  6
CONTINUOUS
 62
     1
 10
715.0
 20
610.5
 11
789.0
 21
610.5
  0
LINE
  8
0
  6
LTYPE3
 62
     2
 10
691.0
 20
534.5
 11
691.0
 21
640.5
  0
LINE
  8
0
  6
CONTINUOUS
 62
     2
 10
693.7
 20
580.5
 11
693.669254685
 21
570.500047264
  0
LINE
  8
0
  6
CONTINUOUS
 62
     2
 10
693.7
 20
580.5
 11
698.673350144
 21
571.824414236
  0
LINE
  8
0
  6
CONTINUOUS
 62
     2
 10
693.7
 20
580.5
 11
741.1
 21
401.4
  0
LINE
  8
0
  6
CONTINUOUS
 62
     2
 10
1052.0
 20
842.5
 11
1110.0
 21
842.5
  0
LINE
  8
0
  6
CONTINUOUS
 62
     2
 10
1090.0
 20
842.5
 11
1099.659258263
 21
839.911809549
  0
LINE
  8
0
  6
CONTINUOUS
 62
     2
 10
1090.0
 20
842.5
 11
1099.659258263
 21
845.088190451
  0
LINE
  8
0
  6
CONTINUOUS
 62
     2
 10
1072.0
 20
812.5
 11
1062.340741737
 21
815.088190451
  0
LINE
  8
0
  6
CONTINUOUS
 62
     2
 10
1072.0
 20
812.5
 11
1062.340741737
 21
809.911809549
  0
LINE
  8
0
  6
CONTINUOUS
 62
     2
 10
1072.0
 20
812.5
 11
691.0
 21
812.5
  0
LINE
  8
0
  6
CONTINUOUS
 62
     2
 10
691.0
 20
812.5
 11
700.659258263
 21
809.911809549
  0
LINE
  8
0
  6
CONTINUOUS
 62
     2
 10
691.0
 20
812.5
 11
700.659258263
 21
815.088190451
  0
LINE
  8
0
  6
CONTINUOUS
 62
     2
 10
691.0
 20
782.5
 11
700.659258263
 21
779.911809549
  0
LINE
  8
0
  6
CONTINUOUS
 62
     2
 10
691.0
 20
782.5
 11
700.659258263
 21
785.088190451
  0
LINE
  8
0
  6
CONTINUOUS
 62
     2
 10
691.0
 20
782.5
 11
977.0
 21
782.5
  0
LINE
  8
0
  6
CONTINUOUS
 62
     2
 10
977.0
 20
782.5
 11
967.340741737
 21
785.088190451
  0
LINE
  8
0
  6
CONTINUOUS
 62
     2
 10
977.0
 20
782.5
 11
967.340741737
 21
779.911809549
  0
LINE
  8
0
  6
CONTINUOUS
 62
     2
 10
977.0
 20
782.5
 11
986.659258263
 21
779.911809549
  0
LINE
  8
0
  6
CONTINUOUS
 62
     2
 10
977.0
 20
782.5
 11
986.659258263
 21
785.088190451
  0
LINE
  8
0
  6
CONTINUOUS
 62
     2
 10
977.0
 20
782.5
 11
1037.0
 21
782.5
  0
LINE
  8
0
  6
CONTINUOUS
 62
     2
 10
1037.0
 20
782.5
 11
1027.340741737
 21
785.088190451
  0
LINE
  8
0
  6
CONTINUOUS
 62
     2
 10
1037.0
 20
782.5
 11
1027.340741737
 21
779.911809549
  0
LINE
  8
0
  6
CONTINUOUS
 62
     2
 10
1037.0
 20
782.5
 11
1046.659258263
 21
779.911809549
  0
LINE
  8
0
  6
CONTINUOUS
 62
     2
 10
1037.0
 20
782.5
 11
1046.659258263
 21
785.088190451
  0
LINE
  8
0
  6
CONTINUOUS
 62
     2
 10
1037.0
 20
782.5
 11
1072.0
 21
782.5
  0
LINE
  8
0
  6
CONTINUOUS
 62
     2
 10
1072.0
 20
782.5
 11
1062.340741737
 21
785.088190451
  0
LINE
  8
0
  6
CONTINUOUS
 62
     2
 10
1072.0
 20
782.5
 11
1062.340741737
 21
779.911809549
  0
LINE
  8
0
  6
CONTINUOUS
 62
     2
 10
1119.8
 20
567.5
 11
1122.388190451
 21
577.159258263
  0
LINE
  8
0
  6
CONTINUOUS
 62
     2
 10
1119.8
 20
567.5
 11
1117.211809549
 21
577.159258263
  0
LINE
  8
0
  6
CONTINUOUS
 62
     2
 10
1119.8
 20
567.5
 11
1119.8
 21
607.5
  0
LINE
  8
0
  6
CONTINUOUS
 62
     2
 10
1119.8
 20
607.5
 11
1117.211809549
 21
597.840741737
  0
LINE
  8
0
  6
CONTINUOUS
 62
     2
 10
1119.8
 20
607.5
 11
1122.388190451
 21
597.840741737
  0
LINE
  8
0
  6
CONTINUOUS
 62
     1
 10
1090.0
 20
404.5
 11
1090.0
 21
392.5
  0
LINE
  8
0
  6
CONTINUOUS
 62
     1
 10
1080.0
 20
381.5
 11
1064.0
 21
381.5
  0
LINE
  8
0
  6
CONTINUOUS
 62
     1
 10
1047.0
 20
404.5
 11
1090.0
 21
404.5
  0
LINE
  8
0
  6
CONTINUOUS
 62
     1
 10
1090.0
 20
420.5
 11
1090.0
 21
432.5
  0
LINE
  8
0
  6
CONTINUOUS
 62
     1
 10
1080.0
 20
443.5
 11
1064.0
 21
443.5
  0
LINE
  8
0
  6
CONTINUOUS
 62
     2
 10
1127.733854631
 20
420.5
 11
1125.14566418
 21
410.840741737
  0
LINE
  8
0
  6
CONTINUOUS
 62
     2
 10
1127.733854631
 20
420.5
 11
1130.322045082
 21
410.840741737
  0
LINE
  8
0
  6
CONTINUOUS
 62
     2
 10
1127.833854631
 20
420.5
 11
1125.24566418
 21
410.840741737
  0
LINE
  8
0
  6
CONTINUOUS
 62
     2
 10
1127.833854631
 20
420.5
 11
1130.422045082
 21
410.840741737
  0
LINE
  8
0
  6
CONTINUOUS
 62
     2
 10
1174.2
 20
392.5
 11
1176.788190451
 21
402.159258263
  0
LINE
  8
0
  6
CONTINUOUS
 62
     2
 10
1174.2
 20
392.5
 11
1171.611809549
 21
402.159258263
  0
LINE
  8
0
  6
CONTINUOUS
 62
     2
 10
1174.2
 20
392.5
 11
1174.2
 21
432.5
  0
LINE
  8
0
  6
CONTINUOUS
 62
     2
 10
1174.2
 20
432.5
 11
1171.611809549
 21
422.840741737
  0
LINE
  8
0
  6
CONTINUOUS
 62
     2
 10
1174.2
 20
432.5
 11
1176.788190451
 21
422.840741737
  0
LINE
  8
0
  6
CONTINUOUS
 62
     2
 10
1135.833854631
 20
432.5
 11
1181.0
 21
432.5
  0
LINE
  8
0
  6
CONTINUOUS
 62
     2
 10
1127.833854631
 20
432.5
 11
1130.422045082
 21
442.159258263
  0
LINE
  8
0
  6
CONTINUOUS
 62
     2
 10
1127.833854631
 20
432.5
 11
1125.24566418
 21
442.159258263
  0
LINE
  8
0
  6
CONTINUOUS
 62
     2
 10
1127.733854631
 20
420.5
 11
1127.733854631
 21
404.5
  0
LINE
  8
0
  6
CONTINUOUS
 62
     2
 10
1127.733854631
 20
404.5
 11
1130.322045082
 21
414.159258263
  0
LINE
  8
0
  6
CONTINUOUS
 62
     2
 10
1127.733854631
 20
404.5
 11
1125.14566418
 21
414.159258263
  0
LINE
  8
0
  6
CONTINUOUS
 62
     2
 10
1127.833854631
 20
424.5
 11
1127.833854631
 21
348.9
  0
LINE
  8
0
  6
CONTINUOUS
 62
     2
 10
1127.833854631
 20
392.5
 11
1130.422045082
 21
382.840741737
  0
LINE
  8
0
  6
CONTINUOUS
 62
     2
 10
1127.833854631
 20
392.5
 11
1125.24566418
 21
382.840741737
  0
LINE
  8
0
  6
CONTINUOUS
 62
     2
 10
1135.833854631
 20
392.5
 11
1182.0
 21
392.5
  0
LINE
  8
0
  6
CONTINUOUS
 62
     1
 10
1057.0
 20
435.5
 11
1087.0
 21
435.5
  0
LINE
  8
0
  6
CONTINUOUS
 62
     1
 10
1057.0
 20
432.5
 11
1057.0
 21
435.5
  0
LINE
  8
0
  6
CONTINUOUS
 62
     1
 10
1087.0
 20
432.5
 11
1087.0
 21
435.5
  0
LINE
  8
0
  6
CONTINUOUS
 62
     1
 10
1080.0
 20
435.5
 11
1080.0
 21
443.5
  0
LINE
  8
0
  6
CONTINUOUS
 62
     1
 10
1064.0
 20
443.5
 11
1064.0
 21
435.5
  0
LINE
  8
0
  6
LTYPE1
 62
     2
 10
1064.0
 20
435.5
 11
1064.0
 21
420.5
  0
LINE
  8
0
  6
LTYPE1
 62
     2
 10
1080.0
 20
420.5
 11
1080.0
 21
435.5
  0
LINE
  8
0
  6
LTYPE2
 62
     2
 10
1067.6
 20
438.15
 11
1076.0
 21
438.15
  0
LINE
  8
0
  6
CONTINUOUS
 62
     1
 10
1080.0
 20
381.5
 11
1064.0
 21
381.5
  0
LINE
  8
0
  6
CONTINUOUS
 62
     1
 10
1057.0
 20
389.5
 11
1087.0
 21
389.5
  0
LINE
  8
0
  6
CONTINUOUS
 62
     1
 10
1057.0
 20
392.5
 11
1057.0
 21
389.5
  0
LINE
  8
0
  6
CONTINUOUS
 62
     1
 10
1087.0
 20
392.5
 11
1087.0
 21
389.5
  0
LINE
  8
0
  6
CONTINUOUS
 62
     1
 10
1080.0
 20
389.5
 11
1080.0
 21
381.5
  0
LINE
  8
0
  6
CONTINUOUS
 62
     1
 10
1064.0
 20
381.5
 11
1064.0
 21
389.5
  0
LINE
  8
0
  6
LTYPE2
 62
     2
 10
1067.6
 20
386.85
 11
1076.0
 21
386.85
  0
LINE
  8
0
  6
CONTINUOUS
 62
     1
 10
1064.0
 20
381.5
 11
1064.0
 21
389.5
  0
LINE
  8
0
  6
CONTINUOUS
 62
     1
 10
1080.0
 20
389.5
 11
1080.0
 21
381.5
  0
LINE
  8
0
  6
LTYPE1
 62
     2
 10
1080.0
 20
404.5
 11
1080.0
 21
389.5
  0
LINE
  8
0
  6
LTYPE1
 62
     2
 10
1064.0
 20
389.5
 11
1064.0
 21
404.5
  0
LINE
  8
0
  6
CONTINUOUS
 62
     2
 10
1127.833854631
 20
400.5
 11
1127.833854631
 21
461.7
  0
LINE
  8
0
  6
CONTINUOUS
 62
     2
 10
1064.0
 20
470.6
 11
1054.340741737
 21
473.188190451
  0
LINE
  8
0
  6
CONTINUOUS
 62
     2
 10
1064.0
 20
470.6
 11
1054.340741737
 21
468.011809549
  0
LINE
  8
0
  6
CONTINUOUS
 62
     2
 10
1080.0
 20
470.6
 11
1089.659258263
 21
468.011809549
  0
LINE
  8
0
  6
CONTINUOUS
 62
     2
 10
1080.0
 20
470.6
 11
1089.659258263
 21
473.188190451
  0
LINE
  8
0
  6
CONTINUOUS
 62
     2
 10
1044.0
 20
470.6
 11
1136.0
 21
470.6
  0
TEXT
  8
0
  6
CONTINUOUS
 62
     2
 10
1127.75
 20
483.26
 30
0.84
 40
8.4
  1
Ｈ１０
 50
0.0
 41
0.9
 51
0.0
  7
KANJI28
  0
TEXT
  8
0
  6
CONTINUOUS
 62
     2
 10
1127.75
 20
474.86
 30
0.84
 40
8.4
  1
ｈ９
 50
0.0
 41
0.9
 51
0.0
  7
KANJI28
  0
LINE
  8
0
  6
CONTINUOUS
 62
     2
 10
1072.0
 20
482.85
 11
1072.0
 21
491.35
  0
LINE
  8
0
  6
CONTINUOUS
 62
     2
 10
1072.0
 20
483.35
 11
1062.340741737
 21
485.938190451
  0
LINE
  8
0
  6
CONTINUOUS
 62
     2
 10
1072.0
 20
483.35
 11
1062.340741737
 21
480.761809549
  0
LINE
  8
0
  6
CONTINUOUS
 62
     2
 10
1072.0
 20
483.35
 11
1047.0
 21
483.35
  0
LINE
  8
0
  6
CONTINUOUS
 62
     2
 10
1047.0
 20
483.35
 11
1056.659258263
 21
480.761809549
  0
LINE
  8
0
  6
CONTINUOUS
 62
     2
 10
1047.0
 20
483.35
 11
1056.659258263
 21
485.938190451
  0
LINE
  8
0
  6
CONTINUOUS
 62
     1
 10
977.0
 20
606.5
 11
1037.0
 21
606.5
  0
LINE
  8
0
  6
CONTINUOUS
 62
     2
 10
977.0
 20
622.5
 11
977.0
 21
787.25
  0
LINE
  8
0
  6
CONTINUOUS
 62
     1
 10
842.5
 20
600.0
 11
867.5
 21
600.0
  0
LINE
  8
0
  6
CONTINUOUS
 62
     1
 10
867.5
 20
575.0
 11
867.5
 21
600.0
  0
LINE
  8
0
  6
CONTINUOUS
 62
     1
 10
842.5
 20
575.0
 11
867.5
 21
575.0
  0
LINE
  8
0
  6
CONTINUOUS
 62
     1
 10
842.5
 20
575.0
 11
842.5
 21
600.0
  0
CIRCLE
  8
0
  6
CONTINUOUS
 62
     1
 10
855.0
 20
587.5
 40
12.5
  0
LINE
  8
0
  6
LTYPE3
 62
     2
 10
855.0
 20
606.2
 11
855.0
 21
566.5
  0
LINE
  8
0
  6
CONTINUOUS
 62
     2
 10
850.450185255
 20
579.35
 11
850.260119959
 21
569.351806404
  0
LINE
  8
0
  6
CONTINUOUS
 62
     2
 10
850.450185255
 20
579.35
 11
845.286487082
 21
570.786343002
  0
LINE
  8
0
  6
CONTINUOUS
 62
     2
 10
850.450185255
 20
579.35
 11
829.897884886
 21
508.093820875
  0
LINE
  8
0
  6
LTYPE4
 62
     2
 10
832.349814745
 20
550.5
 11
832.349814745
 21
621.95
  0
LINE
  8
0
  6
LTYPE4
 62
     2
 10
828.349814745
 20
550.5
 11
828.349814745
 21
621.95
  0
LINE
  8
0
  6
CONTINUOUS
 62
     1
 10
832.349814745
 20
619.25
 11
977.0
 21
619.25
  0
LINE
  8
0
  6
CONTINUOUS
 62
     1
 10
797.0
 20
555.75
 11
828.349814745
 21
555.75
  0
LINE
  8
0
  6
CONTINUOUS
 62
     1
 10
797.0
 20
619.25
 11
828.349814745
 21
619.25
  0
LINE
  8
0
  6
CONTINUOUS
 62
     2
 10
691.0
 20
652.5
 11
691.0
 21
820.5
  0
LINE
  8
0
  6
CONTINUOUS
 62
     1
 10
535.0
 20
529.5
 11
557.0
 21
529.5
  0
LINE
  8
0
  6
CONTINUOUS
 62
     1
 10
611.0
 20
625.5
 11
715.0
 21
625.5
  0
LINE
  8
0
  6
CONTINUOUS
 62
     1
 10
611.0
 20
549.5
 11
611.0
 21
625.5
  0
LINE
  8
0
  6
CONTINUOUS
 62
     1
 10
611.0
 20
549.5
 11
789.0
 21
549.5
  0
LINE
  8
0
  6
CONTINUOUS
 62
     1
 10
611.0
 20
549.5
 11
557.0
 21
529.5
  0
LINE
  8
0
  6
CONTINUOUS
 62
     1
 10
535.0
 20
645.5
 11
557.0
 21
645.5
  0
LINE
  8
0
  6
CONTINUOUS
 62
     1
 10
557.0
 20
529.5
 11
557.0
 21
645.5
  0
LINE
  8
0
  6
CONTINUOUS
 62
     1
 10
557.0
 20
645.5
 11
611.0
 21
625.5
  0
LINE
  8
0
  6
CONTINUOUS
 62
     1
 10
1037.0
 20
392.5
 11
1090.0
 21
392.5
  0
LINE
  8
0
  6
CONTINUOUS
 62
     2
 10
1047.0
 20
423.8
 11
1047.0
 21
490.45
  0
CIRCLE
  8
0
  6
CONTINUOUS
 62
     2
 10
1072.0
 20
386.85
 40
2.0
  0
CIRCLE
  8
0
  6
CONTINUOUS
 62
     2
 10
1072.0
 20
438.15
 40
2.0
  0
LINE
  8
0
  6
CONTINUOUS
 62
     1
 10
1047.0
 20
420.5
 11
1090.0
 21
420.5
  0
LINE
  8
0
  6
CONTINUOUS
 62
     1
 10
1047.0
 20
420.5
 11
1047.0
 21
404.5
  0
LINE
  8
0
  6
CONTINUOUS
 62
     1
 10
1064.0
 20
420.5
 11
1064.0
 21
404.5
  0
LINE
  8
0
  6
CONTINUOUS
 62
     1
 10
1080.0
 20
404.5
 11
1080.0
 21
420.5
  0
LINE
  8
0
  6
LTYPE1
 62
     1
 10
1047.0
 20
607.5
 11
1047.0
 21
567.5
  0
LINE
  8
0
  6
CONTINUOUS
 62
     1
 10
1090.0
 20
604.5
 11
1090.0
 21
570.5
  0
LINE
  8
0
  6
CONTINUOUS
 62
     1
 10
789.0
 20
547.5
 11
789.0
 21
632.5
  0
LINE
  8
0
  6
CONTINUOUS
 62
     1
 10
715.0
 20
632.5
 11
789.0
 21
632.5
  0
LINE
  8
0
  6
CONTINUOUS
 62
     1
 10
715.0
 20
604.5
 11
715.0
 21
632.5
  0
LINE
  8
0
  6
CONTINUOUS
 62
     1
 10
664.0
 20
677.0
 11
797.0
 21
677.0
  0
LINE
  8
0
  6
CONTINUOUS
 62
     1
 10
707.0
 20
634.0
 11
794.0
 21
634.0
  0
ARC
  8
0
  6
CONTINUOUS
 62
     1
 10
794.0
 20
637.0
 40
3.0
 50
270.0
 51
0.0
  0
LINE
  8
0
  6
CONTINUOUS
 62
     1
 10
664.0
 20
677.0
 11
664.0
 21
638.0
  0
LINE
  8
0
  6
CONTINUOUS
 62
     1
 10
667.0
 20
635.0
 11
707.0
 21
635.0
  0
ARC
  8
0
  6
CONTINUOUS
 62
     1
 10
667.0
 20
638.0
 40
3.0
 50
180.0
 51
270.0
  0
LINE
  8
0
  6
CONTINUOUS
 62
     1
 10
669.0
 20
684.5
 11
669.0
 21
635.0
  0
LINE
  8
0
  6
CONTINUOUS
 62
     1
 10
669.0
 20
684.5
 11
797.0
 21
684.5
  0
LINE
  8
0
  6
CONTINUOUS
 62
     1
 10
797.0
 20
684.5
 11
797.0
 21
637.0
  0
LINE
  8
0
  6
CONTINUOUS
 62
     1
 10
669.0
 20
678.5
 11
797.0
 21
678.5
  0
LINE
  8
0
  6
LTYPE2
 62
     2
 10
658.0
 20
660.0
 11
675.0
 21
660.0
  0
LINE
  8
0
  6
CONTINUOUS
 62
     1
 10
715.0
 20
634.0
 11
715.0
 21
632.5
  0
LINE
  8
0
  6
CONTINUOUS
 62
     1
 10
789.0
 20
634.0
 11
789.0
 21
632.5
  0
LINE
  8
0
  6
CONTINUOUS
 62
     1
 10
707.0
 20
635.0
 11
707.0
 21
634.0
  0
LINE
  8
0
  6
LTYPE3
 62
     2
 10
752.0
 20
618.143325909
 11
752.0
 21
645.5
  0
LINE
  8
7
  6
CONTINUOUS
 62
     2
 10
664.0
 20
660.0
 11
659.0
 21
668.660254038
  0
LINE
  8
7
  6
CONTINUOUS
 62
     2
 10
664.0
 20
660.0
 11
655.339745962
 21
665.0
  0
LINE
  8
7
  6
CONTINUOUS
 62
     2
 10
664.0
 20
660.0
 11
639.0
 21
685.0
  0
LINE
  8
7
  6
CONTINUOUS
 62
     2
 10
639.0
 20
685.0
 11
580.2
 21
685.0
  0
LINE
  8
7
  6
CONTINUOUS
 62
     2
 10
729.0
 20
684.5
 11
736.189002379
 21
691.451132627
  0
LINE
  8
7
  6
CONTINUOUS
 62
     2
 10
729.0
 20
684.5
 11
731.750292375
 21
694.114358629
  0
LINE
  8
7
  6
CONTINUOUS
 62
     2
 10
729.0
 20
684.5
 11
744.0
 21
709.5
  0
LINE
  8
7
  6
CONTINUOUS
 62
     2
 10
744.0
 20
709.5
 11
814.8
 21
709.5
  0
LINE
  8
0
  6
CONTINUOUS
 62
     2
 10
787.0
 20
508.093820875
 11
829.897884886
 21
508.093820875
  0
LINE
  8
0
  6
CONTINUOUS
 62
     2
 10
741.1
 20
401.4
 11
854.0
 21
401.4
  0
LINE
  8
0
  6
CONTINUOUS
 62
     1
 10
526.0
 20
527.5
 11
535.0
 21
527.5
  0
LINE
  8
0
  6
CONTINUOUS
 62
     1
 10
526.0
 20
647.5
 11
535.0
 21
647.5
  0
LINE
  8
0
  6
CONTINUOUS
 62
     1
 10
526.0
 20
527.5
 11
526.0
 21
647.5
  0
LINE
  8
0
  6
CONTINUOUS
 62
     1
 10
535.0
 20
527.5
 11
535.0
 21
647.5
  0
LINE
  8
0
  6
CONTINUOUS
 62
     1
 10
512.0
 20
587.5
 11
512.0
 21
644.5
  0
ARC
  8
0
  6
CONTINUOUS
 62
     1
 10
516.5
 20
646.0
 40
1.5
 50
270.0
 51
0.0
  0
LINE
  8
0
  6
CONTINUOUS
 62
     1
 10
519.5
 20
648.5
 11
526.0
 21
648.5
  0
LINE
  8
0
  6
CONTINUOUS
 62
     1
 10
518.0
 20
646.0
 11
518.0
 21
647.0
  0
ARC
  8
0
  6
CONTINUOUS
 62
     1
 10
519.5
 20
647.0
 40
1.5
 50
90.0
 51
180.0
  0
LINE
  8
0
  6
CONTINUOUS
 62
     1
 10
363.0
 20
587.5
 11
363.0
 21
644.5
  0
ARC
  8
0
  6
CONTINUOUS
 62
     1
 10
359.5
 20
643.0
 40
1.5
 50
90.0
 51
180.0
  0
LINE
  8
0
  6
CONTINUOUS
 62
     1
 10
518.0
 20
587.5
 11
518.0
 21
646.6
  0
LINE
  8
0
  6
CONTINUOUS
 62
     1
 10
358.0
 20
630.570524155
 11
358.0
 21
643.0
  0
ARC
  8
0
  6
CONTINUOUS
 62
     1
 10
356.5
 20
630.570524155
 40
1.5
 50
288.970407808
 51
0.0
  0
LINE
  8
0
  6
CONTINUOUS
 62
     1
 10
342.0
 20
587.5
 11
342.0
 21
622.929475845
  0
LINE
  8
0
  6
CONTINUOUS
 62
     1
 10
343.012380347
 20
624.348005744
 11
356.987619653
 21
629.151994256
  0
ARC
  8
0
  6
CONTINUOUS
 62
     1
 10
343.5
 20
622.929475845
 40
1.5
 50
108.970407808
 51
180.0
  0
LINE
  8
0
  6
CONTINUOUS
 62
     1
 10
358.0
 20
587.5
 11
358.0
 21
630.570524155
  0
ARC
  8
0
  6
CONTINUOUS
 62
     1
 10
330.0
 20
604.0
 40
1.0
 50
90.0
 51
180.0
  0
LINE
  8
0
  6
CONTINUOUS
 62
     1
 10
330.0
 20
605.0
 11
342.0
 21
605.0
  0
LINE
  8
0
  6
CONTINUOUS
 62
     1
 10
329.0
 20
587.5
 11
329.0
 21
604.0
  0
LINE
  8
0
  6
CONTINUOUS
 62
     1
 10
512.0
 20
587.5
 11
512.0
 21
530.5
  0
ARC
  8
0
  6
CONTINUOUS
 62
     1
 10
516.5
 20
529.0
 40
1.5
 50
0.0
 51
90.0
  0
LINE
  8
0
  6
CONTINUOUS
 62
     1
 10
519.5
 20
526.5
 11
526.0
 21
526.5
  0
LINE
  8
0
  6
CONTINUOUS
 62
     1
 10
518.0
 20
529.0
 11
518.0
 21
528.0
  0
ARC
  8
0
  6
CONTINUOUS
 62
     1
 10
519.5
 20
528.0
 40
1.5
 50
180.0
 51
270.0
  0
LINE
  8
0
  6
CONTINUOUS
 62
     1
 10
363.0
 20
587.5
 11
363.0
 21
530.5
  0
LINE
  8
0
  6
CONTINUOUS
 62
     1
 10
359.5
 20
530.5
 11
516.5
 21
530.5
  0
ARC
  8
0
  6
CONTINUOUS
 62
     1
 10
359.5
 20
532.0
 40
1.5
 50
180.0
 51
270.0
  0
LINE
  8
0
  6
CONTINUOUS
 62
     1
 10
518.0
 20
587.5
 11
518.0
 21
528.4
  0
LINE
  8
0
  6
CONTINUOUS
 62
     1
 10
342.0
 20
587.5
 11
342.0
 21
552.070524155
  0
ARC
  8
0
  6
CONTINUOUS
 62
     1
 10
343.5
 20
552.070524155
 40
1.5
 50
180.0
 51
251.029592192
  0
ARC
  8
0
  6
CONTINUOUS
 62
     1
 10
330.0
 20
571.0
 40
1.0
 50
180.0
 51
270.0
  0
LINE
  8
0
  6
CONTINUOUS
 62
     1
 10
330.0
 20
570.0
 11
342.0
 21
570.0
  0
LINE
  8
0
  6
CONTINUOUS
 62
     1
 10
329.0
 20
587.5
 11
329.0
 21
571.0
  0
LINE
  8
0
  6
CONTINUOUS
 62
     1
 10
356.7
 20
623.562445841
 11
356.7
 21
618.950565841
  0
LINE
  8
0
  6
CONTINUOUS
 62
     1
 10
356.7
 20
623.562445841
 11
356.7
 21
628.174325841
  0
LINE
  8
0
  6
CONTINUOUS
 62
     1
 10
353.1998
 20
620.080005841
 11
353.851882488
 21
618.950565841
  0
LINE
  8
0
  6
CONTINUOUS
 62
     1
 10
353.1998
 20
623.562445841
 11
353.1998
 21
620.080005841
  0
LINE
  8
0
  6
CONTINUOUS
 62
     1
 10
353.1998
 20
627.044885841
 11
353.851882488
 21
628.174325841
  0
LINE
  8
0
  6
CONTINUOUS
 62
     1
 10
353.1998
 20
623.562445841
 11
353.1998
 21
627.044885841
  0
ARC
  8
0
  6
CONTINUOUS
 62
     1
 10
357.603054926
 20
623.562445841
 40
4.403254926
 50
148.419912243
 51
211.580087757
  0
ARC
  8
0
  6
CONTINUOUS
 62
     1
 10
354.544720132
 20
620.103535841
 40
1.34512595
 50
121.002313915
 51
182.989498403
  0
LINE
  8
0
  6
CONTINUOUS
 62
     1
 10
353.1998
 20
627.044885841
 11
353.851882488
 21
628.174325841
  0
ARC
  8
0
  6
CONTINUOUS
 62
     1
 10
354.544720132
 20
627.021355841
 40
1.34512595
 50
177.010501597
 51
238.997686085
  0
LINE
  8
0
  6
CONTINUOUS
 62
     1
 10
356.7
 20
618.950565841
 11
353.851882488
 21
618.950565841
  0
LINE
  8
0
  6
CONTINUOUS
 62
     1
 10
356.7
 20
621.256505841
 11
353.851882488
 21
621.256505841
  0
LINE
  8
0
  6
CONTINUOUS
 62
     1
 10
356.7
 20
625.868385841
 11
353.851882488
 21
625.868385841
  0
LINE
  8
0
  6
CONTINUOUS
 62
     1
 10
356.7
 20
628.174325841
 11
353.851882488
 21
628.174325841
  0
LINE
  8
0
  6
CONTINUOUS
 62
     1
 10
358.0
 20
618.962445841
 11
356.7
 21
618.962445841
  0
LINE
  8
0
  6
CONTINUOUS
 62
     1
 10
358.0
 20
623.562445841
 11
356.700000446
 21
622.262446287
  0
LINE
  8
0
  6
CONTINUOUS
 62
     1
 10
356.700000446
 20
623.562445841
 11
358.0
 21
624.862445394
  0
LINE
  8
0
  6
CONTINUOUS
 62
     1
 10
358.0
 20
628.162445841
 11
356.7
 21
628.162445841
  0
LINE
  8
0
  6
LTYPE2
 62
     2
 10
350.0
 20
623.562445841
 11
361.0
 21
623.562445841
  0
LINE
  8
0
  6
CONTINUOUS
 62
     1
 10
358.0
 20
544.429475845
 11
358.0
 21
532.0
  0
ARC
  8
0
  6
CONTINUOUS
 62
     1
 10
356.5
 20
544.429475845
 40
1.5
 50
0.0
 51
71.029592192
  0
LINE
  8
0
  6
CONTINUOUS
 62
     1
 10
343.012380347
 20
550.651994256
 11
356.987619653
 21
545.848005744
  0
LINE
  8
0
  6
CONTINUOUS
 62
     1
 10
358.0
 20
587.5
 11
358.0
 21
544.429475845
  0
LINE
  8
0
  6
CONTINUOUS
 62
     1
 10
356.7
 20
551.437554159
 11
356.7
 21
556.049434159
  0
LINE
  8
0
  6
CONTINUOUS
 62
     1
 10
356.7
 20
551.437554159
 11
356.7
 21
546.825674159
  0
LINE
  8
0
  6
CONTINUOUS
 62
     1
 10
353.1998
 20
554.919994159
 11
353.851882488
 21
556.049434159
  0
LINE
  8
0
  6
CONTINUOUS
 62
     1
 10
353.1998
 20
551.437554159
 11
353.1998
 21
554.919994159
  0
LINE
  8
0
  6
CONTINUOUS
 62
     1
 10
353.1998
 20
547.955114159
 11
353.851882488
 21
546.825674159
  0
LINE
  8
0
  6
CONTINUOUS
 62
     1
 10
353.1998
 20
551.437554159
 11
353.1998
 21
547.955114159
  0
ARC
  8
0
  6
CONTINUOUS
 62
     1
 10
357.603054926
 20
551.437554159
 40
4.403254926
 50
148.419912243
 51
211.580087757
  0
ARC
  8
0
  6
CONTINUOUS
 62
     1
 10
354.544720132
 20
554.896464159
 40
1.34512595
 50
177.010501597
 51
238.997686085
  0
LINE
  8
0
  6
CONTINUOUS
 62
     1
 10
353.1998
 20
547.955114159
 11
353.851882488
 21
546.825674159
  0
ARC
  8
0
  6
CONTINUOUS
 62
     1
 10
354.544720132
 20
547.978644159
 40
1.34512595
 50
121.002313915
 51
182.989498403
  0
LINE
  8
0
  6
CONTINUOUS
 62
     1
 10
356.7
 20
556.049434159
 11
353.851882488
 21
556.049434159
  0
LINE
  8
0
  6
CONTINUOUS
 62
     1
 10
356.7
 20
553.743494159
 11
353.851882488
 21
553.743494159
  0
LINE
  8
0
  6
CONTINUOUS
 62
     1
 10
356.7
 20
549.131614159
 11
353.851882488
 21
549.131614159
  0
LINE
  8
0
  6
CONTINUOUS
 62
     1
 10
356.7
 20
546.825674159
 11
353.851882488
 21
546.825674159
  0
LINE
  8
0
  6
CONTINUOUS
 62
     1
 10
358.0
 20
556.037554159
 11
356.7
 21
556.037554159
  0
LINE
  8
0
  6
CONTINUOUS
 62
     1
 10
358.0
 20
551.437554159
 11
356.700000446
 21
552.737553713
  0
LINE
  8
0
  6
CONTINUOUS
 62
     1
 10
356.700000446
 20
551.437554159
 11
358.0
 21
550.137554606
  0
LINE
  8
0
  6
CONTINUOUS
 62
     1
 10
358.0
 20
546.837554159
 11
356.7
 21
546.837554159
  0
LINE
  8
0
  6
LTYPE2
 62
     2
 10
350.0
 20
551.437554159
 11
361.0
 21
551.437554159
  0
LINE
  8
0
  6
CONTINUOUS
 62
     1
 10
328.0
 20
591.3
 11
329.0
 21
591.3
  0
LINE
  8
0
  6
CONTINUOUS
 62
     1
 10
328.0
 20
587.5
 11
329.0
 21
588.5
  0
LINE
  8
0
  6
CONTINUOUS
 62
     1
 10
325.517542648
 20
591.55
 11
328.0
 21
591.55
  0
LINE
  8
0
  6
CONTINUOUS
 62
     1
 10
325.2
 20
591.0
 11
325.517542648
 21
591.55
  0
LINE
  8
0
  6
CONTINUOUS
 62
     1
 10
325.517542648
 20
589.525
 11
328.0
 21
589.525
  0
ARC
  8
0
  6
CONTINUOUS
 62
     1
 10
326.972973788
 20
590.5375
 40
1.772973788
 50
145.174816769
 51
214.825183231
  0
LINE
  8
0
  6
CONTINUOUS
 62
     1
 10
328.0
 20
583.7
 11
329.0
 21
583.7
  0
LINE
  8
0
  6
CONTINUOUS
 62
     1
 10
328.0
 20
586.5
 11
329.0
 21
587.5
  0
LINE
  8
0
  6
CONTINUOUS
 62
     1
 10
325.2
 20
584.0
 11
325.517542648
 21
583.45
  0
LINE
  8
0
  6
CONTINUOUS
 62
     1
 10
325.517542648
 20
583.45
 11
328.0
 21
583.45
  0
LINE
  8
0
  6
CONTINUOUS
 62
     1
 10
325.517542648
 20
585.475
 11
328.0
 21
585.475
  0
ARC
  8
0
  6
CONTINUOUS
 62
     1
 10
326.972973788
 20
584.4625
 40
1.772973788
 50
145.174816769
 51
214.825183231
  0
LINE
  8
0
  6
CONTINUOUS
 62
     1
 10
328.0
 20
591.55
 11
328.0
 21
583.45
  0
LINE
  8
0
  6
CONTINUOUS
 62
     1
 10
325.2
 20
591.0
 11
325.2
 21
584.0
  0
ARC
  8
0
  6
CONTINUOUS
 62
     1
 10
331.815581181
 20
587.5
 40
6.615581181
 50
162.175912681
 51
197.824087319
  0
LINE
  8
0
  6
CONTINUOUS
 62
     1
 10
413.0
 20
665.5
 11
413.0
 21
699.5
  0
LINE
  8
0
  6
CONTINUOUS
 62
     1
 10
413.0
 20
665.5
 11
439.0
 21
665.5
  0
LINE
  8
0
  6
CONTINUOUS
 62
     1
 10
413.0
 20
699.5
 11
439.0
 21
699.5
  0
LINE
  8
0
  6
LTYPE2
 62
     2
 10
406.070524155
 20
682.5
 11
446.070524155
 21
682.5
  0
LINE
  8
0
  6
CONTINUOUS
 62
     1
 10
509.0
 20
657.5
 11
509.0
 21
660.5
  0
ARC
  8
0
  6
CONTINUOUS
 62
     1
 10
505.0
 20
654.5
 40
3.0
 50
90.0
 51
180.0
  0
LINE
  8
0
  6
CONTINUOUS
 62
     1
 10
502.0
 20
647.5
 11
502.0
 21
654.5
  0
ARC
  8
0
  6
CONTINUOUS
 62
     1
 10
499.0
 20
647.5
 40
3.0
 50
270.0
 51
0.0
  0
LINE
  8
0
  6
CONTINUOUS
 62
     1
 10
359.5
 20
644.5
 11
516.5
 21
644.5
  0
LINE
  8
0
  6
CONTINUOUS
 62
     1
 10
449.0
 20
657.5
 11
449.0
 21
660.5
  0
ARC
  8
0
  6
CONTINUOUS
 62
     1
 10
453.0
 20
654.5
 40
3.0
 50
0.0
 51
90.0
  0
LINE
  8
0
  6
CONTINUOUS
 62
     1
 10
456.0
 20
647.5
 11
456.0
 21
654.5
  0
ARC
  8
0
  6
CONTINUOUS
 62
     1
 10
459.0
 20
647.5
 40
3.0
 50
180.0
 51
270.0
  0
LINE
  8
0
  6
CONTINUOUS
 62
     1
 10
449.0
 20
657.5
 11
509.0
 21
657.5
  0
LINE
  8
0
  6
CONTINUOUS
 62
     1
 10
524.087912088
 20
662.5
 11
432.0
 21
706.520045888
  0
LINE
  8
0
  6
CONTINUOUS
 62
     1
 10
526.0
 20
666.5
 11
524.087912088
 21
662.5
  0
LINE
  8
0
  6
CONTINUOUS
 62
     1
 10
526.0
 20
666.5
 11
433.912087912
 21
710.520045888
  0
LINE
  8
0
  6
CONTINUOUS
 62
     1
 10
433.912087912
 20
710.520045888
 11
432.0
 21
706.520045888
  0
LINE
  8
0
  6
CONTINUOUS
 62
     1
 10
519.0
 20
669.846153846
 11
519.0
 21
709.5
  0
ARC
  8
0
  6
CONTINUOUS
 62
     1
 10
516.0
 20
709.5
 40
3.0
 50
0.0
 51
90.0
  0
LINE
  8
0
  6
CONTINUOUS
 62
     1
 10
519.0
 20
663.5
 11
519.0
 21
664.9321338
  0
ARC
  8
0
  6
CONTINUOUS
 62
     1
 10
516.0
 20
663.5
 40
3.0
 50
270.0
 51
0.0
  0
LINE
  8
0
  6
CONTINUOUS
 62
     1
 10
439.0
 20
663.5
 11
439.0
 21
703.173892042
  0
LINE
  8
0
  6
CONTINUOUS
 62
     1
 10
442.0
 20
660.5
 11
516.0
 21
660.5
  0
ARC
  8
0
  6
CONTINUOUS
 62
     1
 10
442.0
 20
663.5
 40
3.0
 50
180.0
 51
270.0
  0
LINE
  8
0
  6
CONTINUOUS
 62
     1
 10
439.0
 20
708.087912088
 11
439.0
 21
709.5
  0
LINE
  8
0
  6
CONTINUOUS
 62
     1
 10
442.0
 20
712.5
 11
516.0
 21
712.5
  0
ARC
  8
0
  6
CONTINUOUS
 62
     1
 10
442.0
 20
709.5
 40
3.0
 50
90.0
 51
180.0
  0
LINE
  8
0
  6
LTYPE2
 62
     2
 10
479.0
 20
632.5
 11
479.0
 21
720.4321338
  0
LINE
  8
0
  6
LTYPE3
 62
     2
 10
1072.0
 20
373.6
 11
1072.0
 21
619.500007629
  0
LINE
  8
7
  6
CONTINUOUS
 62
     2
 10
1072.0
 20
842.5
 11
1062.340741737
 21
845.088190451
  0
LINE
  8
7
  6
CONTINUOUS
 62
     2
 10
1072.0
 20
842.5
 11
1062.340741737
 21
839.911809549
  0
LINE
  8
7
  6
CONTINUOUS
 62
     2
 10
691.0
 20
818.5
 11
691.0
 21
818.5
  0
LINE
  8
7
  6
CONTINUOUS
 62
     2
 10
691.0
 20
812.5
 11
681.340741737
 21
815.088190451
  0
LINE
  8
7
  6
CONTINUOUS
 62
     2
 10
691.0
 20
812.5
 11
681.340741737
 21
809.911809549
  0
LINE
  8
7
  6
CONTINUOUS
 62
     2
 10
413.0
 20
682.5
 11
408.202698351
 21
691.274160751
  0
LINE
  8
7
  6
CONTINUOUS
 62
     2
 10
413.0
 20
682.5
 11
404.458334526
 21
687.699995283
  0
LINE
  8
7
  6
CONTINUOUS
 62
     2
 10
413.0
 20
682.5
 11
392.0
 21
704.5
  0
LINE
  8
7
  6
CONTINUOUS
 62
     2
 10
392.0
 20
704.5
 11
333.2
 21
704.5
  0
LINE
  8
0
  6
CONTINUOUS
 62
     1
 10
314.0
 20
587.5
 11
314.0
 21
601.5
  0
ARC
  8
0
  6
CONTINUOUS
 62
     1
 10
315.5
 20
601.5
 40
1.5
 50
90.0
 51
180.0
  0
LINE
  8
0
  6
CONTINUOUS
 62
     1
 10
314.0
 20
587.5
 11
314.0
 21
573.5
  0
ARC
  8
0
  6
CONTINUOUS
 62
     1
 10
315.5
 20
573.5
 40
1.5
 50
180.0
 51
270.0
  0
LINE
  8
7
  6
CONTINUOUS
 62
     2
 10
314.0
 20
842.5
 11
323.659258263
 21
839.911809549
  0
LINE
  8
7
  6
CONTINUOUS
 62
     2
 10
314.0
 20
842.5
 11
323.659258263
 21
845.088190451
  0
LINE
  8
7
  6
CONTINUOUS
 62
     2
 10
314.0
 20
607.500007629
 11
314.0
 21
848.5
  0
LINE
  8
7
  6
CONTINUOUS
 62
     2
 10
314.0
 20
812.5
 11
323.659258263
 21
809.911809549
  0
LINE
  8
7
  6
CONTINUOUS
 62
     2
 10
314.0
 20
812.5
 11
323.659258263
 21
815.088190451
  0
LINE
  8
7
  6
CONTINUOUS
 62
     2
 10
314.0
 20
813.5
 11
314.0
 21
818.5
  0
LINE
  8
7
  6
CONTINUOUS
 62
     2
 10
1072.0
 20
842.5
 11
314.0
 21
842.5
  0
LINE
  8
7
  6
CONTINUOUS
 62
     2
 10
691.0
 20
812.5
 11
314.0
 21
812.5
  0
LINE
  8
0
  6
CONTINUOUS
 62
     1
 10
315.500006877
 20
603.0
 11
329.0
 21
603.0
  0
LINE
  8
0
  6
CONTINUOUS
 62
     1
 10
315.500008314
 20
572.0
 11
329.0
 21
572.0
  0
LINE
  8
2
  6
CONTINUOUS
 62
     2
 10
795.0
 20
689.99961
 11
892.0
 21
689.99961
  0
LINE
  8
2
  6
CONTINUOUS
 62
     2
 10
884.0
 20
689.99961
 11
881.411809549
 21
680.340351737
  0
LINE
  8
2
  6
CONTINUOUS
 62
     2
 10
884.0
 20
689.99961
 11
886.588190451
 21
680.340351737
  0
LINE
  8
2
  6
CONTINUOUS
 62
     2
 10
884.0
 20
689.99961
 11
884.0
 21
587.5
  0
LINE
  8
2
  6
CONTINUOUS
 62
     2
 10
884.0
 20
587.5
 11
886.588190451
 21
597.159258263
  0
LINE
  8
2
  6
CONTINUOUS
 62
     2
 10
884.0
 20
587.5
 11
881.411809549
 21
597.159258263
  0
LINE
  8
2
  6
CONTINUOUS
 62
     2
 10
314.0
 20
587.5
 11
309.56773406
 21
578.535903914
  0
LINE
  8
2
  6
CONTINUOUS
 62
     2
 10
314.0
 20
587.5
 11
314.643593142
 21
577.520732098
  0
LINE
  8
2
  6
CONTINUOUS
 62
     2
 10
314.0
 20
587.5
 11
301.7
 21
526.0
  0
LINE
  8
0
  6
CONTINUOUS
 62
     1
 10
977.0
 20
606.5
 11
996.0
 21
606.5
  0
LINE
  8
0
  6
CONTINUOUS
 62
     1
 10
944.5
 20
551.75
 11
954.5
 21
551.75
  0
LINE
  8
0
  6
CONTINUOUS
 62
     1
 10
954.5
 20
553.75
 11
957.0
 21
553.75
  0
LINE
  8
0
  6
CONTINUOUS
 62
     1
 10
942.0
 20
553.75
 11
944.5
 21
553.75
  0
LINE
  8
0
  6
CONTINUOUS
 62
     1
 10
957.0
 20
553.75
 11
957.0
 21
587.5
  0
LINE
  8
0
  6
CONTINUOUS
 62
     1
 10
942.0
 20
553.75
 11
942.0
 21
587.5
  0
LINE
  8
0
  6
CONTINUOUS
 62
     1
 10
944.5
 20
551.75
 11
944.5
 21
587.5
  0
LINE
  8
0
  6
CONTINUOUS
 62
     1
 10
954.5
 20
551.75
 11
954.5
 21
587.5
  0
LINE
  8
0
  6
CONTINUOUS
 62
     1
 10
942.0
 20
621.25
 11
942.0
 21
619.25
  0
LINE
  8
0
  6
CONTINUOUS
 62
     1
 10
942.0
 20
621.25
 11
957.0
 21
621.25
  0
ARC
  8
0
  6
CONTINUOUS
 62
     1
 10
962.121501365
 20
634.0
 40
1.0
 50
90.0
 51
165.0
  0
ARC
  8
0
  6
CONTINUOUS
 62
     1
 10
962.121501365
 20
634.0
 40
1.0
 50
15.0
 51
90.0
  0
ARC
  8
0
  6
CONTINUOUS
 62
     1
 10
962.121501365
 20
541.0
 40
1.0
 50
195.0
 51
270.0
  0
ARC
  8
0
  6
CONTINUOUS
 62
     1
 10
962.121501365
 20
541.0
 40
1.0
 50
270.0
 51
345.0
  0
LINE
  8
0
  6
CONTINUOUS
 62
     1
 10
961.155575539
 20
634.258819045
 11
957.0
 21
621.25
  0
LINE
  8
0
  6
CONTINUOUS
 62
     1
 10
961.155575539
 20
540.741180955
 11
957.0
 21
553.75
  0
LINE
  8
0
  6
CONTINUOUS
 62
     1
 10
962.121501365
 20
540.0
 11
962.121501365
 21
587.5
  0
LINE
  8
0
  6
CONTINUOUS
 62
     1
 10
958.0
 20
619.25
 11
958.0
 21
587.5
  0
LINE
  8
0
  6
CONTINUOUS
 62
     1
 10
1003.671294531
 20
553.75
 11
1003.671294531
 21
587.5
  0
LINE
  8
0
  6
CONTINUOUS
 62
     1
 10
1013.006941796
 20
553.75
 11
1013.006941796
 21
587.5
  0
LINE
  8
0
  6
CONTINUOUS
 62
     1
 10
1004.637220357
 20
625.741180955
 11
1006.919514604
 21
634.258819045
  0
ARC
  8
0
  6
CONTINUOUS
 62
     1
 10
1003.671294531
 20
626.0
 40
1.0
 50
270.0
 51
345.0
  0
LINE
  8
0
  6
CONTINUOUS
 62
     1
 10
1004.637220357
 20
549.258819045
 11
1006.919514604
 21
540.741180955
  0
ARC
  8
0
  6
CONTINUOUS
 62
     1
 10
1003.671294531
 20
549.0
 40
1.0
 50
15.0
 51
90.0
  0
LINE
  8
0
  6
CONTINUOUS
 62
     1
 10
1008.851366257
 20
634.258819045
 11
1013.006941796
 21
621.25
  0
LINE
  8
0
  6
CONTINUOUS
 62
     1
 10
1008.851366257
 20
540.741180955
 11
1013.006941796
 21
553.75
  0
LINE
  8
0
  6
CONTINUOUS
 62
     1
 10
1003.671294531
 20
550.0
 11
1003.671294531
 21
587.5
  0
ARC
  8
0
  6
CONTINUOUS
 62
     1
 10
1017.221087696
 20
634.0
 40
1.0
 50
15.0
 51
90.0
  0
ARC
  8
0
  6
CONTINUOUS
 62
     1
 10
1017.221087696
 20
634.0
 40
1.0
 50
90.0
 51
165.0
  0
LINE
  8
0
  6
CONTINUOUS
 62
     1
 10
1013.972867622
 20
625.741180955
 11
1016.25516187
 21
634.258819045
  0
ARC
  8
0
  6
CONTINUOUS
 62
     1
 10
1013.006941796
 20
626.0
 40
1.0
 50
270.0
 51
345.0
  0
ARC
  8
0
  6
CONTINUOUS
 62
     1
 10
1017.221087696
 20
541.0
 40
1.0
 50
270.0
 51
345.0
  0
ARC
  8
0
  6
CONTINUOUS
 62
     1
 10
1017.221087696
 20
541.0
 40
1.0
 50
195.0
 51
270.0
  0
LINE
  8
0
  6
CONTINUOUS
 62
     1
 10
1013.972867622
 20
549.258819045
 11
1016.25516187
 21
540.741180955
  0
ARC
  8
0
  6
CONTINUOUS
 62
     1
 10
1013.006941796
 20
549.0
 40
1.0
 50
15.0
 51
90.0
  0
LINE
  8
0
  6
CONTINUOUS
 62
     1
 10
1013.006941796
 20
550.0
 11
1013.006941796
 21
587.5
  0
LINE
  8
0
  6
CONTINUOUS
 62
     1
 10
1017.221087696
 20
587.5
 11
1017.221087696
 21
540.0
  0
LINE
  8
0
  6
CONTINUOUS
 62
     1
 10
1013.006941796
 20
625.0
 11
1013.006941796
 21
621.25
  0
LINE
  8
0
  6
CONTINUOUS
 62
     1
 10
1018.187013522
 20
540.741180955
 11
1022.182867586
 21
553.25
  0
LINE
  8
0
  6
CONTINUOUS
 62
     1
 10
1018.187013522
 20
634.258819045
 11
1022.502310536
 21
620.75
  0
LINE
  8
0
  6
CONTINUOUS
 62
     1
 10
1022.502310536
 20
620.75
 11
1022.502310536
 21
606.5
  0
LINE
  8
0
  6
CONTINUOUS
 62
     1
 10
1022.342589061
 20
553.25
 11
1022.342589061
 21
587.5
  0
LINE
  8
0
  6
CONTINUOUS
 62
     1
 10
963.087427191
 20
634.258819045
 11
967.24300273
 21
621.25
  0
ARC
  8
0
  6
CONTINUOUS
 62
     1
 10
971.45714863
 20
634.0
 40
1.0
 50
15.0
 51
90.0
  0
ARC
  8
0
  6
CONTINUOUS
 62
     1
 10
971.45714863
 20
634.0
 40
1.0
 50
90.0
 51
165.0
  0
LINE
  8
0
  6
CONTINUOUS
 62
     1
 10
968.208928556
 20
625.741180955
 11
970.491222804
 21
634.258819045
  0
ARC
  8
0
  6
CONTINUOUS
 62
     1
 10
967.24300273
 20
626.0
 40
1.0
 50
270.0
 51
345.0
  0
LINE
  8
0
  6
CONTINUOUS
 62
     1
 10
967.24300273
 20
625.0
 11
967.24300273
 21
621.25
  0
ARC
  8
0
  6
CONTINUOUS
 62
     1
 10
972.096034531
 20
541.0
 40
1.0
 50
270.0
 51
345.0
  0
ARC
  8
0
  6
CONTINUOUS
 62
     1
 10
972.096034531
 20
541.0
 40
1.0
 50
195.0
 51
270.0
  0
LINE
  8
0
  6
CONTINUOUS
 62
     1
 10
968.847814457
 20
549.258819045
 11
971.130108705
 21
540.741180955
  0
ARC
  8
0
  6
CONTINUOUS
 62
     1
 10
967.881888631
 20
549.0
 40
1.0
 50
15.0
 51
90.0
  0
LINE
  8
0
  6
CONTINUOUS
 62
     1
 10
967.881888631
 20
550.0
 11
967.881888631
 21
587.5
  0
LINE
  8
0
  6
CONTINUOUS
 62
     1
 10
972.096034531
 20
587.5
 11
972.096034531
 21
540.0
  0
LINE
  8
0
  6
CONTINUOUS
 62
     1
 10
963.087427191
 20
540.741180955
 11
967.881888631
 21
555.75
  0
LINE
  8
0
  6
CONTINUOUS
 62
     1
 10
958.0
 20
619.25
 11
958.0
 21
587.5
  0
LINE
  8
0
  6
CONTINUOUS
 62
     1
 10
832.349814745
 20
555.75
 11
942.0
 21
555.75
  0
ARC
  8
0
  6
CONTINUOUS
 62
     1
 10
989.431681797
 20
540.95
 40
1.0
 50
270.0
 51
345.0
  0
ARC
  8
0
  6
CONTINUOUS
 62
     1
 10
989.431681797
 20
540.95
 40
1.0
 50
195.0
 51
270.0
  0
LINE
  8
0
  6
CONTINUOUS
 62
     1
 10
986.183461723
 20
549.208819045
 11
988.46575597
 21
540.691180955
  0
ARC
  8
0
  6
CONTINUOUS
 62
     1
 10
985.217535896
 20
548.95
 40
1.0
 50
15.0
 51
90.0
  0
LINE
  8
0
  6
CONTINUOUS
 62
     1
 10
972.423074457
 20
634.258819045
 11
975.380738931
 21
625.0
  0
LINE
  8
0
  6
CONTINUOUS
 62
     1
 10
973.061960358
 20
540.741180955
 11
976.01151122
 21
549.97460075
  0
LINE
  8
0
  6
CONTINUOUS
 62
     1
 10
990.397607623
 20
540.691180955
 11
993.368221982
 21
549.99053896
  0
LINE
  8
0
  6
CONTINUOUS
 62
     1
 10
977.0
 20
619.25
 11
977.0
 21
587.5
  0
LINE
  8
0
  6
CONTINUOUS
 62
     2
 10
1037.0
 20
787.25
 11
1037.0
 21
625.500007629
  0
ARC
  8
0
  6
CONTINUOUS
 62
     1
 10
1007.885440431
 20
634.0
 40
1.0
 50
15.0
 51
90.0
  0
ARC
  8
0
  6
CONTINUOUS
 62
     1
 10
1007.885429641
 20
634.0
 40
1.0
 50
90.0
 51
165.0
  0
ARC
  8
0
  6
CONTINUOUS
 62
     1
 10
1007.885440431
 20
541.0
 40
1.0
 50
270.0
 51
345.0
  0
ARC
  8
0
  6
CONTINUOUS
 62
     1
 10
1007.885440431
 20
541.0
 40
1.0
 50
195.0
 51
270.0
  0
ARC
  8
0
  6
CONTINUOUS
 62
     1
 10
989.492795895
 20
633.95
 40
1.0
 50
15.0
 51
90.0
  0
ARC
  8
0
  6
CONTINUOUS
 62
     1
 10
989.492795895
 20
633.95
 40
1.0
 50
90.0
 51
165.0
  0
LINE
  8
0
  6
CONTINUOUS
 62
     1
 10
986.244575822
 20
625.691180955
 11
988.526870069
 21
634.208819045
  0
ARC
  8
0
  6
CONTINUOUS
 62
     1
 10
985.278649995
 20
625.95
 40
1.0
 50
270.0
 51
345.0
  0
LINE
  8
0
  6
CONTINUOUS
 62
     1
 10
990.458721722
 20
634.208819045
 11
993.400414048
 21
625.0
  0
LINE
  8
0
  6
CONTINUOUS
 62
     1
 10
1007.885440431
 20
587.5
 11
1007.885440431
 21
540.0
  0
LINE
  8
0
  6
LTYPE3
 62
     2
 10
1037.0
 20
412.5
 11
1100.9
 21
412.5
  0
LINE
  8
0
  6
CONTINUOUS
 62
     1
 10
1022.0
 20
446.25
 11
1022.0
 21
378.75
  0
ARC
  8
0
  6
CONTINUOUS
 62
     1
 10
1016.878498635
 20
366.0
 40
1.0
 50
270.0
 51
345.0
  0
ARC
  8
0
  6
CONTINUOUS
 62
     1
 10
1016.878498635
 20
366.0
 40
1.0
 50
195.0
 51
270.0
  0
LINE
  8
0
  6
CONTINUOUS
 62
     1
 10
1013.630278561
 20
374.258819045
 11
1015.912572809
 21
365.741180955
  0
ARC
  8
0
  6
CONTINUOUS
 62
     1
 10
1012.664352735
 20
374.0
 40
1.0
 50
15.0
 51
90.0
  0
ARC
  8
0
  6
CONTINUOUS
 62
     1
 10
1016.878498635
 20
459.0
 40
1.0
 50
15.0
 51
90.0
  0
ARC
  8
0
  6
CONTINUOUS
 62
     1
 10
1016.878498635
 20
459.0
 40
1.0
 50
90.0
 51
165.0
  0
LINE
  8
0
  6
CONTINUOUS
 62
     1
 10
1013.630278561
 20
450.741180955
 11
1015.912572809
 21
459.258819045
  0
ARC
  8
0
  6
CONTINUOUS
 62
     1
 10
1012.664352735
 20
451.0
 40
1.0
 50
270.0
 51
345.0
  0
LINE
  8
0
  6
CONTINUOUS
 62
     1
 10
1012.664352735
 20
450.0
 11
1012.664352735
 21
375.0
  0
LINE
  8
0
  6
CONTINUOUS
 62
     1
 10
1016.878498635
 20
365.0
 11
1016.878498635
 21
460.0
  0
LINE
  8
0
  6
CONTINUOUS
 62
     1
 10
1022.0
 20
378.75
 11
1017.844424461
 21
365.741180955
  0
LINE
  8
0
  6
CONTINUOUS
 62
     1
 10
1022.0
 20
446.25
 11
1017.844424461
 21
459.258819045
  0
LINE
  8
7
  6
CONTINUOUS
 62
     2
 10
987.969424461
 20
460.0
 11
983.969424461
 21
460.0
  0
LINE
  8
7
  6
CONTINUOUS
 62
     2
 10
989.969424461
 20
460.0
 11
987.38123401
 21
450.340741737
  0
LINE
  8
7
  6
CONTINUOUS
 62
     2
 10
989.969424461
 20
460.0
 11
992.557614912
 21
450.340741737
  0
LINE
  8
7
  6
CONTINUOUS
 62
     2
 10
989.969424461
 20
460.0
 11
989.969424461
 21
365.0
  0
LINE
  8
7
  6
CONTINUOUS
 62
     2
 10
989.969424461
 20
365.0
 11
992.557614912
 21
374.659258263
  0
LINE
  8
7
  6
CONTINUOUS
 62
     2
 10
989.969424461
 20
365.0
 11
987.38123401
 21
374.659258263
  0
LINE
  8
7
  6
CONTINUOUS
 62
     2
 10
995.469424461
 20
365.0
 11
995.969424461
 21
365.0
  0
LINE
  8
0
  6
LTYPE2
 62
     2
 10
997.0
 20
412.5
 11
1037.0
 21
412.5
  0
LINE
  8
0
  6
LTYPE2
 62
     2
 10
1007.885440431
 20
635.0
 11
971.45714863
 21
635.0
  0
LINE
  8
0
  6
LTYPE2
 62
     2
 10
1003.671294531
 20
625.0
 11
993.400414048
 21
625.0
  0
LINE
  8
0
  6
LTYPE2
 62
     2
 10
985.278649995
 20
625.0
 11
975.380738931
 21
625.0
  0
LINE
  8
0
  6
LTYPE2
 62
     2
 10
985.217535896
 20
549.9830544
 11
976.01151122
 21
549.97460075
  0
LINE
  8
0
  6
LTYPE2
 62
     2
 10
1003.671294531
 20
550.0
 11
993.368221982
 21
549.99053896
  0
LINE
  8
0
  6
LTYPE2
 62
     2
 10
972.095856131
 20
539.950706066
 11
1007.885262031
 21
539.950706066
  0
LINE
  8
0
  6
CONTINUOUS
 62
     2
 10
982.0
 20
460.0
 11
1016.878498635
 21
460.0
  0
LINE
  8
0
  6
CONTINUOUS
 62
     2
 10
982.0
 20
365.0
 11
1016.878498635
 21
365.0
  0
LINE
  8
0
  6
CONTINUOUS
 62
     1
 10
1037.0
 20
607.5
 11
1087.0
 21
607.5
  0
LINE
  8
0
  6
CONTINUOUS
 62
     1
 10
1037.0
 20
567.5
 11
1087.0
 21
567.5
  0
LINE
  8
0
  6
CONTINUOUS
 62
     1
 10
1034.5
 20
561.25
 11
1024.5
 21
561.25
  0
LINE
  8
0
  6
CONTINUOUS
 62
     1
 10
1037.0
 20
563.25
 11
1034.5
 21
563.25
  0
LINE
  8
0
  6
CONTINUOUS
 62
     1
 10
1024.5
 20
563.25
 11
1022.182867586
 21
563.25
  0
LINE
  8
0
  6
CONTINUOUS
 62
     1
 10
1037.0
 20
610.75
 11
1022.502310536
 21
610.75
  0
LINE
  8
0
  6
CONTINUOUS
 62
     1
 10
1037.0
 20
610.75
 11
1037.0
 21
568.5
  0
LINE
  8
0
  6
CONTINUOUS
 62
     1
 10
1037.0
 20
563.25
 11
1037.0
 21
587.0
  0
LINE
  8
0
  6
CONTINUOUS
 62
     1
 10
1024.5
 20
561.25
 11
1024.5
 21
587.5
  0
LINE
  8
0
  6
CONTINUOUS
 62
     1
 10
1034.5
 20
561.25
 11
1034.5
 21
587.5
  0
LINE
  8
0
  6
CONTINUOUS
 62
     1
 10
1037.0
 20
432.5
 11
1090.0
 21
432.5
  0
LINE
  8
0
  6
CONTINUOUS
 62
     1
 10
1037.0
 20
436.25
 11
1034.5
 21
436.25
  0
LINE
  8
0
  6
CONTINUOUS
 62
     1
 10
1024.5
 20
436.25
 11
1022.0
 21
436.25
  0
LINE
  8
0
  6
CONTINUOUS
 62
     1
 10
1037.0
 20
388.75
 11
1034.5
 21
388.75
  0
LINE
  8
0
  6
CONTINUOUS
 62
     1
 10
1024.5
 20
388.75
 11
1022.0
 21
388.75
  0
LINE
  8
0
  6
CONTINUOUS
 62
     1
 10
1034.5
 20
386.75
 11
1024.5
 21
386.75
  0
LINE
  8
0
  6
CONTINUOUS
 62
     1
 10
1024.5
 20
438.25
 11
1024.5
 21
386.75
  0
LINE
  8
0
  6
CONTINUOUS
 62
     1
 10
1034.5
 20
438.25
 11
1034.5
 21
386.75
  0
LINE
  8
0
  6
CONTINUOUS
 62
     1
 10
1034.5
 20
438.25
 11
1024.5
 21
438.25
  0
LINE
  8
0
  6
CONTINUOUS
 62
     1
 10
1037.0
 20
436.25
 11
1037.0
 21
388.75
  0
TEXT
  8
0
  6
CONTINUOUS
 62
     2
 10
1415.25
 20
1178.65
 30
1.2
 40
12.0
  1
　　２１
 50
0.0
 41
0.9
 51
0.0
  7
KANJI22
  0
TEXT
  8
0
  6
CONTINUOUS
 62
     2
 10
1415.25
 20
1150.65
 30
1.2
 40
12.0
  1
　　２２
 50
0.0
 41
0.9
 51
0.0
  7
KANJI22
  0
TEXT
  8
0
  6
CONTINUOUS
 62
     2
 10
1415.25
 20
1122.65
 30
1.2
 40
12.0
  1
　　２３
 50
0.0
 41
0.9
 51
0.0
  7
KANJI22
  0
TEXT
  8
0
  6
CONTINUOUS
 62
     2
 10
1415.25
 20
1094.65
 30
1.2
 40
12.0
  1
　　２３．５
 50
0.0
 41
0.9
 51
0.0
  7
KANJI22
  0
TEXT
  8
0
  6
CONTINUOUS
 62
     2
 10
1415.25
 20
1066.65
 30
1.2
 40
12.0
  1
　　２４
 50
0.0
 41
0.9
 51
0.0
  7
KANJI22
  0
TEXT
  8
0
  6
CONTINUOUS
 62
     2
 10
1415.25
 20
1038.65
 30
1.2
 40
12.0
  1
　　２５
 50
0.0
 41
0.9
 51
0.0
  7
KANJI22
  0
TEXT
  8
0
  6
CONTINUOUS
 62
     2
 10
1415.25
 20
1010.65
 30
1.2
 40
12.0
  1
　　２６
 50
0.0
 41
0.9
 51
0.0
  7
KANJI22
  0
TEXT
  8
0
  6
CONTINUOUS
 62
     2
 10
127.75
 20
11.5
 30
1.5
 40
15.0
  1
ＦＤ　Ｎｏ．ＭＣ１８６
 50
0.0
 41
1.0
 51
0.0
  7
KANJI29
  0
TEXT
  8
0
  6
CONTINUOUS
 62
     2
 10
1069.2
 20
846.5
 30
0.0
 40
15.0
  1
１８
 50
0.0
 41
0.9
 51
0.0
  7
KANJI30
  0
TEXT
  8
0
  6
CONTINUOUS
 62
     2
 10
1042.7
 20
786.5
 30
0.0
 40
15.0
  1
３５
 50
0.0
 41
0.9
 51
0.0
  7
KANJI30
  0
TEXT
  8
0
  6
CONTINUOUS
 62
     2
 10
816.0
 20
786.5
 30
0.0
 40
15.0
  1
Ｃ
 50
0.0
 41
0.9
 51
0.0
  7
KANJI30
  0
TEXT
  8
0
  6
CONTINUOUS
 62
     2
 10
705.2
 20
846.5
 30
0.0
 40
15.0
  1
ｍｉｎ．ＡＬ
 50
0.0
 41
0.9
 51
0.0
  7
KANJI30
  0
TEXT
  8
0
  6
CONTINUOUS
 62
     2
 10
967.4
 20
786.5
 30
0.0
 40
15.0
  1
ｍｉｎ．Ｐ
 50
0.0
 41
0.9
 51
0.0
  7
KANJI30
  0
TEXT
  8
0
  6
CONTINUOUS
 62
     2
 10
863.5
 20
816.5
 30
0.0
 40
15.0
  1
ｍｉｎ．Ｌ
 50
0.0
 41
0.9
 51
0.0
  7
KANJI30
  0
TEXT
  8
7
  6
CONTINUOUS
 62
     2
 10
580.2
 20
689.0
 30
0.0
 40
15.0
  1
ＰＦ１／２
 50
0.0
 41
0.9
 51
0.0
  7
KANJI30
  0
TEXT
  8
7
  6
CONTINUOUS
 62
     2
 10
744.0
 20
713.5
 30
0.0
 40
15.0
  1
推力リミッタ
 50
0.0
 41
0.9
 51
0.0
  7
KANJI30
  0
TEXT
  8
7
  6
CONTINUOUS
 62
     2
 10
333.2
 20
708.5
 30
0.0
 40
15.0
  1
ＰＦ３／４
 50
0.0
 41
0.9
 51
0.0
  7
KANJI30
  0
TEXT
  8
7
  6
CONTINUOUS
 62
     2
 10
484.6
 20
816.5
 30
0.0
 40
15.0
  1
３７７
 50
0.0
 41
0.9
 51
0.0
  7
KANJI30
  0
TEXT
  8
0
  6
CONTINUOUS
 62
     2
 10
1115.8
 20
576.1
 30
0.0
 40
15.0
  1
４０
 50
90.0
 41
0.9
 51
0.0
  7
KANJI30
  0
TEXT
  8
2
  6
CONTINUOUS
 62
     2
 10
880.0
 20
625.849805
 30
0.0
 40
15.0
  1
１０２
 50
90.0
 41
0.9
 51
0.0
  7
KANJI30
  0
TEXT
  8
0
  6
CONTINUOUS
 62
     2
 10
748.1
 20
405.4
 30
0.0
 40
15.0
  1
φ１６Ｈ１０深２２
 50
0.0
 41
0.9
 51
0.0
  7
KANJI30
  0
TEXT
  8
0
  6
CONTINUOUS
 62
     2
 10
1123.333854631
 20
440.0
 30
0.0
 40
15.0
  1
１２
 50
90.0
 41
0.9
 51
0.0
  7
KANJI30
  0
TEXT
  8
0
  6
CONTINUOUS
 62
     2
 10
1123.833854631
 20
361.0
 30
0.0
 40
15.0
  1
１２
 50
90.0
 41
0.9
 51
0.0
  7
KANJI30
  0
TEXT
  8
0
  6
CONTINUOUS
 62
     2
 10
1151.733854631
 20
399.7
 30
0.0
 40
15.0
  1
１６
 50
90.0
 41
0.9
 51
0.0
  7
KANJI30
  0
TEXT
  8
0
  6
CONTINUOUS
 62
     2
 10
1170.2
 20
400.7
 30
0.0
 40
15.0
  1
４０
 50
90.0
 41
0.9
 51
0.0
  7
KANJI30
  0
TEXT
  8
0
  6
CONTINUOUS
 62
     2
 10
988.75
 20
393.3
 30
0.0
 40
15.0
  1
φ９５
 50
90.0
 41
0.9
 51
0.0
  7
KANJI30
  0
TEXT
  8
2
  6
CONTINUOUS
 62
     2
 10
208.2
 20
530.0
 30
0.0
 40
15.0
  1
手動軸カバ－
 50
0.0
 41
0.9
 51
0.0
  7
KANJI30
  0
LINE
  8
2
  6
CONTINUOUS
 62
     2
 10
301.7
 20
526.0
 11
205.0
 21
526.0
  0
TEXT
  8
0
  6
CONTINUOUS
 62
     2
 10
785.297884886
 20
512.093820875
 30
0.0
 40
15.0
  1
給脂口
 50
0.0
 41
0.9
 51
0.0
  7
KANJI30
  0
POLYLINE
  8
0
  6
CONTINUOUS
 62
     2
 66
     1
  0
VERTEX
  8
0
  6
CONTINUOUS
 62
     2
 10
911.2
 20
555.75
  0
VERTEX
  8
0
  6
CONTINUOUS
 62
     2
 10
911.2
 20
619.25
  0
VERTEX
  8
0
  6
CONTINUOUS
 62
     2
 10
908.611809549
 20
609.590741737
  0
SEQEND
  0
LINE
  8
0
  6
CONTINUOUS
 62
     2
 10
911.2
 20
619.25
 11
913.788190451
 21
609.590741737
  0
TEXT
  8
0
  6
CONTINUOUS
 62
     2
 10
907.2
 20
569.5
 30
0.0
 40
15.0
  1
φ６４
 50
90.0
 41
0.9
 51
0.0
  7
KANJI30
  0
LINE
  8
0
  6
CONTINUOUS
 62
     2
 10
911.2
 20
555.75
 11
913.788190451
 21
565.409258263
  0
LINE
  8
0
  6
CONTINUOUS
 62
     2
 10
911.2
 20
555.75
 11
908.611809549
 21
565.409258263
  0
LINE
  8
0
  6
LTYPE3
 62
     2
 10
909.2
 20
587.5
 11
1096.139501379
 21
587.5
  0
LINE
  8
0
  6
LTYPE3
 62
     2
 10
832.349814745
 20
587.5
 11
893.2
 21
587.5
  0
LINE
  8
0
  6
LTYPE3
 62
     2
 10
290.0
 20
587.5
 11
828.349814745
 21
587.5
  0
TEXT
  8
0
  6
CONTINUOUS
 62
     2
 10
1045.7
 20
487.35
 30
0.0
 40
15.0
  1
２５
 50
0.0
 41
0.9
 51
0.0
  7
KANJI30
  0
TEXT
  8
0
  6
CONTINUOUS
 62
     2
 10
1087.0
 20
475.6
 30
0.0
 40
15.0
  1
φ１６
 50
0.0
 41
0.9
 51
0.0
  7
KANJI30
  0
LINE
  8
0
  6
CONTINUOUS
 62
     1
 10
1275.625
 20
1380.0
 11
1275.625
 21
1279.9
  0
LINE
  8
0
  6
CONTINUOUS
 62
     2
 10
1217.875
 20
1380.0
 11
1217.875
 21
1279.9
  0
LINE
  8
0
  6
CONTINUOUS
 62
     2
 10
1160.125
 20
1380.0
 11
1160.125
 21
1279.9
  0
LINE
  8
0
  6
CONTINUOUS
 62
     1
 10
1083.125
 20
1380.0
 11
1083.125
 21
1279.9
  0
LINE
  8
0
  6
CONTINUOUS
 62
     1
 10
1083.125
 20
1380.0
 11
1275.625
 21
1380.0
  0
LINE
  8
0
  6
CONTINUOUS
 62
     1
 10
1083.125
 20
1349.2
 11
1275.625
 21
1349.2
  0
LINE
  8
0
  6
CONTINUOUS
 62
     2
 10
1083.125
 20
1326.1
 11
1275.625
 21
1326.1
  0
LINE
  8
0
  6
CONTINUOUS
 62
     2
 10
1083.125
 20
1303.0
 11
1275.625
 21
1303.0
  0
LINE
  8
0
  6
CONTINUOUS
 62
     1
 10
1083.125
 20
1279.9
 11
1275.625
 21
1279.9
  0
TEXT
  8
0
  6
CONTINUOUS
 62
     2
 10
1225.575
 20
1366.525
 30
1.155
 40
11.55
  1
起動電流
 50
0.0
 41
0.9
 51
0.0
  7
KANJI31
  0
TEXT
  8
0
  6
CONTINUOUS
 62
     2
 10
1225.575
 20
1353.05
 30
1.155
 40
11.55
  1
　　　Ａ
 50
0.0
 41
0.9
 51
0.0
  7
KANJI31
  0
TEXT
  8
0
  6
CONTINUOUS
 62
     2
 10
1167.825
 20
1366.525
 30
1.155
 40
11.55
  1
定格電流
 50
0.0
 41
0.9
 51
0.0
  7
KANJI31
  0
TEXT
  8
0
  6
CONTINUOUS
 62
     2
 10
1167.825
 20
1353.05
 30
1.155
 40
11.55
  1
　　　Ａ
 50
0.0
 41
0.9
 51
0.0
  7
KANJI31
  0
TEXT
  8
0
  6
CONTINUOUS
 62
     2
 10
1089.67
 20
1308.775
 30
1.155
 40
11.55
  1
２００／６０
 50
0.0
 41
0.9
 51
0.0
  7
KANJI31
  0
TEXT
  8
0
  6
CONTINUOUS
 62
     2
 10
1089.67
 20
1366.525
 30
1.155
 40
11.55
  1
電圧／周波数
 50
0.0
 41
0.9
 51
0.0
  7
KANJI31
  0
TEXT
  8
0
  6
CONTINUOUS
 62
     2
 10
1089.67
 20
1353.05
 30
1.155
 40
11.55
  1
　Ｖ／Ｈｚ
 50
0.0
 41
0.9
 51
0.0
  7
KANJI31
  0
TEXT
  8
0
  6
CONTINUOUS
 62
     2
 10
1089.67
 20
1331.875
 30
1.155
 40
11.55
  1
２００／５０
 50
0.0
 41
0.9
 51
0.0
  7
KANJI31
  0
TEXT
  8
0
  6
CONTINUOUS
 62
     2
 10
1089.67
 20
1285.675
 30
1.155
 40
11.55
  1
２２０／６０
 50
0.0
 41
0.9
 51
0.0
  7
KANJI31
  0
LINE
  8
0
  6
CONTINUOUS
 62
     1
 10
1044.625
 20
1380.0
 11
1044.625
 21
1279.9
  0
LINE
  8
0
  6
CONTINUOUS
 62
     2
 10
986.875
 20
1380.0
 11
986.875
 21
1279.9
  0
LINE
  8
0
  6
CONTINUOUS
 62
     2
 10
929.125
 20
1380.0
 11
929.125
 21
1279.9
  0
LINE
  8
0
  6
CONTINUOUS
 62
     1
 10
852.125
 20
1380.0
 11
852.125
 21
1279.9
  0
LINE
  8
0
  6
CONTINUOUS
 62
     1
 10
852.125
 20
1380.0
 11
1044.625
 21
1380.0
  0
LINE
  8
0
  6
CONTINUOUS
 62
     1
 10
852.125
 20
1349.2
 11
1044.625
 21
1349.2
  0
LINE
  8
0
  6
CONTINUOUS
 62
     2
 10
852.125
 20
1326.1
 11
1044.625
 21
1326.1
  0
LINE
  8
0
  6
CONTINUOUS
 62
     2
 10
852.125
 20
1303.0
 11
1044.625
 21
1303.0
  0
LINE
  8
0
  6
CONTINUOUS
 62
     1
 10
852.125
 20
1279.9
 11
1044.625
 21
1279.9
  0
TEXT
  8
0
  6
CONTINUOUS
 62
     2
 10
994.575
 20
1366.525
 30
1.155
 40
11.55
  1
起動電流
 50
0.0
 41
0.9
 51
0.0
  7
KANJI31
  0
TEXT
  8
0
  6
CONTINUOUS
 62
     2
 10
994.575
 20
1353.05
 30
1.155
 40
11.55
  1
　　　Ａ
 50
0.0
 41
0.9
 51
0.0
  7
KANJI31
  0
TEXT
  8
0
  6
CONTINUOUS
 62
     2
 10
936.825
 20
1366.525
 30
1.155
 40
11.55
  1
定格電流
 50
0.0
 41
0.9
 51
0.0
  7
KANJI31
  0
TEXT
  8
0
  6
CONTINUOUS
 62
     2
 10
936.825
 20
1353.05
 30
1.155
 40
11.55
  1
　　　Ａ
 50
0.0
 41
0.9
 51
0.0
  7
KANJI31
  0
TEXT
  8
0
  6
CONTINUOUS
 62
     2
 10
858.67
 20
1366.525
 30
1.155
 40
11.55
  1
電圧／周波数
 50
0.0
 41
0.9
 51
0.0
  7
KANJI31
  0
TEXT
  8
0
  6
CONTINUOUS
 62
     2
 10
858.67
 20
1353.05
 30
1.155
 40
11.55
  1
　Ｖ／Ｈｚ
 50
0.0
 41
0.9
 51
0.0
  7
KANJI31
  0
TEXT
  8
0
  6
CONTINUOUS
 62
     2
 10
858.67
 20
1331.875
 30
1.155
 40
11.55
  1
４００／５０
 50
0.0
 41
0.9
 51
0.0
  7
KANJI31
  0
TEXT
  8
0
  6
CONTINUOUS
 62
     2
 10
858.67
 20
1308.775
 30
1.155
 40
11.55
  1
４００／６０
 50
0.0
 41
0.9
 51
0.0
  7
KANJI31
  0
TEXT
  8
0
  6
CONTINUOUS
 62
     2
 10
858.67
 20
1285.675
 30
1.155
 40
11.55
  1
４４０／６０
 50
0.0
 41
0.9
 51
0.0
  7
KANJI31
  0
TEXT
  8
0
  6
CONTINUOUS
 62
     2
 10
936.825
 20
1331.875
 30
1.155
 40
11.55
  1
　２．０
 50
0.0
 41
0.9
 51
0.0
  7
KANJI31
  0
TEXT
  8
0
  6
CONTINUOUS
 62
     2
 10
936.825
 20
1308.775
 30
1.155
 40
11.55
  1
　１．４
 50
0.0
 41
0.9
 51
0.0
  7
KANJI31
  0
TEXT
  8
0
  6
CONTINUOUS
 62
     2
 10
936.825
 20
1285.675
 30
1.155
 40
11.55
  1
　１．７
 50
0.0
 41
0.9
 51
0.0
  7
KANJI31
  0
TEXT
  8
0
  6
CONTINUOUS
 62
     2
 10
1167.825
 20
1331.875
 30
1.155
 40
11.55
  1
　４．０
 50
0.0
 41
0.9
 51
0.0
  7
KANJI31
  0
TEXT
  8
0
  6
CONTINUOUS
 62
     2
 10
1167.825
 20
1308.775
 30
1.155
 40
11.55
  1
　２．８
 50
0.0
 41
0.9
 51
0.0
  7
KANJI31
  0
TEXT
  8
0
  6
CONTINUOUS
 62
     2
 10
1167.825
 20
1285.675
 30
1.155
 40
11.55
  1
　３．３
 50
0.0
 41
0.9
 51
0.0
  7
KANJI31
  0
TEXT
  8
0
  6
CONTINUOUS
 62
     2
 10
1225.575
 20
1331.875
 30
1.155
 40
11.55
  1
　９．２
 50
0.0
 41
0.9
 51
0.0
  7
KANJI31
  0
TEXT
  8
0
  6
CONTINUOUS
 62
     2
 10
1225.575
 20
1308.775
 30
1.155
 40
11.55
  1
　８
 50
0.0
 41
0.9
 51
0.0
  7
KANJI31
  0
TEXT
  8
0
  6
CONTINUOUS
 62
     2
 10
1225.575
 20
1285.675
 30
1.155
 40
11.55
  1
　８．８
 50
0.0
 41
0.9
 51
0.0
  7
KANJI31
  0
TEXT
  8
0
  6
CONTINUOUS
 62
     2
 10
994.575
 20
1331.875
 30
1.155
 40
11.55
  1
　４．６
 50
0.0
 41
0.9
 51
0.0
  7
KANJI31
  0
TEXT
  8
0
  6
CONTINUOUS
 62
     2
 10
994.575
 20
1308.775
 30
1.155
 40
11.55
  1
　４
 50
0.0
 41
0.9
 51
0.0
  7
KANJI31
  0
TEXT
  8
0
  6
CONTINUOUS
 62
     2
 10
994.575
 20
1285.675
 30
1.155
 40
11.55
  1
　４．４
 50
0.0
 41
0.9
 51
0.0
  7
KANJI31
  0
TEXT
  8
0
  6
CONTINUOUS
 62
     6
 10
306.962791539
 20
1121.22382165
 30
0.0
 40
17.740702234
  1
端子台　接続図
 50
0.0
 41
0.880962996
 51
0.0
  7
KANJI32
  0
LINE
  8
0
  6
CONTINUOUS
 62
     2
 10
341.927373465
 20
1172.228121884
 11
341.927373465
 21
1149.449155128
  0
LINE
  8
0
  6
CONTINUOUS
 62
     2
 10
368.50283468
 20
1172.228121884
 11
368.50283468
 21
1149.449155128
  0
LINE
  8
0
  6
CONTINUOUS
 62
     2
 10
395.078295894
 20
1172.228121884
 11
395.078295894
 21
1149.449155128
  0
LINE
  8
0
  6
CONTINUOUS
 62
     2
 10
421.653757109
 20
1172.228121884
 11
421.653757109
 21
1149.449155128
  0
CIRCLE
  8
0
  6
CONTINUOUS
 62
     6
 10
413.734269667
 20
1195.707921517
 40
4.100214016
  0
LINE
  8
0
  6
CONTINUOUS
 62
     6
 10
409.634055651
 20
1195.707921517
 11
408.366026502
 21
1195.707921517
  0
LINE
  8
0
  6
CONTINUOUS
 62
     6
 10
434.688027433
 20
1209.394562742
 11
430.773558096
 21
1187.059507138
  0
LINE
  8
0
  6
CONTINUOUS
 62
     6
 10
429.961699663
 20
1210.182284037
 11
426.046922494
 21
1187.847279739
  0
LINE
  8
0
  6
CONTINUOUS
 62
     6
 10
430.773558096
 20
1187.059507138
 11
426.046922494
 21
1187.847279739
  0
CIRCLE
  8
0
  6
CONTINUOUS
 62
     6
 10
434.941487717
 20
1186.239464335
 40
4.100214016
  0
LINE
  8
0
  6
CONTINUOUS
 62
     6
 10
434.941487717
 20
1182.139250319
 11
434.941487717
 21
1172.228121884
  0
LINE
  8
0
  6
CONTINUOUS
 62
     6
 10
408.366026502
 20
1195.707921517
 11
408.366026502
 21
1172.228121884
  0
LINE
  8
0
  6
CONTINUOUS
 62
     6
 10
381.790565287
 20
1172.228121884
 11
381.790565287
 21
1225.933332504
  0
LINE
  8
0
  6
CONTINUOUS
 62
     6
 10
302.317641926
 20
1209.394562742
 11
306.232111263
 21
1187.059507138
  0
LINE
  8
0
  6
CONTINUOUS
 62
     6
 10
307.043969696
 20
1210.182284037
 11
310.958746865
 21
1187.847279739
  0
LINE
  8
0
  6
CONTINUOUS
 62
     6
 10
306.232111263
 20
1187.059507138
 11
310.958746865
 21
1187.847279739
  0
CIRCLE
  8
0
  6
CONTINUOUS
 62
     6
 10
302.064181642
 20
1186.239464335
 40
4.100214016
  0
CIRCLE
  8
0
  6
CONTINUOUS
 62
     6
 10
323.271399692
 20
1195.707921517
 40
4.100214016
  0
LINE
  8
0
  6
CONTINUOUS
 62
     6
 10
327.371613708
 20
1195.707921517
 11
328.639642857
 21
1195.707921517
  0
LINE
  8
0
  6
CONTINUOUS
 62
     6
 10
302.064181642
 20
1182.139250319
 11
302.064181642
 21
1172.228121884
  0
LINE
  8
0
  6
CONTINUOUS
 62
     6
 10
328.639642857
 20
1195.707921517
 11
328.639642857
 21
1172.228121884
  0
LINE
  8
0
  6
CONTINUOUS
 62
     6
 10
355.215104072
 20
1172.228121884
 11
355.215104072
 21
1225.933332504
  0
LINE
  8
0
  6
CONTINUOUS
 62
     2
 10
448.229218324
 20
1172.228121884
 11
448.229218324
 21
1149.449155128
  0
LINE
  8
0
  6
CONTINUOUS
 62
     2
 10
288.776451035
 20
1172.228121884
 11
288.776451035
 21
1149.449155128
  0
LINE
  8
0
  6
CONTINUOUS
 62
     2
 10
315.35191225
 20
1172.228121884
 11
315.35191225
 21
1149.449155128
  0
LINE
  8
0
  6
CONTINUOUS
 62
     6
 10
434.941487717
 20
1225.933332504
 11
381.790565287
 21
1225.933332504
  0
CIRCLE
  8
0
  6
CONTINUOUS
 62
     6
 10
434.941487717
 20
1213.58941042
 40
4.100214016
  0
LINE
  8
0
  6
CONTINUOUS
 62
     6
 10
434.688027433
 20
1209.394562742
 11
429.961699663
 21
1210.182284037
  0
LINE
  8
0
  6
CONTINUOUS
 62
     6
 10
434.941487717
 20
1217.689624436
 11
434.941487717
 21
1225.933332504
  0
CIRCLE
  8
0
  6
CONTINUOUS
 62
     6
 10
302.064181642
 20
1213.58941042
 40
4.100214016
  0
LINE
  8
0
  6
CONTINUOUS
 62
     6
 10
302.317641926
 20
1209.394562742
 11
307.043969696
 21
1210.182284037
  0
LINE
  8
0
  6
CONTINUOUS
 62
     6
 10
302.064181642
 20
1217.689624436
 11
302.064181642
 21
1225.933332504
  0
LINE
  8
0
  6
CONTINUOUS
 62
     6
 10
355.215104072
 20
1225.933332504
 11
302.064181642
 21
1225.933332504
  0
TEXT
  8
0
  6
CONTINUOUS
 62
     6
 10
306.8272152
 20
1230.452473273
 30
0.819
 40
11.7
  1
ＬＳ０１
 50
0.0
 41
0.8
 51
0.0
  7
KANJI33
  0
TEXT
  8
0
  6
CONTINUOUS
 62
     6
 10
389.447398844
 20
1230.452473273
 30
0.819
 40
11.7
  1
ＬＳ０２
 50
0.0
 41
0.8
 51
0.0
  7
KANJI33
  0
TEXT
  8
0
  6
CONTINUOUS
 62
     3
 10
134.638775989
 20
1153.245649587
 30
0.0
 40
15.0
  1
　　　　　　　　　　　　　　　　　　１　　２　　　３　　　４　　　５　　　６
 50
0.0
 41
0.911
 51
0.0
  7
KANJI34
  0
LINE
  8
0
  6
CONTINUOUS
 62
     2
 10
288.776451035
 20
1172.228121884
 11
448.229218324
 21
1172.228121884
  0
LINE
  8
0
  6
CONTINUOUS
 62
     2
 10
288.776451035
 20
1149.449155128
 11
448.229218324
 21
1149.449155128
  0
TEXT
  8
0
  6
CONTINUOUS
 62
     6
 10
280.462791539
 20
1260.22382165
 30
0.0
 40
17.740702234
  1
推力リミッタ端子台配列
 50
0.0
 41
0.880962996
 51
0.0
  7
KANJI32
  0
LINE
  8
0
  6
CONTINUOUS
 62
     2
 10
1090.0
 20
607.5
 11
1123.9
 21
607.5
  0
LINE
  8
0
  6
CONTINUOUS
 62
     2
 10
1090.0
 20
567.5
 11
1124.3
 21
567.5
  0
LINE
  8
0
  6
CONTINUOUS
 62
     2
 10
1093.5
 20
432.5
 11
1135.833854631
 21
432.5
  0
LINE
  8
0
  6
CONTINUOUS
 62
     2
 10
1093.5
 20
420.5
 11
1135.733854631
 21
420.5
  0
LINE
  8
0
  6
CONTINUOUS
 62
     2
 10
1093.5
 20
404.5
 11
1135.733854631
 21
404.5
  0
LINE
  8
0
  6
CONTINUOUS
 62
     2
 10
1093.5
 20
392.5
 11
1135.833854631
 21
392.5
  0
LINE
  8
0
  6
CONTINUOUS
 62
     2
 10
1080.0
 20
445.0
 11
1080.0
 21
476.7
  0
LINE
  8
0
  6
CONTINUOUS
 62
     2
 10
1064.0
 20
445.15
 11
1064.0
 21
475.7
  0
TEXT
  8
0
  6
CONTINUOUS
 62
     2
 10
885.4275
 20
1262.575
 30
1.3475
 40
13.475
  1
注意：サーマルリレー等の選定は、上記の値を選定して下さい。
 50
0.0
 41
0.9
 51
0.0
  7
KANJI35
  0
LINE
  8
0
  6
CONTINUOUS
 62
     2
 10
877.7275
 20
1258.725
 11
1267.6775
 21
1258.725
  0
TEXT
  8
0
  6
CONTINUOUS
 62
     2
 10
389.25
 20
569.93
 30
0.0
 40
15.0
  1
日本電産
 50
0.0
 41
0.9
 51
0.0
  7
KANJI30
  0
TEXT
  8
0
  6
CONTINUOUS
 62
     2
 10
375.85
 20
552.28
 30
0.0
 40
15.0
  1
エコノステップモータ
 50
0.0
 41
0.9
 51
0.0
  7
KANJI30
  0
TEXT
  8
0
  6
CONTINUOUS
 62
     2
 10
1495.25
 20
547.5
 30
10.0
 40
20.0
  1
特記事項
 50
0.0
 41
0.9
 51
0.0
  7
KANJI36
  0
TEXT
  8
0
  6
CONTINUOUS
 62
     2
 10
1425.25
 20
507.5
 30
5.142857143
 40
18.0
  1
１。運転時は必ずピストンロッドの回転防止を行って下さい。
 50
0.0
 41
0.857142857
 51
0.0
  7
KANJI37
  0
TEXT
  8
0
  6
CONTINUOUS
 62
     2
 10
1425.25
 20
473.5
 30
5.13
 40
18.0
  1
２。モートル：全閉自冷かご形３０分定格
 50
0.0
 41
0.857222222
 51
0.0
  7
KANJI38
  0
TEXT
  8
0
  6
CONTINUOUS
 62
     2
 10
1424.9165915
 20
439.500003
 30
5.13
 40
18.0
  1
３。呼称ストロークは、機械的ストロークです。
 50
0.0
 41
0.857222222
 51
0.0
  7
KANJI38
  0
TEXT
  8
0
  6
CONTINUOUS
 62
     2
 10
1424.9165915
 20
410.750003
 30
5.13
 40
18.0
  1
　　必ず、常用はストローク両端に余裕を取って下さい。
 50
0.0
 41
0.857222222
 51
0.0
  7
KANJI38
  0
TEXT
  8
0
  6
CONTINUOUS
 62
     2
 10
1425.6765915
 20
377.710003
 30
5.13
 40
18.0
  1
　　前後の推奨余裕寸法は、各々４０ｍｍです。
 50
0.0
 41
0.857222222
 51
0.0
  7
KANJI38
  0
LINE
  8
0
  6
LTYPE2
 62
     6
 10
311.446929694
 20
970.6
 11
181.05
 21
970.6
  0
LINE
  8
0
  6
CONTINUOUS
 62
     6
 10
176.02521631
 20
945.894189033
 11
186.230193417
 21
956.09916614
  0
TEXT
  8
0
  6
CONTINUOUS
 62
     6
 10
191.295473047
 20
979.266131352
 30
1.518597784
 40
15.185977837
  1
エコノストップモータ
 50
0.0
 41
0.66671875
 51
0.0
  7
KANJI39
  0
LINE
  8
0
  6
LTYPE2
 62
     6
 10
311.446929694
 20
875.188267891
 11
311.446929694
 21
970.6
  0
CIRCLE
  8
0
  6
CONTINUOUS
 62
     6
 10
225.879006575
 20
925.406529957
 40
18.223173404
  0
TEXT
  8
0
  6
CONTINUOUS
 62
     6
 10
218.225273745
 20
916.659406723
 30
1.82231734
 40
18.223173404
  1
Ｍ
 50
0.0
 41
0.9
 51
0.0
  7
KANJI40
  0
LINE
  8
0
  6
CONTINUOUS
 62
     6
 10
201.824417681
 20
899.894087191
 11
213.122785192
 21
913.014772042
  0
LINE
  8
0
  6
CONTINUOUS
 62
     6
 10
201.824417681
 20
950.918972723
 11
213.122785192
 21
937.798287872
  0
LINE
  8
0
  6
CONTINUOUS
 62
     6
 10
201.824417681
 20
950.918972723
 11
185.423561617
 21
950.918972723
  0
LINE
  8
0
  6
CONTINUOUS
 62
     6
 10
208.020296639
 20
925.406529957
 11
185.423561617
 21
925.406529957
  0
LINE
  8
0
  6
CONTINUOUS
 62
     6
 10
201.824417681
 20
899.894087191
 11
185.423561617
 21
899.894087191
  0
LINE
  8
0
  6
CONTINUOUS
 62
     6
 10
176.02521631
 20
920.381746267
 11
186.230193417
 21
930.586723374
  0
LINE
  8
0
  6
CONTINUOUS
 62
     6
 10
176.02521631
 20
894.869303501
 11
186.230193417
 21
905.074280607
  0
LINE
  8
0
  6
LTYPE2
 62
     6
 10
311.446929694
 20
875.188267891
 11
181.05
 21
875.188267891
  0
TEXT
  8
0
  6
CONTINUOUS
 62
     6
 10
251.803688562
 20
917.151432405
 30
1.457853872
 40
14.578538724
  1
Ｂ
 50
0.0
 41
0.9
 51
0.0
  7
KANJI41
  0
CIRCLE
  8
0
  6
CONTINUOUS
 62
     6
 10
258.364030988
 20
925.406529957
 40
14.578538724
  0
LINE
  8
0
  6
LTYPE2
 62
     6
 10
181.05
 20
970.6
 11
181.05
 21
954.199143936
  0
CIRCLE
  8
0
  6
CONTINUOUS
 62
     6
 10
181.05
 20
950.918972723
 40
4.373561617
  0
CIRCLE
  8
0
  6
CONTINUOUS
 62
     6
 10
181.05
 20
925.406529957
 40
4.373561617
  0
LINE
  8
0
  6
LTYPE2
 62
     6
 10
181.05
 20
946.909874574
 11
181.05
 21
928.68670117
  0
CIRCLE
  8
0
  6
CONTINUOUS
 62
     6
 10
181.05
 20
899.894087191
 40
4.373561617
  0
LINE
  8
0
  6
LTYPE2
 62
     6
 10
181.05
 20
921.397431808
 11
181.05
 21
904.267648808
  0
LINE
  8
0
  6
LTYPE2
 62
     6
 10
181.05
 20
895.520525574
 11
181.05
 21
875.188267891
  0
TEXT
  8
0
  6
CONTINUOUS
 62
     2
 10
186.145393364
 20
849.978904811
 30
0.0
 40
15.6
  1
モーター結線図
 50
0.0
 41
0.925
 51
0.0
  7
KANJI42
  0
TEXT
  8
0
  6
CONTINUOUS
 62
     6
 10
163.515257591
 20
957.114851681
 30
1.093390404
 40
10.933904043
  1
Ｕ
 50
0.0
 41
0.9
 51
0.0
  7
KANJI43
  0
TEXT
  8
0
  6
CONTINUOUS
 62
     6
 10
164.608647995
 20
931.237945446
 30
1.093390404
 40
10.933904043
  1
Ｖ
 50
0.0
 41
0.9
 51
0.0
  7
KANJI43
  0
TEXT
  8
0
  6
CONTINUOUS
 62
     6
 10
165.702038399
 20
905.361039212
 30
1.093390404
 40
10.933904043
  1
Ｗ
 50
0.0
 41
0.9
 51
0.0
  7
KANJI43
  0
ARC
  8
0
  6
CONTINUOUS
 62
     2
 10
247.55
 20
585.7
 40
20.0
 50
231.952957468
 51
156.801409486
  0
TEXT
  8
0
  6
CONTINUOUS
 62
     2
 10
167.1670994
 20
576.578385972
 30
0.0
 40
15.0
  1
前進方向
 50
0.0
 41
0.9
 51
0.0
  7
KANJI30
  0
LINE
  8
0
  6
CONTINUOUS
 62
     2
 10
229.1670994
 20
593.578385972
 11
231.46179211
 21
603.415824749
  0
LINE
  8
0
  6
CONTINUOUS
 62
     2
 10
229.1670994
 20
593.578385972
 11
237.435260778
 21
598.485722507
  0
TEXT
  8
0
  6
CONTINUOUS
 62
     2
 10
295.0
 20
457.0
 30
0.0
 40
20.0
  1
ブレーキ解放装置はありません。
 50
0.0
 41
0.925
 51
0.0
  7
KANJI44
  0
TEXT
  8
0
  6
CONTINUOUS
 62
     2
 10
296.0
 20
432.0
 30
0.0
 40
20.0
  1
そのまま手動操作をして下さい．
 50
0.0
 41
0.925
 51
0.0
  7
KANJI44
  0
LINE
  8
0
  6
CONTINUOUS
 62
     2
 10
698.25
 20
745.5
 11
971.05
 21
745.5
  0
LINE
  8
0
  6
CONTINUOUS
 62
     1
 10
669.7
 20
684.5
 11
680.3
 21
684.5
  0
ARC
  8
0
  6
CONTINUOUS
 62
     1
 10
674.6
 20
683.5
 40
5.0
 50
92.3
 51
168.5
  0
ARC
  8
0
  6
CONTINUOUS
 62
     1
 10
675.4
 20
683.5
 40
5.0
 50
11.5
 51
87.7
  0
LINE
  8
0
  6
CONTINUOUS
 62
     1
 10
674.4
 20
688.5
 11
675.6
 21
688.5
  0
LINE
  8
0
  6
LTYPE5
 62
     2
 10
675.0
 20
691.9
 11
675.0
 21
678.5
  0
LINE
  8
0
  6
CONTINUOUS
 62
     1
 10
785.7
 20
684.5
 11
796.3
 21
684.5
  0
ARC
  8
0
  6
CONTINUOUS
 62
     1
 10
790.6
 20
683.5
 40
5.0
 50
92.3
 51
168.5
  0
ARC
  8
0
  6
CONTINUOUS
 62
     1
 10
791.4
 20
683.5
 40
5.0
 50
11.5
 51
87.7
  0
LINE
  8
0
  6
CONTINUOUS
 62
     1
 10
790.4
 20
688.5
 11
791.6
 21
688.5
  0
LINE
  8
0
  6
LTYPE5
 62
     2
 10
791.0
 20
691.9
 11
791.0
 21
678.5
  0
CIRCLE
  8
0
  6
CONTINUOUS
 62
     1
 10
1072.0
 20
587.5
 40
15.0
  0
LINE
  8
0
  6
CONTINUOUS
 62
     2
 10
1135.3
 20
652.7
 11
1123.225927171
 21
655.935238064
  0
LINE
  8
0
  6
CONTINUOUS
 62
     2
 10
1135.3
 20
652.7
 11
1123.225927171
 21
649.464761936
  0
LINE
  8
0
  6
CONTINUOUS
 62
     2
 10
1135.3
 20
652.7
 11
1094.3
 21
652.7
  0
TEXT
  8
0
  6
CONTINUOUS
 62
     3
 10
1141.3
 20
646.7
 30
0.0
 40
20.0
  1
前進
 50
0.0
 41
0.925
 51
0.0
  7
KANJI44
  0
LINE
  8
0
  6
CONTINUOUS
 62
     1
 10
1237.0
 20
594.0
 11
1237.0
 21
578.0
  0
LINE
  8
0
  6
CONTINUOUS
 62
     1
 10
1260.0
 20
606.0
 11
1260.0
 21
566.0
  0
LINE
  8
0
  6
CONTINUOUS
 62
     1
 10
1248.0
 20
606.0
 11
1248.0
 21
566.0
  0
LINE
  8
0
  6
LTYPE1
 62
     2
 10
1230.0
 20
594.0
 11
1230.0
 21
578.0
  0
LINE
  8
0
  6
LTYPE1
 62
     2
 10
1208.0
 20
594.0
 11
1230.0
 21
594.0
  0
LINE
  8
0
  6
LTYPE1
 62
     2
 10
1208.0
 20
578.0
 11
1230.0
 21
578.0
  0
LINE
  8
0
  6
CONTINUOUS
 62
     1
 10
1245.0
 20
571.0
 11
1245.0
 21
601.0
  0
LINE
  8
0
  6
CONTINUOUS
 62
     1
 10
1248.0
 20
571.0
 11
1245.0
 21
571.0
  0
LINE
  8
0
  6
CONTINUOUS
 62
     1
 10
1248.0
 20
601.0
 11
1245.0
 21
601.0
  0
LINE
  8
0
  6
LTYPE2
 62
     2
 10
1242.35
 20
581.6
 11
1242.35
 21
590.0
  0
LINE
  8
0
  6
CONTINUOUS
 62
     1
 10
1237.0
 20
594.0
 11
1245.0
 21
594.0
  0
LINE
  8
0
  6
LTYPE1
 62
     2
 10
1260.0
 20
594.0
 11
1245.0
 21
594.0
  0
LINE
  8
0
  6
CONTINUOUS
 62
     1
 10
1237.0
 20
578.0
 11
1245.0
 21
578.0
  0
LINE
  8
0
  6
LTYPE1
 62
     2
 10
1260.0
 20
578.0
 11
1245.0
 21
578.0
  0
LINE
  8
0
  6
LTYPE3
 62
     2
 10
1202.0
 20
586.0
 11
1337.0
 21
586.0
  0
LINE
  8
0
  6
CONTINUOUS
 62
     1
 10
1248.0
 20
606.0
 11
1288.0
 21
606.0
  0
LINE
  8
0
  6
CONTINUOUS
 62
     1
 10
1248.0
 20
566.0
 11
1288.0
 21
566.0
  0
LINE
  8
0
  6
CONTINUOUS
 62
     1
 10
1260.0
 20
578.0
 11
1276.0
 21
578.0
  0
LINE
  8
0
  6
CONTINUOUS
 62
     1
 10
1260.0
 20
594.0
 11
1276.0
 21
594.0
  0
CIRCLE
  8
0
  6
CONTINUOUS
 62
     2
 10
1242.35
 20
586.0
 40
2.0
  0
LINE
  8
0
  6
LTYPE2
 62
     2
 10
1268.0
 20
672.5
 11
1268.0
 21
642.5
  0
LINE
  8
0
  6
CONTINUOUS
 62
     1
 10
1212.0
 20
525.0
 11
1324.0
 21
525.0
  0
ARC
  8
0
  6
CONTINUOUS
 62
     1
 10
1212.0
 20
530.0
 40
5.0
 50
180.0
 51
270.0
  0
ARC
  8
0
  6
CONTINUOUS
 62
     1
 10
1212.0
 20
642.0
 40
5.0
 50
90.0
 51
180.0
  0
ARC
  8
0
  6
CONTINUOUS
 62
     1
 10
1268.0
 20
586.0
 40
58.0
 50
201.344984712
 51
338.655015288
  0
ARC
  8
0
  6
CONTINUOUS
 62
     1
 10
1268.0
 20
586.0
 40
58.0
 50
140.88325622
 51
158.655015288
  0
LINE
  8
0
  6
CONTINUOUS
 62
     1
 10
1212.0
 20
647.0
 11
1215.0
 21
647.0
  0
LINE
  8
0
  6
LTYPE3
 62
     2
 10
1225.5
 20
535.0
 11
1210.0
 21
535.0
  0
LINE
  8
0
  6
LTYPE3
 62
     2
 10
1217.0
 20
542.5
 11
1217.0
 21
527.5
  0
LINE
  8
7
  6
CONTINUOUS
 62
     2
 10
1208.0
 20
496.0
 11
1217.659258263
 21
493.411809549
  0
LINE
  8
7
  6
CONTINUOUS
 62
     2
 10
1208.0
 20
496.0
 11
1217.659258263
 21
498.588190451
  0
LINE
  8
7
  6
CONTINUOUS
 62
     2
 10
1207.0
 20
466.5
 11
1216.659258263
 21
463.911809549
  0
LINE
  8
7
  6
CONTINUOUS
 62
     2
 10
1207.0
 20
466.5
 11
1216.659258263
 21
469.088190451
  0
LINE
  8
7
  6
CONTINUOUS
 62
     2
 10
1207.0
 20
466.5
 11
1329.0
 21
466.5
  0
LINE
  8
0
  6
CONTINUOUS
 62
     1
 10
1232.178740284
 20
709.020045888
 11
1226.0
 21
709.020045888
  0
ARC
  8
0
  6
CONTINUOUS
 62
     1
 10
1226.0
 20
707.020045888
 40
2.0
 50
90.0
 51
180.0
  0
ARC
  8
0
  6
CONTINUOUS
 62
     1
 10
1234.0
 20
709.0
 40
2.0
 50
90.0
 51
180.0
  0
ARC
  8
0
  6
CONTINUOUS
 62
     1
 10
1241.392304845
 20
710.0
 40
1.0
 50
0.0
 51
90.0
  0
ARC
  8
0
  6
CONTINUOUS
 62
     1
 10
1243.392304845
 20
710.0
 40
1.0
 50
90.0
 51
180.0
  0
LINE
  8
0
  6
CONTINUOUS
 62
     1
 10
1302.0
 20
711.0
 11
1234.0
 21
711.0
  0
LINE
  8
0
  6
CONTINUOUS
 62
     1
 10
1242.392304845
 20
683.0
 11
1242.392304845
 21
710.0
  0
LINE
  8
0
  6
CONTINUOUS
 62
     1
 10
1232.0
 20
683.0
 11
1232.0
 21
709.0
  0
LINE
  8
0
  6
LTYPE3
 62
     2
 10
1268.0
 20
720.0
 11
1268.0
 21
516.5
  0
CIRCLE
  8
0
  6
CONTINUOUS
 62
     1
 10
1268.0
 20
586.0
 40
47.5
  0
LINE
  8
0
  6
CONTINUOUS
 62
     1
 10
1208.0
 20
606.0
 11
1226.707020229
 21
609.4763673
  0
LINE
  8
0
  6
CONTINUOUS
 62
     1
 10
1208.0
 20
566.0
 11
1226.707020229
 21
562.5236327
  0
LINE
  8
0
  6
CONTINUOUS
 62
     1
 10
1299.0
 20
594.0
 11
1299.0
 21
578.0
  0
LINE
  8
0
  6
CONTINUOUS
 62
     1
 10
1276.0
 20
606.0
 11
1276.0
 21
566.0
  0
LINE
  8
0
  6
CONTINUOUS
 62
     1
 10
1288.0
 20
606.0
 11
1288.0
 21
566.0
  0
LINE
  8
0
  6
CONTINUOUS
 62
     1
 10
1291.0
 20
601.0
 11
1291.0
 21
571.0
  0
LINE
  8
0
  6
CONTINUOUS
 62
     1
 10
1288.0
 20
601.0
 11
1291.0
 21
601.0
  0
LINE
  8
0
  6
CONTINUOUS
 62
     1
 10
1288.0
 20
571.0
 11
1291.0
 21
571.0
  0
LINE
  8
0
  6
LTYPE2
 62
     2
 10
1293.65
 20
590.4
 11
1293.65
 21
582.0
  0
LINE
  8
0
  6
CONTINUOUS
 62
     1
 10
1299.0
 20
594.0
 11
1291.0
 21
594.0
  0
LINE
  8
0
  6
CONTINUOUS
 62
     1
 10
1299.0
 20
578.0
 11
1291.0
 21
578.0
  0
LINE
  8
0
  6
LTYPE1
 62
     2
 10
1276.0
 20
578.0
 11
1291.0
 21
578.0
  0
LINE
  8
0
  6
LTYPE1
 62
     2
 10
1276.0
 20
594.0
 11
1291.0
 21
594.0
  0
CIRCLE
  8
0
  6
CONTINUOUS
 62
     2
 10
1293.65
 20
586.0
 40
2.0
  0
LINE
  8
0
  6
LTYPE1
 62
     2
 10
1328.0
 20
594.0
 11
1306.0
 21
594.0
  0
LINE
  8
0
  6
LTYPE1
 62
     2
 10
1328.0
 20
578.0
 11
1306.0
 21
578.0
  0
LINE
  8
0
  6
LTYPE1
 62
     2
 10
1306.0
 20
594.0
 11
1306.0
 21
578.0
  0
LINE
  8
0
  6
CONTINUOUS
 62
     1
 10
1328.0
 20
606.0
 11
1328.0
 21
566.0
  0
LINE
  8
0
  6
LTYPE3
 62
     2
 10
1310.5
 20
535.0
 11
1326.0
 21
535.0
  0
LINE
  8
0
  6
LTYPE3
 62
     2
 10
1319.0
 20
542.5
 11
1319.0
 21
527.5
  0
ARC
  8
0
  6
CONTINUOUS
 62
     1
 10
1324.0
 20
642.0
 40
5.0
 50
0.0
 51
90.0
  0
LINE
  8
0
  6
CONTINUOUS
 62
     1
 10
1329.0
 20
642.0
 11
1329.0
 21
530.0
  0
ARC
  8
0
  6
CONTINUOUS
 62
     1
 10
1324.0
 20
530.0
 40
5.0
 50
270.0
 51
0.0
  0
ARC
  8
0
  6
CONTINUOUS
 62
     1
 10
1268.0
 20
586.0
 40
58.0
 50
21.344984712
 51
39.11674378
  0
LINE
  8
0
  6
CONTINUOUS
 62
     1
 10
1321.0
 20
647.0
 11
1324.0
 21
647.0
  0
LINE
  8
7
  6
CONTINUOUS
 62
     2
 10
1328.0
 20
496.0
 11
1318.340741737
 21
498.588190451
  0
LINE
  8
7
  6
CONTINUOUS
 62
     2
 10
1328.0
 20
496.0
 11
1318.340741737
 21
493.411809549
  0
LINE
  8
7
  6
CONTINUOUS
 62
     2
 10
1328.0
 20
560.0
 11
1328.0
 21
490.0
  0
LINE
  8
7
  6
CONTINUOUS
 62
     2
 10
1329.0
 20
466.5
 11
1319.340741737
 21
469.088190451
  0
LINE
  8
7
  6
CONTINUOUS
 62
     2
 10
1329.0
 20
466.5
 11
1319.340741737
 21
463.911809549
  0
LINE
  8
7
  6
CONTINUOUS
 62
     2
 10
1329.0
 20
524.0
 11
1329.0
 21
460.5
  0
LINE
  8
7
  6
CONTINUOUS
 62
     2
 10
1343.0
 20
586.0
 11
1368.0
 21
586.0
  0
LINE
  8
7
  6
CONTINUOUS
 62
     2
 10
1362.0
 20
586.0
 11
1359.411809549
 21
576.340741737
  0
LINE
  8
7
  6
CONTINUOUS
 62
     2
 10
1362.0
 20
586.0
 11
1364.588190451
 21
576.340741737
  0
LINE
  8
7
  6
CONTINUOUS
 62
     2
 10
1362.0
 20
586.0
 11
1362.0
 21
525.0
  0
LINE
  8
7
  6
CONTINUOUS
 62
     2
 10
1362.0
 20
525.0
 11
1364.588190451
 21
534.659258263
  0
LINE
  8
7
  6
CONTINUOUS
 62
     2
 10
1362.0
 20
525.0
 11
1359.411809549
 21
534.659258263
  0
LINE
  8
7
  6
CONTINUOUS
 62
     2
 10
1330.0
 20
525.0
 11
1368.0
 21
525.0
  0
LINE
  8
7
  6
CONTINUOUS
 62
     2
 10
1362.0
 20
586.0
 11
1364.588190451
 21
595.659258263
  0
LINE
  8
7
  6
CONTINUOUS
 62
     2
 10
1362.0
 20
586.0
 11
1359.411809549
 21
595.659258263
  0
LINE
  8
7
  6
CONTINUOUS
 62
     2
 10
1362.0
 20
586.0
 11
1362.0
 21
711.0
  0
LINE
  8
7
  6
CONTINUOUS
 62
     2
 10
1362.0
 20
711.0
 11
1359.411809549
 21
701.340741737
  0
LINE
  8
7
  6
CONTINUOUS
 62
     2
 10
1362.0
 20
711.0
 11
1364.588190451
 21
701.340741737
  0
ARC
  8
0
  6
CONTINUOUS
 62
     1
 10
1302.0
 20
709.0
 40
2.0
 50
0.0
 51
90.0
  0
LINE
  8
0
  6
CONTINUOUS
 62
     1
 10
1310.0
 20
709.020045888
 11
1304.0
 21
709.020045888
  0
ARC
  8
0
  6
CONTINUOUS
 62
     1
 10
1310.0
 20
707.020045888
 40
2.0
 50
0.0
 51
90.0
  0
ARC
  8
0
  6
CONTINUOUS
 62
     1
 10
1294.607695155
 20
710.0
 40
1.0
 50
90.0
 51
180.0
  0
ARC
  8
0
  6
CONTINUOUS
 62
     1
 10
1292.607695155
 20
710.0
 40
1.0
 50
0.0
 51
90.0
  0
LINE
  8
0
  6
CONTINUOUS
 62
     1
 10
1304.0
 20
683.0
 11
1304.0
 21
709.0
  0
LINE
  8
0
  6
CONTINUOUS
 62
     1
 10
1293.607695155
 20
683.0
 11
1293.607695155
 21
710.0
  0
LINE
  8
7
  6
CONTINUOUS
 62
     2
 10
1304.0
 20
711.0
 11
1368.0
 21
711.0
  0
LINE
  8
0
  6
CONTINUOUS
 62
     1
 10
1328.0
 20
566.0
 11
1309.292979771
 21
562.5236327
  0
LINE
  8
0
  6
CONTINUOUS
 62
     1
 10
1328.0
 20
606.0
 11
1309.292979771
 21
609.4763673
  0
TEXT
  8
7
  6
CONTINUOUS
 62
     2
 10
1250.6
 20
500.0
 30
0.0
 40
15.0
  1
１２０
 50
0.0
 41
0.9
 51
0.0
  7
KANJI30
  0
TEXT
  8
7
  6
CONTINUOUS
 62
     2
 10
1250.6
 20
470.5
 30
0.0
 40
15.0
  1
１２２
 50
0.0
 41
0.9
 51
0.0
  7
KANJI30
  0
TEXT
  8
7
  6
CONTINUOUS
 62
     2
 10
1358.0
 20
544.1
 30
0.0
 40
15.0
  1
６１
 50
90.0
 41
0.9
 51
0.0
  7
KANJI30
  0
TEXT
  8
7
  6
CONTINUOUS
 62
     2
 10
1358.0
 20
631.1
 30
0.0
 40
15.0
  1
１２５
 50
90.0
 41
0.9
 51
0.0
  7
KANJI30
  0
LINE
  8
0
  6
CONTINUOUS
 62
     1
 10
1312.0
 20
686.3
 11
1312.0
 21
707.020045888
  0
LINE
  8
0
  6
CONTINUOUS
 62
     1
 10
1224.0
 20
686.2
 11
1224.0
 21
707.020045888
  0
LINE
  8
0
  6
CONTINUOUS
 62
     1
 10
1208.0
 20
570.1
 11
1208.0
 21
566.0
  0
LINE
  8
0
  6
CONTINUOUS
 62
     1
 10
1208.0
 20
606.0
 11
1208.0
 21
570.1
  0
LINE
  8
0
  6
CONTINUOUS
 62
     1
 10
1207.0
 20
642.0
 11
1207.0
 21
530.0
  0
LINE
  8
7
  6
CONTINUOUS
 62
     2
 10
1208.0
 20
560.0
 11
1208.0
 21
490.0
  0
LINE
  8
7
  6
CONTINUOUS
 62
     2
 10
1207.0
 20
524.000007629
 11
1207.0
 21
460.5
  0
LINE
  8
0
  6
CONTINUOUS
 62
     1
 10
1067.8
 20
575.2
 11
1069.8
 21
574.9
  0
LINE
  8
0
  6
CONTINUOUS
 62
     1
 10
1070.3
 20
579.6
 11
1070.064615385
 21
578.030769231
  0
LINE
  8
0
  6
CONTINUOUS
 62
     1
 10
1070.064615385
 20
578.030769231
 11
1067.8
 21
575.2
  0
LINE
  8
0
  6
CONTINUOUS
 62
     1
 10
1072.0
 20
577.6
 11
1069.8
 21
574.9
  0
LINE
  8
0
  6
CONTINUOUS
 62
     1
 10
1076.2
 20
575.2
 11
1074.2
 21
574.9
  0
LINE
  8
0
  6
CONTINUOUS
 62
     1
 10
1073.7
 20
579.6
 11
1073.935384615
 21
578.030769231
  0
LINE
  8
0
  6
CONTINUOUS
 62
     1
 10
1073.935384615
 20
578.030769231
 11
1076.2
 21
575.2
  0
LINE
  8
0
  6
CONTINUOUS
 62
     1
 10
1072.0
 20
577.6
 11
1074.2
 21
574.9
  0
CIRCLE
  8
0
  6
CONTINUOUS
 62
     1
 10
1071.999984741
 20
598.5
 40
3.0
  0
TEXT
  8
0
  6
CONTINUOUS
 62
     6
 10
382.343715102
 20
1317.371931782
 30
0.0
 40
11.8638
  1
ＡＣ１００Ｖ　１２５Ｖ　２５０Ｖ　－１０Ａ
 50
0.0
 41
0.726495726
 51
0.0
  7
KANJI19
  0
LINE
  8
0
  6
LTYPE2
 62
     6
 10
642.35
 20
1362.2
 11
93.95
 21
1362.2
  0
LINE
  8
0
  6
LTYPE2
 62
     6
 10
642.35
 20
1103.2
 11
642.35
 21
1362.2
  0
LINE
  8
0
  6
LTYPE2
 62
     6
 10
93.95
 20
1103.2
 11
642.35
 21
1103.2
  0
LINE
  8
0
  6
CONTINUOUS
 62
     1
 10
430.0
 20
637.0
 11
430.0
 21
594.0
  0
LINE
  8
0
  6
CONTINUOUS
 62
     1
 10
430.0
 20
637.0
 11
500.0
 21
637.0
  0
TEXT
  8
0
  6
CONTINUOUS
 62
     2
 10
441.0
 20
599.0
 30
5.0
 40
20.0
  1
銘板
 50
0.0
 41
0.925
 51
0.0
  7
KANJI45
  0
LINE
  8
0
  6
CONTINUOUS
 62
     1
 10
500.0
 20
637.0
 11
500.0
 21
594.0
  0
LINE
  8
0
  6
CONTINUOUS
 62
     1
 10
430.0
 20
594.0
 11
500.0
 21
594.0
  0
LINE
  8
0
  6
CONTINUOUS
 62
     2
 10
479.0
 20
195.0
 11
486.72740661
 21
192.929447639
  0
LINE
  8
0
  6
CONTINUOUS
 62
     2
 10
479.0
 20
195.0
 11
486.72740661
 21
197.070552361
  0
LINE
  8
0
  6
CONTINUOUS
 62
     2
 10
479.0
 20
195.0
 11
616.6
 21
195.0
  0
LINE
  8
0
  6
CONTINUOUS
 62
     2
 10
616.6
 20
195.0
 11
608.87259339
 21
197.070552361
  0
LINE
  8
0
  6
CONTINUOUS
 62
     2
 10
616.6
 20
195.0
 11
608.87259339
 21
192.929447639
  0
LINE
  8
0
  6
CONTINUOUS
 62
     2
 10
616.6
 20
193.8
 11
616.6
 21
191.0
  0
LINE
  8
0
  6
CONTINUOUS
 62
     2
 10
616.6
 20
195.0
 11
624.32740661
 21
192.929447639
  0
LINE
  8
0
  6
CONTINUOUS
 62
     2
 10
616.6
 20
195.0
 11
624.32740661
 21
197.070552361
  0
LINE
  8
0
  6
CONTINUOUS
 62
     2
 10
616.6
 20
195.0
 11
819.0
 21
195.0
  0
LINE
  8
0
  6
CONTINUOUS
 62
     2
 10
819.0
 20
195.0
 11
811.27259339
 21
197.070552361
  0
LINE
  8
0
  6
CONTINUOUS
 62
     2
 10
819.0
 20
195.0
 11
811.27259339
 21
192.929447639
  0
LINE
  8
0
  6
CONTINUOUS
 62
     2
 10
616.6
 20
168.670552361
 11
608.87259339
 21
170.741104722
  0
LINE
  8
0
  6
CONTINUOUS
 62
     2
 10
616.6
 20
168.670552361
 11
608.87259339
 21
166.6
  0
LINE
  8
0
  6
CONTINUOUS
 62
     2
 10
604.6
 20
168.670552361
 11
616.6
 21
168.670552361
  0
LINE
  8
0
  6
CONTINUOUS
 62
     2
 10
616.6
 20
168.670552361
 11
637.4
 21
168.670552361
  0
LINE
  8
0
  6
CONTINUOUS
 62
     2
 10
637.4
 20
168.670552361
 11
645.12740661
 21
166.6
  0
LINE
  8
0
  6
CONTINUOUS
 62
     2
 10
637.4
 20
168.670552361
 11
645.12740661
 21
170.741104722
  0
LINE
  8
0
  6
CONTINUOUS
 62
     2
 10
479.0
 20
143.4
 11
479.0
 21
137.4
  0
LINE
  8
0
  6
CONTINUOUS
 62
     2
 10
479.0
 20
141.4
 11
486.72740661
 21
139.329447639
  0
LINE
  8
0
  6
CONTINUOUS
 62
     2
 10
479.0
 20
141.4
 11
486.72740661
 21
143.470552361
  0
LINE
  8
0
  6
CONTINUOUS
 62
     2
 10
479.0
 20
141.4
 11
637.4
 21
141.4
  0
LINE
  8
0
  6
CONTINUOUS
 62
     2
 10
637.4
 20
141.4
 11
629.67259339
 21
143.470552361
  0
LINE
  8
0
  6
CONTINUOUS
 62
     2
 10
637.4
 20
141.4
 11
629.67259339
 21
139.329447639
  0
LINE
  8
0
  6
CONTINUOUS
 62
     2
 10
637.4
 20
142.6
 11
637.4
 21
137.4
  0
LINE
  8
0
  6
CONTINUOUS
 62
     2
 10
637.4
 20
141.4
 11
645.12740661
 21
139.329447639
  0
LINE
  8
0
  6
CONTINUOUS
 62
     2
 10
637.4
 20
141.4
 11
645.12740661
 21
143.470552361
  0
LINE
  8
0
  6
CONTINUOUS
 62
     2
 10
819.0
 20
137.8
 11
819.0
 21
137.4
  0
LINE
  8
0
  6
CONTINUOUS
 62
     2
 10
479.0
 20
112.2
 11
486.72740661
 21
110.129447639
  0
LINE
  8
0
  6
CONTINUOUS
 62
     2
 10
479.0
 20
112.2
 11
486.72740661
 21
114.270552361
  0
LINE
  8
0
  6
CONTINUOUS
 62
     2
 10
479.0
 20
112.2
 11
796.6
 21
112.2
  0
LINE
  8
0
  6
CONTINUOUS
 62
     2
 10
796.6
 20
112.2
 11
788.87259339
 21
114.270552361
  0
LINE
  8
0
  6
CONTINUOUS
 62
     2
 10
796.6
 20
112.2
 11
788.87259339
 21
110.129447639
  0
LINE
  8
0
  6
CONTINUOUS
 62
     2
 10
796.6
 20
113.0
 11
796.6
 21
108.2
  0
LINE
  8
0
  6
CONTINUOUS
 62
     2
 10
796.6
 20
112.2
 11
788.87259339
 21
114.270552361
  0
LINE
  8
0
  6
CONTINUOUS
 62
     2
 10
796.6
 20
112.2
 11
788.87259339
 21
110.129447639
  0
LINE
  8
0
  6
CONTINUOUS
 62
     2
 10
784.6
 20
112.2
 11
796.6
 21
112.2
  0
LINE
  8
0
  6
CONTINUOUS
 62
     2
 10
796.6
 20
112.2
 11
819.0
 21
112.2
  0
LINE
  8
0
  6
CONTINUOUS
 62
     2
 10
819.0
 20
112.2
 11
826.72740661
 21
110.129447639
  0
LINE
  8
0
  6
CONTINUOUS
 62
     2
 10
819.0
 20
112.2
 11
826.72740661
 21
114.270552361
  0
LINE
  8
0
  6
CONTINUOUS
 62
     2
 10
479.0
 20
205.8
 11
479.0
 21
191.0
  0
LINE
  8
0
  6
CONTINUOUS
 62
     2
 10
819.0
 20
205.8
 11
819.0
 21
191.0
  0
LINE
  8
0
  6
CONTINUOUS
 62
     2
 10
616.6
 20
194.6
 11
616.6
 21
205.8
  0
LINE
  8
0
  6
CONTINUOUS
 62
     2
 10
637.4
 20
181.470552361
 11
637.4
 21
164.670552361
  0
LINE
  8
0
  6
CONTINUOUS
 62
     2
 10
479.0
 20
191.0
 11
479.0
 21
99.0
  0
LINE
  8
0
  6
CONTINUOUS
 62
     2
 10
819.0
 20
195.0
 11
819.0
 21
100.2
  0
LINE
  8
0
  6
CONTINUOUS
 62
     2
 10
637.4
 20
168.670552361
 11
637.4
 21
132.2
  0
LINE
  8
0
  6
CONTINUOUS
 62
     2
 10
616.6
 20
195.0
 11
616.6
 21
159.4
  0
TEXT
  8
0
  6
CONTINUOUS
 62
     3
 10
520.8
 20
197.0
 30
0.0
 40
15.0
  1
ｍｉｎ．Ｌ
 50
0.0
 41
0.9
 51
0.0
  7
KANJI30
  0
TEXT
  8
0
  6
CONTINUOUS
 62
     3
 10
674.6
 20
197.0
 30
0.0
 40
15.0
  1
機械的ストローク
 50
0.0
 41
0.9
 51
0.0
  7
KANJI30
  0
TEXT
  8
0
  6
CONTINUOUS
 62
     3
 10
649.4
 20
170.670552361
 30
0.0
 40
15.0
  1
余裕
 50
0.0
 41
0.9
 51
0.0
  7
KANJI30
  0
TEXT
  8
0
  6
CONTINUOUS
 62
     3
 10
531.2
 20
143.4
 30
0.0
 40
15.0
  1
常用ｍｉｎ
 50
0.0
 41
0.9
 51
0.0
  7
KANJI30
  0
TEXT
  8
0
  6
CONTINUOUS
 62
     3
 10
690.4
 20
143.4
 30
0.0
 40
15.0
  1
常用ストローク
 50
0.0
 41
0.9
 51
0.0
  7
KANJI30
  0
TEXT
  8
0
  6
CONTINUOUS
 62
     3
 10
610.8
 20
114.2
 30
0.0
 40
15.0
  1
常用ｍａｘ
 50
0.0
 41
0.9
 51
0.0
  7
KANJI30
  0
TEXT
  8
0
  6
CONTINUOUS
 62
     3
 10
831.0
 20
114.2
 30
0.0
 40
15.0
  1
余裕
 50
0.0
 41
0.9
 51
0.0
  7
KANJI30
  0
LINE
  8
0
  6
CONTINUOUS
 62
     2
 10
637.4
 20
168.670552361
 11
677.5
 21
168.670552361
  0
LINE
  8
0
  6
CONTINUOUS
 62
     2
 10
819.0
 20
112.2
 11
861.5
 21
112.2
  0
TEXT
  8
0
  6
CONTINUOUS
 62
     2
 10
697.65
 20
749.7
 30
0.0
 40
15.0
  1
推力リミッタの作動値は、約１１０ｋｇ（設計値）
 50
0.0
 41
0.9
 51
0.0
  7
KANJI30
  0
TEXT
  8
0
  6
CONTINUOUS
 62
     2
 10
521.65
 20
888.7
 30
0.0
 40
15.0
  1
推力リミッタの作動値は、約１１０ｋｇ（設計値）
 50
0.0
 41
0.9
 51
0.0
  7
KANJI30
  0
LINE
  8
0
  6
CONTINUOUS
 62
     2
 10
522.25
 20
884.5
 11
824.25
 21
884.5
  0
TEXT
  8
0
  6
CONTINUOUS
 62
     2
 10
1332.0
 20
500.0
 30
0.0
 40
15.0
  1
トラニオン幅
 50
0.0
 41
0.9
 51
0.0
  7
KANJI30
  0
LINE
  8
7
  6
CONTINUOUS
 62
     2
 10
1208.0
 20
496.0
 11
1417.221087696
 21
496.0
  0
LINE
  8
0
  6
CONTINUOUS
 62
     1
 10
851.25
 20
974.95
 11
1499.25
 21
974.95
  0
LINE
  8
0
  6
CONTINUOUS
 62
     1
 10
851.25
 20
1226.95
 11
851.25
 21
974.95
  0
LINE
  8
0
  6
CONTINUOUS
 62
     1
 10
1019.25
 20
1226.95
 11
1019.25
 21
974.95
  0
LINE
  8
0
  6
CONTINUOUS
 62
     2
 10
1099.25
 20
1226.95
 11
1099.25
 21
974.95
  0
LINE
  8
0
  6
CONTINUOUS
 62
     2
 10
1179.25
 20
1226.95
 11
1179.25
 21
974.95
  0
LINE
  8
0
  6
CONTINUOUS
 62
     2
 10
1259.25
 20
1226.95
 11
1259.25
 21
974.95
  0
LINE
  8
0
  6
CONTINUOUS
 62
     2
 10
1339.25
 20
1226.95
 11
1339.25
 21
974.95
  0
LINE
  8
0
  6
CONTINUOUS
 62
     2
 10
1419.25
 20
1226.95
 11
1419.25
 21
974.95
  0
LINE
  8
0
  6
CONTINUOUS
 62
     1
 10
1499.25
 20
1226.95
 11
1499.25
 21
974.95
  0
LINE
  8
0
  6
CONTINUOUS
 62
     2
 10
796.6
 20
154.0
 11
796.6
 21
99.4
  0
LINE
  8
0
  6
CONTINUOUS
 62
     2
 10
796.6
 20
141.4
 11
788.87259339
 21
143.470552361
  0
LINE
  8
0
  6
CONTINUOUS
 62
     2
 10
796.6
 20
141.4
 11
788.87259339
 21
139.329447639
  0
LINE
  8
0
  6
CONTINUOUS
 62
     2
 10
637.4
 20
141.4
 11
796.6
 21
141.4
  0
LINE
  8
0
  6
CONTINUOUS
 62
     1
 10
1215.0
 20
683.0
 11
1215.0
 21
635.5
  0
LINE
  8
0
  6
CONTINUOUS
 62
     1
 10
1321.0
 20
683.0
 11
1215.0
 21
683.0
  0
LINE
  8
0
  6
CONTINUOUS
 62
     1
 10
1321.0
 20
675.5
 11
1215.0
 21
675.5
  0
LINE
  8
0
  6
CONTINUOUS
 62
     1
 10
1321.0
 20
677.0
 11
1215.0
 21
677.0
  0
LINE
  8
0
  6
CONTINUOUS
 62
     1
 10
1215.7
 20
683.0
 11
1226.3
 21
683.0
  0
ARC
  8
0
  6
CONTINUOUS
 62
     1
 10
1220.6
 20
682.0
 40
5.0
 50
92.3
 51
168.5
  0
ARC
  8
0
  6
CONTINUOUS
 62
     1
 10
1221.4
 20
682.0
 40
5.0
 50
11.5
 51
87.7
  0
LINE
  8
0
  6
CONTINUOUS
 62
     1
 10
1220.4
 20
687.0
 11
1221.6
 21
687.0
  0
LINE
  8
0
  6
LTYPE5
 62
     2
 10
1221.0
 20
690.4
 11
1221.0
 21
677.0
  0
LINE
  8
0
  6
LTYPE2
 62
     2
 10
1284.0
 20
658.5
 11
1253.0
 21
658.5
  0
CIRCLE
  8
0
  6
LTYPE1
 62
     2
 10
1268.0
 20
658.5
 40
11.0
  0
ARC
  8
0
  6
CONTINUOUS
 62
     1
 10
1218.0
 20
635.5
 40
3.0
 50
180.0
 51
270.0
  0
LINE
  8
0
  6
CONTINUOUS
 62
     1
 10
1258.304640285
 20
632.5
 11
1218.0
 21
632.5
  0
LINE
  8
0
  6
CONTINUOUS
 62
     1
 10
1223.0
 20
631.0
 11
1252.793093674
 21
631.0
  0
LINE
  8
0
  6
CONTINUOUS
 62
     1
 10
1223.0
 20
632.5
 11
1223.0
 21
608.787483461
  0
ARC
  8
0
  6
CONTINUOUS
 62
     1
 10
1318.0
 20
635.5
 40
3.0
 50
270.0
 51
0.0
  0
LINE
  8
0
  6
CONTINUOUS
 62
     1
 10
1313.0
 20
632.5
 11
1313.0
 21
608.787483461
  0
LINE
  8
0
  6
CONTINUOUS
 62
     1
 10
1318.0
 20
632.5
 11
1277.695359715
 21
632.5
  0
LINE
  8
0
  6
CONTINUOUS
 62
     1
 10
1283.206906326
 20
631.0
 11
1313.0
 21
631.0
  0
LINE
  8
0
  6
CONTINUOUS
 62
     1
 10
1321.0
 20
683.0
 11
1321.0
 21
635.5
  0
LINE
  8
0
  6
CONTINUOUS
 62
     1
 10
1309.7
 20
683.0
 11
1320.3
 21
683.0
  0
ARC
  8
0
  6
CONTINUOUS
 62
     1
 10
1314.6
 20
682.0
 40
5.0
 50
92.3
 51
168.5
  0
ARC
  8
0
  6
CONTINUOUS
 62
     1
 10
1315.4
 20
682.0
 40
5.0
 50
11.5
 51
87.7
  0
LINE
  8
0
  6
CONTINUOUS
 62
     1
 10
1314.4
 20
687.0
 11
1315.6
 21
687.0
  0
LINE
  8
0
  6
LTYPE5
 62
     2
 10
1315.0
 20
690.4
 11
1315.0
 21
677.0
  0
TEXT
  8
2
  6
CONTINUOUS
 62
     3
 10
217.2
 20
507.0
 30
0.0
 40
15.0
  1
手動軸□１０
 50
0.0
 41
0.9
 51
0.0
  7
KANJI30
  0
LINE
  8
7
  6
CONTINUOUS
 62
     2
 10
1072.0
 20
625.500007629
 11
1072.0
 21
845.088190451
  0
LINE
  8
0
  6
CONTINUOUS
 62
     2
 10
1090.0
 20
609.0
 11
1090.0
 21
845.088190451
  0
TEXT
  8
0
  6
CONTINUOUS
 62
     2
 10
1374.9166945
 20
89.999995
 30
1.5
 40
17.5
  1
０７．０９．２６
 50
0.0
 41
0.571428571
 51
0.0
  7
KANJI46
  0
TEXT
  8
0
  6
CONTINUOUS
 62
     2
 10
1605.25
 20
1265.5
 30
138.5
 40
17.5
  1
形式
 50
0.0
 41
0.9
 51
0.0
  7
KANJI47
  0
TEXT
  8
0
  6
CONTINUOUS
 62
     2
 10
1605.25
 20
1230.5
 30
138.5
 40
17.5
  1
推力
 50
0.0
 41
0.9
 51
0.0
  7
KANJI47
  0
TEXT
  8
0
  6
CONTINUOUS
 62
     2
 10
1605.25
 20
1090.5
 30
138.5
 40
17.5
  1
構造
 50
0.0
 41
0.9
 51
0.0
  7
KANJI47
  0
TEXT
  8
0
  6
CONTINUOUS
 62
     2
 10
1605.25
 20
670.5
 30
138.5
 40
17.5
  1
台数
 50
0.0
 41
0.9
 51
0.0
  7
KANJI47
  0
TEXT
  8
0
  6
CONTINUOUS
 62
     2
 10
1605.25
 20
705.5
 30
61.375
 40
17.5
  1
付属品
 50
0.0
 41
0.9
 51
0.0
  7
KANJI48
  0
TEXT
  8
0
  6
CONTINUOUS
 62
     2
 10
1605.25
 20
1020.5
 30
61.375
 40
17.5
  1
塗装色
 50
0.0
 41
0.9
 51
0.0
  7
KANJI48
  0
TEXT
  8
0
  6
CONTINUOUS
 62
     2
 10
1605.25
 20
1195.5
 30
22.8125
 40
17.5
  1
ストローク
 50
0.0
 41
0.9
 51
0.0
  7
KANJI49
  0
TEXT
  8
0
  6
CONTINUOUS
 62
     2
 10
1605.25
 20
1055.5
 30
9.958
 40
17.5
  1
過負荷安全装置
 50
0.0
 41
0.9
 51
0.0
  7
KANJI50
  0
TEXT
  8
0
  6
CONTINUOUS
 62
     2
 10
1630.25
 20
1305.0
 30
14.2497
 40
22.5
  1
マイティシリンダ仕様
 50
0.0
 41
0.9
 51
0.0
  7
KANJI51
  0
TEXT
  8
0
  6
CONTINUOUS
 62
     2
 10
1630.25
 20
985.5
 30
15.3125
 40
17.5
  1
出力　極数
 50
0.0
 41
0.9
 51
0.0
  7
KANJI52
  0
TEXT
  8
0
  6
CONTINUOUS
 62
     2
 10
1630.25
 20
950.5
 30
25.6665
 40
17.5
  1
電源電圧
 50
0.0
 41
0.9
 51
0.0
  7
KANJI53
  0
TEXT
  8
0
  6
CONTINUOUS
 62
     2
 10
1630.25
 20
915.5
 30
46.375
 40
17.5
  1
周波数
 50
0.0
 41
0.9
 51
0.0
  7
KANJI54
  0
TEXT
  8
0
  6
CONTINUOUS
 62
     2
 10
1630.25
 20
845.5
 30
46.375
 40
17.5
  1
絶縁級
 50
0.0
 41
0.9
 51
0.0
  7
KANJI54
  0
TEXT
  8
0
  6
CONTINUOUS
 62
     2
 10
1630.25
 20
880.5
 30
108.5
 40
17.5
  1
電流
 50
0.0
 41
0.9
 51
0.0
  7
KANJI55
  0
TEXT
  8
0
  6
CONTINUOUS
 62
     2
 10
1630.25
 20
775.5
 30
108.5
 40
17.5
  1
形式
 50
0.0
 41
0.9
 51
0.0
  7
KANJI55
  0
TEXT
  8
0
  6
CONTINUOUS
 62
     2
 10
1630.25
 20
740.5
 30
25.6665
 40
17.5
  1
操作方式
 50
0.0
 41
0.9
 51
0.0
  7
KANJI53
  0
TEXT
  8
0
  6
CONTINUOUS
 62
     2
 10
1590.25
 20
1125.5
 30
1.5
 40
17.5
  1
ピストンロッド回転トルク
 50
0.0
 41
0.9
 51
0.0
  7
KANJI56
  0
TEXT
  8
0
  6
CONTINUOUS
 62
     2
 10
1588.125
 20
989.0
 30
11.0
 40
17.5
  1
モ　トル仕様
 50
0.0
 41
0.9
 51
0.0
  7
KANJI57
  0
TEXT
  8
0
  6
CONTINUOUS
 62
     2
 10
1587.0
 20
799.0
 30
0.857142857
 40
15.0
  1
ブレ　キ
 50
0.0
 41
0.9
 51
0.0
  7
KANJI58
  0
LINE
  8
0
  6
CONTINUOUS
 62
     2
 10
1586.75
 20
764.5
 11
1586.75
 21
754.0
  0
LINE
  8
0
  6
CONTINUOUS
 62
     2
 10
1586.75
 20
961.0
 11
1586.75
 21
949.5
  0
TEXT
  8
0
  6
CONTINUOUS
 62
     2
 10
1942.75
 20
1164.0
 30
0.1
 40
12.5
  1
ｍｍ／ｓｅｃ
 50
0.0
 41
0.8
 51
0.0
  7
KANJI59
  0
TEXT
  8
0
  6
CONTINUOUS
 62
     2
 10
1980.25
 20
1197.5
 30
0.1
 40
12.5
  1
ｍｍ
 50
0.0
 41
0.8
 51
0.0
  7
KANJI59
  0
TEXT
  8
0
  6
CONTINUOUS
 62
     2
 10
1854.75
 20
1055.5
 30
7.1
 40
17.5
  1
推力リミッタ
 50
0.0
 41
0.9
 51
0.0
  7
KANJI60
  0
TEXT
  8
0
  6
CONTINUOUS
 62
     2
 10
1987.25
 20
985.5
 30
10.982142857
 40
15.0
  1
Ｐ
 50
0.0
 41
0.9
 51
0.0
  7
KANJI61
  0
TEXT
  8
0
  6
CONTINUOUS
 62
     2
 10
1904.25
 20
985.5
 30
1.0
 40
15.0
  1
ＫＷ
 50
0.0
 41
0.857142857
 51
0.0
  7
KANJI62
  0
TEXT
  8
0
  6
CONTINUOUS
 62
     2
 10
1962.25
 20
985.5
 30
12.8125
 40
17.5
  1
４
 50
0.0
 41
0.9
 51
0.0
  7
KANJI63
  0
TEXT
  8
0
  6
CONTINUOUS
 62
     2
 10
1826.75
 20
1022.0
 30
0.5
 40
14.0
  1
マンセル
 50
0.0
 41
0.9
 51
0.0
  7
KANJI64
  0
TEXT
  8
0
  6
CONTINUOUS
 62
     2
 10
1885.25
 20
1023.0
 30
0.2
 40
14.0
  1
７．５ＧＹ５／４．５
 50
0.0
 41
0.785714286
 51
0.0
  7
KANJI65
  0
TEXT
  8
0
  6
CONTINUOUS
 62
     2
 10
1822.75
 20
776.0
 30
1.5
 40
14.0
  1
スプリング制動式電磁ブレーキ
 50
0.0
 41
0.8
 51
0.0
  7
KANJI66
  0
TEXT
  8
0
  6
CONTINUOUS
 62
     2
 10
1857.75
 20
740.5
 30
10.0
 40
17.5
  1
同時切り
 50
0.0
 41
0.9
 51
0.0
  7
KANJI67
  0
TEXT
  8
0
  6
CONTINUOUS
 62
     2
 10
1987.75
 20
950.5
 30
0.18
 40
15.0
  1
Ｖ
 50
0.0
 41
0.8
 51
0.0
  7
KANJI68
  0
TEXT
  8
0
  6
CONTINUOUS
 62
     2
 10
1978.75
 20
915.5
 30
0.18
 40
15.0
  1
Ｈｚ
 50
0.0
 41
0.8
 51
0.0
  7
KANJI68
  0
TEXT
  8
0
  6
CONTINUOUS
 62
     2
 10
1988.875
 20
881.625
 30
1.5
 40
15.0
  1
Ａ
 50
0.0
 41
0.9
 51
0.0
  7
KANJI69
  0
TEXT
  8
0
  6
CONTINUOUS
 62
     2
 10
1910.125
 20
847.875
 30
1.5
 40
15.0
  1
Ｅ
 50
0.0
 41
0.9
 51
0.0
  7
KANJI69
  0
LINE
  8
0
  6
CONTINUOUS
 62
     2
 10
1567.75
 20
731.5
 11
2005.25
 21
731.5
  0
LINE
  8
0
  6
CONTINUOUS
 62
     2
 10
1567.75
 20
1011.5
 11
2005.25
 21
1011.5
  0
LINE
  8
0
  6
CONTINUOUS
 62
     2
 10
1567.75
 20
801.5
 11
2005.25
 21
801.5
  0
LINE
  8
0
  6
CONTINUOUS
 62
     2
 10
1607.75
 20
766.5
 11
2005.25
 21
766.5
  0
LINE
  8
0
  6
CONTINUOUS
 62
     2
 10
1607.75
 20
836.5
 11
2005.25
 21
836.5
  0
LINE
  8
0
  6
CONTINUOUS
 62
     2
 10
1607.75
 20
871.5
 11
2005.25
 21
871.5
  0
LINE
  8
0
  6
CONTINUOUS
 62
     2
 10
1607.75
 20
941.5
 11
2005.25
 21
941.5
  0
LINE
  8
0
  6
CONTINUOUS
 62
     2
 10
1607.75
 20
906.5
 11
2005.25
 21
906.5
  0
LINE
  8
0
  6
CONTINUOUS
 62
     2
 10
1607.75
 20
976.5
 11
2005.25
 21
976.5
  0
LINE
  8
0
  6
CONTINUOUS
 62
     2
 10
1567.75
 20
1291.5
 11
2005.25
 21
1291.5
  0
LINE
  8
0
  6
CONTINUOUS
 62
     2
 10
1567.75
 20
1256.5
 11
2005.25
 21
1256.5
  0
LINE
  8
0
  6
CONTINUOUS
 62
     2
 10
1567.75
 20
1221.5
 11
2005.25
 21
1221.5
  0
LINE
  8
0
  6
CONTINUOUS
 62
     2
 10
1567.75
 20
1186.5
 11
2005.25
 21
1186.5
  0
LINE
  8
0
  6
CONTINUOUS
 62
     2
 10
1567.75
 20
1151.5
 11
2005.25
 21
1151.5
  0
LINE
  8
0
  6
CONTINUOUS
 62
     2
 10
1567.75
 20
1116.5
 11
2005.25
 21
1116.5
  0
LINE
  8
0
  6
CONTINUOUS
 62
     2
 10
1567.75
 20
1081.5
 11
2005.25
 21
1081.5
  0
LINE
  8
0
  6
CONTINUOUS
 62
     2
 10
1567.75
 20
1046.5
 11
2005.25
 21
1046.5
  0
LINE
  8
0
  6
CONTINUOUS
 62
     2
 10
1607.75
 20
1011.5
 11
1607.75
 21
731.5
  0
LINE
  8
0
  6
CONTINUOUS
 62
     1
 10
1567.75
 20
1341.5
 11
2005.25
 21
1341.5
  0
LINE
  8
0
  6
CONTINUOUS
 62
     2
 10
1567.75
 20
696.5
 11
2005.25
 21
696.5
  0
TEXT
  8
0
  6
CONTINUOUS
 62
     2
 10
1865.75
 20
951.0
 30
1.5
 40
15.0
  1
　　　／　
 50
0.0
 41
0.9
 51
0.0
  7
KANJI69
  0
TEXT
  8
0
  6
CONTINUOUS
 62
     2
 10
1880.125
 20
915.375
 30
1.5
 40
15.0
  1
　５０／６０
 50
0.0
 41
0.9
 51
0.0
  7
KANJI69
  0
TEXT
  8
0
  6
CONTINUOUS
 62
     2
 10
1854.75
 20
1091.0
 30
12.8125
 40
17.5
  1
全閉屋外形
 50
0.0
 41
0.9
 51
0.0
  7
KANJI63
  0
TEXT
  8
0
  6
CONTINUOUS
 62
     2
 10
1846.375
 20
986.625
 30
1.5
 40
15.0
  1
０．３
 50
0.0
 41
0.9
 51
0.0
  7
KANJI69
  0
TEXT
  8
0
  6
CONTINUOUS
 62
     2
 10
1847.25
 20
1230.5
 30
1.5
 40
15.0
  1
９８０Ｎ（１００ｋｇ）
 50
0.0
 41
0.9
 51
0.0
  7
KANJI69
  0
TEXT
  8
0
  6
CONTINUOUS
 62
     2
 10
1605.25
 20
1160.5
 30
5.0
 40
17.5
  1
公称速度（５０／６０Ｈｚ）
 50
0.0
 41
0.9
 51
0.0
  7
KANJI70
  0
TEXT
  8
0
  6
CONTINUOUS
 62
     2
 10
1835.125
 20
1160.375
 30
1.5
 40
15.0
  1
　７５／９０
 50
0.0
 41
0.9
 51
0.0
  7
KANJI69
  0
TEXT
  8
0
  6
CONTINUOUS
 62
     2
 10
1825.875
 20
1125.375
 30
0.0
 40
15.0
  1
２．９Ｎ・ｍ（０．３ｋｇ・ｍ）
 50
0.0
 41
0.833333333
 51
0.0
  7
KANJI71
  0
TEXT
  8
0
  6
CONTINUOUS
 62
     2
 10
1605.25
 20
670.5
 30
138.5
 40
17.5
  1
台数
 50
0.0
 41
0.9
 51
0.0
  7
KANJI47
  0
LINE
  8
0
  6
CONTINUOUS
 62
     1
 10
1567.75
 20
626.5
 11
2005.25
 21
626.5
  0
LINE
  8
0
  6
CONTINUOUS
 62
     2
 10
1567.75
 20
661.5
 11
2005.25
 21
661.5
  0
TEXT
  8
0
  6
CONTINUOUS
 62
     2
 10
1605.25
 20
635.5
 30
5.0
 40
17.5
  1
概算重量（１台当り）
 50
0.0
 41
0.857142857
 51
0.0
  7
KANJI11
  0
TEXT
  8
0
  6
CONTINUOUS
 62
     2
 10
1959.25
 20
636.65
 30
0.0
 40
17.5
  1
ｋｇ
 50
0.0
 41
0.9
 51
0.0
  7
KANJI72
  0
LINE
  8
0
  6
CONTINUOUS
 62
     2
 10
1817.75
 20
1291.5
 11
1817.75
 21
626.5
  0
LINE
  8
0
  6
CONTINUOUS
 62
     1
 10
1567.75
 20
1341.5
 11
1567.75
 21
626.5
  0
TEXT
  8
0
  6
CONTINUOUS
 62
     2
 10
864.25
 20
1177.35
 30
0.8
 40
12.0
  1
ＭＣＥＬＢＢ０１－　　１Ｊ
 50
0.0
 41
0.833333333
 51
0.0
  7
KANJI73
  0
TEXT
  8
0
  6
CONTINUOUS
 62
     2
 10
864.25
 20
1149.35
 30
0.8
 40
12.0
  1
ＭＣＥＬＢＢ０１－　　２Ｊ
 50
0.0
 41
0.833333333
 51
0.0
  7
KANJI73
  0
TEXT
  8
0
  6
CONTINUOUS
 62
     2
 10
864.25
 20
1121.35
 30
0.8
 40
12.0
  1
ＭＣＥＬＢＢ０１－　　３Ｊ
 50
0.0
 41
0.833333333
 51
0.0
  7
KANJI73
  0
TEXT
  8
0
  6
CONTINUOUS
 62
     2
 10
864.25
 20
1093.35
 30
0.8
 40
12.0
  1
ＭＣＥＬＢＢ０１－　　４Ｊ
 50
0.0
 41
0.833333333
 51
0.0
  7
KANJI73
  0
TEXT
  8
0
  6
CONTINUOUS
 62
     2
 10
864.25
 20
1065.35
 30
0.8
 40
12.0
  1
ＭＣＥＬＢＢ０１－　　５Ｊ
 50
0.0
 41
0.833333333
 51
0.0
  7
KANJI73
  0
TEXT
  8
0
  6
CONTINUOUS
 62
     2
 10
864.25
 20
1037.35
 30
0.8
 40
12.0
  1
ＭＣＥＬＢＢ０１－　　６Ｊ
 50
0.0
 41
0.833333333
 51
0.0
  7
KANJI73
  0
TEXT
  8
0
  6
CONTINUOUS
 62
     2
 10
864.25
 20
1009.35
 30
0.8
 40
12.0
  1
ＭＣＥＬＢＢ０１－　　７Ｊ
 50
0.0
 41
0.833333333
 51
0.0
  7
KANJI73
  0
TEXT
  8
0
  6
CONTINUOUS
 62
     2
 10
864.25
 20
981.35
 30
0.8
 40
12.0
  1
ＭＣＥＬＢＢ０１－　　　Ｊ
 50
0.0
 41
0.833333333
 51
0.0
  7
KANJI73
  0
TEXT
  8
0
  6
CONTINUOUS
 62
     2
 10
1823.75
 20
1264.625
 30
1.0
 40
15.0
  1
ＭＣＥＬＢＢ０１－　　Ｊ
 50
0.0
 41
0.833333333
 51
0.0
  7
KANJI74
  0
TEXT
  8
0
  6
CONTINUOUS
 62
     2
 10
1552.75
 20
194.0
 30
0.0
 40
17.5
  1
ＭＣＥＬＢＢ０１－Ｊ
 50
0.0
 41
0.793650794
 51
0.0
  7
KANJI75
  0
TEXT
  8
0
  6
CONTINUOUS
 62
     2
 10
1905.250006
 20
115.41666125
 30
0.0
 40
15.0
  1
１
 50
0.0
 41
0.9
 51
0.0
  7
KANJI30
  0
POLYLINE
  8
0
  6
CONTINUOUS
 62
     4
 66
     1
  0
VERTEX
  8
0
  6
CONTINUOUS
 62
     4
 10
1009.66674325
 20
111.1666615
  0
VERTEX
  8
0
  6
CONTINUOUS
 62
     4
 10
995.583411
 20
89.4999965
  0
VERTEX
  8
0
  6
CONTINUOUS
 62
     4
 10
1023.7500755
 20
89.4999965
  0
SEQEND
  0
LINE
  8
0
  6
CONTINUOUS
 62
     4
 10
1009.66674325
 20
111.1666615
 11
1023.7500755
 21
89.4999965
  0
TEXT
  8
0
  6
CONTINUOUS
 62
     2
 10
1002.0834085
 20
89.999997
 30
0.0
 40
15.0
  1
１
 50
0.0
 41
0.9
 51
0.0
  7
KANJI30
  0
TEXT
  8
0
  6
CONTINUOUS
 62
     2
 10
1030.0834085
 20
89.999997
 30
0.0
 40
15.0
  1
０８．０８．０６　岡田　形式変更
 50
0.0
 41
0.9
 51
0.0
  7
KANJI30
  0
TEXT
  8
0
  6
CONTINUOUS
 62
     2
 10
1389.4166945
 20
195.833323
 30
5.0
 40
17.5
  1
田口
 50
0.0
 41
0.857142857
 51
0.0
  7
KANJI11
  0
TEXT
  8
0
  6
CONTINUOUS
 62
     2
 10
1389.4166945
 20
161.166659
 30
5.0
 40
17.5
  1
竹下
 50
0.0
 41
0.857142857
 51
0.0
  7
KANJI11
  0
TEXT
  8
0
  6
CONTINUOUS
 62
     2
 10
1443.7500395
 20
196.666653
 30
0.0
 40
15.0
  1
１０／３１
 50
0.0
 41
0.45
 51
0.0
  7
KANJI76
  0
TEXT
  8
0
  6
CONTINUOUS
 62
     2
 10
1428.7500395
 20
156.666653
 30
0.0
 40
15.0
  1
’０７　１０／４
 50
0.0
 41
0.9
 51
0.0
  7
KANJI30
  0
LINE
  8
0
  6
CONTINUOUS
 62
     2
 10
1693.7500395
 20
192.666653
 11
1702.410293538
 21
207.666653
  0
LINE
  8
0
  6
CONTINUOUS
 62
     2
 10
1702.410293538
 20
207.666653
 11
1711.070547576
 21
192.666653
  0
LINE
  8
0
  6
CONTINUOUS
 62
     2
 10
1711.070547576
 20
192.666653
 11
1693.7500395
 21
192.666653
  0
TEXT
  8
0
  6
CONTINUOUS
 62
     2
 10
1698.874759632
 20
194.131119094
 30
0.0
 40
7.071067812
  1
１
 50
0.0
 41
1.0
 51
0.0
  7
KANJI77
  0
LINE
  8
0
  6
CONTINUOUS
 62
     2
 10
2010.7500395
 20
1266.666653
 11
2019.410293538
 21
1281.666653
  0
LINE
  8
0
  6
CONTINUOUS
 62
     2
 10
2019.410293538
 20
1281.666653
 11
2028.070547576
 21
1266.666653
  0
LINE
  8
0
  6
CONTINUOUS
 62
     2
 10
2028.070547576
 20
1266.666653
 11
2010.7500395
 21
1266.666653
  0
TEXT
  8
0
  6
CONTINUOUS
 62
     2
 10
2015.874759632
 20
1268.131119094
 30
0.0
 40
7.071067812
  1
１
 50
0.0
 41
1.0
 51
0.0
  7
KANJI77
  0
LINE
  8
0
  6
CONTINUOUS
 62
     2
 10
825.7500395
 20
1173.666653
 11
834.410293538
 21
1188.666653
  0
LINE
  8
0
  6
CONTINUOUS
 62
     2
 10
834.410293538
 20
1188.666653
 11
843.070547576
 21
1173.666653
  0
LINE
  8
0
  6
CONTINUOUS
 62
     2
 10
843.070547576
 20
1173.666653
 11
825.7500395
 21
1173.666653
  0
TEXT
  8
0
  6
CONTINUOUS
 62
     2
 10
830.874759632
 20
1175.131119094
 30
0.0
 40
7.071067812
  1
１
 50
0.0
 41
1.0
 51
0.0
  7
KANJI77
  0
LINE
  8
0
  6
CONTINUOUS
 62
     2
 10
825.7500395
 20
1145.666653
 11
834.410293538
 21
1160.666653
  0
LINE
  8
0
  6
CONTINUOUS
 62
     2
 10
834.410293538
 20
1160.666653
 11
843.070547576
 21
1145.666653
  0
LINE
  8
0
  6
CONTINUOUS
 62
     2
 10
843.070547576
 20
1145.666653
 11
825.7500395
 21
1145.666653
  0
TEXT
  8
0
  6
CONTINUOUS
 62
     2
 10
830.874759632
 20
1147.131119094
 30
0.0
 40
7.071067812
  1
１
 50
0.0
 41
1.0
 51
0.0
  7
KANJI77
  0
LINE
  8
0
  6
CONTINUOUS
 62
     2
 10
825.7500395
 20
1117.666653
 11
834.410293538
 21
1132.666653
  0
LINE
  8
0
  6
CONTINUOUS
 62
     2
 10
834.410293538
 20
1132.666653
 11
843.070547576
 21
1117.666653
  0
LINE
  8
0
  6
CONTINUOUS
 62
     2
 10
843.070547576
 20
1117.666653
 11
825.7500395
 21
1117.666653
  0
TEXT
  8
0
  6
CONTINUOUS
 62
     2
 10
830.874759632
 20
1119.131119094
 30
0.0
 40
7.071067812
  1
１
 50
0.0
 41
1.0
 51
0.0
  7
KANJI77
  0
LINE
  8
0
  6
CONTINUOUS
 62
     2
 10
825.7500395
 20
1089.666653
 11
834.410293538
 21
1104.666653
  0
LINE
  8
0
  6
CONTINUOUS
 62
     2
 10
834.410293538
 20
1104.666653
 11
843.070547576
 21
1089.666653
  0
LINE
  8
0
  6
CONTINUOUS
 62
     2
 10
843.070547576
 20
1089.666653
 11
825.7500395
 21
1089.666653
  0
TEXT
  8
0
  6
CONTINUOUS
 62
     2
 10
830.874759632
 20
1091.131119094
 30
0.0
 40
7.071067812
  1
１
 50
0.0
 41
1.0
 51
0.0
  7
KANJI77
  0
LINE
  8
0
  6
CONTINUOUS
 62
     2
 10
825.7500395
 20
1061.666653
 11
834.410293538
 21
1076.666653
  0
LINE
  8
0
  6
CONTINUOUS
 62
     2
 10
834.410293538
 20
1076.666653
 11
843.070547576
 21
1061.666653
  0
LINE
  8
0
  6
CONTINUOUS
 62
     2
 10
843.070547576
 20
1061.666653
 11
825.7500395
 21
1061.666653
  0
TEXT
  8
0
  6
CONTINUOUS
 62
     2
 10
830.874759632
 20
1063.131119094
 30
0.0
 40
7.071067812
  1
１
 50
0.0
 41
1.0
 51
0.0
  7
KANJI77
  0
LINE
  8
0
  6
CONTINUOUS
 62
     2
 10
825.7500395
 20
1033.666653
 11
834.410293538
 21
1048.666653
  0
LINE
  8
0
  6
CONTINUOUS
 62
     2
 10
834.410293538
 20
1048.666653
 11
843.070547576
 21
1033.666653
  0
LINE
  8
0
  6
CONTINUOUS
 62
     2
 10
843.070547576
 20
1033.666653
 11
825.7500395
 21
1033.666653
  0
TEXT
  8
0
  6
CONTINUOUS
 62
     2
 10
830.874759632
 20
1035.131119094
 30
0.0
 40
7.071067812
  1
１
 50
0.0
 41
1.0
 51
0.0
  7
KANJI77
  0
LINE
  8
0
  6
CONTINUOUS
 62
     2
 10
825.7500395
 20
1005.666653
 11
834.410293538
 21
1020.666653
  0
LINE
  8
0
  6
CONTINUOUS
 62
     2
 10
834.410293538
 20
1020.666653
 11
843.070547576
 21
1005.666653
  0
LINE
  8
0
  6
CONTINUOUS
 62
     2
 10
843.070547576
 20
1005.666653
 11
825.7500395
 21
1005.666653
  0
TEXT
  8
0
  6
CONTINUOUS
 62
     2
 10
830.874759632
 20
1007.131119094
 30
0.0
 40
7.071067812
  1
１
 50
0.0
 41
1.0
 51
0.0
  7
KANJI77
  0
LINE
  8
0
  6
CONTINUOUS
 62
     2
 10
825.7500395
 20
977.666653
 11
834.410293538
 21
992.666653
  0
LINE
  8
0
  6
CONTINUOUS
 62
     2
 10
834.410293538
 20
992.666653
 11
843.070547576
 21
977.666653
  0
LINE
  8
0
  6
CONTINUOUS
 62
     2
 10
843.070547576
 20
977.666653
 11
825.7500395
 21
977.666653
  0
TEXT
  8
0
  6
CONTINUOUS
 62
     2
 10
830.874759632
 20
979.131119094
 30
0.0
 40
7.071067812
  1
１
 50
0.0
 41
1.0
 51
0.0
  7
KANJI77
  0
ENDSEC
  0
EOF
