  0
SECTION
  2
HEADER
  9
$ACADVER
  1
AC1009
  9
$DWGCODEPAGE
  3
dos932
  9
$EXTMIN
 10
0.0
 20
0.0
 30
0.0
  9
$EXTMAX
 10
2100.0
 20
1485.0
 30
0.0
  9
$LIMMIN
 10
0.0
 20
0.0
  9
$LIMMAX
 10
2100.0
 20
1485.0
  9
$LTSCALE
 40
1.0
  9
$PDMODE
 70
     0
  0
ENDSEC
  0
SECTION
  2
TABLES
  0
TABLE
  2
VPORT
 70
     1
  0
VPORT
  2
*ACTIVE
 70
     0
 10
0.0
 20
0.0
 11
1.0
 21
1.0
 12
1050.0
 22
742.5
 13
0.0
 23
0.0
 14
10.0
 24
10.0
 15
10.0
 25
10.0
 16
0.0
 26
0.0
 36
1.0
 17
0.0
 27
0.0
 37
0.0
 40
2100.0
 41
1.414141414
 42
50.0
 43
0.0
 44
0.0
 50
0.0
 51
0.0
 71
     0
 72
  1000
 73
     1
 74
     3
 75
     0
 76
     0
 77
     0
 78
     0
  0
ENDTAB
  0
TABLE
  2
LTYPE
 70
     5
  0
LTYPE
  2
CONTINUOUS
 70
    64
  3
Solid line
 72
    65
 73
     0
 40
0.0
  0
LTYPE
  2
LTYPE1
 70
    64
  3
HIDDEN
 72
    65
 73
     2
 40
15.0
 49
9.0
 49
-6.0
  0
LTYPE
  2
LTYPE2
 70
    64
  3
CENTER
 72
    65
 73
     4
 40
50.0
 49
35.0
 49
-5.0
 49
5.0
 49
-5.0
  0
LTYPE
  2
LTYPE3
 70
    64
  3
CENTER
 72
    65
 73
     4
 40
75.0
 49
52.5
 49
-7.5
 49
7.5
 49
-7.5
  0
LTYPE
  2
LTYPE4
 70
    64
  3
CENTER
 72
    65
 73
     4
 40
100.0
 49
70.0
 49
-10.0
 49
10.0
 49
-10.0
  0
ENDTAB
  0
TABLE
  2
LAYER
 70
   128
  0
LAYER
  2
0
 70
     0
 62
     7
  6
CONTINUOUS
  0
LAYER
  2
2
 70
     0
 62
     7
  6
CONTINUOUS
  0
LAYER
  2
3
 70
     0
 62
     7
  6
CONTINUOUS
  0
LAYER
  2
4
 70
     0
 62
     7
  6
CONTINUOUS
  0
LAYER
  2
5
 70
     0
 62
     7
  6
CONTINUOUS
  0
LAYER
  2
6
 70
     0
 62
     7
  6
CONTINUOUS
  0
LAYER
  2
7
 70
     0
 62
     7
  6
CONTINUOUS
  0
LAYER
  2
8
 70
     0
 62
     7
  6
CONTINUOUS
  0
LAYER
  2
9
 70
     0
 62
     7
  6
CONTINUOUS
  0
LAYER
  2
10
 70
     0
 62
     7
  6
CONTINUOUS
  0
LAYER
  2
11
 70
     0
 62
     7
  6
CONTINUOUS
  0
LAYER
  2
12
 70
     0
 62
     7
  6
CONTINUOUS
  0
LAYER
  2
13
 70
     0
 62
     7
  6
CONTINUOUS
  0
LAYER
  2
14
 70
     0
 62
     7
  6
CONTINUOUS
  0
LAYER
  2
15
 70
     0
 62
     7
  6
CONTINUOUS
  0
LAYER
  2
16
 70
     0
 62
     7
  6
CONTINUOUS
  0
LAYER
  2
17
 70
     0
 62
     7
  6
CONTINUOUS
  0
LAYER
  2
18
 70
     0
 62
     7
  6
CONTINUOUS
  0
LAYER
  2
19
 70
     0
 62
     7
  6
CONTINUOUS
  0
LAYER
  2
20
 70
     0
 62
     7
  6
CONTINUOUS
  0
LAYER
  2
21
 70
     0
 62
     7
  6
CONTINUOUS
  0
LAYER
  2
22
 70
     0
 62
     7
  6
CONTINUOUS
  0
LAYER
  2
23
 70
     0
 62
     7
  6
CONTINUOUS
  0
LAYER
  2
24
 70
     0
 62
     7
  6
CONTINUOUS
  0
LAYER
  2
25
 70
     0
 62
     7
  6
CONTINUOUS
  0
LAYER
  2
26
 70
     0
 62
     7
  6
CONTINUOUS
  0
LAYER
  2
27
 70
     0
 62
     7
  6
CONTINUOUS
  0
LAYER
  2
28
 70
     0
 62
     7
  6
CONTINUOUS
  0
LAYER
  2
29
 70
     0
 62
     7
  6
CONTINUOUS
  0
LAYER
  2
30
 70
     0
 62
     7
  6
CONTINUOUS
  0
LAYER
  2
31
 70
     0
 62
     7
  6
CONTINUOUS
  0
LAYER
  2
32
 70
     0
 62
     7
  6
CONTINUOUS
  0
LAYER
  2
33
 70
     0
 62
     7
  6
CONTINUOUS
  0
LAYER
  2
34
 70
     0
 62
     7
  6
CONTINUOUS
  0
LAYER
  2
35
 70
     0
 62
     7
  6
CONTINUOUS
  0
LAYER
  2
36
 70
     0
 62
     7
  6
CONTINUOUS
  0
LAYER
  2
37
 70
     0
 62
     7
  6
CONTINUOUS
  0
LAYER
  2
38
 70
     0
 62
     7
  6
CONTINUOUS
  0
LAYER
  2
39
 70
     0
 62
     7
  6
CONTINUOUS
  0
LAYER
  2
40
 70
     0
 62
     7
  6
CONTINUOUS
  0
LAYER
  2
41
 70
     0
 62
     7
  6
CONTINUOUS
  0
LAYER
  2
42
 70
     0
 62
     7
  6
CONTINUOUS
  0
LAYER
  2
43
 70
     0
 62
     7
  6
CONTINUOUS
  0
LAYER
  2
44
 70
     0
 62
     7
  6
CONTINUOUS
  0
LAYER
  2
45
 70
     0
 62
     7
  6
CONTINUOUS
  0
LAYER
  2
46
 70
     0
 62
     7
  6
CONTINUOUS
  0
LAYER
  2
47
 70
     0
 62
     7
  6
CONTINUOUS
  0
LAYER
  2
48
 70
     0
 62
     7
  6
CONTINUOUS
  0
LAYER
  2
49
 70
     0
 62
     7
  6
CONTINUOUS
  0
LAYER
  2
50
 70
     0
 62
     7
  6
CONTINUOUS
  0
LAYER
  2
51
 70
     0
 62
     7
  6
CONTINUOUS
  0
LAYER
  2
52
 70
     0
 62
     7
  6
CONTINUOUS
  0
LAYER
  2
53
 70
     0
 62
     7
  6
CONTINUOUS
  0
LAYER
  2
54
 70
     0
 62
     7
  6
CONTINUOUS
  0
LAYER
  2
55
 70
     0
 62
     7
  6
CONTINUOUS
  0
LAYER
  2
56
 70
     0
 62
     7
  6
CONTINUOUS
  0
LAYER
  2
57
 70
     0
 62
     7
  6
CONTINUOUS
  0
LAYER
  2
58
 70
     0
 62
     7
  6
CONTINUOUS
  0
LAYER
  2
59
 70
     0
 62
     7
  6
CONTINUOUS
  0
LAYER
  2
60
 70
     0
 62
     7
  6
CONTINUOUS
  0
LAYER
  2
61
 70
     0
 62
     7
  6
CONTINUOUS
  0
LAYER
  2
62
 70
     0
 62
     7
  6
CONTINUOUS
  0
LAYER
  2
63
 70
     0
 62
     7
  6
CONTINUOUS
  0
LAYER
  2
64
 70
     0
 62
     7
  6
CONTINUOUS
  0
LAYER
  2
65
 70
     0
 62
     7
  6
CONTINUOUS
  0
LAYER
  2
66
 70
     0
 62
     7
  6
CONTINUOUS
  0
LAYER
  2
67
 70
     0
 62
     7
  6
CONTINUOUS
  0
LAYER
  2
68
 70
     0
 62
     7
  6
CONTINUOUS
  0
LAYER
  2
69
 70
     0
 62
     7
  6
CONTINUOUS
  0
LAYER
  2
70
 70
     0
 62
     7
  6
CONTINUOUS
  0
LAYER
  2
71
 70
     0
 62
     7
  6
CONTINUOUS
  0
LAYER
  2
72
 70
     0
 62
     7
  6
CONTINUOUS
  0
LAYER
  2
73
 70
     0
 62
     7
  6
CONTINUOUS
  0
LAYER
  2
74
 70
     0
 62
     7
  6
CONTINUOUS
  0
LAYER
  2
75
 70
     0
 62
     7
  6
CONTINUOUS
  0
LAYER
  2
76
 70
     0
 62
     7
  6
CONTINUOUS
  0
LAYER
  2
77
 70
     0
 62
     7
  6
CONTINUOUS
  0
LAYER
  2
78
 70
     0
 62
     7
  6
CONTINUOUS
  0
LAYER
  2
79
 70
     0
 62
     7
  6
CONTINUOUS
  0
LAYER
  2
80
 70
     0
 62
     7
  6
CONTINUOUS
  0
LAYER
  2
81
 70
     0
 62
     7
  6
CONTINUOUS
  0
LAYER
  2
82
 70
     0
 62
     7
  6
CONTINUOUS
  0
LAYER
  2
83
 70
     0
 62
     7
  6
CONTINUOUS
  0
LAYER
  2
84
 70
     0
 62
     7
  6
CONTINUOUS
  0
LAYER
  2
85
 70
     0
 62
     7
  6
CONTINUOUS
  0
LAYER
  2
86
 70
     0
 62
     7
  6
CONTINUOUS
  0
LAYER
  2
87
 70
     0
 62
     7
  6
CONTINUOUS
  0
LAYER
  2
88
 70
     0
 62
     7
  6
CONTINUOUS
  0
LAYER
  2
89
 70
     0
 62
     7
  6
CONTINUOUS
  0
LAYER
  2
90
 70
     0
 62
     7
  6
CONTINUOUS
  0
LAYER
  2
91
 70
     0
 62
     7
  6
CONTINUOUS
  0
LAYER
  2
92
 70
     0
 62
     7
  6
CONTINUOUS
  0
LAYER
  2
93
 70
     0
 62
     7
  6
CONTINUOUS
  0
LAYER
  2
94
 70
     0
 62
     7
  6
CONTINUOUS
  0
LAYER
  2
95
 70
     0
 62
     7
  6
CONTINUOUS
  0
LAYER
  2
96
 70
     0
 62
     7
  6
CONTINUOUS
  0
LAYER
  2
97
 70
     0
 62
     7
  6
CONTINUOUS
  0
LAYER
  2
98
 70
     0
 62
     7
  6
CONTINUOUS
  0
LAYER
  2
99
 70
     0
 62
     7
  6
CONTINUOUS
  0
LAYER
  2
100
 70
     0
 62
     7
  6
CONTINUOUS
  0
LAYER
  2
101
 70
     0
 62
     7
  6
CONTINUOUS
  0
LAYER
  2
102
 70
     0
 62
     7
  6
CONTINUOUS
  0
LAYER
  2
103
 70
     0
 62
     7
  6
CONTINUOUS
  0
LAYER
  2
104
 70
     0
 62
     7
  6
CONTINUOUS
  0
LAYER
  2
105
 70
     0
 62
     7
  6
CONTINUOUS
  0
LAYER
  2
106
 70
     0
 62
     7
  6
CONTINUOUS
  0
LAYER
  2
107
 70
     0
 62
     7
  6
CONTINUOUS
  0
LAYER
  2
108
 70
     0
 62
     7
  6
CONTINUOUS
  0
LAYER
  2
109
 70
     0
 62
     7
  6
CONTINUOUS
  0
LAYER
  2
110
 70
     0
 62
     7
  6
CONTINUOUS
  0
LAYER
  2
111
 70
     0
 62
     7
  6
CONTINUOUS
  0
LAYER
  2
112
 70
     0
 62
     7
  6
CONTINUOUS
  0
LAYER
  2
113
 70
     0
 62
     7
  6
CONTINUOUS
  0
LAYER
  2
114
 70
     0
 62
     7
  6
CONTINUOUS
  0
LAYER
  2
115
 70
     0
 62
     7
  6
CONTINUOUS
  0
LAYER
  2
116
 70
     0
 62
     7
  6
CONTINUOUS
  0
LAYER
  2
117
 70
     0
 62
     7
  6
CONTINUOUS
  0
LAYER
  2
118
 70
     0
 62
     7
  6
CONTINUOUS
  0
LAYER
  2
119
 70
     0
 62
     7
  6
CONTINUOUS
  0
LAYER
  2
120
 70
     0
 62
     7
  6
CONTINUOUS
  0
LAYER
  2
121
 70
     0
 62
     7
  6
CONTINUOUS
  0
LAYER
  2
122
 70
     0
 62
     7
  6
CONTINUOUS
  0
LAYER
  2
123
 70
     0
 62
     7
  6
CONTINUOUS
  0
LAYER
  2
124
 70
     0
 62
     7
  6
CONTINUOUS
  0
LAYER
  2
125
 70
     0
 62
     7
  6
CONTINUOUS
  0
LAYER
  2
126
 70
     0
 62
     7
  6
CONTINUOUS
  0
LAYER
  2
127
 70
     0
 62
     7
  6
CONTINUOUS
  0
LAYER
  2
128
 70
     0
 62
     7
  6
CONTINUOUS
  0
ENDTAB
  0
TABLE
  2
STYLE
 70
    70
  0
STYLE
  2
STANDARD
 70
     0
 40
0.0
 41
1.0
 50
0.0
 71
     0
 42
0.2
  3
txt.shx
  4
extfont.shx
  0
STYLE
  2
KANJI0
 70
     0
 40
8.4
 41
0.9
 50
0.0
 71
     0
 42
8.4
  3
txt.shx
  4
extfont.shx
  0
STYLE
  2
KANJI1
 70
     0
 40
15.0
 41
0.9
 50
0.0
 71
     0
 42
15.0
  3
txt.shx
  4
extfont.shx
  0
STYLE
  2
KANJI2
 70
     0
 40
9.999997897
 41
0.6
 50
0.0
 71
     0
 42
9.999997897
  3
txt.shx
  4
extfont.shx
  0
STYLE
  2
KANJI3
 70
     0
 40
11.999997477
 41
0.9
 50
0.0
 71
     0
 42
11.999997477
  3
txt.shx
  4
extfont.shx
  0
STYLE
  2
KANJI4
 70
     0
 40
14.999996846
 41
0.9
 50
0.0
 71
     0
 42
14.999996846
  3
txt.shx
  4
extfont.shx
  0
STYLE
  2
KANJI5
 70
     0
 40
12.999999
 41
0.75
 50
0.0
 71
     0
 42
12.999999
  3
txt.shx
  4
extfont.shx
  0
STYLE
  2
KANJI6
 70
     0
 40
8.666666
 41
0.6
 50
0.0
 71
     0
 42
8.666666
  3
txt.shx
  4
extfont.shx
  0
STYLE
  2
KANJI7
 70
     0
 40
10.3999992
 41
0.6
 50
0.0
 71
     0
 42
10.3999992
  3
txt.shx
  4
extfont.shx
  0
STYLE
  2
KANJI8
 70
     0
 40
15.1666655
 41
0.42031746
 50
0.0
 71
     0
 42
15.1666655
  3
txt.shx
  4
extfont.shx
  0
STYLE
  2
KANJI9
 70
     0
 40
25.999998
 41
0.9
 50
0.0
 71
     0
 42
25.999998
  3
txt.shx
  4
extfont.shx
  0
STYLE
  2
KANJI10
 70
     0
 40
8.666666
 41
0.8
 50
0.0
 71
     0
 42
8.666666
  3
txt.shx
  4
extfont.shx
  0
STYLE
  2
KANJI11
 70
     0
 40
10.3999992
 41
0.8
 50
0.0
 71
     0
 42
10.3999992
  3
txt.shx
  4
extfont.shx
  0
STYLE
  2
KANJI12
 70
     0
 40
25.0
 41
1.0
 50
0.0
 71
     0
 42
25.0
  3
txt.shx
  4
extfont.shx
  0
STYLE
  2
KANJI13
 70
     0
 40
25.0
 41
1.0
 50
0.0
 71
     0
 42
25.0
  3
txt.shx
  4
extfont.shx
  0
STYLE
  2
KANJI14
 70
     0
 40
25.0
 41
0.8
 50
0.0
 71
     0
 42
25.0
  3
txt.shx
  4
extfont.shx
  0
STYLE
  2
KANJI15
 70
     0
 40
20.0
 41
1.0
 50
0.0
 71
     0
 42
20.0
  3
txt.shx
  4
extfont.shx
  0
STYLE
  2
KANJI16
 70
     0
 40
17.5
 41
0.857142857
 50
0.0
 71
     0
 42
17.5
  3
txt.shx
  4
extfont.shx
  0
STYLE
  2
KANJI17
 70
     0
 40
22.5
 41
0.666666667
 50
0.0
 71
     0
 42
22.5
  3
txt.shx
  4
extfont.shx
  0
STYLE
  2
KANJI18
 70
     0
 40
18.0
 41
1.111111111
 50
0.0
 71
     0
 42
18.0
  3
txt.shx
  4
extfont.shx
  0
STYLE
  2
KANJI19
 70
     0
 40
12.8
 41
0.9
 50
0.0
 71
     0
 42
12.8
  3
txt.shx
  4
extfont.shx
  0
STYLE
  2
KANJI20
 70
     0
 40
12.0
 41
0.9
 50
0.0
 71
     0
 42
12.0
  3
txt.shx
  4
extfont.shx
  0
STYLE
  2
KANJI21
 70
     0
 40
12.0
 41
0.9
 50
0.0
 71
     0
 42
12.0
  3
txt.shx
  4
extfont.shx
  0
STYLE
  2
KANJI22
 70
     0
 40
14.0
 41
0.9
 50
0.0
 71
     0
 42
14.0
  3
txt.shx
  4
extfont.shx
  0
STYLE
  2
KANJI23
 70
     0
 40
10.8
 41
0.740740741
 50
0.0
 71
     0
 42
10.8
  3
txt.shx
  4
extfont.shx
  0
STYLE
  2
KANJI24
 70
     0
 40
14.0
 41
0.857142857
 50
0.0
 71
     0
 42
14.0
  3
txt.shx
  4
extfont.shx
  0
STYLE
  2
KANJI25
 70
     0
 40
12.0
 41
0.833333333
 50
0.0
 71
     0
 42
12.0
  3
txt.shx
  4
extfont.shx
  0
STYLE
  2
KANJI26
 70
     0
 40
17.5
 41
0.793650794
 50
0.0
 71
     0
 42
17.5
  3
txt.shx
  4
extfont.shx
  0
STYLE
  2
KANJI27
 70
     0
 40
25.0
 41
0.8
 50
0.0
 71
     0
 42
25.0
  3
txt.shx
  4
extfont.shx
  0
STYLE
  2
KANJI28
 70
     0
 40
15.0
 41
1.0
 50
0.0
 71
     0
 42
15.0
  3
txt.shx
  4
extfont.shx
  0
STYLE
  2
KANJI29
 70
     0
 40
11.55
 41
0.9
 50
0.0
 71
     0
 42
11.55
  3
txt.shx
  4
extfont.shx
  0
STYLE
  2
KANJI30
 70
     0
 40
20.0
 41
0.9
 50
0.0
 71
     0
 42
20.0
  3
txt.shx
  4
extfont.shx
  0
STYLE
  2
KANJI31
 70
     0
 40
18.0
 41
0.857142857
 50
0.0
 71
     0
 42
18.0
  3
txt.shx
  4
extfont.shx
  0
STYLE
  2
KANJI32
 70
     0
 40
18.0
 41
0.857222222
 50
0.0
 71
     0
 42
18.0
  3
txt.shx
  4
extfont.shx
  0
STYLE
  2
KANJI33
 70
     0
 40
13.475
 41
0.9
 50
0.0
 71
     0
 42
13.475
  3
txt.shx
  4
extfont.shx
  0
STYLE
  2
KANJI34
 70
     0
 40
20.0
 41
0.925
 50
0.0
 71
     0
 42
20.0
  3
txt.shx
  4
extfont.shx
  0
STYLE
  2
KANJI35
 70
     0
 40
16.0
 41
0.925
 50
0.0
 71
     0
 42
16.0
  3
txt.shx
  4
extfont.shx
  0
STYLE
  2
KANJI36
 70
     0
 40
10.933904043
 41
0.9
 50
0.0
 71
     0
 42
10.933904043
  3
txt.shx
  4
extfont.shx
  0
STYLE
  2
KANJI37
 70
     0
 40
15.185977837
 41
0.66671875
 50
0.0
 71
     0
 42
15.185977837
  3
txt.shx
  4
extfont.shx
  0
STYLE
  2
KANJI38
 70
     0
 40
18.223173404
 41
0.9
 50
0.0
 71
     0
 42
18.223173404
  3
txt.shx
  4
extfont.shx
  0
STYLE
  2
KANJI39
 70
     0
 40
15.6
 41
0.925
 50
0.0
 71
     0
 42
15.6
  3
txt.shx
  4
extfont.shx
  0
STYLE
  2
KANJI40
 70
     0
 40
14.578538724
 41
0.9
 50
0.0
 71
     0
 42
14.578538724
  3
txt.shx
  4
extfont.shx
  0
STYLE
  2
KANJI41
 70
     0
 40
20.0
 41
0.925
 50
0.0
 71
     0
 42
20.0
  3
txt.shx
  4
extfont.shx
  0
STYLE
  2
KANJI42
 70
     0
 40
17.5
 41
0.571428571
 50
0.0
 71
     0
 42
17.5
  3
txt.shx
  4
extfont.shx
  0
STYLE
  2
KANJI43
 70
     0
 40
17.5
 41
0.9
 50
0.0
 71
     0
 42
17.5
  3
txt.shx
  4
extfont.shx
  0
STYLE
  2
KANJI44
 70
     0
 40
17.5
 41
0.9
 50
0.0
 71
     0
 42
17.5
  3
txt.shx
  4
extfont.shx
  0
STYLE
  2
KANJI45
 70
     0
 40
17.5
 41
0.9
 50
0.0
 71
     0
 42
17.5
  3
txt.shx
  4
extfont.shx
  0
STYLE
  2
KANJI46
 70
     0
 40
17.5
 41
0.9
 50
0.0
 71
     0
 42
17.5
  3
txt.shx
  4
extfont.shx
  0
STYLE
  2
KANJI47
 70
     0
 40
22.5
 41
0.9
 50
0.0
 71
     0
 42
22.5
  3
txt.shx
  4
extfont.shx
  0
STYLE
  2
KANJI48
 70
     0
 40
17.5
 41
0.9
 50
0.0
 71
     0
 42
17.5
  3
txt.shx
  4
extfont.shx
  0
STYLE
  2
KANJI49
 70
     0
 40
17.5
 41
0.9
 50
0.0
 71
     0
 42
17.5
  3
txt.shx
  4
extfont.shx
  0
STYLE
  2
KANJI50
 70
     0
 40
17.5
 41
0.9
 50
0.0
 71
     0
 42
17.5
  3
txt.shx
  4
extfont.shx
  0
STYLE
  2
KANJI51
 70
     0
 40
17.5
 41
0.9
 50
0.0
 71
     0
 42
17.5
  3
txt.shx
  4
extfont.shx
  0
STYLE
  2
KANJI52
 70
     0
 40
17.5
 41
0.9
 50
0.0
 71
     0
 42
17.5
  3
txt.shx
  4
extfont.shx
  0
STYLE
  2
KANJI53
 70
     4
 40
17.5
 41
0.9
 50
0.0
 71
     0
 42
17.5
  3
txt.shx
  4
extfont.shx
  0
STYLE
  2
KANJI54
 70
     4
 40
15.0
 41
0.9
 50
0.0
 71
     0
 42
15.0
  3
txt.shx
  4
extfont.shx
  0
STYLE
  2
KANJI55
 70
     0
 40
12.5
 41
0.8
 50
0.0
 71
     0
 42
12.5
  3
txt.shx
  4
extfont.shx
  0
STYLE
  2
KANJI56
 70
     0
 40
15.0
 41
0.9
 50
0.0
 71
     0
 42
15.0
  3
txt.shx
  4
extfont.shx
  0
STYLE
  2
KANJI57
 70
     0
 40
15.0
 41
0.857142857
 50
0.0
 71
     0
 42
15.0
  3
txt.shx
  4
extfont.shx
  0
STYLE
  2
KANJI58
 70
     0
 40
17.5
 41
0.9
 50
0.0
 71
     0
 42
17.5
  3
txt.shx
  4
extfont.shx
  0
STYLE
  2
KANJI59
 70
     0
 40
14.0
 41
0.9
 50
0.0
 71
     0
 42
14.0
  3
txt.shx
  4
extfont.shx
  0
STYLE
  2
KANJI60
 70
     0
 40
14.0
 41
0.785714286
 50
0.0
 71
     0
 42
14.0
  3
txt.shx
  4
extfont.shx
  0
STYLE
  2
KANJI61
 70
     0
 40
14.0
 41
0.8
 50
0.0
 71
     0
 42
14.0
  3
txt.shx
  4
extfont.shx
  0
STYLE
  2
KANJI62
 70
     0
 40
17.5
 41
0.9
 50
0.0
 71
     0
 42
17.5
  3
txt.shx
  4
extfont.shx
  0
STYLE
  2
KANJI63
 70
     0
 40
15.0
 41
0.8
 50
0.0
 71
     0
 42
15.0
  3
txt.shx
  4
extfont.shx
  0
STYLE
  2
KANJI64
 70
     0
 40
15.0
 41
0.9
 50
0.0
 71
     0
 42
15.0
  3
txt.shx
  4
extfont.shx
  0
STYLE
  2
KANJI65
 70
     0
 40
17.5
 41
0.9
 50
0.0
 71
     0
 42
17.5
  3
txt.shx
  4
extfont.shx
  0
STYLE
  2
KANJI66
 70
     0
 40
15.0
 41
0.833333333
 50
0.0
 71
     0
 42
15.0
  3
txt.shx
  4
extfont.shx
  0
STYLE
  2
KANJI67
 70
     0
 40
17.5
 41
0.9
 50
0.0
 71
     0
 42
17.5
  3
txt.shx
  4
extfont.shx
  0
STYLE
  2
KANJI68
 70
     0
 40
15.0
 41
0.833333333
 50
0.0
 71
     0
 42
15.0
  3
txt.shx
  4
extfont.shx
  0
ENDTAB
  0
TABLE
  2
VIEW
 70
     0
  0
ENDTAB
  0
ENDSEC
  0
SECTION
  2
BLOCKS
  0
ENDSEC
  0
SECTION
  2
ENTITIES
  0
LINE
  8
0
  6
CONTINUOUS
 62
     1
 10
1008.0
 20
515.5
 30
0.0
 11
1058.0
 21
515.5
 31
0.0
  0
LINE
  8
0
  6
CONTINUOUS
 62
     1
 10
1061.0
 20
518.5
 30
0.0
 11
1061.0
 21
535.5
 31
0.0
  0
LINE
  8
0
  6
CONTINUOUS
 62
     1
 10
1058.0
 20
515.5
 30
0.0
 11
1061.0
 21
518.5
 31
0.0
  0
LINE
  8
0
  6
CONTINUOUS
 62
     1
 10
1008.0
 20
555.5
 30
0.0
 11
1058.0
 21
555.5
 31
0.0
  0
LINE
  8
0
  6
CONTINUOUS
 62
     1
 10
1061.0
 20
552.5
 30
0.0
 11
1061.0
 21
535.5
 31
0.0
  0
LINE
  8
0
  6
CONTINUOUS
 62
     1
 10
1058.0
 20
555.5
 30
0.0
 11
1061.0
 21
552.5
 31
0.0
  0
CIRCLE
  8
0
  6
CONTINUOUS
 62
     1
 10
1043.0
 20
535.5
 30
0.0
 40
8.0
  0
LINE
  8
0
  6
LTYPE1
 62
     1
 10
1018.0
 20
515.5
 30
0.0
 11
1018.0
 21
535.5
 31
0.0
  0
LINE
  8
0
  6
LTYPE1
 62
     1
 10
1018.0
 20
555.5
 30
0.0
 11
1018.0
 21
535.5
 31
0.0
  0
LINE
  8
0
  6
CONTINUOUS
 62
     1
 10
918.0
 20
567.25
 30
0.0
 11
918.0
 21
535.5
 31
0.0
  0
LINE
  8
0
  6
LTYPE2
 62
     2
 10
1043.0
 20
266.6
 30
0.0
 11
1043.0
 21
550.5
 31
0.0
  0
LINE
  8
0
  6
CONTINUOUS
 62
     2
 10
1043.0
 20
790.5
 30
0.0
 11
1033.340741737
 21
793.088190451
 31
0.0
  0
LINE
  8
0
  6
CONTINUOUS
 62
     2
 10
1043.0
 20
790.5
 30
0.0
 11
1033.340741737
 21
787.911809549
 31
0.0
  0
LINE
  8
0
  6
CONTINUOUS
 62
     2
 10
1023.0
 20
790.5
 30
0.0
 11
1081.0
 21
790.5
 31
0.0
  0
LINE
  8
0
  6
CONTINUOUS
 62
     2
 10
1061.0
 20
790.5
 30
0.0
 11
1070.659258263
 21
787.911809549
 31
0.0
  0
LINE
  8
0
  6
CONTINUOUS
 62
     2
 10
1061.0
 20
790.5
 30
0.0
 11
1070.659258263
 21
793.088190451
 31
0.0
  0
LINE
  8
0
  6
CONTINUOUS
 62
     2
 10
1043.0
 20
790.5
 30
0.0
 11
1043.0
 21
782.5
 31
0.0
  0
LINE
  8
0
  6
CONTINUOUS
 62
     2
 10
1043.0
 20
790.5
 30
0.0
 11
1033.340741737
 21
793.088190451
 31
0.0
  0
LINE
  8
0
  6
CONTINUOUS
 62
     2
 10
1043.0
 20
790.5
 30
0.0
 11
1033.340741737
 21
787.911809549
 31
0.0
  0
LINE
  8
0
  6
CONTINUOUS
 62
     2
 10
948.0
 20
730.5
 30
0.0
 11
957.659258263
 21
727.911809549
 31
0.0
  0
LINE
  8
0
  6
CONTINUOUS
 62
     2
 10
948.0
 20
730.5
 30
0.0
 11
957.659258263
 21
733.088190451
 31
0.0
  0
LINE
  8
0
  6
CONTINUOUS
 62
     2
 10
948.0
 20
730.5
 30
0.0
 11
1008.0
 21
730.5
 31
0.0
  0
LINE
  8
0
  6
CONTINUOUS
 62
     2
 10
1008.0
 20
730.5
 30
0.0
 11
998.340741737
 21
733.088190451
 31
0.0
  0
LINE
  8
0
  6
CONTINUOUS
 62
     2
 10
1008.0
 20
730.5
 30
0.0
 11
998.340741737
 21
727.911809549
 31
0.0
  0
LINE
  8
0
  6
CONTINUOUS
 62
     2
 10
1008.0
 20
730.5
 30
0.0
 11
1017.659258263
 21
727.911809549
 31
0.0
  0
LINE
  8
0
  6
CONTINUOUS
 62
     2
 10
1008.0
 20
730.5
 30
0.0
 11
1017.659258263
 21
733.088190451
 31
0.0
  0
LINE
  8
0
  6
CONTINUOUS
 62
     2
 10
1008.0
 20
730.5
 30
0.0
 11
1043.0
 21
730.5
 31
0.0
  0
LINE
  8
0
  6
CONTINUOUS
 62
     2
 10
1043.0
 20
730.5
 30
0.0
 11
1033.340741737
 21
733.088190451
 31
0.0
  0
LINE
  8
0
  6
CONTINUOUS
 62
     2
 10
1043.0
 20
730.5
 30
0.0
 11
1033.340741737
 21
727.911809549
 31
0.0
  0
LINE
  8
0
  6
CONTINUOUS
 62
     2
 10
1043.0
 20
761.0
 30
0.0
 11
1033.340741737
 21
763.588190451
 31
0.0
  0
LINE
  8
0
  6
CONTINUOUS
 62
     2
 10
1043.0
 20
761.0
 30
0.0
 11
1033.340741737
 21
758.411809549
 31
0.0
  0
LINE
  8
0
  6
CONTINUOUS
 62
     2
 10
948.0
 20
730.5
 30
0.0
 11
938.340741737
 21
733.088190451
 31
0.0
  0
LINE
  8
0
  6
CONTINUOUS
 62
     2
 10
948.0
 20
730.5
 30
0.0
 11
938.340741737
 21
727.911809549
 31
0.0
  0
LINE
  8
0
  6
CONTINUOUS
 62
     2
 10
1043.0
 20
790.5
 30
0.0
 11
1033.340741737
 21
793.088190451
 31
0.0
  0
LINE
  8
0
  6
CONTINUOUS
 62
     2
 10
1043.0
 20
790.5
 30
0.0
 11
1033.340741737
 21
787.911809549
 31
0.0
  0
LINE
  8
0
  6
LTYPE2
 62
     2
 10
622.0
 20
467.25
 30
0.0
 11
622.0
 21
599.75
 31
0.0
  0
LINE
  8
0
  6
CONTINUOUS
 62
     1
 10
679.4
 20
495.5
 30
0.0
 11
679.4
 21
575.5
 31
0.0
  0
LINE
  8
0
  6
CONTINUOUS
 62
     2
 10
698.6
 20
503.75
 30
0.0
 11
701.188190451
 21
513.409258263
 31
0.0
  0
LINE
  8
0
  6
CONTINUOUS
 62
     2
 10
698.6
 20
503.75
 30
0.0
 11
696.011809549
 21
513.409258263
 31
0.0
  0
LINE
  8
0
  6
CONTINUOUS
 62
     2
 10
698.6
 20
567.25
 30
0.0
 11
696.011809549
 21
557.590741737
 31
0.0
  0
LINE
  8
0
  6
CONTINUOUS
 62
     2
 10
698.6
 20
567.25
 30
0.0
 11
701.188190451
 21
557.590741737
 31
0.0
  0
LINE
  8
0
  6
CONTINUOUS
 62
     1
 10
679.4
 20
567.25
 30
0.0
 11
701.699501379
 21
567.25
 31
0.0
  0
LINE
  8
0
  6
CONTINUOUS
 62
     1
 10
679.4
 20
503.75
 30
0.0
 11
701.699501379
 21
503.75
 31
0.0
  0
LINE
  8
0
  6
CONTINUOUS
 62
     1
 10
679.4
 20
495.5
 30
0.0
 11
679.4
 21
575.5
 31
0.0
  0
LINE
  8
0
  6
CONTINUOUS
 62
     1
 10
671.4
 20
495.5
 30
0.0
 11
679.4
 21
495.5
 31
0.0
  0
LINE
  8
0
  6
CONTINUOUS
 62
     1
 10
671.4
 20
575.5
 30
0.0
 11
679.4
 21
575.5
 31
0.0
  0
LINE
  8
0
  6
CONTINUOUS
 62
     1
 10
671.4
 20
572.5
 30
0.0
 11
679.4
 21
572.5
 31
0.0
  0
LINE
  8
0
  6
CONTINUOUS
 62
     1
 10
671.4
 20
498.5
 30
0.0
 11
679.4
 21
498.5
 31
0.0
  0
LINE
  8
0
  6
CONTINUOUS
 62
     1
 10
671.4
 20
534.0
 30
0.0
 11
679.4
 21
534.0
 31
0.0
  0
LINE
  8
0
  6
CONTINUOUS
 62
     1
 10
671.4
 20
537.0
 30
0.0
 11
679.4
 21
537.0
 31
0.0
  0
LINE
  8
0
  6
CONTINUOUS
 62
     2
 10
698.6
 20
503.75
 30
0.0
 11
698.6
 21
608.3
 31
0.0
  0
LINE
  8
0
  6
CONTINUOUS
 62
     1
 10
671.4
 20
495.5
 30
0.0
 11
671.4
 21
575.5
 31
0.0
  0
LINE
  8
0
  6
CONTINUOUS
 62
     1
 10
735.9
 20
548.0
 30
0.0
 11
760.9
 21
548.0
 31
0.0
  0
LINE
  8
0
  6
CONTINUOUS
 62
     1
 10
760.9
 20
523.0
 30
0.0
 11
760.9
 21
548.0
 31
0.0
  0
LINE
  8
0
  6
CONTINUOUS
 62
     1
 10
735.9
 20
523.0
 30
0.0
 11
760.9
 21
523.0
 31
0.0
  0
LINE
  8
0
  6
CONTINUOUS
 62
     1
 10
735.9
 20
523.0
 30
0.0
 11
735.9
 21
548.0
 31
0.0
  0
CIRCLE
  8
0
  6
CONTINUOUS
 62
     1
 10
748.4
 20
535.5
 30
0.0
 40
12.5
  0
LINE
  8
0
  6
LTYPE2
 62
     2
 10
748.4
 20
554.2
 30
0.0
 11
748.4
 21
514.5
 31
0.0
  0
LINE
  8
0
  6
CONTINUOUS
 62
     2
 10
743.850185255
 20
527.35
 30
0.0
 11
743.660119959
 21
517.351806404
 31
0.0
  0
LINE
  8
0
  6
CONTINUOUS
 62
     2
 10
743.850185255
 20
527.35
 30
0.0
 11
738.686487082
 21
518.786343002
 31
0.0
  0
LINE
  8
0
  6
CONTINUOUS
 62
     2
 10
622.0
 20
761.0
 30
0.0
 11
631.659258263
 21
758.411809549
 31
0.0
  0
LINE
  8
0
  6
CONTINUOUS
 62
     2
 10
622.0
 20
761.0
 30
0.0
 11
631.659258263
 21
763.588190451
 31
0.0
  0
LINE
  8
0
  6
CONTINUOUS
 62
     2
 10
622.0
 20
594.5
 30
0.0
 11
622.0
 21
767.0
 31
0.0
  0
LINE
  8
0
  6
CONTINUOUS
 62
     2
 10
622.0
 20
730.5
 30
0.0
 11
631.659258263
 21
727.911809549
 31
0.0
  0
LINE
  8
0
  6
CONTINUOUS
 62
     2
 10
622.0
 20
730.5
 30
0.0
 11
631.659258263
 21
733.088190451
 31
0.0
  0
LINE
  8
0
  6
CONTINUOUS
 62
     2
 10
622.0
 20
761.0
 30
0.0
 11
612.340741737
 21
763.588190451
 31
0.0
  0
LINE
  8
0
  6
CONTINUOUS
 62
     2
 10
622.0
 20
761.0
 30
0.0
 11
612.340741737
 21
758.411809549
 31
0.0
  0
LINE
  8
0
  6
CONTINUOUS
 62
     2
 10
1043.0
 20
761.0
 30
0.0
 11
622.0
 21
761.0
 31
0.0
  0
LINE
  8
0
  6
CONTINUOUS
 62
     2
 10
948.0
 20
730.5
 30
0.0
 11
622.0
 21
730.5
 31
0.0
  0
LINE
  8
0
  6
CONTINUOUS
 62
     1
 10
543.0
 20
478.5
 30
0.0
 11
543.0
 21
535.5
 31
0.0
  0
LINE
  8
0
  6
CONTINUOUS
 62
     1
 10
543.0
 20
592.5
 30
0.0
 11
543.0
 21
535.5
 31
0.0
  0
LINE
  8
0
  6
CONTINUOUS
 62
     1
 10
543.0
 20
498.5
 30
0.0
 11
671.4
 21
498.5
 31
0.0
  0
LINE
  8
0
  6
CONTINUOUS
 62
     1
 10
543.0
 20
572.5
 30
0.0
 11
671.4
 21
572.5
 31
0.0
  0
LINE
  8
0
  6
CONTINUOUS
 62
     1
 10
543.0
 20
592.5
 30
0.0
 11
580.0
 21
573.0
 31
0.0
  0
LINE
  8
0
  6
CONTINUOUS
 62
     1
 10
543.0
 20
478.5
 30
0.0
 11
580.0
 21
498.0
 31
0.0
  0
LINE
  8
0
  6
CONTINUOUS
 62
     1
 10
543.0
 20
538.5
 30
0.0
 11
589.0
 21
538.5
 31
0.0
  0
LINE
  8
0
  6
CONTINUOUS
 62
     1
 10
543.0
 20
532.5
 30
0.0
 11
588.0
 21
532.5
 31
0.0
  0
LINE
  8
0
  6
LTYPE1
 62
     2
 10
779.4
 20
495.5
 30
0.0
 11
779.4
 21
575.5
 31
0.0
  0
LINE
  8
0
  6
CONTINUOUS
 62
     2
 10
743.850185255
 20
527.35
 30
0.0
 11
722.748088834
 21
454.187641749
 31
0.0
  0
LINE
  8
0
  6
CONTINUOUS
 62
     1
 10
918.0
 20
503.75
 30
0.0
 11
918.0
 21
535.5
 31
0.0
  0
LINE
  8
0
  6
CONTINUOUS
 62
     1
 10
1008.0
 20
515.5
 30
0.0
 11
1008.0
 21
555.5
 31
0.0
  0
LINE
  8
0
  6
CONTINUOUS
 62
     1
 10
948.0
 20
567.25
 30
0.0
 11
948.0
 21
535.5
 31
0.0
  0
LINE
  8
0
  6
CONTINUOUS
 62
     1
 10
948.0
 20
503.75
 30
0.0
 11
948.0
 21
535.5
 31
0.0
  0
LINE
  8
0
  6
CONTINUOUS
 62
     1
 10
532.0
 20
593.0
 30
0.0
 11
543.0
 21
593.0
 31
0.0
  0
LINE
  8
0
  6
CONTINUOUS
 62
     1
 10
532.0
 20
478.0
 30
0.0
 11
543.0
 21
478.0
 31
0.0
  0
LINE
  8
0
  6
CONTINUOUS
 62
     1
 10
509.0
 20
535.5
 30
0.0
 11
509.0
 21
592.5
 31
0.0
  0
ARC
  8
0
  6
CONTINUOUS
 62
     1
 10
513.5
 20
594.0
 30
0.0
 40
1.5
 50
270.0
 51
0.0
  0
LINE
  8
0
  6
CONTINUOUS
 62
     1
 10
515.0
 20
594.0
 30
0.0
 11
515.0
 21
595.0
 31
0.0
  0
ARC
  8
0
  6
CONTINUOUS
 62
     1
 10
516.5
 20
595.0
 30
0.0
 40
1.5
 50
90.0
 51
180.0
  0
LINE
  8
0
  6
CONTINUOUS
 62
     1
 10
360.0
 20
535.5
 30
0.0
 11
360.0
 21
592.5
 31
0.0
  0
ARC
  8
0
  6
CONTINUOUS
 62
     1
 10
356.5
 20
591.0
 30
0.0
 40
1.5
 50
90.0
 51
180.0
  0
LINE
  8
0
  6
CONTINUOUS
 62
     1
 10
515.0
 20
535.5
 30
0.0
 11
515.0
 21
594.6
 31
0.0
  0
LINE
  8
0
  6
CONTINUOUS
 62
     1
 10
355.0
 20
578.570524155
 30
0.0
 11
355.0
 21
591.0
 31
0.0
  0
ARC
  8
0
  6
CONTINUOUS
 62
     1
 10
353.5
 20
578.570524155
 30
0.0
 40
1.5
 50
288.970407808
 51
0.0
  0
LINE
  8
0
  6
CONTINUOUS
 62
     1
 10
339.0
 20
535.5
 30
0.0
 11
339.0
 21
570.929475845
 31
0.0
  0
LINE
  8
0
  6
CONTINUOUS
 62
     1
 10
340.012380347
 20
572.348005744
 30
0.0
 11
353.987619653
 21
577.151994256
 31
0.0
  0
ARC
  8
0
  6
CONTINUOUS
 62
     1
 10
340.5
 20
570.929475845
 30
0.0
 40
1.5
 50
108.970407808
 51
180.0
  0
LINE
  8
0
  6
CONTINUOUS
 62
     1
 10
355.0
 20
535.5
 30
0.0
 11
355.0
 21
578.570524155
 31
0.0
  0
ARC
  8
0
  6
CONTINUOUS
 62
     1
 10
327.0
 20
552.0
 30
0.0
 40
1.0
 50
90.0
 51
180.0
  0
LINE
  8
0
  6
CONTINUOUS
 62
     1
 10
327.0
 20
553.0
 30
0.0
 11
339.0
 21
553.0
 31
0.0
  0
LINE
  8
0
  6
CONTINUOUS
 62
     1
 10
326.0
 20
535.5
 30
0.0
 11
326.0
 21
552.0
 31
0.0
  0
LINE
  8
0
  6
CONTINUOUS
 62
     1
 10
509.0
 20
535.5
 30
0.0
 11
509.0
 21
478.5
 31
0.0
  0
ARC
  8
0
  6
CONTINUOUS
 62
     1
 10
513.5
 20
477.0
 30
0.0
 40
1.5
 50
0.0
 51
90.0
  0
LINE
  8
0
  6
CONTINUOUS
 62
     1
 10
515.0
 20
477.0
 30
0.0
 11
515.0
 21
476.0
 31
0.0
  0
ARC
  8
0
  6
CONTINUOUS
 62
     1
 10
516.5
 20
476.0
 30
0.0
 40
1.5
 50
180.0
 51
270.0
  0
LINE
  8
0
  6
CONTINUOUS
 62
     1
 10
360.0
 20
535.5
 30
0.0
 11
360.0
 21
478.5
 31
0.0
  0
LINE
  8
0
  6
CONTINUOUS
 62
     1
 10
356.5
 20
478.5
 30
0.0
 11
513.5
 21
478.5
 31
0.0
  0
ARC
  8
0
  6
CONTINUOUS
 62
     1
 10
356.5
 20
480.0
 30
0.0
 40
1.5
 50
180.0
 51
270.0
  0
LINE
  8
0
  6
CONTINUOUS
 62
     1
 10
515.0
 20
535.5
 30
0.0
 11
515.0
 21
476.4
 31
0.0
  0
LINE
  8
0
  6
CONTINUOUS
 62
     1
 10
339.0
 20
535.5
 30
0.0
 11
339.0
 21
500.070524155
 31
0.0
  0
ARC
  8
0
  6
CONTINUOUS
 62
     1
 10
340.5
 20
500.070524155
 30
0.0
 40
1.5
 50
180.0
 51
251.029592192
  0
ARC
  8
0
  6
CONTINUOUS
 62
     1
 10
327.0
 20
519.0
 30
0.0
 40
1.0
 50
180.0
 51
270.0
  0
LINE
  8
0
  6
CONTINUOUS
 62
     1
 10
327.0
 20
518.0
 30
0.0
 11
339.0
 21
518.0
 31
0.0
  0
LINE
  8
0
  6
CONTINUOUS
 62
     1
 10
326.0
 20
535.5
 30
0.0
 11
326.0
 21
519.0
 31
0.0
  0
LINE
  8
0
  6
LTYPE3
 62
     2
 10
347.0
 20
571.562445841
 30
0.0
 11
358.0
 21
571.562445841
 31
0.0
  0
LINE
  8
0
  6
CONTINUOUS
 62
     1
 10
355.0
 20
492.429475845
 30
0.0
 11
355.0
 21
480.0
 31
0.0
  0
LINE
  8
0
  6
CONTINUOUS
 62
     1
 10
340.012380347
 20
498.651994256
 30
0.0
 11
353.987619653
 21
493.848005744
 31
0.0
  0
LINE
  8
0
  6
CONTINUOUS
 62
     1
 10
355.0
 20
535.5
 30
0.0
 11
355.0
 21
492.429475845
 31
0.0
  0
LINE
  8
0
  6
LTYPE3
 62
     2
 10
347.0
 20
499.437554159
 30
0.0
 11
358.0
 21
499.437554159
 31
0.0
  0
ARC
  8
0
  6
CONTINUOUS
 62
     1
 10
496.0
 20
595.5
 30
0.0
 40
3.0
 50
270.0
 51
0.0
  0
LINE
  8
0
  6
CONTINUOUS
 62
     1
 10
356.5
 20
592.5
 30
0.0
 11
513.5
 21
592.5
 31
0.0
  0
ARC
  8
0
  6
CONTINUOUS
 62
     1
 10
456.0
 20
595.5
 30
0.0
 40
3.0
 50
180.0
 51
270.0
  0
LINE
  8
0
  6
LTYPE3
 62
     2
 10
476.0
 20
580.5
 30
0.0
 11
476.0
 21
668.4321338
 31
0.0
  0
LINE
  8
0
  6
CONTINUOUS
 62
     1
 10
311.5
 20
551.0
 30
0.0
 11
326.0
 21
551.0
 31
0.0
  0
ARC
  8
0
  6
CONTINUOUS
 62
     1
 10
311.5
 20
549.5
 30
0.0
 40
1.5
 50
90.0
 51
180.0
  0
LINE
  8
0
  6
CONTINUOUS
 62
     1
 10
311.5
 20
520.0
 30
0.0
 11
326.0
 21
520.0
 31
0.0
  0
LINE
  8
0
  6
CONTINUOUS
 62
     1
 10
310.0
 20
521.5
 30
0.0
 11
310.0
 21
549.5
 31
0.0
  0
ARC
  8
0
  6
CONTINUOUS
 62
     1
 10
311.5
 20
521.5
 30
0.0
 40
1.5
 50
180.0
 51
270.0
  0
LINE
  8
2
  6
CONTINUOUS
 62
     2
 10
315.6
 20
553.0
 30
0.0
 11
316.280459689
 21
562.976821869
 31
0.0
  0
LINE
  8
2
  6
CONTINUOUS
 62
     2
 10
315.6
 20
553.0
 30
0.0
 11
311.200884442
 21
561.980411032
 31
0.0
  0
LINE
  8
2
  6
CONTINUOUS
 62
     2
 10
292.1
 20
672.8
 30
0.0
 11
197.3
 21
672.8
 31
0.0
  0
LINE
  8
0
  6
CONTINUOUS
 62
     2
 10
310.0
 20
761.0
 30
0.0
 11
319.659258263
 21
758.411809549
 31
0.0
  0
LINE
  8
0
  6
CONTINUOUS
 62
     2
 10
310.0
 20
761.0
 30
0.0
 11
319.659258263
 21
763.588190451
 31
0.0
  0
LINE
  8
0
  6
CONTINUOUS
 62
     2
 10
310.0
 20
790.5
 30
0.0
 11
319.659258263
 21
787.911809549
 31
0.0
  0
LINE
  8
0
  6
CONTINUOUS
 62
     2
 10
310.0
 20
790.5
 30
0.0
 11
319.659258263
 21
793.088190451
 31
0.0
  0
LINE
  8
0
  6
CONTINUOUS
 62
     2
 10
310.0
 20
558.5
 30
0.0
 11
310.0
 21
796.5
 31
0.0
  0
LINE
  8
0
  6
CONTINUOUS
 62
     2
 10
622.0
 20
761.0
 30
0.0
 11
310.0
 21
761.0
 31
0.0
  0
LINE
  8
0
  6
CONTINUOUS
 62
     2
 10
1029.0
 20
790.5
 30
0.0
 11
310.0
 21
790.5
 31
0.0
  0
LINE
  8
2
  6
CONTINUOUS
 62
     2
 10
252.0
 20
474.5
 30
0.0
 11
254.588190451
 21
484.159258263
 31
0.0
  0
LINE
  8
2
  6
CONTINUOUS
 62
     2
 10
252.0
 20
474.5
 30
0.0
 11
249.411809549
 21
484.159258263
 31
0.0
  0
LINE
  8
2
  6
CONTINUOUS
 62
     2
 10
252.0
 20
474.5
 30
0.0
 11
252.0
 21
596.5
 31
0.0
  0
LINE
  8
2
  6
CONTINUOUS
 62
     2
 10
252.0
 20
596.5
 30
0.0
 11
249.411809549
 21
586.840741737
 31
0.0
  0
LINE
  8
2
  6
CONTINUOUS
 62
     2
 10
252.0
 20
596.5
 30
0.0
 11
254.588190451
 21
586.840741737
 31
0.0
  0
LINE
  8
2
  6
CONTINUOUS
 62
     2
 10
287.0
 20
592.5
 30
0.0
 11
284.411809549
 21
582.840741737
 31
0.0
  0
LINE
  8
2
  6
CONTINUOUS
 62
     2
 10
287.0
 20
592.5
 30
0.0
 11
289.588190451
 21
582.840741737
 31
0.0
  0
LINE
  8
2
  6
CONTINUOUS
 62
     2
 10
287.0
 20
592.5
 30
0.0
 11
287.0
 21
478.5
 31
0.0
  0
LINE
  8
2
  6
CONTINUOUS
 62
     2
 10
287.0
 20
478.5
 30
0.0
 11
289.588190451
 21
488.159258263
 31
0.0
  0
LINE
  8
2
  6
CONTINUOUS
 62
     2
 10
287.0
 20
478.5
 30
0.0
 11
284.411809549
 21
488.159258263
 31
0.0
  0
LINE
  8
2
  6
CONTINUOUS
 62
     2
 10
351.0
 20
592.5
 30
0.0
 11
282.5
 21
592.5
 31
0.0
  0
LINE
  8
2
  6
CONTINUOUS
 62
     2
 10
512.500009344
 20
596.5
 30
0.0
 11
247.5
 21
596.5
 31
0.0
  0
LINE
  8
2
  6
CONTINUOUS
 62
     2
 10
512.500012063
 20
474.5
 30
0.0
 11
247.5
 21
474.5
 31
0.0
  0
LINE
  8
2
  6
CONTINUOUS
 62
     2
 10
351.0
 20
478.5
 30
0.0
 11
282.5
 21
478.5
 31
0.0
  0
LINE
  8
0
  6
CONTINUOUS
 62
     1
 10
410.0
 20
613.5
 30
0.0
 11
410.0
 21
647.5
 31
0.0
  0
LINE
  8
0
  6
CONTINUOUS
 62
     1
 10
410.0
 20
613.5
 30
0.0
 11
436.0
 21
613.5
 31
0.0
  0
LINE
  8
0
  6
CONTINUOUS
 62
     1
 10
410.0
 20
647.5
 30
0.0
 11
436.0
 21
647.5
 31
0.0
  0
LINE
  8
0
  6
LTYPE3
 62
     2
 10
403.070524155
 20
630.5
 30
0.0
 11
443.070524155
 21
630.5
 31
0.0
  0
LINE
  8
0
  6
CONTINUOUS
 62
     1
 10
506.0
 20
605.5
 30
0.0
 11
506.0
 21
608.5
 31
0.0
  0
ARC
  8
0
  6
CONTINUOUS
 62
     1
 10
502.0
 20
602.5
 30
0.0
 40
3.0
 50
90.0
 51
180.0
  0
LINE
  8
0
  6
CONTINUOUS
 62
     1
 10
499.0
 20
595.5
 30
0.0
 11
499.0
 21
602.5
 31
0.0
  0
LINE
  8
0
  6
CONTINUOUS
 62
     1
 10
446.0
 20
605.5
 30
0.0
 11
446.0
 21
608.5
 31
0.0
  0
ARC
  8
0
  6
CONTINUOUS
 62
     1
 10
450.0
 20
602.5
 30
0.0
 40
3.0
 50
0.0
 51
90.0
  0
LINE
  8
0
  6
CONTINUOUS
 62
     1
 10
453.0
 20
595.5
 30
0.0
 11
453.0
 21
602.5
 31
0.0
  0
LINE
  8
0
  6
CONTINUOUS
 62
     1
 10
446.0
 20
605.5
 30
0.0
 11
506.0
 21
605.5
 31
0.0
  0
LINE
  8
0
  6
CONTINUOUS
 62
     1
 10
521.087912088
 20
610.5
 30
0.0
 11
429.0
 21
654.520045888
 31
0.0
  0
LINE
  8
0
  6
CONTINUOUS
 62
     1
 10
523.0
 20
614.5
 30
0.0
 11
521.087912088
 21
610.5
 31
0.0
  0
LINE
  8
0
  6
CONTINUOUS
 62
     1
 10
523.0
 20
614.5
 30
0.0
 11
430.912087912
 21
658.520045888
 31
0.0
  0
LINE
  8
0
  6
CONTINUOUS
 62
     1
 10
430.912087912
 20
658.520045888
 30
0.0
 11
429.0
 21
654.520045888
 31
0.0
  0
LINE
  8
0
  6
CONTINUOUS
 62
     1
 10
516.0
 20
617.846153846
 30
0.0
 11
516.0
 21
657.5
 31
0.0
  0
ARC
  8
0
  6
CONTINUOUS
 62
     1
 10
513.0
 20
657.5
 30
0.0
 40
3.0
 50
0.0
 51
90.0
  0
LINE
  8
0
  6
CONTINUOUS
 62
     1
 10
516.0
 20
611.5
 30
0.0
 11
516.0
 21
612.9321338
 31
0.0
  0
ARC
  8
0
  6
CONTINUOUS
 62
     1
 10
513.0
 20
611.5
 30
0.0
 40
3.0
 50
270.0
 51
0.0
  0
LINE
  8
0
  6
CONTINUOUS
 62
     1
 10
436.0
 20
611.5
 30
0.0
 11
436.0
 21
651.173892042
 31
0.0
  0
LINE
  8
0
  6
CONTINUOUS
 62
     1
 10
439.0
 20
608.5
 30
0.0
 11
513.0
 21
608.5
 31
0.0
  0
ARC
  8
0
  6
CONTINUOUS
 62
     1
 10
439.0
 20
611.5
 30
0.0
 40
3.0
 50
180.0
 51
270.0
  0
LINE
  8
0
  6
CONTINUOUS
 62
     1
 10
436.0
 20
656.087912088
 30
0.0
 11
436.0
 21
657.5
 31
0.0
  0
LINE
  8
0
  6
CONTINUOUS
 62
     1
 10
439.0
 20
660.5
 30
0.0
 11
513.0
 21
660.5
 31
0.0
  0
ARC
  8
0
  6
CONTINUOUS
 62
     1
 10
439.0
 20
657.5
 30
0.0
 40
3.0
 50
90.0
 51
180.0
  0
LINE
  8
0
  6
CONTINUOUS
 62
     2
 10
410.0
 20
630.5
 30
0.0
 11
410.619310852
 21
640.48080428
 31
0.0
  0
LINE
  8
0
  6
CONTINUOUS
 62
     2
 10
410.0
 20
630.5
 30
0.0
 11
405.545936791
 21
639.453285482
 31
0.0
  0
LINE
  8
2
  6
CONTINUOUS
 62
     2
 10
308.685350584
 20
588.25
 30
0.0
 11
292.1
 21
672.8
 31
0.0
  0
LINE
  8
2
  6
CONTINUOUS
 62
     2
 10
315.6
 20
553.0
 30
0.0
 11
311.137353923
 21
575.75
 31
0.0
  0
LINE
  8
0
  6
CONTINUOUS
 62
     1
 10
353.7
 20
571.562445841
 30
0.0
 11
353.7
 21
566.950565841
 31
0.0
  0
LINE
  8
0
  6
CONTINUOUS
 62
     1
 10
353.7
 20
571.562445841
 30
0.0
 11
353.7
 21
576.174325841
 31
0.0
  0
LINE
  8
0
  6
CONTINUOUS
 62
     1
 10
350.1998
 20
568.080005841
 30
0.0
 11
350.851882488
 21
566.950565841
 31
0.0
  0
LINE
  8
0
  6
CONTINUOUS
 62
     1
 10
350.1998
 20
571.562445841
 30
0.0
 11
350.1998
 21
568.080005841
 31
0.0
  0
LINE
  8
0
  6
CONTINUOUS
 62
     1
 10
350.1998
 20
575.044885841
 30
0.0
 11
350.851882488
 21
576.174325841
 31
0.0
  0
LINE
  8
0
  6
CONTINUOUS
 62
     1
 10
350.1998
 20
571.562445841
 30
0.0
 11
350.1998
 21
575.044885841
 31
0.0
  0
ARC
  8
0
  6
CONTINUOUS
 62
     1
 10
354.603054926
 20
571.562445841
 30
0.0
 40
4.403254926
 50
148.419912243
 51
211.580087757
  0
ARC
  8
0
  6
CONTINUOUS
 62
     1
 10
351.544720132
 20
568.103535841
 30
0.0
 40
1.34512595
 50
121.002313915
 51
182.989498403
  0
LINE
  8
0
  6
CONTINUOUS
 62
     1
 10
350.1998
 20
575.044885841
 30
0.0
 11
350.851882488
 21
576.174325841
 31
0.0
  0
ARC
  8
0
  6
CONTINUOUS
 62
     1
 10
351.544720132
 20
575.021355841
 30
0.0
 40
1.34512595
 50
177.010501597
 51
238.997686085
  0
LINE
  8
0
  6
CONTINUOUS
 62
     1
 10
353.7
 20
566.950565841
 30
0.0
 11
350.851882488
 21
566.950565841
 31
0.0
  0
LINE
  8
0
  6
CONTINUOUS
 62
     1
 10
353.7
 20
569.256505841
 30
0.0
 11
350.851882488
 21
569.256505841
 31
0.0
  0
LINE
  8
0
  6
CONTINUOUS
 62
     1
 10
353.7
 20
573.868385841
 30
0.0
 11
350.851882488
 21
573.868385841
 31
0.0
  0
LINE
  8
0
  6
CONTINUOUS
 62
     1
 10
353.7
 20
576.174325841
 30
0.0
 11
350.851882488
 21
576.174325841
 31
0.0
  0
LINE
  8
0
  6
CONTINUOUS
 62
     1
 10
355.0
 20
566.962445841
 30
0.0
 11
353.7
 21
566.962445841
 31
0.0
  0
LINE
  8
0
  6
CONTINUOUS
 62
     1
 10
355.0
 20
571.562445841
 30
0.0
 11
353.700000446
 21
570.262446287
 31
0.0
  0
LINE
  8
0
  6
CONTINUOUS
 62
     1
 10
353.700000446
 20
571.562445841
 30
0.0
 11
355.0
 21
572.862445394
 31
0.0
  0
LINE
  8
0
  6
CONTINUOUS
 62
     1
 10
355.0
 20
576.162445841
 30
0.0
 11
353.7
 21
576.162445841
 31
0.0
  0
LINE
  8
0
  6
CONTINUOUS
 62
     1
 10
325.0
 20
531.7
 30
0.0
 11
326.0
 21
531.7
 31
0.0
  0
LINE
  8
0
  6
CONTINUOUS
 62
     1
 10
322.2
 20
532.0
 30
0.0
 11
322.517542648
 21
531.45
 31
0.0
  0
LINE
  8
0
  6
CONTINUOUS
 62
     1
 10
322.517542648
 20
531.45
 30
0.0
 11
325.0
 21
531.45
 31
0.0
  0
ARC
  8
0
  6
CONTINUOUS
 62
     1
 10
323.972973788
 20
532.4625
 30
0.0
 40
1.772973788
 50
145.174816769
 51
214.825183231
  0
LINE
  8
0
  6
CONTINUOUS
 62
     1
 10
325.0
 20
539.55
 30
0.0
 11
325.0
 21
531.45
 31
0.0
  0
LINE
  8
0
  6
CONTINUOUS
 62
     1
 10
325.0
 20
539.3
 30
0.0
 11
326.0
 21
539.3
 31
0.0
  0
LINE
  8
0
  6
CONTINUOUS
 62
     1
 10
325.0
 20
535.5
 30
0.0
 11
326.0
 21
536.5
 31
0.0
  0
LINE
  8
0
  6
CONTINUOUS
 62
     1
 10
322.517542648
 20
539.55
 30
0.0
 11
325.0
 21
539.55
 31
0.0
  0
LINE
  8
0
  6
CONTINUOUS
 62
     1
 10
322.2
 20
539.0
 30
0.0
 11
322.517542648
 21
539.55
 31
0.0
  0
LINE
  8
0
  6
CONTINUOUS
 62
     1
 10
322.517542648
 20
537.525
 30
0.0
 11
325.0
 21
537.525
 31
0.0
  0
ARC
  8
0
  6
CONTINUOUS
 62
     1
 10
323.972973788
 20
538.5375
 30
0.0
 40
1.772973788
 50
145.174816769
 51
214.825183231
  0
LINE
  8
0
  6
CONTINUOUS
 62
     1
 10
325.0
 20
534.5
 30
0.0
 11
326.0
 21
535.5
 31
0.0
  0
LINE
  8
0
  6
CONTINUOUS
 62
     1
 10
322.517542648
 20
533.475
 30
0.0
 11
325.0
 21
533.475
 31
0.0
  0
LINE
  8
0
  6
CONTINUOUS
 62
     1
 10
322.2
 20
539.0
 30
0.0
 11
322.2
 21
532.0
 31
0.0
  0
ARC
  8
0
  6
CONTINUOUS
 62
     1
 10
328.815581181
 20
535.5
 30
0.0
 40
6.615581181
 50
162.175912681
 51
197.824087319
  0
ARC
  8
0
  6
CONTINUOUS
 62
     1
 10
353.5
 20
492.429475845
 30
0.0
 40
1.5
 50
0.0
 51
71.029592192
  0
LINE
  8
0
  6
CONTINUOUS
 62
     1
 10
353.7
 20
499.437554159
 30
0.0
 11
353.7
 21
504.049434159
 31
0.0
  0
LINE
  8
0
  6
CONTINUOUS
 62
     1
 10
350.1998
 20
502.919994159
 30
0.0
 11
350.851882488
 21
504.049434159
 31
0.0
  0
LINE
  8
0
  6
CONTINUOUS
 62
     1
 10
350.1998
 20
499.437554159
 30
0.0
 11
350.1998
 21
502.919994159
 31
0.0
  0
ARC
  8
0
  6
CONTINUOUS
 62
     1
 10
351.544720132
 20
502.896464159
 30
0.0
 40
1.34512595
 50
177.010501597
 51
238.997686085
  0
LINE
  8
0
  6
CONTINUOUS
 62
     1
 10
353.7
 20
504.049434159
 30
0.0
 11
350.851882488
 21
504.049434159
 31
0.0
  0
LINE
  8
0
  6
CONTINUOUS
 62
     1
 10
355.0
 20
504.037554159
 30
0.0
 11
353.7
 21
504.037554159
 31
0.0
  0
LINE
  8
0
  6
CONTINUOUS
 62
     1
 10
353.7
 20
499.437554159
 30
0.0
 11
353.7
 21
494.825674159
 31
0.0
  0
LINE
  8
0
  6
CONTINUOUS
 62
     1
 10
350.1998
 20
495.955114159
 30
0.0
 11
350.851882488
 21
494.825674159
 31
0.0
  0
LINE
  8
0
  6
CONTINUOUS
 62
     1
 10
350.1998
 20
499.437554159
 30
0.0
 11
350.1998
 21
495.955114159
 31
0.0
  0
ARC
  8
0
  6
CONTINUOUS
 62
     1
 10
354.603054926
 20
499.437554159
 30
0.0
 40
4.403254926
 50
148.419912243
 51
211.580087757
  0
LINE
  8
0
  6
CONTINUOUS
 62
     1
 10
350.1998
 20
495.955114159
 30
0.0
 11
350.851882488
 21
494.825674159
 31
0.0
  0
ARC
  8
0
  6
CONTINUOUS
 62
     1
 10
351.544720132
 20
495.978644159
 30
0.0
 40
1.34512595
 50
121.002313915
 51
182.989498403
  0
LINE
  8
0
  6
CONTINUOUS
 62
     1
 10
353.7
 20
497.131614159
 30
0.0
 11
350.851882488
 21
497.131614159
 31
0.0
  0
LINE
  8
0
  6
CONTINUOUS
 62
     1
 10
353.7
 20
494.825674159
 30
0.0
 11
350.851882488
 21
494.825674159
 31
0.0
  0
LINE
  8
0
  6
CONTINUOUS
 62
     1
 10
355.0
 20
494.837554159
 30
0.0
 11
353.7
 21
494.837554159
 31
0.0
  0
LINE
  8
0
  6
CONTINUOUS
 62
     1
 10
353.7
 20
501.743494159
 30
0.0
 11
350.851882488
 21
501.743494159
 31
0.0
  0
LINE
  8
0
  6
CONTINUOUS
 62
     1
 10
355.0
 20
499.437554159
 30
0.0
 11
353.700000446
 21
500.737553713
 31
0.0
  0
LINE
  8
0
  6
CONTINUOUS
 62
     1
 10
353.700000446
 20
499.437554159
 30
0.0
 11
355.0
 21
498.137554606
 31
0.0
  0
LINE
  8
0
  6
CONTINUOUS
 62
     2
 10
1043.0
 20
550.5
 30
0.0
 11
1043.0
 21
793.5
 31
0.0
  0
LINE
  8
0
  6
LTYPE2
 62
     2
 10
302.142278764
 20
535.5
 30
0.0
 11
1075.0
 21
535.5
 31
0.0
  0
LINE
  8
0
  6
CONTINUOUS
 62
     2
 10
399.158072957
 20
684.032014776
 30
0.0
 11
353.558072957
 21
684.032014776
 31
0.0
  0
LINE
  8
0
  6
CONTINUOUS
 62
     2
 10
410.0
 20
630.5
 30
0.0
 11
399.158072957
 21
684.032014776
 31
0.0
  0
LINE
  8
2
  6
CONTINUOUS
 62
     2
 10
622.0
 20
730.5
 30
0.0
 11
612.340741737
 21
733.088190451
 31
0.0
  0
LINE
  8
2
  6
CONTINUOUS
 62
     2
 10
622.0
 20
730.5
 30
0.0
 11
612.340741737
 21
727.911809549
 31
0.0
  0
LINE
  8
2
  6
CONTINUOUS
 62
     2
 10
622.0
 20
730.5
 30
0.0
 11
532.0
 21
730.5
 31
0.0
  0
LINE
  8
2
  6
CONTINUOUS
 62
     2
 10
532.0
 20
730.5
 30
0.0
 11
541.659258263
 21
727.911809549
 31
0.0
  0
LINE
  8
2
  6
CONTINUOUS
 62
     2
 10
532.0
 20
730.5
 30
0.0
 11
541.659258263
 21
733.088190451
 31
0.0
  0
LINE
  8
2
  6
CONTINUOUS
 62
     2
 10
532.0
 20
603.0
 30
0.0
 11
532.0
 21
734.5
 31
0.0
  0
LINE
  8
2
  6
CONTINUOUS
 62
     2
 10
532.0
 20
730.5
 30
0.0
 11
522.340741737
 21
733.088190451
 31
0.0
  0
LINE
  8
2
  6
CONTINUOUS
 62
     2
 10
532.0
 20
730.5
 30
0.0
 11
522.340741737
 21
727.911809549
 31
0.0
  0
LINE
  8
2
  6
CONTINUOUS
 62
     2
 10
532.0
 20
730.5
 30
0.0
 11
310.0
 21
730.5
 31
0.0
  0
LINE
  8
2
  6
CONTINUOUS
 62
     2
 10
310.0
 20
730.5
 30
0.0
 11
319.659258263
 21
727.911809549
 31
0.0
  0
LINE
  8
2
  6
CONTINUOUS
 62
     2
 10
310.0
 20
730.5
 30
0.0
 11
319.659258263
 21
733.088190451
 31
0.0
  0
LINE
  8
0
  6
CONTINUOUS
 62
     1
 10
523.0
 20
595.5
 30
0.0
 11
532.0
 21
595.5
 31
0.0
  0
LINE
  8
0
  6
CONTINUOUS
 62
     1
 10
516.5
 20
596.5
 30
0.0
 11
523.0
 21
596.5
 31
0.0
  0
LINE
  8
0
  6
CONTINUOUS
 62
     1
 10
523.0
 20
474.5
 30
0.0
 11
523.0
 21
535.5
 31
0.0
  0
LINE
  8
0
  6
CONTINUOUS
 62
     1
 10
516.499990656
 20
474.5
 30
0.0
 11
523.0
 21
474.5
 31
0.0
  0
LINE
  8
0
  6
CONTINUOUS
 62
     1
 10
523.0
 20
596.5
 30
0.0
 11
523.0
 21
474.5
 31
0.0
  0
LINE
  8
0
  6
CONTINUOUS
 62
     1
 10
523.0
 20
475.5
 30
0.0
 11
532.0
 21
475.5
 31
0.0
  0
LINE
  8
0
  6
CONTINUOUS
 62
     1
 10
532.0
 20
595.5
 30
0.0
 11
532.0
 21
475.5
 31
0.0
  0
LINE
  8
0
  6
CONTINUOUS
 62
     1
 10
702.699501379
 20
567.25
 30
0.0
 11
948.0
 21
567.25
 31
0.0
  0
LINE
  8
0
  6
CONTINUOUS
 62
     1
 10
702.799501379
 20
503.75
 30
0.0
 11
948.0
 21
503.75
 31
0.0
  0
LINE
  8
0
  6
CONTINUOUS
 62
     1
 10
1008.0
 20
555.5
 30
0.0
 11
1008.0
 21
515.5
 31
0.0
  0
LINE
  8
0
  6
CONTINUOUS
 62
     1
 10
948.0
 20
554.5
 30
0.0
 11
1008.0
 21
554.5
 31
0.0
  0
LINE
  8
0
  6
CONTINUOUS
 62
     1
 10
948.0
 20
516.5
 30
0.0
 11
1008.0
 21
516.5
 31
0.0
  0
LINE
  8
0
  6
CONTINUOUS
 62
     2
 10
1008.0
 20
736.4
 30
0.0
 11
1008.0
 21
559.5
 31
0.0
  0
LINE
  8
0
  6
CONTINUOUS
 62
     2
 10
948.0
 20
570.25
 30
0.0
 11
948.0
 21
735.25
 31
0.0
  0
LINE
  8
0
  6
CONTINUOUS
 62
     1
 10
1051.0
 20
305.5
 30
0.0
 11
1051.0
 21
297.5
 31
0.0
  0
LINE
  8
0
  6
CONTINUOUS
 62
     1
 10
1035.0
 20
297.5
 30
0.0
 11
1035.0
 21
305.5
 31
0.0
  0
LINE
  8
0
  6
CONTINUOUS
 62
     1
 10
1061.0
 20
297.5
 30
0.0
 11
1061.0
 21
285.5
 31
0.0
  0
LINE
  8
0
  6
CONTINUOUS
 62
     1
 10
1051.0
 20
274.5
 30
0.0
 11
1035.0
 21
274.5
 31
0.0
  0
LINE
  8
0
  6
CONTINUOUS
 62
     1
 10
1018.0
 20
305.5
 30
0.0
 11
1018.0
 21
297.5
 31
0.0
  0
LINE
  8
0
  6
CONTINUOUS
 62
     1
 10
1018.0
 20
297.5
 30
0.0
 11
1061.0
 21
297.5
 31
0.0
  0
LINE
  8
0
  6
CONTINUOUS
 62
     1
 10
1051.0
 20
305.5
 30
0.0
 11
1051.0
 21
313.5
 31
0.0
  0
LINE
  8
0
  6
CONTINUOUS
 62
     1
 10
1035.0
 20
313.5
 30
0.0
 11
1035.0
 21
305.5
 31
0.0
  0
LINE
  8
0
  6
CONTINUOUS
 62
     1
 10
1061.0
 20
313.5
 30
0.0
 11
1061.0
 21
325.5
 31
0.0
  0
LINE
  8
0
  6
CONTINUOUS
 62
     1
 10
1051.0
 20
336.5
 30
0.0
 11
1035.0
 21
336.5
 31
0.0
  0
LINE
  8
0
  6
CONTINUOUS
 62
     1
 10
1018.0
 20
305.5
 30
0.0
 11
1018.0
 21
313.5
 31
0.0
  0
LINE
  8
0
  6
CONTINUOUS
 62
     1
 10
1018.0
 20
313.5
 30
0.0
 11
1061.0
 21
313.5
 31
0.0
  0
LINE
  8
0
  6
CONTINUOUS
 62
     2
 10
1098.733854631
 20
313.5
 30
0.0
 11
1096.14566418
 21
303.840741737
 31
0.0
  0
LINE
  8
0
  6
CONTINUOUS
 62
     2
 10
1098.733854631
 20
313.5
 30
0.0
 11
1101.322045082
 21
303.840741737
 31
0.0
  0
LINE
  8
0
  6
CONTINUOUS
 62
     2
 10
1098.833854631
 20
313.5
 30
0.0
 11
1096.24566418
 21
303.840741737
 31
0.0
  0
LINE
  8
0
  6
CONTINUOUS
 62
     2
 10
1098.833854631
 20
313.5
 30
0.0
 11
1101.422045082
 21
303.840741737
 31
0.0
  0
LINE
  8
0
  6
CONTINUOUS
 62
     2
 10
1145.2
 20
285.5
 30
0.0
 11
1147.788190451
 21
295.159258263
 31
0.0
  0
LINE
  8
0
  6
CONTINUOUS
 62
     2
 10
1145.2
 20
285.5
 30
0.0
 11
1142.611809549
 21
295.159258263
 31
0.0
  0
LINE
  8
0
  6
CONTINUOUS
 62
     2
 10
1145.2
 20
285.5
 30
0.0
 11
1145.2
 21
325.5
 31
0.0
  0
LINE
  8
0
  6
CONTINUOUS
 62
     2
 10
1145.2
 20
325.5
 30
0.0
 11
1142.611809549
 21
315.840741737
 31
0.0
  0
LINE
  8
0
  6
CONTINUOUS
 62
     2
 10
1145.2
 20
325.5
 30
0.0
 11
1147.788190451
 21
315.840741737
 31
0.0
  0
LINE
  8
0
  6
CONTINUOUS
 62
     2
 10
1106.833854631
 20
325.5
 30
0.0
 11
1152.0
 21
325.5
 31
0.0
  0
LINE
  8
0
  6
CONTINUOUS
 62
     2
 10
1098.833854631
 20
325.5
 30
0.0
 11
1101.422045082
 21
335.159258263
 31
0.0
  0
LINE
  8
0
  6
CONTINUOUS
 62
     2
 10
1098.833854631
 20
325.5
 30
0.0
 11
1096.24566418
 21
335.159258263
 31
0.0
  0
LINE
  8
0
  6
CONTINUOUS
 62
     2
 10
1098.733854631
 20
313.5
 30
0.0
 11
1098.733854631
 21
297.5
 31
0.0
  0
LINE
  8
0
  6
CONTINUOUS
 62
     2
 10
1098.733854631
 20
297.5
 30
0.0
 11
1101.322045082
 21
307.159258263
 31
0.0
  0
LINE
  8
0
  6
CONTINUOUS
 62
     2
 10
1098.733854631
 20
297.5
 30
0.0
 11
1096.14566418
 21
307.159258263
 31
0.0
  0
LINE
  8
0
  6
CONTINUOUS
 62
     2
 10
1098.833854631
 20
317.5
 30
0.0
 11
1098.833854631
 21
241.9
 31
0.0
  0
LINE
  8
0
  6
CONTINUOUS
 62
     2
 10
1098.833854631
 20
285.5
 30
0.0
 11
1101.422045082
 21
275.840741737
 31
0.0
  0
LINE
  8
0
  6
CONTINUOUS
 62
     2
 10
1098.833854631
 20
285.5
 30
0.0
 11
1096.24566418
 21
275.840741737
 31
0.0
  0
LINE
  8
0
  6
CONTINUOUS
 62
     2
 10
1106.833854631
 20
285.5
 30
0.0
 11
1153.0
 21
285.5
 31
0.0
  0
LINE
  8
0
  6
CONTINUOUS
 62
     1
 10
1028.0
 20
328.5
 30
0.0
 11
1058.0
 21
328.5
 31
0.0
  0
LINE
  8
0
  6
CONTINUOUS
 62
     1
 10
1028.0
 20
325.5
 30
0.0
 11
1028.0
 21
328.5
 31
0.0
  0
LINE
  8
0
  6
CONTINUOUS
 62
     1
 10
1058.0
 20
325.5
 30
0.0
 11
1058.0
 21
328.5
 31
0.0
  0
LINE
  8
0
  6
CONTINUOUS
 62
     1
 10
1051.0
 20
328.5
 30
0.0
 11
1051.0
 21
336.5
 31
0.0
  0
LINE
  8
0
  6
CONTINUOUS
 62
     1
 10
1035.0
 20
336.5
 30
0.0
 11
1035.0
 21
328.5
 31
0.0
  0
LINE
  8
0
  6
LTYPE1
 62
     2
 10
1035.0
 20
328.5
 30
0.0
 11
1035.0
 21
313.5
 31
0.0
  0
LINE
  8
0
  6
LTYPE1
 62
     2
 10
1051.0
 20
313.5
 30
0.0
 11
1051.0
 21
328.5
 31
0.0
  0
LINE
  8
0
  6
LTYPE3
 62
     2
 10
1038.6
 20
331.15
 30
0.0
 11
1047.0
 21
331.15
 31
0.0
  0
CIRCLE
  8
0
  6
CONTINUOUS
 62
     1
 10
1043.0
 20
331.15
 30
0.0
 40
2.0
  0
LINE
  8
0
  6
CONTINUOUS
 62
     1
 10
1051.0
 20
274.5
 30
0.0
 11
1035.0
 21
274.5
 31
0.0
  0
LINE
  8
0
  6
CONTINUOUS
 62
     1
 10
1028.0
 20
282.5
 30
0.0
 11
1058.0
 21
282.5
 31
0.0
  0
LINE
  8
0
  6
CONTINUOUS
 62
     1
 10
1028.0
 20
285.5
 30
0.0
 11
1028.0
 21
282.5
 31
0.0
  0
LINE
  8
0
  6
CONTINUOUS
 62
     1
 10
1058.0
 20
285.5
 30
0.0
 11
1058.0
 21
282.5
 31
0.0
  0
LINE
  8
0
  6
CONTINUOUS
 62
     1
 10
1051.0
 20
282.5
 30
0.0
 11
1051.0
 21
274.5
 31
0.0
  0
LINE
  8
0
  6
CONTINUOUS
 62
     1
 10
1035.0
 20
274.5
 30
0.0
 11
1035.0
 21
282.5
 31
0.0
  0
LINE
  8
0
  6
LTYPE3
 62
     2
 10
1038.6
 20
279.85
 30
0.0
 11
1047.0
 21
279.85
 31
0.0
  0
CIRCLE
  8
0
  6
CONTINUOUS
 62
     1
 10
1043.0
 20
279.85
 30
0.0
 40
2.0
  0
LINE
  8
0
  6
CONTINUOUS
 62
     1
 10
1035.0
 20
274.5
 30
0.0
 11
1035.0
 21
282.5
 31
0.0
  0
LINE
  8
0
  6
CONTINUOUS
 62
     1
 10
1051.0
 20
282.5
 30
0.0
 11
1051.0
 21
274.5
 31
0.0
  0
LINE
  8
0
  6
LTYPE1
 62
     2
 10
1051.0
 20
297.5
 30
0.0
 11
1051.0
 21
282.5
 31
0.0
  0
LINE
  8
0
  6
LTYPE1
 62
     2
 10
1035.0
 20
282.5
 30
0.0
 11
1035.0
 21
297.5
 31
0.0
  0
LINE
  8
0
  6
CONTINUOUS
 62
     2
 10
1098.833854631
 20
293.5
 30
0.0
 11
1098.833854631
 21
354.7
 31
0.0
  0
LINE
  8
0
  6
CONTINUOUS
 62
     2
 10
1035.0
 20
363.6
 30
0.0
 11
1025.340741737
 21
366.188190451
 31
0.0
  0
LINE
  8
0
  6
CONTINUOUS
 62
     2
 10
1035.0
 20
363.6
 30
0.0
 11
1025.340741737
 21
361.011809549
 31
0.0
  0
LINE
  8
0
  6
CONTINUOUS
 62
     2
 10
1051.0
 20
363.6
 30
0.0
 11
1060.659258263
 21
361.011809549
 31
0.0
  0
LINE
  8
0
  6
CONTINUOUS
 62
     2
 10
1051.0
 20
363.6
 30
0.0
 11
1060.659258263
 21
366.188190451
 31
0.0
  0
LINE
  8
0
  6
CONTINUOUS
 62
     2
 10
1015.0
 20
363.6
 30
0.0
 11
1107.0
 21
363.6
 31
0.0
  0
TEXT
  8
0
  6
CONTINUOUS
 62
     2
 10
1098.75
 20
376.26
 30
0.84
 40
8.4
  1
Ｈ１０
 50
0.0
 41
0.9
 51
0.0
  7
KANJI0
  0
LINE
  8
0
  6
CONTINUOUS
 62
     2
 10
1043.0
 20
375.85
 30
0.0
 11
1043.0
 21
384.35
 31
0.0
  0
LINE
  8
0
  6
CONTINUOUS
 62
     2
 10
1043.0
 20
376.35
 30
0.0
 11
1033.340741737
 21
378.938190451
 31
0.0
  0
LINE
  8
0
  6
CONTINUOUS
 62
     2
 10
1043.0
 20
376.35
 30
0.0
 11
1033.340741737
 21
373.761809549
 31
0.0
  0
LINE
  8
0
  6
CONTINUOUS
 62
     2
 10
1043.0
 20
376.35
 30
0.0
 11
1018.0
 21
376.35
 31
0.0
  0
LINE
  8
0
  6
CONTINUOUS
 62
     2
 10
1018.0
 20
376.35
 30
0.0
 11
1027.659258263
 21
373.761809549
 31
0.0
  0
LINE
  8
0
  6
CONTINUOUS
 62
     2
 10
1018.0
 20
376.35
 30
0.0
 11
1027.659258263
 21
378.938190451
 31
0.0
  0
LINE
  8
0
  6
CONTINUOUS
 62
     1
 10
1008.0
 20
325.5
 30
0.0
 11
1061.0
 21
325.5
 31
0.0
  0
LINE
  8
0
  6
CONTINUOUS
 62
     1
 10
1008.0
 20
285.5
 30
0.0
 11
1008.0
 21
325.5
 31
0.0
  0
LINE
  8
0
  6
CONTINUOUS
 62
     1
 10
1008.0
 20
285.5
 30
0.0
 11
1061.0
 21
285.5
 31
0.0
  0
LINE
  8
0
  6
LTYPE2
 62
     2
 10
988.0
 20
305.5
 30
0.0
 11
1071.9
 21
305.5
 31
0.0
  0
TEXT
  8
0
  6
CONTINUOUS
 62
     2
 10
1098.75
 20
367.86
 30
0.84
 40
8.4
  1
ｄ９
 50
0.0
 41
0.9
 51
0.0
  7
KANJI0
  0
LINE
  8
0
  6
CONTINUOUS
 62
     1
 10
1227.0
 20
543.5
 30
0.0
 11
1227.0
 21
527.5
 31
0.0
  0
LINE
  8
0
  6
CONTINUOUS
 62
     1
 10
1250.0
 20
555.5
 30
0.0
 11
1250.0
 21
515.5
 31
0.0
  0
LINE
  8
0
  6
CONTINUOUS
 62
     1
 10
1238.0
 20
555.5
 30
0.0
 11
1238.0
 21
515.5
 31
0.0
  0
LINE
  8
0
  6
CONTINUOUS
 62
     1
 10
1238.0
 20
555.5
 30
0.0
 11
1258.0
 21
555.5
 31
0.0
  0
LINE
  8
0
  6
CONTINUOUS
 62
     1
 10
1238.0
 20
515.5
 30
0.0
 11
1258.0
 21
515.5
 31
0.0
  0
LINE
  8
0
  6
CONTINUOUS
 62
     1
 10
1250.0
 20
543.5
 30
0.0
 11
1258.0
 21
543.5
 31
0.0
  0
LINE
  8
0
  6
CONTINUOUS
 62
     1
 10
1250.0
 20
527.5
 30
0.0
 11
1258.0
 21
527.5
 31
0.0
  0
LINE
  8
0
  6
CONTINUOUS
 62
     1
 10
1289.0
 20
543.5
 30
0.0
 11
1289.0
 21
527.5
 31
0.0
  0
LINE
  8
0
  6
CONTINUOUS
 62
     1
 10
1266.0
 20
555.5
 30
0.0
 11
1266.0
 21
515.5
 31
0.0
  0
LINE
  8
0
  6
CONTINUOUS
 62
     1
 10
1278.0
 20
555.5
 30
0.0
 11
1278.0
 21
515.5
 31
0.0
  0
LINE
  8
0
  6
CONTINUOUS
 62
     1
 10
1278.0
 20
555.5
 30
0.0
 11
1258.0
 21
555.5
 31
0.0
  0
LINE
  8
0
  6
CONTINUOUS
 62
     1
 10
1278.0
 20
515.5
 30
0.0
 11
1258.0
 21
515.5
 31
0.0
  0
LINE
  8
0
  6
CONTINUOUS
 62
     1
 10
1266.0
 20
543.5
 30
0.0
 11
1258.0
 21
543.5
 31
0.0
  0
LINE
  8
0
  6
CONTINUOUS
 62
     1
 10
1266.0
 20
527.5
 30
0.0
 11
1258.0
 21
527.5
 31
0.0
  0
LINE
  8
0
  6
CONTINUOUS
 62
     1
 10
1235.0
 20
520.5
 30
0.0
 11
1235.0
 21
550.5
 31
0.0
  0
LINE
  8
0
  6
CONTINUOUS
 62
     1
 10
1238.0
 20
520.5
 30
0.0
 11
1235.0
 21
520.5
 31
0.0
  0
LINE
  8
0
  6
CONTINUOUS
 62
     1
 10
1238.0
 20
550.5
 30
0.0
 11
1235.0
 21
550.5
 31
0.0
  0
LINE
  8
0
  6
LTYPE3
 62
     2
 10
1232.35
 20
531.1
 30
0.0
 11
1232.35
 21
539.5
 31
0.0
  0
CIRCLE
  8
0
  6
CONTINUOUS
 62
     1
 10
1232.35
 20
535.5
 30
0.0
 40
2.0
  0
LINE
  8
0
  6
CONTINUOUS
 62
     1
 10
1281.0
 20
550.5
 30
0.0
 11
1281.0
 21
520.5
 31
0.0
  0
LINE
  8
0
  6
CONTINUOUS
 62
     1
 10
1278.0
 20
550.5
 30
0.0
 11
1281.0
 21
550.5
 31
0.0
  0
LINE
  8
0
  6
CONTINUOUS
 62
     1
 10
1278.0
 20
520.5
 30
0.0
 11
1281.0
 21
520.5
 31
0.0
  0
LINE
  8
0
  6
LTYPE3
 62
     2
 10
1283.65
 20
539.9
 30
0.0
 11
1283.65
 21
531.5
 31
0.0
  0
CIRCLE
  8
0
  6
CONTINUOUS
 62
     1
 10
1283.65
 20
535.5
 30
0.0
 40
2.0
  0
LINE
  8
0
  6
CONTINUOUS
 62
     1
 10
1227.0
 20
543.5
 30
0.0
 11
1235.0
 21
543.5
 31
0.0
  0
LINE
  8
0
  6
LTYPE1
 62
     2
 10
1250.0
 20
543.5
 30
0.0
 11
1235.0
 21
543.5
 31
0.0
  0
LINE
  8
0
  6
CONTINUOUS
 62
     1
 10
1227.0
 20
527.5
 30
0.0
 11
1235.0
 21
527.5
 31
0.0
  0
LINE
  8
0
  6
LTYPE1
 62
     2
 10
1250.0
 20
527.5
 30
0.0
 11
1235.0
 21
527.5
 31
0.0
  0
LINE
  8
0
  6
CONTINUOUS
 62
     1
 10
1289.0
 20
543.5
 30
0.0
 11
1281.0
 21
543.5
 31
0.0
  0
LINE
  8
0
  6
CONTINUOUS
 62
     1
 10
1289.0
 20
527.5
 30
0.0
 11
1281.0
 21
527.5
 31
0.0
  0
LINE
  8
0
  6
LTYPE1
 62
     2
 10
1266.0
 20
527.5
 30
0.0
 11
1281.0
 21
527.5
 31
0.0
  0
LINE
  8
0
  6
LTYPE1
 62
     2
 10
1266.0
 20
543.5
 30
0.0
 11
1281.0
 21
543.5
 31
0.0
  0
LINE
  8
0
  6
CONTINUOUS
 62
     1
 10
1318.0
 20
515.5
 30
0.0
 11
1318.0
 21
555.5
 31
0.0
  0
LINE
  8
0
  6
LTYPE1
 62
     2
 10
1296.0
 20
527.5
 30
0.0
 11
1318.0
 21
527.5
 31
0.0
  0
LINE
  8
0
  6
LTYPE1
 62
     2
 10
1296.0
 20
543.5
 30
0.0
 11
1318.0
 21
543.5
 31
0.0
  0
LINE
  8
0
  6
LTYPE1
 62
     2
 10
1296.0
 20
527.5
 30
0.0
 11
1296.0
 21
543.5
 31
0.0
  0
LINE
  8
0
  6
LTYPE1
 62
     2
 10
1220.0
 20
527.5
 30
0.0
 11
1198.0
 21
527.5
 31
0.0
  0
LINE
  8
0
  6
LTYPE1
 62
     2
 10
1220.0
 20
543.5
 30
0.0
 11
1198.0
 21
543.5
 31
0.0
  0
LINE
  8
0
  6
LTYPE1
 62
     2
 10
1220.0
 20
527.5
 30
0.0
 11
1220.0
 21
543.5
 31
0.0
  0
LINE
  8
0
  6
CONTINUOUS
 62
     1
 10
1198.0
 20
515.5
 30
0.0
 11
1198.0
 21
555.5
 31
0.0
  0
LINE
  8
0
  6
CONTINUOUS
 62
     2
 10
1198.0
 20
437.4
 30
0.0
 11
1207.659258263
 21
434.811809549
 31
0.0
  0
LINE
  8
0
  6
CONTINUOUS
 62
     2
 10
1198.0
 20
437.4
 30
0.0
 11
1207.659258263
 21
439.988190451
 31
0.0
  0
LINE
  8
0
  6
CONTINUOUS
 62
     2
 10
1198.0
 20
437.4
 30
0.0
 11
1318.0
 21
437.4
 31
0.0
  0
LINE
  8
0
  6
CONTINUOUS
 62
     2
 10
1318.0
 20
437.4
 30
0.0
 11
1308.340741737
 21
439.988190451
 31
0.0
  0
LINE
  8
0
  6
CONTINUOUS
 62
     2
 10
1318.0
 20
437.4
 30
0.0
 11
1308.340741737
 21
434.811809549
 31
0.0
  0
ARC
  8
0
  6
CONTINUOUS
 62
     1
 10
1258.0
 20
535.5
 30
0.0
 40
57.0
 50
201.813245084
 51
338.186754916
  0
LINE
  8
7
  6
CONTINUOUS
 62
     2
 10
1308.5
 20
535.5
 30
0.0
 11
1378.5
 21
535.5
 31
0.0
  0
LINE
  8
2
  6
CONTINUOUS
 62
     2
 10
1372.5
 20
535.5
 30
0.0
 11
1375.088190451
 21
545.159258263
 31
0.0
  0
LINE
  8
2
  6
CONTINUOUS
 62
     2
 10
1372.5
 20
535.5
 30
0.0
 11
1369.911809549
 21
545.159258263
 31
0.0
  0
LINE
  8
0
  6
CONTINUOUS
 62
     2
 10
1200.0
 20
586.5
 30
0.0
 11
1214.0
 21
586.5
 31
0.0
  0
LINE
  8
0
  6
CONTINUOUS
 62
     2
 10
1207.0
 20
593.5
 30
0.0
 11
1207.0
 21
579.5
 31
0.0
  0
LINE
  8
0
  6
CONTINUOUS
 62
     2
 10
1316.0
 20
586.5
 30
0.0
 11
1302.0
 21
586.5
 31
0.0
  0
LINE
  8
0
  6
CONTINUOUS
 62
     2
 10
1309.0
 20
593.5
 30
0.0
 11
1309.0
 21
579.5
 31
0.0
  0
CIRCLE
  8
0
  6
CONTINUOUS
 62
     1
 10
1207.0
 20
484.5
 30
0.0
 40
4.5
  0
LINE
  8
0
  6
CONTINUOUS
 62
     2
 10
1200.0
 20
484.5
 30
0.0
 11
1214.0
 21
484.5
 31
0.0
  0
LINE
  8
0
  6
CONTINUOUS
 62
     2
 10
1207.0
 20
477.5
 30
0.0
 11
1207.0
 21
491.5
 31
0.0
  0
CIRCLE
  8
0
  6
CONTINUOUS
 62
     1
 10
1309.0
 20
484.5
 30
0.0
 40
4.5
  0
LINE
  8
0
  6
CONTINUOUS
 62
     2
 10
1316.0
 20
484.5
 30
0.0
 11
1302.0
 21
484.5
 31
0.0
  0
LINE
  8
0
  6
CONTINUOUS
 62
     2
 10
1309.0
 20
477.5
 30
0.0
 11
1309.0
 21
491.5
 31
0.0
  0
LINE
  8
0
  6
CONTINUOUS
 62
     1
 10
1197.0
 20
499.3
 30
0.0
 11
1197.0
 21
484.5
 31
0.0
  0
ARC
  8
0
  6
CONTINUOUS
 62
     1
 10
1207.0
 20
484.5
 30
0.0
 40
10.0
 50
180.0
 51
270.0
  0
ARC
  8
0
  6
CONTINUOUS
 62
     1
 10
1309.0
 20
586.5
 30
0.0
 40
10.0
 50
0.0
 51
30.0
  0
LINE
  8
0
  6
CONTINUOUS
 62
     1
 10
1319.0
 20
484.5
 30
0.0
 11
1319.0
 21
500.0
 31
0.0
  0
ARC
  8
0
  6
CONTINUOUS
 62
     1
 10
1309.0
 20
484.5
 30
0.0
 40
10.0
 50
270.0
 51
0.0
  0
LINE
  8
0
  6
CONTINUOUS
 62
     2
 10
1198.0
 20
513.6
 30
0.0
 11
1198.0
 21
430.4
 31
0.0
  0
LINE
  8
0
  6
CONTINUOUS
 62
     2
 10
1318.0
 20
514.4
 30
0.0
 11
1318.0
 21
429.5
 31
0.0
  0
LINE
  8
2
  6
CONTINUOUS
 62
     2
 10
1372.5
 20
660.5
 30
0.0
 11
1369.911809549
 21
650.840741737
 31
0.0
  0
LINE
  8
2
  6
CONTINUOUS
 62
     2
 10
1372.5
 20
660.5
 30
0.0
 11
1375.088190451
 21
650.840741737
 31
0.0
  0
LINE
  8
2
  6
CONTINUOUS
 62
     2
 10
1372.5
 20
535.5
 30
0.0
 11
1372.5
 21
660.5
 31
0.0
  0
LINE
  8
2
  6
CONTINUOUS
 62
     2
 10
1301.0
 20
660.5
 30
0.0
 11
1376.5
 21
660.5
 31
0.0
  0
ARC
  8
0
  6
CONTINUOUS
 62
     1
 10
1292.0
 20
658.5
 30
0.0
 40
2.0
 50
0.0
 51
90.0
  0
LINE
  8
0
  6
CONTINUOUS
 62
     1
 10
1292.0
 20
660.5
 30
0.0
 11
1224.0
 21
660.5
 31
0.0
  0
ARC
  8
0
  6
CONTINUOUS
 62
     1
 10
1224.0
 20
658.5
 30
0.0
 40
2.0
 50
90.0
 51
180.0
  0
ARC
  8
0
  6
CONTINUOUS
 62
     1
 10
1300.0
 20
656.520045888
 30
0.0
 40
2.0
 50
0.0
 51
90.0
  0
ARC
  8
0
  6
CONTINUOUS
 62
     1
 10
1216.0
 20
656.520045888
 30
0.0
 40
2.0
 50
90.0
 51
180.0
  0
ARC
  8
0
  6
CONTINUOUS
 62
     1
 10
1309.0
 20
586.5
 30
0.0
 40
4.5
 50
138.189685104
 51
180.0
  0
ARC
  8
0
  6
CONTINUOUS
 62
     1
 10
1309.0
 20
586.5
 30
0.0
 40
4.5
 50
180.0
 51
41.810314896
  0
LINE
  8
0
  6
CONTINUOUS
 62
     1
 10
1207.0
 20
474.5
 30
0.0
 11
1258.0
 21
474.5
 31
0.0
  0
LINE
  8
0
  6
CONTINUOUS
 62
     1
 10
1258.0
 20
474.5
 30
0.0
 11
1309.0
 21
474.5
 31
0.0
  0
ARC
  8
0
  6
CONTINUOUS
 62
     1
 10
1207.0
 20
586.5
 30
0.0
 40
10.0
 50
162.542396876
 51
180.0
  0
ARC
  8
0
  6
LTYPE1
 62
     1
 10
1207.0
 20
586.5
 30
0.0
 40
10.0
 50
150.0
 51
162.542396876
  0
ARC
  8
0
  6
CONTINUOUS
 62
     1
 10
1207.0
 20
586.5
 30
0.0
 40
4.5
 50
138.189685105
 51
0.0
  0
LINE
  8
0
  6
CONTINUOUS
 62
     1
 10
1197.0
 20
586.5
 30
0.0
 11
1197.0
 21
499.3
 31
0.0
  0
LINE
  8
0
  6
CONTINUOUS
 62
     1
 10
1319.0
 20
500.0
 30
0.0
 11
1319.0
 21
586.5
 31
0.0
  0
LINE
  8
0
  6
LTYPE4
 62
     2
 10
1301.2
 20
535.5
 30
0.0
 11
1195.0
 21
535.5
 31
0.0
  0
ARC
  8
0
  6
CONTINUOUS
 62
     1
 10
1207.0
 20
586.5
 30
0.0
 40
4.5
 50
0.0
 51
41.810314895
  0
ARC
  8
0
  6
CONTINUOUS
 62
     1
 10
1207.0
 20
586.5
 30
0.0
 40
4.5
 50
41.810314895
 51
138.189685105
  0
ARC
  8
0
  6
CONTINUOUS
 62
     1
 10
1309.0
 20
586.5
 30
0.0
 40
4.5
 50
41.810314896
 51
138.189685104
  0
ARC
  8
0
  6
CONTINUOUS
 62
     1
 10
1309.0
 20
586.5
 30
0.0
 40
10.0
 50
30.0
 51
90.0
  0
ARC
  8
0
  6
CONTINUOUS
 62
     1
 10
1207.0
 20
586.5
 30
0.0
 40
10.0
 50
90.0
 51
150.0
  0
LINE
  8
0
  6
CONTINUOUS
 62
     1
 10
1207.0
 20
596.5
 30
0.0
 11
1309.0
 21
596.5
 31
0.0
  0
CIRCLE
  8
0
  6
CONTINUOUS
 62
     1
 10
1258.0
 20
535.5
 30
0.0
 40
40.0
  0
LINE
  8
0
  6
CONTINUOUS
 62
     1
 10
1288.0
 20
605.5
 30
0.0
 11
1288.0
 21
608.5
 31
0.0
  0
ARC
  8
0
  6
CONTINUOUS
 62
     1
 10
1284.0
 20
602.5
 30
0.0
 40
3.0
 50
90.0
 51
180.0
  0
LINE
  8
0
  6
CONTINUOUS
 62
     1
 10
1281.0
 20
595.5
 30
0.0
 11
1281.0
 21
602.5
 31
0.0
  0
LINE
  8
0
  6
CONTINUOUS
 62
     1
 10
1228.0
 20
605.5
 30
0.0
 11
1228.0
 21
608.5
 31
0.0
  0
ARC
  8
0
  6
CONTINUOUS
 62
     1
 10
1232.0
 20
602.5
 30
0.0
 40
3.0
 50
0.0
 51
90.0
  0
LINE
  8
0
  6
CONTINUOUS
 62
     1
 10
1235.0
 20
595.5
 30
0.0
 11
1235.0
 21
602.5
 31
0.0
  0
LINE
  8
0
  6
CONTINUOUS
 62
     1
 10
1228.0
 20
605.5
 30
0.0
 11
1288.0
 21
605.5
 31
0.0
  0
LINE
  8
0
  6
CONTINUOUS
 62
     1
 10
1289.0
 20
560.889134692
 30
0.0
 11
1318.0
 21
555.5
 31
0.0
  0
LINE
  8
0
  6
CONTINUOUS
 62
     1
 10
1290.0
 20
510.833333333
 30
0.0
 11
1318.0
 21
515.5
 31
0.0
  0
LINE
  8
0
  6
CONTINUOUS
 62
     1
 10
1226.5
 20
560.796218577
 30
0.0
 11
1198.0
 21
555.5
 31
0.0
  0
LINE
  8
0
  6
CONTINUOUS
 62
     1
 10
1226.5
 20
510.75
 30
0.0
 11
1198.0
 21
515.5
 31
0.0
  0
ARC
  8
0
  6
CONTINUOUS
 62
     1
 10
1258.0
 20
535.5
 30
0.0
 40
57.0
 50
21.972132448
 51
157.301942293
  0
ARC
  8
0
  6
CONTINUOUS
 62
     1
 10
1258.0
 20
535.5
 30
0.0
 40
31.75
 50
16.507591133
 51
162.863725496
  0
ARC
  8
0
  6
CONTINUOUS
 62
     1
 10
1258.0
 20
535.5
 30
0.0
 40
31.75
 50
197.149224491
 51
343.009176708
  0
LINE
  8
0
  6
CONTINUOUS
 62
     1
 10
1214.0
 20
612.5
 30
0.0
 11
1214.0
 21
656.520045888
 31
0.0
  0
ARC
  8
0
  6
CONTINUOUS
 62
     1
 10
1216.0
 20
612.5
 30
0.0
 40
2.0
 50
180.0
 51
270.0
  0
ARC
  8
0
  6
CONTINUOUS
 62
     1
 10
1216.0
 20
616.5
 30
0.0
 40
2.0
 50
180.0
 51
270.0
  0
ARC
  8
0
  6
CONTINUOUS
 62
     1
 10
1300.0
 20
616.5
 30
0.0
 40
2.0
 50
270.0
 51
0.0
  0
LINE
  8
0
  6
CONTINUOUS
 62
     1
 10
1216.0
 20
614.5
 30
0.0
 11
1300.000015259
 21
614.5
 31
0.0
  0
LINE
  8
0
  6
CONTINUOUS
 62
     1
 10
1302.0
 20
612.5
 30
0.0
 11
1302.0
 21
656.520045888
 31
0.0
  0
LINE
  8
0
  6
CONTINUOUS
 62
     1
 10
1216.0
 20
610.5
 30
0.0
 11
1300.0
 21
610.5
 31
0.0
  0
ARC
  8
0
  6
CONTINUOUS
 62
     1
 10
1300.0
 20
612.5
 30
0.0
 40
2.0
 50
270.0
 51
0.0
  0
LINE
  8
0
  6
CONTINUOUS
 62
     1
 10
1293.999899538
 20
658.520045888
 30
0.0
 11
1300.0
 21
658.520045888
 31
0.0
  0
LINE
  8
0
  6
CONTINUOUS
 62
     1
 10
1216.0
 20
658.520045888
 30
0.0
 11
1222.000100462
 21
658.520045888
 31
0.0
  0
LINE
  8
0
  6
CONTINUOUS
 62
     1
 10
1222.000100462
 20
610.5
 30
0.0
 11
1222.000100462
 21
610.5
 31
0.0
  0
ARC
  8
0
  6
CONTINUOUS
 62
     1
 10
1224.000100462
 20
610.5
 30
0.0
 40
2.0
 50
180.0
 51
270.0
  0
ARC
  8
0
  6
CONTINUOUS
 62
     1
 10
1292.0
 20
610.5
 30
0.0
 40
2.0
 50
270.0
 51
0.0
  0
LINE
  8
0
  6
CONTINUOUS
 62
     1
 10
1292.0
 20
608.5
 30
0.0
 11
1224.000100462
 21
608.5
 31
0.0
  0
LINE
  8
0
  6
CONTINUOUS
 62
     1
 10
1294.0
 20
658.520045888
 30
0.0
 11
1294.0
 21
619.846153846
 31
0.0
  0
ARC
  8
0
  6
CONTINUOUS
 62
     1
 10
1292.0
 20
619.846153846
 30
0.0
 40
2.0
 50
270.0
 51
0.0
  0
LINE
  8
0
  6
CONTINUOUS
 62
     1
 10
1222.0
 20
658.520045888
 30
0.0
 11
1222.0
 21
619.846153846
 31
0.0
  0
LINE
  8
0
  6
CONTINUOUS
 62
     1
 10
1224.0
 20
617.846153846
 30
0.0
 11
1292.0
 21
617.846153846
 31
0.0
  0
ARC
  8
0
  6
CONTINUOUS
 62
     1
 10
1224.0
 20
619.846153846
 30
0.0
 40
2.0
 50
180.0
 51
270.0
  0
LINE
  8
0
  6
LTYPE4
 62
     2
 10
1258.0
 20
667.1
 30
0.0
 11
1258.0
 21
467.0
 31
0.0
  0
TEXT
  8
0
  6
CONTINUOUS
 62
     2
 10
1040.2
 20
794.5
 30
0.0
 40
15.0
  1
１８
 50
0.0
 41
0.9
 51
0.0
  7
KANJI1
  0
TEXT
  8
0
  6
CONTINUOUS
 62
     2
 10
1013.7
 20
734.5
 30
0.0
 40
15.0
  1
３５
 50
0.0
 41
0.9
 51
0.0
  7
KANJI1
  0
TEXT
  8
0
  6
CONTINUOUS
 62
     2
 10
938.4
 20
734.5
 30
0.0
 40
15.0
  1
ｍｉｎ．Ｐ
 50
0.0
 41
0.9
 51
0.0
  7
KANJI1
  0
TEXT
  8
0
  6
CONTINUOUS
 62
     2
 10
799.6
 20
734.5
 30
0.0
 40
15.0
  1
Ｃ
 50
0.0
 41
0.9
 51
0.0
  7
KANJI1
  0
TEXT
  8
0
  6
CONTINUOUS
 62
     2
 10
818.1
 20
765.0
 30
0.0
 40
15.0
  1
ｍｉｎ．Ｌ
 50
0.0
 41
0.9
 51
0.0
  7
KANJI1
  0
TEXT
  8
0
  6
CONTINUOUS
 62
     2
 10
653.6
 20
794.5
 30
0.0
 40
15.0
  1
ｍｉｎ．ＡＬ
 50
0.0
 41
0.9
 51
0.0
  7
KANJI1
  0
TEXT
  8
0
  6
CONTINUOUS
 62
     2
 10
471.5
 20
765.0
 30
0.0
 40
15.0
  1
３１２
 50
0.0
 41
0.9
 51
0.0
  7
KANJI1
  0
TEXT
  8
0
  6
CONTINUOUS
 62
     2
 10
353.558072957
 20
688.032014776
 30
0.0
 40
15.0
  1
ＰＦ３／４
 50
0.0
 41
0.9
 51
0.0
  7
KANJI1
  0
TEXT
  8
2
  6
CONTINUOUS
 62
     2
 10
401.8
 20
734.5
 30
0.0
 40
15.0
  1
２２２
 50
0.0
 41
0.9
 51
0.0
  7
KANJI1
  0
TEXT
  8
2
  6
CONTINUOUS
 62
     2
 10
564.4
 20
734.5
 30
0.0
 40
15.0
  1
９０
 50
0.0
 41
0.9
 51
0.0
  7
KANJI1
  0
TEXT
  8
2
  6
CONTINUOUS
 62
     2
 10
248.0
 20
509.7
 30
0.0
 40
15.0
  1
ロ１２２
 50
90.0
 41
0.9
 51
0.0
  7
KANJI1
  0
TEXT
  8
2
  6
CONTINUOUS
 62
     2
 10
283.0
 20
509.7
 30
0.0
 40
15.0
  1
φ１１４
 50
90.0
 41
0.9
 51
0.0
  7
KANJI1
  0
TEXT
  8
0
  6
CONTINUOUS
 62
     2
 10
694.6
 20
573.5
 30
0.0
 40
15.0
  1
φ６４
 50
90.0
 41
0.9
 51
0.0
  7
KANJI1
  0
TEXT
  8
0
  6
CONTINUOUS
 62
     2
 10
730.995769772
 20
458.187641749
 30
0.0
 40
15.0
  1
給脂口
 50
0.0
 41
0.9
 51
0.0
  7
KANJI1
  0
TEXT
  8
0
  6
CONTINUOUS
 62
     2
 10
672.1
 20
353.4
 30
0.0
 40
15.0
  1
φ１６Ｈ１０深２２
 50
0.0
 41
0.9
 51
0.0
  7
KANJI1
  0
TEXT
  8
0
  6
CONTINUOUS
 62
     2
 10
1018.7
 20
380.35
 30
0.0
 40
15.0
  1
２５
 50
0.0
 41
0.9
 51
0.0
  7
KANJI1
  0
TEXT
  8
0
  6
CONTINUOUS
 62
     2
 10
1094.833854631
 20
254.0
 30
0.0
 40
15.0
  1
１２
 50
90.0
 41
0.9
 51
0.0
  7
KANJI1
  0
TEXT
  8
0
  6
CONTINUOUS
 62
     2
 10
1122.733854631
 20
292.7
 30
0.0
 40
15.0
  1
１６
 50
90.0
 41
0.9
 51
0.0
  7
KANJI1
  0
TEXT
  8
0
  6
CONTINUOUS
 62
     2
 10
1141.2
 20
293.7
 30
0.0
 40
15.0
  1
４０
 50
90.0
 41
0.9
 51
0.0
  7
KANJI1
  0
TEXT
  8
0
  6
CONTINUOUS
 62
     2
 10
1094.333854631
 20
333.0
 30
0.0
 40
15.0
  1
１２
 50
90.0
 41
0.9
 51
0.0
  7
KANJI1
  0
TEXT
  8
0
  6
CONTINUOUS
 62
     2
 10
1241.0
 20
441.4
 30
0.0
 40
15.0
  1
１２０
 50
0.0
 41
0.9
 51
0.0
  7
KANJI1
  0
TEXT
  8
2
  6
CONTINUOUS
 62
     2
 10
1368.5
 20
575.8
 30
0.0
 40
15.0
  1
１２５
 50
90.0
 41
0.9
 51
0.0
  7
KANJI1
  0
TEXT
  8
0
  6
CONTINUOUS
 62
     2
 10
1219.5
 20
420.0
 30
0.0
 40
15.0
  1
トラニオン幅
 50
0.0
 41
0.9
 51
0.0
  7
KANJI1
  0
LINE
  8
0
  6
CONTINUOUS
 62
     2
 10
1100.8
 20
515.5
 30
0.0
 11
1103.388190451
 21
525.159258263
 31
0.0
  0
LINE
  8
0
  6
CONTINUOUS
 62
     2
 10
1100.8
 20
515.5
 30
0.0
 11
1098.211809549
 21
525.159258263
 31
0.0
  0
LINE
  8
0
  6
CONTINUOUS
 62
     2
 10
1100.8
 20
515.5
 30
0.0
 11
1100.8
 21
555.5
 31
0.0
  0
LINE
  8
0
  6
CONTINUOUS
 62
     2
 10
1100.8
 20
555.5
 30
0.0
 11
1098.211809549
 21
545.840741737
 31
0.0
  0
LINE
  8
0
  6
CONTINUOUS
 62
     2
 10
1100.8
 20
555.5
 30
0.0
 11
1103.388190451
 21
545.840741737
 31
0.0
  0
LINE
  8
0
  6
CONTINUOUS
 62
     2
 10
1068.0
 20
555.5
 30
0.0
 11
1104.9
 21
555.5
 31
0.0
  0
LINE
  8
0
  6
CONTINUOUS
 62
     2
 10
1068.0
 20
515.5
 30
0.0
 11
1105.3
 21
515.5
 31
0.0
  0
TEXT
  8
0
  6
CONTINUOUS
 62
     2
 10
1096.8
 20
524.1
 30
0.0
 40
15.0
  1
４０
 50
90.0
 41
0.9
 51
0.0
  7
KANJI1
  0
LINE
  8
0
  6
CONTINUOUS
 62
     2
 10
722.748088834
 20
454.187641749
 30
0.0
 11
773.0
 21
454.187641749
 31
0.0
  0
LINE
  8
7
  6
CONTINUOUS
 62
     2
 10
983.6
 20
501.5
 30
0.0
 11
983.6
 21
603.5
 31
0.0
  0
LINE
  8
7
  6
CONTINUOUS
 62
     2
 10
983.6
 20
554.5
 30
0.0
 11
986.188190451
 21
564.159258263
 31
0.0
  0
LINE
  8
7
  6
CONTINUOUS
 62
     2
 10
983.6
 20
554.5
 30
0.0
 11
981.011809549
 21
564.159258263
 31
0.0
  0
TEXT
  8
7
  6
CONTINUOUS
 62
     2
 10
979.6
 20
569.5
 30
0.0
 40
15.0
  1
φ３８
 50
90.0
 41
0.9
 51
0.0
  7
KANJI1
  0
LINE
  8
7
  6
CONTINUOUS
 62
     2
 10
983.6
 20
516.5
 30
0.0
 11
981.011809549
 21
506.840741737
 31
0.0
  0
LINE
  8
7
  6
CONTINUOUS
 62
     2
 10
983.6
 20
516.5
 30
0.0
 11
986.188190451
 21
506.840741737
 31
0.0
  0
TEXT
  8
0
  6
CONTINUOUS
 62
     2
 10
1058.0
 20
368.6
 30
0.0
 40
15.0
  1
φ１６
 50
0.0
 41
0.9
 51
0.0
  7
KANJI1
  0
LINE
  8
0
  6
CONTINUOUS
 62
     6
 10
67.25
 20
47.0
 30
0.0
 11
67.25
 21
1392.0
 31
0.0
  0
TEXT
  8
0
  6
CONTINUOUS
 62
     4
 10
82.249996846
 20
71.999994744
 30
0.99999979
 40
9.999997897
  1
ＰＡＲＴＳ　ＬＩＳＴ
 50
0.0
 41
0.6
 51
0.0
  7
KANJI2
  0
TEXT
  8
0
  6
CONTINUOUS
 62
     4
 10
82.249996846
 20
56.999997897
 30
1.199999748
 40
11.999997477
  1
部品表
 50
0.0
 41
0.9
 51
0.0
  7
KANJI3
  0
LINE
  8
0
  6
CONTINUOUS
 62
     6
 10
2002.25
 20
47.0
 30
0.0
 11
67.25
 21
47.0
 31
0.0
  0
LINE
  8
0
  6
CONTINUOUS
 62
     6
 10
72.249998949
 20
121.999984231
 30
0.0
 11
397.249930615
 21
121.999984231
 31
0.0
  0
LINE
  8
0
  6
CONTINUOUS
 62
     6
 10
72.249998949
 20
51.999998949
 30
0.0
 11
397.249930615
 21
51.999998949
 31
0.0
  0
LINE
  8
0
  6
CONTINUOUS
 62
     6
 10
72.249998949
 20
51.999998949
 30
0.0
 11
72.249998949
 21
121.999984231
 31
0.0
  0
LINE
  8
0
  6
CONTINUOUS
 62
     6
 10
72.249998949
 20
86.99999159
 30
0.0
 11
397.249930615
 21
86.99999159
 31
0.0
  0
TEXT
  8
0
  6
CONTINUOUS
 62
     2
 10
82.249996846
 20
96.999989487
 30
1.499999685
 40
14.999996846
  1
ＰＬ
 50
0.0
 41
0.9
 51
0.0
  7
KANJI4
  0
LINE
  8
0
  6
CONTINUOUS
 62
     4
 10
10.333333
 20
51.333333
 30
0.0
 11
62.333329
 21
51.333333
 31
0.0
  0
LINE
  8
0
  6
CONTINUOUS
 62
     4
 10
10.333333
 20
77.333331
 30
0.0
 11
62.333329
 21
77.333331
 31
0.0
  0
LINE
  8
0
  6
CONTINUOUS
 62
     4
 10
10.333333
 20
103.333329
 30
0.0
 11
62.333329
 21
103.333329
 31
0.0
  0
LINE
  8
0
  6
CONTINUOUS
 62
     4
 10
10.333333
 20
129.333327
 30
0.0
 11
62.333329
 21
129.333327
 31
0.0
  0
LINE
  8
0
  6
CONTINUOUS
 62
     4
 10
10.333333
 20
155.333325
 30
0.0
 11
62.333329
 21
155.333325
 31
0.0
  0
LINE
  8
0
  6
CONTINUOUS
 62
     4
 10
10.333333
 20
181.333323
 30
0.0
 11
62.333329
 21
181.333323
 31
0.0
  0
LINE
  8
0
  6
CONTINUOUS
 62
     4
 10
10.333333
 20
207.333321
 30
0.0
 11
62.333329
 21
207.333321
 31
0.0
  0
LINE
  8
0
  6
CONTINUOUS
 62
     4
 10
10.333333
 20
233.333319
 30
0.0
 11
62.333329
 21
233.333319
 31
0.0
  0
LINE
  8
0
  6
CONTINUOUS
 62
     4
 10
10.333333
 20
259.333317
 30
0.0
 11
62.333329
 21
259.333317
 31
0.0
  0
LINE
  8
0
  6
CONTINUOUS
 62
     4
 10
10.333333
 20
285.333315
 30
0.0
 11
62.333329
 21
285.333315
 31
0.0
  0
LINE
  8
0
  6
CONTINUOUS
 62
     4
 10
62.333329
 20
51.333333
 30
0.0
 11
62.333329
 21
285.333315
 31
0.0
  0
LINE
  8
0
  6
CONTINUOUS
 62
     4
 10
36.333331
 20
51.333333
 30
0.0
 11
36.333331
 21
259.333317
 31
0.0
  0
TEXT
  8
0
  6
CONTINUOUS
 62
     4
 10
19.21666565
 20
58.91666575
 30
1.2999999
 40
12.999999
  1
計
 50
0.0
 41
0.75
 51
0.0
  7
KANJI5
  0
TEXT
  8
0
  6
CONTINUOUS
 62
     4
 10
19.21666565
 20
111.34999505
 30
1.2999999
 40
12.999999
  1
設
 50
0.0
 41
0.75
 51
0.0
  7
KANJI5
  0
TEXT
  8
0
  6
CONTINUOUS
 62
     4
 10
19.21666565
 20
136.91665975
 30
1.2999999
 40
12.999999
  1
管
 50
0.0
 41
0.75
 51
0.0
  7
KANJI5
  0
TEXT
  8
0
  6
CONTINUOUS
 62
     4
 10
19.21666565
 20
162.91665775
 30
1.2999999
 40
12.999999
  1
製
 50
0.0
 41
0.75
 51
0.0
  7
KANJI5
  0
TEXT
  8
0
  6
CONTINUOUS
 62
     4
 10
19.21666565
 20
188.91665575
 30
1.2999999
 40
12.999999
  1
資
 50
0.0
 41
0.75
 51
0.0
  7
KANJI5
  0
TEXT
  8
0
  6
CONTINUOUS
 62
     4
 10
19.21666565
 20
214.91665375
 30
1.2999999
 40
12.999999
  1
営
 50
0.0
 41
0.75
 51
0.0
  7
KANJI5
  0
TEXT
  8
0
  6
CONTINUOUS
 62
     4
 10
19.21666565
 20
240.91665175
 30
1.2999999
 40
12.999999
  1
客
 50
0.0
 41
0.75
 51
0.0
  7
KANJI5
  0
TEXT
  8
0
  6
CONTINUOUS
 62
     4
 10
18.999999
 20
267.999983
 30
1.2999999
 40
12.999999
  1
出　図
 50
0.0
 41
0.75
 51
0.0
  7
KANJI5
  0
LINE
  8
0
  6
CONTINUOUS
 62
     4
 10
10.333333
 20
51.333333
 30
0.0
 11
10.333333
 21
285.333315
 31
0.0
  0
TEXT
  8
0
  6
CONTINUOUS
 62
     4
 10
307.249949538
 20
71.999994744
 30
0.99999979
 40
9.999997897
  1
Ｎ０．
 50
0.0
 41
0.6
 51
0.0
  7
KANJI2
  0
TEXT
  8
0
  6
CONTINUOUS
 62
     4
 10
307.249949538
 20
56.999997897
 30
1.199999748
 40
11.999997477
  1
項番
 50
0.0
 41
0.9
 51
0.0
  7
KANJI3
  0
LINE
  8
0
  6
CONTINUOUS
 62
     6
 10
397.249930615
 20
51.999998949
 30
0.0
 11
397.249930615
 21
121.999984231
 31
0.0
  0
LINE
  8
0
  6
CONTINUOUS
 62
     6
 10
297.249951641
 20
51.999998949
 30
0.0
 11
297.249951641
 21
121.999984231
 31
0.0
  0
LINE
  8
0
  6
CONTINUOUS
 62
     4
 10
1330.583385
 20
85.999997
 30
0.0
 11
1488.7500395
 21
85.999997
 31
0.0
  0
TEXT
  8
0
  6
CONTINUOUS
 62
     4
 10
1339.250051
 20
70.8333315
 30
0.8666666
 40
8.666666
  1
ＳＣＡＬＥ
 50
0.0
 41
0.6
 51
0.0
  7
KANJI6
  0
TEXT
  8
0
  6
CONTINUOUS
 62
     4
 10
1339.250051
 20
105.4999955
 30
0.8666666
 40
8.666666
  1
ＤＡＴＥ
 50
0.0
 41
0.6
 51
0.0
  7
KANJI6
  0
TEXT
  8
0
  6
CONTINUOUS
 62
     4
 10
1339.250051
 20
57.8333325
 30
1.03999992
 40
10.3999992
  1
尺度
 50
0.0
 41
0.6
 51
0.0
  7
KANJI7
  0
TEXT
  8
0
  6
CONTINUOUS
 62
     4
 10
1339.250051
 20
92.4999965
 30
1.03999992
 40
10.3999992
  1
日付
 50
0.0
 41
0.6
 51
0.0
  7
KANJI7
  0
TEXT
  8
0
  6
CONTINUOUS
 62
     4
 10
1098.7500695
 20
70.8333315
 30
0.8666666
 40
8.666666
  1
ＢＹ
 50
0.0
 41
0.6
 51
0.0
  7
KANJI6
  0
TEXT
  8
0
  6
CONTINUOUS
 62
     4
 10
1194.0833955
 20
70.8333315
 30
0.8666666
 40
8.666666
  1
ＤＥＳＣＲＩＰＴＩＯＮ
 50
0.0
 41
0.6
 51
0.0
  7
KANJI6
  0
TEXT
  8
0
  6
CONTINUOUS
 62
     4
 10
1098.7500695
 20
57.8333325
 30
1.03999992
 40
10.3999992
  1
担当
 50
0.0
 41
0.6
 51
0.0
  7
KANJI7
  0
TEXT
  8
0
  6
CONTINUOUS
 62
     4
 10
1207.0833945
 20
57.8333325
 30
1.03999992
 40
10.3999992
  1
記　　　　事
 50
0.0
 41
0.6
 51
0.0
  7
KANJI7
  0
LINE
  8
0
  6
CONTINUOUS
 62
     4
 10
1006.66674325
 20
79.4999975
 30
0.0
 11
992.583411
 21
57.8333325
 31
0.0
  0
TEXT
  8
0
  6
CONTINUOUS
 62
     4
 10
1042.4167405
 20
70.8333315
 30
0.8666666
 40
8.666666
  1
ＤＡＴＥ
 50
0.0
 41
0.6
 51
0.0
  7
KANJI6
  0
TEXT
  8
0
  6
CONTINUOUS
 62
     4
 10
1048.91674
 20
57.8333325
 30
1.03999992
 40
10.3999992
  1
日付
 50
0.0
 41
0.6
 51
0.0
  7
KANJI7
  0
LINE
  8
0
  6
CONTINUOUS
 62
     4
 10
992.583411
 20
57.8333325
 30
0.0
 11
1020.7500755
 21
57.8333325
 31
0.0
  0
LINE
  8
0
  6
CONTINUOUS
 62
     4
 10
1006.66674325
 20
79.4999975
 30
0.0
 11
1020.7500755
 21
57.8333325
 31
0.0
  0
LINE
  8
0
  6
CONTINUOUS
 62
     4
 10
1488.7500395
 20
105.4999955
 30
0.0
 11
1997.916667
 21
105.4999955
 31
0.0
  0
LINE
  8
0
  6
LTYPE1
 62
     4
 10
1852.7500115
 20
111.999995
 30
0.0
 11
1852.7500115
 21
146.666659
 31
0.0
  0
LINE
  8
0
  6
LTYPE1
 62
     4
 10
1822.4166805
 20
111.999995
 30
0.0
 11
1822.4166805
 21
146.666659
 31
0.0
  0
LINE
  8
0
  6
LTYPE1
 62
     4
 10
1792.0833495
 20
111.999995
 30
0.0
 11
1792.0833495
 21
146.666659
 31
0.0
  0
LINE
  8
0
  6
LTYPE1
 62
     4
 10
1761.7500185
 20
111.999995
 30
0.0
 11
1761.7500185
 21
146.666659
 31
0.0
  0
LINE
  8
0
  6
LTYPE1
 62
     4
 10
1731.4166875
 20
111.999995
 30
0.0
 11
1731.4166875
 21
146.666659
 31
0.0
  0
LINE
  8
0
  6
LTYPE1
 62
     4
 10
1701.0833565
 20
111.999995
 30
0.0
 11
1701.0833565
 21
146.666659
 31
0.0
  0
LINE
  8
0
  6
LTYPE1
 62
     4
 10
1670.7500255
 20
111.999995
 30
0.0
 11
1670.7500255
 21
146.666659
 31
0.0
  0
LINE
  8
0
  6
LTYPE1
 62
     4
 10
1640.4166945
 20
111.999995
 30
0.0
 11
1640.4166945
 21
146.666659
 31
0.0
  0
LINE
  8
0
  6
LTYPE1
 62
     4
 10
1640.4166945
 20
111.999995
 30
0.0
 11
1852.7500115
 21
111.999995
 31
0.0
  0
LINE
  8
0
  6
CONTINUOUS
 62
     6
 10
2002.25
 20
1392.0
 30
0.0
 11
2002.25
 21
47.0
 31
0.0
  0
LINE
  8
0
  6
CONTINUOUS
 62
     6
 10
988.250078
 20
85.999997
 30
0.0
 11
1330.583385
 21
85.999997
 31
0.0
  0
LINE
  8
0
  6
CONTINUOUS
 62
     6
 10
988.250078
 20
51.333333
 30
0.0
 11
1997.916667
 21
51.333333
 31
0.0
  0
TEXT
  8
0
  6
CONTINUOUS
 62
     6
 10
1493.0833725
 20
70.8333315
 30
0.0
 40
15.1666655
  1
ＵＮＩＴＥＣ　ＩＮＤＵＳＴＲＹ　ＣＯ．，ＬＴＤ．
 50
0.0
 41
0.42031746
 51
0.0
  7
KANJI8
  0
TEXT
  8
0
  6
CONTINUOUS
 62
     6
 10
1705.795856138
 20
65.1999986
 30
2.5999998
 40
25.999998
  1
ユニテック工業株式会社
 50
0.0
 41
0.9
 51
0.0
  7
KANJI9
  0
LINE
  8
0
  6
CONTINUOUS
 62
     6
 10
988.250078
 20
51.333333
 30
0.0
 11
988.250078
 21
85.999997
 31
0.0
  0
LINE
  8
0
  6
CONTINUOUS
 62
     4
 10
1025.0834085
 20
51.333333
 30
0.0
 11
1025.0834085
 21
85.999997
 31
0.0
  0
LINE
  8
0
  6
CONTINUOUS
 62
     4
 10
1085.7500705
 20
51.333333
 30
0.0
 11
1085.7500705
 21
85.999997
 31
0.0
  0
LINE
  8
0
  6
CONTINUOUS
 62
     4
 10
1124.7500675
 20
51.333333
 30
0.0
 11
1124.7500675
 21
85.999997
 31
0.0
  0
LINE
  8
0
  6
CONTINUOUS
 62
     6
 10
1330.583385
 20
51.333333
 30
0.0
 11
1330.583385
 21
328.666645
 31
0.0
  0
LINE
  8
0
  6
CONTINUOUS
 62
     6
 10
1997.916667
 20
51.333333
 30
0.0
 11
1997.916667
 21
328.666645
 31
0.0
  0
LINE
  8
0
  6
CONTINUOUS
 62
     4
 10
1488.7500395
 20
51.333333
 30
0.0
 11
1488.7500395
 21
328.666645
 31
0.0
  0
LINE
  8
0
  6
CONTINUOUS
 62
     6
 10
1671.129192138
 20
74.2999979
 30
0.0
 11
1659.689193018
 21
74.2999979
 31
0.0
  0
LINE
  8
0
  6
CONTINUOUS
 62
     6
 10
1671.129192138
 20
76.37999774
 30
0.0
 11
1659.689193018
 21
76.37999774
 31
0.0
  0
LINE
  8
0
  6
CONTINUOUS
 62
     6
 10
1671.129192138
 20
74.2999979
 30
0.0
 11
1682.569191258
 21
74.2999979
 31
0.0
  0
LINE
  8
0
  6
CONTINUOUS
 62
     6
 10
1671.129192138
 20
76.37999774
 30
0.0
 11
1682.569191258
 21
76.37999774
 31
0.0
  0
LINE
  8
0
  6
CONTINUOUS
 62
     6
 10
1682.569191258
 20
76.37999774
 30
0.0
 11
1682.569191258
 21
74.2999979
 31
0.0
  0
ARC
  8
0
  6
CONTINUOUS
 62
     6
 10
1685.169191058
 20
75.33999782
 30
0.0
 40
10.3999992
 50
185.739170477
 51
90.0
  0
ARC
  8
0
  6
CONTINUOUS
 62
     6
 10
1685.169191058
 20
75.33999782
 30
0.0
 40
12.47999904
 50
184.780191847
 51
90.0
  0
LINE
  8
0
  6
CONTINUOUS
 62
     6
 10
1659.689193018
 20
74.2999979
 30
0.0
 11
1659.689193018
 21
76.37999774
 31
0.0
  0
LINE
  8
0
  6
CONTINUOUS
 62
     6
 10
1669.569192258
 20
87.81999686
 30
0.0
 11
1657.089193218
 21
87.81999686
 31
0.0
  0
LINE
  8
0
  6
CONTINUOUS
 62
     6
 10
1672.689192018
 20
87.81999686
 30
0.0
 11
1685.169191058
 21
87.81999686
 31
0.0
  0
ARC
  8
0
  6
CONTINUOUS
 62
     6
 10
1657.089193218
 20
75.33999782
 30
0.0
 40
10.3999992
 50
90.0
 51
354.260829523
  0
ARC
  8
0
  6
CONTINUOUS
 62
     6
 10
1657.089193218
 20
75.33999782
 30
0.0
 40
12.47999904
 50
90.0
 51
355.219808153
  0
LINE
  8
0
  6
CONTINUOUS
 62
     6
 10
1669.569192258
 20
87.81999686
 30
0.0
 11
1669.569192258
 21
85.73999702
 31
0.0
  0
LINE
  8
0
  6
CONTINUOUS
 62
     6
 10
1657.089193218
 20
85.73999702
 30
0.0
 11
1669.569192258
 21
85.73999702
 31
0.0
  0
LINE
  8
0
  6
CONTINUOUS
 62
     6
 10
1672.689192018
 20
87.81999686
 30
0.0
 11
1672.689192018
 21
85.73999702
 31
0.0
  0
LINE
  8
0
  6
CONTINUOUS
 62
     6
 10
1685.169191058
 20
85.73999702
 30
0.0
 11
1672.689192018
 21
85.73999702
 31
0.0
  0
TEXT
  8
0
  6
CONTINUOUS
 62
     4
 10
1339.250051
 20
140.1666595
 30
0.8666666
 40
8.666666
  1
ＤＲＡＷＮ
 50
0.0
 41
0.6
 51
0.0
  7
KANJI6
  0
TEXT
  8
0
  6
CONTINUOUS
 62
     4
 10
1339.250051
 20
174.8333235
 30
0.8666666
 40
8.666666
  1
ＤＥＳＩＧＮ
 50
0.0
 41
0.6
 51
0.0
  7
KANJI6
  0
TEXT
  8
0
  6
CONTINUOUS
 62
     4
 10
1339.250051
 20
209.4999875
 30
0.8666666
 40
8.666666
  1
ＣＨＥＣＫ
 50
0.0
 41
0.6
 51
0.0
  7
KANJI6
  0
LINE
  8
0
  6
CONTINUOUS
 62
     4
 10
1330.583385
 20
189.999989
 30
0.0
 11
1488.7500395
 21
189.999989
 31
0.0
  0
LINE
  8
0
  6
CONTINUOUS
 62
     4
 10
1330.583385
 20
155.333325
 30
0.0
 11
1488.7500395
 21
155.333325
 31
0.0
  0
LINE
  8
0
  6
CONTINUOUS
 62
     4
 10
1330.583385
 20
224.666653
 30
0.0
 11
1488.7500395
 21
224.666653
 31
0.0
  0
TEXT
  8
0
  6
CONTINUOUS
 62
     4
 10
1339.250051
 20
161.8333245
 30
1.03999992
 40
10.3999992
  1
設計
 50
0.0
 41
0.6
 51
0.0
  7
KANJI7
  0
TEXT
  8
0
  6
CONTINUOUS
 62
     4
 10
1339.250051
 20
196.4999885
 30
1.03999992
 40
10.3999992
  1
検図
 50
0.0
 41
0.6
 51
0.0
  7
KANJI7
  0
TEXT
  8
0
  6
CONTINUOUS
 62
     4
 10
1339.250051
 20
231.1666525
 30
1.03999992
 40
10.3999992
  1
分類
 50
0.0
 41
0.6
 51
0.0
  7
KANJI7
  0
LINE
  8
0
  6
CONTINUOUS
 62
     4
 10
1501.53337185
 20
224.666653
 30
0.0
 11
1997.916667
 21
224.666653
 31
0.0
  0
LINE
  8
0
  6
CONTINUOUS
 62
     4
 10
1488.7500395
 20
155.333325
 30
0.0
 11
1997.916667
 21
155.333325
 31
0.0
  0
TEXT
  8
0
  6
CONTINUOUS
 62
     4
 10
1497.4167055
 20
140.1666595
 30
0.8666666
 40
8.666666
  1
ＤＲＡＷＩＮＧ　ＮＯ．
 50
0.0
 41
0.8
 51
0.0
  7
KANJI10
  0
TEXT
  8
0
  6
CONTINUOUS
 62
     4
 10
1497.4167055
 20
174.8333235
 30
0.8666666
 40
8.666666
  1
ＭＦＧ　ＮＯ．
 50
0.0
 41
0.8
 51
0.0
  7
KANJI10
  0
TEXT
  8
0
  6
CONTINUOUS
 62
     4
 10
1497.4167055
 20
209.4999875
 30
0.8666666
 40
8.666666
  1
ＴＹＰＥ
 50
0.0
 41
0.8
 51
0.0
  7
KANJI10
  0
LINE
  8
0
  6
CONTINUOUS
 62
     4
 10
1501.7500385
 20
189.999989
 30
0.0
 11
1701.0833565
 21
189.999989
 31
0.0
  0
TEXT
  8
0
  6
CONTINUOUS
 62
     4
 10
1497.4167055
 20
124.999994
 30
1.03999992
 40
10.3999992
  1
図　面　番　号
 50
0.0
 41
0.8
 51
0.0
  7
KANJI11
  0
TEXT
  8
0
  6
CONTINUOUS
 62
     4
 10
1497.4167055
 20
159.666658
 30
1.03999992
 40
10.3999992
  1
製番
 50
0.0
 41
0.8
 51
0.0
  7
KANJI11
  0
TEXT
  8
0
  6
CONTINUOUS
 62
     4
 10
1497.4167055
 20
194.333322
 30
1.03999992
 40
10.3999992
  1
機種
 50
0.0
 41
0.8
 51
0.0
  7
KANJI11
  0
LINE
  8
0
  6
CONTINUOUS
 62
     4
 10
1330.583385
 20
120.666661
 30
0.0
 11
1488.7500395
 21
120.666661
 31
0.0
  0
TEXT
  8
0
  6
CONTINUOUS
 62
     4
 10
1339.250051
 20
127.1666605
 30
1.03999992
 40
10.3999992
  1
作図
 50
0.0
 41
0.6
 51
0.0
  7
KANJI7
  0
LINE
  8
0
  6
LTYPE1
 62
     4
 10
1640.4166945
 20
146.666659
 30
0.0
 11
1852.7500115
 21
146.666659
 31
0.0
  0
LINE
  8
0
  6
CONTINUOUS
 62
     4
 10
1870.0833435
 20
130.41666025
 30
0.0
 11
1878.7500095
 21
130.41666025
 31
0.0
  0
LINE
  8
0
  6
CONTINUOUS
 62
     4
 10
1924.250006
 20
117.41666125
 30
0.0
 11
1893.916675
 21
117.41666125
 31
0.0
  0
LINE
  8
0
  6
CONTINUOUS
 62
     4
 10
1893.916675
 20
117.41666125
 30
0.0
 11
1909.0833405
 21
143.41665925
 31
0.0
  0
LINE
  8
0
  6
CONTINUOUS
 62
     4
 10
1909.0833405
 20
143.41665925
 30
0.0
 11
1924.250006
 21
117.41666125
 31
0.0
  0
TEXT
  8
0
  6
CONTINUOUS
 62
     4
 10
1714.0833555
 20
209.4999875
 30
0.8666666
 40
8.666666
  1
ＴＩＴＬＥ
 50
0.0
 41
0.8
 51
0.0
  7
KANJI10
  0
TEXT
  8
0
  6
CONTINUOUS
 62
     4
 10
1714.0833555
 20
194.333322
 30
1.03999992
 40
10.3999992
  1
名称
 50
0.0
 41
0.8
 51
0.0
  7
KANJI11
  0
TEXT
  8
0
  6
CONTINUOUS
 62
     2
 10
1784.75
 20
162.0
 30
12.5
 40
25.0
  1
外形寸法図
 50
0.0
 41
1.0
 51
0.0
  7
KANJI12
  0
TEXT
  8
0
  6
CONTINUOUS
 62
     2
 10
1754.75
 20
192.0
 30
3.571428571
 40
25.0
  1
マイティシリンダ
 50
0.0
 41
1.0
 51
0.0
  7
KANJI13
  0
TEXT
  8
0
  6
CONTINUOUS
 62
     2
 10
1614.1666945
 20
116.999995
 30
1.5
 40
25.0
  1
Ａ
 50
0.0
 41
0.8
 51
0.0
  7
KANJI14
  0
CIRCLE
  8
0
  6
CONTINUOUS
 62
     2
 10
1581.6666945
 20
170.749995
 30
0.0
 40
12.5
  0
TEXT
  8
0
  6
CONTINUOUS
 62
     2
 10
1572.2916945
 20
161.374995
 30
1.5
 40
20.0
  1
Ｓ
 50
0.0
 41
1.0
 51
0.0
  7
KANJI15
  0
TEXT
  8
0
  6
CONTINUOUS
 62
     2
 10
1386.4166945
 20
129.499995
 30
5.0
 40
17.5
  1
岡田
 50
0.0
 41
0.857142857
 51
0.0
  7
KANJI16
  0
TEXT
  8
0
  6
CONTINUOUS
 62
     2
 10
1422.25
 20
57.0
 30
1.5
 40
22.5
  1
１／５
 50
0.0
 41
0.666666667
 51
0.0
  7
KANJI17
  0
TEXT
  8
0
  6
CONTINUOUS
 62
     4
 10
1339.250051
 20
244.1666515
 30
0.8666666
 40
8.666666
  1
ＣＯＤＥ
 50
0.0
 41
0.6
 51
0.0
  7
KANJI6
  0
LINE
  8
0
  6
CONTINUOUS
 62
     4
 10
1330.583385
 20
259.333317
 30
0.0
 11
1997.916667
 21
259.333317
 31
0.0
  0
LINE
  8
0
  6
CONTINUOUS
 62
     4
 10
1997.916667
 20
293.999981
 30
0.0
 11
1997.916667
 21
328.666645
 31
0.0
  0
LINE
  8
0
  6
CONTINUOUS
 62
     6
 10
1331.208385
 20
293.999981
 30
0.0
 11
1998.541667
 21
293.999981
 31
0.0
  0
LINE
  8
0
  6
CONTINUOUS
 62
     6
 10
1330.583385
 20
328.666645
 30
0.0
 11
1997.916667
 21
328.666645
 31
0.0
  0
TEXT
  8
0
  6
CONTINUOUS
 62
     4
 10
1346.0
 20
299.166664
 30
5.0
 40
18.0
  1
ご用途
 50
0.0
 41
1.111111111
 51
0.0
  7
KANJI18
  0
TEXT
  8
0
  6
CONTINUOUS
 62
     4
 10
1346.0
 20
264.5
 30
5.0
 40
18.0
  1
ご注文主
 50
0.0
 41
1.111111111
 51
0.0
  7
KANJI18
  0
LINE
  8
0
  6
CONTINUOUS
 62
     6
 10
67.25
 20
1392.0
 30
0.0
 11
2002.25
 21
1392.0
 31
0.0
  0
LINE
  8
0
  6
CONTINUOUS
 62
     1
 10
848.25
 20
1229.95
 30
0.0
 11
1496.25
 21
1229.95
 31
0.0
  0
LINE
  8
0
  6
CONTINUOUS
 62
     1
 10
848.25
 20
1201.95
 30
0.0
 11
1496.25
 21
1201.95
 31
0.0
  0
LINE
  8
0
  6
CONTINUOUS
 62
     2
 10
848.25
 20
1173.95
 30
0.0
 11
1496.25
 21
1173.95
 31
0.0
  0
LINE
  8
0
  6
CONTINUOUS
 62
     2
 10
848.25
 20
1145.95
 30
0.0
 11
1496.25
 21
1145.95
 31
0.0
  0
LINE
  8
0
  6
CONTINUOUS
 62
     2
 10
848.25
 20
1117.95
 30
0.0
 11
1496.25
 21
1117.95
 31
0.0
  0
TEXT
  8
0
  6
CONTINUOUS
 62
     2
 10
888.25
 20
1209.95
 30
1.28
 40
12.8
  1
形
 50
0.0
 41
0.9
 51
0.0
  7
KANJI19
  0
TEXT
  8
0
  6
CONTINUOUS
 62
     2
 10
966.25
 20
1209.95
 30
1.28
 40
12.8
  1
式
 50
0.0
 41
0.9
 51
0.0
  7
KANJI19
  0
TEXT
  8
0
  6
CONTINUOUS
 62
     2
 10
1026.65
 20
1209.15
 30
1.2
 40
12.0
  1
ストローク
 50
0.0
 41
0.9
 51
0.0
  7
KANJI20
  0
TEXT
  8
0
  6
CONTINUOUS
 62
     2
 10
1103.45
 20
1208.35
 30
0.0
 40
12.0
  1
ｍｉｎ　
 50
0.0
 41
0.9
 51
0.0
  7
KANJI21
  0
TEXT
  8
0
  6
CONTINUOUS
 62
     2
 10
1183.45
 20
1208.35
 30
0.0
 40
12.0
  1
ｍｉｎ　
 50
0.0
 41
0.9
 51
0.0
  7
KANJI21
  0
TEXT
  8
0
  6
CONTINUOUS
 62
     2
 10
1343.45
 20
1208.35
 30
0.0
 40
12.0
  1
ｍｉｎ　
 50
0.0
 41
0.9
 51
0.0
  7
KANJI21
  0
TEXT
  8
0
  6
CONTINUOUS
 62
     2
 10
1144.25
 20
1209.15
 30
1.4
 40
14.0
  1
ＡＬ
 50
0.0
 41
0.9
 51
0.0
  7
KANJI22
  0
TEXT
  8
0
  6
CONTINUOUS
 62
     2
 10
1224.25
 20
1209.15
 30
1.4
 40
14.0
  1
Ｌ
 50
0.0
 41
0.9
 51
0.0
  7
KANJI22
  0
TEXT
  8
0
  6
CONTINUOUS
 62
     2
 10
1292.25
 20
1209.15
 30
1.4
 40
14.0
  1
Ｃ
 50
0.0
 41
0.9
 51
0.0
  7
KANJI22
  0
TEXT
  8
0
  6
CONTINUOUS
 62
     2
 10
1384.25
 20
1209.15
 30
1.4
 40
14.0
  1
Ｐ
 50
0.0
 41
0.9
 51
0.0
  7
KANJI22
  0
TEXT
  8
0
  6
CONTINUOUS
 62
     2
 10
1466.55
 20
1208.85
 30
0.0
 40
10.8
  1
（ｋｇ）
 50
0.0
 41
0.740740741
 51
0.0
  7
KANJI23
  0
TEXT
  8
0
  6
CONTINUOUS
 62
     2
 10
1418.55
 20
1208.65
 30
1.2
 40
14.0
  1
概算重量
 50
0.0
 41
0.857142857
 51
0.0
  7
KANJI24
  0
TEXT
  8
0
  6
CONTINUOUS
 62
     2
 10
1034.25
 20
1180.65
 30
1.2
 40
12.0
  1
　１００
 50
0.0
 41
0.9
 51
0.0
  7
KANJI20
  0
TEXT
  8
0
  6
CONTINUOUS
 62
     2
 10
1034.25
 20
1152.65
 30
1.2
 40
12.0
  1
　２００
 50
0.0
 41
0.9
 51
0.0
  7
KANJI20
  0
TEXT
  8
0
  6
CONTINUOUS
 62
     2
 10
1034.25
 20
1124.65
 30
1.2
 40
12.0
  1
　３００
 50
0.0
 41
0.9
 51
0.0
  7
KANJI20
  0
TEXT
  8
0
  6
CONTINUOUS
 62
     2
 10
1354.25
 20
1124.65
 30
1.2
 40
12.0
  1
　　３５
 50
0.0
 41
0.9
 51
0.0
  7
KANJI20
  0
TEXT
  8
0
  6
CONTINUOUS
 62
     2
 10
1354.25
 20
1152.65
 30
1.2
 40
12.0
  1
　　３５
 50
0.0
 41
0.9
 51
0.0
  7
KANJI20
  0
TEXT
  8
0
  6
CONTINUOUS
 62
     2
 10
1354.25
 20
1180.65
 30
1.2
 40
12.0
  1
　　３５
 50
0.0
 41
0.9
 51
0.0
  7
KANJI20
  0
TEXT
  8
0
  6
CONTINUOUS
 62
     2
 10
1034.25
 20
1012.65
 30
1.2
 40
12.0
  1
　７００
 50
0.0
 41
0.9
 51
0.0
  7
KANJI20
  0
LINE
  8
0
  6
CONTINUOUS
 62
     2
 10
848.25
 20
1061.95
 30
0.0
 11
1496.25
 21
1061.95
 31
0.0
  0
LINE
  8
0
  6
CONTINUOUS
 62
     2
 10
848.25
 20
1089.95
 30
0.0
 11
1496.25
 21
1089.95
 31
0.0
  0
LINE
  8
0
  6
CONTINUOUS
 62
     2
 10
848.25
 20
1005.95
 30
0.0
 11
1496.25
 21
1005.95
 31
0.0
  0
LINE
  8
0
  6
CONTINUOUS
 62
     2
 10
848.25
 20
1033.95
 30
0.0
 11
1496.25
 21
1033.95
 31
0.0
  0
TEXT
  8
0
  6
CONTINUOUS
 62
     2
 10
1034.25
 20
1068.65
 30
1.2
 40
12.0
  1
　５００
 50
0.0
 41
0.9
 51
0.0
  7
KANJI20
  0
TEXT
  8
0
  6
CONTINUOUS
 62
     2
 10
1034.25
 20
1096.65
 30
1.2
 40
12.0
  1
　４００
 50
0.0
 41
0.9
 51
0.0
  7
KANJI20
  0
TEXT
  8
0
  6
CONTINUOUS
 62
     2
 10
1034.25
 20
1040.65
 30
1.2
 40
12.0
  1
　６００
 50
0.0
 41
0.9
 51
0.0
  7
KANJI20
  0
TEXT
  8
0
  6
CONTINUOUS
 62
     2
 10
1354.25
 20
1096.65
 30
1.2
 40
12.0
  1
　　３５
 50
0.0
 41
0.9
 51
0.0
  7
KANJI20
  0
TEXT
  8
0
  6
CONTINUOUS
 62
     2
 10
1354.25
 20
1068.65
 30
1.2
 40
12.0
  1
　　３５
 50
0.0
 41
0.9
 51
0.0
  7
KANJI20
  0
TEXT
  8
0
  6
CONTINUOUS
 62
     2
 10
1354.25
 20
1040.65
 30
1.2
 40
12.0
  1
　　３５
 50
0.0
 41
0.9
 51
0.0
  7
KANJI20
  0
TEXT
  8
0
  6
CONTINUOUS
 62
     2
 10
1354.25
 20
1012.65
 30
1.2
 40
12.0
  1
　　３５
 50
0.0
 41
0.9
 51
0.0
  7
KANJI20
  0
TEXT
  8
0
  6
CONTINUOUS
 62
     2
 10
861.25
 20
1180.35
 30
0.8
 40
12.0
  1
ＭＣＥＤＢＢ０１－　　１
 50
0.0
 41
0.833333333
 51
0.0
  7
KANJI25
  0
TEXT
  8
0
  6
CONTINUOUS
 62
     2
 10
861.25
 20
1152.35
 30
0.8
 40
12.0
  1
ＭＣＥＤＢＢ０１－　　２
 50
0.0
 41
0.833333333
 51
0.0
  7
KANJI25
  0
TEXT
  8
0
  6
CONTINUOUS
 62
     2
 10
861.25
 20
1124.35
 30
0.8
 40
12.0
  1
ＭＣＥＤＢＢ０１－　　３
 50
0.0
 41
0.833333333
 51
0.0
  7
KANJI25
  0
TEXT
  8
0
  6
CONTINUOUS
 62
     2
 10
861.25
 20
1096.35
 30
0.8
 40
12.0
  1
ＭＣＥＤＢＢ０１－　　４
 50
0.0
 41
0.833333333
 51
0.0
  7
KANJI25
  0
TEXT
  8
0
  6
CONTINUOUS
 62
     2
 10
861.25
 20
1068.35
 30
0.8
 40
12.0
  1
ＭＣＥＤＢＢ０１－　　５
 50
0.0
 41
0.833333333
 51
0.0
  7
KANJI25
  0
TEXT
  8
0
  6
CONTINUOUS
 62
     2
 10
861.25
 20
1040.35
 30
0.8
 40
12.0
  1
ＭＣＥＤＢＢ０１－　　６
 50
0.0
 41
0.833333333
 51
0.0
  7
KANJI25
  0
TEXT
  8
0
  6
CONTINUOUS
 62
     2
 10
861.25
 20
1012.35
 30
0.8
 40
12.0
  1
ＭＣＥＤＢＢ０１－　　７
 50
0.0
 41
0.833333333
 51
0.0
  7
KANJI25
  0
TEXT
  8
0
  6
CONTINUOUS
 62
     2
 10
1274.25
 20
1180.65
 30
1.2
 40
12.0
  1
　１９８
 50
0.0
 41
0.9
 51
0.0
  7
KANJI20
  0
TEXT
  8
0
  6
CONTINUOUS
 62
     2
 10
1274.25
 20
1152.65
 30
1.2
 40
12.0
  1
　２９８
 50
0.0
 41
0.9
 51
0.0
  7
KANJI20
  0
TEXT
  8
0
  6
CONTINUOUS
 62
     2
 10
1274.25
 20
1124.65
 30
1.2
 40
12.0
  1
　３９８
 50
0.0
 41
0.9
 51
0.0
  7
KANJI20
  0
TEXT
  8
0
  6
CONTINUOUS
 62
     2
 10
1274.25
 20
1096.65
 30
1.2
 40
12.0
  1
　４９８
 50
0.0
 41
0.9
 51
0.0
  7
KANJI20
  0
TEXT
  8
0
  6
CONTINUOUS
 62
     2
 10
1274.25
 20
1068.65
 30
1.2
 40
12.0
  1
　５９８
 50
0.0
 41
0.9
 51
0.0
  7
KANJI20
  0
TEXT
  8
0
  6
CONTINUOUS
 62
     2
 10
1274.25
 20
1040.65
 30
1.2
 40
12.0
  1
　７３８
 50
0.0
 41
0.9
 51
0.0
  7
KANJI20
  0
TEXT
  8
0
  6
CONTINUOUS
 62
     2
 10
1274.25
 20
1012.65
 30
1.2
 40
12.0
  1
　８３８
 50
0.0
 41
0.9
 51
0.0
  7
KANJI20
  0
TEXT
  8
0
  6
CONTINUOUS
 62
     2
 10
1194.25
 20
1180.65
 30
1.2
 40
12.0
  1
　２６８
 50
0.0
 41
0.9
 51
0.0
  7
KANJI20
  0
TEXT
  8
0
  6
CONTINUOUS
 62
     2
 10
1194.25
 20
1152.65
 30
1.2
 40
12.0
  1
　３６８
 50
0.0
 41
0.9
 51
0.0
  7
KANJI20
  0
TEXT
  8
0
  6
CONTINUOUS
 62
     2
 10
1194.25
 20
1124.65
 30
1.2
 40
12.0
  1
　４６８
 50
0.0
 41
0.9
 51
0.0
  7
KANJI20
  0
TEXT
  8
0
  6
CONTINUOUS
 62
     2
 10
1194.25
 20
1096.65
 30
1.2
 40
12.0
  1
　５６８
 50
0.0
 41
0.9
 51
0.0
  7
KANJI20
  0
TEXT
  8
0
  6
CONTINUOUS
 62
     2
 10
1194.25
 20
1068.65
 30
1.2
 40
12.0
  1
　６６８
 50
0.0
 41
0.9
 51
0.0
  7
KANJI20
  0
TEXT
  8
0
  6
CONTINUOUS
 62
     2
 10
1194.25
 20
1040.65
 30
1.2
 40
12.0
  1
　８０８
 50
0.0
 41
0.9
 51
0.0
  7
KANJI20
  0
TEXT
  8
0
  6
CONTINUOUS
 62
     2
 10
1194.25
 20
1012.65
 30
1.2
 40
12.0
  1
　９０８
 50
0.0
 41
0.9
 51
0.0
  7
KANJI20
  0
TEXT
  8
0
  6
CONTINUOUS
 62
     2
 10
1114.25
 20
1180.65
 30
1.2
 40
12.0
  1
　５８０
 50
0.0
 41
0.9
 51
0.0
  7
KANJI20
  0
TEXT
  8
0
  6
CONTINUOUS
 62
     2
 10
1114.25
 20
1152.65
 30
1.2
 40
12.0
  1
　６８０
 50
0.0
 41
0.9
 51
0.0
  7
KANJI20
  0
TEXT
  8
0
  6
CONTINUOUS
 62
     2
 10
1114.25
 20
1124.65
 30
1.2
 40
12.0
  1
　７８０
 50
0.0
 41
0.9
 51
0.0
  7
KANJI20
  0
TEXT
  8
0
  6
CONTINUOUS
 62
     2
 10
1114.25
 20
1096.65
 30
1.2
 40
12.0
  1
　８８０
 50
0.0
 41
0.9
 51
0.0
  7
KANJI20
  0
TEXT
  8
0
  6
CONTINUOUS
 62
     2
 10
1114.25
 20
1068.65
 30
1.2
 40
12.0
  1
　９８０
 50
0.0
 41
0.9
 51
0.0
  7
KANJI20
  0
TEXT
  8
0
  6
CONTINUOUS
 62
     2
 10
1114.25
 20
1040.65
 30
1.2
 40
12.0
  1
１１２０
 50
0.0
 41
0.9
 51
0.0
  7
KANJI20
  0
TEXT
  8
0
  6
CONTINUOUS
 62
     2
 10
1114.25
 20
1012.65
 30
1.2
 40
12.0
  1
１２２０
 50
0.0
 41
0.9
 51
0.0
  7
KANJI20
  0
TEXT
  8
0
  6
CONTINUOUS
 62
     2
 10
1434.25
 20
1180.65
 30
1.2
 40
12.0
  1
　　１７
 50
0.0
 41
0.9
 51
0.0
  7
KANJI20
  0
TEXT
  8
0
  6
CONTINUOUS
 62
     2
 10
1434.25
 20
1152.65
 30
1.2
 40
12.0
  1
　　１８
 50
0.0
 41
0.9
 51
0.0
  7
KANJI20
  0
TEXT
  8
0
  6
CONTINUOUS
 62
     2
 10
1434.25
 20
1124.65
 30
1.2
 40
12.0
  1
　　１９
 50
0.0
 41
0.9
 51
0.0
  7
KANJI20
  0
TEXT
  8
0
  6
CONTINUOUS
 62
     2
 10
1434.25
 20
1096.65
 30
1.2
 40
12.0
  1
　　２０
 50
0.0
 41
0.9
 51
0.0
  7
KANJI20
  0
TEXT
  8
0
  6
CONTINUOUS
 62
     2
 10
1434.25
 20
1068.65
 30
1.2
 40
12.0
  1
　　２１
 50
0.0
 41
0.9
 51
0.0
  7
KANJI20
  0
TEXT
  8
0
  6
CONTINUOUS
 62
     2
 10
1434.25
 20
1040.65
 30
1.2
 40
12.0
  1
　　２２
 50
0.0
 41
0.9
 51
0.0
  7
KANJI20
  0
TEXT
  8
0
  6
CONTINUOUS
 62
     2
 10
1434.25
 20
1012.65
 30
1.2
 40
12.0
  1
　　２３
 50
0.0
 41
0.9
 51
0.0
  7
KANJI20
  0
TEXT
  8
0
  6
CONTINUOUS
 62
     2
 10
1549.75
 20
197.0
 30
0.0
 40
17.5
  1
ＭＣＥＤＢＢ０１
 50
0.0
 41
0.793650794
 51
0.0
  7
KANJI26
  0
TEXT
  8
0
  6
CONTINUOUS
 62
     2
 10
1645.4166945
 20
116.999995
 30
10.833333333
 40
25.0
  1
３００２３３９
 50
0.0
 41
0.8
 51
0.0
  7
KANJI27
  0
TEXT
  8
0
  6
CONTINUOUS
 62
     2
 10
124.75
 20
14.5
 30
1.5
 40
15.0
  1
ＦＤ　Ｎｏ．ＭＣ１８６
 50
0.0
 41
1.0
 51
0.0
  7
KANJI28
  0
CIRCLE
  8
0
  6
CONTINUOUS
 62
     1
 10
622.0
 20
535.5
 30
0.0
 40
8.0
  0
CIRCLE
  8
0
  6
CONTINUOUS
 62
     1
 10
622.0
 20
535.5
 30
0.0
 40
25.0
  0
CIRCLE
  8
0
  6
CONTINUOUS
 62
     1
 10
622.0
 20
535.5
 30
0.0
 40
33.75
  0
LINE
  8
0
  6
CONTINUOUS
 62
     2
 10
624.375
 20
527.75
 30
0.0
 11
624.336568356
 21
515.25005908
 31
0.0
  0
LINE
  8
0
  6
CONTINUOUS
 62
     2
 10
624.375
 20
527.75
 30
0.0
 11
630.59168768
 21
516.905517795
 31
0.0
  0
LINE
  8
0
  6
CONTINUOUS
 62
     2
 10
624.375
 20
527.75
 30
0.0
 11
624.336568356
 21
515.25005908
 31
0.0
  0
LINE
  8
0
  6
CONTINUOUS
 62
     2
 10
624.375
 20
527.75
 30
0.0
 11
630.59168768
 21
516.905517795
 31
0.0
  0
LINE
  8
0
  6
CONTINUOUS
 62
     2
 10
624.692462312
 20
527.75
 30
0.0
 11
671.893969849
 21
349.4
 31
0.0
  0
LINE
  8
0
  6
CONTINUOUS
 62
     2
 10
671.893969849
 20
349.4
 30
0.0
 11
800.0
 21
349.4
 31
0.0
  0
LINE
  8
0
  6
CONTINUOUS
 62
     1
 10
1272.625
 20
1383.0
 30
0.0
 11
1272.625
 21
1282.9
 31
0.0
  0
LINE
  8
0
  6
CONTINUOUS
 62
     2
 10
1214.875
 20
1383.0
 30
0.0
 11
1214.875
 21
1282.9
 31
0.0
  0
LINE
  8
0
  6
CONTINUOUS
 62
     2
 10
1157.125
 20
1383.0
 30
0.0
 11
1157.125
 21
1282.9
 31
0.0
  0
LINE
  8
0
  6
CONTINUOUS
 62
     1
 10
1080.125
 20
1383.0
 30
0.0
 11
1080.125
 21
1282.9
 31
0.0
  0
LINE
  8
0
  6
CONTINUOUS
 62
     1
 10
1080.125
 20
1383.0
 30
0.0
 11
1272.625
 21
1383.0
 31
0.0
  0
LINE
  8
0
  6
CONTINUOUS
 62
     1
 10
1080.125
 20
1352.2
 30
0.0
 11
1272.625
 21
1352.2
 31
0.0
  0
LINE
  8
0
  6
CONTINUOUS
 62
     2
 10
1080.125
 20
1329.1
 30
0.0
 11
1272.625
 21
1329.1
 31
0.0
  0
LINE
  8
0
  6
CONTINUOUS
 62
     2
 10
1080.125
 20
1306.0
 30
0.0
 11
1272.625
 21
1306.0
 31
0.0
  0
LINE
  8
0
  6
CONTINUOUS
 62
     1
 10
1080.125
 20
1282.9
 30
0.0
 11
1272.625
 21
1282.9
 31
0.0
  0
TEXT
  8
0
  6
CONTINUOUS
 62
     2
 10
1222.575
 20
1369.525
 30
1.155
 40
11.55
  1
起動電流
 50
0.0
 41
0.9
 51
0.0
  7
KANJI29
  0
TEXT
  8
0
  6
CONTINUOUS
 62
     2
 10
1222.575
 20
1356.05
 30
1.155
 40
11.55
  1
　　　Ａ
 50
0.0
 41
0.9
 51
0.0
  7
KANJI29
  0
TEXT
  8
0
  6
CONTINUOUS
 62
     2
 10
1164.825
 20
1369.525
 30
1.155
 40
11.55
  1
定格電流
 50
0.0
 41
0.9
 51
0.0
  7
KANJI29
  0
TEXT
  8
0
  6
CONTINUOUS
 62
     2
 10
1164.825
 20
1356.05
 30
1.155
 40
11.55
  1
　　　Ａ
 50
0.0
 41
0.9
 51
0.0
  7
KANJI29
  0
TEXT
  8
0
  6
CONTINUOUS
 62
     2
 10
1086.67
 20
1311.775
 30
1.155
 40
11.55
  1
２００／６０
 50
0.0
 41
0.9
 51
0.0
  7
KANJI29
  0
TEXT
  8
0
  6
CONTINUOUS
 62
     2
 10
1086.67
 20
1369.525
 30
1.155
 40
11.55
  1
電圧／周波数
 50
0.0
 41
0.9
 51
0.0
  7
KANJI29
  0
TEXT
  8
0
  6
CONTINUOUS
 62
     2
 10
1086.67
 20
1356.05
 30
1.155
 40
11.55
  1
　Ｖ／Ｈｚ
 50
0.0
 41
0.9
 51
0.0
  7
KANJI29
  0
TEXT
  8
0
  6
CONTINUOUS
 62
     2
 10
1086.67
 20
1334.875
 30
1.155
 40
11.55
  1
２００／５０
 50
0.0
 41
0.9
 51
0.0
  7
KANJI29
  0
TEXT
  8
0
  6
CONTINUOUS
 62
     2
 10
1086.67
 20
1288.675
 30
1.155
 40
11.55
  1
２２０／６０
 50
0.0
 41
0.9
 51
0.0
  7
KANJI29
  0
LINE
  8
0
  6
CONTINUOUS
 62
     1
 10
1041.625
 20
1383.0
 30
0.0
 11
1041.625
 21
1282.9
 31
0.0
  0
LINE
  8
0
  6
CONTINUOUS
 62
     2
 10
983.875
 20
1383.0
 30
0.0
 11
983.875
 21
1282.9
 31
0.0
  0
LINE
  8
0
  6
CONTINUOUS
 62
     2
 10
926.125
 20
1383.0
 30
0.0
 11
926.125
 21
1282.9
 31
0.0
  0
LINE
  8
0
  6
CONTINUOUS
 62
     1
 10
849.125
 20
1383.0
 30
0.0
 11
849.125
 21
1282.9
 31
0.0
  0
LINE
  8
0
  6
CONTINUOUS
 62
     1
 10
849.125
 20
1383.0
 30
0.0
 11
1041.625
 21
1383.0
 31
0.0
  0
LINE
  8
0
  6
CONTINUOUS
 62
     1
 10
849.125
 20
1352.2
 30
0.0
 11
1041.625
 21
1352.2
 31
0.0
  0
LINE
  8
0
  6
CONTINUOUS
 62
     2
 10
849.125
 20
1329.1
 30
0.0
 11
1041.625
 21
1329.1
 31
0.0
  0
LINE
  8
0
  6
CONTINUOUS
 62
     2
 10
849.125
 20
1306.0
 30
0.0
 11
1041.625
 21
1306.0
 31
0.0
  0
LINE
  8
0
  6
CONTINUOUS
 62
     1
 10
849.125
 20
1282.9
 30
0.0
 11
1041.625
 21
1282.9
 31
0.0
  0
TEXT
  8
0
  6
CONTINUOUS
 62
     2
 10
991.575
 20
1369.525
 30
1.155
 40
11.55
  1
起動電流
 50
0.0
 41
0.9
 51
0.0
  7
KANJI29
  0
TEXT
  8
0
  6
CONTINUOUS
 62
     2
 10
991.575
 20
1356.05
 30
1.155
 40
11.55
  1
　　　Ａ
 50
0.0
 41
0.9
 51
0.0
  7
KANJI29
  0
TEXT
  8
0
  6
CONTINUOUS
 62
     2
 10
933.825
 20
1369.525
 30
1.155
 40
11.55
  1
定格電流
 50
0.0
 41
0.9
 51
0.0
  7
KANJI29
  0
TEXT
  8
0
  6
CONTINUOUS
 62
     2
 10
933.825
 20
1356.05
 30
1.155
 40
11.55
  1
　　　Ａ
 50
0.0
 41
0.9
 51
0.0
  7
KANJI29
  0
TEXT
  8
0
  6
CONTINUOUS
 62
     2
 10
855.67
 20
1369.525
 30
1.155
 40
11.55
  1
電圧／周波数
 50
0.0
 41
0.9
 51
0.0
  7
KANJI29
  0
TEXT
  8
0
  6
CONTINUOUS
 62
     2
 10
855.67
 20
1356.05
 30
1.155
 40
11.55
  1
　Ｖ／Ｈｚ
 50
0.0
 41
0.9
 51
0.0
  7
KANJI29
  0
TEXT
  8
0
  6
CONTINUOUS
 62
     2
 10
855.67
 20
1334.875
 30
1.155
 40
11.55
  1
４００／５０
 50
0.0
 41
0.9
 51
0.0
  7
KANJI29
  0
TEXT
  8
0
  6
CONTINUOUS
 62
     2
 10
855.67
 20
1311.775
 30
1.155
 40
11.55
  1
４００／６０
 50
0.0
 41
0.9
 51
0.0
  7
KANJI29
  0
TEXT
  8
0
  6
CONTINUOUS
 62
     2
 10
855.67
 20
1288.675
 30
1.155
 40
11.55
  1
４４０／６０
 50
0.0
 41
0.9
 51
0.0
  7
KANJI29
  0
TEXT
  8
0
  6
CONTINUOUS
 62
     2
 10
933.825
 20
1334.875
 30
1.155
 40
11.55
  1
　２．０
 50
0.0
 41
0.9
 51
0.0
  7
KANJI29
  0
TEXT
  8
0
  6
CONTINUOUS
 62
     2
 10
933.825
 20
1311.775
 30
1.155
 40
11.55
  1
　１．４
 50
0.0
 41
0.9
 51
0.0
  7
KANJI29
  0
TEXT
  8
0
  6
CONTINUOUS
 62
     2
 10
933.825
 20
1288.675
 30
1.155
 40
11.55
  1
　１．７
 50
0.0
 41
0.9
 51
0.0
  7
KANJI29
  0
TEXT
  8
0
  6
CONTINUOUS
 62
     2
 10
1164.825
 20
1334.875
 30
1.155
 40
11.55
  1
　４．０
 50
0.0
 41
0.9
 51
0.0
  7
KANJI29
  0
TEXT
  8
0
  6
CONTINUOUS
 62
     2
 10
1164.825
 20
1311.775
 30
1.155
 40
11.55
  1
　２．８
 50
0.0
 41
0.9
 51
0.0
  7
KANJI29
  0
TEXT
  8
0
  6
CONTINUOUS
 62
     2
 10
1164.825
 20
1288.675
 30
1.155
 40
11.55
  1
　３．３
 50
0.0
 41
0.9
 51
0.0
  7
KANJI29
  0
TEXT
  8
0
  6
CONTINUOUS
 62
     2
 10
1222.575
 20
1334.875
 30
1.155
 40
11.55
  1
　９．２
 50
0.0
 41
0.9
 51
0.0
  7
KANJI29
  0
TEXT
  8
0
  6
CONTINUOUS
 62
     2
 10
1222.575
 20
1311.775
 30
1.155
 40
11.55
  1
　８
 50
0.0
 41
0.9
 51
0.0
  7
KANJI29
  0
TEXT
  8
0
  6
CONTINUOUS
 62
     2
 10
1222.575
 20
1288.675
 30
1.155
 40
11.55
  1
　８．８
 50
0.0
 41
0.9
 51
0.0
  7
KANJI29
  0
TEXT
  8
0
  6
CONTINUOUS
 62
     2
 10
991.575
 20
1334.875
 30
1.155
 40
11.55
  1
　４．６
 50
0.0
 41
0.9
 51
0.0
  7
KANJI29
  0
TEXT
  8
0
  6
CONTINUOUS
 62
     2
 10
991.575
 20
1311.775
 30
1.155
 40
11.55
  1
　４
 50
0.0
 41
0.9
 51
0.0
  7
KANJI29
  0
TEXT
  8
0
  6
CONTINUOUS
 62
     2
 10
991.575
 20
1288.675
 30
1.155
 40
11.55
  1
　４．４
 50
0.0
 41
0.9
 51
0.0
  7
KANJI29
  0
LINE
  8
0
  6
CONTINUOUS
 62
     2
 10
1061.0
 20
556.0
 30
0.0
 11
1061.0
 21
795.0
 31
0.0
  0
LINE
  8
0
  6
CONTINUOUS
 62
     2
 10
1062.0
 20
325.5
 30
0.0
 11
1106.833854631
 21
325.5
 31
0.0
  0
LINE
  8
0
  6
CONTINUOUS
 62
     2
 10
1062.0
 20
313.5
 30
0.0
 11
1106.733854631
 21
313.5
 31
0.0
  0
LINE
  8
0
  6
CONTINUOUS
 62
     2
 10
1062.0
 20
297.5
 30
0.0
 11
1106.733854631
 21
297.5
 31
0.0
  0
LINE
  8
0
  6
CONTINUOUS
 62
     2
 10
1062.0
 20
285.5
 30
0.0
 11
1106.833854631
 21
285.5
 31
0.0
  0
LINE
  8
0
  6
CONTINUOUS
 62
     2
 10
1035.0
 20
337.5
 30
0.0
 11
1035.0
 21
368.7
 31
0.0
  0
LINE
  8
0
  6
CONTINUOUS
 62
     2
 10
1051.0
 20
337.5
 30
0.0
 11
1051.0
 21
369.7
 31
0.0
  0
LINE
  8
0
  6
CONTINUOUS
 62
     2
 10
1018.0
 20
315.0
 30
0.0
 11
1018.0
 21
383.45
 31
0.0
  0
TEXT
  8
0
  6
CONTINUOUS
 62
     2
 10
1492.25
 20
580.5
 30
10.0
 40
20.0
  1
特記事項
 50
0.0
 41
0.9
 51
0.0
  7
KANJI30
  0
TEXT
  8
0
  6
CONTINUOUS
 62
     2
 10
1422.25
 20
540.5
 30
5.142857143
 40
18.0
  1
１。運転時は必ずピストンロッドの回転防止を行って下さい。
 50
0.0
 41
0.857142857
 51
0.0
  7
KANJI31
  0
TEXT
  8
0
  6
CONTINUOUS
 62
     2
 10
1422.25
 20
506.5
 30
5.13
 40
18.0
  1
２。モートル：全閉自冷かご形３０分定格
 50
0.0
 41
0.857222222
 51
0.0
  7
KANJI32
  0
TEXT
  8
0
  6
CONTINUOUS
 62
     2
 10
1421.9165915
 20
472.500003
 30
5.13
 40
18.0
  1
３。呼称ストロークは、機械的ストロークです。
 50
0.0
 41
0.857222222
 51
0.0
  7
KANJI32
  0
TEXT
  8
0
  6
CONTINUOUS
 62
     2
 10
1421.9165915
 20
443.750003
 30
5.13
 40
18.0
  1
　　必ず、常用はストローク両端に余裕を取って下さい。
 50
0.0
 41
0.857222222
 51
0.0
  7
KANJI32
  0
TEXT
  8
0
  6
CONTINUOUS
 62
     2
 10
1421.9165915
 20
409.750003
 30
5.13
 40
18.0
  1
　　前後の推奨余裕寸法は、各々４０ｍｍです。
 50
0.0
 41
0.857222222
 51
0.0
  7
KANJI32
  0
LINE
  8
0
  6
CONTINUOUS
 62
     1
 10
988.0
 20
324.5
 30
0.0
 11
1008.0
 21
324.5
 31
0.0
  0
LINE
  8
0
  6
CONTINUOUS
 62
     1
 10
988.0
 20
286.5
 30
0.0
 11
1008.0
 21
286.5
 31
0.0
  0
CIRCLE
  8
0
  6
CONTINUOUS
 62
     1
 10
1043.0
 20
535.5
 30
0.0
 40
15.0
  0
TEXT
  8
0
  6
CONTINUOUS
 62
     2
 10
882.4275
 20
1265.575
 30
1.3475
 40
13.475
  1
注意：サーマルリレー等の選定は、上記の値で選定して下さい。
 50
0.0
 41
0.9
 51
0.0
  7
KANJI33
  0
LINE
  8
0
  6
CONTINUOUS
 62
     2
 10
874.7275
 20
1261.725
 30
0.0
 11
1262.0
 21
1261.725
 31
0.0
  0
LINE
  8
0
  6
CONTINUOUS
 62
     2
 10
1120.0
 20
609.0
 30
0.0
 11
1107.925927171
 21
612.235238064
 31
0.0
  0
LINE
  8
0
  6
CONTINUOUS
 62
     2
 10
1120.0
 20
609.0
 30
0.0
 11
1107.925927171
 21
605.764761936
 31
0.0
  0
LINE
  8
0
  6
CONTINUOUS
 62
     2
 10
1120.0
 20
609.0
 30
0.0
 11
1079.0
 21
609.0
 31
0.0
  0
TEXT
  8
0
  6
CONTINUOUS
 62
     3
 10
1126.0
 20
603.0
 30
0.0
 40
20.0
  1
前進
 50
0.0
 41
0.925
 51
0.0
  7
KANJI34
  0
TEXT
  8
0
  6
CONTINUOUS
 62
     2
 10
292.0
 20
405.0
 30
0.0
 40
20.0
  1
ブレーキ解放装置はありません。
 50
0.0
 41
0.925
 51
0.0
  7
KANJI34
  0
TEXT
  8
0
  6
CONTINUOUS
 62
     2
 10
293.0
 20
380.0
 30
0.0
 40
20.0
  1
そのまま手動操作をして下さい．
 50
0.0
 41
0.925
 51
0.0
  7
KANJI34
  0
TEXT
  8
2
  6
CONTINUOUS
 62
     2
 10
202.3
 20
676.8
 30
1.2
 40
16.0
  1
手動軸カバー
 50
0.0
 41
0.925
 51
0.0
  7
KANJI35
  0
LINE
  8
0
  6
CONTINUOUS
 62
     1
 10
1038.8
 20
523.2
 30
0.0
 11
1040.8
 21
522.9
 31
0.0
  0
LINE
  8
0
  6
CONTINUOUS
 62
     1
 10
1041.3
 20
527.6
 30
0.0
 11
1041.064615385
 21
526.030769231
 31
0.0
  0
LINE
  8
0
  6
CONTINUOUS
 62
     1
 10
1041.064615385
 20
526.030769231
 30
0.0
 11
1038.8
 21
523.2
 31
0.0
  0
LINE
  8
0
  6
CONTINUOUS
 62
     1
 10
1043.0
 20
525.6
 30
0.0
 11
1040.8
 21
522.9
 31
0.0
  0
LINE
  8
0
  6
CONTINUOUS
 62
     1
 10
1047.2
 20
523.2
 30
0.0
 11
1045.2
 21
522.9
 31
0.0
  0
LINE
  8
0
  6
CONTINUOUS
 62
     1
 10
1044.7
 20
527.6
 30
0.0
 11
1044.935384615
 21
526.030769231
 31
0.0
  0
LINE
  8
0
  6
CONTINUOUS
 62
     1
 10
1044.935384615
 20
526.030769231
 30
0.0
 11
1047.2
 21
523.2
 31
0.0
  0
LINE
  8
0
  6
CONTINUOUS
 62
     1
 10
1043.0
 20
525.6
 30
0.0
 11
1045.2
 21
522.9
 31
0.0
  0
CIRCLE
  8
0
  6
CONTINUOUS
 62
     1
 10
1042.999984741
 20
546.5
 30
0.0
 40
3.0
  0
TEXT
  8
0
  6
CONTINUOUS
 62
     2
 10
364.9
 20
490.5
 30
0.0
 40
15.0
  1
エコノストップモータ
 50
0.0
 41
0.9
 51
0.0
  7
KANJI1
  0
TEXT
  8
0
  6
CONTINUOUS
 62
     2
 10
367.8
 20
507.5
 30
0.0
 40
15.0
  1
日本電産
 50
0.0
 41
0.9
 51
0.0
  7
KANJI1
  0
LINE
  8
0
  6
LTYPE3
 62
     6
 10
115.408333
 20
838.633317
 30
0.0
 11
115.408333
 21
822.232460936
 31
0.0
  0
LINE
  8
0
  6
LTYPE3
 62
     6
 10
245.805262694
 20
838.633317
 30
0.0
 11
115.408333
 21
838.633317
 31
0.0
  0
TEXT
  8
0
  6
CONTINUOUS
 62
     6
 10
97.873590591
 20
825.148168681
 30
1.093390404
 40
10.933904043
  1
Ｕ
 50
0.0
 41
0.9
 51
0.0
  7
KANJI36
  0
CIRCLE
  8
0
  6
CONTINUOUS
 62
     6
 10
115.408333
 20
818.952289723
 30
0.0
 40
4.373561617
  0
LINE
  8
0
  6
CONTINUOUS
 62
     6
 10
110.38354931
 20
813.927506033
 30
0.0
 11
120.588526417
 21
824.13248314
 31
0.0
  0
TEXT
  8
0
  6
CONTINUOUS
 62
     6
 10
125.653806047
 20
847.299448352
 30
1.518597784
 40
15.185977837
  1
エコノストップモータ
 50
0.0
 41
0.66671875
 51
0.0
  7
KANJI37
  0
LINE
  8
0
  6
LTYPE3
 62
     6
 10
245.805262694
 20
743.221584891
 30
0.0
 11
245.805262694
 21
838.633317
 31
0.0
  0
CIRCLE
  8
0
  6
CONTINUOUS
 62
     6
 10
160.237339575
 20
793.439846957
 30
0.0
 40
18.223173404
  0
TEXT
  8
0
  6
CONTINUOUS
 62
     6
 10
152.583606745
 20
784.692723723
 30
1.82231734
 40
18.223173404
  1
Ｍ
 50
0.0
 41
0.9
 51
0.0
  7
KANJI38
  0
LINE
  8
0
  6
CONTINUOUS
 62
     6
 10
136.182750681
 20
767.927404191
 30
0.0
 11
147.481118192
 21
781.048089042
 31
0.0
  0
LINE
  8
0
  6
CONTINUOUS
 62
     6
 10
136.182750681
 20
818.952289723
 30
0.0
 11
147.481118192
 21
805.831604872
 31
0.0
  0
LINE
  8
0
  6
CONTINUOUS
 62
     6
 10
136.182750681
 20
818.952289723
 30
0.0
 11
119.781894617
 21
818.952289723
 31
0.0
  0
LINE
  8
0
  6
CONTINUOUS
 62
     6
 10
142.378629639
 20
793.439846957
 30
0.0
 11
119.781894617
 21
793.439846957
 31
0.0
  0
LINE
  8
0
  6
CONTINUOUS
 62
     6
 10
136.182750681
 20
767.927404191
 30
0.0
 11
119.781894617
 21
767.927404191
 31
0.0
  0
TEXT
  8
0
  6
CONTINUOUS
 62
     6
 10
98.966980995
 20
799.271262446
 30
1.093390404
 40
10.933904043
  1
Ｖ
 50
0.0
 41
0.9
 51
0.0
  7
KANJI36
  0
TEXT
  8
0
  6
CONTINUOUS
 62
     6
 10
100.060371399
 20
773.394356212
 30
1.093390404
 40
10.933904043
  1
Ｗ
 50
0.0
 41
0.9
 51
0.0
  7
KANJI36
  0
CIRCLE
  8
0
  6
CONTINUOUS
 62
     6
 10
115.408333
 20
793.439846957
 30
0.0
 40
4.373561617
  0
LINE
  8
0
  6
CONTINUOUS
 62
     6
 10
110.38354931
 20
788.415063267
 30
0.0
 11
120.588526417
 21
798.620040374
 31
0.0
  0
LINE
  8
0
  6
LTYPE3
 62
     6
 10
115.408333
 20
814.943191574
 30
0.0
 11
115.408333
 21
796.72001817
 31
0.0
  0
CIRCLE
  8
0
  6
CONTINUOUS
 62
     6
 10
115.408333
 20
767.927404191
 30
0.0
 40
4.373561617
  0
LINE
  8
0
  6
CONTINUOUS
 62
     6
 10
110.38354931
 20
762.902620501
 30
0.0
 11
120.588526417
 21
773.107597607
 31
0.0
  0
LINE
  8
0
  6
LTYPE3
 62
     6
 10
115.408333
 20
789.430748808
 30
0.0
 11
115.408333
 21
772.300965808
 31
0.0
  0
LINE
  8
0
  6
LTYPE3
 62
     6
 10
245.805262694
 20
743.221584891
 30
0.0
 11
115.408333
 21
743.221584891
 31
0.0
  0
LINE
  8
0
  6
LTYPE3
 62
     6
 10
115.408333
 20
763.553842574
 30
0.0
 11
115.408333
 21
743.221584891
 31
0.0
  0
TEXT
  8
0
  6
CONTINUOUS
 62
     2
 10
120.503726364
 20
718.012221811
 30
0.0
 40
15.6
  1
モーター結線図
 50
0.0
 41
0.925
 51
0.0
  7
KANJI39
  0
TEXT
  8
0
  6
CONTINUOUS
 62
     6
 10
186.162021562
 20
785.184749405
 30
1.457853872
 40
14.578538724
  1
Ｂ
 50
0.0
 41
0.9
 51
0.0
  7
KANJI40
  0
CIRCLE
  8
0
  6
CONTINUOUS
 62
     6
 10
192.722363988
 20
793.439846957
 30
0.0
 40
14.578538724
  0
ARC
  8
0
  6
CONTINUOUS
 62
     2
 10
182.0
 20
538.0
 30
0.0
 40
20.0
 50
231.952957468
 51
156.801409486
  0
TEXT
  8
0
  6
CONTINUOUS
 62
     2
 10
101.6170994
 20
528.878385972
 30
0.0
 40
15.0
  1
前進方向
 50
0.0
 41
0.9
 51
0.0
  7
KANJI1
  0
LINE
  8
0
  6
CONTINUOUS
 62
     2
 10
163.6170994
 20
545.878385972
 30
0.0
 11
165.91179211
 21
555.715824749
 31
0.0
  0
LINE
  8
0
  6
CONTINUOUS
 62
     2
 10
163.6170994
 20
545.878385972
 30
0.0
 11
171.885260778
 21
550.785722507
 31
0.0
  0
LINE
  8
0
  6
CONTINUOUS
 62
     1
 10
427.0
 20
585.0
 30
0.0
 11
427.0
 21
542.0
 31
0.0
  0
LINE
  8
0
  6
CONTINUOUS
 62
     1
 10
427.0
 20
585.0
 30
0.0
 11
497.0
 21
585.0
 31
0.0
  0
TEXT
  8
0
  6
CONTINUOUS
 62
     2
 10
438.0
 20
547.0
 30
5.0
 40
20.0
  1
銘板
 50
0.0
 41
0.925
 51
0.0
  7
KANJI41
  0
LINE
  8
0
  6
CONTINUOUS
 62
     1
 10
497.0
 20
585.0
 30
0.0
 11
497.0
 21
542.0
 31
0.0
  0
LINE
  8
0
  6
CONTINUOUS
 62
     1
 10
427.0
 20
542.0
 30
0.0
 11
497.0
 21
542.0
 31
0.0
  0
LINE
  8
0
  6
CONTINUOUS
 62
     2
 10
476.0
 20
198.0
 30
0.0
 11
483.72740661
 21
195.929447639
 31
0.0
  0
LINE
  8
0
  6
CONTINUOUS
 62
     2
 10
476.0
 20
198.0
 30
0.0
 11
483.72740661
 21
200.070552361
 31
0.0
  0
LINE
  8
0
  6
CONTINUOUS
 62
     2
 10
476.0
 20
198.0
 30
0.0
 11
613.6
 21
198.0
 31
0.0
  0
LINE
  8
0
  6
CONTINUOUS
 62
     2
 10
613.6
 20
198.0
 30
0.0
 11
605.87259339
 21
200.070552361
 31
0.0
  0
LINE
  8
0
  6
CONTINUOUS
 62
     2
 10
613.6
 20
198.0
 30
0.0
 11
605.87259339
 21
195.929447639
 31
0.0
  0
LINE
  8
0
  6
CONTINUOUS
 62
     2
 10
613.6
 20
196.8
 30
0.0
 11
613.6
 21
194.0
 31
0.0
  0
LINE
  8
0
  6
CONTINUOUS
 62
     2
 10
613.6
 20
198.0
 30
0.0
 11
621.32740661
 21
195.929447639
 31
0.0
  0
LINE
  8
0
  6
CONTINUOUS
 62
     2
 10
613.6
 20
198.0
 30
0.0
 11
621.32740661
 21
200.070552361
 31
0.0
  0
LINE
  8
0
  6
CONTINUOUS
 62
     2
 10
613.6
 20
198.0
 30
0.0
 11
816.0
 21
198.0
 31
0.0
  0
LINE
  8
0
  6
CONTINUOUS
 62
     2
 10
816.0
 20
198.0
 30
0.0
 11
808.27259339
 21
200.070552361
 31
0.0
  0
LINE
  8
0
  6
CONTINUOUS
 62
     2
 10
816.0
 20
198.0
 30
0.0
 11
808.27259339
 21
195.929447639
 31
0.0
  0
LINE
  8
0
  6
CONTINUOUS
 62
     2
 10
613.6
 20
171.670552361
 30
0.0
 11
605.87259339
 21
173.741104722
 31
0.0
  0
LINE
  8
0
  6
CONTINUOUS
 62
     2
 10
613.6
 20
171.670552361
 30
0.0
 11
605.87259339
 21
169.6
 31
0.0
  0
LINE
  8
0
  6
CONTINUOUS
 62
     2
 10
601.6
 20
171.670552361
 30
0.0
 11
613.6
 21
171.670552361
 31
0.0
  0
LINE
  8
0
  6
CONTINUOUS
 62
     2
 10
613.6
 20
171.670552361
 30
0.0
 11
634.4
 21
171.670552361
 31
0.0
  0
LINE
  8
0
  6
CONTINUOUS
 62
     2
 10
634.4
 20
171.670552361
 30
0.0
 11
642.12740661
 21
169.6
 31
0.0
  0
LINE
  8
0
  6
CONTINUOUS
 62
     2
 10
634.4
 20
171.670552361
 30
0.0
 11
642.12740661
 21
173.741104722
 31
0.0
  0
LINE
  8
0
  6
CONTINUOUS
 62
     2
 10
476.0
 20
146.4
 30
0.0
 11
476.0
 21
140.4
 31
0.0
  0
LINE
  8
0
  6
CONTINUOUS
 62
     2
 10
476.0
 20
144.4
 30
0.0
 11
483.72740661
 21
142.329447639
 31
0.0
  0
LINE
  8
0
  6
CONTINUOUS
 62
     2
 10
476.0
 20
144.4
 30
0.0
 11
483.72740661
 21
146.470552361
 31
0.0
  0
LINE
  8
0
  6
CONTINUOUS
 62
     2
 10
476.0
 20
144.4
 30
0.0
 11
634.4
 21
144.4
 31
0.0
  0
LINE
  8
0
  6
CONTINUOUS
 62
     2
 10
634.4
 20
144.4
 30
0.0
 11
626.67259339
 21
146.470552361
 31
0.0
  0
LINE
  8
0
  6
CONTINUOUS
 62
     2
 10
634.4
 20
144.4
 30
0.0
 11
626.67259339
 21
142.329447639
 31
0.0
  0
LINE
  8
0
  6
CONTINUOUS
 62
     2
 10
634.4
 20
145.6
 30
0.0
 11
634.4
 21
140.4
 31
0.0
  0
LINE
  8
0
  6
CONTINUOUS
 62
     2
 10
634.4
 20
144.4
 30
0.0
 11
642.12740661
 21
142.329447639
 31
0.0
  0
LINE
  8
0
  6
CONTINUOUS
 62
     2
 10
634.4
 20
144.4
 30
0.0
 11
642.12740661
 21
146.470552361
 31
0.0
  0
LINE
  8
0
  6
CONTINUOUS
 62
     2
 10
816.0
 20
140.8
 30
0.0
 11
816.0
 21
140.4
 31
0.0
  0
LINE
  8
0
  6
CONTINUOUS
 62
     2
 10
476.0
 20
115.2
 30
0.0
 11
483.72740661
 21
113.129447639
 31
0.0
  0
LINE
  8
0
  6
CONTINUOUS
 62
     2
 10
476.0
 20
115.2
 30
0.0
 11
483.72740661
 21
117.270552361
 31
0.0
  0
LINE
  8
0
  6
CONTINUOUS
 62
     2
 10
476.0
 20
115.2
 30
0.0
 11
793.6
 21
115.2
 31
0.0
  0
LINE
  8
0
  6
CONTINUOUS
 62
     2
 10
793.6
 20
115.2
 30
0.0
 11
785.87259339
 21
117.270552361
 31
0.0
  0
LINE
  8
0
  6
CONTINUOUS
 62
     2
 10
793.6
 20
115.2
 30
0.0
 11
785.87259339
 21
113.129447639
 31
0.0
  0
LINE
  8
0
  6
CONTINUOUS
 62
     2
 10
793.6
 20
116.0
 30
0.0
 11
793.6
 21
111.2
 31
0.0
  0
LINE
  8
0
  6
CONTINUOUS
 62
     2
 10
793.6
 20
115.2
 30
0.0
 11
785.87259339
 21
117.270552361
 31
0.0
  0
LINE
  8
0
  6
CONTINUOUS
 62
     2
 10
793.6
 20
115.2
 30
0.0
 11
785.87259339
 21
113.129447639
 31
0.0
  0
LINE
  8
0
  6
CONTINUOUS
 62
     2
 10
781.6
 20
115.2
 30
0.0
 11
793.6
 21
115.2
 31
0.0
  0
LINE
  8
0
  6
CONTINUOUS
 62
     2
 10
793.6
 20
115.2
 30
0.0
 11
816.0
 21
115.2
 31
0.0
  0
LINE
  8
0
  6
CONTINUOUS
 62
     2
 10
816.0
 20
115.2
 30
0.0
 11
823.72740661
 21
113.129447639
 31
0.0
  0
LINE
  8
0
  6
CONTINUOUS
 62
     2
 10
816.0
 20
115.2
 30
0.0
 11
823.72740661
 21
117.270552361
 31
0.0
  0
LINE
  8
0
  6
CONTINUOUS
 62
     2
 10
476.0
 20
208.8
 30
0.0
 11
476.0
 21
194.0
 31
0.0
  0
LINE
  8
0
  6
CONTINUOUS
 62
     2
 10
816.0
 20
208.8
 30
0.0
 11
816.0
 21
194.0
 31
0.0
  0
LINE
  8
0
  6
CONTINUOUS
 62
     2
 10
613.6
 20
197.6
 30
0.0
 11
613.6
 21
208.8
 31
0.0
  0
LINE
  8
0
  6
CONTINUOUS
 62
     2
 10
634.4
 20
184.470552361
 30
0.0
 11
634.4
 21
167.670552361
 31
0.0
  0
LINE
  8
0
  6
CONTINUOUS
 62
     2
 10
476.0
 20
194.0
 30
0.0
 11
476.0
 21
102.0
 31
0.0
  0
LINE
  8
0
  6
CONTINUOUS
 62
     2
 10
816.0
 20
198.0
 30
0.0
 11
816.0
 21
103.2
 31
0.0
  0
LINE
  8
0
  6
CONTINUOUS
 62
     2
 10
634.4
 20
171.670552361
 30
0.0
 11
634.4
 21
135.2
 31
0.0
  0
LINE
  8
0
  6
CONTINUOUS
 62
     2
 10
613.6
 20
198.0
 30
0.0
 11
613.6
 21
162.4
 31
0.0
  0
TEXT
  8
0
  6
CONTINUOUS
 62
     3
 10
517.8
 20
200.0
 30
0.0
 40
15.0
  1
ｍｉｎ．Ｌ
 50
0.0
 41
0.9
 51
0.0
  7
KANJI1
  0
TEXT
  8
0
  6
CONTINUOUS
 62
     3
 10
671.6
 20
200.0
 30
0.0
 40
15.0
  1
機械的ストローク
 50
0.0
 41
0.9
 51
0.0
  7
KANJI1
  0
TEXT
  8
0
  6
CONTINUOUS
 62
     3
 10
646.4
 20
173.670552361
 30
0.0
 40
15.0
  1
余裕
 50
0.0
 41
0.9
 51
0.0
  7
KANJI1
  0
TEXT
  8
0
  6
CONTINUOUS
 62
     3
 10
528.2
 20
146.4
 30
0.0
 40
15.0
  1
常用ｍｉｎ
 50
0.0
 41
0.9
 51
0.0
  7
KANJI1
  0
TEXT
  8
0
  6
CONTINUOUS
 62
     3
 10
687.4
 20
146.4
 30
0.0
 40
15.0
  1
常用ストローク
 50
0.0
 41
0.9
 51
0.0
  7
KANJI1
  0
TEXT
  8
0
  6
CONTINUOUS
 62
     3
 10
607.8
 20
117.2
 30
0.0
 40
15.0
  1
常用ｍａｘ
 50
0.0
 41
0.9
 51
0.0
  7
KANJI1
  0
TEXT
  8
0
  6
CONTINUOUS
 62
     3
 10
828.0
 20
117.2
 30
0.0
 40
15.0
  1
余裕
 50
0.0
 41
0.9
 51
0.0
  7
KANJI1
  0
LINE
  8
0
  6
CONTINUOUS
 62
     2
 10
634.4
 20
171.670552361
 30
0.0
 11
674.5
 21
171.670552361
 31
0.0
  0
LINE
  8
0
  6
CONTINUOUS
 62
     2
 10
816.0
 20
115.2
 30
0.0
 11
858.5
 21
115.2
 31
0.0
  0
LINE
  8
0
  6
CONTINUOUS
 62
     2
 10
1197.0
 20
479.500013214
 30
0.0
 11
1197.0
 21
382.5
 31
0.0
  0
LINE
  8
0
  6
CONTINUOUS
 62
     2
 10
1197.0
 20
387.5
 30
0.0
 11
1206.659258263
 21
384.911809549
 31
0.0
  0
LINE
  8
0
  6
CONTINUOUS
 62
     2
 10
1197.0
 20
387.5
 30
0.0
 11
1206.659258263
 21
390.088190451
 31
0.0
  0
LINE
  8
0
  6
CONTINUOUS
 62
     2
 10
1197.0
 20
387.5
 30
0.0
 11
1319.0
 21
387.5
 31
0.0
  0
LINE
  8
0
  6
CONTINUOUS
 62
     2
 10
1319.0
 20
387.5
 30
0.0
 11
1309.340741737
 21
390.088190451
 31
0.0
  0
LINE
  8
0
  6
CONTINUOUS
 62
     2
 10
1319.0
 20
387.5
 30
0.0
 11
1309.340741737
 21
384.911809549
 31
0.0
  0
LINE
  8
0
  6
CONTINUOUS
 62
     2
 10
1319.0
 20
479.500005395
 30
0.0
 11
1319.0
 21
382.5
 31
0.0
  0
TEXT
  8
0
  6
CONTINUOUS
 62
     3
 10
1237.75
 20
390.0
 30
0.0
 40
15.0
  1
１２２
 50
0.0
 41
0.9
 51
0.0
  7
KANJI1
  0
LINE
  8
0
  6
CONTINUOUS
 62
     2
 10
1371.5
 20
535.5
 30
0.0
 11
1377.5
 21
535.5
 31
0.0
  0
LINE
  8
0
  6
CONTINUOUS
 62
     2
 10
1372.5
 20
535.5
 30
0.0
 11
1369.911809549
 21
525.840741737
 31
0.0
  0
LINE
  8
0
  6
CONTINUOUS
 62
     2
 10
1372.5
 20
535.5
 30
0.0
 11
1375.088190451
 21
525.840741737
 31
0.0
  0
LINE
  8
0
  6
CONTINUOUS
 62
     2
 10
1372.5
 20
535.5
 30
0.0
 11
1372.5
 21
474.5
 31
0.0
  0
LINE
  8
0
  6
CONTINUOUS
 62
     2
 10
1372.5
 20
474.5
 30
0.0
 11
1375.088190451
 21
484.159258263
 31
0.0
  0
LINE
  8
0
  6
CONTINUOUS
 62
     2
 10
1372.5
 20
474.5
 30
0.0
 11
1369.911809549
 21
484.159258263
 31
0.0
  0
LINE
  8
0
  6
CONTINUOUS
 62
     2
 10
1314.000015259
 20
474.5
 30
0.0
 11
1377.5
 21
474.5
 31
0.0
  0
TEXT
  8
0
  6
CONTINUOUS
 62
     3
 10
1370.0
 20
491.5
 30
0.0
 40
15.0
  1
６１
 50
90.0
 41
0.9
 51
0.0
  7
KANJI1
  0
LINE
  8
0
  6
CONTINUOUS
 62
     1
 10
848.25
 20
977.95
 30
0.0
 11
1496.25
 21
977.95
 31
0.0
  0
LINE
  8
0
  6
CONTINUOUS
 62
     1
 10
848.25
 20
1229.95
 30
0.0
 11
848.25
 21
977.95
 31
0.0
  0
LINE
  8
0
  6
CONTINUOUS
 62
     1
 10
1016.25
 20
1229.95
 30
0.0
 11
1016.25
 21
977.95
 31
0.0
  0
LINE
  8
0
  6
CONTINUOUS
 62
     2
 10
1096.25
 20
1229.95
 30
0.0
 11
1096.25
 21
977.95
 31
0.0
  0
LINE
  8
0
  6
CONTINUOUS
 62
     2
 10
1176.25
 20
1229.95
 30
0.0
 11
1176.25
 21
977.95
 31
0.0
  0
LINE
  8
0
  6
CONTINUOUS
 62
     2
 10
1256.25
 20
1229.95
 30
0.0
 11
1256.25
 21
977.95
 31
0.0
  0
LINE
  8
0
  6
CONTINUOUS
 62
     2
 10
1336.25
 20
1229.95
 30
0.0
 11
1336.25
 21
977.95
 31
0.0
  0
LINE
  8
0
  6
CONTINUOUS
 62
     2
 10
1416.25
 20
1229.95
 30
0.0
 11
1416.25
 21
977.95
 31
0.0
  0
LINE
  8
0
  6
CONTINUOUS
 62
     1
 10
1496.25
 20
1229.95
 30
0.0
 11
1496.25
 21
977.95
 31
0.0
  0
TEXT
  8
0
  6
CONTINUOUS
 62
     2
 10
861.25
 20
984.35
 30
0.8
 40
12.0
  1
ＭＣＥＤＢＢ０１－　　
 50
0.0
 41
0.833333333
 51
0.0
  7
KANJI25
  0
LINE
  8
0
  6
CONTINUOUS
 62
     2
 10
793.6
 20
160.0
 30
0.0
 11
793.6
 21
102.4
 31
0.0
  0
LINE
  8
0
  6
CONTINUOUS
 62
     2
 10
793.6
 20
144.4
 30
0.0
 11
785.87259339
 21
146.470552361
 31
0.0
  0
LINE
  8
0
  6
CONTINUOUS
 62
     2
 10
793.6
 20
144.4
 30
0.0
 11
785.87259339
 21
142.329447639
 31
0.0
  0
LINE
  8
0
  6
CONTINUOUS
 62
     2
 10
634.4
 20
144.4
 30
0.0
 11
793.6
 21
144.4
 31
0.0
  0
TEXT
  8
2
  6
CONTINUOUS
 62
     2
 10
202.3
 20
652.8
 30
1.2
 40
16.0
  1
手動軸□１０
 50
0.0
 41
0.925
 51
0.0
  7
KANJI35
  0
TEXT
  8
0
  6
CONTINUOUS
 62
     2
 10
1371.9166945
 20
92.999995
 30
1.5
 40
17.5
  1
０７．０９．２６
 50
0.0
 41
0.571428571
 51
0.0
  7
KANJI42
  0
TEXT
  8
0
  6
CONTINUOUS
 62
     2
 10
1602.25
 20
1268.5
 30
138.5
 40
17.5
  1
形式
 50
0.0
 41
0.9
 51
0.0
  7
KANJI43
  0
TEXT
  8
0
  6
CONTINUOUS
 62
     2
 10
1602.25
 20
1233.5
 30
138.5
 40
17.5
  1
推力
 50
0.0
 41
0.9
 51
0.0
  7
KANJI43
  0
TEXT
  8
0
  6
CONTINUOUS
 62
     2
 10
1602.25
 20
1093.5
 30
138.5
 40
17.5
  1
構造
 50
0.0
 41
0.9
 51
0.0
  7
KANJI43
  0
TEXT
  8
0
  6
CONTINUOUS
 62
     2
 10
1602.25
 20
673.5
 30
138.5
 40
17.5
  1
台数
 50
0.0
 41
0.9
 51
0.0
  7
KANJI43
  0
TEXT
  8
0
  6
CONTINUOUS
 62
     2
 10
1602.25
 20
708.5
 30
61.375
 40
17.5
  1
付属品
 50
0.0
 41
0.9
 51
0.0
  7
KANJI44
  0
TEXT
  8
0
  6
CONTINUOUS
 62
     2
 10
1602.25
 20
1023.5
 30
61.375
 40
17.5
  1
塗装色
 50
0.0
 41
0.9
 51
0.0
  7
KANJI44
  0
TEXT
  8
0
  6
CONTINUOUS
 62
     2
 10
1602.25
 20
1198.5
 30
22.8125
 40
17.5
  1
ストローク
 50
0.0
 41
0.9
 51
0.0
  7
KANJI45
  0
TEXT
  8
0
  6
CONTINUOUS
 62
     2
 10
1602.25
 20
1058.5
 30
9.958
 40
17.5
  1
過負荷安全装置
 50
0.0
 41
0.9
 51
0.0
  7
KANJI46
  0
TEXT
  8
0
  6
CONTINUOUS
 62
     2
 10
1627.25
 20
1308.0
 30
14.2497
 40
22.5
  1
マイティシリンダ仕様
 50
0.0
 41
0.9
 51
0.0
  7
KANJI47
  0
TEXT
  8
0
  6
CONTINUOUS
 62
     2
 10
1627.25
 20
988.5
 30
15.3125
 40
17.5
  1
出力　極数
 50
0.0
 41
0.9
 51
0.0
  7
KANJI48
  0
TEXT
  8
0
  6
CONTINUOUS
 62
     2
 10
1627.25
 20
953.5
 30
25.6665
 40
17.5
  1
電源電圧
 50
0.0
 41
0.9
 51
0.0
  7
KANJI49
  0
TEXT
  8
0
  6
CONTINUOUS
 62
     2
 10
1627.25
 20
918.5
 30
46.375
 40
17.5
  1
周波数
 50
0.0
 41
0.9
 51
0.0
  7
KANJI50
  0
TEXT
  8
0
  6
CONTINUOUS
 62
     2
 10
1627.25
 20
848.5
 30
46.375
 40
17.5
  1
絶縁級
 50
0.0
 41
0.9
 51
0.0
  7
KANJI50
  0
TEXT
  8
0
  6
CONTINUOUS
 62
     2
 10
1627.25
 20
883.5
 30
108.5
 40
17.5
  1
電流
 50
0.0
 41
0.9
 51
0.0
  7
KANJI51
  0
TEXT
  8
0
  6
CONTINUOUS
 62
     2
 10
1627.25
 20
778.5
 30
108.5
 40
17.5
  1
形式
 50
0.0
 41
0.9
 51
0.0
  7
KANJI51
  0
TEXT
  8
0
  6
CONTINUOUS
 62
     2
 10
1627.25
 20
743.5
 30
25.6665
 40
17.5
  1
操作方式
 50
0.0
 41
0.9
 51
0.0
  7
KANJI49
  0
TEXT
  8
0
  6
CONTINUOUS
 62
     2
 10
1587.25
 20
1128.5
 30
1.5
 40
17.5
  1
ピストンロッド回転トルク
 50
0.0
 41
0.9
 51
0.0
  7
KANJI52
  0
TEXT
  8
0
  6
CONTINUOUS
 62
     2
 10
1585.125
 20
992.0
 30
11.0
 40
17.5
  1
モ　トル仕様
 50
0.0
 41
0.9
 51
0.0
  7
KANJI53
  0
TEXT
  8
0
  6
CONTINUOUS
 62
     2
 10
1584.0
 20
802.0
 30
0.857142857
 40
15.0
  1
ブレ　キ
 50
0.0
 41
0.9
 51
0.0
  7
KANJI54
  0
LINE
  8
0
  6
CONTINUOUS
 62
     2
 10
1583.75
 20
767.5
 30
0.0
 11
1583.75
 21
757.0
 31
0.0
  0
LINE
  8
0
  6
CONTINUOUS
 62
     2
 10
1583.75
 20
964.0
 30
0.0
 11
1583.75
 21
952.5
 31
0.0
  0
TEXT
  8
0
  6
CONTINUOUS
 62
     2
 10
1939.75
 20
1167.0
 30
0.1
 40
12.5
  1
ｍｍ／ｓｅｃ
 50
0.0
 41
0.8
 51
0.0
  7
KANJI55
  0
TEXT
  8
0
  6
CONTINUOUS
 62
     2
 10
1977.25
 20
1200.5
 30
0.1
 40
12.5
  1
ｍｍ
 50
0.0
 41
0.8
 51
0.0
  7
KANJI55
  0
TEXT
  8
0
  6
CONTINUOUS
 62
     2
 10
1984.25
 20
988.5
 30
10.982142857
 40
15.0
  1
Ｐ
 50
0.0
 41
0.9
 51
0.0
  7
KANJI56
  0
TEXT
  8
0
  6
CONTINUOUS
 62
     2
 10
1901.25
 20
988.5
 30
1.0
 40
15.0
  1
ＫＷ
 50
0.0
 41
0.857142857
 51
0.0
  7
KANJI57
  0
TEXT
  8
0
  6
CONTINUOUS
 62
     2
 10
1959.25
 20
988.5
 30
12.8125
 40
17.5
  1
４
 50
0.0
 41
0.9
 51
0.0
  7
KANJI58
  0
TEXT
  8
0
  6
CONTINUOUS
 62
     2
 10
1823.75
 20
1025.0
 30
0.5
 40
14.0
  1
マンセル
 50
0.0
 41
0.9
 51
0.0
  7
KANJI59
  0
TEXT
  8
0
  6
CONTINUOUS
 62
     2
 10
1882.25
 20
1026.0
 30
0.2
 40
14.0
  1
７．５ＧＹ５／４．５
 50
0.0
 41
0.785714286
 51
0.0
  7
KANJI60
  0
TEXT
  8
0
  6
CONTINUOUS
 62
     2
 10
1819.75
 20
779.0
 30
1.5
 40
14.0
  1
スプリング制動式電磁ブレーキ
 50
0.0
 41
0.8
 51
0.0
  7
KANJI61
  0
TEXT
  8
0
  6
CONTINUOUS
 62
     2
 10
1854.75
 20
743.5
 30
10.0
 40
17.5
  1
同時切り
 50
0.0
 41
0.9
 51
0.0
  7
KANJI62
  0
TEXT
  8
0
  6
CONTINUOUS
 62
     2
 10
1984.75
 20
953.5
 30
0.18
 40
15.0
  1
Ｖ
 50
0.0
 41
0.8
 51
0.0
  7
KANJI63
  0
TEXT
  8
0
  6
CONTINUOUS
 62
     2
 10
1975.75
 20
918.5
 30
0.18
 40
15.0
  1
Ｈｚ
 50
0.0
 41
0.8
 51
0.0
  7
KANJI63
  0
TEXT
  8
0
  6
CONTINUOUS
 62
     2
 10
1985.875
 20
884.625
 30
1.5
 40
15.0
  1
Ａ
 50
0.0
 41
0.9
 51
0.0
  7
KANJI64
  0
TEXT
  8
0
  6
CONTINUOUS
 62
     2
 10
1907.125
 20
850.875
 30
1.5
 40
15.0
  1
Ｅ
 50
0.0
 41
0.9
 51
0.0
  7
KANJI64
  0
LINE
  8
0
  6
CONTINUOUS
 62
     2
 10
1564.75
 20
734.5
 30
0.0
 11
2002.25
 21
734.5
 31
0.0
  0
LINE
  8
0
  6
CONTINUOUS
 62
     2
 10
1564.75
 20
1014.5
 30
0.0
 11
2002.25
 21
1014.5
 31
0.0
  0
LINE
  8
0
  6
CONTINUOUS
 62
     2
 10
1564.75
 20
804.5
 30
0.0
 11
2002.25
 21
804.5
 31
0.0
  0
LINE
  8
0
  6
CONTINUOUS
 62
     2
 10
1604.75
 20
769.5
 30
0.0
 11
2002.25
 21
769.5
 31
0.0
  0
LINE
  8
0
  6
CONTINUOUS
 62
     2
 10
1604.75
 20
839.5
 30
0.0
 11
2002.25
 21
839.5
 31
0.0
  0
LINE
  8
0
  6
CONTINUOUS
 62
     2
 10
1604.75
 20
874.5
 30
0.0
 11
2002.25
 21
874.5
 31
0.0
  0
LINE
  8
0
  6
CONTINUOUS
 62
     2
 10
1604.75
 20
944.5
 30
0.0
 11
2002.25
 21
944.5
 31
0.0
  0
LINE
  8
0
  6
CONTINUOUS
 62
     2
 10
1604.75
 20
909.5
 30
0.0
 11
2002.25
 21
909.5
 31
0.0
  0
LINE
  8
0
  6
CONTINUOUS
 62
     2
 10
1604.75
 20
979.5
 30
0.0
 11
2002.25
 21
979.5
 31
0.0
  0
LINE
  8
0
  6
CONTINUOUS
 62
     2
 10
1564.75
 20
1294.5
 30
0.0
 11
2002.25
 21
1294.5
 31
0.0
  0
LINE
  8
0
  6
CONTINUOUS
 62
     2
 10
1564.75
 20
1259.5
 30
0.0
 11
2002.25
 21
1259.5
 31
0.0
  0
LINE
  8
0
  6
CONTINUOUS
 62
     2
 10
1564.75
 20
1224.5
 30
0.0
 11
2002.25
 21
1224.5
 31
0.0
  0
LINE
  8
0
  6
CONTINUOUS
 62
     2
 10
1564.75
 20
1189.5
 30
0.0
 11
2002.25
 21
1189.5
 31
0.0
  0
LINE
  8
0
  6
CONTINUOUS
 62
     2
 10
1564.75
 20
1154.5
 30
0.0
 11
2002.25
 21
1154.5
 31
0.0
  0
LINE
  8
0
  6
CONTINUOUS
 62
     2
 10
1564.75
 20
1119.5
 30
0.0
 11
2002.25
 21
1119.5
 31
0.0
  0
LINE
  8
0
  6
CONTINUOUS
 62
     2
 10
1564.75
 20
1084.5
 30
0.0
 11
2002.25
 21
1084.5
 31
0.0
  0
LINE
  8
0
  6
CONTINUOUS
 62
     2
 10
1564.75
 20
1049.5
 30
0.0
 11
2002.25
 21
1049.5
 31
0.0
  0
LINE
  8
0
  6
CONTINUOUS
 62
     2
 10
1604.75
 20
1014.5
 30
0.0
 11
1604.75
 21
734.5
 31
0.0
  0
LINE
  8
0
  6
CONTINUOUS
 62
     1
 10
1564.75
 20
1344.5
 30
0.0
 11
2002.25
 21
1344.5
 31
0.0
  0
LINE
  8
0
  6
CONTINUOUS
 62
     2
 10
1564.75
 20
699.5
 30
0.0
 11
2002.25
 21
699.5
 31
0.0
  0
TEXT
  8
0
  6
CONTINUOUS
 62
     2
 10
1862.75
 20
954.0
 30
1.5
 40
15.0
  1
　　　／　
 50
0.0
 41
0.9
 51
0.0
  7
KANJI64
  0
TEXT
  8
0
  6
CONTINUOUS
 62
     2
 10
1877.125
 20
918.375
 30
1.5
 40
15.0
  1
　５０／６０
 50
0.0
 41
0.9
 51
0.0
  7
KANJI64
  0
TEXT
  8
0
  6
CONTINUOUS
 62
     2
 10
1843.375
 20
989.625
 30
1.5
 40
15.0
  1
０．３
 50
0.0
 41
0.9
 51
0.0
  7
KANJI64
  0
TEXT
  8
0
  6
CONTINUOUS
 62
     2
 10
1844.25
 20
1233.5
 30
1.5
 40
15.0
  1
９８０Ｎ（１００ｋｇ）
 50
0.0
 41
0.9
 51
0.0
  7
KANJI64
  0
TEXT
  8
0
  6
CONTINUOUS
 62
     2
 10
1602.25
 20
1163.5
 30
5.0
 40
17.5
  1
公称速度（５０／６０Ｈｚ）
 50
0.0
 41
0.9
 51
0.0
  7
KANJI65
  0
TEXT
  8
0
  6
CONTINUOUS
 62
     2
 10
1851.75
 20
1094.0
 30
12.8125
 40
17.5
  1
全閉屋内形
 50
0.0
 41
0.9
 51
0.0
  7
KANJI58
  0
TEXT
  8
0
  6
CONTINUOUS
 62
     2
 10
1820.75
 20
1267.625
 30
1.0
 40
15.0
  1
ＭＣＥＤＢＢ０１－　　
 50
0.0
 41
0.833333333
 51
0.0
  7
KANJI66
  0
TEXT
  8
0
  6
CONTINUOUS
 62
     2
 10
1832.125
 20
1163.375
 30
1.5
 40
15.0
  1
　７５／９０
 50
0.0
 41
0.9
 51
0.0
  7
KANJI64
  0
LINE
  8
0
  6
CONTINUOUS
 62
     2
 10
1888.0
 20
1064.0
 30
0.0
 11
1913.0
 21
1064.0
 31
0.0
  0
LINE
  8
0
  6
CONTINUOUS
 62
     1
 10
1564.75
 20
629.5
 30
0.0
 11
2002.25
 21
629.5
 31
0.0
  0
LINE
  8
0
  6
CONTINUOUS
 62
     2
 10
1814.75
 20
1294.5
 30
0.0
 11
1814.75
 21
629.5
 31
0.0
  0
LINE
  8
0
  6
CONTINUOUS
 62
     1
 10
1564.75
 20
1344.5
 30
0.0
 11
1564.75
 21
629.5
 31
0.0
  0
LINE
  8
0
  6
CONTINUOUS
 62
     2
 10
1564.75
 20
664.5
 30
0.0
 11
2002.25
 21
664.5
 31
0.0
  0
TEXT
  8
0
  6
CONTINUOUS
 62
     2
 10
1602.25
 20
638.5
 30
5.0
 40
17.5
  1
概算重量（１台当り）
 50
0.0
 41
0.857142857
 51
0.0
  7
KANJI16
  0
TEXT
  8
0
  6
CONTINUOUS
 62
     2
 10
1956.25
 20
639.65
 30
0.0
 40
17.5
  1
ｋｇ
 50
0.0
 41
0.9
 51
0.0
  7
KANJI67
  0
TEXT
  8
0
  6
CONTINUOUS
 62
     2
 10
1822.875
 20
1128.375
 30
0.0
 40
15.0
  1
２．９Ｎ・ｍ（０．３ｋｇ・ｍ）
 50
0.0
 41
0.833333333
 51
0.0
  7
KANJI68
  0
ENDSEC
  0
EOF
