  0
SECTION
  2
HEADER
  9
$ACADVER
  1
AC1009
  9
$DWGCODEPAGE
  3
dos932
  9
$EXTMIN
 10
0.0
 20
0.0
 30
0.0
  9
$EXTMAX
 10
2100.0
 20
1485.0
 30
0.0
  9
$LIMMIN
 10
0.0
 20
0.0
  9
$LIMMAX
 10
2100.0
 20
1485.0
  9
$LTSCALE
 40
1.0
  9
$PDMODE
 70
     0
  0
ENDSEC
  0
SECTION
  2
TABLES
  0
TABLE
  2
VPORT
 70
     1
  0
VPORT
  2
*ACTIVE
 70
     0
 10
0.0
 20
0.0
 11
1.0
 21
1.0
 12
1050.0
 22
742.5
 13
0.0
 23
0.0
 14
10.0
 24
10.0
 15
10.0
 25
10.0
 16
0.0
 26
0.0
 36
1.0
 17
0.0
 27
0.0
 37
0.0
 40
2100.0
 41
1.414141414
 42
50.0
 43
0.0
 44
0.0
 50
0.0
 51
0.0
 71
     0
 72
  1000
 73
     1
 74
     3
 75
     0
 76
     0
 77
     0
 78
     0
  0
ENDTAB
  0
TABLE
  2
LTYPE
 70
     5
  0
LTYPE
  2
CONTINUOUS
 70
    64
  3
Solid line
 72
    65
 73
     0
 40
0.0
  0
LTYPE
  2
LTYPE1
 70
    64
  3
HIDDEN
 72
    65
 73
     2
 40
15.0
 49
9.0
 49
-6.0
  0
LTYPE
  2
LTYPE2
 70
    64
  3
CENTER
 72
    65
 73
     4
 40
50.0
 49
35.0
 49
-5.0
 49
5.0
 49
-5.0
  0
LTYPE
  2
LTYPE3
 70
    64
  3
CENTER
 72
    65
 73
     4
 40
75.0
 49
52.5
 49
-7.5
 49
7.5
 49
-7.5
  0
LTYPE
  2
LTYPE4
 70
    64
  3
CENTER
 72
    65
 73
     4
 40
100.0
 49
70.0
 49
-10.0
 49
10.0
 49
-10.0
  0
ENDTAB
  0
TABLE
  2
LAYER
 70
   128
  0
LAYER
  2
0
 70
     0
 62
     7
  6
CONTINUOUS
  0
LAYER
  2
2
 70
     0
 62
     7
  6
CONTINUOUS
  0
LAYER
  2
3
 70
     0
 62
     7
  6
CONTINUOUS
  0
LAYER
  2
4
 70
     0
 62
     7
  6
CONTINUOUS
  0
LAYER
  2
5
 70
     0
 62
     7
  6
CONTINUOUS
  0
LAYER
  2
6
 70
     0
 62
     7
  6
CONTINUOUS
  0
LAYER
  2
7
 70
     0
 62
     7
  6
CONTINUOUS
  0
LAYER
  2
8
 70
     0
 62
     7
  6
CONTINUOUS
  0
LAYER
  2
9
 70
     0
 62
     7
  6
CONTINUOUS
  0
LAYER
  2
10
 70
     0
 62
     7
  6
CONTINUOUS
  0
LAYER
  2
11
 70
     0
 62
     7
  6
CONTINUOUS
  0
LAYER
  2
12
 70
     0
 62
     7
  6
CONTINUOUS
  0
LAYER
  2
13
 70
     0
 62
     7
  6
CONTINUOUS
  0
LAYER
  2
14
 70
     0
 62
     7
  6
CONTINUOUS
  0
LAYER
  2
15
 70
     0
 62
     7
  6
CONTINUOUS
  0
LAYER
  2
16
 70
     0
 62
     7
  6
CONTINUOUS
  0
LAYER
  2
17
 70
     0
 62
     7
  6
CONTINUOUS
  0
LAYER
  2
18
 70
     0
 62
     7
  6
CONTINUOUS
  0
LAYER
  2
19
 70
     0
 62
     7
  6
CONTINUOUS
  0
LAYER
  2
20
 70
     0
 62
     7
  6
CONTINUOUS
  0
LAYER
  2
21
 70
     0
 62
     7
  6
CONTINUOUS
  0
LAYER
  2
22
 70
     0
 62
     7
  6
CONTINUOUS
  0
LAYER
  2
23
 70
     0
 62
     7
  6
CONTINUOUS
  0
LAYER
  2
24
 70
     0
 62
     7
  6
CONTINUOUS
  0
LAYER
  2
25
 70
     0
 62
     7
  6
CONTINUOUS
  0
LAYER
  2
26
 70
     0
 62
     7
  6
CONTINUOUS
  0
LAYER
  2
27
 70
     0
 62
     7
  6
CONTINUOUS
  0
LAYER
  2
28
 70
     0
 62
     7
  6
CONTINUOUS
  0
LAYER
  2
29
 70
     0
 62
     7
  6
CONTINUOUS
  0
LAYER
  2
30
 70
     0
 62
     7
  6
CONTINUOUS
  0
LAYER
  2
31
 70
     0
 62
     7
  6
CONTINUOUS
  0
LAYER
  2
32
 70
     0
 62
     7
  6
CONTINUOUS
  0
LAYER
  2
33
 70
     0
 62
     7
  6
CONTINUOUS
  0
LAYER
  2
34
 70
     0
 62
     7
  6
CONTINUOUS
  0
LAYER
  2
35
 70
     0
 62
     7
  6
CONTINUOUS
  0
LAYER
  2
36
 70
     0
 62
     7
  6
CONTINUOUS
  0
LAYER
  2
37
 70
     0
 62
     7
  6
CONTINUOUS
  0
LAYER
  2
38
 70
     0
 62
     7
  6
CONTINUOUS
  0
LAYER
  2
39
 70
     0
 62
     7
  6
CONTINUOUS
  0
LAYER
  2
40
 70
     0
 62
     7
  6
CONTINUOUS
  0
LAYER
  2
41
 70
     0
 62
     7
  6
CONTINUOUS
  0
LAYER
  2
42
 70
     0
 62
     7
  6
CONTINUOUS
  0
LAYER
  2
43
 70
     0
 62
     7
  6
CONTINUOUS
  0
LAYER
  2
44
 70
     0
 62
     7
  6
CONTINUOUS
  0
LAYER
  2
45
 70
     0
 62
     7
  6
CONTINUOUS
  0
LAYER
  2
46
 70
     0
 62
     7
  6
CONTINUOUS
  0
LAYER
  2
47
 70
     0
 62
     7
  6
CONTINUOUS
  0
LAYER
  2
48
 70
     0
 62
     7
  6
CONTINUOUS
  0
LAYER
  2
49
 70
     0
 62
     7
  6
CONTINUOUS
  0
LAYER
  2
50
 70
     0
 62
     7
  6
CONTINUOUS
  0
LAYER
  2
51
 70
     0
 62
     7
  6
CONTINUOUS
  0
LAYER
  2
52
 70
     0
 62
     7
  6
CONTINUOUS
  0
LAYER
  2
53
 70
     0
 62
     7
  6
CONTINUOUS
  0
LAYER
  2
54
 70
     0
 62
     7
  6
CONTINUOUS
  0
LAYER
  2
55
 70
     0
 62
     7
  6
CONTINUOUS
  0
LAYER
  2
56
 70
     0
 62
     7
  6
CONTINUOUS
  0
LAYER
  2
57
 70
     0
 62
     7
  6
CONTINUOUS
  0
LAYER
  2
58
 70
     0
 62
     7
  6
CONTINUOUS
  0
LAYER
  2
59
 70
     0
 62
     7
  6
CONTINUOUS
  0
LAYER
  2
60
 70
     0
 62
     7
  6
CONTINUOUS
  0
LAYER
  2
61
 70
     0
 62
     7
  6
CONTINUOUS
  0
LAYER
  2
62
 70
     0
 62
     7
  6
CONTINUOUS
  0
LAYER
  2
63
 70
     0
 62
     7
  6
CONTINUOUS
  0
LAYER
  2
64
 70
     0
 62
     7
  6
CONTINUOUS
  0
LAYER
  2
65
 70
     0
 62
     7
  6
CONTINUOUS
  0
LAYER
  2
66
 70
     0
 62
     7
  6
CONTINUOUS
  0
LAYER
  2
67
 70
     0
 62
     7
  6
CONTINUOUS
  0
LAYER
  2
68
 70
     0
 62
     7
  6
CONTINUOUS
  0
LAYER
  2
69
 70
     0
 62
     7
  6
CONTINUOUS
  0
LAYER
  2
70
 70
     0
 62
     7
  6
CONTINUOUS
  0
LAYER
  2
71
 70
     0
 62
     7
  6
CONTINUOUS
  0
LAYER
  2
72
 70
     0
 62
     7
  6
CONTINUOUS
  0
LAYER
  2
73
 70
     0
 62
     7
  6
CONTINUOUS
  0
LAYER
  2
74
 70
     0
 62
     7
  6
CONTINUOUS
  0
LAYER
  2
75
 70
     0
 62
     7
  6
CONTINUOUS
  0
LAYER
  2
76
 70
     0
 62
     7
  6
CONTINUOUS
  0
LAYER
  2
77
 70
     0
 62
     7
  6
CONTINUOUS
  0
LAYER
  2
78
 70
     0
 62
     7
  6
CONTINUOUS
  0
LAYER
  2
79
 70
     0
 62
     7
  6
CONTINUOUS
  0
LAYER
  2
80
 70
     0
 62
     7
  6
CONTINUOUS
  0
LAYER
  2
81
 70
     0
 62
     7
  6
CONTINUOUS
  0
LAYER
  2
82
 70
     0
 62
     7
  6
CONTINUOUS
  0
LAYER
  2
83
 70
     0
 62
     7
  6
CONTINUOUS
  0
LAYER
  2
84
 70
     0
 62
     7
  6
CONTINUOUS
  0
LAYER
  2
85
 70
     0
 62
     7
  6
CONTINUOUS
  0
LAYER
  2
86
 70
     0
 62
     7
  6
CONTINUOUS
  0
LAYER
  2
87
 70
     0
 62
     7
  6
CONTINUOUS
  0
LAYER
  2
88
 70
     0
 62
     7
  6
CONTINUOUS
  0
LAYER
  2
89
 70
     0
 62
     7
  6
CONTINUOUS
  0
LAYER
  2
90
 70
     0
 62
     7
  6
CONTINUOUS
  0
LAYER
  2
91
 70
     0
 62
     7
  6
CONTINUOUS
  0
LAYER
  2
92
 70
     0
 62
     7
  6
CONTINUOUS
  0
LAYER
  2
93
 70
     0
 62
     7
  6
CONTINUOUS
  0
LAYER
  2
94
 70
     0
 62
     7
  6
CONTINUOUS
  0
LAYER
  2
95
 70
     0
 62
     7
  6
CONTINUOUS
  0
LAYER
  2
96
 70
     0
 62
     7
  6
CONTINUOUS
  0
LAYER
  2
97
 70
     0
 62
     7
  6
CONTINUOUS
  0
LAYER
  2
98
 70
     0
 62
     7
  6
CONTINUOUS
  0
LAYER
  2
99
 70
     0
 62
     7
  6
CONTINUOUS
  0
LAYER
  2
100
 70
     0
 62
     7
  6
CONTINUOUS
  0
LAYER
  2
101
 70
     0
 62
     7
  6
CONTINUOUS
  0
LAYER
  2
102
 70
     0
 62
     7
  6
CONTINUOUS
  0
LAYER
  2
103
 70
     0
 62
     7
  6
CONTINUOUS
  0
LAYER
  2
104
 70
     0
 62
     7
  6
CONTINUOUS
  0
LAYER
  2
105
 70
     0
 62
     7
  6
CONTINUOUS
  0
LAYER
  2
106
 70
     0
 62
     7
  6
CONTINUOUS
  0
LAYER
  2
107
 70
     0
 62
     7
  6
CONTINUOUS
  0
LAYER
  2
108
 70
     0
 62
     7
  6
CONTINUOUS
  0
LAYER
  2
109
 70
     0
 62
     7
  6
CONTINUOUS
  0
LAYER
  2
110
 70
     0
 62
     7
  6
CONTINUOUS
  0
LAYER
  2
111
 70
     0
 62
     7
  6
CONTINUOUS
  0
LAYER
  2
112
 70
     0
 62
     7
  6
CONTINUOUS
  0
LAYER
  2
113
 70
     0
 62
     7
  6
CONTINUOUS
  0
LAYER
  2
114
 70
     0
 62
     7
  6
CONTINUOUS
  0
LAYER
  2
115
 70
     0
 62
     7
  6
CONTINUOUS
  0
LAYER
  2
116
 70
     0
 62
     7
  6
CONTINUOUS
  0
LAYER
  2
117
 70
     0
 62
     7
  6
CONTINUOUS
  0
LAYER
  2
118
 70
     0
 62
     7
  6
CONTINUOUS
  0
LAYER
  2
119
 70
     0
 62
     7
  6
CONTINUOUS
  0
LAYER
  2
120
 70
     0
 62
     7
  6
CONTINUOUS
  0
LAYER
  2
121
 70
     0
 62
     7
  6
CONTINUOUS
  0
LAYER
  2
122
 70
     0
 62
     7
  6
CONTINUOUS
  0
LAYER
  2
123
 70
     0
 62
     7
  6
CONTINUOUS
  0
LAYER
  2
124
 70
     0
 62
     7
  6
CONTINUOUS
  0
LAYER
  2
125
 70
     0
 62
     7
  6
CONTINUOUS
  0
LAYER
  2
126
 70
     0
 62
     7
  6
CONTINUOUS
  0
LAYER
  2
127
 70
     0
 62
     7
  6
CONTINUOUS
  0
LAYER
  2
128
 70
     0
 62
     7
  6
CONTINUOUS
  0
ENDTAB
  0
TABLE
  2
STYLE
 70
    75
  0
STYLE
  2
STANDARD
 70
     0
 40
0.0
 41
1.0
 50
0.0
 71
     0
 42
0.2
  3
txt.shx
  4
extfont.shx
  0
STYLE
  2
KANJI0
 70
     0
 40
9.999997897
 41
0.6
 50
0.0
 71
     0
 42
9.999997897
  3
txt.shx
  4
extfont.shx
  0
STYLE
  2
KANJI1
 70
     0
 40
11.999997477
 41
0.9
 50
0.0
 71
     0
 42
11.999997477
  3
txt.shx
  4
extfont.shx
  0
STYLE
  2
KANJI2
 70
     0
 40
14.999996846
 41
0.9
 50
0.0
 71
     0
 42
14.999996846
  3
txt.shx
  4
extfont.shx
  0
STYLE
  2
KANJI3
 70
     0
 40
12.999999
 41
0.75
 50
0.0
 71
     0
 42
12.999999
  3
txt.shx
  4
extfont.shx
  0
STYLE
  2
KANJI4
 70
     0
 40
8.666666
 41
0.6
 50
0.0
 71
     0
 42
8.666666
  3
txt.shx
  4
extfont.shx
  0
STYLE
  2
KANJI5
 70
     0
 40
10.3999992
 41
0.6
 50
0.0
 71
     0
 42
10.3999992
  3
txt.shx
  4
extfont.shx
  0
STYLE
  2
KANJI6
 70
     0
 40
15.1666655
 41
0.42031746
 50
0.0
 71
     0
 42
15.1666655
  3
txt.shx
  4
extfont.shx
  0
STYLE
  2
KANJI7
 70
     0
 40
25.999998
 41
0.9
 50
0.0
 71
     0
 42
25.999998
  3
txt.shx
  4
extfont.shx
  0
STYLE
  2
KANJI8
 70
     0
 40
8.666666
 41
0.8
 50
0.0
 71
     0
 42
8.666666
  3
txt.shx
  4
extfont.shx
  0
STYLE
  2
KANJI9
 70
     0
 40
10.3999992
 41
0.8
 50
0.0
 71
     0
 42
10.3999992
  3
txt.shx
  4
extfont.shx
  0
STYLE
  2
KANJI10
 70
     0
 40
25.0
 41
1.0
 50
0.0
 71
     0
 42
25.0
  3
txt.shx
  4
extfont.shx
  0
STYLE
  2
KANJI11
 70
     0
 40
25.0
 41
1.0
 50
0.0
 71
     0
 42
25.0
  3
txt.shx
  4
extfont.shx
  0
STYLE
  2
KANJI12
 70
     0
 40
25.0
 41
0.8
 50
0.0
 71
     0
 42
25.0
  3
txt.shx
  4
extfont.shx
  0
STYLE
  2
KANJI13
 70
     0
 40
20.0
 41
1.0
 50
0.0
 71
     0
 42
20.0
  3
txt.shx
  4
extfont.shx
  0
STYLE
  2
KANJI14
 70
     0
 40
17.5
 41
0.857142857
 50
0.0
 71
     0
 42
17.5
  3
txt.shx
  4
extfont.shx
  0
STYLE
  2
KANJI15
 70
     0
 40
22.5
 41
0.666666667
 50
0.0
 71
     0
 42
22.5
  3
txt.shx
  4
extfont.shx
  0
STYLE
  2
KANJI16
 70
     0
 40
18.0
 41
1.111111111
 50
0.0
 71
     0
 42
18.0
  3
txt.shx
  4
extfont.shx
  0
STYLE
  2
KANJI17
 70
     0
 40
12.8
 41
0.9
 50
0.0
 71
     0
 42
12.8
  3
txt.shx
  4
extfont.shx
  0
STYLE
  2
KANJI18
 70
     0
 40
12.0
 41
0.9
 50
0.0
 71
     0
 42
12.0
  3
txt.shx
  4
extfont.shx
  0
STYLE
  2
KANJI19
 70
     0
 40
12.0
 41
0.9
 50
0.0
 71
     0
 42
12.0
  3
txt.shx
  4
extfont.shx
  0
STYLE
  2
KANJI20
 70
     0
 40
14.0
 41
0.9
 50
0.0
 71
     0
 42
14.0
  3
txt.shx
  4
extfont.shx
  0
STYLE
  2
KANJI21
 70
     0
 40
10.8
 41
0.740740741
 50
0.0
 71
     0
 42
10.8
  3
txt.shx
  4
extfont.shx
  0
STYLE
  2
KANJI22
 70
     0
 40
14.0
 41
0.857142857
 50
0.0
 71
     0
 42
14.0
  3
txt.shx
  4
extfont.shx
  0
STYLE
  2
KANJI23
 70
     0
 40
15.0
 41
1.0
 50
0.0
 71
     0
 42
15.0
  3
txt.shx
  4
extfont.shx
  0
STYLE
  2
KANJI24
 70
     0
 40
12.0
 41
0.833333333
 50
0.0
 71
     0
 42
12.0
  3
txt.shx
  4
extfont.shx
  0
STYLE
  2
KANJI25
 70
     0
 40
17.5
 41
0.793650794
 50
0.0
 71
     0
 42
17.5
  3
txt.shx
  4
extfont.shx
  0
STYLE
  2
KANJI26
 70
     0
 40
25.0
 41
0.8
 50
0.0
 71
     0
 42
25.0
  3
txt.shx
  4
extfont.shx
  0
STYLE
  2
KANJI27
 70
     0
 40
11.55
 41
0.9
 50
0.0
 71
     0
 42
11.55
  3
txt.shx
  4
extfont.shx
  0
STYLE
  2
KANJI28
 70
     0
 40
20.0
 41
0.9
 50
0.0
 71
     0
 42
20.0
  3
txt.shx
  4
extfont.shx
  0
STYLE
  2
KANJI29
 70
     0
 40
18.0
 41
0.857142857
 50
0.0
 71
     0
 42
18.0
  3
txt.shx
  4
extfont.shx
  0
STYLE
  2
KANJI30
 70
     0
 40
18.0
 41
0.857222222
 50
0.0
 71
     0
 42
18.0
  3
txt.shx
  4
extfont.shx
  0
STYLE
  2
KANJI31
 70
     0
 40
15.0
 41
0.9
 50
0.0
 71
     0
 42
15.0
  3
txt.shx
  4
extfont.shx
  0
STYLE
  2
KANJI32
 70
     0
 40
20.0
 41
0.925
 50
0.0
 71
     0
 42
20.0
  3
txt.shx
  4
extfont.shx
  0
STYLE
  2
KANJI33
 70
     0
 40
15.185977837
 41
0.66671875
 50
0.0
 71
     0
 42
15.185977837
  3
txt.shx
  4
extfont.shx
  0
STYLE
  2
KANJI34
 70
     0
 40
18.223173404
 41
0.9
 50
0.0
 71
     0
 42
18.223173404
  3
txt.shx
  4
extfont.shx
  0
STYLE
  2
KANJI35
 70
     0
 40
15.6
 41
0.925
 50
0.0
 71
     0
 42
15.6
  3
txt.shx
  4
extfont.shx
  0
STYLE
  2
KANJI36
 70
     0
 40
14.578538724
 41
0.9
 50
0.0
 71
     0
 42
14.578538724
  3
txt.shx
  4
extfont.shx
  0
STYLE
  2
KANJI37
 70
     0
 40
10.933904043
 41
0.9
 50
0.0
 71
     0
 42
10.933904043
  3
txt.shx
  4
extfont.shx
  0
STYLE
  2
KANJI38
 70
     0
 40
20.0
 41
0.925
 50
0.0
 71
     0
 42
20.0
  3
txt.shx
  4
extfont.shx
  0
STYLE
  2
KANJI39
 70
     0
 40
13.475
 41
0.9
 50
0.0
 71
     0
 42
13.475
  3
txt.shx
  4
extfont.shx
  0
STYLE
  2
KANJI40
 70
     0
 40
8.333333333
 41
0.85
 50
0.0
 71
     0
 42
8.333333333
  3
txt.shx
  4
extfont.shx
  0
STYLE
  2
KANJI41
 70
     0
 40
8.333333333
 41
0.75
 50
0.0
 71
     0
 42
8.333333333
  3
txt.shx
  4
extfont.shx
  0
STYLE
  2
KANJI42
 70
     0
 40
12.5
 41
0.9
 50
0.0
 71
     0
 42
12.5
  3
txt.shx
  4
extfont.shx
  0
STYLE
  2
KANJI43
 70
     0
 40
8.4
 41
0.9
 50
0.0
 71
     0
 42
8.4
  3
txt.shx
  4
extfont.shx
  0
STYLE
  2
KANJI44
 70
     0
 40
12.0
 41
0.9
 50
0.0
 71
     0
 42
12.0
  3
txt.shx
  4
extfont.shx
  0
STYLE
  2
KANJI45
 70
     0
 40
12.8
 41
0.84375
 50
0.0
 71
     0
 42
12.8
  3
txt.shx
  4
extfont.shx
  0
STYLE
  2
KANJI46
 70
     0
 40
17.5
 41
0.9
 50
0.0
 71
     0
 42
17.5
  3
txt.shx
  4
extfont.shx
  0
STYLE
  2
KANJI47
 70
     0
 40
17.5
 41
0.9
 50
0.0
 71
     0
 42
17.5
  3
txt.shx
  4
extfont.shx
  0
STYLE
  2
KANJI48
 70
     0
 40
17.5
 41
0.9
 50
0.0
 71
     0
 42
17.5
  3
txt.shx
  4
extfont.shx
  0
STYLE
  2
KANJI49
 70
     0
 40
17.5
 41
0.9
 50
0.0
 71
     0
 42
17.5
  3
txt.shx
  4
extfont.shx
  0
STYLE
  2
KANJI50
 70
     0
 40
22.5
 41
0.9
 50
0.0
 71
     0
 42
22.5
  3
txt.shx
  4
extfont.shx
  0
STYLE
  2
KANJI51
 70
     0
 40
17.5
 41
0.9
 50
0.0
 71
     0
 42
17.5
  3
txt.shx
  4
extfont.shx
  0
STYLE
  2
KANJI52
 70
     0
 40
17.5
 41
0.9
 50
0.0
 71
     0
 42
17.5
  3
txt.shx
  4
extfont.shx
  0
STYLE
  2
KANJI53
 70
     0
 40
17.5
 41
0.9
 50
0.0
 71
     0
 42
17.5
  3
txt.shx
  4
extfont.shx
  0
STYLE
  2
KANJI54
 70
     0
 40
17.5
 41
0.9
 50
0.0
 71
     0
 42
17.5
  3
txt.shx
  4
extfont.shx
  0
STYLE
  2
KANJI55
 70
     0
 40
17.5
 41
0.9
 50
0.0
 71
     0
 42
17.5
  3
txt.shx
  4
extfont.shx
  0
STYLE
  2
KANJI56
 70
     4
 40
17.5
 41
0.9
 50
0.0
 71
     0
 42
17.5
  3
txt.shx
  4
extfont.shx
  0
STYLE
  2
KANJI57
 70
     4
 40
15.0
 41
0.9
 50
0.0
 71
     0
 42
15.0
  3
txt.shx
  4
extfont.shx
  0
STYLE
  2
KANJI58
 70
     0
 40
12.5
 41
0.8
 50
0.0
 71
     0
 42
12.5
  3
txt.shx
  4
extfont.shx
  0
STYLE
  2
KANJI59
 70
     0
 40
15.0
 41
0.9
 50
0.0
 71
     0
 42
15.0
  3
txt.shx
  4
extfont.shx
  0
STYLE
  2
KANJI60
 70
     0
 40
15.0
 41
0.857142857
 50
0.0
 71
     0
 42
15.0
  3
txt.shx
  4
extfont.shx
  0
STYLE
  2
KANJI61
 70
     0
 40
17.5
 41
0.9
 50
0.0
 71
     0
 42
17.5
  3
txt.shx
  4
extfont.shx
  0
STYLE
  2
KANJI62
 70
     0
 40
14.0
 41
0.9
 50
0.0
 71
     0
 42
14.0
  3
txt.shx
  4
extfont.shx
  0
STYLE
  2
KANJI63
 70
     0
 40
14.0
 41
0.785714286
 50
0.0
 71
     0
 42
14.0
  3
txt.shx
  4
extfont.shx
  0
STYLE
  2
KANJI64
 70
     0
 40
14.0
 41
0.8
 50
0.0
 71
     0
 42
14.0
  3
txt.shx
  4
extfont.shx
  0
STYLE
  2
KANJI65
 70
     0
 40
17.5
 41
0.9
 50
0.0
 71
     0
 42
17.5
  3
txt.shx
  4
extfont.shx
  0
STYLE
  2
KANJI66
 70
     0
 40
15.0
 41
0.8
 50
0.0
 71
     0
 42
15.0
  3
txt.shx
  4
extfont.shx
  0
STYLE
  2
KANJI67
 70
     0
 40
15.0
 41
0.9
 50
0.0
 71
     0
 42
15.0
  3
txt.shx
  4
extfont.shx
  0
STYLE
  2
KANJI68
 70
     0
 40
17.5
 41
0.9
 50
0.0
 71
     0
 42
17.5
  3
txt.shx
  4
extfont.shx
  0
STYLE
  2
KANJI69
 70
     0
 40
15.0
 41
0.833333333
 50
0.0
 71
     0
 42
15.0
  3
txt.shx
  4
extfont.shx
  0
STYLE
  2
KANJI70
 70
     0
 40
15.0
 41
0.833333333
 50
0.0
 71
     0
 42
15.0
  3
txt.shx
  4
extfont.shx
  0
STYLE
  2
KANJI71
 70
     0
 40
17.5
 41
0.9
 50
0.0
 71
     0
 42
17.5
  3
txt.shx
  4
extfont.shx
  0
STYLE
  2
KANJI72
 70
     0
 40
17.5
 41
0.571428571
 50
0.0
 71
     0
 42
17.5
  3
txt.shx
  4
extfont.shx
  0
STYLE
  2
KANJI73
 70
     0
 40
16.0
 41
0.925
 50
0.0
 71
     0
 42
16.0
  3
txt.shx
  4
extfont.shx
  0
ENDTAB
  0
TABLE
  2
VIEW
 70
     0
  0
ENDTAB
  0
ENDSEC
  0
SECTION
  2
BLOCKS
  0
ENDSEC
  0
SECTION
  2
ENTITIES
  0
LINE
  8
0
  6
CONTINUOUS
 62
     6
 10
71.5
 20
59.5
 30
0.0
 11
71.5
 21
1404.5
 31
0.0
  0
TEXT
  8
0
  6
CONTINUOUS
 62
     4
 10
86.499996846
 20
84.499994744
 30
0.99999979
 40
9.999997897
  1
ＰＡＲＴＳ　ＬＩＳＴ
 50
0.0
 41
0.6
 51
0.0
  7
KANJI0
  0
TEXT
  8
0
  6
CONTINUOUS
 62
     4
 10
86.499996846
 20
69.499997897
 30
1.199999748
 40
11.999997477
  1
部品表
 50
0.0
 41
0.9
 51
0.0
  7
KANJI1
  0
LINE
  8
0
  6
CONTINUOUS
 62
     6
 10
2006.5
 20
59.5
 30
0.0
 11
71.5
 21
59.5
 31
0.0
  0
LINE
  8
0
  6
CONTINUOUS
 62
     6
 10
76.499998949
 20
134.499984231
 30
0.0
 11
401.499930615
 21
134.499984231
 31
0.0
  0
LINE
  8
0
  6
CONTINUOUS
 62
     6
 10
76.499998949
 20
64.499998949
 30
0.0
 11
401.499930615
 21
64.499998949
 31
0.0
  0
LINE
  8
0
  6
CONTINUOUS
 62
     6
 10
76.499998949
 20
64.499998949
 30
0.0
 11
76.499998949
 21
134.499984231
 31
0.0
  0
LINE
  8
0
  6
CONTINUOUS
 62
     6
 10
76.499998949
 20
99.49999159
 30
0.0
 11
401.499930615
 21
99.49999159
 31
0.0
  0
TEXT
  8
0
  6
CONTINUOUS
 62
     2
 10
86.499996846
 20
109.499989487
 30
1.499999685
 40
14.999996846
  1
ＰＬ
 50
0.0
 41
0.9
 51
0.0
  7
KANJI2
  0
LINE
  8
0
  6
CONTINUOUS
 62
     4
 10
14.583333
 20
63.833333
 30
0.0
 11
66.583329
 21
63.833333
 31
0.0
  0
LINE
  8
0
  6
CONTINUOUS
 62
     4
 10
14.583333
 20
89.833331
 30
0.0
 11
66.583329
 21
89.833331
 31
0.0
  0
LINE
  8
0
  6
CONTINUOUS
 62
     4
 10
14.583333
 20
115.833329
 30
0.0
 11
66.583329
 21
115.833329
 31
0.0
  0
LINE
  8
0
  6
CONTINUOUS
 62
     4
 10
14.583333
 20
141.833327
 30
0.0
 11
66.583329
 21
141.833327
 31
0.0
  0
LINE
  8
0
  6
CONTINUOUS
 62
     4
 10
14.583333
 20
167.833325
 30
0.0
 11
66.583329
 21
167.833325
 31
0.0
  0
LINE
  8
0
  6
CONTINUOUS
 62
     4
 10
14.583333
 20
193.833323
 30
0.0
 11
66.583329
 21
193.833323
 31
0.0
  0
LINE
  8
0
  6
CONTINUOUS
 62
     4
 10
14.583333
 20
219.833321
 30
0.0
 11
66.583329
 21
219.833321
 31
0.0
  0
LINE
  8
0
  6
CONTINUOUS
 62
     4
 10
14.583333
 20
245.833319
 30
0.0
 11
66.583329
 21
245.833319
 31
0.0
  0
LINE
  8
0
  6
CONTINUOUS
 62
     4
 10
14.583333
 20
271.833317
 30
0.0
 11
66.583329
 21
271.833317
 31
0.0
  0
LINE
  8
0
  6
CONTINUOUS
 62
     4
 10
14.583333
 20
297.833315
 30
0.0
 11
66.583329
 21
297.833315
 31
0.0
  0
LINE
  8
0
  6
CONTINUOUS
 62
     4
 10
66.583329
 20
63.833333
 30
0.0
 11
66.583329
 21
297.833315
 31
0.0
  0
LINE
  8
0
  6
CONTINUOUS
 62
     4
 10
40.583331
 20
63.833333
 30
0.0
 11
40.583331
 21
271.833317
 31
0.0
  0
TEXT
  8
0
  6
CONTINUOUS
 62
     4
 10
23.46666565
 20
71.41666575
 30
1.2999999
 40
12.999999
  1
計
 50
0.0
 41
0.75
 51
0.0
  7
KANJI3
  0
TEXT
  8
0
  6
CONTINUOUS
 62
     4
 10
23.46666565
 20
123.84999505
 30
1.2999999
 40
12.999999
  1
設
 50
0.0
 41
0.75
 51
0.0
  7
KANJI3
  0
TEXT
  8
0
  6
CONTINUOUS
 62
     4
 10
23.46666565
 20
149.41665975
 30
1.2999999
 40
12.999999
  1
管
 50
0.0
 41
0.75
 51
0.0
  7
KANJI3
  0
TEXT
  8
0
  6
CONTINUOUS
 62
     4
 10
23.46666565
 20
175.41665775
 30
1.2999999
 40
12.999999
  1
製
 50
0.0
 41
0.75
 51
0.0
  7
KANJI3
  0
TEXT
  8
0
  6
CONTINUOUS
 62
     4
 10
23.46666565
 20
201.41665575
 30
1.2999999
 40
12.999999
  1
資
 50
0.0
 41
0.75
 51
0.0
  7
KANJI3
  0
TEXT
  8
0
  6
CONTINUOUS
 62
     4
 10
23.46666565
 20
227.41665375
 30
1.2999999
 40
12.999999
  1
営
 50
0.0
 41
0.75
 51
0.0
  7
KANJI3
  0
TEXT
  8
0
  6
CONTINUOUS
 62
     4
 10
23.46666565
 20
253.41665175
 30
1.2999999
 40
12.999999
  1
客
 50
0.0
 41
0.75
 51
0.0
  7
KANJI3
  0
TEXT
  8
0
  6
CONTINUOUS
 62
     4
 10
23.249999
 20
280.499983
 30
1.2999999
 40
12.999999
  1
出　図
 50
0.0
 41
0.75
 51
0.0
  7
KANJI3
  0
LINE
  8
0
  6
CONTINUOUS
 62
     4
 10
14.583333
 20
63.833333
 30
0.0
 11
14.583333
 21
297.833315
 31
0.0
  0
TEXT
  8
0
  6
CONTINUOUS
 62
     4
 10
311.499949538
 20
84.499994744
 30
0.99999979
 40
9.999997897
  1
Ｎ０．
 50
0.0
 41
0.6
 51
0.0
  7
KANJI0
  0
TEXT
  8
0
  6
CONTINUOUS
 62
     4
 10
311.499949538
 20
69.499997897
 30
1.199999748
 40
11.999997477
  1
項番
 50
0.0
 41
0.9
 51
0.0
  7
KANJI1
  0
LINE
  8
0
  6
CONTINUOUS
 62
     6
 10
401.499930615
 20
64.499998949
 30
0.0
 11
401.499930615
 21
134.499984231
 31
0.0
  0
LINE
  8
0
  6
CONTINUOUS
 62
     6
 10
301.499951641
 20
64.499998949
 30
0.0
 11
301.499951641
 21
134.499984231
 31
0.0
  0
LINE
  8
0
  6
CONTINUOUS
 62
     4
 10
1334.833385
 20
98.499997
 30
0.0
 11
1493.0000395
 21
98.499997
 31
0.0
  0
TEXT
  8
0
  6
CONTINUOUS
 62
     4
 10
1343.500051
 20
83.3333315
 30
0.8666666
 40
8.666666
  1
ＳＣＡＬＥ
 50
0.0
 41
0.6
 51
0.0
  7
KANJI4
  0
TEXT
  8
0
  6
CONTINUOUS
 62
     4
 10
1343.500051
 20
117.9999955
 30
0.8666666
 40
8.666666
  1
ＤＡＴＥ
 50
0.0
 41
0.6
 51
0.0
  7
KANJI4
  0
TEXT
  8
0
  6
CONTINUOUS
 62
     4
 10
1343.500051
 20
70.3333325
 30
1.03999992
 40
10.3999992
  1
尺度
 50
0.0
 41
0.6
 51
0.0
  7
KANJI5
  0
TEXT
  8
0
  6
CONTINUOUS
 62
     4
 10
1343.500051
 20
104.9999965
 30
1.03999992
 40
10.3999992
  1
日付
 50
0.0
 41
0.6
 51
0.0
  7
KANJI5
  0
TEXT
  8
0
  6
CONTINUOUS
 62
     4
 10
1103.0000695
 20
83.3333315
 30
0.8666666
 40
8.666666
  1
ＢＹ
 50
0.0
 41
0.6
 51
0.0
  7
KANJI4
  0
TEXT
  8
0
  6
CONTINUOUS
 62
     4
 10
1198.3333955
 20
83.3333315
 30
0.8666666
 40
8.666666
  1
ＤＥＳＣＲＩＰＴＩＯＮ
 50
0.0
 41
0.6
 51
0.0
  7
KANJI4
  0
TEXT
  8
0
  6
CONTINUOUS
 62
     4
 10
1103.0000695
 20
70.3333325
 30
1.03999992
 40
10.3999992
  1
担当
 50
0.0
 41
0.6
 51
0.0
  7
KANJI5
  0
TEXT
  8
0
  6
CONTINUOUS
 62
     4
 10
1211.3333945
 20
70.3333325
 30
1.03999992
 40
10.3999992
  1
記　　　　事
 50
0.0
 41
0.6
 51
0.0
  7
KANJI5
  0
LINE
  8
0
  6
CONTINUOUS
 62
     4
 10
1010.91674325
 20
91.9999975
 30
0.0
 11
996.833411
 21
70.3333325
 31
0.0
  0
TEXT
  8
0
  6
CONTINUOUS
 62
     4
 10
1046.6667405
 20
83.3333315
 30
0.8666666
 40
8.666666
  1
ＤＡＴＥ
 50
0.0
 41
0.6
 51
0.0
  7
KANJI4
  0
TEXT
  8
0
  6
CONTINUOUS
 62
     4
 10
1053.16674
 20
70.3333325
 30
1.03999992
 40
10.3999992
  1
日付
 50
0.0
 41
0.6
 51
0.0
  7
KANJI5
  0
LINE
  8
0
  6
CONTINUOUS
 62
     4
 10
996.833411
 20
70.3333325
 30
0.0
 11
1025.0000755
 21
70.3333325
 31
0.0
  0
LINE
  8
0
  6
CONTINUOUS
 62
     4
 10
1010.91674325
 20
91.9999975
 30
0.0
 11
1025.0000755
 21
70.3333325
 31
0.0
  0
LINE
  8
0
  6
CONTINUOUS
 62
     4
 10
1493.0000395
 20
117.9999955
 30
0.0
 11
2002.166667
 21
117.9999955
 31
0.0
  0
LINE
  8
0
  6
LTYPE1
 62
     4
 10
1857.0000115
 20
124.499995
 30
0.0
 11
1857.0000115
 21
159.166659
 31
0.0
  0
LINE
  8
0
  6
LTYPE1
 62
     4
 10
1826.6666805
 20
124.499995
 30
0.0
 11
1826.6666805
 21
159.166659
 31
0.0
  0
LINE
  8
0
  6
LTYPE1
 62
     4
 10
1796.3333495
 20
124.499995
 30
0.0
 11
1796.3333495
 21
159.166659
 31
0.0
  0
LINE
  8
0
  6
LTYPE1
 62
     4
 10
1766.0000185
 20
124.499995
 30
0.0
 11
1766.0000185
 21
159.166659
 31
0.0
  0
LINE
  8
0
  6
LTYPE1
 62
     4
 10
1735.6666875
 20
124.499995
 30
0.0
 11
1735.6666875
 21
159.166659
 31
0.0
  0
LINE
  8
0
  6
LTYPE1
 62
     4
 10
1705.3333565
 20
124.499995
 30
0.0
 11
1705.3333565
 21
159.166659
 31
0.0
  0
LINE
  8
0
  6
LTYPE1
 62
     4
 10
1675.0000255
 20
124.499995
 30
0.0
 11
1675.0000255
 21
159.166659
 31
0.0
  0
LINE
  8
0
  6
LTYPE1
 62
     4
 10
1644.6666945
 20
124.499995
 30
0.0
 11
1644.6666945
 21
159.166659
 31
0.0
  0
LINE
  8
0
  6
LTYPE1
 62
     4
 10
1644.6666945
 20
124.499995
 30
0.0
 11
1857.0000115
 21
124.499995
 31
0.0
  0
LINE
  8
0
  6
CONTINUOUS
 62
     6
 10
2006.5
 20
1404.5
 30
0.0
 11
2006.5
 21
59.5
 31
0.0
  0
LINE
  8
0
  6
CONTINUOUS
 62
     6
 10
992.500078
 20
98.499997
 30
0.0
 11
1334.833385
 21
98.499997
 31
0.0
  0
LINE
  8
0
  6
CONTINUOUS
 62
     6
 10
992.500078
 20
63.833333
 30
0.0
 11
2002.166667
 21
63.833333
 31
0.0
  0
TEXT
  8
0
  6
CONTINUOUS
 62
     6
 10
1497.3333725
 20
83.3333315
 30
0.0
 40
15.1666655
  1
ＵＮＩＴＥＣ　ＩＮＤＵＳＴＲＹ　ＣＯ．，ＬＴＤ．
 50
0.0
 41
0.42031746
 51
0.0
  7
KANJI6
  0
TEXT
  8
0
  6
CONTINUOUS
 62
     6
 10
1710.045856138
 20
77.6999986
 30
2.5999998
 40
25.999998
  1
ユニテック工業株式会社
 50
0.0
 41
0.9
 51
0.0
  7
KANJI7
  0
LINE
  8
0
  6
CONTINUOUS
 62
     6
 10
992.500078
 20
63.833333
 30
0.0
 11
992.500078
 21
98.499997
 31
0.0
  0
LINE
  8
0
  6
CONTINUOUS
 62
     4
 10
1029.3334085
 20
63.833333
 30
0.0
 11
1029.3334085
 21
98.499997
 31
0.0
  0
LINE
  8
0
  6
CONTINUOUS
 62
     4
 10
1090.0000705
 20
63.833333
 30
0.0
 11
1090.0000705
 21
98.499997
 31
0.0
  0
LINE
  8
0
  6
CONTINUOUS
 62
     4
 10
1129.0000675
 20
63.833333
 30
0.0
 11
1129.0000675
 21
98.499997
 31
0.0
  0
LINE
  8
0
  6
CONTINUOUS
 62
     6
 10
1334.833385
 20
63.833333
 30
0.0
 11
1334.833385
 21
341.166645
 31
0.0
  0
LINE
  8
0
  6
CONTINUOUS
 62
     6
 10
2002.166667
 20
63.833333
 30
0.0
 11
2002.166667
 21
341.166645
 31
0.0
  0
LINE
  8
0
  6
CONTINUOUS
 62
     4
 10
1493.0000395
 20
63.833333
 30
0.0
 11
1493.0000395
 21
341.166645
 31
0.0
  0
LINE
  8
0
  6
CONTINUOUS
 62
     6
 10
1675.379192138
 20
86.7999979
 30
0.0
 11
1663.939193018
 21
86.7999979
 31
0.0
  0
LINE
  8
0
  6
CONTINUOUS
 62
     6
 10
1675.379192138
 20
88.87999774
 30
0.0
 11
1663.939193018
 21
88.87999774
 31
0.0
  0
LINE
  8
0
  6
CONTINUOUS
 62
     6
 10
1675.379192138
 20
86.7999979
 30
0.0
 11
1686.819191258
 21
86.7999979
 31
0.0
  0
LINE
  8
0
  6
CONTINUOUS
 62
     6
 10
1675.379192138
 20
88.87999774
 30
0.0
 11
1686.819191258
 21
88.87999774
 31
0.0
  0
LINE
  8
0
  6
CONTINUOUS
 62
     6
 10
1686.819191258
 20
88.87999774
 30
0.0
 11
1686.819191258
 21
86.7999979
 31
0.0
  0
ARC
  8
0
  6
CONTINUOUS
 62
     6
 10
1689.419191058
 20
87.83999782
 30
0.0
 40
10.3999992
 50
185.739170477
 51
90.0
  0
ARC
  8
0
  6
CONTINUOUS
 62
     6
 10
1689.419191058
 20
87.83999782
 30
0.0
 40
12.47999904
 50
184.780191847
 51
90.0
  0
LINE
  8
0
  6
CONTINUOUS
 62
     6
 10
1663.939193018
 20
86.7999979
 30
0.0
 11
1663.939193018
 21
88.87999774
 31
0.0
  0
LINE
  8
0
  6
CONTINUOUS
 62
     6
 10
1673.819192258
 20
100.31999686
 30
0.0
 11
1661.339193218
 21
100.31999686
 31
0.0
  0
LINE
  8
0
  6
CONTINUOUS
 62
     6
 10
1676.939192018
 20
100.31999686
 30
0.0
 11
1689.419191058
 21
100.31999686
 31
0.0
  0
ARC
  8
0
  6
CONTINUOUS
 62
     6
 10
1661.339193218
 20
87.83999782
 30
0.0
 40
10.3999992
 50
90.0
 51
354.260829523
  0
ARC
  8
0
  6
CONTINUOUS
 62
     6
 10
1661.339193218
 20
87.83999782
 30
0.0
 40
12.47999904
 50
90.0
 51
355.219808153
  0
LINE
  8
0
  6
CONTINUOUS
 62
     6
 10
1673.819192258
 20
100.31999686
 30
0.0
 11
1673.819192258
 21
98.23999702
 31
0.0
  0
LINE
  8
0
  6
CONTINUOUS
 62
     6
 10
1661.339193218
 20
98.23999702
 30
0.0
 11
1673.819192258
 21
98.23999702
 31
0.0
  0
LINE
  8
0
  6
CONTINUOUS
 62
     6
 10
1676.939192018
 20
100.31999686
 30
0.0
 11
1676.939192018
 21
98.23999702
 31
0.0
  0
LINE
  8
0
  6
CONTINUOUS
 62
     6
 10
1689.419191058
 20
98.23999702
 30
0.0
 11
1676.939192018
 21
98.23999702
 31
0.0
  0
TEXT
  8
0
  6
CONTINUOUS
 62
     4
 10
1343.500051
 20
152.6666595
 30
0.8666666
 40
8.666666
  1
ＤＲＡＷＮ
 50
0.0
 41
0.6
 51
0.0
  7
KANJI4
  0
TEXT
  8
0
  6
CONTINUOUS
 62
     4
 10
1343.500051
 20
187.3333235
 30
0.8666666
 40
8.666666
  1
ＤＥＳＩＧＮ
 50
0.0
 41
0.6
 51
0.0
  7
KANJI4
  0
TEXT
  8
0
  6
CONTINUOUS
 62
     4
 10
1343.500051
 20
221.9999875
 30
0.8666666
 40
8.666666
  1
ＣＨＥＣＫ
 50
0.0
 41
0.6
 51
0.0
  7
KANJI4
  0
LINE
  8
0
  6
CONTINUOUS
 62
     4
 10
1334.833385
 20
202.499989
 30
0.0
 11
1493.0000395
 21
202.499989
 31
0.0
  0
LINE
  8
0
  6
CONTINUOUS
 62
     4
 10
1334.833385
 20
167.833325
 30
0.0
 11
1493.0000395
 21
167.833325
 31
0.0
  0
LINE
  8
0
  6
CONTINUOUS
 62
     4
 10
1334.833385
 20
237.166653
 30
0.0
 11
1493.0000395
 21
237.166653
 31
0.0
  0
TEXT
  8
0
  6
CONTINUOUS
 62
     4
 10
1343.500051
 20
174.3333245
 30
1.03999992
 40
10.3999992
  1
設計
 50
0.0
 41
0.6
 51
0.0
  7
KANJI5
  0
TEXT
  8
0
  6
CONTINUOUS
 62
     4
 10
1343.500051
 20
208.9999885
 30
1.03999992
 40
10.3999992
  1
検図
 50
0.0
 41
0.6
 51
0.0
  7
KANJI5
  0
TEXT
  8
0
  6
CONTINUOUS
 62
     4
 10
1343.500051
 20
243.6666525
 30
1.03999992
 40
10.3999992
  1
分類
 50
0.0
 41
0.6
 51
0.0
  7
KANJI5
  0
LINE
  8
0
  6
CONTINUOUS
 62
     4
 10
1505.78337185
 20
237.166653
 30
0.0
 11
2002.166667
 21
237.166653
 31
0.0
  0
LINE
  8
0
  6
CONTINUOUS
 62
     4
 10
1493.0000395
 20
167.833325
 30
0.0
 11
2002.166667
 21
167.833325
 31
0.0
  0
TEXT
  8
0
  6
CONTINUOUS
 62
     4
 10
1501.6667055
 20
152.6666595
 30
0.8666666
 40
8.666666
  1
ＤＲＡＷＩＮＧ　ＮＯ．
 50
0.0
 41
0.8
 51
0.0
  7
KANJI8
  0
TEXT
  8
0
  6
CONTINUOUS
 62
     4
 10
1501.6667055
 20
187.3333235
 30
0.8666666
 40
8.666666
  1
ＭＦＧ　ＮＯ．
 50
0.0
 41
0.8
 51
0.0
  7
KANJI8
  0
TEXT
  8
0
  6
CONTINUOUS
 62
     4
 10
1501.6667055
 20
221.9999875
 30
0.8666666
 40
8.666666
  1
ＴＹＰＥ
 50
0.0
 41
0.8
 51
0.0
  7
KANJI8
  0
LINE
  8
0
  6
CONTINUOUS
 62
     4
 10
1506.0000385
 20
202.499989
 30
0.0
 11
1705.3333565
 21
202.499989
 31
0.0
  0
TEXT
  8
0
  6
CONTINUOUS
 62
     4
 10
1501.6667055
 20
137.499994
 30
1.03999992
 40
10.3999992
  1
図　面　番　号
 50
0.0
 41
0.8
 51
0.0
  7
KANJI9
  0
TEXT
  8
0
  6
CONTINUOUS
 62
     4
 10
1501.6667055
 20
172.166658
 30
1.03999992
 40
10.3999992
  1
製番
 50
0.0
 41
0.8
 51
0.0
  7
KANJI9
  0
TEXT
  8
0
  6
CONTINUOUS
 62
     4
 10
1501.6667055
 20
206.833322
 30
1.03999992
 40
10.3999992
  1
機種
 50
0.0
 41
0.8
 51
0.0
  7
KANJI9
  0
LINE
  8
0
  6
CONTINUOUS
 62
     4
 10
1334.833385
 20
133.166661
 30
0.0
 11
1493.0000395
 21
133.166661
 31
0.0
  0
TEXT
  8
0
  6
CONTINUOUS
 62
     4
 10
1343.500051
 20
139.6666605
 30
1.03999992
 40
10.3999992
  1
作図
 50
0.0
 41
0.6
 51
0.0
  7
KANJI5
  0
LINE
  8
0
  6
LTYPE1
 62
     4
 10
1644.6666945
 20
159.166659
 30
0.0
 11
1857.0000115
 21
159.166659
 31
0.0
  0
LINE
  8
0
  6
CONTINUOUS
 62
     4
 10
1874.3333435
 20
142.91666025
 30
0.0
 11
1883.0000095
 21
142.91666025
 31
0.0
  0
LINE
  8
0
  6
CONTINUOUS
 62
     4
 10
1928.500006
 20
129.91666125
 30
0.0
 11
1898.166675
 21
129.91666125
 31
0.0
  0
LINE
  8
0
  6
CONTINUOUS
 62
     4
 10
1898.166675
 20
129.91666125
 30
0.0
 11
1913.3333405
 21
155.91665925
 31
0.0
  0
LINE
  8
0
  6
CONTINUOUS
 62
     4
 10
1913.3333405
 20
155.91665925
 30
0.0
 11
1928.500006
 21
129.91666125
 31
0.0
  0
TEXT
  8
0
  6
CONTINUOUS
 62
     4
 10
1718.3333555
 20
221.9999875
 30
0.8666666
 40
8.666666
  1
ＴＩＴＬＥ
 50
0.0
 41
0.8
 51
0.0
  7
KANJI8
  0
TEXT
  8
0
  6
CONTINUOUS
 62
     4
 10
1718.3333555
 20
206.833322
 30
1.03999992
 40
10.3999992
  1
名称
 50
0.0
 41
0.8
 51
0.0
  7
KANJI9
  0
TEXT
  8
0
  6
CONTINUOUS
 62
     2
 10
1789.0
 20
174.5
 30
12.5
 40
25.0
  1
外形寸法図
 50
0.0
 41
1.0
 51
0.0
  7
KANJI10
  0
TEXT
  8
0
  6
CONTINUOUS
 62
     2
 10
1759.0
 20
204.5
 30
3.571428571
 40
25.0
  1
マイティシリンダ
 50
0.0
 41
1.0
 51
0.0
  7
KANJI11
  0
TEXT
  8
0
  6
CONTINUOUS
 62
     2
 10
1618.4166945
 20
129.499995
 30
1.5
 40
25.0
  1
Ａ
 50
0.0
 41
0.8
 51
0.0
  7
KANJI12
  0
CIRCLE
  8
0
  6
CONTINUOUS
 62
     2
 10
1585.9166945
 20
183.249995
 30
0.0
 40
12.5
  0
TEXT
  8
0
  6
CONTINUOUS
 62
     2
 10
1576.5416945
 20
173.874995
 30
1.5
 40
20.0
  1
Ｓ
 50
0.0
 41
1.0
 51
0.0
  7
KANJI13
  0
TEXT
  8
0
  6
CONTINUOUS
 62
     2
 10
1390.6666945
 20
141.999995
 30
5.0
 40
17.5
  1
岡田
 50
0.0
 41
0.857142857
 51
0.0
  7
KANJI14
  0
TEXT
  8
0
  6
CONTINUOUS
 62
     2
 10
1426.5
 20
69.5
 30
1.5
 40
22.5
  1
１／５
 50
0.0
 41
0.666666667
 51
0.0
  7
KANJI15
  0
TEXT
  8
0
  6
CONTINUOUS
 62
     4
 10
1343.500051
 20
256.6666515
 30
0.8666666
 40
8.666666
  1
ＣＯＤＥ
 50
0.0
 41
0.6
 51
0.0
  7
KANJI4
  0
LINE
  8
0
  6
CONTINUOUS
 62
     4
 10
1334.833385
 20
271.833317
 30
0.0
 11
2002.166667
 21
271.833317
 31
0.0
  0
LINE
  8
0
  6
CONTINUOUS
 62
     4
 10
2002.166667
 20
306.499981
 30
0.0
 11
2002.166667
 21
341.166645
 31
0.0
  0
LINE
  8
0
  6
CONTINUOUS
 62
     6
 10
1335.458385
 20
306.499981
 30
0.0
 11
2002.791667
 21
306.499981
 31
0.0
  0
LINE
  8
0
  6
CONTINUOUS
 62
     6
 10
1334.833385
 20
341.166645
 30
0.0
 11
2002.166667
 21
341.166645
 31
0.0
  0
TEXT
  8
0
  6
CONTINUOUS
 62
     4
 10
1350.25
 20
311.666664
 30
5.0
 40
18.0
  1
ご用途
 50
0.0
 41
1.111111111
 51
0.0
  7
KANJI16
  0
TEXT
  8
0
  6
CONTINUOUS
 62
     4
 10
1350.25
 20
277.0
 30
5.0
 40
18.0
  1
ご注文主
 50
0.0
 41
1.111111111
 51
0.0
  7
KANJI16
  0
LINE
  8
0
  6
CONTINUOUS
 62
     6
 10
71.5
 20
1404.5
 30
0.0
 11
2006.5
 21
1404.5
 31
0.0
  0
LINE
  8
0
  6
CONTINUOUS
 62
     1
 10
852.5
 20
1242.45
 30
0.0
 11
1500.5
 21
1242.45
 31
0.0
  0
LINE
  8
0
  6
CONTINUOUS
 62
     1
 10
852.5
 20
1214.45
 30
0.0
 11
1500.5
 21
1214.45
 31
0.0
  0
TEXT
  8
0
  6
CONTINUOUS
 62
     2
 10
892.5
 20
1222.45
 30
1.28
 40
12.8
  1
形
 50
0.0
 41
0.9
 51
0.0
  7
KANJI17
  0
TEXT
  8
0
  6
CONTINUOUS
 62
     2
 10
970.5
 20
1222.45
 30
1.28
 40
12.8
  1
式
 50
0.0
 41
0.9
 51
0.0
  7
KANJI17
  0
TEXT
  8
0
  6
CONTINUOUS
 62
     2
 10
1030.9
 20
1221.65
 30
1.2
 40
12.0
  1
ストローク
 50
0.0
 41
0.9
 51
0.0
  7
KANJI18
  0
TEXT
  8
0
  6
CONTINUOUS
 62
     2
 10
1107.7
 20
1220.85
 30
0.0
 40
12.0
  1
ｍｉｎ　
 50
0.0
 41
0.9
 51
0.0
  7
KANJI19
  0
TEXT
  8
0
  6
CONTINUOUS
 62
     2
 10
1187.7
 20
1220.85
 30
0.0
 40
12.0
  1
ｍｉｎ　
 50
0.0
 41
0.9
 51
0.0
  7
KANJI19
  0
TEXT
  8
0
  6
CONTINUOUS
 62
     2
 10
1347.7
 20
1220.85
 30
0.0
 40
12.0
  1
ｍｉｎ　
 50
0.0
 41
0.9
 51
0.0
  7
KANJI19
  0
TEXT
  8
0
  6
CONTINUOUS
 62
     2
 10
1148.5
 20
1221.65
 30
1.4
 40
14.0
  1
ＡＬ
 50
0.0
 41
0.9
 51
0.0
  7
KANJI20
  0
TEXT
  8
0
  6
CONTINUOUS
 62
     2
 10
1228.5
 20
1221.65
 30
1.4
 40
14.0
  1
Ｌ
 50
0.0
 41
0.9
 51
0.0
  7
KANJI20
  0
TEXT
  8
0
  6
CONTINUOUS
 62
     2
 10
1296.5
 20
1221.65
 30
1.4
 40
14.0
  1
Ｃ
 50
0.0
 41
0.9
 51
0.0
  7
KANJI20
  0
TEXT
  8
0
  6
CONTINUOUS
 62
     2
 10
1388.5
 20
1221.65
 30
1.4
 40
14.0
  1
Ｐ
 50
0.0
 41
0.9
 51
0.0
  7
KANJI20
  0
TEXT
  8
0
  6
CONTINUOUS
 62
     2
 10
1470.8
 20
1221.35
 30
0.0
 40
10.8
  1
（ｋｇ）
 50
0.0
 41
0.740740741
 51
0.0
  7
KANJI21
  0
TEXT
  8
0
  6
CONTINUOUS
 62
     2
 10
1422.8
 20
1221.15
 30
1.2
 40
14.0
  1
概算重量
 50
0.0
 41
0.857142857
 51
0.0
  7
KANJI22
  0
TEXT
  8
0
  6
CONTINUOUS
 62
     2
 10
1038.5
 20
1193.15
 30
1.2
 40
12.0
  1
　１００
 50
0.0
 41
0.9
 51
0.0
  7
KANJI18
  0
TEXT
  8
0
  6
CONTINUOUS
 62
     2
 10
1038.5
 20
1165.15
 30
1.2
 40
12.0
  1
　２００
 50
0.0
 41
0.9
 51
0.0
  7
KANJI18
  0
TEXT
  8
0
  6
CONTINUOUS
 62
     2
 10
1038.5
 20
1137.15
 30
1.2
 40
12.0
  1
　３００
 50
0.0
 41
0.9
 51
0.0
  7
KANJI18
  0
TEXT
  8
0
  6
CONTINUOUS
 62
     2
 10
1358.5
 20
1137.15
 30
1.2
 40
12.0
  1
　　３５
 50
0.0
 41
0.9
 51
0.0
  7
KANJI18
  0
TEXT
  8
0
  6
CONTINUOUS
 62
     2
 10
1358.5
 20
1165.15
 30
1.2
 40
12.0
  1
　　３５
 50
0.0
 41
0.9
 51
0.0
  7
KANJI18
  0
TEXT
  8
0
  6
CONTINUOUS
 62
     2
 10
1358.5
 20
1193.15
 30
1.2
 40
12.0
  1
　　３５
 50
0.0
 41
0.9
 51
0.0
  7
KANJI18
  0
TEXT
  8
0
  6
CONTINUOUS
 62
     2
 10
1038.5
 20
1025.15
 30
1.2
 40
12.0
  1
　７００
 50
0.0
 41
0.9
 51
0.0
  7
KANJI18
  0
TEXT
  8
0
  6
CONTINUOUS
 62
     2
 10
1038.5
 20
1081.15
 30
1.2
 40
12.0
  1
　５００
 50
0.0
 41
0.9
 51
0.0
  7
KANJI18
  0
TEXT
  8
0
  6
CONTINUOUS
 62
     2
 10
1038.5
 20
1109.15
 30
1.2
 40
12.0
  1
　４００
 50
0.0
 41
0.9
 51
0.0
  7
KANJI18
  0
TEXT
  8
0
  6
CONTINUOUS
 62
     2
 10
1038.5
 20
1053.15
 30
1.2
 40
12.0
  1
　６００
 50
0.0
 41
0.9
 51
0.0
  7
KANJI18
  0
TEXT
  8
0
  6
CONTINUOUS
 62
     2
 10
1358.5
 20
1109.15
 30
1.2
 40
12.0
  1
　　３５
 50
0.0
 41
0.9
 51
0.0
  7
KANJI18
  0
TEXT
  8
0
  6
CONTINUOUS
 62
     2
 10
1358.5
 20
1081.15
 30
1.2
 40
12.0
  1
　　３５
 50
0.0
 41
0.9
 51
0.0
  7
KANJI18
  0
TEXT
  8
0
  6
CONTINUOUS
 62
     2
 10
1358.5
 20
1053.15
 30
1.2
 40
12.0
  1
　　３５
 50
0.0
 41
0.9
 51
0.0
  7
KANJI18
  0
TEXT
  8
0
  6
CONTINUOUS
 62
     2
 10
1358.5
 20
1025.15
 30
1.2
 40
12.0
  1
　　３５
 50
0.0
 41
0.9
 51
0.0
  7
KANJI18
  0
TEXT
  8
0
  6
CONTINUOUS
 62
     2
 10
1278.5
 20
1193.15
 30
1.2
 40
12.0
  1
　１９８
 50
0.0
 41
0.9
 51
0.0
  7
KANJI18
  0
TEXT
  8
0
  6
CONTINUOUS
 62
     2
 10
1278.5
 20
1165.15
 30
1.2
 40
12.0
  1
　２９８
 50
0.0
 41
0.9
 51
0.0
  7
KANJI18
  0
TEXT
  8
0
  6
CONTINUOUS
 62
     2
 10
1278.5
 20
1137.15
 30
1.2
 40
12.0
  1
　３９８
 50
0.0
 41
0.9
 51
0.0
  7
KANJI18
  0
TEXT
  8
0
  6
CONTINUOUS
 62
     2
 10
1278.5
 20
1109.15
 30
1.2
 40
12.0
  1
　４９８
 50
0.0
 41
0.9
 51
0.0
  7
KANJI18
  0
TEXT
  8
0
  6
CONTINUOUS
 62
     2
 10
1278.5
 20
1081.15
 30
1.2
 40
12.0
  1
　５９８
 50
0.0
 41
0.9
 51
0.0
  7
KANJI18
  0
TEXT
  8
0
  6
CONTINUOUS
 62
     2
 10
1278.5
 20
1053.15
 30
1.2
 40
12.0
  1
　７３８
 50
0.0
 41
0.9
 51
0.0
  7
KANJI18
  0
TEXT
  8
0
  6
CONTINUOUS
 62
     2
 10
1278.5
 20
1025.15
 30
1.2
 40
12.0
  1
　８３８
 50
0.0
 41
0.9
 51
0.0
  7
KANJI18
  0
TEXT
  8
0
  6
CONTINUOUS
 62
     2
 10
1198.5
 20
1193.15
 30
1.2
 40
12.0
  1
　２６８
 50
0.0
 41
0.9
 51
0.0
  7
KANJI18
  0
TEXT
  8
0
  6
CONTINUOUS
 62
     2
 10
1198.5
 20
1165.15
 30
1.2
 40
12.0
  1
　３６８
 50
0.0
 41
0.9
 51
0.0
  7
KANJI18
  0
TEXT
  8
0
  6
CONTINUOUS
 62
     2
 10
1198.5
 20
1137.15
 30
1.2
 40
12.0
  1
　４６８
 50
0.0
 41
0.9
 51
0.0
  7
KANJI18
  0
TEXT
  8
0
  6
CONTINUOUS
 62
     2
 10
1198.5
 20
1109.15
 30
1.2
 40
12.0
  1
　５６８
 50
0.0
 41
0.9
 51
0.0
  7
KANJI18
  0
TEXT
  8
0
  6
CONTINUOUS
 62
     2
 10
1198.5
 20
1081.15
 30
1.2
 40
12.0
  1
　６６８
 50
0.0
 41
0.9
 51
0.0
  7
KANJI18
  0
TEXT
  8
0
  6
CONTINUOUS
 62
     2
 10
1198.5
 20
1053.15
 30
1.2
 40
12.0
  1
　８０８
 50
0.0
 41
0.9
 51
0.0
  7
KANJI18
  0
TEXT
  8
0
  6
CONTINUOUS
 62
     2
 10
1198.5
 20
1025.15
 30
1.2
 40
12.0
  1
　９０８
 50
0.0
 41
0.9
 51
0.0
  7
KANJI18
  0
TEXT
  8
0
  6
CONTINUOUS
 62
     2
 10
1118.5
 20
1193.15
 30
1.2
 40
12.0
  1
　５８０
 50
0.0
 41
0.9
 51
0.0
  7
KANJI18
  0
TEXT
  8
0
  6
CONTINUOUS
 62
     2
 10
1118.5
 20
1165.15
 30
1.2
 40
12.0
  1
　６８０
 50
0.0
 41
0.9
 51
0.0
  7
KANJI18
  0
TEXT
  8
0
  6
CONTINUOUS
 62
     2
 10
1118.5
 20
1137.15
 30
1.2
 40
12.0
  1
　７８０
 50
0.0
 41
0.9
 51
0.0
  7
KANJI18
  0
TEXT
  8
0
  6
CONTINUOUS
 62
     2
 10
1118.5
 20
1109.15
 30
1.2
 40
12.0
  1
　８８０
 50
0.0
 41
0.9
 51
0.0
  7
KANJI18
  0
TEXT
  8
0
  6
CONTINUOUS
 62
     2
 10
1118.5
 20
1081.15
 30
1.2
 40
12.0
  1
　９８０
 50
0.0
 41
0.9
 51
0.0
  7
KANJI18
  0
TEXT
  8
0
  6
CONTINUOUS
 62
     2
 10
1118.5
 20
1053.15
 30
1.2
 40
12.0
  1
１１２０
 50
0.0
 41
0.9
 51
0.0
  7
KANJI18
  0
TEXT
  8
0
  6
CONTINUOUS
 62
     2
 10
1118.5
 20
1025.15
 30
1.2
 40
12.0
  1
１２２０
 50
0.0
 41
0.9
 51
0.0
  7
KANJI18
  0
TEXT
  8
0
  6
CONTINUOUS
 62
     2
 10
129.0
 20
27.0
 30
1.5
 40
15.0
  1
ＦＤ　Ｎｏ．ＭＣ１８６
 50
0.0
 41
1.0
 51
0.0
  7
KANJI23
  0
TEXT
  8
0
  6
CONTINUOUS
 62
     2
 10
865.5
 20
1192.85
 30
0.8
 40
12.0
  1
ＭＣＥＤＢＢ０１－　　１Ｌ
 50
0.0
 41
0.833333333
 51
0.0
  7
KANJI24
  0
TEXT
  8
0
  6
CONTINUOUS
 62
     2
 10
865.5
 20
1164.85
 30
0.8
 40
12.0
  1
ＭＣＥＤＢＢ０１－　　２Ｌ
 50
0.0
 41
0.833333333
 51
0.0
  7
KANJI24
  0
TEXT
  8
0
  6
CONTINUOUS
 62
     2
 10
865.5
 20
1136.85
 30
0.8
 40
12.0
  1
ＭＣＥＤＢＢ０１－　　３Ｌ
 50
0.0
 41
0.833333333
 51
0.0
  7
KANJI24
  0
TEXT
  8
0
  6
CONTINUOUS
 62
     2
 10
865.5
 20
1108.85
 30
0.8
 40
12.0
  1
ＭＣＥＤＢＢ０１－　　４Ｌ
 50
0.0
 41
0.833333333
 51
0.0
  7
KANJI24
  0
TEXT
  8
0
  6
CONTINUOUS
 62
     2
 10
865.5
 20
1080.85
 30
0.8
 40
12.0
  1
ＭＣＥＤＢＢ０１－　　５Ｌ
 50
0.0
 41
0.833333333
 51
0.0
  7
KANJI24
  0
TEXT
  8
0
  6
CONTINUOUS
 62
     2
 10
865.5
 20
1052.85
 30
0.8
 40
12.0
  1
ＭＣＥＤＢＢ０１－　　６Ｌ
 50
0.0
 41
0.833333333
 51
0.0
  7
KANJI24
  0
TEXT
  8
0
  6
CONTINUOUS
 62
     2
 10
865.5
 20
1024.85
 30
0.8
 40
12.0
  1
ＭＣＥＤＢＢ０１－　　７Ｌ
 50
0.0
 41
0.833333333
 51
0.0
  7
KANJI24
  0
TEXT
  8
0
  6
CONTINUOUS
 62
     2
 10
1554.0
 20
209.5
 30
0.0
 40
17.5
  1
ＭＣＥＤＢＢ０１－Ｌ
 50
0.0
 41
0.793650794
 51
0.0
  7
KANJI25
  0
TEXT
  8
0
  6
CONTINUOUS
 62
     2
 10
1649.6666945
 20
129.499995
 30
10.833333333
 40
25.0
  1
３００２３４１
 50
0.0
 41
0.8
 51
0.0
  7
KANJI26
  0
LINE
  8
0
  6
CONTINUOUS
 62
     1
 10
1276.875
 20
1395.5
 30
0.0
 11
1276.875
 21
1295.4
 31
0.0
  0
LINE
  8
0
  6
CONTINUOUS
 62
     2
 10
1219.125
 20
1395.5
 30
0.0
 11
1219.125
 21
1295.4
 31
0.0
  0
LINE
  8
0
  6
CONTINUOUS
 62
     2
 10
1161.375
 20
1395.5
 30
0.0
 11
1161.375
 21
1295.4
 31
0.0
  0
LINE
  8
0
  6
CONTINUOUS
 62
     1
 10
1084.375
 20
1395.5
 30
0.0
 11
1084.375
 21
1295.4
 31
0.0
  0
LINE
  8
0
  6
CONTINUOUS
 62
     1
 10
1084.375
 20
1395.5
 30
0.0
 11
1276.875
 21
1395.5
 31
0.0
  0
LINE
  8
0
  6
CONTINUOUS
 62
     1
 10
1084.375
 20
1364.7
 30
0.0
 11
1276.875
 21
1364.7
 31
0.0
  0
LINE
  8
0
  6
CONTINUOUS
 62
     2
 10
1084.375
 20
1341.6
 30
0.0
 11
1276.875
 21
1341.6
 31
0.0
  0
LINE
  8
0
  6
CONTINUOUS
 62
     2
 10
1084.375
 20
1318.5
 30
0.0
 11
1276.875
 21
1318.5
 31
0.0
  0
LINE
  8
0
  6
CONTINUOUS
 62
     1
 10
1084.375
 20
1295.4
 30
0.0
 11
1276.875
 21
1295.4
 31
0.0
  0
TEXT
  8
0
  6
CONTINUOUS
 62
     2
 10
1226.825
 20
1382.025
 30
1.155
 40
11.55
  1
起動電流
 50
0.0
 41
0.9
 51
0.0
  7
KANJI27
  0
TEXT
  8
0
  6
CONTINUOUS
 62
     2
 10
1226.825
 20
1368.55
 30
1.155
 40
11.55
  1
　　　Ａ
 50
0.0
 41
0.9
 51
0.0
  7
KANJI27
  0
TEXT
  8
0
  6
CONTINUOUS
 62
     2
 10
1169.075
 20
1382.025
 30
1.155
 40
11.55
  1
定格電流
 50
0.0
 41
0.9
 51
0.0
  7
KANJI27
  0
TEXT
  8
0
  6
CONTINUOUS
 62
     2
 10
1169.075
 20
1368.55
 30
1.155
 40
11.55
  1
　　　Ａ
 50
0.0
 41
0.9
 51
0.0
  7
KANJI27
  0
TEXT
  8
0
  6
CONTINUOUS
 62
     2
 10
1090.92
 20
1324.275
 30
1.155
 40
11.55
  1
２００／６０
 50
0.0
 41
0.9
 51
0.0
  7
KANJI27
  0
TEXT
  8
0
  6
CONTINUOUS
 62
     2
 10
1090.92
 20
1382.025
 30
1.155
 40
11.55
  1
電圧／周波数
 50
0.0
 41
0.9
 51
0.0
  7
KANJI27
  0
TEXT
  8
0
  6
CONTINUOUS
 62
     2
 10
1090.92
 20
1368.55
 30
1.155
 40
11.55
  1
　Ｖ／Ｈｚ
 50
0.0
 41
0.9
 51
0.0
  7
KANJI27
  0
TEXT
  8
0
  6
CONTINUOUS
 62
     2
 10
1090.92
 20
1347.375
 30
1.155
 40
11.55
  1
２００／５０
 50
0.0
 41
0.9
 51
0.0
  7
KANJI27
  0
TEXT
  8
0
  6
CONTINUOUS
 62
     2
 10
1090.92
 20
1301.175
 30
1.155
 40
11.55
  1
２２０／６０
 50
0.0
 41
0.9
 51
0.0
  7
KANJI27
  0
LINE
  8
0
  6
CONTINUOUS
 62
     1
 10
1045.875
 20
1395.5
 30
0.0
 11
1045.875
 21
1295.4
 31
0.0
  0
LINE
  8
0
  6
CONTINUOUS
 62
     2
 10
988.125
 20
1395.5
 30
0.0
 11
988.125
 21
1295.4
 31
0.0
  0
LINE
  8
0
  6
CONTINUOUS
 62
     2
 10
930.375
 20
1395.5
 30
0.0
 11
930.375
 21
1295.4
 31
0.0
  0
LINE
  8
0
  6
CONTINUOUS
 62
     1
 10
853.375
 20
1395.5
 30
0.0
 11
853.375
 21
1295.4
 31
0.0
  0
LINE
  8
0
  6
CONTINUOUS
 62
     1
 10
853.375
 20
1395.5
 30
0.0
 11
1045.875
 21
1395.5
 31
0.0
  0
LINE
  8
0
  6
CONTINUOUS
 62
     1
 10
853.375
 20
1364.7
 30
0.0
 11
1045.875
 21
1364.7
 31
0.0
  0
LINE
  8
0
  6
CONTINUOUS
 62
     2
 10
853.375
 20
1341.6
 30
0.0
 11
1045.875
 21
1341.6
 31
0.0
  0
LINE
  8
0
  6
CONTINUOUS
 62
     2
 10
853.375
 20
1318.5
 30
0.0
 11
1045.875
 21
1318.5
 31
0.0
  0
LINE
  8
0
  6
CONTINUOUS
 62
     1
 10
853.375
 20
1295.4
 30
0.0
 11
1045.875
 21
1295.4
 31
0.0
  0
TEXT
  8
0
  6
CONTINUOUS
 62
     2
 10
995.825
 20
1382.025
 30
1.155
 40
11.55
  1
起動電流
 50
0.0
 41
0.9
 51
0.0
  7
KANJI27
  0
TEXT
  8
0
  6
CONTINUOUS
 62
     2
 10
995.825
 20
1368.55
 30
1.155
 40
11.55
  1
　　　Ａ
 50
0.0
 41
0.9
 51
0.0
  7
KANJI27
  0
TEXT
  8
0
  6
CONTINUOUS
 62
     2
 10
938.075
 20
1382.025
 30
1.155
 40
11.55
  1
定格電流
 50
0.0
 41
0.9
 51
0.0
  7
KANJI27
  0
TEXT
  8
0
  6
CONTINUOUS
 62
     2
 10
938.075
 20
1368.55
 30
1.155
 40
11.55
  1
　　　Ａ
 50
0.0
 41
0.9
 51
0.0
  7
KANJI27
  0
TEXT
  8
0
  6
CONTINUOUS
 62
     2
 10
859.92
 20
1382.025
 30
1.155
 40
11.55
  1
電圧／周波数
 50
0.0
 41
0.9
 51
0.0
  7
KANJI27
  0
TEXT
  8
0
  6
CONTINUOUS
 62
     2
 10
859.92
 20
1368.55
 30
1.155
 40
11.55
  1
　Ｖ／Ｈｚ
 50
0.0
 41
0.9
 51
0.0
  7
KANJI27
  0
TEXT
  8
0
  6
CONTINUOUS
 62
     2
 10
859.92
 20
1347.375
 30
1.155
 40
11.55
  1
４００／５０
 50
0.0
 41
0.9
 51
0.0
  7
KANJI27
  0
TEXT
  8
0
  6
CONTINUOUS
 62
     2
 10
859.92
 20
1324.275
 30
1.155
 40
11.55
  1
４００／６０
 50
0.0
 41
0.9
 51
0.0
  7
KANJI27
  0
TEXT
  8
0
  6
CONTINUOUS
 62
     2
 10
859.92
 20
1301.175
 30
1.155
 40
11.55
  1
４４０／６０
 50
0.0
 41
0.9
 51
0.0
  7
KANJI27
  0
TEXT
  8
0
  6
CONTINUOUS
 62
     2
 10
938.075
 20
1347.375
 30
1.155
 40
11.55
  1
　２．０
 50
0.0
 41
0.9
 51
0.0
  7
KANJI27
  0
TEXT
  8
0
  6
CONTINUOUS
 62
     2
 10
938.075
 20
1324.275
 30
1.155
 40
11.55
  1
　１．４
 50
0.0
 41
0.9
 51
0.0
  7
KANJI27
  0
TEXT
  8
0
  6
CONTINUOUS
 62
     2
 10
938.075
 20
1301.175
 30
1.155
 40
11.55
  1
　１．７
 50
0.0
 41
0.9
 51
0.0
  7
KANJI27
  0
TEXT
  8
0
  6
CONTINUOUS
 62
     2
 10
1169.075
 20
1347.375
 30
1.155
 40
11.55
  1
　４．０
 50
0.0
 41
0.9
 51
0.0
  7
KANJI27
  0
TEXT
  8
0
  6
CONTINUOUS
 62
     2
 10
1169.075
 20
1324.275
 30
1.155
 40
11.55
  1
　２．８
 50
0.0
 41
0.9
 51
0.0
  7
KANJI27
  0
TEXT
  8
0
  6
CONTINUOUS
 62
     2
 10
1169.075
 20
1301.175
 30
1.155
 40
11.55
  1
　３．３
 50
0.0
 41
0.9
 51
0.0
  7
KANJI27
  0
TEXT
  8
0
  6
CONTINUOUS
 62
     2
 10
1226.825
 20
1347.375
 30
1.155
 40
11.55
  1
　９．２
 50
0.0
 41
0.9
 51
0.0
  7
KANJI27
  0
TEXT
  8
0
  6
CONTINUOUS
 62
     2
 10
1226.825
 20
1324.275
 30
1.155
 40
11.55
  1
　８
 50
0.0
 41
0.9
 51
0.0
  7
KANJI27
  0
TEXT
  8
0
  6
CONTINUOUS
 62
     2
 10
1226.825
 20
1301.175
 30
1.155
 40
11.55
  1
　８．８
 50
0.0
 41
0.9
 51
0.0
  7
KANJI27
  0
TEXT
  8
0
  6
CONTINUOUS
 62
     2
 10
995.825
 20
1347.375
 30
1.155
 40
11.55
  1
　４．６
 50
0.0
 41
0.9
 51
0.0
  7
KANJI27
  0
TEXT
  8
0
  6
CONTINUOUS
 62
     2
 10
995.825
 20
1324.275
 30
1.155
 40
11.55
  1
　４
 50
0.0
 41
0.9
 51
0.0
  7
KANJI27
  0
TEXT
  8
0
  6
CONTINUOUS
 62
     2
 10
995.825
 20
1301.175
 30
1.155
 40
11.55
  1
　４．４
 50
0.0
 41
0.9
 51
0.0
  7
KANJI27
  0
LINE
  8
0
  6
CONTINUOUS
 62
     2
 10
852.5
 20
1186.45
 30
0.0
 11
1500.5
 21
1186.45
 31
0.0
  0
LINE
  8
0
  6
CONTINUOUS
 62
     2
 10
852.5
 20
1158.45
 30
0.0
 11
1500.5
 21
1158.45
 31
0.0
  0
LINE
  8
0
  6
CONTINUOUS
 62
     2
 10
852.5
 20
1130.45
 30
0.0
 11
1500.5
 21
1130.45
 31
0.0
  0
LINE
  8
0
  6
CONTINUOUS
 62
     2
 10
852.5
 20
1074.45
 30
0.0
 11
1500.5
 21
1074.45
 31
0.0
  0
LINE
  8
0
  6
CONTINUOUS
 62
     2
 10
852.5
 20
1102.45
 30
0.0
 11
1500.5
 21
1102.45
 31
0.0
  0
LINE
  8
0
  6
CONTINUOUS
 62
     2
 10
852.5
 20
1018.45
 30
0.0
 11
1500.5
 21
1018.45
 31
0.0
  0
LINE
  8
0
  6
CONTINUOUS
 62
     2
 10
852.5
 20
1046.45
 30
0.0
 11
1500.5
 21
1046.45
 31
0.0
  0
TEXT
  8
0
  6
CONTINUOUS
 62
     2
 10
1438.5
 20
1193.15
 30
1.2
 40
12.0
  1
　　２０
 50
0.0
 41
0.9
 51
0.0
  7
KANJI18
  0
TEXT
  8
0
  6
CONTINUOUS
 62
     2
 10
1438.5
 20
1165.15
 30
1.2
 40
12.0
  1
　　２１
 50
0.0
 41
0.9
 51
0.0
  7
KANJI18
  0
TEXT
  8
0
  6
CONTINUOUS
 62
     2
 10
1438.5
 20
1137.15
 30
1.2
 40
12.0
  1
　　２２
 50
0.0
 41
0.9
 51
0.0
  7
KANJI18
  0
TEXT
  8
0
  6
CONTINUOUS
 62
     2
 10
1438.5
 20
1109.15
 30
1.2
 40
12.0
  1
　　２３
 50
0.0
 41
0.9
 51
0.0
  7
KANJI18
  0
TEXT
  8
0
  6
CONTINUOUS
 62
     2
 10
1438.5
 20
1081.15
 30
1.2
 40
12.0
  1
　　２４
 50
0.0
 41
0.9
 51
0.0
  7
KANJI18
  0
TEXT
  8
0
  6
CONTINUOUS
 62
     2
 10
1438.5
 20
1053.15
 30
1.2
 40
12.0
  1
　　２５
 50
0.0
 41
0.9
 51
0.0
  7
KANJI18
  0
TEXT
  8
0
  6
CONTINUOUS
 62
     2
 10
1438.5
 20
1025.15
 30
1.2
 40
12.0
  1
　　２６
 50
0.0
 41
0.9
 51
0.0
  7
KANJI18
  0
TEXT
  8
0
  6
CONTINUOUS
 62
     2
 10
1496.5
 20
613.0
 30
10.0
 40
20.0
  1
特記事項
 50
0.0
 41
0.9
 51
0.0
  7
KANJI28
  0
TEXT
  8
0
  6
CONTINUOUS
 62
     2
 10
1426.5
 20
588.0
 30
5.142857143
 40
18.0
  1
１。運転時は必ずピストンロッドの回転防止を行って下さい。
 50
0.0
 41
0.857142857
 51
0.0
  7
KANJI29
  0
TEXT
  8
0
  6
CONTINUOUS
 62
     2
 10
1426.5
 20
564.0
 30
5.13
 40
18.0
  1
２。モートル：全閉自冷かご形３０分定格
 50
0.0
 41
0.857222222
 51
0.0
  7
KANJI30
  0
TEXT
  8
0
  6
CONTINUOUS
 62
     2
 10
1426.1665915
 20
461.500003
 30
5.13
 40
18.0
  1
４。呼称ストロークは、機械的ストロークです。
 50
0.0
 41
0.857222222
 51
0.0
  7
KANJI30
  0
TEXT
  8
0
  6
CONTINUOUS
 62
     2
 10
1426.1665915
 20
436.750003
 30
5.13
 40
18.0
  1
　　必ず、常用はストローク両端に余裕を取って下さい。
 50
0.0
 41
0.857222222
 51
0.0
  7
KANJI30
  0
TEXT
  8
0
  6
CONTINUOUS
 62
     2
 10
1426.1665915
 20
411.750003
 30
5.13
 40
18.0
  1
　　前後の推奨余裕寸法は、各々４０ｍｍです。
 50
0.0
 41
0.857222222
 51
0.0
  7
KANJI30
  0
TEXT
  8
0
  6
CONTINUOUS
 62
     2
 10
1426.1665915
 20
536.500003
 30
5.13
 40
18.0
  1
３。ＬＳユニット
 50
0.0
 41
0.857222222
 51
0.0
  7
KANJI30
  0
TEXT
  8
0
  6
CONTINUOUS
 62
     2
 10
1426.1665915
 20
511.750003
 30
5.13
 40
18.0
  1
　　リミットスイッチ：１ＬＳ１－Ｊ×２ヶ（山武）
 50
0.0
 41
0.857222222
 51
0.0
  7
KANJI30
  0
TEXT
  8
0
  6
CONTINUOUS
 62
     2
 10
1426.1665915
 20
486.750003
 30
5.13
 40
18.0
  1
　　ストローク７００ｍｍ以上の場合２ロッド方式となります。
 50
0.0
 41
0.857222222
 51
0.0
  7
KANJI30
  0
LINE
  8
0
  6
LTYPE2
 62
     2
 10
617.0
 20
532.25
 30
0.0
 11
617.0
 21
664.75
 31
0.0
  0
LINE
  8
0
  6
CONTINUOUS
 62
     1
 10
674.4
 20
560.5
 30
0.0
 11
674.4
 21
640.5
 31
0.0
  0
LINE
  8
0
  6
CONTINUOUS
 62
     1
 10
674.4
 20
632.25
 30
0.0
 11
696.699501379
 21
632.25
 31
0.0
  0
LINE
  8
0
  6
CONTINUOUS
 62
     1
 10
674.4
 20
568.75
 30
0.0
 11
696.699501379
 21
568.75
 31
0.0
  0
LINE
  8
0
  6
CONTINUOUS
 62
     1
 10
674.4
 20
560.5
 30
0.0
 11
674.4
 21
640.5
 31
0.0
  0
LINE
  8
0
  6
CONTINUOUS
 62
     1
 10
666.4
 20
560.5
 30
0.0
 11
674.4
 21
560.5
 31
0.0
  0
LINE
  8
0
  6
CONTINUOUS
 62
     1
 10
666.4
 20
640.5
 30
0.0
 11
674.4
 21
640.5
 31
0.0
  0
LINE
  8
0
  6
CONTINUOUS
 62
     1
 10
666.4
 20
637.5
 30
0.0
 11
674.4
 21
637.5
 31
0.0
  0
LINE
  8
0
  6
CONTINUOUS
 62
     1
 10
666.4
 20
563.5
 30
0.0
 11
674.4
 21
563.5
 31
0.0
  0
LINE
  8
0
  6
CONTINUOUS
 62
     1
 10
666.4
 20
599.0
 30
0.0
 11
674.4
 21
599.0
 31
0.0
  0
LINE
  8
0
  6
CONTINUOUS
 62
     1
 10
666.4
 20
602.0
 30
0.0
 11
674.4
 21
602.0
 31
0.0
  0
LINE
  8
0
  6
CONTINUOUS
 62
     1
 10
666.4
 20
560.5
 30
0.0
 11
666.4
 21
640.5
 31
0.0
  0
LINE
  8
0
  6
CONTINUOUS
 62
     1
 10
730.9
 20
613.0
 30
0.0
 11
755.9
 21
613.0
 31
0.0
  0
LINE
  8
0
  6
CONTINUOUS
 62
     1
 10
730.9
 20
588.0
 30
0.0
 11
755.9
 21
588.0
 31
0.0
  0
LINE
  8
0
  6
CONTINUOUS
 62
     1
 10
730.9
 20
588.0
 30
0.0
 11
730.9
 21
613.0
 31
0.0
  0
CIRCLE
  8
0
  6
CONTINUOUS
 62
     1
 10
743.4
 20
600.5
 30
0.0
 40
12.5
  0
LINE
  8
0
  6
CONTINUOUS
 62
     2
 10
738.850185255
 20
592.35
 30
0.0
 11
738.660119959
 21
582.351806404
 31
0.0
  0
LINE
  8
0
  6
CONTINUOUS
 62
     2
 10
738.850185255
 20
592.35
 30
0.0
 11
733.686487082
 21
583.786343002
 31
0.0
  0
LINE
  8
0
  6
CONTINUOUS
 62
     2
 10
617.0
 20
826.0
 30
0.0
 11
626.659258263
 21
823.411809549
 31
0.0
  0
LINE
  8
0
  6
CONTINUOUS
 62
     2
 10
617.0
 20
826.0
 30
0.0
 11
626.659258263
 21
828.588190451
 31
0.0
  0
LINE
  8
0
  6
CONTINUOUS
 62
     2
 10
617.0
 20
659.5
 30
0.0
 11
617.0
 21
832.0
 31
0.0
  0
LINE
  8
0
  6
CONTINUOUS
 62
     2
 10
617.0
 20
795.5
 30
0.0
 11
626.659258263
 21
792.911809549
 31
0.0
  0
LINE
  8
0
  6
CONTINUOUS
 62
     2
 10
617.0
 20
795.5
 30
0.0
 11
626.659258263
 21
798.088190451
 31
0.0
  0
LINE
  8
0
  6
CONTINUOUS
 62
     2
 10
617.0
 20
826.0
 30
0.0
 11
607.340741737
 21
828.588190451
 31
0.0
  0
LINE
  8
0
  6
CONTINUOUS
 62
     2
 10
617.0
 20
826.0
 30
0.0
 11
607.340741737
 21
823.411809549
 31
0.0
  0
LINE
  8
0
  6
CONTINUOUS
 62
     2
 10
1038.0
 20
826.0
 30
0.0
 11
617.0
 21
826.0
 31
0.0
  0
LINE
  8
0
  6
CONTINUOUS
 62
     2
 10
943.0
 20
795.5
 30
0.0
 11
617.0
 21
795.5
 31
0.0
  0
LINE
  8
0
  6
CONTINUOUS
 62
     1
 10
538.0
 20
543.5
 30
0.0
 11
538.0
 21
600.5
 31
0.0
  0
LINE
  8
0
  6
CONTINUOUS
 62
     1
 10
538.0
 20
657.5
 30
0.0
 11
538.0
 21
600.5
 31
0.0
  0
LINE
  8
0
  6
CONTINUOUS
 62
     1
 10
538.0
 20
563.5
 30
0.0
 11
666.4
 21
563.5
 31
0.0
  0
LINE
  8
0
  6
CONTINUOUS
 62
     1
 10
538.0
 20
637.5
 30
0.0
 11
666.4
 21
637.5
 31
0.0
  0
LINE
  8
0
  6
CONTINUOUS
 62
     1
 10
538.0
 20
657.5
 30
0.0
 11
575.0
 21
638.0
 31
0.0
  0
LINE
  8
0
  6
CONTINUOUS
 62
     1
 10
538.0
 20
543.5
 30
0.0
 11
575.0
 21
563.0
 31
0.0
  0
LINE
  8
0
  6
CONTINUOUS
 62
     1
 10
538.0
 20
603.5
 30
0.0
 11
584.0
 21
603.5
 31
0.0
  0
LINE
  8
0
  6
CONTINUOUS
 62
     1
 10
538.0
 20
597.5
 30
0.0
 11
583.0
 21
597.5
 31
0.0
  0
LINE
  8
0
  6
CONTINUOUS
 62
     2
 10
738.850185255
 20
592.35
 30
0.0
 11
717.748088834
 21
519.187641749
 31
0.0
  0
LINE
  8
0
  6
CONTINUOUS
 62
     1
 10
697.799501379
 20
568.75
 30
0.0
 11
816.999501379
 21
568.75
 31
0.0
  0
LINE
  8
0
  6
CONTINUOUS
 62
     1
 10
527.0
 20
658.0
 30
0.0
 11
538.0
 21
658.0
 31
0.0
  0
LINE
  8
0
  6
CONTINUOUS
 62
     1
 10
527.0
 20
543.0
 30
0.0
 11
538.0
 21
543.0
 31
0.0
  0
LINE
  8
0
  6
CONTINUOUS
 62
     1
 10
504.0
 20
600.5
 30
0.0
 11
504.0
 21
657.5
 31
0.0
  0
ARC
  8
0
  6
CONTINUOUS
 62
     1
 10
508.5
 20
659.0
 30
0.0
 40
1.5
 50
270.0
 51
0.0
  0
LINE
  8
0
  6
CONTINUOUS
 62
     1
 10
510.0
 20
659.0
 30
0.0
 11
510.0
 21
660.0
 31
0.0
  0
ARC
  8
0
  6
CONTINUOUS
 62
     1
 10
511.5
 20
660.0
 30
0.0
 40
1.5
 50
90.0
 51
180.0
  0
LINE
  8
0
  6
CONTINUOUS
 62
     1
 10
355.0
 20
600.5
 30
0.0
 11
355.0
 21
657.5
 31
0.0
  0
ARC
  8
0
  6
CONTINUOUS
 62
     1
 10
351.5
 20
656.0
 30
0.0
 40
1.5
 50
90.0
 51
180.0
  0
LINE
  8
0
  6
CONTINUOUS
 62
     1
 10
510.0
 20
600.5
 30
0.0
 11
510.0
 21
659.6
 31
0.0
  0
LINE
  8
0
  6
CONTINUOUS
 62
     1
 10
350.0
 20
643.570524155
 30
0.0
 11
350.0
 21
656.0
 31
0.0
  0
ARC
  8
0
  6
CONTINUOUS
 62
     1
 10
348.5
 20
643.570524155
 30
0.0
 40
1.5
 50
288.970407808
 51
0.0
  0
LINE
  8
0
  6
CONTINUOUS
 62
     1
 10
334.0
 20
600.5
 30
0.0
 11
334.0
 21
635.929475845
 31
0.0
  0
LINE
  8
0
  6
CONTINUOUS
 62
     1
 10
335.012380347
 20
637.348005744
 30
0.0
 11
348.987619653
 21
642.151994256
 31
0.0
  0
ARC
  8
0
  6
CONTINUOUS
 62
     1
 10
335.5
 20
635.929475845
 30
0.0
 40
1.5
 50
108.970407808
 51
180.0
  0
LINE
  8
0
  6
CONTINUOUS
 62
     1
 10
350.0
 20
600.5
 30
0.0
 11
350.0
 21
643.570524155
 31
0.0
  0
ARC
  8
0
  6
CONTINUOUS
 62
     1
 10
322.0
 20
617.0
 30
0.0
 40
1.0
 50
90.0
 51
180.0
  0
LINE
  8
0
  6
CONTINUOUS
 62
     1
 10
322.0
 20
618.0
 30
0.0
 11
334.0
 21
618.0
 31
0.0
  0
LINE
  8
0
  6
CONTINUOUS
 62
     1
 10
321.0
 20
600.5
 30
0.0
 11
321.0
 21
617.0
 31
0.0
  0
LINE
  8
0
  6
CONTINUOUS
 62
     1
 10
504.0
 20
600.5
 30
0.0
 11
504.0
 21
543.5
 31
0.0
  0
ARC
  8
0
  6
CONTINUOUS
 62
     1
 10
508.5
 20
542.0
 30
0.0
 40
1.5
 50
0.0
 51
90.0
  0
LINE
  8
0
  6
CONTINUOUS
 62
     1
 10
510.0
 20
542.0
 30
0.0
 11
510.0
 21
541.0
 31
0.0
  0
ARC
  8
0
  6
CONTINUOUS
 62
     1
 10
511.5
 20
541.0
 30
0.0
 40
1.5
 50
180.0
 51
270.0
  0
LINE
  8
0
  6
CONTINUOUS
 62
     1
 10
355.0
 20
600.5
 30
0.0
 11
355.0
 21
543.5
 31
0.0
  0
LINE
  8
0
  6
CONTINUOUS
 62
     1
 10
351.5
 20
543.5
 30
0.0
 11
508.5
 21
543.5
 31
0.0
  0
ARC
  8
0
  6
CONTINUOUS
 62
     1
 10
351.5
 20
545.0
 30
0.0
 40
1.5
 50
180.0
 51
270.0
  0
LINE
  8
0
  6
CONTINUOUS
 62
     1
 10
510.0
 20
600.5
 30
0.0
 11
510.0
 21
541.4
 31
0.0
  0
LINE
  8
0
  6
CONTINUOUS
 62
     1
 10
334.0
 20
600.5
 30
0.0
 11
334.0
 21
565.070524155
 31
0.0
  0
ARC
  8
0
  6
CONTINUOUS
 62
     1
 10
335.5
 20
565.070524155
 30
0.0
 40
1.5
 50
180.0
 51
251.029592192
  0
ARC
  8
0
  6
CONTINUOUS
 62
     1
 10
322.0
 20
584.0
 30
0.0
 40
1.0
 50
180.0
 51
270.0
  0
LINE
  8
0
  6
CONTINUOUS
 62
     1
 10
322.0
 20
583.0
 30
0.0
 11
334.0
 21
583.0
 31
0.0
  0
LINE
  8
0
  6
CONTINUOUS
 62
     1
 10
321.0
 20
600.5
 30
0.0
 11
321.0
 21
584.0
 31
0.0
  0
LINE
  8
0
  6
LTYPE3
 62
     2
 10
342.0
 20
636.562445841
 30
0.0
 11
353.0
 21
636.562445841
 31
0.0
  0
LINE
  8
0
  6
CONTINUOUS
 62
     1
 10
350.0
 20
557.429475845
 30
0.0
 11
350.0
 21
545.0
 31
0.0
  0
LINE
  8
0
  6
CONTINUOUS
 62
     1
 10
335.012380347
 20
563.651994256
 30
0.0
 11
348.987619653
 21
558.848005744
 31
0.0
  0
LINE
  8
0
  6
CONTINUOUS
 62
     1
 10
350.0
 20
600.5
 30
0.0
 11
350.0
 21
557.429475845
 31
0.0
  0
LINE
  8
0
  6
LTYPE3
 62
     2
 10
342.0
 20
564.437554159
 30
0.0
 11
353.0
 21
564.437554159
 31
0.0
  0
ARC
  8
0
  6
CONTINUOUS
 62
     1
 10
491.0
 20
660.5
 30
0.0
 40
3.0
 50
270.0
 51
0.0
  0
LINE
  8
0
  6
CONTINUOUS
 62
     1
 10
351.5
 20
657.5
 30
0.0
 11
508.5
 21
657.5
 31
0.0
  0
ARC
  8
0
  6
CONTINUOUS
 62
     1
 10
451.0
 20
660.5
 30
0.0
 40
3.0
 50
180.0
 51
270.0
  0
LINE
  8
0
  6
LTYPE3
 62
     2
 10
471.0
 20
645.5
 30
0.0
 11
471.0
 21
733.4321338
 31
0.0
  0
LINE
  8
0
  6
CONTINUOUS
 62
     1
 10
306.5
 20
616.0
 30
0.0
 11
321.0
 21
616.0
 31
0.0
  0
ARC
  8
0
  6
CONTINUOUS
 62
     1
 10
306.5
 20
614.5
 30
0.0
 40
1.5
 50
90.0
 51
180.0
  0
LINE
  8
0
  6
CONTINUOUS
 62
     1
 10
306.5
 20
585.0
 30
0.0
 11
321.0
 21
585.0
 31
0.0
  0
LINE
  8
0
  6
CONTINUOUS
 62
     1
 10
305.0
 20
586.5
 30
0.0
 11
305.0
 21
614.5
 31
0.0
  0
ARC
  8
0
  6
CONTINUOUS
 62
     1
 10
306.5
 20
586.5
 30
0.0
 40
1.5
 50
180.0
 51
270.0
  0
LINE
  8
2
  6
CONTINUOUS
 62
     2
 10
310.6
 20
618.0
 30
0.0
 11
311.280459689
 21
627.976821869
 31
0.0
  0
LINE
  8
2
  6
CONTINUOUS
 62
     2
 10
310.6
 20
618.0
 30
0.0
 11
306.200884442
 21
626.980411032
 31
0.0
  0
LINE
  8
0
  6
CONTINUOUS
 62
     2
 10
305.0
 20
826.0
 30
0.0
 11
314.659258263
 21
823.411809549
 31
0.0
  0
LINE
  8
0
  6
CONTINUOUS
 62
     2
 10
305.0
 20
826.0
 30
0.0
 11
314.659258263
 21
828.588190451
 31
0.0
  0
LINE
  8
0
  6
CONTINUOUS
 62
     2
 10
305.0
 20
855.5
 30
0.0
 11
314.659258263
 21
852.911809549
 31
0.0
  0
LINE
  8
0
  6
CONTINUOUS
 62
     2
 10
305.0
 20
855.5
 30
0.0
 11
314.659258263
 21
858.088190451
 31
0.0
  0
LINE
  8
0
  6
CONTINUOUS
 62
     2
 10
305.0
 20
623.5
 30
0.0
 11
305.0
 21
861.5
 31
0.0
  0
LINE
  8
0
  6
CONTINUOUS
 62
     2
 10
617.0
 20
826.0
 30
0.0
 11
305.0
 21
826.0
 31
0.0
  0
LINE
  8
0
  6
CONTINUOUS
 62
     2
 10
1024.0
 20
855.5
 30
0.0
 11
305.0
 21
855.5
 31
0.0
  0
LINE
  8
2
  6
CONTINUOUS
 62
     2
 10
247.0
 20
539.5
 30
0.0
 11
249.588190451
 21
549.159258263
 31
0.0
  0
LINE
  8
2
  6
CONTINUOUS
 62
     2
 10
247.0
 20
539.5
 30
0.0
 11
244.411809549
 21
549.159258263
 31
0.0
  0
LINE
  8
2
  6
CONTINUOUS
 62
     2
 10
247.0
 20
539.5
 30
0.0
 11
247.0
 21
661.5
 31
0.0
  0
LINE
  8
2
  6
CONTINUOUS
 62
     2
 10
247.0
 20
661.5
 30
0.0
 11
244.411809549
 21
651.840741737
 31
0.0
  0
LINE
  8
2
  6
CONTINUOUS
 62
     2
 10
247.0
 20
661.5
 30
0.0
 11
249.588190451
 21
651.840741737
 31
0.0
  0
LINE
  8
2
  6
CONTINUOUS
 62
     2
 10
282.0
 20
657.5
 30
0.0
 11
279.411809549
 21
647.840741737
 31
0.0
  0
LINE
  8
2
  6
CONTINUOUS
 62
     2
 10
282.0
 20
657.5
 30
0.0
 11
284.588190451
 21
647.840741737
 31
0.0
  0
LINE
  8
2
  6
CONTINUOUS
 62
     2
 10
282.0
 20
657.5
 30
0.0
 11
282.0
 21
543.5
 31
0.0
  0
LINE
  8
2
  6
CONTINUOUS
 62
     2
 10
282.0
 20
543.5
 30
0.0
 11
284.588190451
 21
553.159258263
 31
0.0
  0
LINE
  8
2
  6
CONTINUOUS
 62
     2
 10
282.0
 20
543.5
 30
0.0
 11
279.411809549
 21
553.159258263
 31
0.0
  0
LINE
  8
2
  6
CONTINUOUS
 62
     2
 10
346.0
 20
657.5
 30
0.0
 11
277.5
 21
657.5
 31
0.0
  0
LINE
  8
2
  6
CONTINUOUS
 62
     2
 10
507.500009344
 20
661.5
 30
0.0
 11
242.5
 21
661.5
 31
0.0
  0
LINE
  8
2
  6
CONTINUOUS
 62
     2
 10
507.500012063
 20
539.5
 30
0.0
 11
242.5
 21
539.5
 31
0.0
  0
LINE
  8
2
  6
CONTINUOUS
 62
     2
 10
346.0
 20
543.5
 30
0.0
 11
277.5
 21
543.5
 31
0.0
  0
LINE
  8
0
  6
CONTINUOUS
 62
     1
 10
405.0
 20
678.5
 30
0.0
 11
405.0
 21
712.5
 31
0.0
  0
LINE
  8
0
  6
CONTINUOUS
 62
     1
 10
405.0
 20
678.5
 30
0.0
 11
431.0
 21
678.5
 31
0.0
  0
LINE
  8
0
  6
CONTINUOUS
 62
     1
 10
405.0
 20
712.5
 30
0.0
 11
431.0
 21
712.5
 31
0.0
  0
LINE
  8
0
  6
LTYPE3
 62
     2
 10
398.070524155
 20
695.5
 30
0.0
 11
438.070524155
 21
695.5
 31
0.0
  0
LINE
  8
0
  6
CONTINUOUS
 62
     1
 10
501.0
 20
670.5
 30
0.0
 11
501.0
 21
673.5
 31
0.0
  0
ARC
  8
0
  6
CONTINUOUS
 62
     1
 10
497.0
 20
667.5
 30
0.0
 40
3.0
 50
90.0
 51
180.0
  0
LINE
  8
0
  6
CONTINUOUS
 62
     1
 10
494.0
 20
660.5
 30
0.0
 11
494.0
 21
667.5
 31
0.0
  0
LINE
  8
0
  6
CONTINUOUS
 62
     1
 10
441.0
 20
670.5
 30
0.0
 11
441.0
 21
673.5
 31
0.0
  0
ARC
  8
0
  6
CONTINUOUS
 62
     1
 10
445.0
 20
667.5
 30
0.0
 40
3.0
 50
0.0
 51
90.0
  0
LINE
  8
0
  6
CONTINUOUS
 62
     1
 10
448.0
 20
660.5
 30
0.0
 11
448.0
 21
667.5
 31
0.0
  0
LINE
  8
0
  6
CONTINUOUS
 62
     1
 10
441.0
 20
670.5
 30
0.0
 11
501.0
 21
670.5
 31
0.0
  0
LINE
  8
0
  6
CONTINUOUS
 62
     1
 10
516.087912088
 20
675.5
 30
0.0
 11
424.0
 21
719.520045888
 31
0.0
  0
LINE
  8
0
  6
CONTINUOUS
 62
     1
 10
518.0
 20
679.5
 30
0.0
 11
516.087912088
 21
675.5
 31
0.0
  0
LINE
  8
0
  6
CONTINUOUS
 62
     1
 10
518.0
 20
679.5
 30
0.0
 11
425.912087912
 21
723.520045888
 31
0.0
  0
LINE
  8
0
  6
CONTINUOUS
 62
     1
 10
425.912087912
 20
723.520045888
 30
0.0
 11
424.0
 21
719.520045888
 31
0.0
  0
LINE
  8
0
  6
CONTINUOUS
 62
     1
 10
511.0
 20
682.846153846
 30
0.0
 11
511.0
 21
722.5
 31
0.0
  0
ARC
  8
0
  6
CONTINUOUS
 62
     1
 10
508.0
 20
722.5
 30
0.0
 40
3.0
 50
0.0
 51
90.0
  0
LINE
  8
0
  6
CONTINUOUS
 62
     1
 10
511.0
 20
676.5
 30
0.0
 11
511.0
 21
677.9321338
 31
0.0
  0
ARC
  8
0
  6
CONTINUOUS
 62
     1
 10
508.0
 20
676.5
 30
0.0
 40
3.0
 50
270.0
 51
0.0
  0
LINE
  8
0
  6
CONTINUOUS
 62
     1
 10
431.0
 20
676.5
 30
0.0
 11
431.0
 21
716.173892042
 31
0.0
  0
LINE
  8
0
  6
CONTINUOUS
 62
     1
 10
434.0
 20
673.5
 30
0.0
 11
508.0
 21
673.5
 31
0.0
  0
ARC
  8
0
  6
CONTINUOUS
 62
     1
 10
434.0
 20
676.5
 30
0.0
 40
3.0
 50
180.0
 51
270.0
  0
LINE
  8
0
  6
CONTINUOUS
 62
     1
 10
431.0
 20
721.087912088
 30
0.0
 11
431.0
 21
722.5
 31
0.0
  0
LINE
  8
0
  6
CONTINUOUS
 62
     1
 10
434.0
 20
725.5
 30
0.0
 11
508.0
 21
725.5
 31
0.0
  0
ARC
  8
0
  6
CONTINUOUS
 62
     1
 10
434.0
 20
722.5
 30
0.0
 40
3.0
 50
90.0
 51
180.0
  0
LINE
  8
0
  6
CONTINUOUS
 62
     2
 10
405.0
 20
695.5
 30
0.0
 11
405.619310852
 21
705.48080428
 31
0.0
  0
LINE
  8
0
  6
CONTINUOUS
 62
     2
 10
405.0
 20
695.5
 30
0.0
 11
400.545936791
 21
704.453285482
 31
0.0
  0
LINE
  8
2
  6
CONTINUOUS
 62
     2
 10
310.6
 20
618.0
 30
0.0
 11
306.137353923
 21
640.75
 31
0.0
  0
LINE
  8
0
  6
CONTINUOUS
 62
     1
 10
348.7
 20
636.562445841
 30
0.0
 11
348.7
 21
631.950565841
 31
0.0
  0
LINE
  8
0
  6
CONTINUOUS
 62
     1
 10
348.7
 20
636.562445841
 30
0.0
 11
348.7
 21
641.174325841
 31
0.0
  0
LINE
  8
0
  6
CONTINUOUS
 62
     1
 10
345.1998
 20
633.080005841
 30
0.0
 11
345.851882488
 21
631.950565841
 31
0.0
  0
LINE
  8
0
  6
CONTINUOUS
 62
     1
 10
345.1998
 20
636.562445841
 30
0.0
 11
345.1998
 21
633.080005841
 31
0.0
  0
LINE
  8
0
  6
CONTINUOUS
 62
     1
 10
345.1998
 20
640.044885841
 30
0.0
 11
345.851882488
 21
641.174325841
 31
0.0
  0
LINE
  8
0
  6
CONTINUOUS
 62
     1
 10
345.1998
 20
636.562445841
 30
0.0
 11
345.1998
 21
640.044885841
 31
0.0
  0
ARC
  8
0
  6
CONTINUOUS
 62
     1
 10
349.603054926
 20
636.562445841
 30
0.0
 40
4.403254926
 50
148.419912243
 51
211.580087757
  0
ARC
  8
0
  6
CONTINUOUS
 62
     1
 10
346.544720132
 20
633.103535841
 30
0.0
 40
1.34512595
 50
121.002313915
 51
182.989498403
  0
LINE
  8
0
  6
CONTINUOUS
 62
     1
 10
345.1998
 20
640.044885841
 30
0.0
 11
345.851882488
 21
641.174325841
 31
0.0
  0
ARC
  8
0
  6
CONTINUOUS
 62
     1
 10
346.544720132
 20
640.021355841
 30
0.0
 40
1.34512595
 50
177.010501597
 51
238.997686085
  0
LINE
  8
0
  6
CONTINUOUS
 62
     1
 10
348.7
 20
631.950565841
 30
0.0
 11
345.851882488
 21
631.950565841
 31
0.0
  0
LINE
  8
0
  6
CONTINUOUS
 62
     1
 10
348.7
 20
634.256505841
 30
0.0
 11
345.851882488
 21
634.256505841
 31
0.0
  0
LINE
  8
0
  6
CONTINUOUS
 62
     1
 10
348.7
 20
638.868385841
 30
0.0
 11
345.851882488
 21
638.868385841
 31
0.0
  0
LINE
  8
0
  6
CONTINUOUS
 62
     1
 10
348.7
 20
641.174325841
 30
0.0
 11
345.851882488
 21
641.174325841
 31
0.0
  0
LINE
  8
0
  6
CONTINUOUS
 62
     1
 10
350.0
 20
631.962445841
 30
0.0
 11
348.7
 21
631.962445841
 31
0.0
  0
LINE
  8
0
  6
CONTINUOUS
 62
     1
 10
350.0
 20
636.562445841
 30
0.0
 11
348.700000446
 21
635.262446287
 31
0.0
  0
LINE
  8
0
  6
CONTINUOUS
 62
     1
 10
348.700000446
 20
636.562445841
 30
0.0
 11
350.0
 21
637.862445394
 31
0.0
  0
LINE
  8
0
  6
CONTINUOUS
 62
     1
 10
350.0
 20
641.162445841
 30
0.0
 11
348.7
 21
641.162445841
 31
0.0
  0
LINE
  8
0
  6
CONTINUOUS
 62
     1
 10
320.0
 20
596.7
 30
0.0
 11
321.0
 21
596.7
 31
0.0
  0
LINE
  8
0
  6
CONTINUOUS
 62
     1
 10
317.2
 20
597.0
 30
0.0
 11
317.517542648
 21
596.45
 31
0.0
  0
LINE
  8
0
  6
CONTINUOUS
 62
     1
 10
317.517542648
 20
596.45
 30
0.0
 11
320.0
 21
596.45
 31
0.0
  0
ARC
  8
0
  6
CONTINUOUS
 62
     1
 10
318.972973788
 20
597.4625
 30
0.0
 40
1.772973788
 50
145.174816769
 51
214.825183231
  0
LINE
  8
0
  6
CONTINUOUS
 62
     1
 10
320.0
 20
604.55
 30
0.0
 11
320.0
 21
596.45
 31
0.0
  0
LINE
  8
0
  6
CONTINUOUS
 62
     1
 10
320.0
 20
604.3
 30
0.0
 11
321.0
 21
604.3
 31
0.0
  0
LINE
  8
0
  6
CONTINUOUS
 62
     1
 10
320.0
 20
600.5
 30
0.0
 11
321.0
 21
601.5
 31
0.0
  0
LINE
  8
0
  6
CONTINUOUS
 62
     1
 10
317.517542648
 20
604.55
 30
0.0
 11
320.0
 21
604.55
 31
0.0
  0
LINE
  8
0
  6
CONTINUOUS
 62
     1
 10
317.2
 20
604.0
 30
0.0
 11
317.517542648
 21
604.55
 31
0.0
  0
LINE
  8
0
  6
CONTINUOUS
 62
     1
 10
317.517542648
 20
602.525
 30
0.0
 11
320.0
 21
602.525
 31
0.0
  0
ARC
  8
0
  6
CONTINUOUS
 62
     1
 10
318.972973788
 20
603.5375
 30
0.0
 40
1.772973788
 50
145.174816769
 51
214.825183231
  0
LINE
  8
0
  6
CONTINUOUS
 62
     1
 10
320.0
 20
599.5
 30
0.0
 11
321.0
 21
600.5
 31
0.0
  0
LINE
  8
0
  6
CONTINUOUS
 62
     1
 10
317.517542648
 20
598.475
 30
0.0
 11
320.0
 21
598.475
 31
0.0
  0
LINE
  8
0
  6
CONTINUOUS
 62
     1
 10
317.2
 20
604.0
 30
0.0
 11
317.2
 21
597.0
 31
0.0
  0
ARC
  8
0
  6
CONTINUOUS
 62
     1
 10
323.815581181
 20
600.5
 30
0.0
 40
6.615581181
 50
162.175912681
 51
197.824087319
  0
ARC
  8
0
  6
CONTINUOUS
 62
     1
 10
348.5
 20
557.429475845
 30
0.0
 40
1.5
 50
0.0
 51
71.029592192
  0
LINE
  8
0
  6
CONTINUOUS
 62
     1
 10
348.7
 20
564.437554159
 30
0.0
 11
348.7
 21
569.049434159
 31
0.0
  0
LINE
  8
0
  6
CONTINUOUS
 62
     1
 10
345.1998
 20
567.919994159
 30
0.0
 11
345.851882488
 21
569.049434159
 31
0.0
  0
LINE
  8
0
  6
CONTINUOUS
 62
     1
 10
345.1998
 20
564.437554159
 30
0.0
 11
345.1998
 21
567.919994159
 31
0.0
  0
ARC
  8
0
  6
CONTINUOUS
 62
     1
 10
346.544720132
 20
567.896464159
 30
0.0
 40
1.34512595
 50
177.010501597
 51
238.997686085
  0
LINE
  8
0
  6
CONTINUOUS
 62
     1
 10
348.7
 20
569.049434159
 30
0.0
 11
345.851882488
 21
569.049434159
 31
0.0
  0
LINE
  8
0
  6
CONTINUOUS
 62
     1
 10
350.0
 20
569.037554159
 30
0.0
 11
348.7
 21
569.037554159
 31
0.0
  0
LINE
  8
0
  6
CONTINUOUS
 62
     1
 10
348.7
 20
564.437554159
 30
0.0
 11
348.7
 21
559.825674159
 31
0.0
  0
LINE
  8
0
  6
CONTINUOUS
 62
     1
 10
345.1998
 20
560.955114159
 30
0.0
 11
345.851882488
 21
559.825674159
 31
0.0
  0
LINE
  8
0
  6
CONTINUOUS
 62
     1
 10
345.1998
 20
564.437554159
 30
0.0
 11
345.1998
 21
560.955114159
 31
0.0
  0
ARC
  8
0
  6
CONTINUOUS
 62
     1
 10
349.603054926
 20
564.437554159
 30
0.0
 40
4.403254926
 50
148.419912243
 51
211.580087757
  0
LINE
  8
0
  6
CONTINUOUS
 62
     1
 10
345.1998
 20
560.955114159
 30
0.0
 11
345.851882488
 21
559.825674159
 31
0.0
  0
ARC
  8
0
  6
CONTINUOUS
 62
     1
 10
346.544720132
 20
560.978644159
 30
0.0
 40
1.34512595
 50
121.002313915
 51
182.989498403
  0
LINE
  8
0
  6
CONTINUOUS
 62
     1
 10
348.7
 20
562.131614159
 30
0.0
 11
345.851882488
 21
562.131614159
 31
0.0
  0
LINE
  8
0
  6
CONTINUOUS
 62
     1
 10
348.7
 20
559.825674159
 30
0.0
 11
345.851882488
 21
559.825674159
 31
0.0
  0
LINE
  8
0
  6
CONTINUOUS
 62
     1
 10
350.0
 20
559.837554159
 30
0.0
 11
348.7
 21
559.837554159
 31
0.0
  0
LINE
  8
0
  6
CONTINUOUS
 62
     1
 10
348.7
 20
566.743494159
 30
0.0
 11
345.851882488
 21
566.743494159
 31
0.0
  0
LINE
  8
0
  6
CONTINUOUS
 62
     1
 10
350.0
 20
564.437554159
 30
0.0
 11
348.700000446
 21
565.737553713
 31
0.0
  0
LINE
  8
0
  6
CONTINUOUS
 62
     1
 10
348.700000446
 20
564.437554159
 30
0.0
 11
350.0
 21
563.137554606
 31
0.0
  0
LINE
  8
0
  6
LTYPE2
 62
     2
 10
297.142278764
 20
600.5
 30
0.0
 11
1070.0
 21
600.5
 31
0.0
  0
LINE
  8
2
  6
CONTINUOUS
 62
     2
 10
617.0
 20
795.5
 30
0.0
 11
607.340741737
 21
798.088190451
 31
0.0
  0
LINE
  8
2
  6
CONTINUOUS
 62
     2
 10
617.0
 20
795.5
 30
0.0
 11
607.340741737
 21
792.911809549
 31
0.0
  0
LINE
  8
2
  6
CONTINUOUS
 62
     2
 10
617.0
 20
795.5
 30
0.0
 11
527.0
 21
795.5
 31
0.0
  0
LINE
  8
2
  6
CONTINUOUS
 62
     2
 10
527.0
 20
795.5
 30
0.0
 11
536.659258263
 21
792.911809549
 31
0.0
  0
LINE
  8
2
  6
CONTINUOUS
 62
     2
 10
527.0
 20
795.5
 30
0.0
 11
536.659258263
 21
798.088190451
 31
0.0
  0
LINE
  8
2
  6
CONTINUOUS
 62
     2
 10
527.0
 20
668.0
 30
0.0
 11
527.0
 21
799.5
 31
0.0
  0
LINE
  8
2
  6
CONTINUOUS
 62
     2
 10
527.0
 20
795.5
 30
0.0
 11
517.340741737
 21
798.088190451
 31
0.0
  0
LINE
  8
2
  6
CONTINUOUS
 62
     2
 10
527.0
 20
795.5
 30
0.0
 11
517.340741737
 21
792.911809549
 31
0.0
  0
LINE
  8
2
  6
CONTINUOUS
 62
     2
 10
527.0
 20
795.5
 30
0.0
 11
305.0
 21
795.5
 31
0.0
  0
LINE
  8
2
  6
CONTINUOUS
 62
     2
 10
305.0
 20
795.5
 30
0.0
 11
314.659258263
 21
792.911809549
 31
0.0
  0
LINE
  8
2
  6
CONTINUOUS
 62
     2
 10
305.0
 20
795.5
 30
0.0
 11
314.659258263
 21
798.088190451
 31
0.0
  0
LINE
  8
0
  6
CONTINUOUS
 62
     1
 10
518.0
 20
660.5
 30
0.0
 11
527.0
 21
660.5
 31
0.0
  0
LINE
  8
0
  6
CONTINUOUS
 62
     1
 10
511.5
 20
661.5
 30
0.0
 11
518.0
 21
661.5
 31
0.0
  0
LINE
  8
0
  6
CONTINUOUS
 62
     1
 10
518.0
 20
539.5
 30
0.0
 11
518.0
 21
600.5
 31
0.0
  0
LINE
  8
0
  6
CONTINUOUS
 62
     1
 10
511.499990656
 20
539.5
 30
0.0
 11
518.0
 21
539.5
 31
0.0
  0
LINE
  8
0
  6
CONTINUOUS
 62
     1
 10
518.0
 20
661.5
 30
0.0
 11
518.0
 21
539.5
 31
0.0
  0
LINE
  8
0
  6
CONTINUOUS
 62
     1
 10
518.0
 20
540.5
 30
0.0
 11
527.0
 21
540.5
 31
0.0
  0
LINE
  8
0
  6
CONTINUOUS
 62
     1
 10
527.0
 20
660.5
 30
0.0
 11
527.0
 21
540.5
 31
0.0
  0
LINE
  8
2
  6
CONTINUOUS
 62
     2
 10
379.495317777
 20
600.5
 30
0.0
 11
382.083508228
 21
610.159258263
 31
0.0
  0
LINE
  8
2
  6
CONTINUOUS
 62
     2
 10
379.495317777
 20
600.5
 30
0.0
 11
376.907127326
 21
610.159258263
 31
0.0
  0
LINE
  8
2
  6
CONTINUOUS
 62
     2
 10
379.495317777
 20
600.5
 30
0.0
 11
379.495317777
 21
725.5
 31
0.0
  0
LINE
  8
2
  6
CONTINUOUS
 62
     2
 10
379.495317777
 20
725.5
 30
0.0
 11
376.907127326
 21
715.840741737
 31
0.0
  0
LINE
  8
2
  6
CONTINUOUS
 62
     2
 10
379.495317777
 20
725.5
 30
0.0
 11
382.083508228
 21
715.840741737
 31
0.0
  0
LINE
  8
2
  6
CONTINUOUS
 62
     2
 10
430.0
 20
725.5
 30
0.0
 11
375.495317777
 21
725.5
 31
0.0
  0
LINE
  8
0
  6
CONTINUOUS
 62
     2
 10
392.031490678
 20
759.532014776
 30
0.0
 11
346.558072957
 21
759.532014776
 31
0.0
  0
LINE
  8
0
  6
CONTINUOUS
 62
     2
 10
405.0
 20
695.5
 30
0.0
 11
392.031490678
 21
759.532014776
 31
0.0
  0
TEXT
  8
0
  6
CONTINUOUS
 62
     2
 10
648.6
 20
859.5
 30
0.0
 40
15.0
  1
ｍｉｎ．ＡＬ
 50
0.0
 41
0.9
 51
0.0
  7
KANJI31
  0
TEXT
  8
0
  6
CONTINUOUS
 62
     2
 10
466.5
 20
830.0
 30
0.0
 40
15.0
  1
３１２
 50
0.0
 41
0.9
 51
0.0
  7
KANJI31
  0
TEXT
  8
2
  6
CONTINUOUS
 62
     2
 10
396.8
 20
799.5
 30
0.0
 40
15.0
  1
２２２
 50
0.0
 41
0.9
 51
0.0
  7
KANJI31
  0
TEXT
  8
2
  6
CONTINUOUS
 62
     2
 10
559.4
 20
799.5
 30
0.0
 40
15.0
  1
９０
 50
0.0
 41
0.9
 51
0.0
  7
KANJI31
  0
TEXT
  8
0
  6
CONTINUOUS
 62
     2
 10
346.558072957
 20
763.532014776
 30
0.0
 40
15.0
  1
ＰＦ３／４
 50
0.0
 41
0.9
 51
0.0
  7
KANJI31
  0
TEXT
  8
2
  6
CONTINUOUS
 62
     2
 10
375.658072957
 20
671.532014776
 30
0.0
 40
15.0
  1
１２５
 50
90.0
 41
0.9
 51
0.0
  7
KANJI31
  0
TEXT
  8
2
  6
CONTINUOUS
 62
     2
 10
243.0
 20
574.7
 30
0.0
 40
15.0
  1
ロ１２２
 50
90.0
 41
0.9
 51
0.0
  7
KANJI31
  0
TEXT
  8
2
  6
CONTINUOUS
 62
     2
 10
278.0
 20
574.7
 30
0.0
 40
15.0
  1
φ１１４
 50
90.0
 41
0.9
 51
0.0
  7
KANJI31
  0
TEXT
  8
0
  6
CONTINUOUS
 62
     2
 10
725.995769772
 20
523.187641749
 30
0.0
 40
15.0
  1
給脂口
 50
0.0
 41
0.9
 51
0.0
  7
KANJI31
  0
TEXT
  8
0
  6
CONTINUOUS
 62
     2
 10
362.9
 20
555.5
 30
0.0
 40
15.0
  1
エコノストップモータ
 50
0.0
 41
0.9
 51
0.0
  7
KANJI31
  0
TEXT
  8
0
  6
CONTINUOUS
 62
     2
 10
365.8
 20
572.5
 30
0.0
 40
15.0
  1
日本電産
 50
0.0
 41
0.9
 51
0.0
  7
KANJI31
  0
LINE
  8
0
  6
CONTINUOUS
 62
     2
 10
717.748088834
 20
519.187641749
 30
0.0
 11
771.0
 21
519.187641749
 31
0.0
  0
CIRCLE
  8
0
  6
CONTINUOUS
 62
     1
 10
617.0
 20
600.5
 30
0.0
 40
33.75
  0
CIRCLE
  8
0
  6
CONTINUOUS
 62
     1
 10
617.0
 20
600.5
 30
0.0
 40
25.0
  0
CIRCLE
  8
0
  6
CONTINUOUS
 62
     1
 10
617.0
 20
600.5
 30
0.0
 40
8.0
  0
LINE
  8
0
  6
CONTINUOUS
 62
     2
 10
620.692462312
 20
607.25
 30
0.0
 11
644.074874372
 21
695.6
 31
0.0
  0
LINE
  8
0
  6
CONTINUOUS
 62
     2
 10
620.375
 20
607.25
 30
0.0
 11
620.336568356
 21
619.74994092
 31
0.0
  0
LINE
  8
0
  6
CONTINUOUS
 62
     2
 10
620.375
 20
607.25
 30
0.0
 11
626.59168768
 21
618.094482205
 31
0.0
  0
LINE
  8
0
  6
CONTINUOUS
 62
     2
 10
620.375
 20
607.25
 30
0.0
 11
620.336568356
 21
619.74994092
 31
0.0
  0
LINE
  8
0
  6
CONTINUOUS
 62
     2
 10
620.375
 20
607.25
 30
0.0
 11
626.59168768
 21
618.094482205
 31
0.0
  0
TEXT
  8
0
  6
CONTINUOUS
 62
     2
 10
644.1
 20
699.6
 30
0.0
 40
15.0
  1
φ１６Ｈ１０深２２
 50
0.0
 41
0.9
 51
0.0
  7
KANJI31
  0
LINE
  8
0
  6
CONTINUOUS
 62
     2
 10
644.074874372
 20
695.6
 30
0.0
 11
778.0
 21
695.6
 31
0.0
  0
LINE
  8
0
  6
CONTINUOUS
 62
     1
 10
422.0
 20
650.0
 30
0.0
 11
422.0
 21
607.0
 31
0.0
  0
LINE
  8
0
  6
CONTINUOUS
 62
     1
 10
422.0
 20
650.0
 30
0.0
 11
492.0
 21
650.0
 31
0.0
  0
LINE
  8
0
  6
CONTINUOUS
 62
     1
 10
492.0
 20
650.0
 30
0.0
 11
492.0
 21
607.0
 31
0.0
  0
TEXT
  8
0
  6
CONTINUOUS
 62
     2
 10
433.0
 20
612.0
 30
5.0
 40
20.0
  1
銘板
 50
0.0
 41
0.925
 51
0.0
  7
KANJI32
  0
LINE
  8
0
  6
CONTINUOUS
 62
     1
 10
422.0
 20
607.0
 30
0.0
 11
492.0
 21
607.0
 31
0.0
  0
LINE
  8
0
  6
LTYPE3
 62
     6
 10
240.805262694
 20
903.633317
 30
0.0
 11
110.408333
 21
903.633317
 31
0.0
  0
LINE
  8
0
  6
CONTINUOUS
 62
     6
 10
105.38354931
 20
878.927506033
 30
0.0
 11
115.588526417
 21
889.13248314
 31
0.0
  0
TEXT
  8
0
  6
CONTINUOUS
 62
     6
 10
120.653806047
 20
912.299448352
 30
1.518597784
 40
15.185977837
  1
エコノストップモータ
 50
0.0
 41
0.66671875
 51
0.0
  7
KANJI33
  0
LINE
  8
0
  6
LTYPE3
 62
     6
 10
240.805262694
 20
808.221584891
 30
0.0
 11
240.805262694
 21
903.633317
 31
0.0
  0
CIRCLE
  8
0
  6
CONTINUOUS
 62
     6
 10
155.237339575
 20
858.439846957
 30
0.0
 40
18.223173404
  0
TEXT
  8
0
  6
CONTINUOUS
 62
     6
 10
147.583606745
 20
849.692723723
 30
1.82231734
 40
18.223173404
  1
Ｍ
 50
0.0
 41
0.9
 51
0.0
  7
KANJI34
  0
LINE
  8
0
  6
CONTINUOUS
 62
     6
 10
131.182750681
 20
832.927404191
 30
0.0
 11
142.481118192
 21
846.048089042
 31
0.0
  0
LINE
  8
0
  6
CONTINUOUS
 62
     6
 10
131.182750681
 20
883.952289723
 30
0.0
 11
142.481118192
 21
870.831604872
 31
0.0
  0
LINE
  8
0
  6
CONTINUOUS
 62
     6
 10
131.182750681
 20
883.952289723
 30
0.0
 11
114.781894617
 21
883.952289723
 31
0.0
  0
LINE
  8
0
  6
CONTINUOUS
 62
     6
 10
137.378629639
 20
858.439846957
 30
0.0
 11
114.781894617
 21
858.439846957
 31
0.0
  0
LINE
  8
0
  6
CONTINUOUS
 62
     6
 10
131.182750681
 20
832.927404191
 30
0.0
 11
114.781894617
 21
832.927404191
 31
0.0
  0
LINE
  8
0
  6
CONTINUOUS
 62
     6
 10
105.38354931
 20
853.415063267
 30
0.0
 11
115.588526417
 21
863.620040374
 31
0.0
  0
LINE
  8
0
  6
CONTINUOUS
 62
     6
 10
105.38354931
 20
827.902620501
 30
0.0
 11
115.588526417
 21
838.107597607
 31
0.0
  0
LINE
  8
0
  6
LTYPE3
 62
     6
 10
240.805262694
 20
808.221584891
 30
0.0
 11
110.408333
 21
808.221584891
 31
0.0
  0
TEXT
  8
0
  6
CONTINUOUS
 62
     2
 10
115.503726364
 20
783.012221811
 30
0.0
 40
15.6
  1
モーター結線図
 50
0.0
 41
0.925
 51
0.0
  7
KANJI35
  0
TEXT
  8
0
  6
CONTINUOUS
 62
     6
 10
181.162021562
 20
850.184749405
 30
1.457853872
 40
14.578538724
  1
Ｂ
 50
0.0
 41
0.9
 51
0.0
  7
KANJI36
  0
CIRCLE
  8
0
  6
CONTINUOUS
 62
     6
 10
187.722363988
 20
858.439846957
 30
0.0
 40
14.578538724
  0
LINE
  8
0
  6
LTYPE3
 62
     6
 10
110.408333
 20
903.633317
 30
0.0
 11
110.408333
 21
887.232460936
 31
0.0
  0
TEXT
  8
0
  6
CONTINUOUS
 62
     6
 10
92.873590591
 20
890.148168681
 30
1.093390404
 40
10.933904043
  1
Ｕ
 50
0.0
 41
0.9
 51
0.0
  7
KANJI37
  0
CIRCLE
  8
0
  6
CONTINUOUS
 62
     6
 10
110.408333
 20
883.952289723
 30
0.0
 40
4.373561617
  0
TEXT
  8
0
  6
CONTINUOUS
 62
     6
 10
93.966980995
 20
864.271262446
 30
1.093390404
 40
10.933904043
  1
Ｖ
 50
0.0
 41
0.9
 51
0.0
  7
KANJI37
  0
TEXT
  8
0
  6
CONTINUOUS
 62
     6
 10
95.060371399
 20
838.394356212
 30
1.093390404
 40
10.933904043
  1
Ｗ
 50
0.0
 41
0.9
 51
0.0
  7
KANJI37
  0
CIRCLE
  8
0
  6
CONTINUOUS
 62
     6
 10
110.408333
 20
858.439846957
 30
0.0
 40
4.373561617
  0
LINE
  8
0
  6
LTYPE3
 62
     6
 10
110.408333
 20
879.943191574
 30
0.0
 11
110.408333
 21
861.72001817
 31
0.0
  0
CIRCLE
  8
0
  6
CONTINUOUS
 62
     6
 10
110.408333
 20
832.927404191
 30
0.0
 40
4.373561617
  0
LINE
  8
0
  6
LTYPE3
 62
     6
 10
110.408333
 20
854.430748808
 30
0.0
 11
110.408333
 21
837.300965808
 31
0.0
  0
LINE
  8
0
  6
LTYPE3
 62
     6
 10
110.408333
 20
828.553842574
 30
0.0
 11
110.408333
 21
808.221584891
 31
0.0
  0
ARC
  8
0
  6
CONTINUOUS
 62
     2
 10
177.0
 20
603.0
 30
0.0
 40
20.0
 50
231.952957468
 51
156.801409486
  0
TEXT
  8
0
  6
CONTINUOUS
 62
     2
 10
96.6170994
 20
593.878385972
 30
0.0
 40
15.0
  1
前進方向
 50
0.0
 41
0.9
 51
0.0
  7
KANJI31
  0
LINE
  8
0
  6
CONTINUOUS
 62
     2
 10
158.6170994
 20
610.878385972
 30
0.0
 11
160.91179211
 21
620.715824749
 31
0.0
  0
LINE
  8
0
  6
CONTINUOUS
 62
     2
 10
158.6170994
 20
610.878385972
 30
0.0
 11
166.885260778
 21
615.785722507
 31
0.0
  0
LINE
  8
0
  6
CONTINUOUS
 62
     1
 10
838.999501379
 20
291.6
 30
0.0
 11
870.999501379
 21
291.6
 31
0.0
  0
LINE
  8
0
  6
CONTINUOUS
 62
     1
 10
838.999501379
 20
259.6
 30
0.0
 11
838.999501379
 21
291.6
 31
0.0
  0
ARC
  8
0
  6
CONTINUOUS
 62
     1
 10
799.999501379
 20
348.1
 30
0.0
 40
10.0
 50
90.0
 51
180.0
  0
LINE
  8
0
  6
CONTINUOUS
 62
     1
 10
919.999501379
 20
346.3
 30
0.0
 11
919.999501379
 21
348.1
 31
0.0
  0
LINE
  8
0
  6
CONTINUOUS
 62
     1
 10
799.999501379
 20
358.1
 30
0.0
 11
909.999501379
 21
358.1
 31
0.0
  0
ARC
  8
0
  6
CONTINUOUS
 62
     1
 10
909.999501379
 20
348.1
 30
0.0
 40
10.0
 50
0.0
 51
90.0
  0
LINE
  8
0
  6
LTYPE2
 62
     2
 10
921.260522596
 20
333.6
 30
0.0
 11
829.999501379
 21
333.6
 31
0.0
  0
LINE
  8
0
  6
CONTINUOUS
 62
     1
 10
870.999501379
 20
259.6
 30
0.0
 11
838.999501379
 21
259.6
 31
0.0
  0
LINE
  8
0
  6
LTYPE2
 62
     2
 10
865.499501379
 20
232.7
 30
0.0
 11
876.399501379
 21
232.7
 31
0.0
  0
LINE
  8
0
  6
LTYPE2
 62
     2
 10
871.399501379
 20
226.68
 30
0.0
 11
871.399501379
 21
236.6
 31
0.0
  0
LINE
  8
0
  6
LTYPE2
 62
     2
 10
864.959501379
 20
202.5
 30
0.0
 11
876.399501379
 21
202.5
 31
0.0
  0
LINE
  8
0
  6
LTYPE2
 62
     2
 10
871.399501379
 20
198.6
 30
0.0
 11
871.399501379
 21
207.58
 31
0.0
  0
LINE
  8
0
  6
LTYPE2
 62
     2
 10
807.699501379
 20
202.5
 30
0.0
 11
817.659501379
 21
202.5
 31
0.0
  0
LINE
  8
0
  6
LTYPE2
 62
     2
 10
812.699501379
 20
198.6
 30
0.0
 11
812.699501379
 21
206.48
 31
0.0
  0
LINE
  8
0
  6
LTYPE2
 62
     2
 10
807.699501379
 20
232.7
 30
0.0
 11
817.499501379
 21
232.7
 31
0.0
  0
LINE
  8
0
  6
LTYPE2
 62
     2
 10
812.699501379
 20
226.58
 30
0.0
 11
812.699501379
 21
236.6
 31
0.0
  0
LINE
  8
0
  6
LTYPE2
 62
     2
 10
808.999501379
 20
255.6
 30
0.0
 11
785.999501379
 21
255.6
 31
0.0
  0
LINE
  8
0
  6
CONTINUOUS
 62
     1
 10
784.299501379
 20
204.9
 30
0.0
 11
807.699501379
 21
204.9
 31
0.0
  0
ARC
  8
0
  6
CONTINUOUS
 62
     1
 10
784.299501379
 20
206.9
 30
0.0
 40
2.0
 50
180.0
 51
270.0
  0
LINE
  8
0
  6
CONTINUOUS
 62
     1
 10
782.299501379
 20
206.9
 30
0.0
 11
782.299501379
 21
228.3
 31
0.0
  0
ARC
  8
0
  6
CONTINUOUS
 62
     1
 10
784.299501379
 20
228.3
 30
0.0
 40
2.0
 50
90.0
 51
180.0
  0
LINE
  8
0
  6
CONTINUOUS
 62
     1
 10
807.699501379
 20
199.6
 30
0.0
 11
807.699501379
 21
235.6
 31
0.0
  0
ARC
  8
0
  6
CONTINUOUS
 62
     1
 10
809.699501379
 20
235.6
 30
0.0
 40
2.0
 50
90.0
 51
180.0
  0
LINE
  8
0
  6
CONTINUOUS
 62
     1
 10
809.699501379
 20
237.6
 30
0.0
 11
874.399501379
 21
237.6
 31
0.0
  0
ARC
  8
0
  6
CONTINUOUS
 62
     1
 10
874.399501379
 20
235.6
 30
0.0
 40
2.0
 50
0.0
 51
90.0
  0
LINE
  8
0
  6
CONTINUOUS
 62
     1
 10
876.399501379
 20
199.6
 30
0.0
 11
876.399501379
 21
235.6
 31
0.0
  0
ARC
  8
0
  6
CONTINUOUS
 62
     1
 10
909.999501379
 20
203.1
 30
0.0
 40
10.0
 50
270.0
 51
0.0
  0
LINE
  8
0
  6
CONTINUOUS
 62
     1
 10
789.999501379
 20
204.9
 30
0.0
 11
789.999501379
 21
203.1
 31
0.0
  0
ARC
  8
0
  6
CONTINUOUS
 62
     1
 10
799.999501379
 20
203.1
 30
0.0
 40
10.0
 50
180.0
 51
270.0
  0
LINE
  8
0
  6
CONTINUOUS
 62
     1
 10
792.007817392
 20
217.915789474
 30
0.0
 11
794.005045388
 21
255.810526316
 31
0.0
  0
LINE
  8
0
  6
CONTINUOUS
 62
     1
 10
803.991185367
 20
217.915789474
 30
0.0
 11
801.993957371
 21
255.810526316
 31
0.0
  0
ARC
  8
0
  6
CONTINUOUS
 62
     1
 10
797.999501379
 20
255.6
 30
0.0
 40
4.0
 50
356.983042101
 51
183.016952287
  0
ARC
  8
0
  6
CONTINUOUS
 62
     1
 10
797.999501379
 20
255.6
 30
0.0
 40
8.75
 50
300.219855722
 51
239.780144278
  0
ARC
  8
0
  6
CONTINUOUS
 62
     1
 10
797.999501379
 20
217.6
 30
0.0
 40
6.0
 50
176.983045121
 51
3.016954879
  0
LINE
  8
0
  6
CONTINUOUS
 62
     1
 10
803.338480162
 20
230.3
 30
0.0
 11
807.699501379
 21
230.3
 31
0.0
  0
LINE
  8
0
  6
CONTINUOUS
 62
     1
 10
784.299501379
 20
230.3
 30
0.0
 11
792.660522596
 21
230.3
 31
0.0
  0
LINE
  8
0
  6
LTYPE2
 62
     2
 10
797.999501379
 20
208.5
 30
0.0
 11
797.999501379
 21
266.0
 31
0.0
  0
LINE
  8
0
  6
LTYPE2
 62
     2
 10
788.738480162
 20
217.6
 30
0.0
 11
879.999501379
 21
217.6
 31
0.0
  0
LINE
  8
0
  6
CONTINUOUS
 62
     1
 10
870.999501379
 20
259.6
 30
0.0
 11
870.999501379
 21
291.6
 31
0.0
  0
LINE
  8
0
  6
CONTINUOUS
 62
     1
 10
789.999501379
 20
252.05563828
 30
0.0
 11
789.999501379
 21
230.25
 31
0.0
  0
LINE
  8
0
  6
CONTINUOUS
 62
     1
 10
789.999501379
 20
267.6
 30
0.0
 11
789.999501379
 21
259.14436172
 31
0.0
  0
LINE
  8
0
  6
CONTINUOUS
 62
     1
 10
919.999501379
 20
299.14436172
 30
0.0
 11
919.999501379
 21
320.95
 31
0.0
  0
LINE
  8
0
  6
CONTINUOUS
 62
     1
 10
919.999501379
 20
283.6
 30
0.0
 11
919.999501379
 21
292.05563828
 31
0.0
  0
LINE
  8
0
  6
CONTINUOUS
 62
     1
 10
773.620444363
 20
267.6
 30
0.0
 11
838.999501379
 21
267.6
 31
0.0
  0
LINE
  8
0
  6
CONTINUOUS
 62
     1
 10
838.999501379
 20
283.6
 30
0.0
 11
773.690079342
 21
283.6
 31
0.0
  0
ARC
  8
0
  6
CONTINUOUS
 62
     1
 10
779.244969957
 20
279.6
 30
0.0
 40
6.845203412
 50
144.242860688
 51
215.757139312
  0
ARC
  8
0
  6
CONTINUOUS
 62
     1
 10
768.135188727
 20
279.6
 30
0.0
 40
6.845203412
 50
324.242860688
 51
35.757139312
  0
ARC
  8
0
  6
CONTINUOUS
 62
     1
 10
768.135188727
 20
271.6
 30
0.0
 40
6.845203412
 50
324.242860688
 51
35.757139312
  0
LINE
  8
0
  6
CONTINUOUS
 62
     1
 10
926.499501379
 20
265.6
 30
0.0
 11
926.499501379
 21
285.6
 31
0.0
  0
LINE
  8
0
  6
CONTINUOUS
 62
     1
 10
926.499501379
 20
285.6
 30
0.0
 11
940.35590784
 21
293.6
 31
0.0
  0
LINE
  8
0
  6
CONTINUOUS
 62
     1
 10
926.499501379
 20
265.6
 30
0.0
 11
940.35590784
 21
257.6
 31
0.0
  0
LINE
  8
0
  6
CONTINUOUS
 62
     1
 10
870.999501379
 20
283.6
 30
0.0
 11
926.499501379
 21
283.6
 31
0.0
  0
LINE
  8
0
  6
CONTINUOUS
 62
     1
 10
926.499501379
 20
267.6
 30
0.0
 11
870.999501379
 21
267.6
 31
0.0
  0
LINE
  8
0
  6
LTYPE3
 62
     2
 10
1003.499501379
 20
275.6
 30
0.0
 11
768.655261852
 21
275.6
 31
0.0
  0
LINE
  8
7
  6
CONTINUOUS
 62
     2
 10
876.399501379
 20
217.6
 30
0.0
 11
884.766808964
 21
223.076144975
 31
0.0
  0
LINE
  8
7
  6
CONTINUOUS
 62
     2
 10
876.399501379
 20
217.6
 30
0.0
 11
880.907729822
 21
226.526134455
 31
0.0
  0
LINE
  8
7
  6
CONTINUOUS
 62
     2
 10
876.399501379
 20
217.6
 30
0.0
 11
889.049501379
 21
231.75
 31
0.0
  0
LINE
  8
7
  6
CONTINUOUS
 62
     2
 10
889.049501379
 20
231.75
 30
0.0
 11
947.849501379
 21
231.75
 31
0.0
  0
TEXT
  8
7
  6
CONTINUOUS
 62
     2
 10
889.049501379
 20
235.75
 30
1.2
 40
12.0
  1
ＰＦ１／２
 50
0.0
 41
0.9
 51
0.0
  7
KANJI18
  0
LINE
  8
7
  6
CONTINUOUS
 62
     2
 10
833.599501379
 20
333.6
 30
0.0
 11
825.29102349
 21
328.035002681
 31
0.0
  0
LINE
  8
7
  6
CONTINUOUS
 62
     2
 10
833.599501379
 20
333.6
 30
0.0
 11
829.18664712
 21
324.626332005
 31
0.0
  0
LINE
  8
7
  6
CONTINUOUS
 62
     2
 10
833.599501379
 20
333.6
 30
0.0
 11
822.399501379
 21
320.8
 31
0.0
  0
LINE
  8
7
  6
CONTINUOUS
 62
     2
 10
822.399501379
 20
320.8
 30
0.0
 11
763.599501379
 21
320.8
 31
0.0
  0
TEXT
  8
7
  6
CONTINUOUS
 62
     2
 10
763.599501379
 20
324.8
 30
1.2
 40
12.0
  1
ＰＦ１／２
 50
0.0
 41
0.9
 51
0.0
  7
KANJI18
  0
LINE
  8
0
  6
CONTINUOUS
 62
     1
 10
789.999501379
 20
337.8
 30
0.0
 11
789.999501379
 21
348.1
 31
0.0
  0
LINE
  8
0
  6
CONTINUOUS
 62
     1
 10
789.999501379
 20
283.6
 30
0.0
 11
789.999501379
 21
317.8
 31
0.0
  0
LINE
  8
0
  6
CONTINUOUS
 62
     1
 10
919.999501379
 20
228.8
 30
0.0
 11
919.999501379
 21
203.1
 31
0.0
  0
LINE
  8
0
  6
LTYPE2
 62
     2
 10
845.039501379
 20
348.7
 30
0.0
 11
833.599501379
 21
348.7
 31
0.0
  0
LINE
  8
0
  6
LTYPE2
 62
     2
 10
838.599501379
 20
352.6
 30
0.0
 11
838.599501379
 21
343.62
 31
0.0
  0
LINE
  8
0
  6
CONTINUOUS
 62
     1
 10
900.299501379
 20
353.6
 30
0.0
 11
835.599501379
 21
353.6
 31
0.0
  0
LINE
  8
0
  6
CONTINUOUS
 62
     1
 10
833.599501379
 20
351.6
 30
0.0
 11
833.599501379
 21
315.6
 31
0.0
  0
ARC
  8
0
  6
CONTINUOUS
 62
     1
 10
835.599501379
 20
351.6
 30
0.0
 40
2.0
 50
90.0
 51
180.0
  0
LINE
  8
0
  6
LTYPE2
 62
     2
 10
844.499501379
 20
318.5
 30
0.0
 11
833.599501379
 21
318.5
 31
0.0
  0
LINE
  8
0
  6
LTYPE2
 62
     2
 10
838.599501379
 20
324.52
 30
0.0
 11
838.599501379
 21
314.6
 31
0.0
  0
LINE
  8
0
  6
CONTINUOUS
 62
     1
 10
900.299501379
 20
313.6
 30
0.0
 11
835.599501379
 21
313.6
 31
0.0
  0
ARC
  8
0
  6
CONTINUOUS
 62
     1
 10
835.599501379
 20
315.6
 30
0.0
 40
2.0
 50
180.0
 51
270.0
  0
LINE
  8
0
  6
LTYPE2
 62
     2
 10
902.299501379
 20
348.7
 30
0.0
 11
892.339501379
 21
348.7
 31
0.0
  0
LINE
  8
0
  6
LTYPE2
 62
     2
 10
897.299501379
 20
352.6
 30
0.0
 11
897.299501379
 21
344.72
 31
0.0
  0
ARC
  8
0
  6
CONTINUOUS
 62
     1
 10
900.299501379
 20
351.6
 30
0.0
 40
2.0
 50
0.0
 51
90.0
  0
LINE
  8
0
  6
CONTINUOUS
 62
     1
 10
925.699501379
 20
346.3
 30
0.0
 11
902.299501379
 21
346.3
 31
0.0
  0
LINE
  8
0
  6
CONTINUOUS
 62
     1
 10
902.299501379
 20
351.6
 30
0.0
 11
902.299501379
 21
315.6
 31
0.0
  0
LINE
  8
0
  6
LTYPE2
 62
     2
 10
902.299501379
 20
318.5
 30
0.0
 11
892.499501379
 21
318.5
 31
0.0
  0
LINE
  8
0
  6
LTYPE2
 62
     2
 10
897.299501379
 20
324.62
 30
0.0
 11
897.299501379
 21
314.6
 31
0.0
  0
ARC
  8
0
  6
CONTINUOUS
 62
     1
 10
900.299501379
 20
315.6
 30
0.0
 40
2.0
 50
270.0
 51
0.0
  0
LINE
  8
0
  6
CONTINUOUS
 62
     1
 10
906.660522596
 20
320.9
 30
0.0
 11
902.299501379
 21
320.9
 31
0.0
  0
ARC
  8
0
  6
CONTINUOUS
 62
     1
 10
925.699501379
 20
344.3
 30
0.0
 40
2.0
 50
0.0
 51
90.0
  0
LINE
  8
0
  6
CONTINUOUS
 62
     1
 10
927.699501379
 20
344.3
 30
0.0
 11
927.699501379
 21
322.9
 31
0.0
  0
ARC
  8
0
  6
CONTINUOUS
 62
     1
 10
911.999501379
 20
333.6
 30
0.0
 40
6.0
 50
356.983045121
 51
183.016954879
  0
LINE
  8
0
  6
LTYPE2
 62
     2
 10
911.999501379
 20
342.7
 30
0.0
 11
911.999501379
 21
285.2
 31
0.0
  0
LINE
  8
0
  6
CONTINUOUS
 62
     1
 10
917.991185367
 20
333.284210526
 30
0.0
 11
915.993957371
 21
295.389473684
 31
0.0
  0
LINE
  8
0
  6
CONTINUOUS
 62
     1
 10
906.007817392
 20
333.284210526
 30
0.0
 11
908.005045388
 21
295.389473684
 31
0.0
  0
ARC
  8
0
  6
CONTINUOUS
 62
     1
 10
925.699501379
 20
322.9
 30
0.0
 40
2.0
 50
270.0
 51
0.0
  0
LINE
  8
0
  6
CONTINUOUS
 62
     1
 10
925.699501379
 20
320.9
 30
0.0
 11
917.338480162
 21
320.9
 31
0.0
  0
LINE
  8
0
  6
LTYPE2
 62
     2
 10
900.999501379
 20
295.6
 30
0.0
 11
923.999501379
 21
295.6
 31
0.0
  0
ARC
  8
0
  6
CONTINUOUS
 62
     1
 10
911.999501379
 20
295.6
 30
0.0
 40
8.75
 50
120.219855722
 51
59.780144278
  0
ARC
  8
0
  6
CONTINUOUS
 62
     1
 10
911.999501379
 20
295.6
 30
0.0
 40
4.0
 50
176.983042101
 51
3.016952287
  0
ARC
  8
0
  6
CONTINUOUS
 62
     1
 10
993.254032801
 20
279.6
 30
0.0
 40
6.845203412
 50
324.242860688
 51
35.757139312
  0
ARC
  8
0
  6
CONTINUOUS
 62
     1
 10
1004.363814032
 20
279.6
 30
0.0
 40
6.845203412
 50
144.242860688
 51
215.757139312
  0
ARC
  8
0
  6
CONTINUOUS
 62
     1
 10
1004.363814032
 20
271.6
 30
0.0
 40
6.845203412
 50
144.242860688
 51
215.757139312
  0
LINE
  8
0
  6
CONTINUOUS
 62
     1
 10
940.35590784
 20
257.6
 30
0.0
 11
940.35590784
 21
293.6
 31
0.0
  0
LINE
  8
0
  6
CONTINUOUS
 62
     1
 10
976.499501379
 20
265.6
 30
0.0
 11
976.499501379
 21
285.6
 31
0.0
  0
LINE
  8
0
  6
CONTINUOUS
 62
     1
 10
962.643094919
 20
257.6
 30
0.0
 11
962.643094919
 21
293.6
 31
0.0
  0
LINE
  8
0
  6
CONTINUOUS
 62
     1
 10
940.35590784
 20
293.6
 30
0.0
 11
962.643094919
 21
293.6
 31
0.0
  0
LINE
  8
0
  6
CONTINUOUS
 62
     1
 10
976.499501379
 20
285.6
 30
0.0
 11
962.643094919
 21
293.6
 31
0.0
  0
LINE
  8
0
  6
CONTINUOUS
 62
     1
 10
940.35590784
 20
257.6
 30
0.0
 11
962.643094919
 21
257.6
 31
0.0
  0
LINE
  8
0
  6
CONTINUOUS
 62
     1
 10
976.499501379
 20
265.6
 30
0.0
 11
962.643094919
 21
257.6
 31
0.0
  0
LINE
  8
0
  6
CONTINUOUS
 62
     1
 10
940.35590784
 20
257.6
 30
0.0
 11
962.643094919
 21
257.6
 31
0.0
  0
LINE
  8
0
  6
LTYPE3
 62
     2
 10
951.499501379
 20
265.6
 30
0.0
 11
951.499501379
 21
285.6
 31
0.0
  0
CIRCLE
  8
0
  6
CONTINUOUS
 62
     2
 10
951.499501379
 20
275.6
 30
0.0
 40
5.0
  0
CIRCLE
  8
0
  6
CONTINUOUS
 62
     2
 10
951.499501379
 20
275.6
 30
0.0
 40
4.0
  0
LINE
  8
0
  6
CONTINUOUS
 62
     1
 10
976.499501379
 20
283.6
 30
0.0
 11
998.808923417
 21
283.6
 31
0.0
  0
LINE
  8
0
  6
CONTINUOUS
 62
     1
 10
998.808923417
 20
267.6
 30
0.0
 11
976.499501379
 21
267.6
 31
0.0
  0
LINE
  8
0
  6
LTYPE3
 62
     2
 10
854.999501379
 20
241.5
 30
0.0
 11
854.999501379
 21
518.5
 31
0.0
  0
ARC
  8
0
  6
CONTINUOUS
 62
     1
 10
809.699501379
 20
199.6
 30
0.0
 40
2.0
 50
180.0
 51
270.0
  0
LINE
  8
0
  6
CONTINUOUS
 62
     1
 10
809.699501379
 20
197.6
 30
0.0
 11
874.399501379
 21
197.6
 31
0.0
  0
ARC
  8
0
  6
CONTINUOUS
 62
     1
 10
874.399501379
 20
199.6
 30
0.0
 40
2.0
 50
270.0
 51
0.0
  0
LINE
  8
0
  6
CONTINUOUS
 62
     1
 10
909.999501379
 20
193.1
 30
0.0
 11
799.999501379
 21
193.1
 31
0.0
  0
LINE
  8
0
  6
CONTINUOUS
 62
     1
 10
1003.0
 20
580.5
 30
0.0
 11
1053.0
 21
580.5
 31
0.0
  0
LINE
  8
0
  6
CONTINUOUS
 62
     1
 10
1056.0
 20
583.5
 30
0.0
 11
1056.0
 21
600.5
 31
0.0
  0
LINE
  8
0
  6
CONTINUOUS
 62
     1
 10
1053.0
 20
580.5
 30
0.0
 11
1056.0
 21
583.5
 31
0.0
  0
LINE
  8
0
  6
CONTINUOUS
 62
     1
 10
1003.0
 20
620.5
 30
0.0
 11
1053.0
 21
620.5
 31
0.0
  0
LINE
  8
0
  6
CONTINUOUS
 62
     1
 10
1056.0
 20
617.5
 30
0.0
 11
1056.0
 21
600.5
 31
0.0
  0
LINE
  8
0
  6
CONTINUOUS
 62
     1
 10
1053.0
 20
620.5
 30
0.0
 11
1056.0
 21
617.5
 31
0.0
  0
CIRCLE
  8
0
  6
CONTINUOUS
 62
     1
 10
1038.0
 20
600.5
 30
0.0
 40
8.0
  0
LINE
  8
0
  6
LTYPE1
 62
     1
 10
1013.0
 20
580.5
 30
0.0
 11
1013.0
 21
600.5
 31
0.0
  0
LINE
  8
0
  6
LTYPE1
 62
     1
 10
1013.0
 20
620.5
 30
0.0
 11
1013.0
 21
600.5
 31
0.0
  0
LINE
  8
0
  6
CONTINUOUS
 62
     1
 10
913.0
 20
632.25
 30
0.0
 11
913.0
 21
600.5
 31
0.0
  0
POINT
  8
0
  6
CONTINUOUS
 62
     1
 10
869.639501379
 20
600.5
 30
0.0
  0
LINE
  8
0
  6
CONTINUOUS
 62
     2
 10
1038.0
 20
440.85
 30
0.0
 11
1038.0
 21
449.35
 31
0.0
  0
LINE
  8
0
  6
CONTINUOUS
 62
     2
 10
1085.8
 20
580.5
 30
0.0
 11
1088.388190451
 21
590.159258263
 31
0.0
  0
LINE
  8
0
  6
CONTINUOUS
 62
     2
 10
1085.8
 20
580.5
 30
0.0
 11
1083.211809549
 21
590.159258263
 31
0.0
  0
LINE
  8
0
  6
CONTINUOUS
 62
     2
 10
1085.8
 20
580.5
 30
0.0
 11
1085.8
 21
620.5
 31
0.0
  0
LINE
  8
0
  6
CONTINUOUS
 62
     2
 10
1085.8
 20
620.5
 30
0.0
 11
1083.211809549
 21
610.840741737
 31
0.0
  0
LINE
  8
0
  6
CONTINUOUS
 62
     2
 10
1085.8
 20
620.5
 30
0.0
 11
1088.388190451
 21
610.840741737
 31
0.0
  0
LINE
  8
0
  6
CONTINUOUS
 62
     1
 10
913.0
 20
568.75
 30
0.0
 11
913.0
 21
600.5
 31
0.0
  0
LINE
  8
0
  6
CONTINUOUS
 62
     1
 10
943.0
 20
632.25
 30
0.0
 11
943.0
 21
600.5
 31
0.0
  0
LINE
  8
0
  6
CONTINUOUS
 62
     1
 10
943.0
 20
568.75
 30
0.0
 11
943.0
 21
600.5
 31
0.0
  0
LINE
  8
7
  6
CONTINUOUS
 62
     2
 10
966.6
 20
581.5
 30
0.0
 11
964.011809549
 21
571.840741737
 31
0.0
  0
LINE
  8
7
  6
CONTINUOUS
 62
     2
 10
966.6
 20
581.5
 30
0.0
 11
969.188190451
 21
571.840741737
 31
0.0
  0
LINE
  8
7
  6
CONTINUOUS
 62
     2
 10
966.6
 20
566.5
 30
0.0
 11
966.6
 21
668.5
 31
0.0
  0
LINE
  8
7
  6
CONTINUOUS
 62
     2
 10
966.6
 20
619.5
 30
0.0
 11
969.188190451
 21
629.159258263
 31
0.0
  0
LINE
  8
7
  6
CONTINUOUS
 62
     2
 10
966.6
 20
619.5
 30
0.0
 11
964.011809549
 21
629.159258263
 31
0.0
  0
LINE
  8
0
  6
CONTINUOUS
 62
     1
 10
943.0
 20
619.5
 30
0.0
 11
987.0
 21
619.5
 31
0.0
  0
LINE
  8
0
  6
CONTINUOUS
 62
     1
 10
943.0
 20
581.5
 30
0.0
 11
987.0
 21
581.5
 31
0.0
  0
LINE
  8
0
  6
CONTINUOUS
 62
     2
 10
1038.0
 20
615.5
 30
0.0
 11
1038.0
 21
858.5
 31
0.0
  0
LINE
  8
0
  6
LTYPE2
 62
     2
 10
1088.0
 20
600.5
 30
0.0
 11
1124.5
 21
600.5
 31
0.0
  0
LINE
  8
0
  6
CONTINUOUS
 62
     2
 10
1003.0
 20
801.4
 30
0.0
 11
1003.0
 21
632.0
 31
0.0
  0
TEXT
  8
7
  6
CONTINUOUS
 62
     2
 10
962.6
 20
634.5
 30
0.0
 40
15.0
  1
φ３８
 50
90.0
 41
0.9
 51
0.0
  7
KANJI31
  0
LINE
  8
0
  6
LTYPE2
 62
     2
 10
854.999501379
 20
483.5
 30
0.0
 11
854.999501379
 21
548.8
 31
0.0
  0
TEXT
  8
0
  6
CONTINUOUS
 62
     2
 10
1081.8
 20
589.1
 30
0.0
 40
15.0
  1
４０
 50
90.0
 41
0.9
 51
0.0
  7
KANJI31
  0
LINE
  8
0
  6
CONTINUOUS
 62
     2
 10
943.0
 20
634.5
 30
0.0
 11
943.0
 21
800.25
 31
0.0
  0
LINE
  8
0
  6
CONTINUOUS
 62
     2
 10
1056.0
 20
622.0
 30
0.0
 11
1056.0
 21
860.0
 31
0.0
  0
LINE
  8
0
  6
CONTINUOUS
 62
     2
 10
1058.0
 20
620.5
 30
0.0
 11
1089.9
 21
620.5
 31
0.0
  0
LINE
  8
0
  6
CONTINUOUS
 62
     2
 10
1056.5
 20
580.5
 30
0.0
 11
1090.3
 21
580.5
 31
0.0
  0
CIRCLE
  8
0
  6
CONTINUOUS
 62
     1
 10
1038.0
 20
600.5
 30
0.0
 40
15.0
  0
LINE
  8
0
  6
CONTINUOUS
 62
     1
 10
755.9
 20
588.0
 30
0.0
 11
755.9
 21
613.0
 31
0.0
  0
LINE
  8
0
  6
LTYPE2
 62
     2
 10
743.4
 20
619.2
 30
0.0
 11
743.4
 21
579.5
 31
0.0
  0
LINE
  8
0
  6
LTYPE1
 62
     2
 10
774.4
 20
560.5
 30
0.0
 11
774.4
 21
640.5
 31
0.0
  0
LINE
  8
0
  6
CONTINUOUS
 62
     2
 10
1038.0
 20
855.5
 30
0.0
 11
1028.340741737
 21
858.088190451
 31
0.0
  0
LINE
  8
0
  6
CONTINUOUS
 62
     2
 10
1038.0
 20
855.5
 30
0.0
 11
1028.340741737
 21
852.911809549
 31
0.0
  0
LINE
  8
0
  6
CONTINUOUS
 62
     2
 10
1018.0
 20
855.5
 30
0.0
 11
1076.0
 21
855.5
 31
0.0
  0
LINE
  8
0
  6
CONTINUOUS
 62
     2
 10
1056.0
 20
855.5
 30
0.0
 11
1065.659258263
 21
852.911809549
 31
0.0
  0
LINE
  8
0
  6
CONTINUOUS
 62
     2
 10
1056.0
 20
855.5
 30
0.0
 11
1065.659258263
 21
858.088190451
 31
0.0
  0
LINE
  8
0
  6
CONTINUOUS
 62
     2
 10
1038.0
 20
855.5
 30
0.0
 11
1038.0
 21
847.5
 31
0.0
  0
LINE
  8
0
  6
CONTINUOUS
 62
     2
 10
1038.0
 20
855.5
 30
0.0
 11
1028.340741737
 21
858.088190451
 31
0.0
  0
LINE
  8
0
  6
CONTINUOUS
 62
     2
 10
1038.0
 20
855.5
 30
0.0
 11
1028.340741737
 21
852.911809549
 31
0.0
  0
LINE
  8
0
  6
CONTINUOUS
 62
     2
 10
943.0
 20
795.5
 30
0.0
 11
952.659258263
 21
792.911809549
 31
0.0
  0
LINE
  8
0
  6
CONTINUOUS
 62
     2
 10
943.0
 20
795.5
 30
0.0
 11
952.659258263
 21
798.088190451
 31
0.0
  0
LINE
  8
0
  6
CONTINUOUS
 62
     2
 10
943.0
 20
795.5
 30
0.0
 11
1003.0
 21
795.5
 31
0.0
  0
LINE
  8
0
  6
CONTINUOUS
 62
     2
 10
1003.0
 20
795.5
 30
0.0
 11
993.340741737
 21
798.088190451
 31
0.0
  0
LINE
  8
0
  6
CONTINUOUS
 62
     2
 10
1003.0
 20
795.5
 30
0.0
 11
993.340741737
 21
792.911809549
 31
0.0
  0
LINE
  8
0
  6
CONTINUOUS
 62
     2
 10
1003.0
 20
795.5
 30
0.0
 11
1012.659258263
 21
792.911809549
 31
0.0
  0
LINE
  8
0
  6
CONTINUOUS
 62
     2
 10
1003.0
 20
795.5
 30
0.0
 11
1012.659258263
 21
798.088190451
 31
0.0
  0
LINE
  8
0
  6
CONTINUOUS
 62
     2
 10
1003.0
 20
795.5
 30
0.0
 11
1038.0
 21
795.5
 31
0.0
  0
LINE
  8
0
  6
CONTINUOUS
 62
     2
 10
1038.0
 20
795.5
 30
0.0
 11
1028.340741737
 21
798.088190451
 31
0.0
  0
LINE
  8
0
  6
CONTINUOUS
 62
     2
 10
1038.0
 20
795.5
 30
0.0
 11
1028.340741737
 21
792.911809549
 31
0.0
  0
LINE
  8
0
  6
CONTINUOUS
 62
     2
 10
1038.0
 20
826.0
 30
0.0
 11
1028.340741737
 21
828.588190451
 31
0.0
  0
LINE
  8
0
  6
CONTINUOUS
 62
     2
 10
1038.0
 20
826.0
 30
0.0
 11
1028.340741737
 21
823.411809549
 31
0.0
  0
LINE
  8
0
  6
CONTINUOUS
 62
     2
 10
943.0
 20
795.5
 30
0.0
 11
933.340741737
 21
798.088190451
 31
0.0
  0
LINE
  8
0
  6
CONTINUOUS
 62
     2
 10
943.0
 20
795.5
 30
0.0
 11
933.340741737
 21
792.911809549
 31
0.0
  0
LINE
  8
0
  6
CONTINUOUS
 62
     2
 10
1038.0
 20
855.5
 30
0.0
 11
1028.340741737
 21
858.088190451
 31
0.0
  0
LINE
  8
0
  6
CONTINUOUS
 62
     2
 10
1038.0
 20
855.5
 30
0.0
 11
1028.340741737
 21
852.911809549
 31
0.0
  0
TEXT
  8
0
  6
CONTINUOUS
 62
     2
 10
1035.2
 20
859.5
 30
0.0
 40
15.0
  1
１８
 50
0.0
 41
0.9
 51
0.0
  7
KANJI31
  0
TEXT
  8
0
  6
CONTINUOUS
 62
     2
 10
1008.7
 20
799.5
 30
0.0
 40
15.0
  1
３５
 50
0.0
 41
0.9
 51
0.0
  7
KANJI31
  0
TEXT
  8
0
  6
CONTINUOUS
 62
     2
 10
933.4
 20
799.5
 30
0.0
 40
15.0
  1
ｍｉｎ．Ｐ
 50
0.0
 41
0.9
 51
0.0
  7
KANJI31
  0
TEXT
  8
0
  6
CONTINUOUS
 62
     2
 10
794.6
 20
799.5
 30
0.0
 40
15.0
  1
Ｃ
 50
0.0
 41
0.9
 51
0.0
  7
KANJI31
  0
TEXT
  8
0
  6
CONTINUOUS
 62
     2
 10
813.1
 20
830.0
 30
0.0
 40
15.0
  1
ｍｉｎ．Ｌ
 50
0.0
 41
0.9
 51
0.0
  7
KANJI31
  0
LINE
  8
0
  6
CONTINUOUS
 62
     2
 10
1103.3
 20
665.7
 30
0.0
 11
1091.225927171
 21
668.935238064
 31
0.0
  0
LINE
  8
0
  6
CONTINUOUS
 62
     2
 10
1103.3
 20
665.7
 30
0.0
 11
1091.225927171
 21
662.464761936
 31
0.0
  0
LINE
  8
0
  6
CONTINUOUS
 62
     2
 10
1103.3
 20
665.7
 30
0.0
 11
1062.3
 21
665.7
 31
0.0
  0
TEXT
  8
0
  6
CONTINUOUS
 62
     3
 10
1109.3
 20
659.7
 30
0.0
 40
20.0
  1
前進
 50
0.0
 41
0.925
 51
0.0
  7
KANJI38
  0
LINE
  8
0
  6
CONTINUOUS
 62
     2
 10
789.999501379
 20
198.10000853
 30
0.0
 11
789.999501379
 21
140.3
 31
0.0
  0
LINE
  8
0
  6
CONTINUOUS
 62
     2
 10
789.999501379
 20
150.3
 30
0.0
 11
802.073574208
 21
147.064761936
 31
0.0
  0
LINE
  8
0
  6
CONTINUOUS
 62
     2
 10
789.999501379
 20
150.3
 30
0.0
 11
802.073574208
 21
153.535238064
 31
0.0
  0
LINE
  8
0
  6
CONTINUOUS
 62
     2
 10
789.999501379
 20
150.3
 30
0.0
 11
919.999501379
 21
150.3
 31
0.0
  0
LINE
  8
0
  6
CONTINUOUS
 62
     2
 10
919.999501379
 20
150.3
 30
0.0
 11
907.925428551
 21
153.535238064
 31
0.0
  0
LINE
  8
0
  6
CONTINUOUS
 62
     2
 10
919.999501379
 20
150.3
 30
0.0
 11
907.925428551
 21
147.064761936
 31
0.0
  0
LINE
  8
0
  6
CONTINUOUS
 62
     2
 10
919.999501379
 20
198.1
 30
0.0
 11
919.999501379
 21
140.3
 31
0.0
  0
TEXT
  8
0
  6
CONTINUOUS
 62
     3
 10
834.749501379
 20
157.8
 30
0.0
 40
15.0
  1
１３０
 50
0.0
 41
0.9
 51
0.0
  7
KANJI31
  0
LINE
  8
0
  6
CONTINUOUS
 62
     2
 10
794.999501379
 20
358.1
 30
0.0
 11
724.659501379
 21
358.1
 31
0.0
  0
LINE
  8
0
  6
CONTINUOUS
 62
     2
 10
734.659501379
 20
358.1
 30
0.0
 11
731.424263316
 21
346.025927171
 31
0.0
  0
LINE
  8
0
  6
CONTINUOUS
 62
     2
 10
734.659501379
 20
358.1
 30
0.0
 11
737.894739443
 21
346.025927171
 31
0.0
  0
LINE
  8
0
  6
CONTINUOUS
 62
     2
 10
734.659501379
 20
358.1
 30
0.0
 11
734.659501379
 21
193.1
 31
0.0
  0
LINE
  8
0
  6
CONTINUOUS
 62
     2
 10
734.659501379
 20
193.1
 30
0.0
 11
737.894739443
 21
205.174072829
 31
0.0
  0
LINE
  8
0
  6
CONTINUOUS
 62
     2
 10
734.659501379
 20
193.1
 30
0.0
 11
731.424263316
 21
205.174072829
 31
0.0
  0
LINE
  8
0
  6
CONTINUOUS
 62
     2
 10
794.999512169
 20
193.1
 30
0.0
 11
724.659501379
 21
193.1
 31
0.0
  0
TEXT
  8
0
  6
CONTINUOUS
 62
     3
 10
727.159501379
 20
255.35
 30
0.0
 40
15.0
  1
１６５
 50
90.0
 41
0.9
 51
0.0
  7
KANJI31
  0
TEXT
  8
0
  6
CONTINUOUS
 62
     2
 10
886.6775
 20
1278.075
 30
1.3475
 40
13.475
  1
注意：サーマルリレー等の選定は、上記の値で選定して下さい。
 50
0.0
 41
0.9
 51
0.0
  7
KANJI39
  0
LINE
  8
0
  6
CONTINUOUS
 62
     2
 10
878.9775
 20
1274.225
 30
0.0
 11
1271.125
 21
1274.225
 31
0.0
  0
LINE
  8
0
  6
CONTINUOUS
 62
     1
 10
592.415334713
 20
305.318333333
 30
0.0
 11
592.415334713
 21
251.401666667
 31
0.0
  0
LINE
  8
0
  6
CONTINUOUS
 62
     1
 10
625.748668046
 20
305.318333333
 30
0.0
 11
625.748668046
 21
251.401666667
 31
0.0
  0
ARC
  8
0
  6
CONTINUOUS
 62
     1
 10
594.082001379
 20
305.318333333
 30
0.0
 40
1.666666667
 50
90.0
 51
180.0
  0
LINE
  8
0
  6
CONTINUOUS
 62
     1
 10
598.498668046
 20
326.485
 30
0.0
 11
598.498668046
 21
306.985
 31
0.0
  0
LINE
  8
0
  6
CONTINUOUS
 62
     1
 10
594.082001379
 20
306.985
 30
0.0
 11
624.082001379
 21
306.985
 31
0.0
  0
ARC
  8
0
  6
CONTINUOUS
 62
     1
 10
624.082001379
 20
305.318333333
 30
0.0
 40
1.666666667
 50
0.0
 51
90.0
  0
ARC
  8
0
  6
CONTINUOUS
 62
     1
 10
600.165334713
 20
326.485
 30
0.0
 40
1.666666667
 50
90.0
 51
180.0
  0
ARC
  8
0
  6
CONTINUOUS
 62
     1
 10
609.082001379
 20
315.068333333
 30
0.0
 40
5.0
 50
131.983045121
 51
318.016954879
  0
LINE
  8
0
  6
LTYPE2
 62
     2
 10
603.719774955
 20
309.706106909
 30
0.0
 11
637.601974887
 21
343.588306841
 31
0.0
  0
LINE
  8
0
  6
CONTINUOUS
 62
     1
 10
605.737448463
 20
318.785047714
 30
0.0
 11
629.244014172
 21
339.937857658
 31
0.0
  0
LINE
  8
0
  6
CONTINUOUS
 62
     1
 10
612.79871576
 20
311.723780417
 30
0.0
 11
633.951525704
 21
335.230346126
 31
0.0
  0
LINE
  8
0
  6
LTYPE2
 62
     2
 10
637.955528278
 20
330.97823591
 30
0.0
 11
624.402648305
 21
344.531115883
 31
0.0
  0
ARC
  8
0
  6
CONTINUOUS
 62
     1
 10
631.473716117
 20
337.460048071
 30
0.0
 40
7.291666667
 50
255.219855722
 51
194.780144278
  0
ARC
  8
0
  6
CONTINUOUS
 62
     1
 10
631.473716117
 20
337.460048071
 30
0.0
 40
3.333333333
 50
311.983042101
 51
138.016952287
  0
LINE
  8
0
  6
CONTINUOUS
 62
     1
 10
619.665334713
 20
319.354474875
 30
0.0
 11
619.665334713
 21
306.985
 31
0.0
  0
LINE
  8
0
  6
CONTINUOUS
 62
     1
 10
600.165334713
 20
328.151666667
 30
0.0
 11
616.146327684
 21
328.151666667
 31
0.0
  0
LINE
  8
0
  6
LTYPE3
 62
     2
 10
596.686168046
 20
287.401666667
 30
0.0
 11
621.686168046
 21
287.401666667
 31
0.0
  0
LINE
  8
0
  6
LTYPE3
 62
     2
 10
621.686168046
 20
287.401666667
 30
0.0
 11
621.686168046
 21
295.318333333
 31
0.0
  0
LINE
  8
0
  6
LTYPE3
 62
     2
 10
621.686168046
 20
295.318333333
 30
0.0
 11
596.686168046
 21
295.318333333
 31
0.0
  0
LINE
  8
0
  6
LTYPE3
 62
     2
 10
596.686168046
 20
295.318333333
 30
0.0
 11
596.686168046
 21
287.401666667
 31
0.0
  0
LINE
  8
0
  6
CONTINUOUS
 62
     1
 10
621.686168046
 20
262.401666667
 30
0.0
 11
621.686168046
 21
270.318333333
 31
0.0
  0
LINE
  8
0
  6
CONTINUOUS
 62
     1
 10
621.686168046
 20
270.318333333
 30
0.0
 11
596.686168046
 21
270.318333333
 31
0.0
  0
LINE
  8
0
  6
CONTINUOUS
 62
     1
 10
596.686168046
 20
270.318333333
 30
0.0
 11
596.686168046
 21
262.401666667
 31
0.0
  0
TEXT
  8
0
  6
CONTINUOUS
 62
     2
 10
595.665334713
 20
298.068333333
 30
0.0
 40
8.333333333
  1
４
 50
0.0
 41
0.85
 51
0.0
  7
KANJI40
  0
TEXT
  8
0
  6
CONTINUOUS
 62
     2
 10
616.498668046
 20
298.068333333
 30
0.0
 40
8.333333333
  1
３
 50
0.0
 41
0.85
 51
0.0
  7
KANJI40
  0
POLYLINE
  8
0
  6
CONTINUOUS
 62
     2
 66
     1
 70
     1
  0
VERTEX
  8
0
  6
CONTINUOUS
 62
     2
 10
604.832001379
 20
297.443333333
 30
0.0
 42
0.021820078
  0
VERTEX
  8
0
  6
CONTINUOUS
 62
     2
 10
604.824866438
 20
297.606750351
 30
0.0
 42
0.021820078
  0
VERTEX
  8
0
  6
CONTINUOUS
 62
     2
 10
604.803515916
 20
297.768923666
 30
0.0
 42
0.021820078
  0
VERTEX
  8
0
  6
CONTINUOUS
 62
     2
 10
604.768112304
 20
297.928619043
 30
0.0
 42
0.021820078
  0
VERTEX
  8
0
  6
CONTINUOUS
 62
     2
 10
604.718925043
 20
298.084621102
 30
0.0
 42
0.021820078
  0
VERTEX
  8
0
  6
CONTINUOUS
 62
     2
 10
604.65632848
 20
298.235742574
 30
0.0
 42
0.021820078
  0
VERTEX
  8
0
  6
CONTINUOUS
 62
     2
 10
604.580799011
 20
298.380833333
 30
0.0
 42
0.021820078
  0
VERTEX
  8
0
  6
CONTINUOUS
 62
     2
 10
604.492911462
 20
298.518789151
 30
0.0
 42
0.021820078
  0
VERTEX
  8
0
  6
CONTINUOUS
 62
     2
 10
604.39333471
 20
298.648560101
 30
0.0
 42
0.021820078
  0
VERTEX
  8
0
  6
CONTINUOUS
 62
     2
 10
604.282826594
 20
298.769158548
 30
0.0
 42
0.021820078
  0
VERTEX
  8
0
  6
CONTINUOUS
 62
     2
 10
604.162228148
 20
298.879666664
 30
0.0
 42
0.021820078
  0
VERTEX
  8
0
  6
CONTINUOUS
 62
     2
 10
604.032457198
 20
298.979243416
 30
0.0
 42
0.021820078
  0
VERTEX
  8
0
  6
CONTINUOUS
 62
     2
 10
603.894501379
 20
299.067130965
 30
0.0
 42
0.021820078
  0
VERTEX
  8
0
  6
CONTINUOUS
 62
     2
 10
603.74941062
 20
299.142660434
 30
0.0
 42
0.021820078
  0
VERTEX
  8
0
  6
CONTINUOUS
 62
     2
 10
603.598289148
 20
299.205256997
 30
0.0
 42
0.021820078
  0
VERTEX
  8
0
  6
CONTINUOUS
 62
     2
 10
603.442287089
 20
299.254444258
 30
0.0
 42
0.021820078
  0
VERTEX
  8
0
  6
CONTINUOUS
 62
     2
 10
603.282591712
 20
299.28984787
 30
0.0
 42
0.021820078
  0
VERTEX
  8
0
  6
CONTINUOUS
 62
     2
 10
603.120418397
 20
299.311198392
 30
0.0
 42
0.021820078
  0
VERTEX
  8
0
  6
CONTINUOUS
 62
     2
 10
602.957001379
 20
299.318333333
 30
0.0
 42
0.021820078
  0
VERTEX
  8
0
  6
CONTINUOUS
 62
     2
 10
602.793584362
 20
299.311198392
 30
0.0
 42
0.021820078
  0
VERTEX
  8
0
  6
CONTINUOUS
 62
     2
 10
602.631411046
 20
299.28984787
 30
0.0
 42
0.021820078
  0
VERTEX
  8
0
  6
CONTINUOUS
 62
     2
 10
602.47171567
 20
299.254444258
 30
0.0
 42
0.021820078
  0
VERTEX
  8
0
  6
CONTINUOUS
 62
     2
 10
602.315713611
 20
299.205256997
 30
0.0
 42
0.021820078
  0
VERTEX
  8
0
  6
CONTINUOUS
 62
     2
 10
602.164592139
 20
299.142660434
 30
0.0
 42
0.021820078
  0
VERTEX
  8
0
  6
CONTINUOUS
 62
     2
 10
602.019501379
 20
299.067130965
 30
0.0
 42
0.021820078
  0
VERTEX
  8
0
  6
CONTINUOUS
 62
     2
 10
601.881545561
 20
298.979243416
 30
0.0
 42
0.021820078
  0
VERTEX
  8
0
  6
CONTINUOUS
 62
     2
 10
601.751774611
 20
298.879666664
 30
0.0
 42
0.021820078
  0
VERTEX
  8
0
  6
CONTINUOUS
 62
     2
 10
601.631176165
 20
298.769158548
 30
0.0
 42
0.021820078
  0
VERTEX
  8
0
  6
CONTINUOUS
 62
     2
 10
601.520668049
 20
298.648560101
 30
0.0
 42
0.021820078
  0
VERTEX
  8
0
  6
CONTINUOUS
 62
     2
 10
601.421091296
 20
298.518789151
 30
0.0
 42
0.021820078
  0
VERTEX
  8
0
  6
CONTINUOUS
 62
     2
 10
601.333203747
 20
298.380833333
 30
0.0
 42
0.021820078
  0
VERTEX
  8
0
  6
CONTINUOUS
 62
     2
 10
601.257674279
 20
298.235742574
 30
0.0
 42
0.021820078
  0
VERTEX
  8
0
  6
CONTINUOUS
 62
     2
 10
601.195077715
 20
298.084621102
 30
0.0
 42
0.021820078
  0
VERTEX
  8
0
  6
CONTINUOUS
 62
     2
 10
601.145890455
 20
297.928619043
 30
0.0
 42
0.021820078
  0
VERTEX
  8
0
  6
CONTINUOUS
 62
     2
 10
601.110486842
 20
297.768923666
 30
0.0
 42
0.021820078
  0
VERTEX
  8
0
  6
CONTINUOUS
 62
     2
 10
601.08913632
 20
297.606750351
 30
0.0
 42
0.021820078
  0
VERTEX
  8
0
  6
CONTINUOUS
 62
     2
 10
601.082001379
 20
297.443333333
 30
0.0
 42
0.021820078
  0
VERTEX
  8
0
  6
CONTINUOUS
 62
     2
 10
601.08913632
 20
297.279916316
 30
0.0
 42
0.021820078
  0
VERTEX
  8
0
  6
CONTINUOUS
 62
     2
 10
601.110486842
 20
297.117743
 30
0.0
 42
0.021820078
  0
VERTEX
  8
0
  6
CONTINUOUS
 62
     2
 10
601.145890455
 20
296.958047624
 30
0.0
 42
0.021820078
  0
VERTEX
  8
0
  6
CONTINUOUS
 62
     2
 10
601.195077715
 20
296.802045565
 30
0.0
 42
0.021820078
  0
VERTEX
  8
0
  6
CONTINUOUS
 62
     2
 10
601.257674279
 20
296.650924093
 30
0.0
 42
0.021820078
  0
VERTEX
  8
0
  6
CONTINUOUS
 62
     2
 10
601.333203747
 20
296.505833333
 30
0.0
 42
0.021820078
  0
VERTEX
  8
0
  6
CONTINUOUS
 62
     2
 10
601.421091296
 20
296.367877515
 30
0.0
 42
0.021820078
  0
VERTEX
  8
0
  6
CONTINUOUS
 62
     2
 10
601.520668049
 20
296.238106565
 30
0.0
 42
0.021820078
  0
VERTEX
  8
0
  6
CONTINUOUS
 62
     2
 10
601.631176165
 20
296.117508119
 30
0.0
 42
0.021820078
  0
VERTEX
  8
0
  6
CONTINUOUS
 62
     2
 10
601.751774611
 20
296.007000002
 30
0.0
 42
0.021820078
  0
VERTEX
  8
0
  6
CONTINUOUS
 62
     2
 10
601.881545561
 20
295.90742325
 30
0.0
 42
0.021820078
  0
VERTEX
  8
0
  6
CONTINUOUS
 62
     2
 10
602.019501379
 20
295.819535701
 30
0.0
 42
0.021820078
  0
VERTEX
  8
0
  6
CONTINUOUS
 62
     2
 10
602.164592139
 20
295.744006233
 30
0.0
 42
0.021820078
  0
VERTEX
  8
0
  6
CONTINUOUS
 62
     2
 10
602.315713611
 20
295.681409669
 30
0.0
 42
0.021820078
  0
VERTEX
  8
0
  6
CONTINUOUS
 62
     2
 10
602.47171567
 20
295.632222409
 30
0.0
 42
0.021820078
  0
VERTEX
  8
0
  6
CONTINUOUS
 62
     2
 10
602.631411046
 20
295.596818796
 30
0.0
 42
0.021820078
  0
VERTEX
  8
0
  6
CONTINUOUS
 62
     2
 10
602.793584362
 20
295.575468274
 30
0.0
 42
0.021820078
  0
VERTEX
  8
0
  6
CONTINUOUS
 62
     2
 10
602.957001379
 20
295.568333333
 30
0.0
 42
0.021820078
  0
VERTEX
  8
0
  6
CONTINUOUS
 62
     2
 10
603.120418397
 20
295.575468274
 30
0.0
 42
0.021820078
  0
VERTEX
  8
0
  6
CONTINUOUS
 62
     2
 10
603.282591712
 20
295.596818796
 30
0.0
 42
0.021820078
  0
VERTEX
  8
0
  6
CONTINUOUS
 62
     2
 10
603.442287089
 20
295.632222409
 30
0.0
 42
0.021820078
  0
VERTEX
  8
0
  6
CONTINUOUS
 62
     2
 10
603.598289148
 20
295.681409669
 30
0.0
 42
0.021820078
  0
VERTEX
  8
0
  6
CONTINUOUS
 62
     2
 10
603.74941062
 20
295.744006233
 30
0.0
 42
0.021820078
  0
VERTEX
  8
0
  6
CONTINUOUS
 62
     2
 10
603.894501379
 20
295.819535701
 30
0.0
 42
0.021820078
  0
VERTEX
  8
0
  6
CONTINUOUS
 62
     2
 10
604.032457198
 20
295.90742325
 30
0.0
 42
0.021820078
  0
VERTEX
  8
0
  6
CONTINUOUS
 62
     2
 10
604.162228148
 20
296.007000002
 30
0.0
 42
0.021820078
  0
VERTEX
  8
0
  6
CONTINUOUS
 62
     2
 10
604.282826594
 20
296.117508119
 30
0.0
 42
0.021820078
  0
VERTEX
  8
0
  6
CONTINUOUS
 62
     2
 10
604.39333471
 20
296.238106565
 30
0.0
 42
0.021820078
  0
VERTEX
  8
0
  6
CONTINUOUS
 62
     2
 10
604.492911462
 20
296.367877515
 30
0.0
 42
0.021820078
  0
VERTEX
  8
0
  6
CONTINUOUS
 62
     2
 10
604.580799011
 20
296.505833333
 30
0.0
 42
0.021820078
  0
VERTEX
  8
0
  6
CONTINUOUS
 62
     2
 10
604.65632848
 20
296.650924093
 30
0.0
 42
0.021820078
  0
VERTEX
  8
0
  6
CONTINUOUS
 62
     2
 10
604.718925043
 20
296.802045565
 30
0.0
 42
0.021820078
  0
VERTEX
  8
0
  6
CONTINUOUS
 62
     2
 10
604.768112304
 20
296.958047624
 30
0.0
 42
0.021820078
  0
VERTEX
  8
0
  6
CONTINUOUS
 62
     2
 10
604.803515916
 20
297.117743
 30
0.0
 42
0.021820078
  0
VERTEX
  8
0
  6
CONTINUOUS
 62
     2
 10
604.824866438
 20
297.279916316
 30
0.0
 42
0.021820078
  0
SEQEND
  8
0
  6
CONTINUOUS
 62
     2
  0
POLYLINE
  8
0
  6
CONTINUOUS
 62
     2
 66
     1
 70
     1
  0
VERTEX
  8
0
  6
CONTINUOUS
 62
     2
 10
617.332001379
 20
297.443333333
 30
0.0
 42
0.021820078
  0
VERTEX
  8
0
  6
CONTINUOUS
 62
     2
 10
617.324866438
 20
297.606750351
 30
0.0
 42
0.021820078
  0
VERTEX
  8
0
  6
CONTINUOUS
 62
     2
 10
617.303515916
 20
297.768923666
 30
0.0
 42
0.021820078
  0
VERTEX
  8
0
  6
CONTINUOUS
 62
     2
 10
617.268112304
 20
297.928619043
 30
0.0
 42
0.021820078
  0
VERTEX
  8
0
  6
CONTINUOUS
 62
     2
 10
617.218925043
 20
298.084621102
 30
0.0
 42
0.021820078
  0
VERTEX
  8
0
  6
CONTINUOUS
 62
     2
 10
617.15632848
 20
298.235742574
 30
0.0
 42
0.021820078
  0
VERTEX
  8
0
  6
CONTINUOUS
 62
     2
 10
617.080799011
 20
298.380833333
 30
0.0
 42
0.021820078
  0
VERTEX
  8
0
  6
CONTINUOUS
 62
     2
 10
616.992911462
 20
298.518789151
 30
0.0
 42
0.021820078
  0
VERTEX
  8
0
  6
CONTINUOUS
 62
     2
 10
616.89333471
 20
298.648560101
 30
0.0
 42
0.021820078
  0
VERTEX
  8
0
  6
CONTINUOUS
 62
     2
 10
616.782826594
 20
298.769158548
 30
0.0
 42
0.021820078
  0
VERTEX
  8
0
  6
CONTINUOUS
 62
     2
 10
616.662228148
 20
298.879666664
 30
0.0
 42
0.021820078
  0
VERTEX
  8
0
  6
CONTINUOUS
 62
     2
 10
616.532457198
 20
298.979243416
 30
0.0
 42
0.021820078
  0
VERTEX
  8
0
  6
CONTINUOUS
 62
     2
 10
616.394501379
 20
299.067130965
 30
0.0
 42
0.021820078
  0
VERTEX
  8
0
  6
CONTINUOUS
 62
     2
 10
616.24941062
 20
299.142660434
 30
0.0
 42
0.021820078
  0
VERTEX
  8
0
  6
CONTINUOUS
 62
     2
 10
616.098289148
 20
299.205256997
 30
0.0
 42
0.021820078
  0
VERTEX
  8
0
  6
CONTINUOUS
 62
     2
 10
615.942287089
 20
299.254444258
 30
0.0
 42
0.021820078
  0
VERTEX
  8
0
  6
CONTINUOUS
 62
     2
 10
615.782591712
 20
299.28984787
 30
0.0
 42
0.021820078
  0
VERTEX
  8
0
  6
CONTINUOUS
 62
     2
 10
615.620418397
 20
299.311198392
 30
0.0
 42
0.021820078
  0
VERTEX
  8
0
  6
CONTINUOUS
 62
     2
 10
615.457001379
 20
299.318333333
 30
0.0
 42
0.021820078
  0
VERTEX
  8
0
  6
CONTINUOUS
 62
     2
 10
615.293584362
 20
299.311198392
 30
0.0
 42
0.021820078
  0
VERTEX
  8
0
  6
CONTINUOUS
 62
     2
 10
615.131411046
 20
299.28984787
 30
0.0
 42
0.021820078
  0
VERTEX
  8
0
  6
CONTINUOUS
 62
     2
 10
614.97171567
 20
299.254444258
 30
0.0
 42
0.021820078
  0
VERTEX
  8
0
  6
CONTINUOUS
 62
     2
 10
614.815713611
 20
299.205256997
 30
0.0
 42
0.021820078
  0
VERTEX
  8
0
  6
CONTINUOUS
 62
     2
 10
614.664592139
 20
299.142660434
 30
0.0
 42
0.021820078
  0
VERTEX
  8
0
  6
CONTINUOUS
 62
     2
 10
614.519501379
 20
299.067130965
 30
0.0
 42
0.021820078
  0
VERTEX
  8
0
  6
CONTINUOUS
 62
     2
 10
614.381545561
 20
298.979243416
 30
0.0
 42
0.021820078
  0
VERTEX
  8
0
  6
CONTINUOUS
 62
     2
 10
614.251774611
 20
298.879666664
 30
0.0
 42
0.021820078
  0
VERTEX
  8
0
  6
CONTINUOUS
 62
     2
 10
614.131176165
 20
298.769158548
 30
0.0
 42
0.021820078
  0
VERTEX
  8
0
  6
CONTINUOUS
 62
     2
 10
614.020668049
 20
298.648560101
 30
0.0
 42
0.021820078
  0
VERTEX
  8
0
  6
CONTINUOUS
 62
     2
 10
613.921091296
 20
298.518789151
 30
0.0
 42
0.021820078
  0
VERTEX
  8
0
  6
CONTINUOUS
 62
     2
 10
613.833203747
 20
298.380833333
 30
0.0
 42
0.021820078
  0
VERTEX
  8
0
  6
CONTINUOUS
 62
     2
 10
613.757674279
 20
298.235742574
 30
0.0
 42
0.021820078
  0
VERTEX
  8
0
  6
CONTINUOUS
 62
     2
 10
613.695077715
 20
298.084621102
 30
0.0
 42
0.021820078
  0
VERTEX
  8
0
  6
CONTINUOUS
 62
     2
 10
613.645890455
 20
297.928619043
 30
0.0
 42
0.021820078
  0
VERTEX
  8
0
  6
CONTINUOUS
 62
     2
 10
613.610486842
 20
297.768923666
 30
0.0
 42
0.021820078
  0
VERTEX
  8
0
  6
CONTINUOUS
 62
     2
 10
613.58913632
 20
297.606750351
 30
0.0
 42
0.021820078
  0
VERTEX
  8
0
  6
CONTINUOUS
 62
     2
 10
613.582001379
 20
297.443333333
 30
0.0
 42
0.021820078
  0
VERTEX
  8
0
  6
CONTINUOUS
 62
     2
 10
613.58913632
 20
297.279916316
 30
0.0
 42
0.021820078
  0
VERTEX
  8
0
  6
CONTINUOUS
 62
     2
 10
613.610486842
 20
297.117743
 30
0.0
 42
0.021820078
  0
VERTEX
  8
0
  6
CONTINUOUS
 62
     2
 10
613.645890455
 20
296.958047624
 30
0.0
 42
0.021820078
  0
VERTEX
  8
0
  6
CONTINUOUS
 62
     2
 10
613.695077715
 20
296.802045565
 30
0.0
 42
0.021820078
  0
VERTEX
  8
0
  6
CONTINUOUS
 62
     2
 10
613.757674279
 20
296.650924093
 30
0.0
 42
0.021820078
  0
VERTEX
  8
0
  6
CONTINUOUS
 62
     2
 10
613.833203747
 20
296.505833333
 30
0.0
 42
0.021820078
  0
VERTEX
  8
0
  6
CONTINUOUS
 62
     2
 10
613.921091296
 20
296.367877515
 30
0.0
 42
0.021820078
  0
VERTEX
  8
0
  6
CONTINUOUS
 62
     2
 10
614.020668049
 20
296.238106565
 30
0.0
 42
0.021820078
  0
VERTEX
  8
0
  6
CONTINUOUS
 62
     2
 10
614.131176165
 20
296.117508119
 30
0.0
 42
0.021820078
  0
VERTEX
  8
0
  6
CONTINUOUS
 62
     2
 10
614.251774611
 20
296.007000002
 30
0.0
 42
0.021820078
  0
VERTEX
  8
0
  6
CONTINUOUS
 62
     2
 10
614.381545561
 20
295.90742325
 30
0.0
 42
0.021820078
  0
VERTEX
  8
0
  6
CONTINUOUS
 62
     2
 10
614.519501379
 20
295.819535701
 30
0.0
 42
0.021820078
  0
VERTEX
  8
0
  6
CONTINUOUS
 62
     2
 10
614.664592139
 20
295.744006233
 30
0.0
 42
0.021820078
  0
VERTEX
  8
0
  6
CONTINUOUS
 62
     2
 10
614.815713611
 20
295.681409669
 30
0.0
 42
0.021820078
  0
VERTEX
  8
0
  6
CONTINUOUS
 62
     2
 10
614.97171567
 20
295.632222409
 30
0.0
 42
0.021820078
  0
VERTEX
  8
0
  6
CONTINUOUS
 62
     2
 10
615.131411046
 20
295.596818796
 30
0.0
 42
0.021820078
  0
VERTEX
  8
0
  6
CONTINUOUS
 62
     2
 10
615.293584362
 20
295.575468274
 30
0.0
 42
0.021820078
  0
VERTEX
  8
0
  6
CONTINUOUS
 62
     2
 10
615.457001379
 20
295.568333333
 30
0.0
 42
0.021820078
  0
VERTEX
  8
0
  6
CONTINUOUS
 62
     2
 10
615.620418397
 20
295.575468274
 30
0.0
 42
0.021820078
  0
VERTEX
  8
0
  6
CONTINUOUS
 62
     2
 10
615.782591712
 20
295.596818796
 30
0.0
 42
0.021820078
  0
VERTEX
  8
0
  6
CONTINUOUS
 62
     2
 10
615.942287089
 20
295.632222409
 30
0.0
 42
0.021820078
  0
VERTEX
  8
0
  6
CONTINUOUS
 62
     2
 10
616.098289148
 20
295.681409669
 30
0.0
 42
0.021820078
  0
VERTEX
  8
0
  6
CONTINUOUS
 62
     2
 10
616.24941062
 20
295.744006233
 30
0.0
 42
0.021820078
  0
VERTEX
  8
0
  6
CONTINUOUS
 62
     2
 10
616.394501379
 20
295.819535701
 30
0.0
 42
0.021820078
  0
VERTEX
  8
0
  6
CONTINUOUS
 62
     2
 10
616.532457198
 20
295.90742325
 30
0.0
 42
0.021820078
  0
VERTEX
  8
0
  6
CONTINUOUS
 62
     2
 10
616.662228148
 20
296.007000002
 30
0.0
 42
0.021820078
  0
VERTEX
  8
0
  6
CONTINUOUS
 62
     2
 10
616.782826594
 20
296.117508119
 30
0.0
 42
0.021820078
  0
VERTEX
  8
0
  6
CONTINUOUS
 62
     2
 10
616.89333471
 20
296.238106565
 30
0.0
 42
0.021820078
  0
VERTEX
  8
0
  6
CONTINUOUS
 62
     2
 10
616.992911462
 20
296.367877515
 30
0.0
 42
0.021820078
  0
VERTEX
  8
0
  6
CONTINUOUS
 62
     2
 10
617.080799011
 20
296.505833333
 30
0.0
 42
0.021820078
  0
VERTEX
  8
0
  6
CONTINUOUS
 62
     2
 10
617.15632848
 20
296.650924093
 30
0.0
 42
0.021820078
  0
VERTEX
  8
0
  6
CONTINUOUS
 62
     2
 10
617.218925043
 20
296.802045565
 30
0.0
 42
0.021820078
  0
VERTEX
  8
0
  6
CONTINUOUS
 62
     2
 10
617.268112304
 20
296.958047624
 30
0.0
 42
0.021820078
  0
VERTEX
  8
0
  6
CONTINUOUS
 62
     2
 10
617.303515916
 20
297.117743
 30
0.0
 42
0.021820078
  0
VERTEX
  8
0
  6
CONTINUOUS
 62
     2
 10
617.324866438
 20
297.279916316
 30
0.0
 42
0.021820078
  0
SEQEND
  8
0
  6
CONTINUOUS
 62
     2
  0
TEXT
  8
0
  6
CONTINUOUS
 62
     2
 10
569.082001379
 20
297.401666667
 30
0.0
 40
8.333333333
  1
（ＮＯ）
 50
0.0
 41
0.75
 51
0.0
  7
KANJI41
  0
TEXT
  8
0
  6
CONTINUOUS
 62
     2
 10
624.082001379
 20
297.401666667
 30
0.0
 40
8.333333333
  1
（ＮＯ）
 50
0.0
 41
0.75
 51
0.0
  7
KANJI41
  0
LINE
  8
0
  6
CONTINUOUS
 62
     2
 10
673.769501379
 20
214.901666667
 30
0.0
 11
673.769501379
 21
356.36
 31
0.0
  0
LINE
  8
0
  6
CONTINUOUS
 62
     2
 10
673.769501379
 20
356.36
 30
0.0
 11
546.061168046
 21
356.36
 31
0.0
  0
LINE
  8
0
  6
CONTINUOUS
 62
     2
 10
546.061168046
 20
356.36
 30
0.0
 11
546.061168046
 21
214.901666667
 31
0.0
  0
LINE
  8
0
  6
CONTINUOUS
 62
     1
 10
596.686168046
 20
262.401666667
 30
0.0
 11
621.686168046
 21
262.401666667
 31
0.0
  0
POLYLINE
  8
0
  6
CONTINUOUS
 62
     2
 66
     1
 70
     1
  0
VERTEX
  8
0
  6
CONTINUOUS
 62
     2
 10
604.832001379
 20
260.485
 30
0.0
 42
-0.021820078
  0
VERTEX
  8
0
  6
CONTINUOUS
 62
     2
 10
604.824866438
 20
260.321582982
 30
0.0
 42
-0.021820078
  0
VERTEX
  8
0
  6
CONTINUOUS
 62
     2
 10
604.803515916
 20
260.159409667
 30
0.0
 42
-0.021820078
  0
VERTEX
  8
0
  6
CONTINUOUS
 62
     2
 10
604.768112304
 20
259.99971429
 30
0.0
 42
-0.021820078
  0
VERTEX
  8
0
  6
CONTINUOUS
 62
     2
 10
604.718925043
 20
259.843712231
 30
0.0
 42
-0.021820078
  0
VERTEX
  8
0
  6
CONTINUOUS
 62
     2
 10
604.65632848
 20
259.692590759
 30
0.0
 42
-0.021820078
  0
VERTEX
  8
0
  6
CONTINUOUS
 62
     2
 10
604.580799011
 20
259.5475
 30
0.0
 42
-0.021820078
  0
VERTEX
  8
0
  6
CONTINUOUS
 62
     2
 10
604.492911462
 20
259.409544182
 30
0.0
 42
-0.021820078
  0
VERTEX
  8
0
  6
CONTINUOUS
 62
     2
 10
604.39333471
 20
259.279773232
 30
0.0
 42
-0.021820078
  0
VERTEX
  8
0
  6
CONTINUOUS
 62
     2
 10
604.282826594
 20
259.159174785
 30
0.0
 42
-0.021820078
  0
VERTEX
  8
0
  6
CONTINUOUS
 62
     2
 10
604.162228148
 20
259.048666669
 30
0.0
 42
-0.021820078
  0
VERTEX
  8
0
  6
CONTINUOUS
 62
     2
 10
604.032457198
 20
258.949089917
 30
0.0
 42
-0.021820078
  0
VERTEX
  8
0
  6
CONTINUOUS
 62
     2
 10
603.894501379
 20
258.861202368
 30
0.0
 42
-0.021820078
  0
VERTEX
  8
0
  6
CONTINUOUS
 62
     2
 10
603.74941062
 20
258.785672899
 30
0.0
 42
-0.021820078
  0
VERTEX
  8
0
  6
CONTINUOUS
 62
     2
 10
603.598289148
 20
258.723076336
 30
0.0
 42
-0.021820078
  0
VERTEX
  8
0
  6
CONTINUOUS
 62
     2
 10
603.442287089
 20
258.673889076
 30
0.0
 42
-0.021820078
  0
VERTEX
  8
0
  6
CONTINUOUS
 62
     2
 10
603.282591712
 20
258.638485463
 30
0.0
 42
-0.021820078
  0
VERTEX
  8
0
  6
CONTINUOUS
 62
     2
 10
603.120418397
 20
258.617134941
 30
0.0
 42
-0.021820078
  0
VERTEX
  8
0
  6
CONTINUOUS
 62
     2
 10
602.957001379
 20
258.61
 30
0.0
 42
-0.021820078
  0
VERTEX
  8
0
  6
CONTINUOUS
 62
     2
 10
602.793584362
 20
258.617134941
 30
0.0
 42
-0.021820078
  0
VERTEX
  8
0
  6
CONTINUOUS
 62
     2
 10
602.631411046
 20
258.638485463
 30
0.0
 42
-0.021820078
  0
VERTEX
  8
0
  6
CONTINUOUS
 62
     2
 10
602.47171567
 20
258.673889076
 30
0.0
 42
-0.021820078
  0
VERTEX
  8
0
  6
CONTINUOUS
 62
     2
 10
602.315713611
 20
258.723076336
 30
0.0
 42
-0.021820078
  0
VERTEX
  8
0
  6
CONTINUOUS
 62
     2
 10
602.164592139
 20
258.785672899
 30
0.0
 42
-0.021820078
  0
VERTEX
  8
0
  6
CONTINUOUS
 62
     2
 10
602.019501379
 20
258.861202368
 30
0.0
 42
-0.021820078
  0
VERTEX
  8
0
  6
CONTINUOUS
 62
     2
 10
601.881545561
 20
258.949089917
 30
0.0
 42
-0.021820078
  0
VERTEX
  8
0
  6
CONTINUOUS
 62
     2
 10
601.751774611
 20
259.048666669
 30
0.0
 42
-0.021820078
  0
VERTEX
  8
0
  6
CONTINUOUS
 62
     2
 10
601.631176165
 20
259.159174785
 30
0.0
 42
-0.021820078
  0
VERTEX
  8
0
  6
CONTINUOUS
 62
     2
 10
601.520668049
 20
259.279773232
 30
0.0
 42
-0.021820078
  0
VERTEX
  8
0
  6
CONTINUOUS
 62
     2
 10
601.421091296
 20
259.409544182
 30
0.0
 42
-0.021820078
  0
VERTEX
  8
0
  6
CONTINUOUS
 62
     2
 10
601.333203747
 20
259.5475
 30
0.0
 42
-0.021820078
  0
VERTEX
  8
0
  6
CONTINUOUS
 62
     2
 10
601.257674279
 20
259.692590759
 30
0.0
 42
-0.021820078
  0
VERTEX
  8
0
  6
CONTINUOUS
 62
     2
 10
601.195077715
 20
259.843712231
 30
0.0
 42
-0.021820078
  0
VERTEX
  8
0
  6
CONTINUOUS
 62
     2
 10
601.145890455
 20
259.99971429
 30
0.0
 42
-0.021820078
  0
VERTEX
  8
0
  6
CONTINUOUS
 62
     2
 10
601.110486842
 20
260.159409667
 30
0.0
 42
-0.021820078
  0
VERTEX
  8
0
  6
CONTINUOUS
 62
     2
 10
601.08913632
 20
260.321582982
 30
0.0
 42
-0.021820078
  0
VERTEX
  8
0
  6
CONTINUOUS
 62
     2
 10
601.082001379
 20
260.485
 30
0.0
 42
-0.021820078
  0
VERTEX
  8
0
  6
CONTINUOUS
 62
     2
 10
601.08913632
 20
260.648417018
 30
0.0
 42
-0.021820078
  0
VERTEX
  8
0
  6
CONTINUOUS
 62
     2
 10
601.110486842
 20
260.810590333
 30
0.0
 42
-0.021820078
  0
VERTEX
  8
0
  6
CONTINUOUS
 62
     2
 10
601.145890455
 20
260.97028571
 30
0.0
 42
-0.021820078
  0
VERTEX
  8
0
  6
CONTINUOUS
 62
     2
 10
601.195077715
 20
261.126287769
 30
0.0
 42
-0.021820078
  0
VERTEX
  8
0
  6
CONTINUOUS
 62
     2
 10
601.257674279
 20
261.277409241
 30
0.0
 42
-0.021820078
  0
VERTEX
  8
0
  6
CONTINUOUS
 62
     2
 10
601.333203747
 20
261.4225
 30
0.0
 42
-0.021820078
  0
VERTEX
  8
0
  6
CONTINUOUS
 62
     2
 10
601.421091296
 20
261.560455818
 30
0.0
 42
-0.021820078
  0
VERTEX
  8
0
  6
CONTINUOUS
 62
     2
 10
601.520668049
 20
261.690226768
 30
0.0
 42
-0.021820078
  0
VERTEX
  8
0
  6
CONTINUOUS
 62
     2
 10
601.631176165
 20
261.810825215
 30
0.0
 42
-0.021820078
  0
VERTEX
  8
0
  6
CONTINUOUS
 62
     2
 10
601.751774611
 20
261.921333331
 30
0.0
 42
-0.021820078
  0
VERTEX
  8
0
  6
CONTINUOUS
 62
     2
 10
601.881545561
 20
262.020910083
 30
0.0
 42
-0.021820078
  0
VERTEX
  8
0
  6
CONTINUOUS
 62
     2
 10
602.019501379
 20
262.108797632
 30
0.0
 42
-0.021820078
  0
VERTEX
  8
0
  6
CONTINUOUS
 62
     2
 10
602.164592139
 20
262.184327101
 30
0.0
 42
-0.021820078
  0
VERTEX
  8
0
  6
CONTINUOUS
 62
     2
 10
602.315713611
 20
262.246923664
 30
0.0
 42
-0.021820078
  0
VERTEX
  8
0
  6
CONTINUOUS
 62
     2
 10
602.47171567
 20
262.296110924
 30
0.0
 42
-0.021820078
  0
VERTEX
  8
0
  6
CONTINUOUS
 62
     2
 10
602.631411046
 20
262.331514537
 30
0.0
 42
-0.021820078
  0
VERTEX
  8
0
  6
CONTINUOUS
 62
     2
 10
602.793584362
 20
262.352865059
 30
0.0
 42
-0.021820078
  0
VERTEX
  8
0
  6
CONTINUOUS
 62
     2
 10
602.957001379
 20
262.36
 30
0.0
 42
-0.021820078
  0
VERTEX
  8
0
  6
CONTINUOUS
 62
     2
 10
603.120418397
 20
262.352865059
 30
0.0
 42
-0.021820078
  0
VERTEX
  8
0
  6
CONTINUOUS
 62
     2
 10
603.282591712
 20
262.331514537
 30
0.0
 42
-0.021820078
  0
VERTEX
  8
0
  6
CONTINUOUS
 62
     2
 10
603.442287089
 20
262.296110924
 30
0.0
 42
-0.021820078
  0
VERTEX
  8
0
  6
CONTINUOUS
 62
     2
 10
603.598289148
 20
262.246923664
 30
0.0
 42
-0.021820078
  0
VERTEX
  8
0
  6
CONTINUOUS
 62
     2
 10
603.74941062
 20
262.184327101
 30
0.0
 42
-0.021820078
  0
VERTEX
  8
0
  6
CONTINUOUS
 62
     2
 10
603.894501379
 20
262.108797632
 30
0.0
 42
-0.021820078
  0
VERTEX
  8
0
  6
CONTINUOUS
 62
     2
 10
604.032457198
 20
262.020910083
 30
0.0
 42
-0.021820078
  0
VERTEX
  8
0
  6
CONTINUOUS
 62
     2
 10
604.162228148
 20
261.921333331
 30
0.0
 42
-0.021820078
  0
VERTEX
  8
0
  6
CONTINUOUS
 62
     2
 10
604.282826594
 20
261.810825215
 30
0.0
 42
-0.021820078
  0
VERTEX
  8
0
  6
CONTINUOUS
 62
     2
 10
604.39333471
 20
261.690226768
 30
0.0
 42
-0.021820078
  0
VERTEX
  8
0
  6
CONTINUOUS
 62
     2
 10
604.492911462
 20
261.560455818
 30
0.0
 42
-0.021820078
  0
VERTEX
  8
0
  6
CONTINUOUS
 62
     2
 10
604.580799011
 20
261.4225
 30
0.0
 42
-0.021820078
  0
VERTEX
  8
0
  6
CONTINUOUS
 62
     2
 10
604.65632848
 20
261.277409241
 30
0.0
 42
-0.021820078
  0
VERTEX
  8
0
  6
CONTINUOUS
 62
     2
 10
604.718925043
 20
261.126287769
 30
0.0
 42
-0.021820078
  0
VERTEX
  8
0
  6
CONTINUOUS
 62
     2
 10
604.768112304
 20
260.97028571
 30
0.0
 42
-0.021820078
  0
VERTEX
  8
0
  6
CONTINUOUS
 62
     2
 10
604.803515916
 20
260.810590333
 30
0.0
 42
-0.021820078
  0
VERTEX
  8
0
  6
CONTINUOUS
 62
     2
 10
604.824866438
 20
260.648417018
 30
0.0
 42
-0.021820078
  0
SEQEND
  8
0
  6
CONTINUOUS
 62
     2
  0
POLYLINE
  8
0
  6
CONTINUOUS
 62
     2
 66
     1
 70
     1
  0
VERTEX
  8
0
  6
CONTINUOUS
 62
     2
 10
617.332001379
 20
260.485
 30
0.0
 42
-0.021820078
  0
VERTEX
  8
0
  6
CONTINUOUS
 62
     2
 10
617.324866438
 20
260.321582982
 30
0.0
 42
-0.021820078
  0
VERTEX
  8
0
  6
CONTINUOUS
 62
     2
 10
617.303515916
 20
260.159409667
 30
0.0
 42
-0.021820078
  0
VERTEX
  8
0
  6
CONTINUOUS
 62
     2
 10
617.268112304
 20
259.99971429
 30
0.0
 42
-0.021820078
  0
VERTEX
  8
0
  6
CONTINUOUS
 62
     2
 10
617.218925043
 20
259.843712231
 30
0.0
 42
-0.021820078
  0
VERTEX
  8
0
  6
CONTINUOUS
 62
     2
 10
617.15632848
 20
259.692590759
 30
0.0
 42
-0.021820078
  0
VERTEX
  8
0
  6
CONTINUOUS
 62
     2
 10
617.080799011
 20
259.5475
 30
0.0
 42
-0.021820078
  0
VERTEX
  8
0
  6
CONTINUOUS
 62
     2
 10
616.992911462
 20
259.409544182
 30
0.0
 42
-0.021820078
  0
VERTEX
  8
0
  6
CONTINUOUS
 62
     2
 10
616.89333471
 20
259.279773232
 30
0.0
 42
-0.021820078
  0
VERTEX
  8
0
  6
CONTINUOUS
 62
     2
 10
616.782826594
 20
259.159174785
 30
0.0
 42
-0.021820078
  0
VERTEX
  8
0
  6
CONTINUOUS
 62
     2
 10
616.662228148
 20
259.048666669
 30
0.0
 42
-0.021820078
  0
VERTEX
  8
0
  6
CONTINUOUS
 62
     2
 10
616.532457198
 20
258.949089917
 30
0.0
 42
-0.021820078
  0
VERTEX
  8
0
  6
CONTINUOUS
 62
     2
 10
616.394501379
 20
258.861202368
 30
0.0
 42
-0.021820078
  0
VERTEX
  8
0
  6
CONTINUOUS
 62
     2
 10
616.24941062
 20
258.785672899
 30
0.0
 42
-0.021820078
  0
VERTEX
  8
0
  6
CONTINUOUS
 62
     2
 10
616.098289148
 20
258.723076336
 30
0.0
 42
-0.021820078
  0
VERTEX
  8
0
  6
CONTINUOUS
 62
     2
 10
615.942287089
 20
258.673889076
 30
0.0
 42
-0.021820078
  0
VERTEX
  8
0
  6
CONTINUOUS
 62
     2
 10
615.782591712
 20
258.638485463
 30
0.0
 42
-0.021820078
  0
VERTEX
  8
0
  6
CONTINUOUS
 62
     2
 10
615.620418397
 20
258.617134941
 30
0.0
 42
-0.021820078
  0
VERTEX
  8
0
  6
CONTINUOUS
 62
     2
 10
615.457001379
 20
258.61
 30
0.0
 42
-0.021820078
  0
VERTEX
  8
0
  6
CONTINUOUS
 62
     2
 10
615.293584362
 20
258.617134941
 30
0.0
 42
-0.021820078
  0
VERTEX
  8
0
  6
CONTINUOUS
 62
     2
 10
615.131411046
 20
258.638485463
 30
0.0
 42
-0.021820078
  0
VERTEX
  8
0
  6
CONTINUOUS
 62
     2
 10
614.97171567
 20
258.673889076
 30
0.0
 42
-0.021820078
  0
VERTEX
  8
0
  6
CONTINUOUS
 62
     2
 10
614.815713611
 20
258.723076336
 30
0.0
 42
-0.021820078
  0
VERTEX
  8
0
  6
CONTINUOUS
 62
     2
 10
614.664592139
 20
258.785672899
 30
0.0
 42
-0.021820078
  0
VERTEX
  8
0
  6
CONTINUOUS
 62
     2
 10
614.519501379
 20
258.861202368
 30
0.0
 42
-0.021820078
  0
VERTEX
  8
0
  6
CONTINUOUS
 62
     2
 10
614.381545561
 20
258.949089917
 30
0.0
 42
-0.021820078
  0
VERTEX
  8
0
  6
CONTINUOUS
 62
     2
 10
614.251774611
 20
259.048666669
 30
0.0
 42
-0.021820078
  0
VERTEX
  8
0
  6
CONTINUOUS
 62
     2
 10
614.131176165
 20
259.159174785
 30
0.0
 42
-0.021820078
  0
VERTEX
  8
0
  6
CONTINUOUS
 62
     2
 10
614.020668049
 20
259.279773232
 30
0.0
 42
-0.021820078
  0
VERTEX
  8
0
  6
CONTINUOUS
 62
     2
 10
613.921091296
 20
259.409544182
 30
0.0
 42
-0.021820078
  0
VERTEX
  8
0
  6
CONTINUOUS
 62
     2
 10
613.833203747
 20
259.5475
 30
0.0
 42
-0.021820078
  0
VERTEX
  8
0
  6
CONTINUOUS
 62
     2
 10
613.757674279
 20
259.692590759
 30
0.0
 42
-0.021820078
  0
VERTEX
  8
0
  6
CONTINUOUS
 62
     2
 10
613.695077715
 20
259.843712231
 30
0.0
 42
-0.021820078
  0
VERTEX
  8
0
  6
CONTINUOUS
 62
     2
 10
613.645890455
 20
259.99971429
 30
0.0
 42
-0.021820078
  0
VERTEX
  8
0
  6
CONTINUOUS
 62
     2
 10
613.610486842
 20
260.159409667
 30
0.0
 42
-0.021820078
  0
VERTEX
  8
0
  6
CONTINUOUS
 62
     2
 10
613.58913632
 20
260.321582982
 30
0.0
 42
-0.021820078
  0
VERTEX
  8
0
  6
CONTINUOUS
 62
     2
 10
613.582001379
 20
260.485
 30
0.0
 42
-0.021820078
  0
VERTEX
  8
0
  6
CONTINUOUS
 62
     2
 10
613.58913632
 20
260.648417018
 30
0.0
 42
-0.021820078
  0
VERTEX
  8
0
  6
CONTINUOUS
 62
     2
 10
613.610486842
 20
260.810590333
 30
0.0
 42
-0.021820078
  0
VERTEX
  8
0
  6
CONTINUOUS
 62
     2
 10
613.645890455
 20
260.97028571
 30
0.0
 42
-0.021820078
  0
VERTEX
  8
0
  6
CONTINUOUS
 62
     2
 10
613.695077715
 20
261.126287769
 30
0.0
 42
-0.021820078
  0
VERTEX
  8
0
  6
CONTINUOUS
 62
     2
 10
613.757674279
 20
261.277409241
 30
0.0
 42
-0.021820078
  0
VERTEX
  8
0
  6
CONTINUOUS
 62
     2
 10
613.833203747
 20
261.4225
 30
0.0
 42
-0.021820078
  0
VERTEX
  8
0
  6
CONTINUOUS
 62
     2
 10
613.921091296
 20
261.560455818
 30
0.0
 42
-0.021820078
  0
VERTEX
  8
0
  6
CONTINUOUS
 62
     2
 10
614.020668049
 20
261.690226768
 30
0.0
 42
-0.021820078
  0
VERTEX
  8
0
  6
CONTINUOUS
 62
     2
 10
614.131176165
 20
261.810825215
 30
0.0
 42
-0.021820078
  0
VERTEX
  8
0
  6
CONTINUOUS
 62
     2
 10
614.251774611
 20
261.921333331
 30
0.0
 42
-0.021820078
  0
VERTEX
  8
0
  6
CONTINUOUS
 62
     2
 10
614.381545561
 20
262.020910083
 30
0.0
 42
-0.021820078
  0
VERTEX
  8
0
  6
CONTINUOUS
 62
     2
 10
614.519501379
 20
262.108797632
 30
0.0
 42
-0.021820078
  0
VERTEX
  8
0
  6
CONTINUOUS
 62
     2
 10
614.664592139
 20
262.184327101
 30
0.0
 42
-0.021820078
  0
VERTEX
  8
0
  6
CONTINUOUS
 62
     2
 10
614.815713611
 20
262.246923664
 30
0.0
 42
-0.021820078
  0
VERTEX
  8
0
  6
CONTINUOUS
 62
     2
 10
614.97171567
 20
262.296110924
 30
0.0
 42
-0.021820078
  0
VERTEX
  8
0
  6
CONTINUOUS
 62
     2
 10
615.131411046
 20
262.331514537
 30
0.0
 42
-0.021820078
  0
VERTEX
  8
0
  6
CONTINUOUS
 62
     2
 10
615.293584362
 20
262.352865059
 30
0.0
 42
-0.021820078
  0
VERTEX
  8
0
  6
CONTINUOUS
 62
     2
 10
615.457001379
 20
262.36
 30
0.0
 42
-0.021820078
  0
VERTEX
  8
0
  6
CONTINUOUS
 62
     2
 10
615.620418397
 20
262.352865059
 30
0.0
 42
-0.021820078
  0
VERTEX
  8
0
  6
CONTINUOUS
 62
     2
 10
615.782591712
 20
262.331514537
 30
0.0
 42
-0.021820078
  0
VERTEX
  8
0
  6
CONTINUOUS
 62
     2
 10
615.942287089
 20
262.296110924
 30
0.0
 42
-0.021820078
  0
VERTEX
  8
0
  6
CONTINUOUS
 62
     2
 10
616.098289148
 20
262.246923664
 30
0.0
 42
-0.021820078
  0
VERTEX
  8
0
  6
CONTINUOUS
 62
     2
 10
616.24941062
 20
262.184327101
 30
0.0
 42
-0.021820078
  0
VERTEX
  8
0
  6
CONTINUOUS
 62
     2
 10
616.394501379
 20
262.108797632
 30
0.0
 42
-0.021820078
  0
VERTEX
  8
0
  6
CONTINUOUS
 62
     2
 10
616.532457198
 20
262.020910083
 30
0.0
 42
-0.021820078
  0
VERTEX
  8
0
  6
CONTINUOUS
 62
     2
 10
616.662228148
 20
261.921333331
 30
0.0
 42
-0.021820078
  0
VERTEX
  8
0
  6
CONTINUOUS
 62
     2
 10
616.782826594
 20
261.810825215
 30
0.0
 42
-0.021820078
  0
VERTEX
  8
0
  6
CONTINUOUS
 62
     2
 10
616.89333471
 20
261.690226768
 30
0.0
 42
-0.021820078
  0
VERTEX
  8
0
  6
CONTINUOUS
 62
     2
 10
616.992911462
 20
261.560455818
 30
0.0
 42
-0.021820078
  0
VERTEX
  8
0
  6
CONTINUOUS
 62
     2
 10
617.080799011
 20
261.4225
 30
0.0
 42
-0.021820078
  0
VERTEX
  8
0
  6
CONTINUOUS
 62
     2
 10
617.15632848
 20
261.277409241
 30
0.0
 42
-0.021820078
  0
VERTEX
  8
0
  6
CONTINUOUS
 62
     2
 10
617.218925043
 20
261.126287769
 30
0.0
 42
-0.021820078
  0
VERTEX
  8
0
  6
CONTINUOUS
 62
     2
 10
617.268112304
 20
260.97028571
 30
0.0
 42
-0.021820078
  0
VERTEX
  8
0
  6
CONTINUOUS
 62
     2
 10
617.303515916
 20
260.810590333
 30
0.0
 42
-0.021820078
  0
VERTEX
  8
0
  6
CONTINUOUS
 62
     2
 10
617.324866438
 20
260.648417018
 30
0.0
 42
-0.021820078
  0
SEQEND
  8
0
  6
CONTINUOUS
 62
     2
  0
TEXT
  8
0
  6
CONTINUOUS
 62
     2
 10
595.665334713
 20
251.818333333
 30
0.0
 40
8.333333333
  1
１
 50
0.0
 41
0.85
 51
0.0
  7
KANJI40
  0
TEXT
  8
0
  6
CONTINUOUS
 62
     2
 10
616.498668046
 20
251.818333333
 30
0.0
 40
8.333333333
  1
２
 50
0.0
 41
0.85
 51
0.0
  7
KANJI40
  0
TEXT
  8
0
  6
CONTINUOUS
 62
     2
 10
569.082001379
 20
249.485
 30
0.0
 40
8.333333333
  1
（ＮＣ）
 50
0.0
 41
0.75
 51
0.0
  7
KANJI41
  0
TEXT
  8
0
  6
CONTINUOUS
 62
     2
 10
624.082001379
 20
249.485
 30
0.0
 40
8.333333333
  1
（ＮＣ）
 50
0.0
 41
0.75
 51
0.0
  7
KANJI41
  0
LINE
  8
0
  6
CONTINUOUS
 62
     1
 10
594.082001379
 20
249.735
 30
0.0
 11
624.082001379
 21
249.735
 31
0.0
  0
ARC
  8
0
  6
CONTINUOUS
 62
     1
 10
594.082001379
 20
251.401666667
 30
0.0
 40
1.666666667
 50
180.0
 51
270.0
  0
ARC
  8
0
  6
CONTINUOUS
 62
     1
 10
624.082001379
 20
251.401666667
 30
0.0
 40
1.666666667
 50
270.0
 51
0.0
  0
TEXT
  8
0
  6
CONTINUOUS
 62
     2
 10
555.644501379
 20
225.318333333
 30
0.0
 40
12.5
  1
外部ＬＳリミットＳＷ
 50
0.0
 41
0.9
 51
0.0
  7
KANJI42
  0
TEXT
  8
0
  6
CONTINUOUS
 62
     2
 10
586.686168046
 20
209.485
 30
0.0
 40
12.5
  1
端子符号
 50
0.0
 41
0.9
 51
0.0
  7
KANJI42
  0
LINE
  8
0
  6
CONTINUOUS
 62
     2
 10
636.269501379
 20
214.901666667
 30
0.0
 11
673.769501379
 21
214.901666667
 31
0.0
  0
LINE
  8
0
  6
CONTINUOUS
 62
     2
 10
546.061168046
 20
214.901666667
 30
0.0
 11
578.561168046
 21
214.901666667
 31
0.0
  0
LINE
  8
0
  6
CONTINUOUS
 62
     1
 10
1033.8
 20
588.2
 30
0.0
 11
1035.8
 21
587.9
 31
0.0
  0
LINE
  8
0
  6
CONTINUOUS
 62
     1
 10
1036.3
 20
592.6
 30
0.0
 11
1036.064615385
 21
591.030769231
 31
0.0
  0
LINE
  8
0
  6
CONTINUOUS
 62
     1
 10
1036.064615385
 20
591.030769231
 30
0.0
 11
1033.8
 21
588.2
 31
0.0
  0
LINE
  8
0
  6
CONTINUOUS
 62
     1
 10
1038.0
 20
590.6
 30
0.0
 11
1035.8
 21
587.9
 31
0.0
  0
LINE
  8
0
  6
CONTINUOUS
 62
     1
 10
1042.2
 20
588.2
 30
0.0
 11
1040.2
 21
587.9
 31
0.0
  0
LINE
  8
0
  6
CONTINUOUS
 62
     1
 10
1039.7
 20
592.6
 30
0.0
 11
1039.935384615
 21
591.030769231
 31
0.0
  0
LINE
  8
0
  6
CONTINUOUS
 62
     1
 10
1039.935384615
 20
591.030769231
 30
0.0
 11
1042.2
 21
588.2
 31
0.0
  0
LINE
  8
0
  6
CONTINUOUS
 62
     1
 10
1038.0
 20
590.6
 30
0.0
 11
1040.2
 21
587.9
 31
0.0
  0
CIRCLE
  8
0
  6
CONTINUOUS
 62
     1
 10
1037.999984741
 20
611.5
 30
0.0
 40
3.0
  0
TEXT
  8
0
  6
CONTINUOUS
 62
     2
 10
143.0
 20
472.0
 30
0.0
 40
20.0
  1
ブレーキ解放装置はありません。
 50
0.0
 41
0.925
 51
0.0
  7
KANJI38
  0
TEXT
  8
0
  6
CONTINUOUS
 62
     2
 10
144.0
 20
447.0
 30
0.0
 40
20.0
  1
そのまま手動操作をして下さい．
 50
0.0
 41
0.925
 51
0.0
  7
KANJI38
  0
LINE
  8
0
  6
LTYPE1
 62
     2
 10
704.75
 20
505.5
 30
0.0
 11
469.75
 21
505.5
 31
0.0
  0
LINE
  8
0
  6
LTYPE1
 62
     2
 10
704.75
 20
511.5
 30
0.0
 11
469.75
 21
511.5
 31
0.0
  0
LINE
  8
0
  6
LTYPE1
 62
     2
 10
460.25
 20
491.5
 30
0.0
 11
460.25
 21
498.9
 31
0.0
  0
LINE
  8
0
  6
LTYPE1
 62
     2
 10
467.25
 20
501.3
 30
0.0
 11
461.635640646
 21
501.3
 31
0.0
  0
LINE
  8
0
  6
LTYPE1
 62
     2
 10
460.25
 20
498.9
 30
0.0
 11
461.635640646
 21
501.3
 31
0.0
  0
LINE
  8
0
  6
LTYPE1
 62
     2
 10
460.25
 20
498.9
 30
0.0
 11
461.635640646
 21
501.3
 31
0.0
  0
ARC
  8
0
  6
LTYPE1
 62
     2
 10
463.107883832
 20
498.85
 30
0.0
 40
2.858321186
 50
177.010501597
 51
238.997686085
  0
LINE
  8
0
  6
LTYPE1
 62
     2
 10
467.25
 20
491.5
 30
0.0
 11
467.25
 21
501.3
 31
0.0
  0
LINE
  8
0
  6
LTYPE1
 62
     2
 10
469.75
 20
500.7
 30
0.0
 11
467.25
 21
500.7
 31
0.0
  0
LINE
  8
0
  6
LTYPE1
 62
     2
 10
485.75
 20
501.9
 30
0.0
 11
492.25
 21
501.9
 31
0.0
  0
LINE
  8
0
  6
LTYPE1
 62
     2
 10
492.25
 20
496.7
 30
0.0
 11
485.75
 21
496.7
 31
0.0
  0
LINE
  8
0
  6
LTYPE1
 62
     2
 10
477.75
 20
501.5
 30
0.0
 11
477.75
 21
517.5
 31
0.0
  0
LINE
  8
0
  6
LTYPE1
 62
     2
 10
472.09122
 20
516.9999
 30
0.0
 11
470.25594
 21
515.940300598
 31
0.0
  0
LINE
  8
0
  6
LTYPE1
 62
     2
 10
477.75
 20
516.9999
 30
0.0
 11
472.09122
 21
516.9999
 31
0.0
  0
ARC
  8
0
  6
LTYPE1
 62
     2
 10
472.129455
 20
514.814476233
 30
0.0
 40
2.185758211
 50
31.002313915
 51
92.989498403
  0
ARC
  8
0
  6
LTYPE1
 62
     2
 10
477.75
 20
509.844844663
 30
0.0
 40
7.155055337
 50
58.419912243
 51
121.580087757
  0
LINE
  8
0
  6
LTYPE1
 62
     2
 10
470.25594
 20
511.5
 30
0.0
 11
470.25594
 21
515.940300598
 31
0.0
  0
LINE
  8
0
  6
LTYPE1
 62
     2
 10
474.00297
 20
511.5
 30
0.0
 11
474.00297
 21
515.940300598
 31
0.0
  0
LINE
  8
0
  6
LTYPE1
 62
     2
 10
483.40878
 20
516.9999
 30
0.0
 11
485.24406
 21
515.940300598
 31
0.0
  0
LINE
  8
0
  6
LTYPE1
 62
     2
 10
477.75
 20
516.9999
 30
0.0
 11
483.40878
 21
516.9999
 31
0.0
  0
LINE
  8
0
  6
LTYPE1
 62
     2
 10
483.40878
 20
516.9999
 30
0.0
 11
485.24406
 21
515.940300598
 31
0.0
  0
ARC
  8
0
  6
LTYPE1
 62
     2
 10
483.370545
 20
514.814476233
 30
0.0
 40
2.185758211
 50
87.010501597
 51
148.997686085
  0
LINE
  8
0
  6
LTYPE1
 62
     2
 10
481.49703
 20
511.5
 30
0.0
 11
481.49703
 21
515.940300598
 31
0.0
  0
LINE
  8
0
  6
LTYPE1
 62
     2
 10
485.24406
 20
511.5
 30
0.0
 11
485.24406
 21
515.940300598
 31
0.0
  0
LINE
  8
0
  6
LTYPE1
 62
     2
 10
485.75
 20
478.5
 30
0.0
 11
485.75
 21
505.5
 31
0.0
  0
LINE
  8
0
  6
LTYPE1
 62
     2
 10
485.75
 20
501.9
 30
0.0
 11
485.75
 21
481.1
 31
0.0
  0
LINE
  8
0
  6
LTYPE1
 62
     2
 10
469.75
 20
478.5
 30
0.0
 11
469.75
 21
511.5
 31
0.0
  0
LINE
  8
0
  6
LTYPE1
 62
     2
 10
532.75
 20
450.5
 30
0.0
 11
532.75
 21
503.5
 31
0.0
  0
ARC
  8
0
  6
LTYPE1
 62
     2
 10
489.35
 20
499.3
 30
0.0
 40
3.9
 50
317.9
 51
42.1
  0
LINE
  8
0
  6
LTYPE1
 62
     2
 10
532.75
 20
503.5
 30
0.0
 11
500.75
 21
503.5
 31
0.0
  0
LINE
  8
0
  6
LTYPE1
 62
     2
 10
500.75
 20
450.5
 30
0.0
 11
500.75
 21
503.5
 31
0.0
  0
LINE
  8
0
  6
CONTINUOUS
 62
     1
 10
519.25
 20
472.05
 30
0.0
 11
519.25
 21
456.05
 31
0.0
  0
LINE
  8
0
  6
CONTINUOUS
 62
     1
 10
519.25
 20
472.05
 30
0.0
 11
532.75
 21
472.05
 31
0.0
  0
LINE
  8
0
  6
LTYPE2
 62
     2
 10
488.75
 20
491.5
 30
0.0
 11
500.25
 21
491.5
 31
0.0
  0
LINE
  8
0
  6
LTYPE1
 62
     2
 10
467.25
 20
496.4
 30
0.0
 11
461.635640646
 21
496.4
 31
0.0
  0
LINE
  8
0
  6
LTYPE1
 62
     2
 10
455.75
 20
495.5
 30
0.0
 11
460.25
 21
495.5
 31
0.0
  0
LINE
  8
0
  6
LTYPE1
 62
     2
 10
493.25
 20
495.5
 30
0.0
 11
500.75
 21
495.5
 31
0.0
  0
LINE
  8
0
  6
LTYPE1
 62
     2
 10
500.75
 20
495.5
 30
0.0
 11
505.75
 21
495.5
 31
0.0
  0
LINE
  8
0
  6
LTYPE1
 62
     2
 10
532.75
 20
497.5
 30
0.0
 11
500.75
 21
497.5
 31
0.0
  0
LINE
  8
0
  6
LTYPE1
 62
     2
 10
493.25
 20
494.5
 30
0.0
 11
500.75
 21
494.5
 31
0.0
  0
LINE
  8
0
  6
LTYPE1
 62
     2
 10
500.75
 20
494.5
 30
0.0
 11
505.75
 21
494.5
 31
0.0
  0
LINE
  8
0
  6
LTYPE1
 62
     2
 10
455.75
 20
494.5
 30
0.0
 11
460.25
 21
494.5
 31
0.0
  0
LINE
  8
0
  6
LTYPE1
 62
     2
 10
467.250000004
 20
491.5
 30
0.0
 11
469.75
 21
493.999999996
 31
0.0
  0
LINE
  8
0
  6
LTYPE1
 62
     2
 10
485.75
 20
481.1
 30
0.0
 11
492.25
 21
481.1
 31
0.0
  0
ARC
  8
0
  6
LTYPE1
 62
     2
 10
489.35
 20
483.7
 30
0.0
 40
3.9
 50
317.9
 51
42.1
  0
LINE
  8
0
  6
LTYPE1
 62
     2
 10
467.25
 20
481.7
 30
0.0
 11
461.635640646
 21
481.7
 31
0.0
  0
LINE
  8
0
  6
LTYPE1
 62
     2
 10
460.25
 20
484.1
 30
0.0
 11
461.635640646
 21
481.7
 31
0.0
  0
LINE
  8
0
  6
LTYPE1
 62
     2
 10
460.25
 20
491.5
 30
0.0
 11
460.25
 21
484.1
 31
0.0
  0
LINE
  8
0
  6
LTYPE1
 62
     2
 10
467.25
 20
486.6
 30
0.0
 11
461.635640646
 21
486.6
 31
0.0
  0
ARC
  8
0
  6
LTYPE1
 62
     2
 10
463.107883832
 20
484.15
 30
0.0
 40
2.858321186
 50
121.002313915
 51
182.989498403
  0
LINE
  8
0
  6
LTYPE1
 62
     2
 10
455.75
 20
487.5
 30
0.0
 11
460.25
 21
487.5
 31
0.0
  0
LINE
  8
0
  6
LTYPE1
 62
     2
 10
455.75
 20
488.5
 30
0.0
 11
460.25
 21
488.5
 31
0.0
  0
LINE
  8
0
  6
LTYPE1
 62
     2
 10
467.25
 20
491.5
 30
0.0
 11
467.25
 21
481.7
 31
0.0
  0
LINE
  8
0
  6
LTYPE1
 62
     2
 10
485.75
 20
486.3
 30
0.0
 11
492.25
 21
486.3
 31
0.0
  0
LINE
  8
0
  6
LTYPE1
 62
     2
 10
493.25
 20
488.5
 30
0.0
 11
500.75
 21
488.5
 31
0.0
  0
LINE
  8
0
  6
LTYPE1
 62
     2
 10
493.25
 20
487.5
 30
0.0
 11
500.75
 21
487.5
 31
0.0
  0
LINE
  8
0
  6
LTYPE1
 62
     2
 10
500.75
 20
487.5
 30
0.0
 11
505.75
 21
487.5
 31
0.0
  0
LINE
  8
0
  6
LTYPE1
 62
     2
 10
500.75
 20
488.5
 30
0.0
 11
505.75
 21
488.5
 31
0.0
  0
LINE
  8
0
  6
LTYPE1
 62
     2
 10
500.75
 20
485.5
 30
0.0
 11
532.75
 21
485.5
 31
0.0
  0
ARC
  8
0
  6
LTYPE1
 62
     2
 10
469.6066828
 20
491.5
 30
0.0
 40
9.3566828
 50
148.419912243
 51
211.580087757
  0
LINE
  8
0
  6
LTYPE1
 62
     2
 10
455.75
 20
487.5
 30
0.0
 11
455.75
 21
495.5
 31
0.0
  0
ARC
  8
0
  6
LTYPE1
 62
     2
 10
479.25
 20
491.5
 30
0.0
 40
14.0
 50
338.2
 51
21.8
  0
LINE
  8
0
  6
LTYPE1
 62
     2
 10
493.25
 20
483.7
 30
0.0
 11
493.25
 21
499.3
 31
0.0
  0
LINE
  8
0
  6
LTYPE1
 62
     2
 10
505.75
 20
485.5
 30
0.0
 11
505.75
 21
497.5
 31
0.0
  0
LINE
  8
0
  6
LTYPE1
 62
     2
 10
469.75
 20
478.5
 30
0.0
 11
485.75
 21
478.5
 31
0.0
  0
LINE
  8
0
  6
LTYPE1
 62
     2
 10
469.75
 20
491.5
 30
0.0
 11
467.250000004
 21
489.000000004
 31
0.0
  0
LINE
  8
0
  6
LTYPE1
 62
     2
 10
469.75
 20
482.3
 30
0.0
 11
467.25
 21
482.3
 31
0.0
  0
LINE
  8
0
  6
LTYPE1
 62
     2
 10
498.25
 20
473.3
 30
0.0
 11
492.635640646
 21
473.3
 31
0.0
  0
LINE
  8
0
  6
LTYPE1
 62
     2
 10
491.25
 20
470.9
 30
0.0
 11
492.635640646
 21
473.3
 31
0.0
  0
LINE
  8
0
  6
LTYPE1
 62
     2
 10
491.25
 20
470.9
 30
0.0
 11
492.635640646
 21
473.3
 31
0.0
  0
LINE
  8
0
  6
LTYPE1
 62
     2
 10
500.75
 20
472.7
 30
0.0
 11
498.25
 21
472.7
 31
0.0
  0
LINE
  8
0
  6
LTYPE1
 62
     2
 10
491.25
 20
463.5
 30
0.0
 11
491.25
 21
470.9
 31
0.0
  0
LINE
  8
0
  6
LTYPE1
 62
     2
 10
498.25
 20
468.4
 30
0.0
 11
492.635640646
 21
468.4
 31
0.0
  0
ARC
  8
0
  6
LTYPE1
 62
     2
 10
494.107883832
 20
470.85
 30
0.0
 40
2.858321186
 50
177.010501597
 51
238.997686085
  0
LINE
  8
0
  6
LTYPE1
 62
     2
 10
498.25
 20
463.5
 30
0.0
 11
498.25
 21
473.3
 31
0.0
  0
LINE
  8
0
  6
LTYPE1
 62
     2
 10
482.75
 20
467.5
 30
0.0
 11
491.25
 21
467.5
 31
0.0
  0
ARC
  8
0
  6
LTYPE1
 62
     2
 10
500.6066828
 20
463.5
 30
0.0
 40
9.3566828
 50
148.419912243
 51
211.580087757
  0
LINE
  8
0
  6
LTYPE1
 62
     2
 10
482.75
 20
459.5
 30
0.0
 11
482.75
 21
467.5
 31
0.0
  0
LINE
  8
0
  6
CONTINUOUS
 62
     1
 10
519.25
 20
456.05
 30
0.0
 11
532.75
 21
456.05
 31
0.0
  0
LINE
  8
0
  6
LTYPE1
 62
     2
 10
500.75
 20
450.5
 30
0.0
 11
532.75
 21
450.5
 31
0.0
  0
LINE
  8
0
  6
LTYPE1
 62
     2
 10
498.25
 20
463.5
 30
0.0
 11
498.25
 21
453.7
 31
0.0
  0
LINE
  8
0
  6
LTYPE1
 62
     2
 10
498.25
 20
453.7
 30
0.0
 11
492.635640646
 21
453.7
 31
0.0
  0
LINE
  8
0
  6
LTYPE1
 62
     2
 10
491.25
 20
456.1
 30
0.0
 11
492.635640646
 21
453.7
 31
0.0
  0
LINE
  8
0
  6
LTYPE1
 62
     2
 10
491.25
 20
463.5
 30
0.0
 11
491.25
 21
456.1
 31
0.0
  0
LINE
  8
0
  6
LTYPE1
 62
     2
 10
498.25
 20
458.6
 30
0.0
 11
492.635640646
 21
458.6
 31
0.0
  0
ARC
  8
0
  6
LTYPE1
 62
     2
 10
494.107883832
 20
456.15
 30
0.0
 40
2.858321186
 50
121.002313915
 51
182.989498403
  0
LINE
  8
0
  6
LTYPE1
 62
     2
 10
500.75
 20
454.3
 30
0.0
 11
498.25
 21
454.3
 31
0.0
  0
LINE
  8
0
  6
LTYPE1
 62
     2
 10
500.75
 20
463.5
 30
0.0
 11
498.250000004
 21
461.000000004
 31
0.0
  0
LINE
  8
0
  6
LTYPE1
 62
     2
 10
482.75
 20
459.5
 30
0.0
 11
491.25
 21
459.5
 31
0.0
  0
LINE
  8
0
  6
LTYPE1
 62
     2
 10
482.75
 20
460.5
 30
0.0
 11
491.25
 21
460.5
 31
0.0
  0
LINE
  8
0
  6
LTYPE1
 62
     2
 10
498.250000004
 20
463.5
 30
0.0
 11
500.75
 21
465.999999996
 31
0.0
  0
LINE
  8
0
  6
LTYPE1
 62
     2
 10
482.75
 20
466.5
 30
0.0
 11
491.25
 21
466.5
 31
0.0
  0
LINE
  8
0
  6
LTYPE3
 62
     2
 10
450.25
 20
491.5
 30
0.0
 11
789.51
 21
491.5
 31
0.0
  0
LINE
  8
0
  6
LTYPE2
 62
     2
 10
475.35
 20
463.5
 30
0.0
 11
1019.4
 21
463.5
 31
0.0
  0
LINE
  8
0
  6
LTYPE1
 62
     2
 10
532.75
 20
485.5
 30
0.0
 11
781.3
 21
485.5
 31
0.0
  0
LINE
  8
0
  6
LTYPE1
 62
     2
 10
532.75
 20
497.5
 30
0.0
 11
781.3
 21
497.5
 31
0.0
  0
LINE
  8
0
  6
CONTINUOUS
 62
     1
 10
532.75
 20
452.5
 30
0.0
 11
532.75
 21
474.5
 31
0.0
  0
LINE
  8
0
  6
LTYPE3
 62
     2
 10
553.75
 20
453.5
 30
0.0
 11
553.75
 21
473.5
 31
0.0
  0
CIRCLE
  8
0
  6
CONTINUOUS
 62
     2
 10
553.75
 20
463.5
 30
0.0
 40
5.0
  0
CIRCLE
  8
0
  6
CONTINUOUS
 62
     2
 10
553.75
 20
463.5
 30
0.0
 40
4.0
  0
LINE
  8
0
  6
CONTINUOUS
 62
     1
 10
541.4
 20
479.5
 30
0.0
 11
566.1
 21
479.5
 31
0.0
  0
LINE
  8
0
  6
CONTINUOUS
 62
     1
 10
541.4
 20
447.5
 30
0.0
 11
541.4
 21
479.5
 31
0.0
  0
LINE
  8
0
  6
CONTINUOUS
 62
     1
 10
541.4
 20
447.5
 30
0.0
 11
566.1
 21
447.5
 31
0.0
  0
LINE
  8
0
  6
CONTINUOUS
 62
     1
 10
532.75
 20
474.5
 30
0.0
 11
541.410254038
 21
479.5
 31
0.0
  0
LINE
  8
0
  6
CONTINUOUS
 62
     1
 10
532.75
 20
452.5
 30
0.0
 11
541.410254038
 21
447.5
 31
0.0
  0
LINE
  8
0
  6
CONTINUOUS
 62
     1
 10
574.75
 20
471.5
 30
0.0
 11
806.7
 21
471.5
 31
0.0
  0
LINE
  8
0
  6
CONTINUOUS
 62
     1
 10
574.75
 20
455.5
 30
0.0
 11
838.0
 21
455.5
 31
0.0
  0
LINE
  8
0
  6
CONTINUOUS
 62
     1
 10
566.1
 20
447.5
 30
0.0
 11
566.1
 21
479.5
 31
0.0
  0
LINE
  8
0
  6
CONTINUOUS
 62
     1
 10
574.75
 20
474.5
 30
0.0
 11
566.089745962
 21
479.5
 31
0.0
  0
LINE
  8
0
  6
CONTINUOUS
 62
     1
 10
574.75
 20
452.5
 30
0.0
 11
574.75
 21
474.5
 31
0.0
  0
LINE
  8
0
  6
CONTINUOUS
 62
     1
 10
574.75
 20
452.5
 30
0.0
 11
566.089745962
 21
447.5
 31
0.0
  0
LINE
  8
0
  6
LTYPE1
 62
     2
 10
704.75
 20
505.5
 30
0.0
 11
704.75
 21
581.0
 31
0.0
  0
LINE
  8
0
  6
LTYPE1
 62
     2
 10
704.25
 20
505.5
 30
0.0
 11
704.25
 21
500.9
 31
0.0
  0
LINE
  8
0
  6
LTYPE1
 62
     2
 10
704.25
 20
505.5
 30
0.0
 11
689.25
 21
505.5
 31
0.0
  0
LINE
  8
0
  6
LTYPE1
 62
     2
 10
689.25
 20
505.5
 30
0.0
 11
689.25
 21
500.9
 31
0.0
  0
LINE
  8
0
  6
LTYPE1
 62
     2
 10
692.95
 20
505.5
 30
0.0
 11
692.95
 21
500.9
 31
0.0
  0
LINE
  8
0
  6
LTYPE1
 62
     2
 10
700.55
 20
505.5
 30
0.0
 11
700.55
 21
500.9
 31
0.0
  0
LINE
  8
0
  6
LTYPE1
 62
     2
 10
702.45
 20
500.2
 30
0.0
 11
691.05
 21
500.2
 31
0.0
  0
ARC
  8
0
  6
LTYPE1
 62
     2
 10
691.05
 20
503.0
 30
0.0
 40
2.8
 50
228.5
 51
311.5
  0
ARC
  8
0
  6
LTYPE1
 62
     2
 10
696.75
 20
510.9
 30
0.0
 40
10.7
 50
249.1
 51
290.9
  0
ARC
  8
0
  6
LTYPE1
 62
     2
 10
702.45
 20
503.0
 30
0.0
 40
2.8
 50
228.5
 51
311.5
  0
LINE
  8
0
  6
LTYPE1
 62
     2
 10
696.75
 20
496.7
 30
0.0
 11
696.75
 21
508.5
 31
0.0
  0
LINE
  8
0
  6
LTYPE3
 62
     2
 10
696.75
 20
492.85
 30
0.0
 11
696.75
 21
517.15
 31
0.0
  0
LINE
  8
0
  6
LTYPE1
 62
     2
 10
690.75
 20
512.0
 30
0.0
 11
690.75
 21
581.0
 31
0.0
  0
LINE
  8
0
  6
LTYPE2
 62
     2
 10
697.75
 20
550.75
 30
0.0
 11
697.75
 21
644.75
 31
0.0
  0
LINE
  8
0
  6
LTYPE1
 62
     2
 10
690.75
 20
561.0
 30
0.0
 11
704.75
 21
561.0
 31
0.0
  0
LINE
  8
0
  6
LTYPE1
 62
     2
 10
701.75
 20
581.0
 30
0.0
 11
701.75
 21
636.75
 31
0.0
  0
LINE
  8
0
  6
LTYPE1
 62
     2
 10
693.75
 20
581.0
 30
0.0
 11
693.75
 21
636.75
 31
0.0
  0
LINE
  8
0
  6
LTYPE1
 62
     2
 10
690.75
 20
581.0
 30
0.0
 11
704.75
 21
581.0
 31
0.0
  0
ARC
  8
0
  6
LTYPE1
 62
     2
 10
697.75
 20
636.75
 30
0.0
 40
4.0
 50
0.0
 51
180.0
  0
LINE
  8
0
  6
CONTINUOUS
 62
     1
 10
817.0
 20
512.0
 30
0.0
 11
817.0
 21
581.0
 31
0.0
  0
LINE
  8
0
  6
CONTINUOUS
 62
     1
 10
789.0
 20
512.0
 30
0.0
 11
919.0
 21
512.0
 31
0.0
  0
LINE
  8
0
  6
CONTINUOUS
 62
     1
 10
789.0
 20
506.0
 30
0.0
 11
789.0
 21
512.0
 31
0.0
  0
LINE
  8
0
  6
CONTINUOUS
 62
     1
 10
789.0
 20
506.0
 30
0.0
 11
919.0
 21
506.0
 31
0.0
  0
LINE
  8
0
  6
CONTINUOUS
 62
     1
 10
806.7
 20
505.0
 30
0.0
 11
781.3
 21
505.0
 31
0.0
  0
LINE
  8
0
  6
CONTINUOUS
 62
     1
 10
806.7
 20
479.6
 30
0.0
 11
781.3
 21
479.6
 31
0.0
  0
LINE
  8
0
  6
CONTINUOUS
 62
     1
 10
806.7
 20
506.0
 30
0.0
 11
806.7
 21
466.0
 31
0.0
  0
LINE
  8
0
  6
CONTINUOUS
 62
     1
 10
806.7
 20
472.0
 30
0.0
 11
832.6
 21
472.0
 31
0.0
  0
LINE
  8
0
  6
CONTINUOUS
 62
     1
 10
806.7
 20
466.0
 30
0.0
 11
832.6
 21
466.0
 31
0.0
  0
LINE
  8
0
  6
CONTINUOUS
 62
     1
 10
781.3
 20
505.0
 30
0.0
 11
781.3
 21
479.6
 31
0.0
  0
LINE
  8
0
  6
CONTINUOUS
 62
     1
 10
831.0
 20
512.0
 30
0.0
 11
831.0
 21
581.0
 31
0.0
  0
LINE
  8
0
  6
CONTINUOUS
 62
     1
 10
832.6
 20
506.0
 30
0.0
 11
832.6
 21
466.0
 31
0.0
  0
LINE
  8
0
  6
LTYPE4
 62
     2
 10
842.1
 20
484.7
 30
0.0
 11
825.1
 21
484.7
 31
0.0
  0
LINE
  8
0
  6
CONTINUOUS
 62
     1
 10
838.0
 20
451.0
 30
0.0
 11
838.0
 21
466.0
 31
0.0
  0
LINE
  8
0
  6
CONTINUOUS
 62
     1
 10
838.0
 20
451.0
 30
0.0
 11
870.0
 21
451.0
 31
0.0
  0
LINE
  8
0
  6
CONTINUOUS
 62
     1
 10
832.6
 20
472.0
 30
0.0
 11
901.3
 21
472.0
 31
0.0
  0
LINE
  8
0
  6
CONTINUOUS
 62
     1
 10
832.6
 20
466.0
 30
0.0
 11
901.3
 21
466.0
 31
0.0
  0
LINE
  8
0
  6
LTYPE2
 62
     2
 10
824.0
 20
550.75
 30
0.0
 11
824.0
 21
644.75
 31
0.0
  0
LINE
  8
0
  6
CONTINUOUS
 62
     1
 10
817.0
 20
561.0
 30
0.0
 11
831.0
 21
561.0
 31
0.0
  0
LINE
  8
0
  6
CONTINUOUS
 62
     1
 10
828.0
 20
581.0
 30
0.0
 11
828.0
 21
636.75
 31
0.0
  0
LINE
  8
0
  6
CONTINUOUS
 62
     1
 10
820.0
 20
581.0
 30
0.0
 11
820.0
 21
636.75
 31
0.0
  0
LINE
  8
0
  6
CONTINUOUS
 62
     1
 10
817.0
 20
581.0
 30
0.0
 11
831.0
 21
581.0
 31
0.0
  0
ARC
  8
0
  6
CONTINUOUS
 62
     1
 10
824.0
 20
636.75
 30
0.0
 40
4.0
 50
0.0
 51
180.0
  0
LINE
  8
0
  6
CONTINUOUS
 62
     1
 10
877.0
 20
512.0
 30
0.0
 11
877.0
 21
581.0
 31
0.0
  0
LINE
  8
0
  6
CONTINUOUS
 62
     1
 10
891.0
 20
512.0
 30
0.0
 11
891.0
 21
581.0
 31
0.0
  0
LINE
  8
0
  6
CONTINUOUS
 62
     1
 10
926.7
 20
505.0
 30
0.0
 11
926.7
 21
479.6
 31
0.0
  0
LINE
  8
0
  6
CONTINUOUS
 62
     1
 10
901.3
 20
505.0
 30
0.0
 11
926.7
 21
505.0
 31
0.0
  0
LINE
  8
0
  6
CONTINUOUS
 62
     1
 10
919.0
 20
506.0
 30
0.0
 11
919.0
 21
512.0
 31
0.0
  0
LINE
  8
0
  6
CONTINUOUS
 62
     1
 10
901.3
 20
479.6
 30
0.0
 11
926.7
 21
479.6
 31
0.0
  0
LINE
  8
0
  6
CONTINUOUS
 62
     1
 10
901.3
 20
506.0
 30
0.0
 11
901.3
 21
466.0
 31
0.0
  0
LINE
  8
0
  6
CONTINUOUS
 62
     1
 10
870.0
 20
451.0
 30
0.0
 11
870.0
 21
466.0
 31
0.0
  0
LINE
  8
0
  6
CONTINUOUS
 62
     1
 10
870.0
 20
455.5
 30
0.0
 11
937.0
 21
455.5
 31
0.0
  0
LINE
  8
0
  6
CONTINUOUS
 62
     1
 10
901.3
 20
471.5
 30
0.0
 11
937.0
 21
471.5
 31
0.0
  0
LINE
  8
0
  6
CONTINUOUS
 62
     1
 10
987.0
 20
450.5
 30
0.0
 11
1003.0
 21
450.5
 31
0.0
  0
LINE
  8
0
  6
CONTINUOUS
 62
     1
 10
979.0
 20
471.5
 30
0.0
 11
987.0
 21
471.5
 31
0.0
  0
LINE
  8
0
  6
CONTINUOUS
 62
     1
 10
979.0
 20
455.5
 30
0.0
 11
987.0
 21
455.5
 31
0.0
  0
LINE
  8
0
  6
LTYPE3
 62
     2
 10
958.0
 20
453.5
 30
0.0
 11
958.0
 21
473.5
 31
0.0
  0
CIRCLE
  8
0
  6
CONTINUOUS
 62
     2
 10
958.0
 20
463.5
 30
0.0
 40
5.0
  0
CIRCLE
  8
0
  6
CONTINUOUS
 62
     2
 10
958.0
 20
463.5
 30
0.0
 40
4.0
  0
LINE
  8
0
  6
CONTINUOUS
 62
     1
 10
937.0
 20
474.5
 30
0.0
 11
945.660254038
 21
479.5
 31
0.0
  0
LINE
  8
0
  6
CONTINUOUS
 62
     1
 10
945.65
 20
479.5
 30
0.0
 11
970.35
 21
479.5
 31
0.0
  0
LINE
  8
0
  6
CONTINUOUS
 62
     1
 10
945.65
 20
447.5
 30
0.0
 11
945.65
 21
479.5
 31
0.0
  0
LINE
  8
0
  6
CONTINUOUS
 62
     1
 10
970.35
 20
447.5
 30
0.0
 11
970.35
 21
479.5
 31
0.0
  0
LINE
  8
0
  6
CONTINUOUS
 62
     1
 10
979.0
 20
474.5
 30
0.0
 11
970.339745962
 21
479.5
 31
0.0
  0
LINE
  8
0
  6
CONTINUOUS
 62
     1
 10
979.0
 20
452.5
 30
0.0
 11
979.0
 21
474.5
 31
0.0
  0
LINE
  8
0
  6
CONTINUOUS
 62
     1
 10
937.0
 20
452.5
 30
0.0
 11
937.0
 21
474.5
 31
0.0
  0
LINE
  8
0
  6
CONTINUOUS
 62
     1
 10
945.65
 20
447.5
 30
0.0
 11
970.35
 21
447.5
 31
0.0
  0
LINE
  8
0
  6
CONTINUOUS
 62
     1
 10
937.0
 20
452.5
 30
0.0
 11
945.660254038
 21
447.5
 31
0.0
  0
LINE
  8
0
  6
CONTINUOUS
 62
     1
 10
979.0
 20
452.5
 30
0.0
 11
970.339745962
 21
447.5
 31
0.0
  0
LINE
  8
0
  6
CONTINUOUS
 62
     1
 10
1003.0
 20
452.75
 30
0.0
 11
1006.0
 21
452.75
 31
0.0
  0
LINE
  8
0
  6
CONTINUOUS
 62
     1
 10
1003.0
 20
474.25
 30
0.0
 11
1006.0
 21
474.25
 31
0.0
  0
LINE
  8
0
  6
CONTINUOUS
 62
     1
 10
1003.0
 20
463.5
 30
0.0
 11
1006.000254073
 21
466.500254073
 31
0.0
  0
LINE
  8
0
  6
CONTINUOUS
 62
     1
 10
1006.000254073
 20
463.5
 30
0.0
 11
1003.0
 21
460.499745927
 31
0.0
  0
LINE
  8
0
  6
CONTINUOUS
 62
     1
 10
1006.0
 20
463.5
 30
0.0
 11
1006.0
 21
452.55046
 31
0.0
  0
LINE
  8
0
  6
CONTINUOUS
 62
     1
 10
1014.0211
 20
463.5
 30
0.0
 11
1014.0211
 21
455.23198
 31
0.0
  0
ARC
  8
0
  6
CONTINUOUS
 62
     1
 10
1003.566878307
 20
463.5
 30
0.0
 40
10.454221693
 50
328.419912243
 51
31.580087757
  0
ARC
  8
0
  6
CONTINUOUS
 62
     1
 10
1010.827986394
 20
455.287845
 30
0.0
 40
3.193602261
 50
357.010501597
 51
58.997686085
  0
LINE
  8
0
  6
CONTINUOUS
 62
     1
 10
1006.0
 20
458.02523
 30
0.0
 11
1012.472923706
 21
458.02523
 31
0.0
  0
LINE
  8
0
  6
CONTINUOUS
 62
     1
 10
1014.0211
 20
457.5
 30
0.0
 11
1027.0
 21
457.5
 31
0.0
  0
LINE
  8
0
  6
CONTINUOUS
 62
     1
 10
1027.0
 20
457.5
 30
0.0
 11
1027.0
 21
469.5
 31
0.0
  0
LINE
  8
0
  6
CONTINUOUS
 62
     1
 10
1006.0
 20
463.5
 30
0.0
 11
1006.0
 21
474.44954
 31
0.0
  0
LINE
  8
0
  6
CONTINUOUS
 62
     1
 10
1014.0211
 20
471.76802
 30
0.0
 11
1012.472923706
 21
474.44954
 31
0.0
  0
LINE
  8
0
  6
CONTINUOUS
 62
     1
 10
1014.0211
 20
463.5
 30
0.0
 11
1014.0211
 21
471.76802
 31
0.0
  0
ARC
  8
0
  6
CONTINUOUS
 62
     1
 10
1010.827986394
 20
471.712155
 30
0.0
 40
3.193602261
 50
301.002313915
 51
2.989498403
  0
LINE
  8
0
  6
CONTINUOUS
 62
     1
 10
1006.0
 20
474.44954
 30
0.0
 11
1012.472923706
 21
474.44954
 31
0.0
  0
LINE
  8
0
  6
CONTINUOUS
 62
     1
 10
1006.0
 20
468.97477
 30
0.0
 11
1012.472923706
 21
468.97477
 31
0.0
  0
LINE
  8
0
  6
CONTINUOUS
 62
     1
 10
1014.0211
 20
469.5
 30
0.0
 11
1027.0
 21
469.5
 31
0.0
  0
LINE
  8
0
  6
CONTINUOUS
 62
     1
 10
1014.0211
 20
455.23198
 30
0.0
 11
1012.472923706
 21
452.55046
 31
0.0
  0
LINE
  8
0
  6
CONTINUOUS
 62
     1
 10
1014.0211
 20
455.23198
 30
0.0
 11
1012.472923706
 21
452.55046
 31
0.0
  0
LINE
  8
0
  6
CONTINUOUS
 62
     1
 10
1006.0
 20
452.55046
 30
0.0
 11
1012.472923706
 21
452.55046
 31
0.0
  0
LINE
  8
0
  6
LTYPE2
 62
     2
 10
884.0
 20
550.75
 30
0.0
 11
884.0
 21
644.75
 31
0.0
  0
LINE
  8
0
  6
CONTINUOUS
 62
     1
 10
877.0
 20
561.0
 30
0.0
 11
891.0
 21
561.0
 31
0.0
  0
LINE
  8
0
  6
CONTINUOUS
 62
     1
 10
888.0
 20
581.0
 30
0.0
 11
888.0
 21
636.75
 31
0.0
  0
LINE
  8
0
  6
CONTINUOUS
 62
     1
 10
880.0
 20
581.0
 30
0.0
 11
880.0
 21
636.75
 31
0.0
  0
LINE
  8
0
  6
CONTINUOUS
 62
     1
 10
877.0
 20
581.0
 30
0.0
 11
891.0
 21
581.0
 31
0.0
  0
ARC
  8
0
  6
CONTINUOUS
 62
     1
 10
884.0
 20
636.75
 30
0.0
 40
4.0
 50
0.0
 51
180.0
  0
LINE
  8
0
  6
CONTINUOUS
 62
     1
 10
1003.0
 20
450.5
 30
0.0
 11
1003.0
 21
630.5
 31
0.0
  0
POLYLINE
  8
0
  6
CONTINUOUS
 62
     1
 66
     1
  0
VERTEX
  8
0
  6
CONTINUOUS
 62
     1
 10
987.0
 20
450.5
 30
0.0
  0
VERTEX
  8
0
  6
CONTINUOUS
 62
     1
 10
987.0
 20
630.5
 30
0.0
  0
VERTEX
  8
0
  6
CONTINUOUS
 62
     1
 10
1003.0
 20
630.5
 30
0.0
  0
SEQEND
  0
LINE
  8
0
  6
CONTINUOUS
 62
     1
 10
888.0
 20
632.25
 30
0.0
 11
943.0
 21
632.25
 31
0.0
  0
LINE
  8
0
  6
CONTINUOUS
 62
     1
 10
891.0
 20
568.75
 30
0.0
 11
943.0
 21
568.75
 31
0.0
  0
LINE
  8
0
  6
CONTINUOUS
 62
     1
 10
831.0
 20
568.75
 30
0.0
 11
876.999501379
 21
568.75
 31
0.0
  0
LINE
  8
0
  6
CONTINUOUS
 62
     1
 10
828.0
 20
632.25
 30
0.0
 11
880.0
 21
632.25
 31
0.0
  0
LINE
  8
0
  6
CONTINUOUS
 62
     1
 10
697.699501379
 20
632.25
 30
0.0
 11
820.0
 21
632.25
 31
0.0
  0
LINE
  8
0
  6
CONTINUOUS
 62
     2
 10
722.6
 20
568.75
 30
0.0
 11
722.6
 21
673.3
 31
0.0
  0
TEXT
  8
0
  6
CONTINUOUS
 62
     2
 10
718.6
 20
638.5
 30
0.0
 40
15.0
  1
φ６４
 50
90.0
 41
0.9
 51
0.0
  7
KANJI31
  0
LINE
  8
0
  6
CONTINUOUS
 62
     2
 10
722.6
 20
632.25
 30
0.0
 11
720.011809549
 21
622.590741737
 31
0.0
  0
LINE
  8
0
  6
CONTINUOUS
 62
     2
 10
722.6
 20
632.25
 30
0.0
 11
725.188190451
 21
622.590741737
 31
0.0
  0
LINE
  8
0
  6
CONTINUOUS
 62
     2
 10
722.6
 20
568.75
 30
0.0
 11
725.188190451
 21
578.409258263
 31
0.0
  0
LINE
  8
0
  6
CONTINUOUS
 62
     2
 10
722.6
 20
568.75
 30
0.0
 11
720.011809549
 21
578.409258263
 31
0.0
  0
LINE
  8
0
  6
CONTINUOUS
 62
     2
 10
1030.0
 20
373.5
 30
0.0
 11
1030.0
 21
403.7
 31
0.0
  0
LINE
  8
0
  6
CONTINUOUS
 62
     2
 10
1030.0
 20
398.6
 30
0.0
 11
1020.340741737
 21
401.188190451
 31
0.0
  0
LINE
  8
0
  6
CONTINUOUS
 62
     2
 10
1030.0
 20
398.6
 30
0.0
 11
1020.340741737
 21
396.011809549
 31
0.0
  0
LINE
  8
0
  6
CONTINUOUS
 62
     2
 10
1038.0
 20
411.35
 30
0.0
 11
1028.340741737
 21
413.938190451
 31
0.0
  0
LINE
  8
0
  6
CONTINUOUS
 62
     2
 10
1038.0
 20
411.35
 30
0.0
 11
1028.340741737
 21
408.761809549
 31
0.0
  0
LINE
  8
0
  6
CONTINUOUS
 62
     2
 10
1038.0
 20
411.35
 30
0.0
 11
1013.0
 21
411.35
 31
0.0
  0
LINE
  8
0
  6
CONTINUOUS
 62
     2
 10
1013.0
 20
411.35
 30
0.0
 11
1022.659258263
 21
408.761809549
 31
0.0
  0
LINE
  8
0
  6
CONTINUOUS
 62
     2
 10
1013.0
 20
411.35
 30
0.0
 11
1022.659258263
 21
413.938190451
 31
0.0
  0
LINE
  8
0
  6
CONTINUOUS
 62
     2
 10
1018.0
 20
398.6
 30
0.0
 11
1119.0
 21
398.6
 31
0.0
  0
TEXT
  8
0
  6
CONTINUOUS
 62
     2
 10
1012.7
 20
415.35
 30
0.0
 40
15.0
  1
２５
 50
0.0
 41
0.9
 51
0.0
  7
KANJI31
  0
LINE
  8
0
  6
CONTINUOUS
 62
     1
 10
1046.0
 20
309.5
 30
0.0
 11
1030.0
 21
309.5
 31
0.0
  0
LINE
  8
0
  6
CONTINUOUS
 62
     1
 10
1013.0
 20
332.5
 30
0.0
 11
1056.0
 21
332.5
 31
0.0
  0
LINE
  8
0
  6
CONTINUOUS
 62
     1
 10
1046.0
 20
371.5
 30
0.0
 11
1030.0
 21
371.5
 31
0.0
  0
LINE
  8
0
  6
CONTINUOUS
 62
     1
 10
1013.0
 20
348.5
 30
0.0
 11
1056.0
 21
348.5
 31
0.0
  0
LINE
  8
0
  6
CONTINUOUS
 62
     1
 10
1023.0
 20
363.5
 30
0.0
 11
1053.0
 21
363.5
 31
0.0
  0
LINE
  8
0
  6
LTYPE3
 62
     2
 10
1033.6
 20
366.15
 30
0.0
 11
1042.0
 21
366.15
 31
0.0
  0
LINE
  8
0
  6
CONTINUOUS
 62
     1
 10
1046.0
 20
309.5
 30
0.0
 11
1030.0
 21
309.5
 31
0.0
  0
LINE
  8
0
  6
CONTINUOUS
 62
     1
 10
1023.0
 20
317.5
 30
0.0
 11
1053.0
 21
317.5
 31
0.0
  0
LINE
  8
0
  6
LTYPE3
 62
     2
 10
1033.6
 20
314.85
 30
0.0
 11
1042.0
 21
314.85
 31
0.0
  0
LINE
  8
0
  6
CONTINUOUS
 62
     1
 10
1003.0
 20
360.5
 30
0.0
 11
1056.0
 21
360.5
 31
0.0
  0
LINE
  8
0
  6
CONTINUOUS
 62
     1
 10
1003.0
 20
320.5
 30
0.0
 11
1056.0
 21
320.5
 31
0.0
  0
LINE
  8
0
  6
LTYPE2
 62
     2
 10
983.0
 20
340.5
 30
0.0
 11
1066.9
 21
340.5
 31
0.0
  0
LINE
  8
0
  6
CONTINUOUS
 62
     1
 10
1046.0
 20
340.5
 30
0.0
 11
1046.0
 21
332.5
 31
0.0
  0
LINE
  8
0
  6
CONTINUOUS
 62
     1
 10
1056.0
 20
332.5
 30
0.0
 11
1056.0
 21
320.5
 31
0.0
  0
LINE
  8
0
  6
CONTINUOUS
 62
     1
 10
1046.0
 20
340.5
 30
0.0
 11
1046.0
 21
348.5
 31
0.0
  0
LINE
  8
0
  6
CONTINUOUS
 62
     1
 10
1056.0
 20
348.5
 30
0.0
 11
1056.0
 21
360.5
 31
0.0
  0
LINE
  8
0
  6
CONTINUOUS
 62
     2
 10
1093.733854631
 20
348.5
 30
0.0
 11
1091.14566418
 21
338.840741737
 31
0.0
  0
LINE
  8
0
  6
CONTINUOUS
 62
     2
 10
1093.733854631
 20
348.5
 30
0.0
 11
1096.322045082
 21
338.840741737
 31
0.0
  0
LINE
  8
0
  6
CONTINUOUS
 62
     2
 10
1093.833854631
 20
348.5
 30
0.0
 11
1091.24566418
 21
338.840741737
 31
0.0
  0
LINE
  8
0
  6
CONTINUOUS
 62
     2
 10
1093.833854631
 20
348.5
 30
0.0
 11
1096.422045082
 21
338.840741737
 31
0.0
  0
LINE
  8
0
  6
CONTINUOUS
 62
     2
 10
1101.833854631
 20
360.5
 30
0.0
 11
1147.0
 21
360.5
 31
0.0
  0
LINE
  8
0
  6
CONTINUOUS
 62
     2
 10
1093.833854631
 20
360.5
 30
0.0
 11
1096.422045082
 21
370.159258263
 31
0.0
  0
LINE
  8
0
  6
CONTINUOUS
 62
     2
 10
1093.833854631
 20
360.5
 30
0.0
 11
1091.24566418
 21
370.159258263
 31
0.0
  0
LINE
  8
0
  6
CONTINUOUS
 62
     2
 10
1093.733854631
 20
348.5
 30
0.0
 11
1093.733854631
 21
332.5
 31
0.0
  0
LINE
  8
0
  6
CONTINUOUS
 62
     2
 10
1093.733854631
 20
332.5
 30
0.0
 11
1096.322045082
 21
342.159258263
 31
0.0
  0
LINE
  8
0
  6
CONTINUOUS
 62
     2
 10
1093.733854631
 20
332.5
 30
0.0
 11
1091.14566418
 21
342.159258263
 31
0.0
  0
LINE
  8
0
  6
CONTINUOUS
 62
     2
 10
1093.833854631
 20
352.5
 30
0.0
 11
1093.833854631
 21
276.9
 31
0.0
  0
LINE
  8
0
  6
CONTINUOUS
 62
     2
 10
1093.833854631
 20
320.5
 30
0.0
 11
1096.422045082
 21
310.840741737
 31
0.0
  0
LINE
  8
0
  6
CONTINUOUS
 62
     2
 10
1093.833854631
 20
320.5
 30
0.0
 11
1091.24566418
 21
310.840741737
 31
0.0
  0
LINE
  8
0
  6
CONTINUOUS
 62
     2
 10
1101.833854631
 20
320.5
 30
0.0
 11
1148.0
 21
320.5
 31
0.0
  0
LINE
  8
0
  6
CONTINUOUS
 62
     1
 10
1053.0
 20
360.5
 30
0.0
 11
1053.0
 21
363.5
 31
0.0
  0
LINE
  8
0
  6
CONTINUOUS
 62
     1
 10
1046.0
 20
363.5
 30
0.0
 11
1046.0
 21
371.5
 31
0.0
  0
LINE
  8
0
  6
LTYPE1
 62
     2
 10
1046.0
 20
348.5
 30
0.0
 11
1046.0
 21
363.5
 31
0.0
  0
LINE
  8
0
  6
CONTINUOUS
 62
     1
 10
1053.0
 20
320.5
 30
0.0
 11
1053.0
 21
317.5
 31
0.0
  0
LINE
  8
0
  6
CONTINUOUS
 62
     1
 10
1046.0
 20
317.5
 30
0.0
 11
1046.0
 21
309.5
 31
0.0
  0
LINE
  8
0
  6
CONTINUOUS
 62
     1
 10
1046.0
 20
317.5
 30
0.0
 11
1046.0
 21
309.5
 31
0.0
  0
LINE
  8
0
  6
LTYPE1
 62
     2
 10
1046.0
 20
332.5
 30
0.0
 11
1046.0
 21
317.5
 31
0.0
  0
LINE
  8
0
  6
CONTINUOUS
 62
     2
 10
1093.833854631
 20
328.5
 30
0.0
 11
1093.833854631
 21
389.7
 31
0.0
  0
TEXT
  8
0
  6
CONTINUOUS
 62
     2
 10
1117.733854631
 20
327.7
 30
0.0
 40
15.0
  1
１６
 50
90.0
 41
0.9
 51
0.0
  7
KANJI31
  0
TEXT
  8
0
  6
CONTINUOUS
 62
     2
 10
1089.833854631
 20
289.0
 30
0.0
 40
15.0
  1
１２
 50
90.0
 41
0.9
 51
0.0
  7
KANJI31
  0
TEXT
  8
0
  6
CONTINUOUS
 62
     2
 10
1089.333854631
 20
363.0
 30
0.0
 40
15.0
  1
１２
 50
90.0
 41
0.9
 51
0.0
  7
KANJI31
  0
LINE
  8
0
  6
CONTINUOUS
 62
     2
 10
1046.0
 20
373.0
 30
0.0
 11
1046.0
 21
404.7
 31
0.0
  0
LINE
  8
0
  6
CONTINUOUS
 62
     2
 10
1058.0
 20
360.5
 30
0.0
 11
1101.833854631
 21
360.5
 31
0.0
  0
LINE
  8
0
  6
CONTINUOUS
 62
     2
 10
1058.0
 20
348.5
 30
0.0
 11
1101.733854631
 21
348.5
 31
0.0
  0
LINE
  8
0
  6
CONTINUOUS
 62
     2
 10
1058.0
 20
332.5
 30
0.0
 11
1101.733854631
 21
332.5
 31
0.0
  0
LINE
  8
0
  6
CONTINUOUS
 62
     2
 10
1058.0
 20
320.5
 30
0.0
 11
1101.833854631
 21
320.5
 31
0.0
  0
LINE
  8
0
  6
CONTINUOUS
 62
     2
 10
1046.0
 20
398.6
 30
0.0
 11
1055.659258263
 21
396.011809549
 31
0.0
  0
LINE
  8
0
  6
CONTINUOUS
 62
     2
 10
1046.0
 20
398.6
 30
0.0
 11
1055.659258263
 21
401.188190451
 31
0.0
  0
TEXT
  8
0
  6
CONTINUOUS
 62
     2
 10
1093.75
 20
411.26
 30
0.84
 40
8.4
  1
Ｈ１０
 50
0.0
 41
0.9
 51
0.0
  7
KANJI43
  0
TEXT
  8
0
  6
CONTINUOUS
 62
     2
 10
1093.75
 20
402.86
 30
0.84
 40
8.4
  1
ｄ９
 50
0.0
 41
0.9
 51
0.0
  7
KANJI43
  0
TEXT
  8
0
  6
CONTINUOUS
 62
     2
 10
1053.0
 20
403.6
 30
0.0
 40
15.0
  1
φ１６
 50
0.0
 41
0.9
 51
0.0
  7
KANJI31
  0
LINE
  8
0
  6
CONTINUOUS
 62
     2
 10
1140.2
 20
320.5
 30
0.0
 11
1142.788190451
 21
330.159258263
 31
0.0
  0
LINE
  8
0
  6
CONTINUOUS
 62
     2
 10
1140.2
 20
320.5
 30
0.0
 11
1137.611809549
 21
330.159258263
 31
0.0
  0
LINE
  8
0
  6
CONTINUOUS
 62
     2
 10
1140.2
 20
320.5
 30
0.0
 11
1140.2
 21
360.5
 31
0.0
  0
LINE
  8
0
  6
CONTINUOUS
 62
     2
 10
1140.2
 20
360.5
 30
0.0
 11
1137.611809549
 21
350.840741737
 31
0.0
  0
LINE
  8
0
  6
CONTINUOUS
 62
     2
 10
1140.2
 20
360.5
 30
0.0
 11
1142.788190451
 21
350.840741737
 31
0.0
  0
TEXT
  8
0
  6
CONTINUOUS
 62
     2
 10
1136.2
 20
328.7
 30
0.0
 40
15.0
  1
４０
 50
90.0
 41
0.9
 51
0.0
  7
KANJI31
  0
LINE
  8
0
  6
CONTINUOUS
 62
     1
 10
1030.0
 20
332.5
 30
0.0
 11
1030.0
 21
340.5
 31
0.0
  0
LINE
  8
0
  6
CONTINUOUS
 62
     1
 10
1013.0
 20
340.5
 30
0.0
 11
1013.0
 21
332.5
 31
0.0
  0
LINE
  8
0
  6
CONTINUOUS
 62
     1
 10
1030.0
 20
348.5
 30
0.0
 11
1030.0
 21
340.5
 31
0.0
  0
LINE
  8
0
  6
CONTINUOUS
 62
     1
 10
1013.0
 20
340.5
 30
0.0
 11
1013.0
 21
348.5
 31
0.0
  0
LINE
  8
0
  6
CONTINUOUS
 62
     1
 10
1023.0
 20
360.5
 30
0.0
 11
1023.0
 21
363.5
 31
0.0
  0
LINE
  8
0
  6
CONTINUOUS
 62
     1
 10
1030.0
 20
371.5
 30
0.0
 11
1030.0
 21
363.5
 31
0.0
  0
LINE
  8
0
  6
LTYPE1
 62
     2
 10
1030.0
 20
363.5
 30
0.0
 11
1030.0
 21
348.5
 31
0.0
  0
LINE
  8
0
  6
CONTINUOUS
 62
     1
 10
1023.0
 20
320.5
 30
0.0
 11
1023.0
 21
317.5
 31
0.0
  0
LINE
  8
0
  6
CONTINUOUS
 62
     1
 10
1030.0
 20
309.5
 30
0.0
 11
1030.0
 21
317.5
 31
0.0
  0
LINE
  8
0
  6
CONTINUOUS
 62
     1
 10
1030.0
 20
309.5
 30
0.0
 11
1030.0
 21
317.5
 31
0.0
  0
LINE
  8
0
  6
LTYPE1
 62
     2
 10
1030.0
 20
317.5
 30
0.0
 11
1030.0
 21
332.5
 31
0.0
  0
LINE
  8
0
  6
CONTINUOUS
 62
     1
 10
1003.0
 20
320.5
 30
0.0
 11
1003.0
 21
360.5
 31
0.0
  0
LINE
  8
0
  6
CONTINUOUS
 62
     2
 10
1013.0
 20
350.5
 30
0.0
 11
1013.0
 21
418.45
 31
0.0
  0
CIRCLE
  8
0
  6
CONTINUOUS
 62
     1
 10
1038.0
 20
366.15
 30
0.0
 40
2.0
  0
CIRCLE
  8
0
  6
CONTINUOUS
 62
     1
 10
1038.0
 20
314.85
 30
0.0
 40
2.0
  0
LINE
  8
0
  6
LTYPE2
 62
     2
 10
1038.0
 20
296.35
 30
0.0
 11
1038.0
 21
615.5
 31
0.0
  0
LINE
  8
0
  6
CONTINUOUS
 62
     2
 10
1111.0
 20
600.5
 30
0.0
 11
1107.764761936
 21
588.425927171
 31
0.0
  0
LINE
  8
0
  6
CONTINUOUS
 62
     2
 10
1111.0
 20
600.5
 30
0.0
 11
1114.235238064
 21
588.425927171
 31
0.0
  0
LINE
  8
0
  6
CONTINUOUS
 62
     2
 10
1111.0
 20
600.5
 30
0.0
 11
1111.0
 21
447.5
 31
0.0
  0
LINE
  8
0
  6
CONTINUOUS
 62
     2
 10
1111.0
 20
447.5
 30
0.0
 11
1114.235238064
 21
459.574072829
 31
0.0
  0
LINE
  8
0
  6
CONTINUOUS
 62
     2
 10
1111.0
 20
447.5
 30
0.0
 11
1107.764761936
 21
459.574072829
 31
0.0
  0
LINE
  8
0
  6
CONTINUOUS
 62
     2
 10
975.35
 20
447.5
 30
0.0
 11
1121.0
 21
447.5
 31
0.0
  0
TEXT
  8
0
  6
CONTINUOUS
 62
     3
 10
1103.5
 20
503.75
 30
0.0
 40
15.0
  1
１５３
 50
90.0
 41
0.9
 51
0.0
  7
KANJI31
  0
LINE
  8
0
  6
CONTINUOUS
 62
     1
 10
1275.859379566
 20
698.080735804
 30
0.0
 11
1276.566486348
 21
697.373629023
 31
0.0
  0
LINE
  8
0
  6
CONTINUOUS
 62
     1
 10
1275.505826176
 20
716.111958724
 30
0.0
 11
1284.698214331
 21
706.919570569
 31
0.0
  0
LINE
  8
2
  6
CONTINUOUS
 62
     2
 10
1319.7
 20
743.239142961
 30
0.0
 11
1319.7
 21
775.072652293
 31
0.0
  0
ARC
  8
0
  6
CONTINUOUS
 62
     1
 10
1353.7
 20
723.5
 30
0.0
 40
2.0
 50
0.0
 51
90.0
  0
ARC
  8
0
  6
CONTINUOUS
 62
     1
 10
1361.7
 20
721.520045888
 30
0.0
 40
2.0
 50
0.0
 51
90.0
  0
LINE
  8
0
  6
CONTINUOUS
 62
     1
 10
1363.7
 20
677.5
 30
0.0
 11
1363.7
 21
721.520045888
 31
0.0
  0
LINE
  8
0
  6
CONTINUOUS
 62
     1
 10
1355.699899538
 20
723.520045888
 30
0.0
 11
1361.7
 21
723.520045888
 31
0.0
  0
LINE
  8
0
  6
CONTINUOUS
 62
     1
 10
1355.7
 20
723.520045888
 30
0.0
 11
1355.7
 21
684.846153846
 31
0.0
  0
ARC
  8
0
  6
CONTINUOUS
 62
     1
 10
1353.7
 20
684.846153846
 30
0.0
 40
2.0
 50
270.0
 51
0.0
  0
LINE
  8
0
  6
CONTINUOUS
 62
     1
 10
1353.7
 20
725.5
 30
0.0
 11
1305.008657865
 21
725.5
 31
0.0
  0
LINE
  8
0
  6
LTYPE4
 62
     2
 10
1319.7
 20
739.239142961
 30
0.0
 11
1319.7
 21
532.0
 31
0.0
  0
LINE
  8
0
  6
CONTINUOUS
 62
     1
 10
1288.7
 20
608.5
 30
0.0
 11
1288.7
 21
592.5
 31
0.0
  0
LINE
  8
0
  6
CONTINUOUS
 62
     1
 10
1311.7
 20
620.5
 30
0.0
 11
1311.7
 21
580.5
 31
0.0
  0
LINE
  8
0
  6
CONTINUOUS
 62
     1
 10
1299.7
 20
620.5
 30
0.0
 11
1299.7
 21
580.5
 31
0.0
  0
LINE
  8
0
  6
CONTINUOUS
 62
     1
 10
1299.7
 20
620.5
 30
0.0
 11
1319.7
 21
620.5
 31
0.0
  0
LINE
  8
0
  6
CONTINUOUS
 62
     1
 10
1311.7
 20
608.5
 30
0.0
 11
1319.7
 21
608.5
 31
0.0
  0
LINE
  8
0
  6
CONTINUOUS
 62
     1
 10
1296.7
 20
585.5
 30
0.0
 11
1296.7
 21
615.5
 31
0.0
  0
LINE
  8
0
  6
CONTINUOUS
 62
     1
 10
1299.7
 20
615.5
 30
0.0
 11
1296.7
 21
615.5
 31
0.0
  0
LINE
  8
0
  6
LTYPE3
 62
     2
 10
1294.05
 20
596.1
 30
0.0
 11
1294.05
 21
604.5
 31
0.0
  0
CIRCLE
  8
0
  6
CONTINUOUS
 62
     1
 10
1294.05
 20
600.5
 30
0.0
 40
2.0
  0
LINE
  8
0
  6
CONTINUOUS
 62
     1
 10
1339.7
 20
615.5
 30
0.0
 11
1342.7
 21
615.5
 31
0.0
  0
LINE
  8
0
  6
CONTINUOUS
 62
     1
 10
1288.7
 20
608.5
 30
0.0
 11
1296.7
 21
608.5
 31
0.0
  0
LINE
  8
0
  6
LTYPE1
 62
     2
 10
1311.7
 20
608.5
 30
0.0
 11
1296.7
 21
608.5
 31
0.0
  0
LINE
  8
0
  6
LTYPE1
 62
     2
 10
1281.7
 20
608.5
 30
0.0
 11
1259.7
 21
608.5
 31
0.0
  0
LINE
  8
0
  6
LTYPE1
 62
     2
 10
1281.7
 20
592.5
 30
0.0
 11
1281.7
 21
608.5
 31
0.0
  0
LINE
  8
0
  6
CONTINUOUS
 62
     2
 10
1261.7
 20
651.5
 30
0.0
 11
1275.7
 21
651.5
 31
0.0
  0
LINE
  8
0
  6
CONTINUOUS
 62
     2
 10
1268.7
 20
658.5
 30
0.0
 11
1268.7
 21
644.5
 31
0.0
  0
ARC
  8
0
  6
LTYPE1
 62
     1
 10
1268.7
 20
651.5
 30
0.0
 40
4.5
 50
41.810314895
 51
138.189685105
  0
ARC
  8
0
  6
LTYPE1
 62
     1
 10
1268.7
 20
651.5
 30
0.0
 40
10.0
 50
162.542396876
 51
180.0
  0
ARC
  8
0
  6
LTYPE1
 62
     1
 10
1268.7
 20
651.5
 30
0.0
 40
4.5
 50
138.189685105
 51
0.0
  0
ARC
  8
0
  6
LTYPE1
 62
     1
 10
1268.7
 20
651.5
 30
0.0
 40
4.5
 50
0.0
 51
41.810314895
  0
LINE
  8
0
  6
LTYPE1
 62
     1
 10
1281.7
 20
624.588309077
 30
0.0
 11
1263.67747451
 21
621.239142961
 31
0.0
  0
LINE
  8
0
  6
LTYPE1
 62
     1
 10
1263.67747451
 20
621.239142961
 30
0.0
 11
1259.7
 21
620.5
 31
0.0
  0
LINE
  8
0
  6
CONTINUOUS
 62
     1
 10
1349.7
 20
670.5
 30
0.0
 11
1349.7
 21
673.5
 31
0.0
  0
ARC
  8
0
  6
CONTINUOUS
 62
     1
 10
1345.7
 20
667.5
 30
0.0
 40
3.0
 50
90.0
 51
180.0
  0
ARC
  8
0
  6
CONTINUOUS
 62
     1
 10
1361.7
 20
681.5
 30
0.0
 40
2.0
 50
270.0
 51
0.0
  0
ARC
  8
0
  6
CONTINUOUS
 62
     1
 10
1361.7
 20
677.5
 30
0.0
 40
2.0
 50
270.0
 51
0.0
  0
ARC
  8
0
  6
CONTINUOUS
 62
     1
 10
1353.7
 20
675.5
 30
0.0
 40
2.0
 50
270.0
 51
0.0
  0
LINE
  8
0
  6
CONTINUOUS
 62
     2
 10
1377.7
 20
651.5
 30
0.0
 11
1363.7
 21
651.5
 31
0.0
  0
ARC
  8
0
  6
CONTINUOUS
 62
     1
 10
1370.7
 20
651.5
 30
0.0
 40
4.5
 50
138.189685104
 51
180.0
  0
ARC
  8
0
  6
CONTINUOUS
 62
     1
 10
1370.7
 20
651.5
 30
0.0
 40
4.5
 50
180.0
 51
41.810314896
  0
ARC
  8
0
  6
CONTINUOUS
 62
     1
 10
1370.7
 20
651.5
 30
0.0
 40
4.5
 50
41.810314896
 51
138.189685104
  0
LINE
  8
0
  6
LTYPE1
 62
     2
 10
1357.7
 20
608.5
 30
0.0
 11
1379.7
 21
608.5
 31
0.0
  0
LINE
  8
0
  6
LTYPE1
 62
     2
 10
1357.7
 20
592.5
 30
0.0
 11
1357.7
 21
608.5
 31
0.0
  0
LINE
  8
0
  6
CONTINUOUS
 62
     1
 10
1342.7
 20
615.5
 30
0.0
 11
1342.7
 21
585.5
 31
0.0
  0
LINE
  8
0
  6
CONTINUOUS
 62
     1
 10
1350.7
 20
608.5
 30
0.0
 11
1350.7
 21
592.5
 31
0.0
  0
LINE
  8
0
  6
CONTINUOUS
 62
     1
 10
1339.7
 20
620.5
 30
0.0
 11
1339.7
 21
580.5
 31
0.0
  0
LINE
  8
0
  6
LTYPE3
 62
     2
 10
1345.35
 20
604.9
 30
0.0
 11
1345.35
 21
596.5
 31
0.0
  0
LINE
  8
0
  6
CONTINUOUS
 62
     1
 10
1350.7
 20
608.5
 30
0.0
 11
1342.7
 21
608.5
 31
0.0
  0
LINE
  8
0
  6
LTYPE1
 62
     2
 10
1327.7
 20
608.5
 30
0.0
 11
1342.7
 21
608.5
 31
0.0
  0
LINE
  8
0
  6
CONTINUOUS
 62
     1
 10
1327.7
 20
620.5
 30
0.0
 11
1327.7
 21
580.5
 31
0.0
  0
CIRCLE
  8
0
  6
CONTINUOUS
 62
     1
 10
1345.35
 20
600.5
 30
0.0
 40
2.0
  0
LINE
  8
0
  6
CONTINUOUS
 62
     1
 10
1339.7
 20
620.5
 30
0.0
 11
1319.7
 21
620.5
 31
0.0
  0
LINE
  8
0
  6
CONTINUOUS
 62
     1
 10
1327.7
 20
608.5
 30
0.0
 11
1319.7
 21
608.5
 31
0.0
  0
LINE
  8
0
  6
LTYPE4
 62
     2
 10
1382.160039412
 20
600.5
 30
0.0
 11
1256.7
 21
600.5
 31
0.0
  0
LINE
  8
0
  6
CONTINUOUS
 62
     1
 10
1363.947895493
 20
623.42724872
 30
0.0
 11
1379.7
 21
620.5
 31
0.0
  0
LINE
  8
0
  6
CONTINUOUS
 62
     1
 10
1299.7
 20
580.5
 30
0.0
 11
1319.7
 21
580.5
 31
0.0
  0
LINE
  8
0
  6
CONTINUOUS
 62
     1
 10
1311.7
 20
592.5
 30
0.0
 11
1319.7
 21
592.5
 31
0.0
  0
LINE
  8
0
  6
CONTINUOUS
 62
     1
 10
1299.7
 20
585.5
 30
0.0
 11
1296.7
 21
585.5
 31
0.0
  0
LINE
  8
0
  6
CONTINUOUS
 62
     1
 10
1288.7
 20
592.5
 30
0.0
 11
1296.7
 21
592.5
 31
0.0
  0
LINE
  8
0
  6
LTYPE1
 62
     2
 10
1311.7
 20
592.5
 30
0.0
 11
1296.7
 21
592.5
 31
0.0
  0
LINE
  8
0
  6
LTYPE1
 62
     2
 10
1281.7
 20
592.5
 30
0.0
 11
1259.7
 21
592.5
 31
0.0
  0
LINE
  8
7
  6
CONTINUOUS
 62
     2
 10
1386.0
 20
600.5
 30
0.0
 11
1424.2
 21
600.5
 31
0.0
  0
LINE
  8
0
  6
CONTINUOUS
 62
     2
 10
1394.0
 20
600.5
 30
0.0
 11
1423.2
 21
600.5
 31
0.0
  0
LINE
  8
0
  6
CONTINUOUS
 62
     2
 10
1370.7
 20
658.5
 30
0.0
 11
1370.7
 21
644.5
 31
0.0
  0
ARC
  8
0
  6
CONTINUOUS
 62
     1
 10
1370.7
 20
651.5
 30
0.0
 40
10.0
 50
30.0
 51
90.0
  0
ARC
  8
0
  6
CONTINUOUS
 62
     1
 10
1370.7
 20
651.5
 30
0.0
 40
10.0
 50
0.0
 51
30.0
  0
LINE
  8
0
  6
CONTINUOUS
 62
     1
 10
1380.7
 20
565.0
 30
0.0
 11
1380.7
 21
651.5
 31
0.0
  0
LINE
  8
0
  6
CONTINUOUS
 62
     1
 10
1379.7
 20
580.5
 30
0.0
 11
1379.7
 21
620.5
 31
0.0
  0
LINE
  8
0
  6
LTYPE1
 62
     2
 10
1357.7
 20
592.5
 30
0.0
 11
1379.7
 21
592.5
 31
0.0
  0
LINE
  8
0
  6
CONTINUOUS
 62
     2
 10
1379.7
 20
579.4
 30
0.0
 11
1379.7
 21
494.5
 31
0.0
  0
LINE
  8
0
  6
CONTINUOUS
 62
     1
 10
1339.7
 20
585.5
 30
0.0
 11
1342.7
 21
585.5
 31
0.0
  0
ARC
  8
0
  6
CONTINUOUS
 62
     1
 10
1319.7
 20
600.5
 30
0.0
 40
57.0
 50
201.813245084
 51
338.186754916
  0
LINE
  8
0
  6
CONTINUOUS
 62
     2
 10
1259.7
 20
578.6
 30
0.0
 11
1259.7
 21
495.4
 31
0.0
  0
LINE
  8
0
  6
CONTINUOUS
 62
     1
 10
1339.7
 20
580.5
 30
0.0
 11
1319.7
 21
580.5
 31
0.0
  0
LINE
  8
0
  6
CONTINUOUS
 62
     1
 10
1327.7
 20
592.5
 30
0.0
 11
1319.7
 21
592.5
 31
0.0
  0
LINE
  8
0
  6
CONTINUOUS
 62
     1
 10
1350.7
 20
592.5
 30
0.0
 11
1342.7
 21
592.5
 31
0.0
  0
LINE
  8
0
  6
LTYPE1
 62
     2
 10
1327.7
 20
592.5
 30
0.0
 11
1342.7
 21
592.5
 31
0.0
  0
LINE
  8
0
  6
CONTINUOUS
 62
     1
 10
1361.215396986
 20
577.419232831
 30
0.0
 11
1379.7
 21
580.5
 31
0.0
  0
LINE
  8
0
  6
CONTINUOUS
 62
     1
 10
1275.089826945
 20
577.935028843
 30
0.0
 11
1259.7
 21
580.5
 31
0.0
  0
LINE
  8
0
  6
LTYPE1
 62
     2
 10
1277.7
 20
679.5
 30
0.0
 11
1282.796181881
 21
679.5
 31
0.0
  0
ARC
  8
0
  6
LTYPE1
 62
     2
 10
1277.7
 20
681.5
 30
0.0
 40
2.0
 50
180.0
 51
270.0
  0
ARC
  8
0
  6
LTYPE1
 62
     2
 10
1277.7
 20
677.5
 30
0.0
 40
2.0
 50
180.0
 51
270.0
  0
LINE
  8
0
  6
LTYPE1
 62
     2
 10
1275.7
 20
677.5
 30
0.0
 11
1275.7
 21
684.976823854
 31
0.0
  0
LINE
  8
0
  6
LTYPE1
 62
     2
 10
1277.7
 20
675.5
 30
0.0
 11
1287.978880519
 21
675.5
 31
0.0
  0
LINE
  8
0
  6
LTYPE1
 62
     2
 10
1283.700100462
 20
675.5
 30
0.0
 11
1283.700100462
 21
675.5
 31
0.0
  0
ARC
  8
0
  6
LTYPE1
 62
     2
 10
1285.700100462
 20
675.5
 30
0.0
 40
2.0
 50
180.0
 51
270.0
  0
LINE
  8
0
  6
LTYPE1
 62
     2
 10
1290.570229837
 20
673.5
 30
0.0
 11
1285.700100462
 21
673.5
 31
0.0
  0
LINE
  8
0
  6
LTYPE1
 62
     2
 10
1295.914631971
 20
673.5
 30
0.0
 11
1290.570229837
 21
673.5
 31
0.0
  0
LINE
  8
0
  6
LTYPE1
 62
     2
 10
1287.978880519
 20
675.5
 30
0.0
 11
1294.197474683
 21
675.5
 31
0.0
  0
LINE
  8
0
  6
LTYPE1
 62
     2
 10
1289.7
 20
670.5
 30
0.0
 11
1289.7
 21
673.5
 31
0.0
  0
LINE
  8
0
  6
LTYPE1
 62
     2
 10
1289.7
 20
670.5
 30
0.0
 11
1294.662925574
 21
670.5
 31
0.0
  0
ARC
  8
0
  6
LTYPE1
 62
     2
 10
1293.7
 20
667.5
 30
0.0
 40
3.0
 50
0.0
 51
90.0
  0
LINE
  8
0
  6
LTYPE1
 62
     2
 10
1294.662925574
 20
670.5
 30
0.0
 11
1296.793311627
 21
670.5
 31
0.0
  0
LINE
  8
0
  6
LTYPE1
 62
     2
 10
1296.7
 20
660.5
 30
0.0
 11
1296.7
 21
667.5
 31
0.0
  0
LINE
  8
0
  6
LTYPE1
 62
     2
 10
1282.796181881
 20
679.5
 30
0.0
 11
1290.197474683
 21
679.5
 31
0.0
  0
LINE
  8
0
  6
LTYPE1
 62
     2
 10
1285.7
 20
682.846153846
 30
0.0
 11
1286.851320837
 21
682.846153846
 31
0.0
  0
LINE
  8
0
  6
CONTINUOUS
 62
     1
 10
1275.7
 20
692.264501988
 30
0.0
 11
1275.7
 21
698.24011537
 31
0.0
  0
LINE
  8
0
  6
CONTINUOUS
 62
     1
 10
1283.7
 20
690.24011537
 30
0.0
 11
1283.7
 21
685.997474683
 31
0.0
  0
ARC
  8
0
  6
LTYPE1
 62
     2
 10
1285.7
 20
684.846153846
 30
0.0
 40
2.0
 50
180.0
 51
270.0
  0
LINE
  8
0
  6
LTYPE1
 62
     2
 10
1283.7
 20
685.926764005
 30
0.0
 11
1283.7
 21
684.846153846
 31
0.0
  0
LINE
  8
0
  6
LTYPE1
 62
     2
 10
1275.7
 20
685.167046966
 30
0.0
 11
1275.7
 21
692.264501988
 31
0.0
  0
LINE
  8
0
  6
LTYPE1
 62
     1
 10
1258.7
 20
651.5
 30
0.0
 11
1258.7
 21
618.775004474
 31
0.0
  0
LINE
  8
0
  6
LTYPE1
 62
     1
 10
1259.7
 20
617.326406343
 30
0.0
 11
1259.7
 21
620.5
 31
0.0
  0
LINE
  8
0
  6
CONTINUOUS
 62
     1
 10
1258.7
 20
618.775004474
 30
0.0
 11
1258.7
 21
564.3
 31
0.0
  0
LINE
  8
0
  6
CONTINUOUS
 62
     1
 10
1259.7
 20
580.5
 30
0.0
 11
1259.7
 21
617.326406343
 31
0.0
  0
LINE
  8
0
  6
LTYPE1
 62
     1
 10
1268.7
 20
661.5
 30
0.0
 11
1301.424995526
 21
661.5
 31
0.0
  0
LINE
  8
0
  6
CONTINUOUS
 62
     1
 10
1301.424995526
 20
661.5
 30
0.0
 11
1370.7
 21
661.5
 31
0.0
  0
ARC
  8
0
  6
LTYPE1
 62
     1
 10
1319.7
 20
600.5
 30
0.0
 40
57.0
 50
101.069835596
 51
158.027867552
  0
ARC
  8
0
  6
CONTINUOUS
 62
     1
 10
1319.7
 20
600.5
 30
0.0
 40
57.0
 50
21.972132448
 51
101.069835596
  0
LINE
  8
0
  6
CONTINUOUS
 62
     2
 10
1168.025595435
 20
667.543416229
 30
0.0
 11
1168.025595435
 21
792.072652293
 31
0.0
  0
LINE
  8
0
  6
CONTINUOUS
 62
     2
 10
1319.7
 20
788.072652293
 30
0.0
 11
1168.025595435
 21
788.072652293
 31
0.0
  0
LINE
  8
0
  6
CONTINUOUS
 62
     2
 10
1168.025595435
 20
788.072652293
 30
0.0
 11
1178.89290757
 21
785.363127062
 31
0.0
  0
LINE
  8
0
  6
CONTINUOUS
 62
     2
 10
1168.025595435
 20
788.072652293
 30
0.0
 11
1178.89290757
 21
790.782177523
 31
0.0
  0
LINE
  8
0
  6
CONTINUOUS
 62
     2
 10
1319.7
 20
747.239142961
 30
0.0
 11
1319.7
 21
792.072652293
 31
0.0
  0
LINE
  8
0
  6
CONTINUOUS
 62
     2
 10
1319.7
 20
788.072652293
 30
0.0
 11
1308.832687866
 21
790.782177523
 31
0.0
  0
LINE
  8
0
  6
CONTINUOUS
 62
     2
 10
1319.7
 20
788.072652293
 30
0.0
 11
1308.832687866
 21
785.363127062
 31
0.0
  0
LINE
  8
0
  6
LTYPE4
 62
     2
 10
1204.583016023
 20
679.130274068
 30
0.0
 11
1239.938355082
 21
714.485613127
 31
0.0
  0
ARC
  8
0
  6
LTYPE1
 62
     1
 10
1222.826370977
 20
697.373629023
 30
0.0
 40
16.0
 50
225.0
 51
99.340912304
  0
ARC
  8
0
  6
CONTINUOUS
 62
     1
 10
1222.826370977
 20
697.373629023
 30
0.0
 40
16.0
 50
99.340912304
 51
170.659087696
  0
LINE
  8
0
  6
CONTINUOUS
 62
     1
 10
1208.205465137
 20
687.702470651
 30
0.0
 11
1200.022177284
 21
679.519182798
 31
0.0
  0
LINE
  8
0
  6
CONTINUOUS
 62
     1
 10
1202.872701496
 20
694.390522289
 30
0.0
 11
1168.025595435
 21
659.543416229
 31
0.0
  0
LINE
  8
0
  6
CONTINUOUS
 62
     1
 10
1207.292118878
 20
687.496231173
 30
0.0
 11
1199.668623894
 21
679.872736188
 31
0.0
  0
LINE
  8
0
  6
LTYPE2
 62
     2
 10
1199.350425842
 20
692.56530291
 30
0.0
 11
1212.926876041
 21
678.988852712
 31
0.0
  0
LINE
  8
0
  6
LTYPE1
 62
     2
 10
1212.396545955
 20
691.893551468
 30
0.0
 11
1217.346293423
 21
686.943804
 31
0.0
  0
LINE
  8
0
  6
LTYPE1
 62
     2
 10
1217.346293423
 20
686.943804
 30
0.0
 11
1212.020895477
 21
681.618406054
 31
0.0
  0
ARC
  8
0
  6
LTYPE1
 62
     1
 10
1222.826370977
 20
697.373629023
 30
0.0
 40
16.0
 50
170.659087696
 51
225.0
  0
LINE
  8
0
  6
LTYPE1
 62
     2
 10
1212.396545955
 20
691.893551468
 30
0.0
 11
1208.205465137
 21
687.702470651
 31
0.0
  0
LINE
  8
0
  6
LTYPE1
 62
     1
 10
1203.734487885
 20
695.252308679
 30
0.0
 11
1202.872701496
 21
694.390522289
 31
0.0
  0
LINE
  8
0
  6
LTYPE1
 62
     1
 10
1209.391342135
 20
689.59545443
 30
0.0
 11
1207.292118878
 21
687.496231173
 31
0.0
  0
LINE
  8
0
  6
LTYPE4
 62
     2
 10
1210.239870272
 20
709.960129728
 30
0.0
 11
1324.944043872
 21
595.255956128
 31
0.0
  0
LINE
  8
0
  6
CONTINUOUS
 62
     1
 10
1204.441594667
 20
697.373629023
 30
0.0
 11
1280.102020254
 21
587.772077939
 31
0.0
  0
LINE
  8
0
  6
CONTINUOUS
 62
     1
 10
1204.441594667
 20
697.373629023
 30
0.0
 11
1222.826370977
 21
715.758405333
 31
0.0
  0
LINE
  8
0
  6
LTYPE1
 62
     1
 10
1203.734487885
 20
695.252308679
 30
0.0
 11
1210.746630132
 21
688.240166432
 31
0.0
  0
CIRCLE
  8
0
  6
CONTINUOUS
 62
     1
 10
1222.826370977
 20
697.373629023
 30
0.0
 40
6.49995
  0
LINE
  8
0
  6
CONTINUOUS
 62
     1
 10
1224.772979378
 20
704.619338067
 30
0.0
 11
1217.527270333
 21
702.672729667
 31
0.0
  0
CIRCLE
  8
0
  6
LTYPE1
 62
     2
 10
1222.826370977
 20
697.373629023
 30
0.0
 40
3.2
  0
CIRCLE
  8
0
  6
CONTINUOUS
 62
     1
 10
1222.826370977
 20
697.373629023
 30
0.0
 40
4.0
  0
LINE
  8
0
  6
CONTINUOUS
 62
     1
 10
1230.072080022
 20
699.320237423
 30
0.0
 11
1228.125471622
 21
692.074528378
 31
0.0
  0
LINE
  8
0
  6
CONTINUOUS
 62
     1
 10
1230.072080022
 20
699.320237423
 30
0.0
 11
1224.772979378
 21
704.619338067
 31
0.0
  0
LINE
  8
0
  6
LTYPE1
 62
     1
 10
1224.947691321
 20
716.465512115
 30
0.0
 11
1225.809477711
 21
717.327298504
 31
0.0
  0
LINE
  8
0
  6
LTYPE2
 62
     2
 10
1225.937640815
 20
722.546630433
 30
0.0
 11
1241.211147288
 21
707.273123959
 31
0.0
  0
LINE
  8
0
  6
LTYPE1
 62
     2
 10
1228.306448532
 20
707.803454045
 30
0.0
 11
1233.256196
 21
702.853706577
 31
0.0
  0
LINE
  8
0
  6
LTYPE1
 62
     2
 10
1238.581593946
 20
708.179104523
 30
0.0
 11
1233.256196
 21
702.853706577
 31
0.0
  0
LINE
  8
0
  6
CONTINUOUS
 62
     1
 10
1232.703768827
 20
712.907881122
 30
0.0
 11
1240.327263812
 21
720.531376106
 31
0.0
  0
LINE
  8
0
  6
CONTINUOUS
 62
     1
 10
1225.809477711
 20
717.327298504
 30
0.0
 11
1260.656583771
 21
752.174404565
 31
0.0
  0
LINE
  8
0
  6
LTYPE1
 62
     1
 10
1230.60454557
 20
710.808657865
 30
0.0
 11
1232.703768827
 21
712.907881122
 31
0.0
  0
LINE
  8
0
  6
CONTINUOUS
 62
     1
 10
1220.879762577
 20
690.127919978
 30
0.0
 11
1215.580661933
 21
695.427020622
 31
0.0
  0
LINE
  8
0
  6
CONTINUOUS
 62
     1
 10
1215.580661933
 20
695.427020622
 30
0.0
 11
1217.527270333
 21
702.672729667
 31
0.0
  0
LINE
  8
0
  6
CONTINUOUS
 62
     1
 10
1220.879762577
 20
690.127919978
 30
0.0
 11
1228.125471622
 21
692.074528378
 31
0.0
  0
LINE
  8
0
  6
LTYPE1
 62
     1
 10
1224.947691321
 20
716.465512115
 30
0.0
 11
1231.959833568
 21
709.453369868
 31
0.0
  0
LINE
  8
0
  6
CONTINUOUS
 62
     1
 10
1240.680817202
 20
720.177822716
 30
0.0
 11
1230.958098961
 21
710.455104475
 31
0.0
  0
LINE
  8
0
  6
LTYPE1
 62
     2
 10
1232.497529349
 20
711.994534863
 30
0.0
 11
1230.958098961
 21
710.455104475
 31
0.0
  0
LINE
  8
0
  6
CONTINUOUS
 62
     1
 10
1200.022177284
 20
679.519182798
 30
0.0
 11
1204.971924752
 21
674.569435329
 31
0.0
  0
LINE
  8
0
  6
CONTINUOUS
 62
     1
 10
1199.597913215
 20
679.943446866
 30
0.0
 11
1194.54209973
 21
671.9177849
 31
0.0
  0
LINE
  8
0
  6
CONTINUOUS
 62
     1
 10
1193.481439558
 20
610.045941546
 30
0.0
 11
1197.724080245
 21
605.803300859
 31
0.0
  0
LINE
  8
0
  6
LTYPE2
 62
     2
 10
1202.532406357
 20
614.288582233
 30
0.0
 11
1169.298387642
 21
647.522600949
 31
0.0
  0
LINE
  8
0
  6
LTYPE2
 62
     2
 10
1191.360119215
 20
668.17011896
 30
0.0
 11
1224.59413793
 21
634.936100244
 31
0.0
  0
LINE
  8
0
  6
CONTINUOUS
 62
     1
 10
1224.947691321
 20
641.512193309
 30
0.0
 11
1196.663420074
 21
613.227922061
 31
0.0
  0
LINE
  8
0
  6
CONTINUOUS
 62
     1
 10
1196.663420074
 20
613.227922061
 30
0.0
 11
1196.734130752
 21
613.157211383
 31
0.0
  0
LINE
  8
0
  6
CONTINUOUS
 62
     1
 10
1168.379148826
 20
641.512193309
 30
0.0
 11
1196.663420074
 21
613.227922061
 31
0.0
  0
LINE
  8
0
  6
CONTINUOUS
 62
     1
 10
1224.947691321
 20
641.512193309
 30
0.0
 11
1196.663420074
 21
669.796464556
 31
0.0
  0
LINE
  8
0
  6
LTYPE2
 62
     2
 10
1170.783311882
 20
667.3923015
 30
0.0
 11
1211.795505191
 21
626.380108191
 31
0.0
  0
LINE
  8
0
  6
CONTINUOUS
 62
     1
 10
1194.54209973
 20
671.9177849
 30
0.0
 11
1185.703264965
 21
663.078950135
 31
0.0
  0
LINE
  8
0
  6
CONTINUOUS
 62
     1
 10
1185.703264965
 20
663.078950135
 30
0.0
 11
1175.096663247
 21
652.472348417
 31
0.0
  0
ARC
  8
0
  6
CONTINUOUS
 62
     1
 10
1186.410371746
 20
636.633156519
 30
0.0
 40
2.0
 50
135.0
 51
225.0
  0
LINE
  8
0
  6
CONTINUOUS
 62
     1
 10
1200.128243301
 20
653.179455198
 30
0.0
 11
1184.996158184
 21
638.047370081
 31
0.0
  0
ARC
  8
0
  6
CONTINUOUS
 62
     1
 10
1201.542456864
 20
651.765241636
 30
0.0
 40
2.0
 50
45.0
 51
135.0
  0
LINE
  8
0
  6
CONTINUOUS
 62
     1
 10
1184.996158184
 20
635.218942956
 30
0.0
 11
1200.128243301
 21
620.086857839
 31
0.0
  0
ARC
  8
0
  6
CONTINUOUS
 62
     1
 10
1201.542456864
 20
621.501071401
 30
0.0
 40
2.0
 50
225.0
 51
315.0
  0
LINE
  8
0
  6
LTYPE2
 62
     2
 10
1191.572251249
 20
626.662950904
 30
0.0
 11
1211.654083835
 21
646.74478349
 31
0.0
  0
LINE
  8
0
  6
CONTINUOUS
 62
     1
 10
1178.632197153
 20
670.150017947
 30
0.0
 11
1197.865501602
 21
650.916713499
 31
0.0
  0
LINE
  8
0
  6
CONTINUOUS
 62
     1
 10
1180.753517497
 20
646.815494168
 30
0.0
 11
1171.914682732
 21
637.976659403
 31
0.0
  0
LINE
  8
0
  6
CONTINUOUS
 62
     1
 10
1200.198953979
 20
666.26093065
 30
0.0
 11
1191.289408537
 21
657.351385207
 31
0.0
  0
LINE
  8
0
  6
CONTINUOUS
 62
     1
 10
1177.147272913
 20
650.280317396
 30
0.0
 11
1168.379148826
 21
641.512193309
 31
0.0
  0
LINE
  8
0
  6
CONTINUOUS
 62
     1
 10
1196.663420074
 20
669.796464556
 30
0.0
 11
1187.824585309
 21
660.957629791
 31
0.0
  0
LINE
  8
0
  6
CONTINUOUS
 62
     1
 10
1168.025595435
 20
659.543416229
 30
0.0
 11
1187.258899884
 21
640.310111781
 31
0.0
  0
LINE
  8
0
  6
CONTINUOUS
 62
     1
 10
1212.020895477
 20
681.618406054
 30
0.0
 11
1204.971924752
 21
674.569435329
 31
0.0
  0
LINE
  8
0
  6
CONTINUOUS
 62
     1
 10
1202.956670426
 20
653.179455198
 30
0.0
 11
1218.088755543
 21
638.047370081
 31
0.0
  0
LINE
  8
0
  6
CONTINUOUS
 62
     1
 10
1218.088755543
 20
635.218942956
 30
0.0
 11
1202.956670426
 21
620.086857839
 31
0.0
  0
LINE
  8
0
  6
CONTINUOUS
 62
     1
 10
1239.095224706
 20
647.17444532
 30
0.0
 11
1197.724080245
 21
605.803300859
 31
0.0
  0
LINE
  8
0
  6
CONTINUOUS
 62
     1
 10
1193.481439558
 20
610.045941546
 30
0.0
 11
1235.629861702
 21
652.19436369
 31
0.0
  0
ARC
  8
0
  6
CONTINUOUS
 62
     1
 10
1216.674541981
 20
636.633156519
 30
0.0
 40
2.0
 50
315.0
 51
45.0
  0
LINE
  8
0
  6
CONTINUOUS
 62
     1
 10
1231.311652352
 20
639.390872965
 30
0.0
 11
1251.464195615
 21
619.238329701
 31
0.0
  0
LINE
  8
0
  6
CONTINUOUS
 62
     1
 10
1332.427922061
 20
640.097979746
 30
0.0
 11
1222.826370977
 21
715.758405333
 31
0.0
  0
LINE
  8
0
  6
CONTINUOUS
 62
     1
 10
1204.441594667
 20
697.373629023
 30
0.0
 11
1222.826370977
 21
715.758405333
 31
0.0
  0
LINE
  8
0
  6
CONTINUOUS
 62
     1
 10
1240.680817202
 20
720.177822716
 30
0.0
 11
1245.630564671
 21
715.228075248
 31
0.0
  0
LINE
  8
0
  6
CONTINUOUS
 62
     1
 10
1240.256553134
 20
720.602086785
 30
0.0
 11
1248.2822151
 21
725.65790027
 31
0.0
  0
LINE
  8
0
  6
LTYPE2
 62
     2
 10
1251.393484937
 20
750.83090168
 30
0.0
 11
1292.405678246
 21
709.818708371
 31
0.0
  0
CIRCLE
  8
0
  6
CONTINUOUS
 62
     1
 10
1277.556435841
 20
724.667950776
 30
0.0
 40
9.36
  0
LINE
  8
0
  6
LTYPE2
 62
     2
 10
1286.748823997
 20
733.860338932
 30
0.0
 11
1268.364047686
 21
715.475562621
 31
0.0
  0
CIRCLE
  8
0
  6
CONTINUOUS
 62
     2
 10
1277.556435841
 20
724.667950776
 30
0.0
 40
10.47
  0
LINE
  8
0
  6
LTYPE2
 62
     2
 10
1284.556792975
 20
696.312968851
 30
0.0
 11
1251.322774259
 21
729.546987567
 31
0.0
  0
LINE
  8
0
  6
CONTINUOUS
 62
     1
 10
1282.223340597
 20
748.285317268
 30
0.0
 11
1253.93906935
 21
720.001046021
 31
0.0
  0
LINE
  8
0
  6
CONTINUOUS
 62
     1
 10
1278.637938583
 20
744.699915254
 30
0.0
 11
1253.93906935
 21
720.001046021
 31
0.0
  0
LINE
  8
0
  6
CONTINUOUS
 62
     1
 10
1278.687806691
 20
751.820851174
 30
0.0
 11
1250.403535444
 21
723.536579926
 31
0.0
  0
LINE
  8
0
  6
CONTINUOUS
 62
     1
 10
1260.656583771
 20
752.174404565
 30
0.0
 11
1269.848971926
 21
742.982016409
 31
0.0
  0
LINE
  8
0
  6
CONTINUOUS
 62
     1
 10
1250.049982053
 20
741.567802847
 30
0.0
 11
1259.242370209
 21
732.375414691
 31
0.0
  0
LINE
  8
0
  6
CONTINUOUS
 62
     1
 10
1250.403535444
 20
723.536579926
 30
0.0
 11
1278.687806691
 21
695.252308679
 31
0.0
  0
LINE
  8
0
  6
CONTINUOUS
 62
     1
 10
1248.2822151
 20
725.65790027
 30
0.0
 11
1257.121049865
 21
734.496735035
 31
0.0
  0
LINE
  8
0
  6
CONTINUOUS
 62
     1
 10
1245.630564671
 20
715.228075248
 30
0.0
 11
1236.631146496
 21
706.228657072
 31
0.0
  0
LINE
  8
0
  6
LTYPE2
 62
     2
 10
1273.384505832
 20
750.194505577
 30
0.0
 11
1306.618524548
 21
716.960486861
 31
0.0
  0
LINE
  8
0
  6
CONTINUOUS
 62
     1
 10
1306.972077939
 20
723.536579926
 30
0.0
 11
1278.687806691
 21
751.820851174
 31
0.0
  0
LINE
  8
0
  6
CONTINUOUS
 62
     1
 10
1304.143650814
 20
726.365007051
 30
0.0
 11
1275.859379566
 21
698.080735804
 31
0.0
  0
LINE
  8
0
  6
CONTINUOUS
 62
     1
 10
1286.112427894
 20
726.718560442
 30
0.0
 11
1295.304816049
 21
717.526172286
 31
0.0
  0
LINE
  8
0
  6
CONTINUOUS
 62
     1
 10
1314.396699141
 20
722.475919755
 30
0.0
 11
1273.02555468
 21
681.104775294
 31
0.0
  0
LINE
  8
0
  6
CONTINUOUS
 62
     1
 10
1268.00563631
 20
684.570138298
 30
0.0
 11
1310.154058454
 21
726.718560442
 31
0.0
  0
LINE
  8
0
  6
CONTINUOUS
 62
     1
 10
1310.154058454
 20
726.718560442
 30
0.0
 11
1314.396699141
 21
722.475919755
 31
0.0
  0
LINE
  8
0
  6
CONTINUOUS
 62
     1
 10
1273.738059223
 20
700.202056147
 30
0.0
 11
1282.576893988
 21
709.040890912
 31
0.0
  0
LINE
  8
0
  6
CONTINUOUS
 62
     1
 10
1280.809127035
 20
688.888347648
 30
0.0
 11
1300.961670299
 21
668.735804385
 31
0.0
  0
ARC
  8
0
  6
CONTINUOUS
 62
     1
 10
1299.547456736
 20
667.321590822
 30
0.0
 40
2.0
 50
315.0
 51
45.0
  0
LINE
  8
0
  6
CONTINUOUS
 62
     1
 10
1298.840349955
 20
663.786056916
 30
0.0
 11
1300.961670299
 21
665.90737726
 31
0.0
  0
LINE
  8
0
  6
CONTINUOUS
 62
     1
 10
1319.496991924
 20
649.087359826
 30
0.0
 11
1326.417514421
 21
656.007882323
 31
0.0
  0
ARC
  8
0
  6
CONTINUOUS
 62
     1
 10
1327.831727984
 20
654.593668761
 30
0.0
 40
2.0
 50
45.0
 51
135.0
  0
LINE
  8
0
  6
CONTINUOUS
 62
     1
 10
1329.245941546
 20
656.007882323
 30
0.0
 11
1340.559650045
 21
644.694173824
 31
0.0
  0
ARC
  8
0
  6
CONTINUOUS
 62
     1
 10
1339.145436483
 20
643.279960262
 30
0.0
 40
2.0
 50
315.0
 51
45.0
  0
LINE
  8
0
  6
CONTINUOUS
 62
     1
 10
1335.609902577
 20
636.915999231
 30
0.0
 11
1340.559650045
 21
641.865746699
 31
0.0
  0
LINE
  8
0
  6
CONTINUOUS
 62
     1
 10
1337.907999616
 20
639.21409627
 30
0.0
 11
1348.161047943
 21
628.961047943
 31
0.0
  0
LINE
  8
0
  6
CONTINUOUS
 62
     1
 10
1344.802290732
 20
627.723611076
 30
0.0
 11
1332.427922061
 21
640.097979746
 31
0.0
  0
LINE
  8
0
  6
CONTINUOUS
 62
     1
 10
1344.802290732
 20
627.723611076
 30
0.0
 11
1340.559650045
 21
623.480970389
 31
0.0
  0
LINE
  8
0
  6
CONTINUOUS
 62
     1
 10
1364.247727215
 20
608.278174593
 30
0.0
 11
1346.923611076
 21
625.602290732
 31
0.0
  0
ARC
  8
0
  6
CONTINUOUS
 62
     1
 10
1319.7
 20
600.5
 30
0.0
 40
40.25
 50
21.817360174
 51
45.0
  0
LINE
  8
0
  6
LTYPE4
 62
     2
 10
1350.247012947
 20
631.047012947
 30
0.0
 11
1275.152272785
 21
555.952272785
 31
0.0
  0
LINE
  8
0
  6
LTYPE4
 62
     2
 10
1350.247012947
 20
631.047012947
 30
0.0
 11
1275.152272785
 21
555.952272785
 31
0.0
  0
LINE
  8
0
  6
CONTINUOUS
 62
     1
 10
1346.923611076
 20
625.602290732
 30
0.0
 11
1342.680970389
 21
621.359650045
 31
0.0
  0
LINE
  8
0
  6
CONTINUOUS
 62
     1
 10
1364.247727215
 20
608.278174593
 30
0.0
 11
1311.921825407
 21
555.952272785
 31
0.0
  0
ARC
  8
0
  6
CONTINUOUS
 62
     1
 10
1319.7
 20
600.5
 30
0.0
 40
32.0
 50
279.340912304
 51
349.457045617
  0
ARC
  8
0
  6
CONTINUOUS
 62
     1
 10
1319.7
 20
600.5
 30
0.0
 40
40.25
 50
265.237896308
 51
4.762103692
  0
LINE
  8
0
  6
CONTINUOUS
 62
     1
 10
1311.921825407
 20
555.952272785
 30
0.0
 11
1294.597709268
 21
573.276388924
 31
0.0
  0
ARC
  8
0
  6
LTYPE1
 62
     2
 10
1319.7
 20
600.5
 30
0.0
 40
32.0
 50
352.014601875
 51
278.793467294
  0
ARC
  8
0
  6
CONTINUOUS
 62
     1
 10
1319.7
 20
600.5
 30
0.0
 40
40.25
 50
225.000030718
 51
248.182639826
  0
ARC
  8
0
  6
LTYPE1
 62
     2
 10
1319.7
 20
600.5
 30
0.0
 40
40.25
 50
5.886200316
 51
21.817360174
  0
LINE
  8
0
  6
LTYPE1
 62
     2
 10
1332.251145366
 20
633.55724202
 30
0.0
 11
1342.504215272
 21
623.304172114
 31
0.0
  0
LINE
  8
0
  6
LTYPE1
 62
     2
 10
1283.284000769
 20
584.590097423
 30
0.0
 11
1335.907999616
 21
637.21409627
 31
0.0
  0
ARC
  8
0
  6
CONTINUOUS
 62
     1
 10
1252.878409178
 20
620.652543264
 30
0.0
 40
2.0
 50
225.0
 51
315.0
  0
LINE
  8
0
  6
CONTINUOUS
 62
     1
 10
1256.413943084
 20
621.359650045
 30
0.0
 11
1254.29262274
 21
619.238329701
 31
0.0
  0
LINE
  8
0
  6
CONTINUOUS
 62
     1
 10
1270.882337765
 20
600.472705667
 30
0.0
 11
1264.192117677
 21
593.782485579
 31
0.0
  0
ARC
  8
0
  6
CONTINUOUS
 62
     1
 10
1265.606331239
 20
592.368272016
 30
0.0
 40
2.0
 50
135.0
 51
225.0
  0
LINE
  8
0
  6
CONTINUOUS
 62
     1
 10
1264.192117677
 20
590.954058454
 30
0.0
 11
1275.505826176
 21
579.640349955
 31
0.0
  0
ARC
  8
0
  6
CONTINUOUS
 62
     1
 10
1276.920039738
 20
581.054563517
 30
0.0
 40
2.0
 50
225.0
 51
315.0
  0
LINE
  8
0
  6
CONTINUOUS
 62
     1
 10
1278.334253301
 20
579.640349955
 30
0.0
 11
1283.284000769
 21
584.590097423
 31
0.0
  0
LINE
  8
0
  6
CONTINUOUS
 62
     1
 10
1292.476388924
 20
575.397709268
 30
0.0
 11
1280.102020254
 21
587.772077939
 31
0.0
  0
LINE
  8
0
  6
LTYPE1
 62
     2
 10
1286.64275798
 20
587.948854634
 30
0.0
 11
1296.895806307
 21
577.695806307
 31
0.0
  0
LINE
  8
0
  6
CONTINUOUS
 62
     1
 10
1280.98590373
 20
582.292000384
 30
0.0
 11
1291.238967316
 21
572.038936798
 31
0.0
  0
LINE
  8
0
  6
CONTINUOUS
 62
     1
 10
1296.719029611
 20
579.640349955
 30
0.0
 11
1292.476388924
 21
575.397709268
 31
0.0
  0
LINE
  8
0
  6
CONTINUOUS
 62
     1
 10
1298.840349955
 20
577.519029611
 30
0.0
 11
1294.597709268
 21
573.276388924
 31
0.0
  0
LINE
  8
0
  6
CONTINUOUS
 62
     2
 10
1415.2
 20
600.5
 30
0.0
 11
1429.2
 21
600.5
 31
0.0
  0
LINE
  8
0
  6
CONTINUOUS
 62
     2
 10
1419.2
 20
600.5
 30
0.0
 11
1415.964761936
 21
588.425927171
 31
0.0
  0
LINE
  8
0
  6
CONTINUOUS
 62
     2
 10
1419.2
 20
600.5
 30
0.0
 11
1422.435238064
 21
588.425927171
 31
0.0
  0
LINE
  8
0
  6
CONTINUOUS
 62
     2
 10
1419.2
 20
600.5
 30
0.0
 11
1419.2
 21
539.5
 31
0.0
  0
TEXT
  8
0
  6
CONTINUOUS
 62
     3
 10
1414.2
 20
556.5
 30
0.0
 40
15.0
  1
６１
 50
90.0
 41
0.9
 51
0.0
  7
KANJI31
  0
CIRCLE
  8
0
  6
CONTINUOUS
 62
     1
 10
1370.7
 20
549.5
 30
0.0
 40
4.5
  0
LINE
  8
0
  6
CONTINUOUS
 62
     2
 10
1377.7
 20
549.5
 30
0.0
 11
1363.7
 21
549.5
 31
0.0
  0
LINE
  8
0
  6
CONTINUOUS
 62
     2
 10
1370.7
 20
542.5
 30
0.0
 11
1370.7
 21
556.5
 31
0.0
  0
LINE
  8
0
  6
CONTINUOUS
 62
     1
 10
1380.7
 20
549.5
 30
0.0
 11
1380.7
 21
565.0
 31
0.0
  0
ARC
  8
0
  6
CONTINUOUS
 62
     1
 10
1370.7
 20
549.5
 30
0.0
 40
10.0
 50
270.0
 51
0.0
  0
LINE
  8
0
  6
CONTINUOUS
 62
     1
 10
1319.7
 20
539.5
 30
0.0
 11
1370.7
 21
539.5
 31
0.0
  0
CIRCLE
  8
0
  6
CONTINUOUS
 62
     1
 10
1268.7
 20
549.5
 30
0.0
 40
4.5
  0
LINE
  8
0
  6
CONTINUOUS
 62
     2
 10
1261.7
 20
549.5
 30
0.0
 11
1275.7
 21
549.5
 31
0.0
  0
LINE
  8
0
  6
CONTINUOUS
 62
     2
 10
1268.7
 20
542.5
 30
0.0
 11
1268.7
 21
556.5
 31
0.0
  0
LINE
  8
0
  6
CONTINUOUS
 62
     1
 10
1258.7
 20
564.3
 30
0.0
 11
1258.7
 21
549.5
 31
0.0
  0
ARC
  8
0
  6
CONTINUOUS
 62
     1
 10
1268.7
 20
549.5
 30
0.0
 40
10.0
 50
180.0
 51
270.0
  0
LINE
  8
0
  6
CONTINUOUS
 62
     1
 10
1268.7
 20
539.5
 30
0.0
 11
1319.7
 21
539.5
 31
0.0
  0
TEXT
  8
0
  6
CONTINUOUS
 62
     2
 10
1302.7
 20
506.4
 30
0.8
 40
12.0
  1
１２０
 50
0.0
 41
0.9
 51
0.0
  7
KANJI44
  0
LINE
  8
0
  6
CONTINUOUS
 62
     2
 10
1259.7
 20
502.4
 30
0.0
 11
1379.7
 21
502.4
 31
0.0
  0
LINE
  8
0
  6
CONTINUOUS
 62
     2
 10
1379.7
 20
502.4
 30
0.0
 11
1370.040741737
 21
504.988190451
 31
0.0
  0
LINE
  8
0
  6
CONTINUOUS
 62
     2
 10
1379.7
 20
502.4
 30
0.0
 11
1370.040741737
 21
499.811809549
 31
0.0
  0
LINE
  8
0
  6
CONTINUOUS
 62
     2
 10
1259.7
 20
502.4
 30
0.0
 11
1269.359258263
 21
499.811809549
 31
0.0
  0
LINE
  8
0
  6
CONTINUOUS
 62
     2
 10
1259.7
 20
502.4
 30
0.0
 11
1269.359258263
 21
504.988190451
 31
0.0
  0
ARC
  8
0
  6
LTYPE1
 62
     2
 10
1319.7
 20
600.5
 30
0.0
 40
40.25
 50
249.193960702
 51
264.113799684
  0
LINE
  8
0
  6
CONTINUOUS
 62
     2
 10
1419.2
 20
539.5
 30
0.0
 11
1422.435238064
 21
551.574072829
 31
0.0
  0
LINE
  8
0
  6
CONTINUOUS
 62
     2
 10
1419.2
 20
539.5
 30
0.0
 11
1415.964761936
 21
551.574072829
 31
0.0
  0
LINE
  8
0
  6
CONTINUOUS
 62
     2
 10
1375.700015259
 20
539.5
 30
0.0
 11
1429.2
 21
539.5
 31
0.0
  0
LINE
  8
0
  6
CONTINUOUS
 62
     2
 10
1258.7
 20
544.500015259
 30
0.0
 11
1258.7
 21
437.520045888
 31
0.0
  0
LINE
  8
0
  6
CONTINUOUS
 62
     2
 10
1258.7
 20
447.520045888
 30
0.0
 11
1270.774072829
 21
444.284807824
 31
0.0
  0
LINE
  8
0
  6
CONTINUOUS
 62
     2
 10
1258.7
 20
447.520045888
 30
0.0
 11
1270.774072829
 21
450.755283952
 31
0.0
  0
LINE
  8
0
  6
CONTINUOUS
 62
     2
 10
1258.7
 20
447.520045888
 30
0.0
 11
1380.7
 21
447.520045888
 31
0.0
  0
LINE
  8
0
  6
CONTINUOUS
 62
     2
 10
1380.7
 20
447.520045888
 30
0.0
 11
1368.625927171
 21
450.755283952
 31
0.0
  0
LINE
  8
0
  6
CONTINUOUS
 62
     2
 10
1380.7
 20
447.520045888
 30
0.0
 11
1368.625927171
 21
444.284807824
 31
0.0
  0
LINE
  8
0
  6
CONTINUOUS
 62
     2
 10
1380.7
 20
544.5
 30
0.0
 11
1380.7
 21
437.520045888
 31
0.0
  0
TEXT
  8
0
  6
CONTINUOUS
 62
     3
 10
1299.45
 20
452.520045888
 30
0.0
 40
15.0
  1
１２２
 50
0.0
 41
0.9
 51
0.0
  7
KANJI31
  0
LINE
  8
0
  6
CONTINUOUS
 62
     2
 10
1411.2
 20
600.5
 30
0.0
 11
1429.2
 21
600.5
 31
0.0
  0
LINE
  8
0
  6
CONTINUOUS
 62
     2
 10
1419.2
 20
600.5
 30
0.0
 11
1422.435238064
 21
612.574072829
 31
0.0
  0
LINE
  8
0
  6
CONTINUOUS
 62
     2
 10
1419.2
 20
600.5
 30
0.0
 11
1415.964761936
 21
612.574072829
 31
0.0
  0
LINE
  8
0
  6
CONTINUOUS
 62
     2
 10
1419.2
 20
600.5
 30
0.0
 11
1419.2
 21
725.5
 31
0.0
  0
LINE
  8
0
  6
CONTINUOUS
 62
     2
 10
1419.2
 20
725.5
 30
0.0
 11
1415.964761936
 21
713.425927171
 31
0.0
  0
LINE
  8
0
  6
CONTINUOUS
 62
     2
 10
1419.2
 20
725.5
 30
0.0
 11
1422.435238064
 21
713.425927171
 31
0.0
  0
LINE
  8
0
  6
CONTINUOUS
 62
     2
 10
1358.700015259
 20
725.5
 30
0.0
 11
1429.2
 21
725.5
 31
0.0
  0
TEXT
  8
0
  6
CONTINUOUS
 62
     3
 10
1414.2
 20
642.75
 30
0.0
 40
15.0
  1
１２５
 50
90.0
 41
0.9
 51
0.0
  7
KANJI31
  0
LINE
  8
0
  6
CONTINUOUS
 62
     2
 10
124.0
 20
308.8
 30
0.0
 11
131.72740661
 21
306.729447639
 31
0.0
  0
LINE
  8
0
  6
CONTINUOUS
 62
     2
 10
124.0
 20
308.8
 30
0.0
 11
131.72740661
 21
310.870552361
 31
0.0
  0
LINE
  8
0
  6
CONTINUOUS
 62
     2
 10
124.0
 20
308.8
 30
0.0
 11
261.6
 21
308.8
 31
0.0
  0
LINE
  8
0
  6
CONTINUOUS
 62
     2
 10
261.6
 20
308.8
 30
0.0
 11
253.87259339
 21
310.870552361
 31
0.0
  0
LINE
  8
0
  6
CONTINUOUS
 62
     2
 10
261.6
 20
308.8
 30
0.0
 11
253.87259339
 21
306.729447639
 31
0.0
  0
LINE
  8
0
  6
CONTINUOUS
 62
     2
 10
261.6
 20
307.6
 30
0.0
 11
261.6
 21
304.8
 31
0.0
  0
LINE
  8
0
  6
CONTINUOUS
 62
     2
 10
261.6
 20
308.8
 30
0.0
 11
269.32740661
 21
306.729447639
 31
0.0
  0
LINE
  8
0
  6
CONTINUOUS
 62
     2
 10
261.6
 20
308.8
 30
0.0
 11
269.32740661
 21
310.870552361
 31
0.0
  0
LINE
  8
0
  6
CONTINUOUS
 62
     2
 10
261.6
 20
308.8
 30
0.0
 11
464.0
 21
308.8
 31
0.0
  0
LINE
  8
0
  6
CONTINUOUS
 62
     2
 10
464.0
 20
308.8
 30
0.0
 11
456.27259339
 21
310.870552361
 31
0.0
  0
LINE
  8
0
  6
CONTINUOUS
 62
     2
 10
464.0
 20
308.8
 30
0.0
 11
456.27259339
 21
306.729447639
 31
0.0
  0
LINE
  8
0
  6
CONTINUOUS
 62
     2
 10
261.6
 20
282.470552361
 30
0.0
 11
253.87259339
 21
284.541104722
 31
0.0
  0
LINE
  8
0
  6
CONTINUOUS
 62
     2
 10
261.6
 20
282.470552361
 30
0.0
 11
253.87259339
 21
280.4
 31
0.0
  0
LINE
  8
0
  6
CONTINUOUS
 62
     2
 10
249.6
 20
282.470552361
 30
0.0
 11
261.6
 21
282.470552361
 31
0.0
  0
LINE
  8
0
  6
CONTINUOUS
 62
     2
 10
261.6
 20
282.470552361
 30
0.0
 11
282.4
 21
282.470552361
 31
0.0
  0
LINE
  8
0
  6
CONTINUOUS
 62
     2
 10
282.4
 20
282.470552361
 30
0.0
 11
290.12740661
 21
280.4
 31
0.0
  0
LINE
  8
0
  6
CONTINUOUS
 62
     2
 10
282.4
 20
282.470552361
 30
0.0
 11
290.12740661
 21
284.541104722
 31
0.0
  0
LINE
  8
0
  6
CONTINUOUS
 62
     2
 10
124.0
 20
257.2
 30
0.0
 11
124.0
 21
251.2
 31
0.0
  0
LINE
  8
0
  6
CONTINUOUS
 62
     2
 10
124.0
 20
255.2
 30
0.0
 11
131.72740661
 21
253.129447639
 31
0.0
  0
LINE
  8
0
  6
CONTINUOUS
 62
     2
 10
124.0
 20
255.2
 30
0.0
 11
131.72740661
 21
257.270552361
 31
0.0
  0
LINE
  8
0
  6
CONTINUOUS
 62
     2
 10
124.0
 20
255.2
 30
0.0
 11
282.4
 21
255.2
 31
0.0
  0
LINE
  8
0
  6
CONTINUOUS
 62
     2
 10
282.4
 20
255.2
 30
0.0
 11
274.67259339
 21
257.270552361
 31
0.0
  0
LINE
  8
0
  6
CONTINUOUS
 62
     2
 10
282.4
 20
255.2
 30
0.0
 11
274.67259339
 21
253.129447639
 31
0.0
  0
LINE
  8
0
  6
CONTINUOUS
 62
     2
 10
282.4
 20
256.4
 30
0.0
 11
282.4
 21
251.2
 31
0.0
  0
LINE
  8
0
  6
CONTINUOUS
 62
     2
 10
282.4
 20
255.2
 30
0.0
 11
290.12740661
 21
253.129447639
 31
0.0
  0
LINE
  8
0
  6
CONTINUOUS
 62
     2
 10
282.4
 20
255.2
 30
0.0
 11
290.12740661
 21
257.270552361
 31
0.0
  0
LINE
  8
0
  6
CONTINUOUS
 62
     2
 10
464.0
 20
251.6
 30
0.0
 11
464.0
 21
251.2
 31
0.0
  0
LINE
  8
0
  6
CONTINUOUS
 62
     2
 10
124.0
 20
226.0
 30
0.0
 11
131.72740661
 21
223.929447639
 31
0.0
  0
LINE
  8
0
  6
CONTINUOUS
 62
     2
 10
124.0
 20
226.0
 30
0.0
 11
131.72740661
 21
228.070552361
 31
0.0
  0
LINE
  8
0
  6
CONTINUOUS
 62
     2
 10
124.0
 20
226.0
 30
0.0
 11
441.6
 21
226.0
 31
0.0
  0
LINE
  8
0
  6
CONTINUOUS
 62
     2
 10
441.6
 20
226.0
 30
0.0
 11
433.87259339
 21
228.070552361
 31
0.0
  0
LINE
  8
0
  6
CONTINUOUS
 62
     2
 10
441.6
 20
226.0
 30
0.0
 11
433.87259339
 21
223.929447639
 31
0.0
  0
LINE
  8
0
  6
CONTINUOUS
 62
     2
 10
441.6
 20
226.8
 30
0.0
 11
441.6
 21
222.0
 31
0.0
  0
LINE
  8
0
  6
CONTINUOUS
 62
     2
 10
441.6
 20
226.0
 30
0.0
 11
433.87259339
 21
228.070552361
 31
0.0
  0
LINE
  8
0
  6
CONTINUOUS
 62
     2
 10
441.6
 20
226.0
 30
0.0
 11
433.87259339
 21
223.929447639
 31
0.0
  0
LINE
  8
0
  6
CONTINUOUS
 62
     2
 10
429.6
 20
226.0
 30
0.0
 11
441.6
 21
226.0
 31
0.0
  0
LINE
  8
0
  6
CONTINUOUS
 62
     2
 10
441.6
 20
226.0
 30
0.0
 11
464.0
 21
226.0
 31
0.0
  0
LINE
  8
0
  6
CONTINUOUS
 62
     2
 10
464.0
 20
226.0
 30
0.0
 11
471.72740661
 21
223.929447639
 31
0.0
  0
LINE
  8
0
  6
CONTINUOUS
 62
     2
 10
464.0
 20
226.0
 30
0.0
 11
471.72740661
 21
228.070552361
 31
0.0
  0
LINE
  8
0
  6
CONTINUOUS
 62
     2
 10
124.0
 20
319.6
 30
0.0
 11
124.0
 21
304.8
 31
0.0
  0
LINE
  8
0
  6
CONTINUOUS
 62
     2
 10
464.0
 20
319.6
 30
0.0
 11
464.0
 21
304.8
 31
0.0
  0
LINE
  8
0
  6
CONTINUOUS
 62
     2
 10
261.6
 20
308.4
 30
0.0
 11
261.6
 21
319.6
 31
0.0
  0
LINE
  8
0
  6
CONTINUOUS
 62
     2
 10
282.4
 20
295.270552361
 30
0.0
 11
282.4
 21
278.470552361
 31
0.0
  0
LINE
  8
0
  6
CONTINUOUS
 62
     2
 10
124.0
 20
304.8
 30
0.0
 11
124.0
 21
212.8
 31
0.0
  0
LINE
  8
0
  6
CONTINUOUS
 62
     2
 10
464.0
 20
308.8
 30
0.0
 11
464.0
 21
214.0
 31
0.0
  0
LINE
  8
0
  6
CONTINUOUS
 62
     2
 10
282.4
 20
282.470552361
 30
0.0
 11
282.4
 21
246.0
 31
0.0
  0
LINE
  8
0
  6
CONTINUOUS
 62
     2
 10
261.6
 20
308.8
 30
0.0
 11
261.6
 21
273.2
 31
0.0
  0
TEXT
  8
0
  6
CONTINUOUS
 62
     3
 10
165.8
 20
310.8
 30
0.0
 40
15.0
  1
ｍｉｎ．Ｌ
 50
0.0
 41
0.9
 51
0.0
  7
KANJI31
  0
TEXT
  8
0
  6
CONTINUOUS
 62
     3
 10
319.6
 20
310.8
 30
0.0
 40
15.0
  1
機械的ストローク
 50
0.0
 41
0.9
 51
0.0
  7
KANJI31
  0
TEXT
  8
0
  6
CONTINUOUS
 62
     3
 10
294.4
 20
284.470552361
 30
0.0
 40
15.0
  1
余裕
 50
0.0
 41
0.9
 51
0.0
  7
KANJI31
  0
TEXT
  8
0
  6
CONTINUOUS
 62
     3
 10
176.2
 20
257.2
 30
0.0
 40
15.0
  1
常用ｍｉｎ
 50
0.0
 41
0.9
 51
0.0
  7
KANJI31
  0
TEXT
  8
0
  6
CONTINUOUS
 62
     3
 10
335.4
 20
257.2
 30
0.0
 40
15.0
  1
常用ストローク
 50
0.0
 41
0.9
 51
0.0
  7
KANJI31
  0
TEXT
  8
0
  6
CONTINUOUS
 62
     3
 10
255.8
 20
228.0
 30
0.0
 40
15.0
  1
常用ｍａｘ
 50
0.0
 41
0.9
 51
0.0
  7
KANJI31
  0
TEXT
  8
0
  6
CONTINUOUS
 62
     3
 10
476.0
 20
228.0
 30
0.0
 40
15.0
  1
余裕
 50
0.0
 41
0.9
 51
0.0
  7
KANJI31
  0
LINE
  8
0
  6
CONTINUOUS
 62
     2
 10
282.4
 20
282.470552361
 30
0.0
 11
322.5
 21
282.470552361
 31
0.0
  0
LINE
  8
0
  6
CONTINUOUS
 62
     2
 10
464.0
 20
226.0
 30
0.0
 11
506.5
 21
226.0
 31
0.0
  0
TEXT
  8
0
  6
CONTINUOUS
 62
     2
 10
1283.781202688
 20
483.819799552
 30
1.2
 40
12.8
  1
トラニオン幅
 50
0.0
 41
0.84375
 51
0.0
  7
KANJI45
  0
LINE
  8
0
  6
CONTINUOUS
 62
     1
 10
852.5
 20
990.45
 30
0.0
 11
1500.5
 21
990.45
 31
0.0
  0
LINE
  8
0
  6
CONTINUOUS
 62
     1
 10
852.5
 20
1242.45
 30
0.0
 11
852.5
 21
990.45
 31
0.0
  0
LINE
  8
0
  6
CONTINUOUS
 62
     1
 10
1020.5
 20
1242.45
 30
0.0
 11
1020.5
 21
990.45
 31
0.0
  0
LINE
  8
0
  6
CONTINUOUS
 62
     2
 10
1100.5
 20
1242.45
 30
0.0
 11
1100.5
 21
990.45
 31
0.0
  0
LINE
  8
0
  6
CONTINUOUS
 62
     2
 10
1180.5
 20
1242.45
 30
0.0
 11
1180.5
 21
990.45
 31
0.0
  0
LINE
  8
0
  6
CONTINUOUS
 62
     2
 10
1260.5
 20
1242.45
 30
0.0
 11
1260.5
 21
990.45
 31
0.0
  0
LINE
  8
0
  6
CONTINUOUS
 62
     2
 10
1340.5
 20
1242.45
 30
0.0
 11
1340.5
 21
990.45
 31
0.0
  0
LINE
  8
0
  6
CONTINUOUS
 62
     2
 10
1420.5
 20
1242.45
 30
0.0
 11
1420.5
 21
990.45
 31
0.0
  0
LINE
  8
0
  6
CONTINUOUS
 62
     1
 10
1500.5
 20
1242.45
 30
0.0
 11
1500.5
 21
990.45
 31
0.0
  0
TEXT
  8
0
  6
CONTINUOUS
 62
     2
 10
865.5
 20
996.85
 30
0.8
 40
12.0
  1
ＭＣＥＤＢＢ０１－　　　Ｌ
 50
0.0
 41
0.833333333
 51
0.0
  7
KANJI24
  0
LINE
  8
0
  6
CONTINUOUS
 62
     2
 10
441.6
 20
269.0
 30
0.0
 11
441.6
 21
213.2
 31
0.0
  0
LINE
  8
0
  6
CONTINUOUS
 62
     2
 10
441.6
 20
255.2
 30
0.0
 11
433.87259339
 21
257.270552361
 31
0.0
  0
LINE
  8
0
  6
CONTINUOUS
 62
     2
 10
441.6
 20
255.2
 30
0.0
 11
433.87259339
 21
253.129447639
 31
0.0
  0
LINE
  8
0
  6
CONTINUOUS
 62
     2
 10
282.4
 20
255.2
 30
0.0
 11
441.6
 21
255.2
 31
0.0
  0
LINE
  8
0
  6
CONTINUOUS
 62
     1
 10
1286.851320837
 20
682.846153846
 30
0.0
 11
1353.7
 21
682.846153846
 31
0.0
  0
LINE
  8
0
  6
CONTINUOUS
 62
     1
 10
1290.197474683
 20
679.5
 30
0.0
 11
1361.700015259
 21
679.5
 31
0.0
  0
LINE
  8
0
  6
CONTINUOUS
 62
     1
 10
1294.197474683
 20
675.5
 30
0.0
 11
1361.7
 21
675.5
 31
0.0
  0
LINE
  8
0
  6
CONTINUOUS
 62
     1
 10
1353.7
 20
673.5
 30
0.0
 11
1296.197474683
 21
673.5
 31
0.0
  0
LINE
  8
0
  6
CONTINUOUS
 62
     1
 10
1299.197474683
 20
670.5
 30
0.0
 11
1349.7
 21
670.5
 31
0.0
  0
LINE
  8
0
  6
LTYPE1
 62
     2
 10
1275.7
 20
716.111958724
 30
0.0
 11
1275.7
 21
721.520045888
 31
0.0
  0
ARC
  8
0
  6
LTYPE1
 62
     2
 10
1277.7
 20
721.520045888
 30
0.0
 40
2.0
 50
90.0
 51
180.0
  0
LINE
  8
0
  6
LTYPE1
 62
     2
 10
1277.7
 20
723.520045888
 30
0.0
 11
1283.700100462
 21
723.520045888
 31
0.0
  0
LINE
  8
0
  6
LTYPE1
 62
     2
 10
1283.7
 20
722.767046966
 30
0.0
 11
1283.7
 21
690.24011537
 31
0.0
  0
ARC
  8
0
  6
LTYPE1
 62
     2
 10
1285.7
 20
723.5
 30
0.0
 40
2.0
 50
90.0
 51
180.0
  0
LINE
  8
0
  6
LTYPE1
 62
     2
 10
1285.7
 20
725.5
 30
0.0
 11
1303.278643763
 21
725.5
 31
0.0
  0
LINE
  8
0
  6
LTYPE1
 62
     2
 10
1275.7
 20
698.24011537
 30
0.0
 11
1275.7
 21
716.111958724
 31
0.0
  0
LINE
  8
2
  6
CONTINUOUS
 62
     2
 10
1279.2
 20
734.8
 30
0.0
 11
1280.298851058
 21
744.73944296
 31
0.0
  0
LINE
  8
2
  6
CONTINUOUS
 62
     2
 10
1279.2
 20
734.8
 30
0.0
 11
1275.181911451
 21
743.957235632
 31
0.0
  0
LINE
  8
2
  6
CONTINUOUS
 62
     2
 10
1279.174649635
 20
734.570698219
 30
0.0
 11
1252.696639399
 21
858.272652293
 31
0.0
  0
TEXT
  8
2
  6
CONTINUOUS
 62
     2
 10
1141.819716322
 20
862.272652293
 30
0.0
 40
15.0
  1
２－ＰＦ１／２
 50
0.0
 41
0.9
 51
0.0
  7
KANJI31
  0
LINE
  8
2
  6
CONTINUOUS
 62
     2
 10
1252.696639399
 20
858.272652293
 30
0.0
 11
1141.819716322
 21
858.272652293
 31
0.0
  0
LINE
  8
0
  6
CONTINUOUS
 62
     1
 10
1342.7
 20
661.5
 30
0.0
 11
1342.7
 21
667.5
 31
0.0
  0
TEXT
  8
0
  6
CONTINUOUS
 62
     2
 10
1217.462797718
 20
792.072652293
 30
0.0
 40
15.0
  1
１５２
 50
0.0
 41
0.9
 51
0.0
  7
KANJI31
  0
TEXT
  8
0
  6
CONTINUOUS
 62
     2
 10
1606.5
 20
1281.0
 30
138.5
 40
17.5
  1
形式
 50
0.0
 41
0.9
 51
0.0
  7
KANJI46
  0
TEXT
  8
0
  6
CONTINUOUS
 62
     2
 10
1606.5
 20
1246.0
 30
138.5
 40
17.5
  1
推力
 50
0.0
 41
0.9
 51
0.0
  7
KANJI46
  0
TEXT
  8
0
  6
CONTINUOUS
 62
     2
 10
1606.5
 20
1106.0
 30
138.5
 40
17.5
  1
構造
 50
0.0
 41
0.9
 51
0.0
  7
KANJI46
  0
TEXT
  8
0
  6
CONTINUOUS
 62
     2
 10
1606.5
 20
686.0
 30
138.5
 40
17.5
  1
台数
 50
0.0
 41
0.9
 51
0.0
  7
KANJI46
  0
TEXT
  8
0
  6
CONTINUOUS
 62
     2
 10
1606.5
 20
721.0
 30
61.375
 40
17.5
  1
付属品
 50
0.0
 41
0.9
 51
0.0
  7
KANJI47
  0
TEXT
  8
0
  6
CONTINUOUS
 62
     2
 10
1606.5
 20
1036.0
 30
61.375
 40
17.5
  1
塗装色
 50
0.0
 41
0.9
 51
0.0
  7
KANJI47
  0
TEXT
  8
0
  6
CONTINUOUS
 62
     2
 10
1606.5
 20
1211.0
 30
22.8125
 40
17.5
  1
ストローク
 50
0.0
 41
0.9
 51
0.0
  7
KANJI48
  0
TEXT
  8
0
  6
CONTINUOUS
 62
     2
 10
1606.5
 20
1071.0
 30
9.958
 40
17.5
  1
過負荷安全装置
 50
0.0
 41
0.9
 51
0.0
  7
KANJI49
  0
TEXT
  8
0
  6
CONTINUOUS
 62
     2
 10
1631.5
 20
1320.5
 30
14.2497
 40
22.5
  1
マイティシリンダ仕様
 50
0.0
 41
0.9
 51
0.0
  7
KANJI50
  0
TEXT
  8
0
  6
CONTINUOUS
 62
     2
 10
1631.5
 20
1001.0
 30
15.3125
 40
17.5
  1
出力　極数
 50
0.0
 41
0.9
 51
0.0
  7
KANJI51
  0
TEXT
  8
0
  6
CONTINUOUS
 62
     2
 10
1631.5
 20
966.0
 30
25.6665
 40
17.5
  1
電源電圧
 50
0.0
 41
0.9
 51
0.0
  7
KANJI52
  0
TEXT
  8
0
  6
CONTINUOUS
 62
     2
 10
1631.5
 20
931.0
 30
46.375
 40
17.5
  1
周波数
 50
0.0
 41
0.9
 51
0.0
  7
KANJI53
  0
TEXT
  8
0
  6
CONTINUOUS
 62
     2
 10
1631.5
 20
861.0
 30
46.375
 40
17.5
  1
絶縁級
 50
0.0
 41
0.9
 51
0.0
  7
KANJI53
  0
TEXT
  8
0
  6
CONTINUOUS
 62
     2
 10
1631.5
 20
896.0
 30
108.5
 40
17.5
  1
電流
 50
0.0
 41
0.9
 51
0.0
  7
KANJI54
  0
TEXT
  8
0
  6
CONTINUOUS
 62
     2
 10
1631.5
 20
791.0
 30
108.5
 40
17.5
  1
形式
 50
0.0
 41
0.9
 51
0.0
  7
KANJI54
  0
TEXT
  8
0
  6
CONTINUOUS
 62
     2
 10
1631.5
 20
756.0
 30
25.6665
 40
17.5
  1
操作方式
 50
0.0
 41
0.9
 51
0.0
  7
KANJI52
  0
TEXT
  8
0
  6
CONTINUOUS
 62
     2
 10
1591.5
 20
1141.0
 30
1.5
 40
17.5
  1
ピストンロッド回転トルク
 50
0.0
 41
0.9
 51
0.0
  7
KANJI55
  0
TEXT
  8
0
  6
CONTINUOUS
 62
     2
 10
1589.375
 20
1004.5
 30
11.0
 40
17.5
  1
モ　トル仕様
 50
0.0
 41
0.9
 51
0.0
  7
KANJI56
  0
TEXT
  8
0
  6
CONTINUOUS
 62
     2
 10
1588.25
 20
814.5
 30
0.857142857
 40
15.0
  1
ブレ　キ
 50
0.0
 41
0.9
 51
0.0
  7
KANJI57
  0
LINE
  8
0
  6
CONTINUOUS
 62
     2
 10
1588.0
 20
780.0
 30
0.0
 11
1588.0
 21
769.5
 31
0.0
  0
LINE
  8
0
  6
CONTINUOUS
 62
     2
 10
1588.0
 20
976.5
 30
0.0
 11
1588.0
 21
965.0
 31
0.0
  0
TEXT
  8
0
  6
CONTINUOUS
 62
     2
 10
1944.0
 20
1179.5
 30
0.1
 40
12.5
  1
ｍｍ／ｓｅｃ
 50
0.0
 41
0.8
 51
0.0
  7
KANJI58
  0
TEXT
  8
0
  6
CONTINUOUS
 62
     2
 10
1981.5
 20
1213.0
 30
0.1
 40
12.5
  1
ｍｍ
 50
0.0
 41
0.8
 51
0.0
  7
KANJI58
  0
TEXT
  8
0
  6
CONTINUOUS
 62
     2
 10
1988.5
 20
1001.0
 30
10.982142857
 40
15.0
  1
Ｐ
 50
0.0
 41
0.9
 51
0.0
  7
KANJI59
  0
TEXT
  8
0
  6
CONTINUOUS
 62
     2
 10
1905.5
 20
1001.0
 30
1.0
 40
15.0
  1
ＫＷ
 50
0.0
 41
0.857142857
 51
0.0
  7
KANJI60
  0
TEXT
  8
0
  6
CONTINUOUS
 62
     2
 10
1963.5
 20
1001.0
 30
12.8125
 40
17.5
  1
４
 50
0.0
 41
0.9
 51
0.0
  7
KANJI61
  0
TEXT
  8
0
  6
CONTINUOUS
 62
     2
 10
1828.0
 20
1037.5
 30
0.5
 40
14.0
  1
マンセル
 50
0.0
 41
0.9
 51
0.0
  7
KANJI62
  0
TEXT
  8
0
  6
CONTINUOUS
 62
     2
 10
1886.5
 20
1038.5
 30
0.2
 40
14.0
  1
７．５ＧＹ５／４．５
 50
0.0
 41
0.785714286
 51
0.0
  7
KANJI63
  0
TEXT
  8
0
  6
CONTINUOUS
 62
     2
 10
1824.0
 20
791.5
 30
1.5
 40
14.0
  1
スプリング制動式電磁ブレーキ
 50
0.0
 41
0.8
 51
0.0
  7
KANJI64
  0
TEXT
  8
0
  6
CONTINUOUS
 62
     2
 10
1859.0
 20
756.0
 30
10.0
 40
17.5
  1
同時切り
 50
0.0
 41
0.9
 51
0.0
  7
KANJI65
  0
TEXT
  8
0
  6
CONTINUOUS
 62
     2
 10
1989.0
 20
966.0
 30
0.18
 40
15.0
  1
Ｖ
 50
0.0
 41
0.8
 51
0.0
  7
KANJI66
  0
TEXT
  8
0
  6
CONTINUOUS
 62
     2
 10
1980.0
 20
931.0
 30
0.18
 40
15.0
  1
Ｈｚ
 50
0.0
 41
0.8
 51
0.0
  7
KANJI66
  0
TEXT
  8
0
  6
CONTINUOUS
 62
     2
 10
1990.125
 20
897.125
 30
1.5
 40
15.0
  1
Ａ
 50
0.0
 41
0.9
 51
0.0
  7
KANJI67
  0
TEXT
  8
0
  6
CONTINUOUS
 62
     2
 10
1911.375
 20
863.375
 30
1.5
 40
15.0
  1
Ｅ
 50
0.0
 41
0.9
 51
0.0
  7
KANJI67
  0
LINE
  8
0
  6
CONTINUOUS
 62
     2
 10
1569.0
 20
747.0
 30
0.0
 11
2006.5
 21
747.0
 31
0.0
  0
LINE
  8
0
  6
CONTINUOUS
 62
     2
 10
1569.0
 20
1027.0
 30
0.0
 11
2006.5
 21
1027.0
 31
0.0
  0
LINE
  8
0
  6
CONTINUOUS
 62
     2
 10
1569.0
 20
817.0
 30
0.0
 11
2006.5
 21
817.0
 31
0.0
  0
LINE
  8
0
  6
CONTINUOUS
 62
     2
 10
1609.0
 20
782.0
 30
0.0
 11
2006.5
 21
782.0
 31
0.0
  0
LINE
  8
0
  6
CONTINUOUS
 62
     2
 10
1609.0
 20
852.0
 30
0.0
 11
2006.5
 21
852.0
 31
0.0
  0
LINE
  8
0
  6
CONTINUOUS
 62
     2
 10
1609.0
 20
887.0
 30
0.0
 11
2006.5
 21
887.0
 31
0.0
  0
LINE
  8
0
  6
CONTINUOUS
 62
     2
 10
1609.0
 20
957.0
 30
0.0
 11
2006.5
 21
957.0
 31
0.0
  0
LINE
  8
0
  6
CONTINUOUS
 62
     2
 10
1609.0
 20
922.0
 30
0.0
 11
2006.5
 21
922.0
 31
0.0
  0
LINE
  8
0
  6
CONTINUOUS
 62
     2
 10
1609.0
 20
992.0
 30
0.0
 11
2006.5
 21
992.0
 31
0.0
  0
LINE
  8
0
  6
CONTINUOUS
 62
     2
 10
1569.0
 20
1307.0
 30
0.0
 11
2006.5
 21
1307.0
 31
0.0
  0
LINE
  8
0
  6
CONTINUOUS
 62
     2
 10
1569.0
 20
1272.0
 30
0.0
 11
2006.5
 21
1272.0
 31
0.0
  0
LINE
  8
0
  6
CONTINUOUS
 62
     2
 10
1569.0
 20
1237.0
 30
0.0
 11
2006.5
 21
1237.0
 31
0.0
  0
LINE
  8
0
  6
CONTINUOUS
 62
     2
 10
1569.0
 20
1202.0
 30
0.0
 11
2006.5
 21
1202.0
 31
0.0
  0
LINE
  8
0
  6
CONTINUOUS
 62
     2
 10
1569.0
 20
1167.0
 30
0.0
 11
2006.5
 21
1167.0
 31
0.0
  0
LINE
  8
0
  6
CONTINUOUS
 62
     2
 10
1569.0
 20
1132.0
 30
0.0
 11
2006.5
 21
1132.0
 31
0.0
  0
LINE
  8
0
  6
CONTINUOUS
 62
     2
 10
1569.0
 20
1097.0
 30
0.0
 11
2006.5
 21
1097.0
 31
0.0
  0
LINE
  8
0
  6
CONTINUOUS
 62
     2
 10
1569.0
 20
1062.0
 30
0.0
 11
2006.5
 21
1062.0
 31
0.0
  0
LINE
  8
0
  6
CONTINUOUS
 62
     2
 10
1609.0
 20
1027.0
 30
0.0
 11
1609.0
 21
747.0
 31
0.0
  0
LINE
  8
0
  6
CONTINUOUS
 62
     1
 10
1569.0
 20
1357.0
 30
0.0
 11
2006.5
 21
1357.0
 31
0.0
  0
LINE
  8
0
  6
CONTINUOUS
 62
     2
 10
1569.0
 20
712.0
 30
0.0
 11
2006.5
 21
712.0
 31
0.0
  0
TEXT
  8
0
  6
CONTINUOUS
 62
     2
 10
1867.0
 20
966.5
 30
1.5
 40
15.0
  1
　　　／　
 50
0.0
 41
0.9
 51
0.0
  7
KANJI67
  0
TEXT
  8
0
  6
CONTINUOUS
 62
     2
 10
1881.375
 20
930.875
 30
1.5
 40
15.0
  1
　５０／６０
 50
0.0
 41
0.9
 51
0.0
  7
KANJI67
  0
TEXT
  8
0
  6
CONTINUOUS
 62
     2
 10
1847.625
 20
1002.125
 30
1.5
 40
15.0
  1
０．３
 50
0.0
 41
0.9
 51
0.0
  7
KANJI67
  0
TEXT
  8
0
  6
CONTINUOUS
 62
     2
 10
1848.5
 20
1246.0
 30
1.5
 40
15.0
  1
９８０Ｎ（１００ｋｇ）
 50
0.0
 41
0.9
 51
0.0
  7
KANJI67
  0
TEXT
  8
0
  6
CONTINUOUS
 62
     2
 10
1606.5
 20
1176.0
 30
5.0
 40
17.5
  1
公称速度（５０／６０Ｈｚ）
 50
0.0
 41
0.9
 51
0.0
  7
KANJI68
  0
TEXT
  8
0
  6
CONTINUOUS
 62
     2
 10
1856.0
 20
1106.5
 30
12.8125
 40
17.5
  1
全閉屋内形
 50
0.0
 41
0.9
 51
0.0
  7
KANJI61
  0
TEXT
  8
0
  6
CONTINUOUS
 62
     2
 10
1836.375
 20
1175.875
 30
1.5
 40
15.0
  1
　７５／９０
 50
0.0
 41
0.9
 51
0.0
  7
KANJI67
  0
TEXT
  8
0
  6
CONTINUOUS
 62
     2
 10
1825.0
 20
1280.125
 30
1.0
 40
15.0
  1
ＭＣＥＤＢＢ０１－　　Ｌ
 50
0.0
 41
0.833333333
 51
0.0
  7
KANJI69
  0
LINE
  8
0
  6
CONTINUOUS
 62
     2
 10
1887.5
 20
1076.5
 30
0.0
 11
1911.5
 21
1076.5
 31
0.0
  0
TEXT
  8
0
  6
CONTINUOUS
 62
     2
 10
1827.125
 20
1140.875
 30
0.0
 40
15.0
  1
２．９Ｎ・ｍ（０．３ｋｇ・ｍ）
 50
0.0
 41
0.833333333
 51
0.0
  7
KANJI70
  0
TEXT
  8
0
  6
CONTINUOUS
 62
     2
 10
1606.5
 20
686.0
 30
138.5
 40
17.5
  1
台数
 50
0.0
 41
0.9
 51
0.0
  7
KANJI46
  0
LINE
  8
0
  6
CONTINUOUS
 62
     1
 10
1569.0
 20
642.0
 30
0.0
 11
2006.5
 21
642.0
 31
0.0
  0
LINE
  8
0
  6
CONTINUOUS
 62
     2
 10
1569.0
 20
677.0
 30
0.0
 11
2006.5
 21
677.0
 31
0.0
  0
TEXT
  8
0
  6
CONTINUOUS
 62
     2
 10
1606.5
 20
651.0
 30
5.0
 40
17.5
  1
概算重量（１台当り）
 50
0.0
 41
0.857142857
 51
0.0
  7
KANJI14
  0
TEXT
  8
0
  6
CONTINUOUS
 62
     2
 10
1960.5
 20
652.15
 30
0.0
 40
17.5
  1
ｋｇ
 50
0.0
 41
0.9
 51
0.0
  7
KANJI71
  0
LINE
  8
0
  6
CONTINUOUS
 62
     2
 10
1819.0
 20
1307.0
 30
0.0
 11
1819.0
 21
642.0
 31
0.0
  0
LINE
  8
0
  6
CONTINUOUS
 62
     1
 10
1569.0
 20
1357.0
 30
0.0
 11
1569.0
 21
642.0
 31
0.0
  0
TEXT
  8
0
  6
CONTINUOUS
 62
     2
 10
1376.1666945
 20
105.499995
 30
1.5
 40
17.5
  1
０７．０９．２６
 50
0.0
 41
0.571428571
 51
0.0
  7
KANJI72
  0
TEXT
  8
2
  6
CONTINUOUS
 62
     2
 10
192.3
 20
741.8
 30
1.2
 40
16.0
  1
手動軸カバー
 50
0.0
 41
0.925
 51
0.0
  7
KANJI73
  0
TEXT
  8
2
  6
CONTINUOUS
 62
     2
 10
192.3
 20
717.8
 30
1.2
 40
16.0
  1
手動軸□１０
 50
0.0
 41
0.925
 51
0.0
  7
KANJI73
  0
POLYLINE
  8
2
  6
CONTINUOUS
 62
     2
 66
     1
  0
VERTEX
  8
2
  6
CONTINUOUS
 62
     2
 10
303.685350584
 20
653.25
 30
0.0
  0
VERTEX
  8
2
  6
CONTINUOUS
 62
     2
 10
287.1
 20
737.8
 30
0.0
  0
VERTEX
  8
2
  6
CONTINUOUS
 62
     2
 10
187.3
 20
737.8
 30
0.0
  0
SEQEND
  0
LINE
  8
0
  6
CONTINUOUS
 62
     1
 10
919.999501379
 20
267.6
 30
0.0
 11
919.999501379
 21
250.5
 31
0.0
  0
ENDSEC
  0
EOF
