  0
SECTION
  2
HEADER
  9
$ACADVER
  1
AC1009
  9
$DWGCODEPAGE
  3
dos932
  9
$EXTMIN
 10
0.0
 20
0.0
 30
0.0
  9
$EXTMAX
 10
2100.0
 20
1485.0
 30
0.0
  9
$LIMMIN
 10
0.0
 20
0.0
  9
$LIMMAX
 10
2100.0
 20
1485.0
  9
$LTSCALE
 40
1.0
  9
$PDMODE
 70
     0
  0
ENDSEC
  0
SECTION
  2
TABLES
  0
TABLE
  2
VPORT
 70
     1
  0
VPORT
  2
*ACTIVE
 70
     0
 10
0.0
 20
0.0
 11
1.0
 21
1.0
 12
1050.0
 22
742.5
 13
0.0
 23
0.0
 14
10.0
 24
10.0
 15
10.0
 25
10.0
 16
0.0
 26
0.0
 36
1.0
 17
0.0
 27
0.0
 37
0.0
 40
2100.0
 41
1.414141414
 42
50.0
 43
0.0
 44
0.0
 50
0.0
 51
0.0
 71
     0
 72
  1000
 73
     1
 74
     3
 75
     0
 76
     0
 77
     0
 78
     0
  0
ENDTAB
  0
TABLE
  2
LTYPE
 70
     6
  0
LTYPE
  2
CONTINUOUS
 70
    64
  3
Solid line
 72
    65
 73
     0
 40
0.0
  0
LTYPE
  2
LTYPE1
 70
    64
  3
HIDDEN
 72
    65
 73
     2
 40
15.0
 49
9.0
 49
-6.0
  0
LTYPE
  2
LTYPE2
 70
    64
  3
CENTER
 72
    65
 73
     4
 40
50.0
 49
35.0
 49
-5.0
 49
5.0
 49
-5.0
  0
LTYPE
  2
LTYPE3
 70
    64
  3
CENTER
 72
    65
 73
     4
 40
75.0
 49
52.5
 49
-7.5
 49
7.5
 49
-7.5
  0
LTYPE
  2
LTYPE4
 70
    64
  3
PHANTOM
 72
    65
 73
     6
 40
75.0
 49
56.25
 49
-3.75
 49
3.75
 49
-3.75
 49
3.75
 49
-3.75
  0
LTYPE
  2
LTYPE5
 70
    64
  3
CENTER
 72
    65
 73
     4
 40
100.0
 49
70.0
 49
-10.0
 49
10.0
 49
-10.0
  0
ENDTAB
  0
TABLE
  2
LAYER
 70
   128
  0
LAYER
  2
0
 70
     0
 62
     7
  6
CONTINUOUS
  0
LAYER
  2
2
 70
     0
 62
     7
  6
CONTINUOUS
  0
LAYER
  2
3
 70
     0
 62
     7
  6
CONTINUOUS
  0
LAYER
  2
4
 70
     0
 62
     7
  6
CONTINUOUS
  0
LAYER
  2
5
 70
     0
 62
     7
  6
CONTINUOUS
  0
LAYER
  2
6
 70
     0
 62
     7
  6
CONTINUOUS
  0
LAYER
  2
7
 70
     0
 62
     7
  6
CONTINUOUS
  0
LAYER
  2
8
 70
     0
 62
     7
  6
CONTINUOUS
  0
LAYER
  2
9
 70
     0
 62
     7
  6
CONTINUOUS
  0
LAYER
  2
10
 70
     0
 62
     7
  6
CONTINUOUS
  0
LAYER
  2
11
 70
     0
 62
     7
  6
CONTINUOUS
  0
LAYER
  2
12
 70
     0
 62
     7
  6
CONTINUOUS
  0
LAYER
  2
13
 70
     0
 62
     7
  6
CONTINUOUS
  0
LAYER
  2
14
 70
     0
 62
     7
  6
CONTINUOUS
  0
LAYER
  2
15
 70
     0
 62
     7
  6
CONTINUOUS
  0
LAYER
  2
16
 70
     0
 62
     7
  6
CONTINUOUS
  0
LAYER
  2
17
 70
     0
 62
     7
  6
CONTINUOUS
  0
LAYER
  2
18
 70
     0
 62
     7
  6
CONTINUOUS
  0
LAYER
  2
19
 70
     0
 62
     7
  6
CONTINUOUS
  0
LAYER
  2
20
 70
     0
 62
     7
  6
CONTINUOUS
  0
LAYER
  2
21
 70
     0
 62
     7
  6
CONTINUOUS
  0
LAYER
  2
22
 70
     0
 62
     7
  6
CONTINUOUS
  0
LAYER
  2
23
 70
     0
 62
     7
  6
CONTINUOUS
  0
LAYER
  2
24
 70
     0
 62
     7
  6
CONTINUOUS
  0
LAYER
  2
25
 70
     0
 62
     7
  6
CONTINUOUS
  0
LAYER
  2
26
 70
     0
 62
     7
  6
CONTINUOUS
  0
LAYER
  2
27
 70
     0
 62
     7
  6
CONTINUOUS
  0
LAYER
  2
28
 70
     0
 62
     7
  6
CONTINUOUS
  0
LAYER
  2
29
 70
     0
 62
     7
  6
CONTINUOUS
  0
LAYER
  2
30
 70
     0
 62
     7
  6
CONTINUOUS
  0
LAYER
  2
31
 70
     0
 62
     7
  6
CONTINUOUS
  0
LAYER
  2
32
 70
     0
 62
     7
  6
CONTINUOUS
  0
LAYER
  2
33
 70
     0
 62
     7
  6
CONTINUOUS
  0
LAYER
  2
34
 70
     0
 62
     7
  6
CONTINUOUS
  0
LAYER
  2
35
 70
     0
 62
     7
  6
CONTINUOUS
  0
LAYER
  2
36
 70
     0
 62
     7
  6
CONTINUOUS
  0
LAYER
  2
37
 70
     0
 62
     7
  6
CONTINUOUS
  0
LAYER
  2
38
 70
     0
 62
     7
  6
CONTINUOUS
  0
LAYER
  2
39
 70
     0
 62
     7
  6
CONTINUOUS
  0
LAYER
  2
40
 70
     0
 62
     7
  6
CONTINUOUS
  0
LAYER
  2
41
 70
     0
 62
     7
  6
CONTINUOUS
  0
LAYER
  2
42
 70
     0
 62
     7
  6
CONTINUOUS
  0
LAYER
  2
43
 70
     0
 62
     7
  6
CONTINUOUS
  0
LAYER
  2
44
 70
     0
 62
     7
  6
CONTINUOUS
  0
LAYER
  2
45
 70
     0
 62
     7
  6
CONTINUOUS
  0
LAYER
  2
46
 70
     0
 62
     7
  6
CONTINUOUS
  0
LAYER
  2
47
 70
     0
 62
     7
  6
CONTINUOUS
  0
LAYER
  2
48
 70
     0
 62
     7
  6
CONTINUOUS
  0
LAYER
  2
49
 70
     0
 62
     7
  6
CONTINUOUS
  0
LAYER
  2
50
 70
     0
 62
     7
  6
CONTINUOUS
  0
LAYER
  2
51
 70
     0
 62
     7
  6
CONTINUOUS
  0
LAYER
  2
52
 70
     0
 62
     7
  6
CONTINUOUS
  0
LAYER
  2
53
 70
     0
 62
     7
  6
CONTINUOUS
  0
LAYER
  2
54
 70
     0
 62
     7
  6
CONTINUOUS
  0
LAYER
  2
55
 70
     0
 62
     7
  6
CONTINUOUS
  0
LAYER
  2
56
 70
     0
 62
     7
  6
CONTINUOUS
  0
LAYER
  2
57
 70
     0
 62
     7
  6
CONTINUOUS
  0
LAYER
  2
58
 70
     0
 62
     7
  6
CONTINUOUS
  0
LAYER
  2
59
 70
     0
 62
     7
  6
CONTINUOUS
  0
LAYER
  2
60
 70
     0
 62
     7
  6
CONTINUOUS
  0
LAYER
  2
61
 70
     0
 62
     7
  6
CONTINUOUS
  0
LAYER
  2
62
 70
     0
 62
     7
  6
CONTINUOUS
  0
LAYER
  2
63
 70
     0
 62
     7
  6
CONTINUOUS
  0
LAYER
  2
64
 70
     0
 62
     7
  6
CONTINUOUS
  0
LAYER
  2
65
 70
     0
 62
     7
  6
CONTINUOUS
  0
LAYER
  2
66
 70
     0
 62
     7
  6
CONTINUOUS
  0
LAYER
  2
67
 70
     0
 62
     7
  6
CONTINUOUS
  0
LAYER
  2
68
 70
     0
 62
     7
  6
CONTINUOUS
  0
LAYER
  2
69
 70
     0
 62
     7
  6
CONTINUOUS
  0
LAYER
  2
70
 70
     0
 62
     7
  6
CONTINUOUS
  0
LAYER
  2
71
 70
     0
 62
     7
  6
CONTINUOUS
  0
LAYER
  2
72
 70
     0
 62
     7
  6
CONTINUOUS
  0
LAYER
  2
73
 70
     0
 62
     7
  6
CONTINUOUS
  0
LAYER
  2
74
 70
     0
 62
     7
  6
CONTINUOUS
  0
LAYER
  2
75
 70
     0
 62
     7
  6
CONTINUOUS
  0
LAYER
  2
76
 70
     0
 62
     7
  6
CONTINUOUS
  0
LAYER
  2
77
 70
     0
 62
     7
  6
CONTINUOUS
  0
LAYER
  2
78
 70
     0
 62
     7
  6
CONTINUOUS
  0
LAYER
  2
79
 70
     0
 62
     7
  6
CONTINUOUS
  0
LAYER
  2
80
 70
     0
 62
     7
  6
CONTINUOUS
  0
LAYER
  2
81
 70
     0
 62
     7
  6
CONTINUOUS
  0
LAYER
  2
82
 70
     0
 62
     7
  6
CONTINUOUS
  0
LAYER
  2
83
 70
     0
 62
     7
  6
CONTINUOUS
  0
LAYER
  2
84
 70
     0
 62
     7
  6
CONTINUOUS
  0
LAYER
  2
85
 70
     0
 62
     7
  6
CONTINUOUS
  0
LAYER
  2
86
 70
     0
 62
     7
  6
CONTINUOUS
  0
LAYER
  2
87
 70
     0
 62
     7
  6
CONTINUOUS
  0
LAYER
  2
88
 70
     0
 62
     7
  6
CONTINUOUS
  0
LAYER
  2
89
 70
     0
 62
     7
  6
CONTINUOUS
  0
LAYER
  2
90
 70
     0
 62
     7
  6
CONTINUOUS
  0
LAYER
  2
91
 70
     0
 62
     7
  6
CONTINUOUS
  0
LAYER
  2
92
 70
     0
 62
     7
  6
CONTINUOUS
  0
LAYER
  2
93
 70
     0
 62
     7
  6
CONTINUOUS
  0
LAYER
  2
94
 70
     0
 62
     7
  6
CONTINUOUS
  0
LAYER
  2
95
 70
     0
 62
     7
  6
CONTINUOUS
  0
LAYER
  2
96
 70
     0
 62
     7
  6
CONTINUOUS
  0
LAYER
  2
97
 70
     0
 62
     7
  6
CONTINUOUS
  0
LAYER
  2
98
 70
     0
 62
     7
  6
CONTINUOUS
  0
LAYER
  2
99
 70
     0
 62
     7
  6
CONTINUOUS
  0
LAYER
  2
100
 70
     0
 62
     7
  6
CONTINUOUS
  0
LAYER
  2
101
 70
     0
 62
     7
  6
CONTINUOUS
  0
LAYER
  2
102
 70
     0
 62
     7
  6
CONTINUOUS
  0
LAYER
  2
103
 70
     0
 62
     7
  6
CONTINUOUS
  0
LAYER
  2
104
 70
     0
 62
     7
  6
CONTINUOUS
  0
LAYER
  2
105
 70
     0
 62
     7
  6
CONTINUOUS
  0
LAYER
  2
106
 70
     0
 62
     7
  6
CONTINUOUS
  0
LAYER
  2
107
 70
     0
 62
     7
  6
CONTINUOUS
  0
LAYER
  2
108
 70
     0
 62
     7
  6
CONTINUOUS
  0
LAYER
  2
109
 70
     0
 62
     7
  6
CONTINUOUS
  0
LAYER
  2
110
 70
     0
 62
     7
  6
CONTINUOUS
  0
LAYER
  2
111
 70
     0
 62
     7
  6
CONTINUOUS
  0
LAYER
  2
112
 70
     0
 62
     7
  6
CONTINUOUS
  0
LAYER
  2
113
 70
     0
 62
     7
  6
CONTINUOUS
  0
LAYER
  2
114
 70
     0
 62
     7
  6
CONTINUOUS
  0
LAYER
  2
115
 70
     0
 62
     7
  6
CONTINUOUS
  0
LAYER
  2
116
 70
     0
 62
     7
  6
CONTINUOUS
  0
LAYER
  2
117
 70
     0
 62
     7
  6
CONTINUOUS
  0
LAYER
  2
118
 70
     0
 62
     7
  6
CONTINUOUS
  0
LAYER
  2
119
 70
     0
 62
     7
  6
CONTINUOUS
  0
LAYER
  2
120
 70
     0
 62
     7
  6
CONTINUOUS
  0
LAYER
  2
121
 70
     0
 62
     7
  6
CONTINUOUS
  0
LAYER
  2
122
 70
     0
 62
     7
  6
CONTINUOUS
  0
LAYER
  2
123
 70
     0
 62
     7
  6
CONTINUOUS
  0
LAYER
  2
124
 70
     0
 62
     7
  6
CONTINUOUS
  0
LAYER
  2
125
 70
     0
 62
     7
  6
CONTINUOUS
  0
LAYER
  2
126
 70
     0
 62
     7
  6
CONTINUOUS
  0
LAYER
  2
127
 70
     0
 62
     7
  6
CONTINUOUS
  0
LAYER
  2
128
 70
     0
 62
     7
  6
CONTINUOUS
  0
ENDTAB
  0
TABLE
  2
STYLE
 70
    76
  0
STYLE
  2
STANDARD
 70
     0
 40
0.0
 41
1.0
 50
0.0
 71
     0
 42
0.2
  3
txt.shx
  4
extfont.shx
  0
STYLE
  2
KANJI0
 70
     0
 40
8.666666
 41
0.6
 50
0.0
 71
     0
 42
8.666666
  3
txt.shx
  4
extfont.shx
  0
STYLE
  2
KANJI1
 70
     0
 40
10.3999992
 41
0.6
 50
0.0
 71
     0
 42
10.3999992
  3
txt.shx
  4
extfont.shx
  0
STYLE
  2
KANJI2
 70
     0
 40
15.1666655
 41
0.42031746
 50
0.0
 71
     0
 42
15.1666655
  3
txt.shx
  4
extfont.shx
  0
STYLE
  2
KANJI3
 70
     0
 40
25.999998
 41
0.9
 50
0.0
 71
     0
 42
25.999998
  3
txt.shx
  4
extfont.shx
  0
STYLE
  2
KANJI4
 70
     0
 40
8.666666
 41
0.8
 50
0.0
 71
     0
 42
8.666666
  3
txt.shx
  4
extfont.shx
  0
STYLE
  2
KANJI5
 70
     0
 40
10.3999992
 41
0.8
 50
0.0
 71
     0
 42
10.3999992
  3
txt.shx
  4
extfont.shx
  0
STYLE
  2
KANJI6
 70
     0
 40
25.0
 41
1.0
 50
0.0
 71
     0
 42
25.0
  3
txt.shx
  4
extfont.shx
  0
STYLE
  2
KANJI7
 70
     0
 40
25.0
 41
1.0
 50
0.0
 71
     0
 42
25.0
  3
txt.shx
  4
extfont.shx
  0
STYLE
  2
KANJI8
 70
     0
 40
25.0
 41
0.8
 50
0.0
 71
     0
 42
25.0
  3
txt.shx
  4
extfont.shx
  0
STYLE
  2
KANJI9
 70
     0
 40
20.0
 41
1.0
 50
0.0
 71
     0
 42
20.0
  3
txt.shx
  4
extfont.shx
  0
STYLE
  2
KANJI10
 70
     0
 40
18.0
 41
1.111111111
 50
0.0
 71
     0
 42
18.0
  3
txt.shx
  4
extfont.shx
  0
STYLE
  2
KANJI11
 70
     0
 40
17.5
 41
0.857142857
 50
0.0
 71
     0
 42
17.5
  3
txt.shx
  4
extfont.shx
  0
STYLE
  2
KANJI12
 70
     0
 40
22.5
 41
0.666666667
 50
0.0
 71
     0
 42
22.5
  3
txt.shx
  4
extfont.shx
  0
STYLE
  2
KANJI13
 70
     0
 40
9.999997897
 41
0.6
 50
0.0
 71
     0
 42
9.999997897
  3
txt.shx
  4
extfont.shx
  0
STYLE
  2
KANJI14
 70
     0
 40
11.999997477
 41
0.9
 50
0.0
 71
     0
 42
11.999997477
  3
txt.shx
  4
extfont.shx
  0
STYLE
  2
KANJI15
 70
     0
 40
14.999996846
 41
0.9
 50
0.0
 71
     0
 42
14.999996846
  3
txt.shx
  4
extfont.shx
  0
STYLE
  2
KANJI16
 70
     0
 40
12.999999
 41
0.75
 50
0.0
 71
     0
 42
12.999999
  3
txt.shx
  4
extfont.shx
  0
STYLE
  2
KANJI17
 70
     0
 40
12.8
 41
0.9
 50
0.0
 71
     0
 42
12.8
  3
txt.shx
  4
extfont.shx
  0
STYLE
  2
KANJI18
 70
     0
 40
12.0
 41
0.9
 50
0.0
 71
     0
 42
12.0
  3
txt.shx
  4
extfont.shx
  0
STYLE
  2
KANJI19
 70
     0
 40
12.0
 41
0.9
 50
0.0
 71
     0
 42
12.0
  3
txt.shx
  4
extfont.shx
  0
STYLE
  2
KANJI20
 70
     0
 40
14.0
 41
0.9
 50
0.0
 71
     0
 42
14.0
  3
txt.shx
  4
extfont.shx
  0
STYLE
  2
KANJI21
 70
     0
 40
10.8
 41
0.740740741
 50
0.0
 71
     0
 42
10.8
  3
txt.shx
  4
extfont.shx
  0
STYLE
  2
KANJI22
 70
     0
 40
14.0
 41
0.857142857
 50
0.0
 71
     0
 42
14.0
  3
txt.shx
  4
extfont.shx
  0
STYLE
  2
KANJI23
 70
     0
 40
15.0
 41
1.0
 50
0.0
 71
     0
 42
15.0
  3
txt.shx
  4
extfont.shx
  0
STYLE
  2
KANJI24
 70
     0
 40
12.0
 41
0.833333333
 50
0.0
 71
     0
 42
12.0
  3
txt.shx
  4
extfont.shx
  0
STYLE
  2
KANJI25
 70
     0
 40
17.5
 41
0.793650794
 50
0.0
 71
     0
 42
17.5
  3
txt.shx
  4
extfont.shx
  0
STYLE
  2
KANJI26
 70
     0
 40
25.0
 41
0.8
 50
0.0
 71
     0
 42
25.0
  3
txt.shx
  4
extfont.shx
  0
STYLE
  2
KANJI27
 70
     0
 40
11.55
 41
0.9
 50
0.0
 71
     0
 42
11.55
  3
txt.shx
  4
extfont.shx
  0
STYLE
  2
KANJI28
 70
     0
 40
14.0
 41
0.857142857
 50
0.0
 71
     0
 42
14.0
  3
txt.shx
  4
extfont.shx
  0
STYLE
  2
KANJI29
 70
     0
 40
15.0
 41
0.9
 50
0.0
 71
     0
 42
15.0
  3
txt.shx
  4
extfont.shx
  0
STYLE
  2
KANJI30
 70
     0
 40
8.4
 41
0.9
 50
0.0
 71
     0
 42
8.4
  3
txt.shx
  4
extfont.shx
  0
STYLE
  2
KANJI31
 70
     0
 40
20.0
 41
0.925
 50
0.0
 71
     0
 42
20.0
  3
txt.shx
  4
extfont.shx
  0
STYLE
  2
KANJI32
 70
     0
 40
20.0
 41
0.9
 50
0.0
 71
     0
 42
20.0
  3
txt.shx
  4
extfont.shx
  0
STYLE
  2
KANJI33
 70
     0
 40
18.0
 41
0.857142857
 50
0.0
 71
     0
 42
18.0
  3
txt.shx
  4
extfont.shx
  0
STYLE
  2
KANJI34
 70
     0
 40
18.0
 41
0.857222222
 50
0.0
 71
     0
 42
18.0
  3
txt.shx
  4
extfont.shx
  0
STYLE
  2
KANJI35
 70
     0
 40
13.475
 41
0.9
 50
0.0
 71
     0
 42
13.475
  3
txt.shx
  4
extfont.shx
  0
STYLE
  2
KANJI36
 70
     0
 40
20.0
 41
0.925
 50
0.0
 71
     0
 42
20.0
  3
txt.shx
  4
extfont.shx
  0
STYLE
  2
KANJI37
 70
     0
 40
15.185977837
 41
0.66671875
 50
0.0
 71
     0
 42
15.185977837
  3
txt.shx
  4
extfont.shx
  0
STYLE
  2
KANJI38
 70
     0
 40
18.223173404
 41
0.9
 50
0.0
 71
     0
 42
18.223173404
  3
txt.shx
  4
extfont.shx
  0
STYLE
  2
KANJI39
 70
     0
 40
15.6
 41
0.925
 50
0.0
 71
     0
 42
15.6
  3
txt.shx
  4
extfont.shx
  0
STYLE
  2
KANJI40
 70
     0
 40
14.578538724
 41
0.9
 50
0.0
 71
     0
 42
14.578538724
  3
txt.shx
  4
extfont.shx
  0
STYLE
  2
KANJI41
 70
     0
 40
10.933904043
 41
0.9
 50
0.0
 71
     0
 42
10.933904043
  3
txt.shx
  4
extfont.shx
  0
STYLE
  2
KANJI42
 70
     0
 40
8.333333333
 41
0.85
 50
0.0
 71
     0
 42
8.333333333
  3
txt.shx
  4
extfont.shx
  0
STYLE
  2
KANJI43
 70
     0
 40
8.333333333
 41
0.75
 50
0.0
 71
     0
 42
8.333333333
  3
txt.shx
  4
extfont.shx
  0
STYLE
  2
KANJI44
 70
     0
 40
12.5
 41
0.9
 50
0.0
 71
     0
 42
12.5
  3
txt.shx
  4
extfont.shx
  0
STYLE
  2
KANJI45
 70
     0
 40
12.0
 41
0.9
 50
0.0
 71
     0
 42
12.0
  3
txt.shx
  4
extfont.shx
  0
STYLE
  2
KANJI46
 70
     0
 40
12.8
 41
0.84375
 50
0.0
 71
     0
 42
12.8
  3
txt.shx
  4
extfont.shx
  0
STYLE
  2
KANJI47
 70
     0
 40
16.0
 41
0.925
 50
0.0
 71
     0
 42
16.0
  3
txt.shx
  4
extfont.shx
  0
STYLE
  2
KANJI48
 70
     0
 40
17.5
 41
0.571428571
 50
0.0
 71
     0
 42
17.5
  3
txt.shx
  4
extfont.shx
  0
STYLE
  2
KANJI49
 70
     0
 40
17.5
 41
0.9
 50
0.0
 71
     0
 42
17.5
  3
txt.shx
  4
extfont.shx
  0
STYLE
  2
KANJI50
 70
     0
 40
17.5
 41
0.9
 50
0.0
 71
     0
 42
17.5
  3
txt.shx
  4
extfont.shx
  0
STYLE
  2
KANJI51
 70
     0
 40
17.5
 41
0.9
 50
0.0
 71
     0
 42
17.5
  3
txt.shx
  4
extfont.shx
  0
STYLE
  2
KANJI52
 70
     0
 40
17.5
 41
0.9
 50
0.0
 71
     0
 42
17.5
  3
txt.shx
  4
extfont.shx
  0
STYLE
  2
KANJI53
 70
     0
 40
22.5
 41
0.9
 50
0.0
 71
     0
 42
22.5
  3
txt.shx
  4
extfont.shx
  0
STYLE
  2
KANJI54
 70
     0
 40
17.5
 41
0.9
 50
0.0
 71
     0
 42
17.5
  3
txt.shx
  4
extfont.shx
  0
STYLE
  2
KANJI55
 70
     0
 40
17.5
 41
0.9
 50
0.0
 71
     0
 42
17.5
  3
txt.shx
  4
extfont.shx
  0
STYLE
  2
KANJI56
 70
     0
 40
17.5
 41
0.9
 50
0.0
 71
     0
 42
17.5
  3
txt.shx
  4
extfont.shx
  0
STYLE
  2
KANJI57
 70
     0
 40
17.5
 41
0.9
 50
0.0
 71
     0
 42
17.5
  3
txt.shx
  4
extfont.shx
  0
STYLE
  2
KANJI58
 70
     0
 40
17.5
 41
0.9
 50
0.0
 71
     0
 42
17.5
  3
txt.shx
  4
extfont.shx
  0
STYLE
  2
KANJI59
 70
     4
 40
17.5
 41
0.9
 50
0.0
 71
     0
 42
17.5
  3
txt.shx
  4
extfont.shx
  0
STYLE
  2
KANJI60
 70
     4
 40
15.0
 41
0.9
 50
0.0
 71
     0
 42
15.0
  3
txt.shx
  4
extfont.shx
  0
STYLE
  2
KANJI61
 70
     0
 40
12.5
 41
0.8
 50
0.0
 71
     0
 42
12.5
  3
txt.shx
  4
extfont.shx
  0
STYLE
  2
KANJI62
 70
     0
 40
15.0
 41
0.9
 50
0.0
 71
     0
 42
15.0
  3
txt.shx
  4
extfont.shx
  0
STYLE
  2
KANJI63
 70
     0
 40
15.0
 41
0.857142857
 50
0.0
 71
     0
 42
15.0
  3
txt.shx
  4
extfont.shx
  0
STYLE
  2
KANJI64
 70
     0
 40
17.5
 41
0.9
 50
0.0
 71
     0
 42
17.5
  3
txt.shx
  4
extfont.shx
  0
STYLE
  2
KANJI65
 70
     0
 40
14.0
 41
0.9
 50
0.0
 71
     0
 42
14.0
  3
txt.shx
  4
extfont.shx
  0
STYLE
  2
KANJI66
 70
     0
 40
14.0
 41
0.785714286
 50
0.0
 71
     0
 42
14.0
  3
txt.shx
  4
extfont.shx
  0
STYLE
  2
KANJI67
 70
     0
 40
14.0
 41
0.8
 50
0.0
 71
     0
 42
14.0
  3
txt.shx
  4
extfont.shx
  0
STYLE
  2
KANJI68
 70
     0
 40
17.5
 41
0.9
 50
0.0
 71
     0
 42
17.5
  3
txt.shx
  4
extfont.shx
  0
STYLE
  2
KANJI69
 70
     0
 40
15.0
 41
0.8
 50
0.0
 71
     0
 42
15.0
  3
txt.shx
  4
extfont.shx
  0
STYLE
  2
KANJI70
 70
     0
 40
15.0
 41
0.9
 50
0.0
 71
     0
 42
15.0
  3
txt.shx
  4
extfont.shx
  0
STYLE
  2
KANJI71
 70
     0
 40
17.5
 41
0.9
 50
0.0
 71
     0
 42
17.5
  3
txt.shx
  4
extfont.shx
  0
STYLE
  2
KANJI72
 70
     0
 40
15.0
 41
0.833333333
 50
0.0
 71
     0
 42
15.0
  3
txt.shx
  4
extfont.shx
  0
STYLE
  2
KANJI73
 70
     0
 40
15.0
 41
0.833333333
 50
0.0
 71
     0
 42
15.0
  3
txt.shx
  4
extfont.shx
  0
STYLE
  2
KANJI74
 70
     0
 40
17.5
 41
0.9
 50
0.0
 71
     0
 42
17.5
  3
txt.shx
  4
extfont.shx
  0
ENDTAB
  0
TABLE
  2
VIEW
 70
     0
  0
ENDTAB
  0
ENDSEC
  0
SECTION
  2
BLOCKS
  0
ENDSEC
  0
SECTION
  2
ENTITIES
  0
LINE
  8
0
  6
CONTINUOUS
 62
     6
 10
87.25
 20
1394.0
 30
0.0
 11
2022.25
 21
1394.0
 31
0.0
  0
LINE
  8
0
  6
CONTINUOUS
 62
     6
 10
2022.25
 20
1394.0
 30
0.0
 11
2022.25
 21
49.0
 31
0.0
  0
LINE
  8
0
  6
CONTINUOUS
 62
     6
 10
2022.25
 20
49.0
 30
0.0
 11
87.25
 21
49.0
 31
0.0
  0
LINE
  8
0
  6
CONTINUOUS
 62
     4
 10
1350.583385
 20
87.999997
 30
0.0
 11
1508.7500395
 21
87.999997
 31
0.0
  0
TEXT
  8
0
  6
CONTINUOUS
 62
     4
 10
1359.250051
 20
72.8333315
 30
0.8666666
 40
8.666666
  1
ＳＣＡＬＥ
 50
0.0
 41
0.6
 51
0.0
  7
KANJI0
  0
TEXT
  8
0
  6
CONTINUOUS
 62
     4
 10
1359.250051
 20
107.4999955
 30
0.8666666
 40
8.666666
  1
ＤＡＴＥ
 50
0.0
 41
0.6
 51
0.0
  7
KANJI0
  0
TEXT
  8
0
  6
CONTINUOUS
 62
     4
 10
1359.250051
 20
59.8333325
 30
1.03999992
 40
10.3999992
  1
尺度
 50
0.0
 41
0.6
 51
0.0
  7
KANJI1
  0
TEXT
  8
0
  6
CONTINUOUS
 62
     4
 10
1359.250051
 20
94.4999965
 30
1.03999992
 40
10.3999992
  1
日付
 50
0.0
 41
0.6
 51
0.0
  7
KANJI1
  0
LINE
  8
0
  6
CONTINUOUS
 62
     4
 10
1508.7500395
 20
107.4999955
 30
0.0
 11
2017.916667
 21
107.4999955
 31
0.0
  0
LINE
  8
0
  6
LTYPE1
 62
     4
 10
1872.7500115
 20
113.999995
 30
0.0
 11
1872.7500115
 21
148.666659
 31
0.0
  0
LINE
  8
0
  6
LTYPE1
 62
     4
 10
1842.4166805
 20
113.999995
 30
0.0
 11
1842.4166805
 21
148.666659
 31
0.0
  0
LINE
  8
0
  6
LTYPE1
 62
     4
 10
1812.0833495
 20
113.999995
 30
0.0
 11
1812.0833495
 21
148.666659
 31
0.0
  0
LINE
  8
0
  6
LTYPE1
 62
     4
 10
1781.7500185
 20
113.999995
 30
0.0
 11
1781.7500185
 21
148.666659
 31
0.0
  0
LINE
  8
0
  6
LTYPE1
 62
     4
 10
1751.4166875
 20
113.999995
 30
0.0
 11
1751.4166875
 21
148.666659
 31
0.0
  0
LINE
  8
0
  6
LTYPE1
 62
     4
 10
1721.0833565
 20
113.999995
 30
0.0
 11
1721.0833565
 21
148.666659
 31
0.0
  0
LINE
  8
0
  6
LTYPE1
 62
     4
 10
1690.7500255
 20
113.999995
 30
0.0
 11
1690.7500255
 21
148.666659
 31
0.0
  0
LINE
  8
0
  6
LTYPE1
 62
     4
 10
1660.4166945
 20
113.999995
 30
0.0
 11
1660.4166945
 21
148.666659
 31
0.0
  0
LINE
  8
0
  6
LTYPE1
 62
     4
 10
1660.4166945
 20
113.999995
 30
0.0
 11
1872.7500115
 21
113.999995
 31
0.0
  0
LINE
  8
0
  6
CONTINUOUS
 62
     6
 10
1008.250078
 20
87.999997
 30
0.0
 11
1350.583385
 21
87.999997
 31
0.0
  0
LINE
  8
0
  6
CONTINUOUS
 62
     6
 10
1008.250078
 20
53.333333
 30
0.0
 11
2017.916667
 21
53.333333
 31
0.0
  0
TEXT
  8
0
  6
CONTINUOUS
 62
     6
 10
1513.0833725
 20
72.8333315
 30
0.0
 40
15.1666655
  1
ＵＮＩＴＥＣ　ＩＮＤＵＳＴＲＹ　ＣＯ．，ＬＴＤ．
 50
0.0
 41
0.42031746
 51
0.0
  7
KANJI2
  0
TEXT
  8
0
  6
CONTINUOUS
 62
     6
 10
1725.795856138
 20
67.1999986
 30
2.5999998
 40
25.999998
  1
ユニテック工業株式会社
 50
0.0
 41
0.9
 51
0.0
  7
KANJI3
  0
LINE
  8
0
  6
CONTINUOUS
 62
     6
 10
1350.583385
 20
53.333333
 30
0.0
 11
1350.583385
 21
330.666645
 31
0.0
  0
LINE
  8
0
  6
CONTINUOUS
 62
     6
 10
2017.916667
 20
53.333333
 30
0.0
 11
2017.916667
 21
330.666645
 31
0.0
  0
LINE
  8
0
  6
CONTINUOUS
 62
     4
 10
1508.7500395
 20
53.333333
 30
0.0
 11
1508.7500395
 21
330.666645
 31
0.0
  0
LINE
  8
0
  6
CONTINUOUS
 62
     6
 10
1691.129192138
 20
76.2999979
 30
0.0
 11
1679.689193018
 21
76.2999979
 31
0.0
  0
LINE
  8
0
  6
CONTINUOUS
 62
     6
 10
1691.129192138
 20
78.37999774
 30
0.0
 11
1679.689193018
 21
78.37999774
 31
0.0
  0
LINE
  8
0
  6
CONTINUOUS
 62
     6
 10
1691.129192138
 20
76.2999979
 30
0.0
 11
1702.569191258
 21
76.2999979
 31
0.0
  0
LINE
  8
0
  6
CONTINUOUS
 62
     6
 10
1691.129192138
 20
78.37999774
 30
0.0
 11
1702.569191258
 21
78.37999774
 31
0.0
  0
LINE
  8
0
  6
CONTINUOUS
 62
     6
 10
1702.569191258
 20
78.37999774
 30
0.0
 11
1702.569191258
 21
76.2999979
 31
0.0
  0
ARC
  8
0
  6
CONTINUOUS
 62
     6
 10
1705.169191058
 20
77.33999782
 30
0.0
 40
10.3999992
 50
185.739170477
 51
90.0
  0
ARC
  8
0
  6
CONTINUOUS
 62
     6
 10
1705.169191058
 20
77.33999782
 30
0.0
 40
12.47999904
 50
184.780191847
 51
90.0
  0
LINE
  8
0
  6
CONTINUOUS
 62
     6
 10
1679.689193018
 20
76.2999979
 30
0.0
 11
1679.689193018
 21
78.37999774
 31
0.0
  0
LINE
  8
0
  6
CONTINUOUS
 62
     6
 10
1689.569192258
 20
89.81999686
 30
0.0
 11
1677.089193218
 21
89.81999686
 31
0.0
  0
LINE
  8
0
  6
CONTINUOUS
 62
     6
 10
1692.689192018
 20
89.81999686
 30
0.0
 11
1705.169191058
 21
89.81999686
 31
0.0
  0
ARC
  8
0
  6
CONTINUOUS
 62
     6
 10
1677.089193218
 20
77.33999782
 30
0.0
 40
10.3999992
 50
90.0
 51
354.260829523
  0
ARC
  8
0
  6
CONTINUOUS
 62
     6
 10
1677.089193218
 20
77.33999782
 30
0.0
 40
12.47999904
 50
90.0
 51
355.219808153
  0
LINE
  8
0
  6
CONTINUOUS
 62
     6
 10
1689.569192258
 20
89.81999686
 30
0.0
 11
1689.569192258
 21
87.73999702
 31
0.0
  0
LINE
  8
0
  6
CONTINUOUS
 62
     6
 10
1677.089193218
 20
87.73999702
 30
0.0
 11
1689.569192258
 21
87.73999702
 31
0.0
  0
LINE
  8
0
  6
CONTINUOUS
 62
     6
 10
1692.689192018
 20
89.81999686
 30
0.0
 11
1692.689192018
 21
87.73999702
 31
0.0
  0
LINE
  8
0
  6
CONTINUOUS
 62
     6
 10
1705.169191058
 20
87.73999702
 30
0.0
 11
1692.689192018
 21
87.73999702
 31
0.0
  0
TEXT
  8
0
  6
CONTINUOUS
 62
     4
 10
1359.250051
 20
142.1666595
 30
0.8666666
 40
8.666666
  1
ＤＲＡＷＮ
 50
0.0
 41
0.6
 51
0.0
  7
KANJI0
  0
TEXT
  8
0
  6
CONTINUOUS
 62
     4
 10
1359.250051
 20
176.8333235
 30
0.8666666
 40
8.666666
  1
ＤＥＳＩＧＮ
 50
0.0
 41
0.6
 51
0.0
  7
KANJI0
  0
TEXT
  8
0
  6
CONTINUOUS
 62
     4
 10
1359.250051
 20
211.4999875
 30
0.8666666
 40
8.666666
  1
ＣＨＥＣＫ
 50
0.0
 41
0.6
 51
0.0
  7
KANJI0
  0
TEXT
  8
0
  6
CONTINUOUS
 62
     4
 10
1359.250051
 20
246.1666515
 30
0.8666666
 40
8.666666
  1
ＣＯＤＥ
 50
0.0
 41
0.6
 51
0.0
  7
KANJI0
  0
LINE
  8
0
  6
CONTINUOUS
 62
     4
 10
1350.583385
 20
191.999989
 30
0.0
 11
1508.7500395
 21
191.999989
 31
0.0
  0
LINE
  8
0
  6
CONTINUOUS
 62
     4
 10
1350.583385
 20
157.333325
 30
0.0
 11
1508.7500395
 21
157.333325
 31
0.0
  0
LINE
  8
0
  6
CONTINUOUS
 62
     4
 10
1350.583385
 20
226.666653
 30
0.0
 11
1508.7500395
 21
226.666653
 31
0.0
  0
LINE
  8
0
  6
CONTINUOUS
 62
     4
 10
1350.583385
 20
261.333317
 30
0.0
 11
2017.916667
 21
261.333317
 31
0.0
  0
TEXT
  8
0
  6
CONTINUOUS
 62
     4
 10
1359.250051
 20
163.8333245
 30
1.03999992
 40
10.3999992
  1
設計
 50
0.0
 41
0.6
 51
0.0
  7
KANJI1
  0
TEXT
  8
0
  6
CONTINUOUS
 62
     4
 10
1359.250051
 20
198.4999885
 30
1.03999992
 40
10.3999992
  1
検図
 50
0.0
 41
0.6
 51
0.0
  7
KANJI1
  0
TEXT
  8
0
  6
CONTINUOUS
 62
     4
 10
1359.250051
 20
233.1666525
 30
1.03999992
 40
10.3999992
  1
分類
 50
0.0
 41
0.6
 51
0.0
  7
KANJI1
  0
LINE
  8
0
  6
CONTINUOUS
 62
     4
 10
1521.53337185
 20
226.666653
 30
0.0
 11
2017.916667
 21
226.666653
 31
0.0
  0
LINE
  8
0
  6
CONTINUOUS
 62
     4
 10
1508.7500395
 20
157.333325
 30
0.0
 11
2017.916667
 21
157.333325
 31
0.0
  0
TEXT
  8
0
  6
CONTINUOUS
 62
     4
 10
1517.4167055
 20
142.1666595
 30
0.8666666
 40
8.666666
  1
ＤＲＡＷＩＮＧ　ＮＯ．
 50
0.0
 41
0.8
 51
0.0
  7
KANJI4
  0
TEXT
  8
0
  6
CONTINUOUS
 62
     4
 10
1517.4167055
 20
176.8333235
 30
0.8666666
 40
8.666666
  1
ＭＦＧ　ＮＯ．
 50
0.0
 41
0.8
 51
0.0
  7
KANJI4
  0
TEXT
  8
0
  6
CONTINUOUS
 62
     4
 10
1517.4167055
 20
211.4999875
 30
0.8666666
 40
8.666666
  1
ＴＹＰＥ
 50
0.0
 41
0.8
 51
0.0
  7
KANJI4
  0
LINE
  8
0
  6
CONTINUOUS
 62
     4
 10
1521.7500385
 20
191.999989
 30
0.0
 11
1721.0833565
 21
191.999989
 31
0.0
  0
TEXT
  8
0
  6
CONTINUOUS
 62
     4
 10
1517.4167055
 20
126.999994
 30
1.03999992
 40
10.3999992
  1
図　面　番　号
 50
0.0
 41
0.8
 51
0.0
  7
KANJI5
  0
TEXT
  8
0
  6
CONTINUOUS
 62
     4
 10
1517.4167055
 20
161.666658
 30
1.03999992
 40
10.3999992
  1
製番
 50
0.0
 41
0.8
 51
0.0
  7
KANJI5
  0
TEXT
  8
0
  6
CONTINUOUS
 62
     4
 10
1517.4167055
 20
196.333322
 30
1.03999992
 40
10.3999992
  1
機種
 50
0.0
 41
0.8
 51
0.0
  7
KANJI5
  0
LINE
  8
0
  6
CONTINUOUS
 62
     4
 10
1350.583385
 20
122.666661
 30
0.0
 11
1508.7500395
 21
122.666661
 31
0.0
  0
TEXT
  8
0
  6
CONTINUOUS
 62
     4
 10
1359.250051
 20
129.1666605
 30
1.03999992
 40
10.3999992
  1
作図
 50
0.0
 41
0.6
 51
0.0
  7
KANJI1
  0
LINE
  8
0
  6
LTYPE1
 62
     4
 10
1660.4166945
 20
148.666659
 30
0.0
 11
1872.7500115
 21
148.666659
 31
0.0
  0
LINE
  8
0
  6
CONTINUOUS
 62
     4
 10
1890.0833435
 20
132.41666025
 30
0.0
 11
1898.7500095
 21
132.41666025
 31
0.0
  0
LINE
  8
0
  6
CONTINUOUS
 62
     4
 10
1944.250006
 20
119.41666125
 30
0.0
 11
1913.916675
 21
119.41666125
 31
0.0
  0
LINE
  8
0
  6
CONTINUOUS
 62
     4
 10
1913.916675
 20
119.41666125
 30
0.0
 11
1929.0833405
 21
145.41665925
 31
0.0
  0
LINE
  8
0
  6
CONTINUOUS
 62
     4
 10
1929.0833405
 20
145.41665925
 30
0.0
 11
1944.250006
 21
119.41666125
 31
0.0
  0
LINE
  8
0
  6
CONTINUOUS
 62
     4
 10
2017.916667
 20
295.999981
 30
0.0
 11
2017.916667
 21
330.666645
 31
0.0
  0
TEXT
  8
0
  6
CONTINUOUS
 62
     4
 10
1734.0833555
 20
211.4999875
 30
0.8666666
 40
8.666666
  1
ＴＩＴＬＥ
 50
0.0
 41
0.8
 51
0.0
  7
KANJI4
  0
TEXT
  8
0
  6
CONTINUOUS
 62
     4
 10
1734.0833555
 20
196.333322
 30
1.03999992
 40
10.3999992
  1
名称
 50
0.0
 41
0.8
 51
0.0
  7
KANJI5
  0
TEXT
  8
0
  6
CONTINUOUS
 62
     2
 10
1804.75
 20
164.0
 30
12.5
 40
25.0
  1
外形寸法図
 50
0.0
 41
1.0
 51
0.0
  7
KANJI6
  0
TEXT
  8
0
  6
CONTINUOUS
 62
     2
 10
1774.75
 20
194.0
 30
3.571428571
 40
25.0
  1
マイティシリンダ
 50
0.0
 41
1.0
 51
0.0
  7
KANJI7
  0
TEXT
  8
0
  6
CONTINUOUS
 62
     2
 10
1634.1666945
 20
118.999995
 30
1.5
 40
25.0
  1
Ａ
 50
0.0
 41
0.8
 51
0.0
  7
KANJI8
  0
CIRCLE
  8
0
  6
CONTINUOUS
 62
     2
 10
1601.6666945
 20
172.749995
 30
0.0
 40
12.5
  0
TEXT
  8
0
  6
CONTINUOUS
 62
     2
 10
1592.2916945
 20
163.374995
 30
1.5
 40
20.0
  1
Ｓ
 50
0.0
 41
1.0
 51
0.0
  7
KANJI9
  0
LINE
  8
0
  6
CONTINUOUS
 62
     6
 10
1351.208385
 20
295.999981
 30
0.0
 11
2018.541667
 21
295.999981
 31
0.0
  0
LINE
  8
0
  6
CONTINUOUS
 62
     6
 10
1350.583385
 20
330.666645
 30
0.0
 11
2017.916667
 21
330.666645
 31
0.0
  0
TEXT
  8
0
  6
CONTINUOUS
 62
     4
 10
1366.0
 20
301.166664
 30
5.0
 40
18.0
  1
ご用途
 50
0.0
 41
1.111111111
 51
0.0
  7
KANJI10
  0
TEXT
  8
0
  6
CONTINUOUS
 62
     4
 10
1366.0
 20
266.5
 30
5.0
 40
18.0
  1
ご注文主
 50
0.0
 41
1.111111111
 51
0.0
  7
KANJI10
  0
TEXT
  8
0
  6
CONTINUOUS
 62
     2
 10
1406.4166945
 20
131.499995
 30
5.0
 40
17.5
  1
岡田
 50
0.0
 41
0.857142857
 51
0.0
  7
KANJI11
  0
TEXT
  8
0
  6
CONTINUOUS
 62
     2
 10
1442.25
 20
59.0
 30
1.5
 40
22.5
  1
１／５
 50
0.0
 41
0.666666667
 51
0.0
  7
KANJI12
  0
TEXT
  8
0
  6
CONTINUOUS
 62
     4
 10
1118.7500695
 20
72.8333315
 30
0.8666666
 40
8.666666
  1
ＢＹ
 50
0.0
 41
0.6
 51
0.0
  7
KANJI0
  0
TEXT
  8
0
  6
CONTINUOUS
 62
     4
 10
1214.0833955
 20
72.8333315
 30
0.8666666
 40
8.666666
  1
ＤＥＳＣＲＩＰＴＩＯＮ
 50
0.0
 41
0.6
 51
0.0
  7
KANJI0
  0
TEXT
  8
0
  6
CONTINUOUS
 62
     4
 10
1118.7500695
 20
59.8333325
 30
1.03999992
 40
10.3999992
  1
担当
 50
0.0
 41
0.6
 51
0.0
  7
KANJI1
  0
TEXT
  8
0
  6
CONTINUOUS
 62
     4
 10
1227.0833945
 20
59.8333325
 30
1.03999992
 40
10.3999992
  1
記　　　　事
 50
0.0
 41
0.6
 51
0.0
  7
KANJI1
  0
LINE
  8
0
  6
CONTINUOUS
 62
     4
 10
1026.66674325
 20
81.4999975
 30
0.0
 11
1012.583411
 21
59.8333325
 31
0.0
  0
TEXT
  8
0
  6
CONTINUOUS
 62
     4
 10
1062.4167405
 20
72.8333315
 30
0.8666666
 40
8.666666
  1
ＤＡＴＥ
 50
0.0
 41
0.6
 51
0.0
  7
KANJI0
  0
TEXT
  8
0
  6
CONTINUOUS
 62
     4
 10
1068.91674
 20
59.8333325
 30
1.03999992
 40
10.3999992
  1
日付
 50
0.0
 41
0.6
 51
0.0
  7
KANJI1
  0
LINE
  8
0
  6
CONTINUOUS
 62
     4
 10
1012.583411
 20
59.8333325
 30
0.0
 11
1040.7500755
 21
59.8333325
 31
0.0
  0
LINE
  8
0
  6
CONTINUOUS
 62
     4
 10
1026.66674325
 20
81.4999975
 30
0.0
 11
1040.7500755
 21
59.8333325
 31
0.0
  0
LINE
  8
0
  6
CONTINUOUS
 62
     6
 10
1008.250078
 20
53.333333
 30
0.0
 11
1008.250078
 21
87.999997
 31
0.0
  0
LINE
  8
0
  6
CONTINUOUS
 62
     4
 10
1045.0834085
 20
53.333333
 30
0.0
 11
1045.0834085
 21
87.999997
 31
0.0
  0
LINE
  8
0
  6
CONTINUOUS
 62
     4
 10
1105.7500705
 20
53.333333
 30
0.0
 11
1105.7500705
 21
87.999997
 31
0.0
  0
LINE
  8
0
  6
CONTINUOUS
 62
     4
 10
1144.7500675
 20
53.333333
 30
0.0
 11
1144.7500675
 21
87.999997
 31
0.0
  0
LINE
  8
0
  6
CONTINUOUS
 62
     6
 10
87.25
 20
49.0
 30
0.0
 11
87.25
 21
1394.0
 31
0.0
  0
TEXT
  8
0
  6
CONTINUOUS
 62
     4
 10
102.249996846
 20
73.999994744
 30
0.99999979
 40
9.999997897
  1
ＰＡＲＴＳ　ＬＩＳＴ
 50
0.0
 41
0.6
 51
0.0
  7
KANJI13
  0
TEXT
  8
0
  6
CONTINUOUS
 62
     4
 10
102.249996846
 20
58.999997897
 30
1.199999748
 40
11.999997477
  1
部品表
 50
0.0
 41
0.9
 51
0.0
  7
KANJI14
  0
LINE
  8
0
  6
CONTINUOUS
 62
     6
 10
92.249998949
 20
123.999984231
 30
0.0
 11
417.249930615
 21
123.999984231
 31
0.0
  0
LINE
  8
0
  6
CONTINUOUS
 62
     6
 10
92.249998949
 20
53.999998949
 30
0.0
 11
417.249930615
 21
53.999998949
 31
0.0
  0
LINE
  8
0
  6
CONTINUOUS
 62
     6
 10
92.249998949
 20
53.999998949
 30
0.0
 11
92.249998949
 21
123.999984231
 31
0.0
  0
LINE
  8
0
  6
CONTINUOUS
 62
     6
 10
92.249998949
 20
88.99999159
 30
0.0
 11
417.249930615
 21
88.99999159
 31
0.0
  0
TEXT
  8
0
  6
CONTINUOUS
 62
     2
 10
102.249996846
 20
98.999989487
 30
1.499999685
 40
14.999996846
  1
ＰＬ
 50
0.0
 41
0.9
 51
0.0
  7
KANJI15
  0
LINE
  8
0
  6
CONTINUOUS
 62
     4
 10
30.333333
 20
53.333333
 30
0.0
 11
82.333329
 21
53.333333
 31
0.0
  0
LINE
  8
0
  6
CONTINUOUS
 62
     4
 10
30.333333
 20
79.333331
 30
0.0
 11
82.333329
 21
79.333331
 31
0.0
  0
LINE
  8
0
  6
CONTINUOUS
 62
     4
 10
30.333333
 20
105.333329
 30
0.0
 11
82.333329
 21
105.333329
 31
0.0
  0
LINE
  8
0
  6
CONTINUOUS
 62
     4
 10
30.333333
 20
131.333327
 30
0.0
 11
82.333329
 21
131.333327
 31
0.0
  0
LINE
  8
0
  6
CONTINUOUS
 62
     4
 10
30.333333
 20
157.333325
 30
0.0
 11
82.333329
 21
157.333325
 31
0.0
  0
LINE
  8
0
  6
CONTINUOUS
 62
     4
 10
30.333333
 20
183.333323
 30
0.0
 11
82.333329
 21
183.333323
 31
0.0
  0
LINE
  8
0
  6
CONTINUOUS
 62
     4
 10
30.333333
 20
209.333321
 30
0.0
 11
82.333329
 21
209.333321
 31
0.0
  0
LINE
  8
0
  6
CONTINUOUS
 62
     4
 10
30.333333
 20
235.333319
 30
0.0
 11
82.333329
 21
235.333319
 31
0.0
  0
LINE
  8
0
  6
CONTINUOUS
 62
     4
 10
30.333333
 20
261.333317
 30
0.0
 11
82.333329
 21
261.333317
 31
0.0
  0
LINE
  8
0
  6
CONTINUOUS
 62
     4
 10
30.333333
 20
287.333315
 30
0.0
 11
82.333329
 21
287.333315
 31
0.0
  0
LINE
  8
0
  6
CONTINUOUS
 62
     4
 10
82.333329
 20
53.333333
 30
0.0
 11
82.333329
 21
287.333315
 31
0.0
  0
LINE
  8
0
  6
CONTINUOUS
 62
     4
 10
56.333331
 20
53.333333
 30
0.0
 11
56.333331
 21
261.333317
 31
0.0
  0
TEXT
  8
0
  6
CONTINUOUS
 62
     4
 10
39.21666565
 20
60.91666575
 30
1.2999999
 40
12.999999
  1
計
 50
0.0
 41
0.75
 51
0.0
  7
KANJI16
  0
TEXT
  8
0
  6
CONTINUOUS
 62
     4
 10
39.21666565
 20
113.34999505
 30
1.2999999
 40
12.999999
  1
設
 50
0.0
 41
0.75
 51
0.0
  7
KANJI16
  0
TEXT
  8
0
  6
CONTINUOUS
 62
     4
 10
39.21666565
 20
138.91665975
 30
1.2999999
 40
12.999999
  1
管
 50
0.0
 41
0.75
 51
0.0
  7
KANJI16
  0
TEXT
  8
0
  6
CONTINUOUS
 62
     4
 10
39.21666565
 20
164.91665775
 30
1.2999999
 40
12.999999
  1
製
 50
0.0
 41
0.75
 51
0.0
  7
KANJI16
  0
TEXT
  8
0
  6
CONTINUOUS
 62
     4
 10
39.21666565
 20
190.91665575
 30
1.2999999
 40
12.999999
  1
資
 50
0.0
 41
0.75
 51
0.0
  7
KANJI16
  0
TEXT
  8
0
  6
CONTINUOUS
 62
     4
 10
39.21666565
 20
216.91665375
 30
1.2999999
 40
12.999999
  1
営
 50
0.0
 41
0.75
 51
0.0
  7
KANJI16
  0
TEXT
  8
0
  6
CONTINUOUS
 62
     4
 10
39.21666565
 20
242.91665175
 30
1.2999999
 40
12.999999
  1
客
 50
0.0
 41
0.75
 51
0.0
  7
KANJI16
  0
TEXT
  8
0
  6
CONTINUOUS
 62
     4
 10
38.999999
 20
269.999983
 30
1.2999999
 40
12.999999
  1
出　図
 50
0.0
 41
0.75
 51
0.0
  7
KANJI16
  0
LINE
  8
0
  6
CONTINUOUS
 62
     4
 10
30.333333
 20
53.333333
 30
0.0
 11
30.333333
 21
287.333315
 31
0.0
  0
TEXT
  8
0
  6
CONTINUOUS
 62
     4
 10
327.249949538
 20
73.999994744
 30
0.99999979
 40
9.999997897
  1
Ｎ０．
 50
0.0
 41
0.6
 51
0.0
  7
KANJI13
  0
TEXT
  8
0
  6
CONTINUOUS
 62
     4
 10
327.249949538
 20
58.999997897
 30
1.199999748
 40
11.999997477
  1
項番
 50
0.0
 41
0.9
 51
0.0
  7
KANJI14
  0
LINE
  8
0
  6
CONTINUOUS
 62
     6
 10
417.249930615
 20
53.999998949
 30
0.0
 11
417.249930615
 21
123.999984231
 31
0.0
  0
LINE
  8
0
  6
CONTINUOUS
 62
     6
 10
317.249951641
 20
53.999998949
 30
0.0
 11
317.249951641
 21
123.999984231
 31
0.0
  0
LINE
  8
0
  6
CONTINUOUS
 62
     1
 10
868.25
 20
1231.95
 30
0.0
 11
1516.25
 21
1231.95
 31
0.0
  0
LINE
  8
0
  6
CONTINUOUS
 62
     1
 10
868.25
 20
1203.95
 30
0.0
 11
1516.25
 21
1203.95
 31
0.0
  0
TEXT
  8
0
  6
CONTINUOUS
 62
     2
 10
908.25
 20
1211.95
 30
1.28
 40
12.8
  1
形
 50
0.0
 41
0.9
 51
0.0
  7
KANJI17
  0
TEXT
  8
0
  6
CONTINUOUS
 62
     2
 10
986.25
 20
1211.95
 30
1.28
 40
12.8
  1
式
 50
0.0
 41
0.9
 51
0.0
  7
KANJI17
  0
TEXT
  8
0
  6
CONTINUOUS
 62
     2
 10
1046.65
 20
1211.15
 30
1.2
 40
12.0
  1
ストローク
 50
0.0
 41
0.9
 51
0.0
  7
KANJI18
  0
TEXT
  8
0
  6
CONTINUOUS
 62
     2
 10
1123.45
 20
1210.35
 30
0.0
 40
12.0
  1
ｍｉｎ　
 50
0.0
 41
0.9
 51
0.0
  7
KANJI19
  0
TEXT
  8
0
  6
CONTINUOUS
 62
     2
 10
1203.45
 20
1210.35
 30
0.0
 40
12.0
  1
ｍｉｎ　
 50
0.0
 41
0.9
 51
0.0
  7
KANJI19
  0
TEXT
  8
0
  6
CONTINUOUS
 62
     2
 10
1363.45
 20
1210.35
 30
0.0
 40
12.0
  1
ｍｉｎ　
 50
0.0
 41
0.9
 51
0.0
  7
KANJI19
  0
TEXT
  8
0
  6
CONTINUOUS
 62
     2
 10
1164.25
 20
1211.15
 30
1.4
 40
14.0
  1
ＡＬ
 50
0.0
 41
0.9
 51
0.0
  7
KANJI20
  0
TEXT
  8
0
  6
CONTINUOUS
 62
     2
 10
1244.25
 20
1211.15
 30
1.4
 40
14.0
  1
Ｌ
 50
0.0
 41
0.9
 51
0.0
  7
KANJI20
  0
TEXT
  8
0
  6
CONTINUOUS
 62
     2
 10
1312.25
 20
1211.15
 30
1.4
 40
14.0
  1
Ｃ
 50
0.0
 41
0.9
 51
0.0
  7
KANJI20
  0
TEXT
  8
0
  6
CONTINUOUS
 62
     2
 10
1404.25
 20
1211.15
 30
1.4
 40
14.0
  1
Ｐ
 50
0.0
 41
0.9
 51
0.0
  7
KANJI20
  0
TEXT
  8
0
  6
CONTINUOUS
 62
     2
 10
1486.55
 20
1210.85
 30
0.0
 40
10.8
  1
（ｋｇ）
 50
0.0
 41
0.740740741
 51
0.0
  7
KANJI21
  0
TEXT
  8
0
  6
CONTINUOUS
 62
     2
 10
1438.55
 20
1210.65
 30
1.2
 40
14.0
  1
概算重量
 50
0.0
 41
0.857142857
 51
0.0
  7
KANJI22
  0
TEXT
  8
0
  6
CONTINUOUS
 62
     2
 10
1054.25
 20
1182.65
 30
1.2
 40
12.0
  1
　１００
 50
0.0
 41
0.9
 51
0.0
  7
KANJI18
  0
TEXT
  8
0
  6
CONTINUOUS
 62
     2
 10
1054.25
 20
1154.65
 30
1.2
 40
12.0
  1
　２００
 50
0.0
 41
0.9
 51
0.0
  7
KANJI18
  0
TEXT
  8
0
  6
CONTINUOUS
 62
     2
 10
1054.25
 20
1126.65
 30
1.2
 40
12.0
  1
　３００
 50
0.0
 41
0.9
 51
0.0
  7
KANJI18
  0
TEXT
  8
0
  6
CONTINUOUS
 62
     2
 10
1374.25
 20
1126.65
 30
1.2
 40
12.0
  1
　　３５
 50
0.0
 41
0.9
 51
0.0
  7
KANJI18
  0
TEXT
  8
0
  6
CONTINUOUS
 62
     2
 10
1374.25
 20
1154.65
 30
1.2
 40
12.0
  1
　　３５
 50
0.0
 41
0.9
 51
0.0
  7
KANJI18
  0
TEXT
  8
0
  6
CONTINUOUS
 62
     2
 10
1374.25
 20
1182.65
 30
1.2
 40
12.0
  1
　　３５
 50
0.0
 41
0.9
 51
0.0
  7
KANJI18
  0
TEXT
  8
0
  6
CONTINUOUS
 62
     2
 10
1054.25
 20
1014.65
 30
1.2
 40
12.0
  1
　７００
 50
0.0
 41
0.9
 51
0.0
  7
KANJI18
  0
TEXT
  8
0
  6
CONTINUOUS
 62
     2
 10
1054.25
 20
1070.65
 30
1.2
 40
12.0
  1
　５００
 50
0.0
 41
0.9
 51
0.0
  7
KANJI18
  0
TEXT
  8
0
  6
CONTINUOUS
 62
     2
 10
1054.25
 20
1098.65
 30
1.2
 40
12.0
  1
　４００
 50
0.0
 41
0.9
 51
0.0
  7
KANJI18
  0
TEXT
  8
0
  6
CONTINUOUS
 62
     2
 10
1054.25
 20
1042.65
 30
1.2
 40
12.0
  1
　６００
 50
0.0
 41
0.9
 51
0.0
  7
KANJI18
  0
TEXT
  8
0
  6
CONTINUOUS
 62
     2
 10
1294.25
 20
1182.65
 30
1.2
 40
12.0
  1
　１９８
 50
0.0
 41
0.9
 51
0.0
  7
KANJI18
  0
TEXT
  8
0
  6
CONTINUOUS
 62
     2
 10
1294.25
 20
1154.65
 30
1.2
 40
12.0
  1
　２９８
 50
0.0
 41
0.9
 51
0.0
  7
KANJI18
  0
TEXT
  8
0
  6
CONTINUOUS
 62
     2
 10
1294.25
 20
1126.65
 30
1.2
 40
12.0
  1
　３９８
 50
0.0
 41
0.9
 51
0.0
  7
KANJI18
  0
TEXT
  8
0
  6
CONTINUOUS
 62
     2
 10
1294.25
 20
1098.65
 30
1.2
 40
12.0
  1
　４９８
 50
0.0
 41
0.9
 51
0.0
  7
KANJI18
  0
TEXT
  8
0
  6
CONTINUOUS
 62
     2
 10
1294.25
 20
1070.65
 30
1.2
 40
12.0
  1
　５９８
 50
0.0
 41
0.9
 51
0.0
  7
KANJI18
  0
TEXT
  8
0
  6
CONTINUOUS
 62
     2
 10
1294.25
 20
1042.65
 30
1.2
 40
12.0
  1
　７３８
 50
0.0
 41
0.9
 51
0.0
  7
KANJI18
  0
TEXT
  8
0
  6
CONTINUOUS
 62
     2
 10
1294.25
 20
1014.65
 30
1.2
 40
12.0
  1
　８３８
 50
0.0
 41
0.9
 51
0.0
  7
KANJI18
  0
TEXT
  8
0
  6
CONTINUOUS
 62
     2
 10
1214.25
 20
1182.65
 30
1.2
 40
12.0
  1
　２６８
 50
0.0
 41
0.9
 51
0.0
  7
KANJI18
  0
TEXT
  8
0
  6
CONTINUOUS
 62
     2
 10
1214.25
 20
1154.65
 30
1.2
 40
12.0
  1
　３６８
 50
0.0
 41
0.9
 51
0.0
  7
KANJI18
  0
TEXT
  8
0
  6
CONTINUOUS
 62
     2
 10
1214.25
 20
1126.65
 30
1.2
 40
12.0
  1
　４６８
 50
0.0
 41
0.9
 51
0.0
  7
KANJI18
  0
TEXT
  8
0
  6
CONTINUOUS
 62
     2
 10
1134.25
 20
1182.65
 30
1.2
 40
12.0
  1
　５８０
 50
0.0
 41
0.9
 51
0.0
  7
KANJI18
  0
TEXT
  8
0
  6
CONTINUOUS
 62
     2
 10
1134.25
 20
1154.65
 30
1.2
 40
12.0
  1
　６８０
 50
0.0
 41
0.9
 51
0.0
  7
KANJI18
  0
TEXT
  8
0
  6
CONTINUOUS
 62
     2
 10
1134.25
 20
1126.65
 30
1.2
 40
12.0
  1
　７８０
 50
0.0
 41
0.9
 51
0.0
  7
KANJI18
  0
TEXT
  8
0
  6
CONTINUOUS
 62
     2
 10
1374.25
 20
1098.65
 30
1.2
 40
12.0
  1
　　８５
 50
0.0
 41
0.9
 51
0.0
  7
KANJI18
  0
TEXT
  8
0
  6
CONTINUOUS
 62
     2
 10
1374.25
 20
1070.65
 30
1.2
 40
12.0
  1
　１１２
 50
0.0
 41
0.9
 51
0.0
  7
KANJI18
  0
TEXT
  8
0
  6
CONTINUOUS
 62
     2
 10
1374.25
 20
1042.65
 30
1.2
 40
12.0
  1
　１２８
 50
0.0
 41
0.9
 51
0.0
  7
KANJI18
  0
TEXT
  8
0
  6
CONTINUOUS
 62
     2
 10
1374.25
 20
1014.65
 30
1.2
 40
12.0
  1
　１４８
 50
0.0
 41
0.9
 51
0.0
  7
KANJI18
  0
TEXT
  8
0
  6
CONTINUOUS
 62
     2
 10
1214.25
 20
1098.65
 30
1.2
 40
12.0
  1
　６１８
 50
0.0
 41
0.9
 51
0.0
  7
KANJI18
  0
TEXT
  8
0
  6
CONTINUOUS
 62
     2
 10
1214.25
 20
1070.65
 30
1.2
 40
12.0
  1
　７４５
 50
0.0
 41
0.9
 51
0.0
  7
KANJI18
  0
TEXT
  8
0
  6
CONTINUOUS
 62
     2
 10
1214.25
 20
1042.65
 30
1.2
 40
12.0
  1
　９０１
 50
0.0
 41
0.9
 51
0.0
  7
KANJI18
  0
TEXT
  8
0
  6
CONTINUOUS
 62
     2
 10
1214.25
 20
1014.65
 30
1.2
 40
12.0
  1
１０２１
 50
0.0
 41
0.9
 51
0.0
  7
KANJI18
  0
TEXT
  8
0
  6
CONTINUOUS
 62
     2
 10
1134.25
 20
1098.65
 30
1.2
 40
12.0
  1
　９３０
 50
0.0
 41
0.9
 51
0.0
  7
KANJI18
  0
TEXT
  8
0
  6
CONTINUOUS
 62
     2
 10
1134.25
 20
1070.65
 30
1.2
 40
12.0
  1
１０５７
 50
0.0
 41
0.9
 51
0.0
  7
KANJI18
  0
TEXT
  8
0
  6
CONTINUOUS
 62
     2
 10
1134.25
 20
1042.65
 30
1.2
 40
12.0
  1
１２１３
 50
0.0
 41
0.9
 51
0.0
  7
KANJI18
  0
TEXT
  8
0
  6
CONTINUOUS
 62
     2
 10
1134.25
 20
1014.65
 30
1.2
 40
12.0
  1
１３３３
 50
0.0
 41
0.9
 51
0.0
  7
KANJI18
  0
TEXT
  8
0
  6
CONTINUOUS
 62
     2
 10
144.75
 20
16.5
 30
1.5
 40
15.0
  1
ＦＤ　Ｎｏ．ＭＣ１８６
 50
0.0
 41
1.0
 51
0.0
  7
KANJI23
  0
TEXT
  8
0
  6
CONTINUOUS
 62
     2
 10
881.25
 20
1182.35
 30
0.8
 40
12.0
  1
ＭＣＥＤＢＢ０１－　　１ＪＬ
 50
0.0
 41
0.833333333
 51
0.0
  7
KANJI24
  0
TEXT
  8
0
  6
CONTINUOUS
 62
     2
 10
881.25
 20
1154.35
 30
0.8
 40
12.0
  1
ＭＣＥＤＢＢ０１－　　２ＪＬ
 50
0.0
 41
0.833333333
 51
0.0
  7
KANJI24
  0
TEXT
  8
0
  6
CONTINUOUS
 62
     2
 10
881.25
 20
1126.35
 30
0.8
 40
12.0
  1
ＭＣＥＤＢＢ０１－　　３ＪＬ
 50
0.0
 41
0.833333333
 51
0.0
  7
KANJI24
  0
TEXT
  8
0
  6
CONTINUOUS
 62
     2
 10
881.25
 20
1098.35
 30
0.8
 40
12.0
  1
ＭＣＥＤＢＢ０１－　　４ＪＬ
 50
0.0
 41
0.833333333
 51
0.0
  7
KANJI24
  0
TEXT
  8
0
  6
CONTINUOUS
 62
     2
 10
881.25
 20
1070.35
 30
0.8
 40
12.0
  1
ＭＣＥＤＢＢ０１－　　５ＪＬ
 50
0.0
 41
0.833333333
 51
0.0
  7
KANJI24
  0
TEXT
  8
0
  6
CONTINUOUS
 62
     2
 10
881.25
 20
1042.35
 30
0.8
 40
12.0
  1
ＭＣＥＤＢＢ０１－　　６ＪＬ
 50
0.0
 41
0.833333333
 51
0.0
  7
KANJI24
  0
TEXT
  8
0
  6
CONTINUOUS
 62
     2
 10
881.25
 20
1014.35
 30
0.8
 40
12.0
  1
ＭＣＥＤＢＢ０１－　　７ＪＬ
 50
0.0
 41
0.833333333
 51
0.0
  7
KANJI24
  0
TEXT
  8
0
  6
CONTINUOUS
 62
     2
 10
1569.75
 20
199.0
 30
0.0
 40
17.5
  1
ＭＣＥＤＢＢ０１－ＪＬ
 50
0.0
 41
0.793650794
 51
0.0
  7
KANJI25
  0
TEXT
  8
0
  6
CONTINUOUS
 62
     2
 10
1665.4166945
 20
118.999995
 30
10.833333333
 40
25.0
  1
３００２３４２
 50
0.0
 41
0.8
 51
0.0
  7
KANJI26
  0
LINE
  8
0
  6
CONTINUOUS
 62
     1
 10
1292.625
 20
1385.0
 30
0.0
 11
1292.625
 21
1284.9
 31
0.0
  0
LINE
  8
0
  6
CONTINUOUS
 62
     2
 10
1234.875
 20
1385.0
 30
0.0
 11
1234.875
 21
1284.9
 31
0.0
  0
LINE
  8
0
  6
CONTINUOUS
 62
     2
 10
1177.125
 20
1385.0
 30
0.0
 11
1177.125
 21
1284.9
 31
0.0
  0
LINE
  8
0
  6
CONTINUOUS
 62
     1
 10
1100.125
 20
1385.0
 30
0.0
 11
1100.125
 21
1284.9
 31
0.0
  0
LINE
  8
0
  6
CONTINUOUS
 62
     1
 10
1100.125
 20
1385.0
 30
0.0
 11
1292.625
 21
1385.0
 31
0.0
  0
LINE
  8
0
  6
CONTINUOUS
 62
     1
 10
1100.125
 20
1354.2
 30
0.0
 11
1292.625
 21
1354.2
 31
0.0
  0
LINE
  8
0
  6
CONTINUOUS
 62
     2
 10
1100.125
 20
1331.1
 30
0.0
 11
1292.625
 21
1331.1
 31
0.0
  0
LINE
  8
0
  6
CONTINUOUS
 62
     2
 10
1100.125
 20
1308.0
 30
0.0
 11
1292.625
 21
1308.0
 31
0.0
  0
LINE
  8
0
  6
CONTINUOUS
 62
     1
 10
1100.125
 20
1284.9
 30
0.0
 11
1292.625
 21
1284.9
 31
0.0
  0
TEXT
  8
0
  6
CONTINUOUS
 62
     2
 10
1242.575
 20
1371.525
 30
1.155
 40
11.55
  1
起動電流
 50
0.0
 41
0.9
 51
0.0
  7
KANJI27
  0
TEXT
  8
0
  6
CONTINUOUS
 62
     2
 10
1242.575
 20
1358.05
 30
1.155
 40
11.55
  1
　　　Ａ
 50
0.0
 41
0.9
 51
0.0
  7
KANJI27
  0
TEXT
  8
0
  6
CONTINUOUS
 62
     2
 10
1184.825
 20
1371.525
 30
1.155
 40
11.55
  1
定格電流
 50
0.0
 41
0.9
 51
0.0
  7
KANJI27
  0
TEXT
  8
0
  6
CONTINUOUS
 62
     2
 10
1184.825
 20
1358.05
 30
1.155
 40
11.55
  1
　　　Ａ
 50
0.0
 41
0.9
 51
0.0
  7
KANJI27
  0
TEXT
  8
0
  6
CONTINUOUS
 62
     2
 10
1106.67
 20
1313.775
 30
1.155
 40
11.55
  1
２００／６０
 50
0.0
 41
0.9
 51
0.0
  7
KANJI27
  0
TEXT
  8
0
  6
CONTINUOUS
 62
     2
 10
1106.67
 20
1371.525
 30
1.155
 40
11.55
  1
電圧／周波数
 50
0.0
 41
0.9
 51
0.0
  7
KANJI27
  0
TEXT
  8
0
  6
CONTINUOUS
 62
     2
 10
1106.67
 20
1358.05
 30
1.155
 40
11.55
  1
　Ｖ／Ｈｚ
 50
0.0
 41
0.9
 51
0.0
  7
KANJI27
  0
TEXT
  8
0
  6
CONTINUOUS
 62
     2
 10
1106.67
 20
1336.875
 30
1.155
 40
11.55
  1
２００／５０
 50
0.0
 41
0.9
 51
0.0
  7
KANJI27
  0
TEXT
  8
0
  6
CONTINUOUS
 62
     2
 10
1106.67
 20
1290.675
 30
1.155
 40
11.55
  1
２２０／６０
 50
0.0
 41
0.9
 51
0.0
  7
KANJI27
  0
LINE
  8
0
  6
CONTINUOUS
 62
     1
 10
1061.625
 20
1385.0
 30
0.0
 11
1061.625
 21
1284.9
 31
0.0
  0
LINE
  8
0
  6
CONTINUOUS
 62
     2
 10
1003.875
 20
1385.0
 30
0.0
 11
1003.875
 21
1284.9
 31
0.0
  0
LINE
  8
0
  6
CONTINUOUS
 62
     2
 10
946.125
 20
1385.0
 30
0.0
 11
946.125
 21
1284.9
 31
0.0
  0
LINE
  8
0
  6
CONTINUOUS
 62
     1
 10
869.125
 20
1385.0
 30
0.0
 11
869.125
 21
1284.9
 31
0.0
  0
LINE
  8
0
  6
CONTINUOUS
 62
     1
 10
869.125
 20
1385.0
 30
0.0
 11
1061.625
 21
1385.0
 31
0.0
  0
LINE
  8
0
  6
CONTINUOUS
 62
     1
 10
869.125
 20
1354.2
 30
0.0
 11
1061.625
 21
1354.2
 31
0.0
  0
LINE
  8
0
  6
CONTINUOUS
 62
     2
 10
869.125
 20
1331.1
 30
0.0
 11
1061.625
 21
1331.1
 31
0.0
  0
LINE
  8
0
  6
CONTINUOUS
 62
     2
 10
869.125
 20
1308.0
 30
0.0
 11
1061.625
 21
1308.0
 31
0.0
  0
LINE
  8
0
  6
CONTINUOUS
 62
     1
 10
869.125
 20
1284.9
 30
0.0
 11
1061.625
 21
1284.9
 31
0.0
  0
TEXT
  8
0
  6
CONTINUOUS
 62
     2
 10
1011.575
 20
1371.525
 30
1.155
 40
11.55
  1
起動電流
 50
0.0
 41
0.9
 51
0.0
  7
KANJI27
  0
TEXT
  8
0
  6
CONTINUOUS
 62
     2
 10
1011.575
 20
1358.05
 30
1.155
 40
11.55
  1
　　　Ａ
 50
0.0
 41
0.9
 51
0.0
  7
KANJI27
  0
TEXT
  8
0
  6
CONTINUOUS
 62
     2
 10
953.825
 20
1371.525
 30
1.155
 40
11.55
  1
定格電流
 50
0.0
 41
0.9
 51
0.0
  7
KANJI27
  0
TEXT
  8
0
  6
CONTINUOUS
 62
     2
 10
953.825
 20
1358.05
 30
1.155
 40
11.55
  1
　　　Ａ
 50
0.0
 41
0.9
 51
0.0
  7
KANJI27
  0
TEXT
  8
0
  6
CONTINUOUS
 62
     2
 10
875.67
 20
1371.525
 30
1.155
 40
11.55
  1
電圧／周波数
 50
0.0
 41
0.9
 51
0.0
  7
KANJI27
  0
TEXT
  8
0
  6
CONTINUOUS
 62
     2
 10
875.67
 20
1358.05
 30
1.155
 40
11.55
  1
　Ｖ／Ｈｚ
 50
0.0
 41
0.9
 51
0.0
  7
KANJI27
  0
TEXT
  8
0
  6
CONTINUOUS
 62
     2
 10
875.67
 20
1336.875
 30
1.155
 40
11.55
  1
４００／５０
 50
0.0
 41
0.9
 51
0.0
  7
KANJI27
  0
TEXT
  8
0
  6
CONTINUOUS
 62
     2
 10
875.67
 20
1313.775
 30
1.155
 40
11.55
  1
４００／６０
 50
0.0
 41
0.9
 51
0.0
  7
KANJI27
  0
TEXT
  8
0
  6
CONTINUOUS
 62
     2
 10
875.67
 20
1290.675
 30
1.155
 40
11.55
  1
４４０／６０
 50
0.0
 41
0.9
 51
0.0
  7
KANJI27
  0
TEXT
  8
0
  6
CONTINUOUS
 62
     2
 10
953.825
 20
1336.875
 30
1.155
 40
11.55
  1
　２．０
 50
0.0
 41
0.9
 51
0.0
  7
KANJI27
  0
TEXT
  8
0
  6
CONTINUOUS
 62
     2
 10
953.825
 20
1313.775
 30
1.155
 40
11.55
  1
　１．４
 50
0.0
 41
0.9
 51
0.0
  7
KANJI27
  0
TEXT
  8
0
  6
CONTINUOUS
 62
     2
 10
953.825
 20
1290.675
 30
1.155
 40
11.55
  1
　１．７
 50
0.0
 41
0.9
 51
0.0
  7
KANJI27
  0
TEXT
  8
0
  6
CONTINUOUS
 62
     2
 10
1184.825
 20
1336.875
 30
1.155
 40
11.55
  1
　４．０
 50
0.0
 41
0.9
 51
0.0
  7
KANJI27
  0
TEXT
  8
0
  6
CONTINUOUS
 62
     2
 10
1184.825
 20
1313.775
 30
1.155
 40
11.55
  1
　２．８
 50
0.0
 41
0.9
 51
0.0
  7
KANJI27
  0
TEXT
  8
0
  6
CONTINUOUS
 62
     2
 10
1184.825
 20
1290.675
 30
1.155
 40
11.55
  1
　３．３
 50
0.0
 41
0.9
 51
0.0
  7
KANJI27
  0
TEXT
  8
0
  6
CONTINUOUS
 62
     2
 10
1242.575
 20
1336.875
 30
1.155
 40
11.55
  1
　９．２
 50
0.0
 41
0.9
 51
0.0
  7
KANJI27
  0
TEXT
  8
0
  6
CONTINUOUS
 62
     2
 10
1242.575
 20
1313.775
 30
1.155
 40
11.55
  1
　８
 50
0.0
 41
0.9
 51
0.0
  7
KANJI27
  0
TEXT
  8
0
  6
CONTINUOUS
 62
     2
 10
1242.575
 20
1290.675
 30
1.155
 40
11.55
  1
　８．８
 50
0.0
 41
0.9
 51
0.0
  7
KANJI27
  0
TEXT
  8
0
  6
CONTINUOUS
 62
     2
 10
1011.575
 20
1336.875
 30
1.155
 40
11.55
  1
　４．６
 50
0.0
 41
0.9
 51
0.0
  7
KANJI27
  0
TEXT
  8
0
  6
CONTINUOUS
 62
     2
 10
1011.575
 20
1313.775
 30
1.155
 40
11.55
  1
　４
 50
0.0
 41
0.9
 51
0.0
  7
KANJI27
  0
TEXT
  8
0
  6
CONTINUOUS
 62
     2
 10
1011.575
 20
1290.675
 30
1.155
 40
11.55
  1
　４．４
 50
0.0
 41
0.9
 51
0.0
  7
KANJI27
  0
LINE
  8
0
  6
CONTINUOUS
 62
     2
 10
868.25
 20
1175.95
 30
0.0
 11
1516.25
 21
1175.95
 31
0.0
  0
LINE
  8
0
  6
CONTINUOUS
 62
     2
 10
868.25
 20
1147.95
 30
0.0
 11
1516.25
 21
1147.95
 31
0.0
  0
LINE
  8
0
  6
CONTINUOUS
 62
     2
 10
868.25
 20
1119.95
 30
0.0
 11
1516.25
 21
1119.95
 31
0.0
  0
LINE
  8
0
  6
CONTINUOUS
 62
     2
 10
868.25
 20
1063.95
 30
0.0
 11
1516.25
 21
1063.95
 31
0.0
  0
LINE
  8
0
  6
CONTINUOUS
 62
     2
 10
868.25
 20
1091.95
 30
0.0
 11
1516.25
 21
1091.95
 31
0.0
  0
LINE
  8
0
  6
CONTINUOUS
 62
     2
 10
868.25
 20
1007.95
 30
0.0
 11
1516.25
 21
1007.95
 31
0.0
  0
LINE
  8
0
  6
CONTINUOUS
 62
     2
 10
868.25
 20
1035.95
 30
0.0
 11
1516.25
 21
1035.95
 31
0.0
  0
TEXT
  8
0
  6
CONTINUOUS
 62
     2
 10
1454.25
 20
1182.65
 30
1.2
 40
12.0
  1
　　２０
 50
0.0
 41
0.9
 51
0.0
  7
KANJI18
  0
TEXT
  8
0
  6
CONTINUOUS
 62
     2
 10
1454.25
 20
1154.65
 30
1.2
 40
12.0
  1
　　２１
 50
0.0
 41
0.9
 51
0.0
  7
KANJI18
  0
TEXT
  8
0
  6
CONTINUOUS
 62
     2
 10
1454.25
 20
1126.65
 30
1.2
 40
12.0
  1
　　２２
 50
0.0
 41
0.9
 51
0.0
  7
KANJI18
  0
TEXT
  8
0
  6
CONTINUOUS
 62
     2
 10
1454.25
 20
1098.65
 30
1.2
 40
12.0
  1
　　２４
 50
0.0
 41
0.9
 51
0.0
  7
KANJI18
  0
TEXT
  8
0
  6
CONTINUOUS
 62
     2
 10
1454.25
 20
1070.65
 30
1.2
 40
12.0
  1
　　２５
 50
0.0
 41
0.9
 51
0.0
  7
KANJI18
  0
TEXT
  8
0
  6
CONTINUOUS
 62
     2
 10
1454.25
 20
1042.65
 30
1.2
 40
12.0
  1
　　２６
 50
0.0
 41
0.9
 51
0.0
  7
KANJI18
  0
TEXT
  8
0
  6
CONTINUOUS
 62
     2
 10
1454.25
 20
1014.65
 30
1.2
 40
12.0
  1
　　２８
 50
0.0
 41
0.9
 51
0.0
  7
KANJI18
  0
LINE
  8
0
  6
LTYPE2
 62
     2
 10
535.7
 20
600.8
 30
0.0
 11
1075.6
 21
600.8
 31
0.0
  0
LINE
  8
0
  6
CONTINUOUS
 62
     1
 10
546.7
 20
543.8
 30
0.0
 11
546.7
 21
600.8
 31
0.0
  0
LINE
  8
0
  6
CONTINUOUS
 62
     1
 10
546.7
 20
657.8
 30
0.0
 11
546.7
 21
600.8
 31
0.0
  0
LINE
  8
0
  6
CONTINUOUS
 62
     1
 10
546.7
 20
563.8
 30
0.0
 11
675.1
 21
563.8
 31
0.0
  0
LINE
  8
0
  6
CONTINUOUS
 62
     1
 10
546.7
 20
637.8
 30
0.0
 11
675.1
 21
637.8
 31
0.0
  0
LINE
  8
0
  6
CONTINUOUS
 62
     1
 10
546.7
 20
657.8
 30
0.0
 11
583.7
 21
638.3
 31
0.0
  0
LINE
  8
0
  6
CONTINUOUS
 62
     1
 10
546.7
 20
543.8
 30
0.0
 11
583.7
 21
563.3
 31
0.0
  0
LINE
  8
0
  6
CONTINUOUS
 62
     1
 10
546.7
 20
603.8
 30
0.0
 11
592.7
 21
603.8
 31
0.0
  0
LINE
  8
0
  6
CONTINUOUS
 62
     1
 10
546.7
 20
597.8
 30
0.0
 11
591.7
 21
597.8
 31
0.0
  0
LINE
  8
0
  6
CONTINUOUS
 62
     1
 10
512.7
 20
600.8
 30
0.0
 11
512.7
 21
657.8
 31
0.0
  0
ARC
  8
0
  6
CONTINUOUS
 62
     1
 10
517.2
 20
659.3
 30
0.0
 40
1.5
 50
270.0
 51
0.0
  0
LINE
  8
0
  6
CONTINUOUS
 62
     1
 10
518.7
 20
659.3
 30
0.0
 11
518.7
 21
660.3
 31
0.0
  0
ARC
  8
0
  6
CONTINUOUS
 62
     1
 10
520.2
 20
660.3
 30
0.0
 40
1.5
 50
90.0
 51
180.0
  0
LINE
  8
0
  6
CONTINUOUS
 62
     1
 10
363.7
 20
600.8
 30
0.0
 11
363.7
 21
657.8
 31
0.0
  0
ARC
  8
0
  6
CONTINUOUS
 62
     1
 10
360.2
 20
656.3
 30
0.0
 40
1.5
 50
90.0
 51
180.0
  0
LINE
  8
0
  6
CONTINUOUS
 62
     1
 10
518.7
 20
600.8
 30
0.0
 11
518.7
 21
659.9
 31
0.0
  0
LINE
  8
0
  6
CONTINUOUS
 62
     1
 10
358.7
 20
643.870524155
 30
0.0
 11
358.7
 21
656.3
 31
0.0
  0
ARC
  8
0
  6
CONTINUOUS
 62
     1
 10
357.2
 20
643.870524155
 30
0.0
 40
1.5
 50
288.970407808
 51
0.0
  0
LINE
  8
0
  6
CONTINUOUS
 62
     1
 10
342.7
 20
600.8
 30
0.0
 11
342.7
 21
636.229475845
 31
0.0
  0
LINE
  8
0
  6
CONTINUOUS
 62
     1
 10
343.712380347
 20
637.648005744
 30
0.0
 11
357.687619653
 21
642.451994256
 31
0.0
  0
ARC
  8
0
  6
CONTINUOUS
 62
     1
 10
344.2
 20
636.229475845
 30
0.0
 40
1.5
 50
108.970407808
 51
180.0
  0
LINE
  8
0
  6
CONTINUOUS
 62
     1
 10
358.7
 20
600.8
 30
0.0
 11
358.7
 21
643.870524155
 31
0.0
  0
ARC
  8
0
  6
CONTINUOUS
 62
     1
 10
330.7
 20
617.3
 30
0.0
 40
1.0
 50
90.0
 51
180.0
  0
LINE
  8
0
  6
CONTINUOUS
 62
     1
 10
330.7
 20
618.3
 30
0.0
 11
342.7
 21
618.3
 31
0.0
  0
LINE
  8
0
  6
CONTINUOUS
 62
     1
 10
329.7
 20
600.8
 30
0.0
 11
329.7
 21
617.3
 31
0.0
  0
LINE
  8
0
  6
CONTINUOUS
 62
     1
 10
512.7
 20
600.8
 30
0.0
 11
512.7
 21
543.8
 31
0.0
  0
ARC
  8
0
  6
CONTINUOUS
 62
     1
 10
517.2
 20
542.3
 30
0.0
 40
1.5
 50
0.0
 51
90.0
  0
LINE
  8
0
  6
CONTINUOUS
 62
     1
 10
518.7
 20
542.3
 30
0.0
 11
518.7
 21
541.3
 31
0.0
  0
ARC
  8
0
  6
CONTINUOUS
 62
     1
 10
520.2
 20
541.3
 30
0.0
 40
1.5
 50
180.0
 51
270.0
  0
LINE
  8
0
  6
CONTINUOUS
 62
     1
 10
363.7
 20
600.8
 30
0.0
 11
363.7
 21
543.8
 31
0.0
  0
LINE
  8
0
  6
CONTINUOUS
 62
     1
 10
360.2
 20
543.8
 30
0.0
 11
517.2
 21
543.8
 31
0.0
  0
ARC
  8
0
  6
CONTINUOUS
 62
     1
 10
360.2
 20
545.3
 30
0.0
 40
1.5
 50
180.0
 51
270.0
  0
LINE
  8
0
  6
CONTINUOUS
 62
     1
 10
518.7
 20
600.8
 30
0.0
 11
518.7
 21
541.7
 31
0.0
  0
LINE
  8
0
  6
CONTINUOUS
 62
     1
 10
342.7
 20
600.8
 30
0.0
 11
342.7
 21
565.370524155
 31
0.0
  0
ARC
  8
0
  6
CONTINUOUS
 62
     1
 10
344.2
 20
565.370524155
 30
0.0
 40
1.5
 50
180.0
 51
251.029592192
  0
ARC
  8
0
  6
CONTINUOUS
 62
     1
 10
330.7
 20
584.3
 30
0.0
 40
1.0
 50
180.0
 51
270.0
  0
LINE
  8
0
  6
CONTINUOUS
 62
     1
 10
330.7
 20
583.3
 30
0.0
 11
342.7
 21
583.3
 31
0.0
  0
LINE
  8
0
  6
CONTINUOUS
 62
     1
 10
329.7
 20
600.8
 30
0.0
 11
329.7
 21
584.3
 31
0.0
  0
LINE
  8
0
  6
LTYPE3
 62
     2
 10
350.7
 20
636.862445841
 30
0.0
 11
361.7
 21
636.862445841
 31
0.0
  0
LINE
  8
0
  6
CONTINUOUS
 62
     1
 10
358.7
 20
557.729475845
 30
0.0
 11
358.7
 21
545.3
 31
0.0
  0
LINE
  8
0
  6
CONTINUOUS
 62
     1
 10
343.712380347
 20
563.951994256
 30
0.0
 11
357.687619653
 21
559.148005744
 31
0.0
  0
LINE
  8
0
  6
CONTINUOUS
 62
     1
 10
358.7
 20
600.8
 30
0.0
 11
358.7
 21
557.729475845
 31
0.0
  0
LINE
  8
0
  6
LTYPE3
 62
     2
 10
350.7
 20
564.737554159
 30
0.0
 11
361.7
 21
564.737554159
 31
0.0
  0
ARC
  8
0
  6
CONTINUOUS
 62
     1
 10
499.7
 20
660.8
 30
0.0
 40
3.0
 50
270.0
 51
0.0
  0
LINE
  8
0
  6
CONTINUOUS
 62
     1
 10
360.2
 20
657.8
 30
0.0
 11
517.2
 21
657.8
 31
0.0
  0
ARC
  8
0
  6
CONTINUOUS
 62
     1
 10
459.7
 20
660.8
 30
0.0
 40
3.0
 50
180.0
 51
270.0
  0
LINE
  8
0
  6
LTYPE3
 62
     2
 10
479.7
 20
645.8
 30
0.0
 11
479.7
 21
733.7321338
 31
0.0
  0
LINE
  8
0
  6
CONTINUOUS
 62
     1
 10
315.2
 20
616.3
 30
0.0
 11
329.7
 21
616.3
 31
0.0
  0
ARC
  8
0
  6
CONTINUOUS
 62
     1
 10
315.2
 20
614.8
 30
0.0
 40
1.5
 50
90.0
 51
180.0
  0
LINE
  8
0
  6
CONTINUOUS
 62
     1
 10
315.2
 20
585.3
 30
0.0
 11
329.7
 21
585.3
 31
0.0
  0
LINE
  8
0
  6
CONTINUOUS
 62
     1
 10
313.7
 20
586.8
 30
0.0
 11
313.7
 21
614.8
 31
0.0
  0
ARC
  8
0
  6
CONTINUOUS
 62
     1
 10
315.2
 20
586.8
 30
0.0
 40
1.5
 50
180.0
 51
270.0
  0
LINE
  8
2
  6
CONTINUOUS
 62
     2
 10
319.3
 20
618.3
 30
0.0
 11
319.980459689
 21
628.276821869
 31
0.0
  0
LINE
  8
2
  6
CONTINUOUS
 62
     2
 10
319.3
 20
618.3
 30
0.0
 11
314.900884442
 21
627.280411032
 31
0.0
  0
LINE
  8
2
  6
CONTINUOUS
 62
     2
 10
255.7
 20
539.8
 30
0.0
 11
258.288190451
 21
549.459258263
 31
0.0
  0
LINE
  8
2
  6
CONTINUOUS
 62
     2
 10
255.7
 20
539.8
 30
0.0
 11
253.111809549
 21
549.459258263
 31
0.0
  0
LINE
  8
2
  6
CONTINUOUS
 62
     2
 10
255.7
 20
539.8
 30
0.0
 11
255.7
 21
661.8
 31
0.0
  0
LINE
  8
2
  6
CONTINUOUS
 62
     2
 10
255.7
 20
661.8
 30
0.0
 11
253.111809549
 21
652.140741737
 31
0.0
  0
LINE
  8
2
  6
CONTINUOUS
 62
     2
 10
255.7
 20
661.8
 30
0.0
 11
258.288190451
 21
652.140741737
 31
0.0
  0
LINE
  8
2
  6
CONTINUOUS
 62
     2
 10
290.7
 20
657.8
 30
0.0
 11
288.111809549
 21
648.140741737
 31
0.0
  0
LINE
  8
2
  6
CONTINUOUS
 62
     2
 10
290.7
 20
657.8
 30
0.0
 11
293.288190451
 21
648.140741737
 31
0.0
  0
LINE
  8
2
  6
CONTINUOUS
 62
     2
 10
290.7
 20
657.8
 30
0.0
 11
290.7
 21
543.8
 31
0.0
  0
LINE
  8
2
  6
CONTINUOUS
 62
     2
 10
290.7
 20
543.8
 30
0.0
 11
293.288190451
 21
553.459258263
 31
0.0
  0
LINE
  8
2
  6
CONTINUOUS
 62
     2
 10
290.7
 20
543.8
 30
0.0
 11
288.111809549
 21
553.459258263
 31
0.0
  0
TEXT
  8
2
  6
CONTINUOUS
 62
     2
 10
251.7
 20
575.0
 30
1.2
 40
14.0
  1
ロ１２２
 50
90.0
 41
0.857142857
 51
0.0
  7
KANJI28
  0
LINE
  8
2
  6
CONTINUOUS
 62
     2
 10
354.7
 20
657.8
 30
0.0
 11
286.2
 21
657.8
 31
0.0
  0
LINE
  8
2
  6
CONTINUOUS
 62
     2
 10
516.200009344
 20
661.8
 30
0.0
 11
251.2
 21
661.8
 31
0.0
  0
LINE
  8
2
  6
CONTINUOUS
 62
     2
 10
516.200012063
 20
539.8
 30
0.0
 11
251.2
 21
539.8
 31
0.0
  0
LINE
  8
2
  6
CONTINUOUS
 62
     2
 10
354.7
 20
543.8
 30
0.0
 11
286.2
 21
543.8
 31
0.0
  0
LINE
  8
0
  6
CONTINUOUS
 62
     1
 10
413.7
 20
678.8
 30
0.0
 11
413.7
 21
712.8
 31
0.0
  0
LINE
  8
0
  6
CONTINUOUS
 62
     1
 10
413.7
 20
678.8
 30
0.0
 11
439.7
 21
678.8
 31
0.0
  0
LINE
  8
0
  6
CONTINUOUS
 62
     1
 10
413.7
 20
712.8
 30
0.0
 11
439.7
 21
712.8
 31
0.0
  0
LINE
  8
0
  6
LTYPE3
 62
     2
 10
406.770524155
 20
695.8
 30
0.0
 11
446.770524155
 21
695.8
 31
0.0
  0
LINE
  8
0
  6
CONTINUOUS
 62
     1
 10
509.7
 20
670.8
 30
0.0
 11
509.7
 21
673.8
 31
0.0
  0
ARC
  8
0
  6
CONTINUOUS
 62
     1
 10
505.7
 20
667.8
 30
0.0
 40
3.0
 50
90.0
 51
180.0
  0
LINE
  8
0
  6
CONTINUOUS
 62
     1
 10
502.7
 20
660.8
 30
0.0
 11
502.7
 21
667.8
 31
0.0
  0
LINE
  8
0
  6
CONTINUOUS
 62
     1
 10
449.7
 20
670.8
 30
0.0
 11
449.7
 21
673.8
 31
0.0
  0
ARC
  8
0
  6
CONTINUOUS
 62
     1
 10
453.7
 20
667.8
 30
0.0
 40
3.0
 50
0.0
 51
90.0
  0
LINE
  8
0
  6
CONTINUOUS
 62
     1
 10
456.7
 20
660.8
 30
0.0
 11
456.7
 21
667.8
 31
0.0
  0
LINE
  8
0
  6
CONTINUOUS
 62
     1
 10
449.7
 20
670.8
 30
0.0
 11
509.7
 21
670.8
 31
0.0
  0
LINE
  8
0
  6
CONTINUOUS
 62
     1
 10
524.787912088
 20
675.8
 30
0.0
 11
432.7
 21
719.820045888
 31
0.0
  0
LINE
  8
0
  6
CONTINUOUS
 62
     1
 10
526.7
 20
679.8
 30
0.0
 11
524.787912088
 21
675.8
 31
0.0
  0
LINE
  8
0
  6
CONTINUOUS
 62
     1
 10
526.7
 20
679.8
 30
0.0
 11
434.612087912
 21
723.820045888
 31
0.0
  0
LINE
  8
0
  6
CONTINUOUS
 62
     1
 10
434.612087912
 20
723.820045888
 30
0.0
 11
432.7
 21
719.820045888
 31
0.0
  0
LINE
  8
0
  6
CONTINUOUS
 62
     1
 10
519.7
 20
683.146153846
 30
0.0
 11
519.7
 21
722.8
 31
0.0
  0
ARC
  8
0
  6
CONTINUOUS
 62
     1
 10
516.7
 20
722.8
 30
0.0
 40
3.0
 50
0.0
 51
90.0
  0
LINE
  8
0
  6
CONTINUOUS
 62
     1
 10
519.7
 20
676.8
 30
0.0
 11
519.7
 21
678.2321338
 31
0.0
  0
ARC
  8
0
  6
CONTINUOUS
 62
     1
 10
516.7
 20
676.8
 30
0.0
 40
3.0
 50
270.0
 51
0.0
  0
LINE
  8
0
  6
CONTINUOUS
 62
     1
 10
439.7
 20
676.8
 30
0.0
 11
439.7
 21
716.473892042
 31
0.0
  0
LINE
  8
0
  6
CONTINUOUS
 62
     1
 10
442.7
 20
673.8
 30
0.0
 11
516.7
 21
673.8
 31
0.0
  0
ARC
  8
0
  6
CONTINUOUS
 62
     1
 10
442.7
 20
676.8
 30
0.0
 40
3.0
 50
180.0
 51
270.0
  0
LINE
  8
0
  6
CONTINUOUS
 62
     1
 10
439.7
 20
721.387912088
 30
0.0
 11
439.7
 21
722.8
 31
0.0
  0
LINE
  8
0
  6
CONTINUOUS
 62
     1
 10
442.7
 20
725.8
 30
0.0
 11
516.7
 21
725.8
 31
0.0
  0
ARC
  8
0
  6
CONTINUOUS
 62
     1
 10
442.7
 20
722.8
 30
0.0
 40
3.0
 50
90.0
 51
180.0
  0
LINE
  8
2
  6
CONTINUOUS
 62
     2
 10
319.3
 20
618.3
 30
0.0
 11
314.837353923
 21
641.05
 31
0.0
  0
LINE
  8
0
  6
CONTINUOUS
 62
     1
 10
357.4
 20
636.862445841
 30
0.0
 11
357.4
 21
632.250565841
 31
0.0
  0
LINE
  8
0
  6
CONTINUOUS
 62
     1
 10
357.4
 20
636.862445841
 30
0.0
 11
357.4
 21
641.474325841
 31
0.0
  0
LINE
  8
0
  6
CONTINUOUS
 62
     1
 10
353.8998
 20
633.380005841
 30
0.0
 11
354.551882488
 21
632.250565841
 31
0.0
  0
LINE
  8
0
  6
CONTINUOUS
 62
     1
 10
353.8998
 20
636.862445841
 30
0.0
 11
353.8998
 21
633.380005841
 31
0.0
  0
LINE
  8
0
  6
CONTINUOUS
 62
     1
 10
353.8998
 20
640.344885841
 30
0.0
 11
354.551882488
 21
641.474325841
 31
0.0
  0
LINE
  8
0
  6
CONTINUOUS
 62
     1
 10
353.8998
 20
636.862445841
 30
0.0
 11
353.8998
 21
640.344885841
 31
0.0
  0
ARC
  8
0
  6
CONTINUOUS
 62
     1
 10
358.303054926
 20
636.862445841
 30
0.0
 40
4.403254926
 50
148.419912243
 51
211.580087757
  0
ARC
  8
0
  6
CONTINUOUS
 62
     1
 10
355.244720132
 20
633.403535841
 30
0.0
 40
1.34512595
 50
121.002313915
 51
182.989498403
  0
LINE
  8
0
  6
CONTINUOUS
 62
     1
 10
353.8998
 20
640.344885841
 30
0.0
 11
354.551882488
 21
641.474325841
 31
0.0
  0
ARC
  8
0
  6
CONTINUOUS
 62
     1
 10
355.244720132
 20
640.321355841
 30
0.0
 40
1.34512595
 50
177.010501597
 51
238.997686085
  0
LINE
  8
0
  6
CONTINUOUS
 62
     1
 10
357.4
 20
632.250565841
 30
0.0
 11
354.551882488
 21
632.250565841
 31
0.0
  0
LINE
  8
0
  6
CONTINUOUS
 62
     1
 10
357.4
 20
634.556505841
 30
0.0
 11
354.551882488
 21
634.556505841
 31
0.0
  0
LINE
  8
0
  6
CONTINUOUS
 62
     1
 10
357.4
 20
639.168385841
 30
0.0
 11
354.551882488
 21
639.168385841
 31
0.0
  0
LINE
  8
0
  6
CONTINUOUS
 62
     1
 10
357.4
 20
641.474325841
 30
0.0
 11
354.551882488
 21
641.474325841
 31
0.0
  0
LINE
  8
0
  6
CONTINUOUS
 62
     1
 10
358.7
 20
632.262445841
 30
0.0
 11
357.4
 21
632.262445841
 31
0.0
  0
LINE
  8
0
  6
CONTINUOUS
 62
     1
 10
358.7
 20
636.862445841
 30
0.0
 11
357.400000446
 21
635.562446287
 31
0.0
  0
LINE
  8
0
  6
CONTINUOUS
 62
     1
 10
357.400000446
 20
636.862445841
 30
0.0
 11
358.7
 21
638.162445394
 31
0.0
  0
LINE
  8
0
  6
CONTINUOUS
 62
     1
 10
358.7
 20
641.462445841
 30
0.0
 11
357.4
 21
641.462445841
 31
0.0
  0
LINE
  8
0
  6
CONTINUOUS
 62
     1
 10
328.7
 20
597.0
 30
0.0
 11
329.7
 21
597.0
 31
0.0
  0
LINE
  8
0
  6
CONTINUOUS
 62
     1
 10
325.9
 20
597.3
 30
0.0
 11
326.217542648
 21
596.75
 31
0.0
  0
LINE
  8
0
  6
CONTINUOUS
 62
     1
 10
326.217542648
 20
596.75
 30
0.0
 11
328.7
 21
596.75
 31
0.0
  0
ARC
  8
0
  6
CONTINUOUS
 62
     1
 10
327.672973788
 20
597.7625
 30
0.0
 40
1.772973788
 50
145.174816769
 51
214.825183231
  0
LINE
  8
0
  6
CONTINUOUS
 62
     1
 10
328.7
 20
604.85
 30
0.0
 11
328.7
 21
596.75
 31
0.0
  0
LINE
  8
0
  6
CONTINUOUS
 62
     1
 10
328.7
 20
604.6
 30
0.0
 11
329.7
 21
604.6
 31
0.0
  0
LINE
  8
0
  6
CONTINUOUS
 62
     1
 10
328.7
 20
600.8
 30
0.0
 11
329.7
 21
601.8
 31
0.0
  0
LINE
  8
0
  6
CONTINUOUS
 62
     1
 10
326.217542648
 20
604.85
 30
0.0
 11
328.7
 21
604.85
 31
0.0
  0
LINE
  8
0
  6
CONTINUOUS
 62
     1
 10
325.9
 20
604.3
 30
0.0
 11
326.217542648
 21
604.85
 31
0.0
  0
LINE
  8
0
  6
CONTINUOUS
 62
     1
 10
326.217542648
 20
602.825
 30
0.0
 11
328.7
 21
602.825
 31
0.0
  0
ARC
  8
0
  6
CONTINUOUS
 62
     1
 10
327.672973788
 20
603.8375
 30
0.0
 40
1.772973788
 50
145.174816769
 51
214.825183231
  0
LINE
  8
0
  6
CONTINUOUS
 62
     1
 10
328.7
 20
599.8
 30
0.0
 11
329.7
 21
600.8
 31
0.0
  0
LINE
  8
0
  6
CONTINUOUS
 62
     1
 10
326.217542648
 20
598.775
 30
0.0
 11
328.7
 21
598.775
 31
0.0
  0
LINE
  8
0
  6
CONTINUOUS
 62
     1
 10
325.9
 20
604.3
 30
0.0
 11
325.9
 21
597.3
 31
0.0
  0
ARC
  8
0
  6
CONTINUOUS
 62
     1
 10
332.515581181
 20
600.8
 30
0.0
 40
6.615581181
 50
162.175912681
 51
197.824087319
  0
ARC
  8
0
  6
CONTINUOUS
 62
     1
 10
357.2
 20
557.729475845
 30
0.0
 40
1.5
 50
0.0
 51
71.029592192
  0
LINE
  8
0
  6
CONTINUOUS
 62
     1
 10
357.4
 20
564.737554159
 30
0.0
 11
357.4
 21
569.349434159
 31
0.0
  0
LINE
  8
0
  6
CONTINUOUS
 62
     1
 10
353.8998
 20
568.219994159
 30
0.0
 11
354.551882488
 21
569.349434159
 31
0.0
  0
LINE
  8
0
  6
CONTINUOUS
 62
     1
 10
353.8998
 20
564.737554159
 30
0.0
 11
353.8998
 21
568.219994159
 31
0.0
  0
ARC
  8
0
  6
CONTINUOUS
 62
     1
 10
355.244720132
 20
568.196464159
 30
0.0
 40
1.34512595
 50
177.010501597
 51
238.997686085
  0
LINE
  8
0
  6
CONTINUOUS
 62
     1
 10
357.4
 20
569.349434159
 30
0.0
 11
354.551882488
 21
569.349434159
 31
0.0
  0
LINE
  8
0
  6
CONTINUOUS
 62
     1
 10
358.7
 20
569.337554159
 30
0.0
 11
357.4
 21
569.337554159
 31
0.0
  0
LINE
  8
0
  6
CONTINUOUS
 62
     1
 10
357.4
 20
564.737554159
 30
0.0
 11
357.4
 21
560.125674159
 31
0.0
  0
LINE
  8
0
  6
CONTINUOUS
 62
     1
 10
353.8998
 20
561.255114159
 30
0.0
 11
354.551882488
 21
560.125674159
 31
0.0
  0
LINE
  8
0
  6
CONTINUOUS
 62
     1
 10
353.8998
 20
564.737554159
 30
0.0
 11
353.8998
 21
561.255114159
 31
0.0
  0
ARC
  8
0
  6
CONTINUOUS
 62
     1
 10
358.303054926
 20
564.737554159
 30
0.0
 40
4.403254926
 50
148.419912243
 51
211.580087757
  0
LINE
  8
0
  6
CONTINUOUS
 62
     1
 10
353.8998
 20
561.255114159
 30
0.0
 11
354.551882488
 21
560.125674159
 31
0.0
  0
ARC
  8
0
  6
CONTINUOUS
 62
     1
 10
355.244720132
 20
561.278644159
 30
0.0
 40
1.34512595
 50
121.002313915
 51
182.989498403
  0
LINE
  8
0
  6
CONTINUOUS
 62
     1
 10
357.4
 20
562.431614159
 30
0.0
 11
354.551882488
 21
562.431614159
 31
0.0
  0
LINE
  8
0
  6
CONTINUOUS
 62
     1
 10
357.4
 20
560.125674159
 30
0.0
 11
354.551882488
 21
560.125674159
 31
0.0
  0
LINE
  8
0
  6
CONTINUOUS
 62
     1
 10
358.7
 20
560.137554159
 30
0.0
 11
357.4
 21
560.137554159
 31
0.0
  0
LINE
  8
0
  6
CONTINUOUS
 62
     1
 10
357.4
 20
567.043494159
 30
0.0
 11
354.551882488
 21
567.043494159
 31
0.0
  0
LINE
  8
0
  6
CONTINUOUS
 62
     1
 10
358.7
 20
564.737554159
 30
0.0
 11
357.400000446
 21
566.037553713
 31
0.0
  0
LINE
  8
0
  6
CONTINUOUS
 62
     1
 10
357.400000446
 20
564.737554159
 30
0.0
 11
358.7
 21
563.437554606
 31
0.0
  0
LINE
  8
0
  6
CONTINUOUS
 62
     2
 10
413.7
 20
695.8
 30
0.0
 11
414.319310852
 21
705.78080428
 31
0.0
  0
LINE
  8
0
  6
CONTINUOUS
 62
     2
 10
413.7
 20
695.8
 30
0.0
 11
409.245936791
 21
704.753285482
 31
0.0
  0
LINE
  8
0
  6
LTYPE2
 62
     2
 10
535.7
 20
600.8
 30
0.0
 11
306.7
 21
600.8
 31
0.0
  0
LINE
  8
0
  6
CONTINUOUS
 62
     1
 10
546.7
 20
657.8
 30
0.0
 11
535.7
 21
657.8
 31
0.0
  0
LINE
  8
0
  6
CONTINUOUS
 62
     1
 10
546.7
 20
543.8
 30
0.0
 11
535.7
 21
543.8
 31
0.0
  0
LINE
  8
0
  6
CONTINUOUS
 62
     1
 10
535.7
 20
540.8
 30
0.0
 11
535.7
 21
600.8
 31
0.0
  0
LINE
  8
0
  6
CONTINUOUS
 62
     1
 10
526.7
 20
540.8
 30
0.0
 11
535.7
 21
540.8
 31
0.0
  0
LINE
  8
0
  6
CONTINUOUS
 62
     1
 10
526.7
 20
539.8
 30
0.0
 11
526.7
 21
600.8
 31
0.0
  0
LINE
  8
0
  6
CONTINUOUS
 62
     1
 10
520.199990656
 20
539.8
 30
0.0
 11
526.7
 21
539.8
 31
0.0
  0
LINE
  8
0
  6
CONTINUOUS
 62
     1
 10
520.2
 20
661.8
 30
0.0
 11
526.7
 21
661.8
 31
0.0
  0
LINE
  8
0
  6
CONTINUOUS
 62
     1
 10
526.7
 20
661.8
 30
0.0
 11
526.7
 21
539.8
 31
0.0
  0
LINE
  8
0
  6
CONTINUOUS
 62
     1
 10
535.7
 20
659.8
 30
0.0
 11
535.7
 21
600.8
 31
0.0
  0
LINE
  8
0
  6
CONTINUOUS
 62
     1
 10
535.7
 20
659.8
 30
0.0
 11
535.7
 21
540.8
 31
0.0
  0
LINE
  8
0
  6
CONTINUOUS
 62
     1
 10
526.7
 20
659.8
 30
0.0
 11
535.7
 21
659.8
 31
0.0
  0
LINE
  8
2
  6
CONTINUOUS
 62
     2
 10
393.7
 20
600.8
 30
0.0
 11
396.288190451
 21
610.459258263
 31
0.0
  0
LINE
  8
2
  6
CONTINUOUS
 62
     2
 10
393.7
 20
600.8
 30
0.0
 11
391.111809549
 21
610.459258263
 31
0.0
  0
LINE
  8
2
  6
CONTINUOUS
 62
     2
 10
393.7
 20
600.8
 30
0.0
 11
393.7
 21
725.8
 31
0.0
  0
LINE
  8
2
  6
CONTINUOUS
 62
     2
 10
393.7
 20
725.8
 30
0.0
 11
391.111809549
 21
716.140741737
 31
0.0
  0
LINE
  8
2
  6
CONTINUOUS
 62
     2
 10
393.7
 20
725.8
 30
0.0
 11
396.288190451
 21
716.140741737
 31
0.0
  0
LINE
  8
2
  6
CONTINUOUS
 62
     2
 10
438.70001079
 20
725.8
 30
0.0
 11
389.7
 21
725.8
 31
0.0
  0
LINE
  8
0
  6
CONTINUOUS
 62
     2
 10
313.7
 20
799.3
 30
0.0
 11
323.359258263
 21
796.711809549
 31
0.0
  0
LINE
  8
0
  6
CONTINUOUS
 62
     2
 10
313.7
 20
799.3
 30
0.0
 11
323.359258263
 21
801.888190451
 31
0.0
  0
LINE
  8
0
  6
CONTINUOUS
 62
     2
 10
313.7
 20
828.8
 30
0.0
 11
323.359258263
 21
826.211809549
 31
0.0
  0
LINE
  8
0
  6
CONTINUOUS
 62
     2
 10
313.7
 20
828.8
 30
0.0
 11
323.359258263
 21
831.388190451
 31
0.0
  0
LINE
  8
0
  6
CONTINUOUS
 62
     2
 10
625.7
 20
799.3
 30
0.0
 11
313.7
 21
799.3
 31
0.0
  0
LINE
  8
0
  6
CONTINUOUS
 62
     2
 10
1046.7
 20
828.8
 30
0.0
 11
313.7
 21
828.8
 31
0.0
  0
LINE
  8
2
  6
CONTINUOUS
 62
     2
 10
625.7
 20
768.8
 30
0.0
 11
535.7
 21
768.8
 31
0.0
  0
LINE
  8
2
  6
CONTINUOUS
 62
     2
 10
535.7
 20
768.8
 30
0.0
 11
545.359258263
 21
766.211809549
 31
0.0
  0
LINE
  8
2
  6
CONTINUOUS
 62
     2
 10
535.7
 20
768.8
 30
0.0
 11
545.359258263
 21
771.388190451
 31
0.0
  0
LINE
  8
2
  6
CONTINUOUS
 62
     2
 10
535.7
 20
641.3
 30
0.0
 11
535.7
 21
772.8
 31
0.0
  0
LINE
  8
2
  6
CONTINUOUS
 62
     2
 10
535.7
 20
768.8
 30
0.0
 11
526.040741737
 21
771.388190451
 31
0.0
  0
LINE
  8
2
  6
CONTINUOUS
 62
     2
 10
535.7
 20
768.8
 30
0.0
 11
526.040741737
 21
766.211809549
 31
0.0
  0
LINE
  8
2
  6
CONTINUOUS
 62
     2
 10
535.7
 20
768.8
 30
0.0
 11
313.7
 21
768.8
 31
0.0
  0
LINE
  8
2
  6
CONTINUOUS
 62
     2
 10
313.7
 20
768.8
 30
0.0
 11
323.359258263
 21
766.211809549
 31
0.0
  0
LINE
  8
2
  6
CONTINUOUS
 62
     2
 10
313.7
 20
768.8
 30
0.0
 11
323.359258263
 21
771.388190451
 31
0.0
  0
LINE
  8
2
  6
CONTINUOUS
 62
     2
 10
313.7
 20
764.8
 30
0.0
 11
313.7
 21
764.8
 31
0.0
  0
LINE
  8
0
  6
CONTINUOUS
 62
     2
 10
413.7
 20
695.8
 30
0.0
 11
405.959815338
 21
734.017161767
 31
0.0
  0
LINE
  8
0
  6
CONTINUOUS
 62
     2
 10
405.959815338
 20
734.017161767
 30
0.0
 11
360.853486224
 21
734.017161767
 31
0.0
  0
LINE
  8
0
  6
CONTINUOUS
 62
     2
 10
313.7
 20
616.3
 30
0.0
 11
313.7
 21
834.8
 31
0.0
  0
TEXT
  8
2
  6
CONTINUOUS
 62
     2
 10
286.7
 20
575.0
 30
0.0
 40
15.0
  1
φ１１４
 50
90.0
 41
0.9
 51
0.0
  7
KANJI29
  0
TEXT
  8
2
  6
CONTINUOUS
 62
     2
 10
389.70001079
 20
671.3
 30
0.0
 40
15.0
  1
１２５
 50
90.0
 41
0.9
 51
0.0
  7
KANJI29
  0
TEXT
  8
2
  6
CONTINUOUS
 62
     2
 10
405.5
 20
772.8
 30
0.0
 40
15.0
  1
２２２
 50
0.0
 41
0.9
 51
0.0
  7
KANJI29
  0
TEXT
  8
0
  6
CONTINUOUS
 62
     2
 10
484.2
 20
803.3
 30
0.0
 40
15.0
  1
３１２
 50
0.0
 41
0.9
 51
0.0
  7
KANJI29
  0
TEXT
  8
0
  6
CONTINUOUS
 62
     2
 10
360.853486224
 20
738.017161767
 30
0.0
 40
15.0
  1
ＰＦ３／４
 50
0.0
 41
0.9
 51
0.0
  7
KANJI29
  0
TEXT
  8
0
  6
CONTINUOUS
 62
     2
 10
371.0
 20
555.4
 30
0.0
 40
15.0
  1
エコノストップモータ
 50
0.0
 41
0.9
 51
0.0
  7
KANJI29
  0
TEXT
  8
0
  6
CONTINUOUS
 62
     2
 10
373.9
 20
572.4
 30
0.0
 40
15.0
  1
日本電産
 50
0.0
 41
0.9
 51
0.0
  7
KANJI29
  0
LINE
  8
0
  6
CONTINUOUS
 62
     1
 10
1011.7
 20
621.05
 30
0.0
 11
1011.7
 21
630.05
 31
0.0
  0
LINE
  8
0
  6
CONTINUOUS
 62
     1
 10
995.7
 20
630.05
 30
0.0
 11
995.7
 21
565.05
 31
0.0
  0
LINE
  8
0
  6
LTYPE2
 62
     2
 10
863.699501379
 20
448.05
 30
0.0
 11
863.699501379
 21
513.35
 31
0.0
  0
LINE
  8
0
  6
LTYPE2
 62
     2
 10
863.699501379
 20
445.55
 30
0.0
 11
863.699501379
 21
533.85
 31
0.0
  0
LINE
  8
0
  6
LTYPE2
 62
     2
 10
625.7
 20
532.55
 30
0.0
 11
625.7
 21
665.05
 31
0.0
  0
LINE
  8
0
  6
CONTINUOUS
 62
     1
 10
683.1
 20
560.8
 30
0.0
 11
683.1
 21
640.8
 31
0.0
  0
LINE
  8
0
  6
CONTINUOUS
 62
     1
 10
683.1
 20
632.55
 30
0.0
 11
705.399501379
 21
632.55
 31
0.0
  0
LINE
  8
0
  6
CONTINUOUS
 62
     1
 10
683.1
 20
569.05
 30
0.0
 11
705.399501379
 21
569.05
 31
0.0
  0
LINE
  8
0
  6
CONTINUOUS
 62
     1
 10
683.1
 20
560.8
 30
0.0
 11
683.1
 21
640.8
 31
0.0
  0
LINE
  8
0
  6
CONTINUOUS
 62
     1
 10
675.1
 20
560.8
 30
0.0
 11
683.1
 21
560.8
 31
0.0
  0
LINE
  8
0
  6
CONTINUOUS
 62
     1
 10
675.1
 20
640.8
 30
0.0
 11
683.1
 21
640.8
 31
0.0
  0
LINE
  8
0
  6
CONTINUOUS
 62
     1
 10
675.1
 20
637.8
 30
0.0
 11
683.1
 21
637.8
 31
0.0
  0
LINE
  8
0
  6
CONTINUOUS
 62
     1
 10
675.1
 20
563.8
 30
0.0
 11
683.1
 21
563.8
 31
0.0
  0
LINE
  8
0
  6
CONTINUOUS
 62
     1
 10
675.1
 20
599.3
 30
0.0
 11
683.1
 21
599.3
 31
0.0
  0
LINE
  8
0
  6
CONTINUOUS
 62
     1
 10
675.1
 20
602.3
 30
0.0
 11
683.1
 21
602.3
 31
0.0
  0
LINE
  8
0
  6
CONTINUOUS
 62
     1
 10
675.1
 20
560.8
 30
0.0
 11
675.1
 21
640.8
 31
0.0
  0
LINE
  8
0
  6
CONTINUOUS
 62
     1
 10
739.6
 20
613.3
 30
0.0
 11
764.6
 21
613.3
 31
0.0
  0
LINE
  8
0
  6
CONTINUOUS
 62
     1
 10
764.6
 20
588.3
 30
0.0
 11
764.6
 21
613.3
 31
0.0
  0
LINE
  8
0
  6
CONTINUOUS
 62
     1
 10
739.6
 20
588.3
 30
0.0
 11
764.6
 21
588.3
 31
0.0
  0
LINE
  8
0
  6
CONTINUOUS
 62
     1
 10
739.6
 20
588.3
 30
0.0
 11
739.6
 21
613.3
 31
0.0
  0
CIRCLE
  8
0
  6
CONTINUOUS
 62
     1
 10
752.1
 20
600.8
 30
0.0
 40
12.5
  0
LINE
  8
0
  6
LTYPE2
 62
     2
 10
752.1
 20
619.5
 30
0.0
 11
752.1
 21
579.8
 31
0.0
  0
LINE
  8
0
  6
CONTINUOUS
 62
     2
 10
747.550185255
 20
592.65
 30
0.0
 11
747.360119959
 21
582.651806404
 31
0.0
  0
LINE
  8
0
  6
CONTINUOUS
 62
     2
 10
747.550185255
 20
592.65
 30
0.0
 11
742.386487082
 21
584.086343002
 31
0.0
  0
LINE
  8
0
  6
LTYPE1
 62
     2
 10
783.1
 20
560.8
 30
0.0
 11
783.1
 21
640.8
 31
0.0
  0
LINE
  8
0
  6
CONTINUOUS
 62
     2
 10
747.550185255
 20
592.65
 30
0.0
 11
726.448088834
 21
519.487641749
 31
0.0
  0
LINE
  8
0
  6
CONTINUOUS
 62
     1
 10
706.499501379
 20
569.05
 30
0.0
 11
825.699501379
 21
569.05
 31
0.0
  0
LINE
  8
0
  6
LTYPE1
 62
     2
 10
783.1
 20
560.55
 30
0.0
 11
783.1
 21
640.55
 31
0.0
  0
LINE
  8
0
  6
CONTINUOUS
 62
     2
 10
628.4
 20
607.8
 30
0.0
 11
652.510217755
 21
698.9
 31
0.0
  0
CIRCLE
  8
0
  6
CONTINUOUS
 62
     1
 10
625.7
 20
600.8
 30
0.0
 40
25.0
  0
CIRCLE
  8
0
  6
CONTINUOUS
 62
     1
 10
625.7
 20
600.8
 30
0.0
 40
33.75
  0
CIRCLE
  8
0
  6
CONTINUOUS
 62
     1
 10
625.7
 20
600.8
 30
0.0
 40
8.0
  0
LINE
  8
0
  6
CONTINUOUS
 62
     2
 10
628.4
 20
607.8
 30
0.0
 11
628.361568356
 21
620.29994092
 31
0.0
  0
LINE
  8
0
  6
CONTINUOUS
 62
     2
 10
628.4
 20
607.8
 30
0.0
 11
628.361568356
 21
620.29994092
 31
0.0
  0
LINE
  8
0
  6
CONTINUOUS
 62
     2
 10
628.4
 20
607.8
 30
0.0
 11
634.61668768
 21
618.644482205
 31
0.0
  0
LINE
  8
0
  6
CONTINUOUS
 62
     2
 10
628.4
 20
607.8
 30
0.0
 11
634.61668768
 21
618.644482205
 31
0.0
  0
LINE
  8
0
  6
CONTINUOUS
 62
     1
 10
1011.7
 20
580.8
 30
0.0
 11
1061.7
 21
580.8
 31
0.0
  0
LINE
  8
0
  6
CONTINUOUS
 62
     1
 10
1064.7
 20
583.8
 30
0.0
 11
1064.7
 21
600.8
 31
0.0
  0
LINE
  8
0
  6
CONTINUOUS
 62
     1
 10
1061.7
 20
580.8
 30
0.0
 11
1064.7
 21
583.8
 31
0.0
  0
LINE
  8
0
  6
CONTINUOUS
 62
     1
 10
1011.7
 20
620.8
 30
0.0
 11
1061.7
 21
620.8
 31
0.0
  0
LINE
  8
0
  6
CONTINUOUS
 62
     1
 10
1064.7
 20
617.8
 30
0.0
 11
1064.7
 21
600.8
 31
0.0
  0
LINE
  8
0
  6
CONTINUOUS
 62
     1
 10
1061.7
 20
620.8
 30
0.0
 11
1064.7
 21
617.8
 31
0.0
  0
CIRCLE
  8
0
  6
CONTINUOUS
 62
     1
 10
1046.7
 20
600.8
 30
0.0
 40
8.0
  0
LINE
  8
0
  6
CONTINUOUS
 62
     2
 10
1094.5
 20
580.8
 30
0.0
 11
1091.911809549
 21
590.459258263
 31
0.0
  0
LINE
  8
0
  6
CONTINUOUS
 62
     2
 10
1094.5
 20
620.8
 30
0.0
 11
1091.911809549
 21
611.140741737
 31
0.0
  0
LINE
  8
0
  6
LTYPE1
 62
     2
 10
1021.7
 20
580.8
 30
0.0
 11
1021.7
 21
600.8
 31
0.0
  0
LINE
  8
0
  6
LTYPE1
 62
     2
 10
1021.7
 20
620.8
 30
0.0
 11
1021.7
 21
600.8
 31
0.0
  0
LINE
  8
0
  6
CONTINUOUS
 62
     1
 10
921.7
 20
632.55
 30
0.0
 11
921.7
 21
600.8
 31
0.0
  0
LINE
  8
0
  6
CONTINUOUS
 62
     1
 10
951.7
 20
569.05
 30
0.0
 11
951.7
 21
600.8
 31
0.0
  0
LINE
  8
0
  6
CONTINUOUS
 62
     1
 10
901.7
 20
567.05
 30
0.0
 11
921.7
 21
567.05
 31
0.0
  0
LINE
  8
0
  6
CONTINUOUS
 62
     1
 10
921.7
 20
567.05
 30
0.0
 11
925.855575539
 21
551.541180955
 31
0.0
  0
ARC
  8
0
  6
CONTINUOUS
 62
     1
 10
926.821501365
 20
551.8
 30
0.0
 40
1.0
 50
195.0
 51
270.0
  0
ARC
  8
0
  6
CONTINUOUS
 62
     1
 10
926.821501365
 20
551.8
 30
0.0
 40
1.0
 50
270.0
 51
345.0
  0
LINE
  8
0
  6
CONTINUOUS
 62
     1
 10
930.069721439
 20
560.058819045
 30
0.0
 11
927.787427191
 21
551.541180955
 31
0.0
  0
ARC
  8
0
  6
CONTINUOUS
 62
     1
 10
931.035647265
 20
559.8
 30
0.0
 40
1.0
 50
90.0
 51
165.0
  0
ARC
  8
0
  6
CONTINUOUS
 62
     1
 10
935.249793166
 20
551.8
 30
0.0
 40
1.0
 50
195.0
 51
270.0
  0
LINE
  8
0
  6
CONTINUOUS
 62
     1
 10
932.001573092
 20
560.058819045
 30
0.0
 11
934.283867339
 21
551.541180955
 31
0.0
  0
ARC
  8
0
  6
CONTINUOUS
 62
     1
 10
931.035647265
 20
559.8
 30
0.0
 40
1.0
 50
15.0
 51
90.0
  0
ARC
  8
0
  6
CONTINUOUS
 62
     1
 10
935.249814745
 20
551.8
 30
0.0
 40
1.0
 50
270.0
 51
345.0
  0
LINE
  8
0
  6
CONTINUOUS
 62
     1
 10
938.498034819
 20
560.058819045
 30
0.0
 11
936.215740571
 21
551.541180955
 31
0.0
  0
ARC
  8
0
  6
CONTINUOUS
 62
     1
 10
939.463960645
 20
559.8
 30
0.0
 40
1.0
 50
90.0
 51
165.0
  0
LINE
  8
0
  6
CONTINUOUS
 62
     1
 10
904.7
 20
565.05
 30
0.0
 11
918.7
 21
565.05
 31
0.0
  0
LINE
  8
0
  6
CONTINUOUS
 62
     1
 10
901.7
 20
634.55
 30
0.0
 11
901.7
 21
600.8
 31
0.0
  0
LINE
  8
0
  6
CONTINUOUS
 62
     1
 10
921.7
 20
634.55
 30
0.0
 11
921.7
 21
600.8
 31
0.0
  0
LINE
  8
0
  6
CONTINUOUS
 62
     1
 10
921.7
 20
634.55
 30
0.0
 11
925.855575539
 21
650.058819045
 31
0.0
  0
ARC
  8
0
  6
CONTINUOUS
 62
     1
 10
926.821501365
 20
649.8
 30
0.0
 40
1.0
 50
90.0
 51
165.0
  0
ARC
  8
0
  6
CONTINUOUS
 62
     1
 10
926.821501365
 20
649.8
 30
0.0
 40
1.0
 50
15.0
 51
90.0
  0
LINE
  8
0
  6
CONTINUOUS
 62
     1
 10
930.069721439
 20
641.541180955
 30
0.0
 11
927.787427191
 21
650.058819045
 31
0.0
  0
ARC
  8
0
  6
CONTINUOUS
 62
     1
 10
931.035647265
 20
641.8
 30
0.0
 40
1.0
 50
195.0
 51
270.0
  0
ARC
  8
0
  6
CONTINUOUS
 62
     1
 10
935.249793166
 20
649.8
 30
0.0
 40
1.0
 50
90.0
 51
165.0
  0
LINE
  8
0
  6
CONTINUOUS
 62
     1
 10
932.001573092
 20
641.541180955
 30
0.0
 11
934.283867339
 21
650.058819045
 31
0.0
  0
ARC
  8
0
  6
CONTINUOUS
 62
     1
 10
931.035647265
 20
641.8
 30
0.0
 40
1.0
 50
270.0
 51
345.0
  0
ARC
  8
0
  6
CONTINUOUS
 62
     1
 10
935.249814745
 20
649.8
 30
0.0
 40
1.0
 50
15.0
 51
90.0
  0
LINE
  8
0
  6
CONTINUOUS
 62
     1
 10
938.498034819
 20
641.541180955
 30
0.0
 11
936.215740571
 21
650.058819045
 31
0.0
  0
ARC
  8
0
  6
CONTINUOUS
 62
     1
 10
939.463960645
 20
641.8
 30
0.0
 40
1.0
 50
195.0
 51
270.0
  0
LINE
  8
0
  6
CONTINUOUS
 62
     1
 10
904.7
 20
636.55
 30
0.0
 11
904.7
 21
600.8
 31
0.0
  0
LINE
  8
0
  6
CONTINUOUS
 62
     1
 10
904.7
 20
636.55
 30
0.0
 11
918.7
 21
636.55
 31
0.0
  0
LINE
  8
0
  6
CONTINUOUS
 62
     1
 10
918.7
 20
636.55
 30
0.0
 11
918.7
 21
600.8
 31
0.0
  0
LINE
  8
0
  6
CONTINUOUS
 62
     1
 10
901.7
 20
567.05
 30
0.0
 11
901.7
 21
569.05
 31
0.0
  0
LINE
  8
0
  6
CONTINUOUS
 62
     1
 10
921.7
 20
567.05
 30
0.0
 11
921.7
 21
569.05
 31
0.0
  0
LINE
  8
0
  6
CONTINUOUS
 62
     1
 10
918.7
 20
565.05
 30
0.0
 11
918.7
 21
567.05
 31
0.0
  0
LINE
  8
0
  6
CONTINUOUS
 62
     1
 10
904.7
 20
565.05
 30
0.0
 11
904.7
 21
567.05
 31
0.0
  0
LINE
  8
0
  6
CONTINUOUS
 62
     1
 10
918.7
 20
634.55
 30
0.0
 11
921.7
 21
634.55
 31
0.0
  0
LINE
  8
0
  6
CONTINUOUS
 62
     1
 10
901.7
 20
634.55
 30
0.0
 11
904.7
 21
634.55
 31
0.0
  0
LINE
  8
0
  6
CONTINUOUS
 62
     1
 10
926.821501365
 20
650.8
 30
0.0
 11
926.821501365
 21
600.8
 31
0.0
  0
LINE
  8
0
  6
CONTINUOUS
 62
     1
 10
931.035658055
 20
640.8
 30
0.0
 11
931.035658055
 21
600.8
 31
0.0
  0
LINE
  8
0
  6
CONTINUOUS
 62
     1
 10
935.249814745
 20
650.8
 30
0.0
 11
935.249814745
 21
600.8
 31
0.0
  0
LINE
  8
0
  6
CONTINUOUS
 62
     1
 10
939.463971435
 20
640.8
 30
0.0
 11
939.463971435
 21
600.8
 31
0.0
  0
LINE
  8
0
  6
CONTINUOUS
 62
     1
 10
921.7
 20
569.05
 30
0.0
 11
921.7
 21
600.8
 31
0.0
  0
LINE
  8
0
  6
CONTINUOUS
 62
     1
 10
978.7
 20
623.8
 30
0.0
 11
992.7
 21
623.8
 31
0.0
  0
LINE
  8
0
  6
CONTINUOUS
 62
     1
 10
992.7
 20
600.8
 30
0.0
 11
992.7
 21
623.8
 31
0.0
  0
LINE
  8
0
  6
CONTINUOUS
 62
     1
 10
992.7
 20
621.8
 30
0.0
 11
995.7
 21
621.8
 31
0.0
  0
LINE
  8
0
  6
CONTINUOUS
 62
     1
 10
975.7
 20
621.8
 30
0.0
 11
978.7
 21
621.8
 31
0.0
  0
LINE
  8
0
  6
CONTINUOUS
 62
     1
 10
975.7
 20
621.8
 30
0.0
 11
968.128072258
 21
650.058819045
 31
0.0
  0
ARC
  8
0
  6
CONTINUOUS
 62
     1
 10
967.162146432
 20
649.8
 30
0.0
 40
1.0
 50
15.0
 51
90.0
  0
ARC
  8
0
  6
CONTINUOUS
 62
     1
 10
967.162146432
 20
649.8
 30
0.0
 40
1.0
 50
90.0
 51
165.0
  0
LINE
  8
0
  6
CONTINUOUS
 62
     1
 10
963.913926358
 20
641.541180955
 30
0.0
 11
966.196220605
 21
650.058819045
 31
0.0
  0
ARC
  8
0
  6
CONTINUOUS
 62
     1
 10
962.948000531
 20
641.8
 30
0.0
 40
1.0
 50
270.0
 51
345.0
  0
ARC
  8
0
  6
CONTINUOUS
 62
     1
 10
962.948000531
 20
641.8
 30
0.0
 40
1.0
 50
195.0
 51
270.0
  0
LINE
  8
0
  6
CONTINUOUS
 62
     1
 10
961.982074705
 20
641.541180955
 30
0.0
 11
959.699780457
 21
650.058819045
 31
0.0
  0
ARC
  8
0
  6
CONTINUOUS
 62
     1
 10
958.733854631
 20
649.8
 30
0.0
 40
1.0
 50
15.0
 51
90.0
  0
ARC
  8
0
  6
CONTINUOUS
 62
     1
 10
954.519708731
 20
641.8
 30
0.0
 40
1.0
 50
270.0
 51
345.0
  0
LINE
  8
0
  6
CONTINUOUS
 62
     1
 10
955.485634557
 20
641.541180955
 30
0.0
 11
957.767928805
 21
650.058819045
 31
0.0
  0
ARC
  8
0
  6
CONTINUOUS
 62
     1
 10
958.733854631
 20
649.8
 30
0.0
 40
1.0
 50
90.0
 51
165.0
  0
LINE
  8
0
  6
CONTINUOUS
 62
     1
 10
978.7
 20
577.8
 30
0.0
 11
992.7
 21
577.8
 31
0.0
  0
LINE
  8
0
  6
CONTINUOUS
 62
     1
 10
992.7
 20
579.8
 30
0.0
 11
995.7
 21
579.8
 31
0.0
  0
LINE
  8
0
  6
CONTINUOUS
 62
     1
 10
975.7
 20
579.8
 30
0.0
 11
968.128072258
 21
551.541180955
 31
0.0
  0
ARC
  8
0
  6
CONTINUOUS
 62
     1
 10
967.162146432
 20
551.8
 30
0.0
 40
1.0
 50
270.0
 51
345.0
  0
ARC
  8
0
  6
CONTINUOUS
 62
     1
 10
967.162146432
 20
551.8
 30
0.0
 40
1.0
 50
195.0
 51
270.0
  0
LINE
  8
0
  6
CONTINUOUS
 62
     1
 10
963.913926358
 20
560.058819045
 30
0.0
 11
966.196220605
 21
551.541180955
 31
0.0
  0
ARC
  8
0
  6
CONTINUOUS
 62
     1
 10
962.948000531
 20
559.8
 30
0.0
 40
1.0
 50
15.0
 51
90.0
  0
ARC
  8
0
  6
CONTINUOUS
 62
     1
 10
962.948000531
 20
559.8
 30
0.0
 40
1.0
 50
90.0
 51
165.0
  0
LINE
  8
0
  6
CONTINUOUS
 62
     1
 10
961.982074705
 20
560.058819045
 30
0.0
 11
959.699780457
 21
551.541180955
 31
0.0
  0
ARC
  8
0
  6
CONTINUOUS
 62
     1
 10
958.733854631
 20
551.8
 30
0.0
 40
1.0
 50
270.0
 51
345.0
  0
ARC
  8
0
  6
CONTINUOUS
 62
     1
 10
954.519708731
 20
559.8
 30
0.0
 40
1.0
 50
15.0
 51
90.0
  0
LINE
  8
0
  6
CONTINUOUS
 62
     1
 10
955.485634557
 20
560.058819045
 30
0.0
 11
957.767928805
 21
551.541180955
 31
0.0
  0
ARC
  8
0
  6
CONTINUOUS
 62
     1
 10
958.733854631
 20
551.8
 30
0.0
 40
1.0
 50
195.0
 51
270.0
  0
LINE
  8
0
  6
CONTINUOUS
 62
     1
 10
958.733854631
 20
650.8
 30
0.0
 11
958.733854631
 21
600.8
 31
0.0
  0
LINE
  8
0
  6
CONTINUOUS
 62
     1
 10
954.319708731
 20
640.8
 30
0.0
 11
954.319708731
 21
600.8
 31
0.0
  0
LINE
  8
0
  6
CONTINUOUS
 62
     1
 10
962.948000531
 20
640.8
 30
0.0
 11
962.948000531
 21
600.8
 31
0.0
  0
LINE
  8
0
  6
CONTINUOUS
 62
     1
 10
967.162146432
 20
600.8
 30
0.0
 11
967.162146432
 21
650.8
 31
0.0
  0
LINE
  8
0
  6
CONTINUOUS
 62
     1
 10
978.7
 20
600.8
 30
0.0
 11
978.7
 21
623.8
 31
0.0
  0
LINE
  8
0
  6
CONTINUOUS
 62
     1
 10
975.7
 20
600.8
 30
0.0
 11
975.7
 21
621.8
 31
0.0
  0
LINE
  8
0
  6
CONTINUOUS
 62
     1
 10
975.7
 20
581.8
 30
0.0
 11
975.7
 21
579.8
 31
0.0
  0
LINE
  8
0
  6
CONTINUOUS
 62
     1
 10
978.7
 20
579.8
 30
0.0
 11
978.7
 21
577.8
 31
0.0
  0
LINE
  8
0
  6
CONTINUOUS
 62
     1
 10
992.7
 20
579.8
 30
0.0
 11
992.7
 21
577.8
 31
0.0
  0
LINE
  8
0
  6
CONTINUOUS
 62
     1
 10
975.7
 20
579.8
 30
0.0
 11
992.7
 21
579.8
 31
0.0
  0
LINE
  8
0
  6
LTYPE4
 62
     2
 10
939.463971435
 20
560.8
 30
0.0
 11
954.319708731
 21
560.8
 31
0.0
  0
LINE
  8
0
  6
LTYPE4
 62
     2
 10
939.463971435
 20
640.8
 30
0.0
 11
954.319708731
 21
640.8
 31
0.0
  0
LINE
  8
0
  6
CONTINUOUS
 62
     1
 10
951.7
 20
581.8
 30
0.0
 11
995.7
 21
581.8
 31
0.0
  0
POINT
  8
0
  6
CONTINUOUS
 62
     1
 10
878.339501379
 20
600.8
 30
0.0
  0
LINE
  8
0
  6
CONTINUOUS
 62
     1
 10
901.7
 20
569.05
 30
0.0
 11
951.7
 21
569.05
 31
0.0
  0
LINE
  8
0
  6
CONTINUOUS
 62
     1
 10
1011.7
 20
580.55
 30
0.0
 11
1011.7
 21
620.55
 31
0.0
  0
LINE
  8
0
  6
CONTINUOUS
 62
     1
 10
1011.7
 20
630.05
 30
0.0
 11
1011.7
 21
606.55
 31
0.0
  0
LINE
  8
0
  6
CONTINUOUS
 62
     1
 10
995.7
 20
600.8
 30
0.0
 11
995.7
 21
630.05
 31
0.0
  0
LINE
  8
0
  6
CONTINUOUS
 62
     1
 10
995.7
 20
630.05
 30
0.0
 11
1011.7
 21
630.05
 31
0.0
  0
LINE
  8
0
  6
LTYPE2
 62
     2
 10
1046.7
 20
296.9
 30
0.0
 11
1046.7
 21
614.9
 31
0.0
  0
LINE
  8
0
  6
LTYPE3
 62
     2
 10
863.699501379
 20
162.55
 30
0.0
 11
863.699501379
 21
473.55
 31
0.0
  0
LINE
  8
0
  6
CONTINUOUS
 62
     2
 10
625.7
 20
799.3
 30
0.0
 11
635.359258263
 21
796.711809549
 31
0.0
  0
LINE
  8
0
  6
CONTINUOUS
 62
     2
 10
625.7
 20
799.3
 30
0.0
 11
635.359258263
 21
801.888190451
 31
0.0
  0
LINE
  8
0
  6
CONTINUOUS
 62
     2
 10
625.7
 20
632.8
 30
0.0
 11
625.7
 21
805.3
 31
0.0
  0
LINE
  8
0
  6
CONTINUOUS
 62
     2
 10
625.7
 20
768.8
 30
0.0
 11
635.359258263
 21
766.211809549
 31
0.0
  0
LINE
  8
0
  6
CONTINUOUS
 62
     2
 10
625.7
 20
768.8
 30
0.0
 11
635.359258263
 21
771.388190451
 31
0.0
  0
LINE
  8
0
  6
CONTINUOUS
 62
     2
 10
625.7
 20
799.3
 30
0.0
 11
616.040741737
 21
801.888190451
 31
0.0
  0
LINE
  8
0
  6
CONTINUOUS
 62
     2
 10
625.7
 20
799.3
 30
0.0
 11
616.040741737
 21
796.711809549
 31
0.0
  0
LINE
  8
0
  6
CONTINUOUS
 62
     2
 10
1046.7
 20
799.3
 30
0.0
 11
625.7
 21
799.3
 31
0.0
  0
LINE
  8
0
  6
CONTINUOUS
 62
     2
 10
951.7
 20
768.8
 30
0.0
 11
625.7
 21
768.8
 31
0.0
  0
LINE
  8
2
  6
CONTINUOUS
 62
     2
 10
625.7
 20
768.8
 30
0.0
 11
616.040741737
 21
771.388190451
 31
0.0
  0
LINE
  8
2
  6
CONTINUOUS
 62
     2
 10
625.7
 20
768.8
 30
0.0
 11
616.040741737
 21
766.211809549
 31
0.0
  0
LINE
  8
0
  6
CONTINUOUS
 62
     2
 10
1046.7
 20
828.8
 30
0.0
 11
1037.040741737
 21
831.388190451
 31
0.0
  0
LINE
  8
0
  6
CONTINUOUS
 62
     2
 10
1046.7
 20
828.8
 30
0.0
 11
1037.040741737
 21
826.211809549
 31
0.0
  0
LINE
  8
0
  6
CONTINUOUS
 62
     2
 10
1026.7
 20
828.8
 30
0.0
 11
1084.7
 21
828.8
 31
0.0
  0
LINE
  8
0
  6
CONTINUOUS
 62
     2
 10
1064.7
 20
828.8
 30
0.0
 11
1074.359258263
 21
826.211809549
 31
0.0
  0
LINE
  8
0
  6
CONTINUOUS
 62
     2
 10
1064.7
 20
828.8
 30
0.0
 11
1074.359258263
 21
831.388190451
 31
0.0
  0
LINE
  8
0
  6
CONTINUOUS
 62
     2
 10
1046.7
 20
828.8
 30
0.0
 11
1046.7
 21
820.8
 31
0.0
  0
LINE
  8
0
  6
CONTINUOUS
 62
     2
 10
1046.7
 20
828.8
 30
0.0
 11
1037.040741737
 21
831.388190451
 31
0.0
  0
LINE
  8
0
  6
CONTINUOUS
 62
     2
 10
1046.7
 20
828.8
 30
0.0
 11
1037.040741737
 21
826.211809549
 31
0.0
  0
LINE
  8
0
  6
CONTINUOUS
 62
     2
 10
951.7
 20
768.8
 30
0.0
 11
961.359258263
 21
766.211809549
 31
0.0
  0
LINE
  8
0
  6
CONTINUOUS
 62
     2
 10
951.7
 20
768.8
 30
0.0
 11
961.359258263
 21
771.388190451
 31
0.0
  0
LINE
  8
0
  6
CONTINUOUS
 62
     2
 10
951.7
 20
768.8
 30
0.0
 11
1011.7
 21
768.8
 31
0.0
  0
LINE
  8
0
  6
CONTINUOUS
 62
     2
 10
1011.7
 20
768.8
 30
0.0
 11
1002.040741737
 21
771.388190451
 31
0.0
  0
LINE
  8
0
  6
CONTINUOUS
 62
     2
 10
1011.7
 20
768.8
 30
0.0
 11
1002.040741737
 21
766.211809549
 31
0.0
  0
LINE
  8
0
  6
CONTINUOUS
 62
     2
 10
1011.7
 20
768.8
 30
0.0
 11
1021.359258263
 21
766.211809549
 31
0.0
  0
LINE
  8
0
  6
CONTINUOUS
 62
     2
 10
1011.7
 20
768.8
 30
0.0
 11
1021.359258263
 21
771.388190451
 31
0.0
  0
LINE
  8
0
  6
CONTINUOUS
 62
     2
 10
1011.7
 20
768.8
 30
0.0
 11
1046.7
 21
768.8
 31
0.0
  0
LINE
  8
0
  6
CONTINUOUS
 62
     2
 10
1046.7
 20
768.8
 30
0.0
 11
1037.040741737
 21
771.388190451
 31
0.0
  0
LINE
  8
0
  6
CONTINUOUS
 62
     2
 10
1046.7
 20
768.8
 30
0.0
 11
1037.040741737
 21
766.211809549
 31
0.0
  0
LINE
  8
0
  6
CONTINUOUS
 62
     2
 10
1046.7
 20
799.3
 30
0.0
 11
1037.040741737
 21
801.888190451
 31
0.0
  0
LINE
  8
0
  6
CONTINUOUS
 62
     2
 10
1046.7
 20
799.3
 30
0.0
 11
1037.040741737
 21
796.711809549
 31
0.0
  0
LINE
  8
0
  6
CONTINUOUS
 62
     2
 10
951.7
 20
768.8
 30
0.0
 11
942.040741737
 21
771.388190451
 31
0.0
  0
LINE
  8
0
  6
CONTINUOUS
 62
     2
 10
951.7
 20
768.8
 30
0.0
 11
942.040741737
 21
766.211809549
 31
0.0
  0
LINE
  8
0
  6
CONTINUOUS
 62
     2
 10
1046.7
 20
828.8
 30
0.0
 11
1037.040741737
 21
831.388190451
 31
0.0
  0
LINE
  8
0
  6
CONTINUOUS
 62
     2
 10
1046.7
 20
828.8
 30
0.0
 11
1037.040741737
 21
826.211809549
 31
0.0
  0
LINE
  8
0
  6
CONTINUOUS
 62
     2
 10
1046.7
 20
588.8
 30
0.0
 11
1046.7
 21
831.3
 31
0.0
  0
LINE
  8
0
  6
CONTINUOUS
 62
     2
 10
1064.7
 20
620.8
 30
0.0
 11
1064.7
 21
831.8
 31
0.0
  0
LINE
  8
0
  6
CONTINUOUS
 62
     2
 10
911.4
 20
550.8
 30
0.0
 11
913.988190451
 21
560.459258263
 31
0.0
  0
LINE
  8
0
  6
CONTINUOUS
 62
     2
 10
911.4
 20
550.8
 30
0.0
 11
908.811809549
 21
560.459258263
 31
0.0
  0
LINE
  8
0
  6
CONTINUOUS
 62
     2
 10
911.4
 20
550.8
 30
0.0
 11
911.4
 21
707.2
 31
0.0
  0
LINE
  8
0
  6
CONTINUOUS
 62
     2
 10
911.4
 20
650.8
 30
0.0
 11
908.811809549
 21
641.140741737
 31
0.0
  0
LINE
  8
0
  6
CONTINUOUS
 62
     2
 10
911.4
 20
650.8
 30
0.0
 11
913.988190451
 21
641.140741737
 31
0.0
  0
LINE
  8
0
  6
LTYPE4
 62
     2
 10
905.4
 20
650.8
 30
0.0
 11
958.733854631
 21
650.8
 31
0.0
  0
LINE
  8
0
  6
LTYPE4
 62
     2
 10
905.4
 20
550.8
 30
0.0
 11
958.733854631
 21
550.8
 31
0.0
  0
TEXT
  8
0
  6
CONTINUOUS
 62
     2
 10
734.695769772
 20
523.487641749
 30
0.0
 40
15.0
  1
給脂口
 50
0.0
 41
0.9
 51
0.0
  7
KANJI29
  0
TEXT
  8
0
  6
CONTINUOUS
 62
     2
 10
652.8
 20
702.9
 30
0.0
 40
15.0
  1
φ１６Ｈ１０深２２
 50
0.0
 41
0.9
 51
0.0
  7
KANJI29
  0
TEXT
  8
0
  6
CONTINUOUS
 62
     2
 10
1090.5
 20
589.4
 30
0.0
 40
15.0
  1
４０
 50
90.0
 41
0.9
 51
0.0
  7
KANJI29
  0
TEXT
  8
0
  6
CONTINUOUS
 62
     2
 10
657.3
 20
832.8
 30
0.0
 40
15.0
  1
ｍｉｎ．ＡＬ
 50
0.0
 41
0.9
 51
0.0
  7
KANJI29
  0
TEXT
  8
2
  6
CONTINUOUS
 62
     2
 10
568.1
 20
772.8
 30
0.0
 40
15.0
  1
９０
 50
0.0
 41
0.9
 51
0.0
  7
KANJI29
  0
TEXT
  8
0
  6
CONTINUOUS
 62
     2
 10
1043.9
 20
832.8
 30
0.0
 40
15.0
  1
１８
 50
0.0
 41
0.9
 51
0.0
  7
KANJI29
  0
TEXT
  8
0
  6
CONTINUOUS
 62
     2
 10
1017.4
 20
772.8
 30
0.0
 40
15.0
  1
３５
 50
0.0
 41
0.9
 51
0.0
  7
KANJI29
  0
TEXT
  8
0
  6
CONTINUOUS
 62
     2
 10
942.1
 20
772.8
 30
0.0
 40
15.0
  1
ｍｉｎ．Ｐ
 50
0.0
 41
0.9
 51
0.0
  7
KANJI29
  0
TEXT
  8
0
  6
CONTINUOUS
 62
     2
 10
821.8
 20
803.3
 30
0.0
 40
15.0
  1
ｍｉｎ．Ｌ
 50
0.0
 41
0.9
 51
0.0
  7
KANJI29
  0
TEXT
  8
0
  6
CONTINUOUS
 62
     2
 10
803.3
 20
772.8
 30
0.0
 40
15.0
  1
Ｃ
 50
0.0
 41
0.9
 51
0.0
  7
KANJI29
  0
TEXT
  8
0
  6
CONTINUOUS
 62
     2
 10
909.9
 20
661.1
 30
0.0
 40
15.0
  1
φ９５
 50
90.0
 41
0.9
 51
0.0
  7
KANJI29
  0
LINE
  8
0
  6
CONTINUOUS
 62
     2
 10
652.510217755
 20
698.9
 30
0.0
 11
781.3
 21
698.9
 31
0.0
  0
LINE
  8
0
  6
CONTINUOUS
 62
     2
 10
726.448088834
 20
519.487641749
 30
0.0
 11
786.9
 21
519.487641749
 31
0.0
  0
LINE
  8
0
  6
CONTINUOUS
 62
     2
 10
1089.3
 20
600.8
 30
0.0
 11
1106.22
 21
600.8
 31
0.0
  0
LINE
  8
0
  6
CONTINUOUS
 62
     2
 10
951.7
 20
603.3
 30
0.0
 11
951.7
 21
773.55
 31
0.0
  0
LINE
  8
0
  6
CONTINUOUS
 62
     2
 10
1011.7
 20
771.3
 30
0.0
 11
1011.7
 21
635.8
 31
0.0
  0
LINE
  8
0
  6
CONTINUOUS
 62
     2
 10
1064.7
 20
620.8
 30
0.0
 11
1098.6
 21
620.8
 31
0.0
  0
LINE
  8
0
  6
CONTINUOUS
 62
     2
 10
1064.7
 20
580.8
 30
0.0
 11
1099.0
 21
580.8
 31
0.0
  0
LINE
  8
0
  6
CONTINUOUS
 62
     1
 10
1054.7
 20
335.8
 30
0.0
 11
1054.7
 21
327.8
 31
0.0
  0
LINE
  8
0
  6
CONTINUOUS
 62
     1
 10
1038.7
 20
327.8
 30
0.0
 11
1038.7
 21
335.8
 31
0.0
  0
LINE
  8
0
  6
CONTINUOUS
 62
     1
 10
1064.7
 20
327.8
 30
0.0
 11
1064.7
 21
315.8
 31
0.0
  0
LINE
  8
0
  6
CONTINUOUS
 62
     1
 10
1054.7
 20
304.8
 30
0.0
 11
1038.7
 21
304.8
 31
0.0
  0
LINE
  8
0
  6
CONTINUOUS
 62
     1
 10
1021.7
 20
335.8
 30
0.0
 11
1021.7
 21
327.8
 31
0.0
  0
LINE
  8
0
  6
CONTINUOUS
 62
     1
 10
1021.7
 20
327.8
 30
0.0
 11
1064.7
 21
327.8
 31
0.0
  0
LINE
  8
0
  6
CONTINUOUS
 62
     1
 10
1054.7
 20
335.8
 30
0.0
 11
1054.7
 21
343.8
 31
0.0
  0
LINE
  8
0
  6
CONTINUOUS
 62
     1
 10
1038.7
 20
343.8
 30
0.0
 11
1038.7
 21
335.8
 31
0.0
  0
LINE
  8
0
  6
CONTINUOUS
 62
     1
 10
1064.7
 20
343.8
 30
0.0
 11
1064.7
 21
355.8
 31
0.0
  0
LINE
  8
0
  6
CONTINUOUS
 62
     1
 10
1054.7
 20
366.8
 30
0.0
 11
1038.7
 21
366.8
 31
0.0
  0
LINE
  8
0
  6
CONTINUOUS
 62
     1
 10
1021.7
 20
335.8
 30
0.0
 11
1021.7
 21
343.8
 31
0.0
  0
LINE
  8
0
  6
CONTINUOUS
 62
     1
 10
1021.7
 20
343.8
 30
0.0
 11
1064.7
 21
343.8
 31
0.0
  0
LINE
  8
0
  6
CONTINUOUS
 62
     1
 10
1031.7
 20
358.8
 30
0.0
 11
1061.7
 21
358.8
 31
0.0
  0
LINE
  8
0
  6
CONTINUOUS
 62
     1
 10
1031.7
 20
355.8
 30
0.0
 11
1031.7
 21
358.8
 31
0.0
  0
LINE
  8
0
  6
CONTINUOUS
 62
     1
 10
1061.7
 20
355.8
 30
0.0
 11
1061.7
 21
358.8
 31
0.0
  0
LINE
  8
0
  6
CONTINUOUS
 62
     1
 10
1054.7
 20
358.8
 30
0.0
 11
1054.7
 21
366.8
 31
0.0
  0
LINE
  8
0
  6
CONTINUOUS
 62
     1
 10
1038.7
 20
366.8
 30
0.0
 11
1038.7
 21
358.8
 31
0.0
  0
LINE
  8
0
  6
LTYPE1
 62
     2
 10
1038.7
 20
358.8
 30
0.0
 11
1038.7
 21
343.8
 31
0.0
  0
LINE
  8
0
  6
LTYPE1
 62
     2
 10
1054.7
 20
343.8
 30
0.0
 11
1054.7
 21
358.8
 31
0.0
  0
LINE
  8
0
  6
LTYPE3
 62
     2
 10
1042.3
 20
361.45
 30
0.0
 11
1050.7
 21
361.45
 31
0.0
  0
CIRCLE
  8
0
  6
CONTINUOUS
 62
     1
 10
1046.7
 20
361.45
 30
0.0
 40
2.0
  0
LINE
  8
0
  6
CONTINUOUS
 62
     1
 10
1054.7
 20
304.8
 30
0.0
 11
1038.7
 21
304.8
 31
0.0
  0
LINE
  8
0
  6
CONTINUOUS
 62
     1
 10
1031.7
 20
312.8
 30
0.0
 11
1061.7
 21
312.8
 31
0.0
  0
LINE
  8
0
  6
CONTINUOUS
 62
     1
 10
1031.7
 20
315.8
 30
0.0
 11
1031.7
 21
312.8
 31
0.0
  0
LINE
  8
0
  6
CONTINUOUS
 62
     1
 10
1061.7
 20
315.8
 30
0.0
 11
1061.7
 21
312.8
 31
0.0
  0
LINE
  8
0
  6
CONTINUOUS
 62
     1
 10
1054.7
 20
312.8
 30
0.0
 11
1054.7
 21
304.8
 31
0.0
  0
LINE
  8
0
  6
CONTINUOUS
 62
     1
 10
1038.7
 20
304.8
 30
0.0
 11
1038.7
 21
312.8
 31
0.0
  0
LINE
  8
0
  6
LTYPE3
 62
     2
 10
1042.3
 20
310.15
 30
0.0
 11
1050.7
 21
310.15
 31
0.0
  0
CIRCLE
  8
0
  6
CONTINUOUS
 62
     1
 10
1046.7
 20
310.15
 30
0.0
 40
2.0
  0
LINE
  8
0
  6
CONTINUOUS
 62
     1
 10
1038.7
 20
304.8
 30
0.0
 11
1038.7
 21
312.8
 31
0.0
  0
LINE
  8
0
  6
CONTINUOUS
 62
     1
 10
1054.7
 20
312.8
 30
0.0
 11
1054.7
 21
304.8
 31
0.0
  0
LINE
  8
0
  6
LTYPE1
 62
     2
 10
1054.7
 20
327.8
 30
0.0
 11
1054.7
 21
312.8
 31
0.0
  0
LINE
  8
0
  6
LTYPE1
 62
     2
 10
1038.7
 20
312.8
 30
0.0
 11
1038.7
 21
327.8
 31
0.0
  0
LINE
  8
0
  6
CONTINUOUS
 62
     2
 10
1038.7
 20
393.9
 30
0.0
 11
1029.040741737
 21
396.488190451
 31
0.0
  0
LINE
  8
0
  6
CONTINUOUS
 62
     2
 10
1038.7
 20
393.9
 30
0.0
 11
1029.040741737
 21
391.311809549
 31
0.0
  0
LINE
  8
0
  6
CONTINUOUS
 62
     2
 10
1054.7
 20
393.9
 30
0.0
 11
1064.359258263
 21
391.311809549
 31
0.0
  0
LINE
  8
0
  6
CONTINUOUS
 62
     2
 10
1054.7
 20
393.9
 30
0.0
 11
1064.359258263
 21
396.488190451
 31
0.0
  0
LINE
  8
0
  6
CONTINUOUS
 62
     2
 10
1018.7
 20
393.9
 30
0.0
 11
1110.7
 21
393.9
 31
0.0
  0
LINE
  8
0
  6
CONTINUOUS
 62
     2
 10
1046.7
 20
406.15
 30
0.0
 11
1046.7
 21
414.65
 31
0.0
  0
LINE
  8
0
  6
CONTINUOUS
 62
     2
 10
1046.7
 20
406.65
 30
0.0
 11
1037.040741737
 21
409.238190451
 31
0.0
  0
LINE
  8
0
  6
CONTINUOUS
 62
     2
 10
1046.7
 20
406.65
 30
0.0
 11
1037.040741737
 21
404.061809549
 31
0.0
  0
LINE
  8
0
  6
CONTINUOUS
 62
     2
 10
1046.7
 20
406.65
 30
0.0
 11
1021.7
 21
406.65
 31
0.0
  0
LINE
  8
0
  6
CONTINUOUS
 62
     2
 10
1021.7
 20
406.65
 30
0.0
 11
1031.359258263
 21
404.061809549
 31
0.0
  0
LINE
  8
0
  6
CONTINUOUS
 62
     2
 10
1021.7
 20
406.65
 30
0.0
 11
1031.359258263
 21
409.238190451
 31
0.0
  0
LINE
  8
0
  6
CONTINUOUS
 62
     1
 10
1011.7
 20
355.8
 30
0.0
 11
1064.7
 21
355.8
 31
0.0
  0
LINE
  8
0
  6
CONTINUOUS
 62
     1
 10
1011.7
 20
315.8
 30
0.0
 11
1064.7
 21
315.8
 31
0.0
  0
LINE
  8
0
  6
LTYPE2
 62
     2
 10
969.6
 20
335.8
 30
0.0
 11
1075.6
 21
335.8
 31
0.0
  0
LINE
  8
0
  6
CONTINUOUS
 62
     1
 10
993.2
 20
370.8
 30
0.0
 11
983.2
 21
370.8
 31
0.0
  0
LINE
  8
0
  6
CONTINUOUS
 62
     1
 10
995.7
 20
368.8
 30
0.0
 11
980.7
 21
368.8
 31
0.0
  0
LINE
  8
0
  6
CONTINUOUS
 62
     1
 10
993.2
 20
368.8
 30
0.0
 11
993.2
 21
370.8
 31
0.0
  0
LINE
  8
0
  6
CONTINUOUS
 62
     1
 10
983.2
 20
368.8
 30
0.0
 11
983.2
 21
370.8
 31
0.0
  0
LINE
  8
0
  6
CONTINUOUS
 62
     1
 10
995.7
 20
335.8
 30
0.0
 11
995.7
 21
368.8
 31
0.0
  0
LINE
  8
0
  6
CONTINUOUS
 62
     1
 10
980.7
 20
335.8
 30
0.0
 11
980.7
 21
368.8
 31
0.0
  0
LINE
  8
0
  6
CONTINUOUS
 62
     1
 10
980.7
 20
366.3
 30
0.0
 11
976.343462567
 21
382.558819045
 31
0.0
  0
ARC
  8
0
  6
CONTINUOUS
 62
     1
 10
975.377536741
 20
382.3
 30
0.0
 40
1.0
 50
15.0
 51
90.0
  0
ARC
  8
0
  6
CONTINUOUS
 62
     1
 10
975.377535915
 20
382.3
 30
0.0
 40
1.0
 50
90.0
 51
165.0
  0
LINE
  8
0
  6
CONTINUOUS
 62
     1
 10
970.789569879
 20
369.041180955
 30
0.0
 11
974.411610088
 21
382.558819045
 31
0.0
  0
ARC
  8
0
  6
CONTINUOUS
 62
     1
 10
969.823644052
 20
369.3
 30
0.0
 40
1.0
 50
270.0
 51
345.0
  0
ARC
  8
0
  6
CONTINUOUS
 62
     1
 10
969.823643378
 20
369.3
 30
0.0
 40
1.0
 50
195.0
 51
270.0
  0
LINE
  8
0
  6
CONTINUOUS
 62
     1
 10
968.857717552
 20
369.041180955
 30
0.0
 11
965.235677342
 21
382.558819045
 31
0.0
  0
ARC
  8
0
  6
CONTINUOUS
 62
     1
 10
964.269751516
 20
382.3
 30
0.0
 40
1.0
 50
15.0
 51
90.0
  0
ARC
  8
0
  6
CONTINUOUS
 62
     1
 10
964.269749864
 20
382.3
 30
0.0
 40
1.0
 50
90.0
 51
165.0
  0
LINE
  8
0
  6
CONTINUOUS
 62
     1
 10
959.681784654
 20
369.041180955
 30
0.0
 11
963.303824863
 21
382.558819045
 31
0.0
  0
LINE
  8
0
  6
CONTINUOUS
 62
     1
 10
964.26975069
 20
383.3
 30
0.0
 11
964.26975069
 21
335.8
 31
0.0
  0
LINE
  8
0
  6
CONTINUOUS
 62
     1
 10
975.377536741
 20
383.3
 30
0.0
 11
975.377536741
 21
335.8
 31
0.0
  0
LINE
  8
0
  6
CONTINUOUS
 62
     1
 10
969.823644052
 20
335.8
 30
0.0
 11
969.823644052
 21
368.3
 31
0.0
  0
LINE
  8
0
  6
CONTINUOUS
 62
     1
 10
993.2
 20
300.8
 30
0.0
 11
983.2
 21
300.8
 31
0.0
  0
LINE
  8
0
  6
CONTINUOUS
 62
     1
 10
995.7
 20
302.8
 30
0.0
 11
980.7
 21
302.8
 31
0.0
  0
LINE
  8
0
  6
CONTINUOUS
 62
     1
 10
993.2
 20
302.8
 30
0.0
 11
993.2
 21
300.8
 31
0.0
  0
LINE
  8
0
  6
CONTINUOUS
 62
     1
 10
983.2
 20
302.8
 30
0.0
 11
983.2
 21
300.8
 31
0.0
  0
LINE
  8
0
  6
CONTINUOUS
 62
     1
 10
980.7
 20
335.8
 30
0.0
 11
980.7
 21
302.8
 31
0.0
  0
LINE
  8
0
  6
CONTINUOUS
 62
     1
 10
980.7
 20
305.3
 30
0.0
 11
976.343462567
 21
289.041180955
 31
0.0
  0
ARC
  8
0
  6
CONTINUOUS
 62
     1
 10
975.377536741
 20
289.3
 30
0.0
 40
1.0
 50
270.0
 51
345.0
  0
ARC
  8
0
  6
CONTINUOUS
 62
     1
 10
975.377535915
 20
289.3
 30
0.0
 40
1.0
 50
195.0
 51
270.0
  0
LINE
  8
0
  6
CONTINUOUS
 62
     1
 10
970.789569879
 20
302.558819045
 30
0.0
 11
974.411610088
 21
289.041180955
 31
0.0
  0
ARC
  8
0
  6
CONTINUOUS
 62
     1
 10
969.823644052
 20
302.3
 30
0.0
 40
1.0
 50
15.0
 51
90.0
  0
ARC
  8
0
  6
CONTINUOUS
 62
     1
 10
969.823643378
 20
302.3
 30
0.0
 40
1.0
 50
90.0
 51
165.0
  0
LINE
  8
0
  6
CONTINUOUS
 62
     1
 10
968.857717552
 20
302.558819045
 30
0.0
 11
965.235677342
 21
289.041180955
 31
0.0
  0
ARC
  8
0
  6
CONTINUOUS
 62
     1
 10
964.269751516
 20
289.3
 30
0.0
 40
1.0
 50
270.0
 51
345.0
  0
ARC
  8
0
  6
CONTINUOUS
 62
     1
 10
964.269749864
 20
289.3
 30
0.0
 40
1.0
 50
195.0
 51
270.0
  0
LINE
  8
0
  6
CONTINUOUS
 62
     1
 10
959.681784654
 20
302.558819045
 30
0.0
 11
963.303824863
 21
289.041180955
 31
0.0
  0
LINE
  8
0
  6
CONTINUOUS
 62
     1
 10
964.26975069
 20
288.3
 30
0.0
 11
964.26975069
 21
335.8
 31
0.0
  0
LINE
  8
0
  6
CONTINUOUS
 62
     1
 10
975.377536741
 20
288.3
 30
0.0
 11
975.377536741
 21
335.8
 31
0.0
  0
LINE
  8
0
  6
CONTINUOUS
 62
     1
 10
969.823644052
 20
335.8
 30
0.0
 11
969.823644052
 21
303.3
 31
0.0
  0
LINE
  8
0
  6
CONTINUOUS
 62
     1
 10
995.7
 20
315.8
 30
0.0
 11
995.7
 21
372.8
 31
0.0
  0
LINE
  8
0
  6
CONTINUOUS
 62
     1
 10
995.7
 20
372.8
 30
0.0
 11
1011.7
 21
372.8
 31
0.0
  0
LINE
  8
0
  6
CONTINUOUS
 62
     1
 10
1011.7
 20
372.8
 30
0.0
 11
1011.7
 21
298.8
 31
0.0
  0
LINE
  8
0
  6
CONTINUOUS
 62
     1
 10
995.7
 20
298.8
 30
0.0
 11
1011.7
 21
298.8
 31
0.0
  0
LINE
  8
0
  6
CONTINUOUS
 62
     1
 10
995.7
 20
335.8
 30
0.0
 11
995.7
 21
298.8
 31
0.0
  0
LINE
  8
0
  6
CONTINUOUS
 62
     1
 10
958.715858827
 20
368.3
 30
0.0
 11
958.715858827
 21
335.8
 31
0.0
  0
ARC
  8
0
  6
CONTINUOUS
 62
     1
 10
958.715858827
 20
369.3
 30
0.0
 40
1.0
 50
270.0
 51
345.0
  0
ARC
  8
0
  6
CONTINUOUS
 62
     1
 10
958.715858827
 20
302.3
 30
0.0
 40
1.0
 50
15.0
 51
90.0
  0
LINE
  8
0
  6
CONTINUOUS
 62
     1
 10
958.715858827
 20
303.3
 30
0.0
 11
958.715858827
 21
335.8
 31
0.0
  0
LINE
  8
0
  6
CONTINUOUS
 62
     1
 10
847.699501379
 20
212.65
 30
0.0
 11
879.699501379
 21
212.65
 31
0.0
  0
LINE
  8
0
  6
CONTINUOUS
 62
     1
 10
847.699501379
 20
180.65
 30
0.0
 11
847.699501379
 21
212.65
 31
0.0
  0
ARC
  8
0
  6
CONTINUOUS
 62
     1
 10
808.699501379
 20
269.15
 30
0.0
 40
10.0
 50
90.0
 51
180.0
  0
LINE
  8
0
  6
CONTINUOUS
 62
     1
 10
928.699501379
 20
267.35
 30
0.0
 11
928.699501379
 21
269.15
 31
0.0
  0
LINE
  8
0
  6
CONTINUOUS
 62
     1
 10
808.699501379
 20
279.15
 30
0.0
 11
918.699501379
 21
279.15
 31
0.0
  0
ARC
  8
0
  6
CONTINUOUS
 62
     1
 10
918.699501379
 20
269.15
 30
0.0
 40
10.0
 50
0.0
 51
90.0
  0
LINE
  8
0
  6
LTYPE2
 62
     2
 10
929.960522596
 20
254.65
 30
0.0
 11
838.699501379
 21
254.65
 31
0.0
  0
LINE
  8
0
  6
CONTINUOUS
 62
     1
 10
879.699501379
 20
180.65
 30
0.0
 11
847.699501379
 21
180.65
 31
0.0
  0
LINE
  8
0
  6
LTYPE2
 62
     2
 10
874.199501379
 20
153.75
 30
0.0
 11
885.099501379
 21
153.75
 31
0.0
  0
LINE
  8
0
  6
LTYPE2
 62
     2
 10
880.099501379
 20
147.73
 30
0.0
 11
880.099501379
 21
157.65
 31
0.0
  0
LINE
  8
0
  6
LTYPE2
 62
     2
 10
816.399501379
 20
153.75
 30
0.0
 11
826.199501379
 21
153.75
 31
0.0
  0
LINE
  8
0
  6
LTYPE2
 62
     2
 10
821.399501379
 20
147.63
 30
0.0
 11
821.399501379
 21
157.65
 31
0.0
  0
LINE
  8
0
  6
LTYPE2
 62
     2
 10
817.699501379
 20
176.65
 30
0.0
 11
794.699501379
 21
176.65
 31
0.0
  0
LINE
  8
0
  6
CONTINUOUS
 62
     1
 10
790.999501379
 20
127.95
 30
0.0
 11
790.999501379
 21
149.35
 31
0.0
  0
ARC
  8
0
  6
CONTINUOUS
 62
     1
 10
792.999501379
 20
149.35
 30
0.0
 40
2.0
 50
90.0
 51
180.0
  0
LINE
  8
0
  6
CONTINUOUS
 62
     1
 10
816.399501379
 20
120.65
 30
0.0
 11
816.399501379
 21
156.65
 31
0.0
  0
ARC
  8
0
  6
CONTINUOUS
 62
     1
 10
818.399501379
 20
156.65
 30
0.0
 40
2.0
 50
90.0
 51
180.0
  0
LINE
  8
0
  6
CONTINUOUS
 62
     1
 10
818.399501379
 20
158.65
 30
0.0
 11
883.099501379
 21
158.65
 31
0.0
  0
ARC
  8
0
  6
CONTINUOUS
 62
     1
 10
883.099501379
 20
156.65
 30
0.0
 40
2.0
 50
0.0
 51
90.0
  0
LINE
  8
0
  6
CONTINUOUS
 62
     1
 10
885.099501379
 20
120.65
 30
0.0
 11
885.099501379
 21
156.65
 31
0.0
  0
LINE
  8
0
  6
CONTINUOUS
 62
     1
 10
800.707817392
 20
138.965789474
 30
0.0
 11
802.705045388
 21
176.860526316
 31
0.0
  0
LINE
  8
0
  6
CONTINUOUS
 62
     1
 10
812.691185367
 20
138.965789474
 30
0.0
 11
810.693957371
 21
176.860526316
 31
0.0
  0
ARC
  8
0
  6
CONTINUOUS
 62
     1
 10
806.699501379
 20
176.65
 30
0.0
 40
4.0
 50
356.983042101
 51
183.016952287
  0
ARC
  8
0
  6
CONTINUOUS
 62
     1
 10
806.699501379
 20
176.65
 30
0.0
 40
8.75
 50
300.219855722
 51
239.780144278
  0
LINE
  8
0
  6
CONTINUOUS
 62
     1
 10
812.038480162
 20
151.35
 30
0.0
 11
816.399501379
 21
151.35
 31
0.0
  0
LINE
  8
0
  6
CONTINUOUS
 62
     1
 10
792.999501379
 20
151.35
 30
0.0
 11
801.360522596
 21
151.35
 31
0.0
  0
LINE
  8
0
  6
LTYPE2
 62
     2
 10
806.699501379
 20
129.55
 30
0.0
 11
806.699501379
 21
187.05
 31
0.0
  0
LINE
  8
0
  6
CONTINUOUS
 62
     1
 10
879.699501379
 20
180.65
 30
0.0
 11
879.699501379
 21
212.65
 31
0.0
  0
LINE
  8
0
  6
CONTINUOUS
 62
     1
 10
798.699501379
 20
173.10563828
 30
0.0
 11
798.699501379
 21
151.3
 31
0.0
  0
LINE
  8
0
  6
CONTINUOUS
 62
     1
 10
798.699501379
 20
188.65
 30
0.0
 11
798.699501379
 21
180.19436172
 31
0.0
  0
LINE
  8
0
  6
CONTINUOUS
 62
     1
 10
928.699501379
 20
220.19436172
 30
0.0
 11
928.699501379
 21
242.0
 31
0.0
  0
LINE
  8
0
  6
CONTINUOUS
 62
     1
 10
928.699501379
 20
204.65
 30
0.0
 11
928.699501379
 21
213.10563828
 31
0.0
  0
LINE
  8
0
  6
CONTINUOUS
 62
     1
 10
782.320444363
 20
188.65
 30
0.0
 11
847.699501379
 21
188.65
 31
0.0
  0
LINE
  8
0
  6
CONTINUOUS
 62
     1
 10
847.699501379
 20
204.65
 30
0.0
 11
782.390079342
 21
204.65
 31
0.0
  0
ARC
  8
0
  6
CONTINUOUS
 62
     1
 10
787.944969957
 20
200.65
 30
0.0
 40
6.845203412
 50
144.242860688
 51
215.757139312
  0
ARC
  8
0
  6
CONTINUOUS
 62
     1
 10
776.835188727
 20
200.65
 30
0.0
 40
6.845203412
 50
324.242860688
 51
35.757139312
  0
ARC
  8
0
  6
CONTINUOUS
 62
     1
 10
776.835188727
 20
192.65
 30
0.0
 40
6.845203412
 50
324.242860688
 51
35.757139312
  0
LINE
  8
0
  6
CONTINUOUS
 62
     1
 10
935.199501379
 20
186.65
 30
0.0
 11
935.199501379
 21
206.65
 31
0.0
  0
LINE
  8
0
  6
CONTINUOUS
 62
     1
 10
935.199501379
 20
206.65
 30
0.0
 11
949.05590784
 21
214.65
 31
0.0
  0
LINE
  8
0
  6
CONTINUOUS
 62
     1
 10
935.199501379
 20
186.65
 30
0.0
 11
949.05590784
 21
178.65
 31
0.0
  0
LINE
  8
0
  6
CONTINUOUS
 62
     1
 10
879.699501379
 20
204.65
 30
0.0
 11
935.199501379
 21
204.65
 31
0.0
  0
LINE
  8
0
  6
CONTINUOUS
 62
     1
 10
935.199501379
 20
188.65
 30
0.0
 11
879.699501379
 21
188.65
 31
0.0
  0
LINE
  8
0
  6
LTYPE3
 62
     2
 10
1012.199501379
 20
196.65
 30
0.0
 11
777.355261852
 21
196.65
 31
0.0
  0
LINE
  8
7
  6
CONTINUOUS
 62
     2
 10
885.099501379
 20
138.65
 30
0.0
 11
893.466808964
 21
144.126144975
 31
0.0
  0
LINE
  8
7
  6
CONTINUOUS
 62
     2
 10
885.099501379
 20
138.65
 30
0.0
 11
889.607729822
 21
147.576134455
 31
0.0
  0
LINE
  8
7
  6
CONTINUOUS
 62
     2
 10
885.099501379
 20
138.65
 30
0.0
 11
897.749501379
 21
152.8
 31
0.0
  0
LINE
  8
7
  6
CONTINUOUS
 62
     2
 10
897.749501379
 20
152.8
 30
0.0
 11
956.549501379
 21
152.8
 31
0.0
  0
TEXT
  8
7
  6
CONTINUOUS
 62
     2
 10
897.749501379
 20
156.8
 30
1.2
 40
12.0
  1
ＰＦ１／２
 50
0.0
 41
0.9
 51
0.0
  7
KANJI18
  0
LINE
  8
7
  6
CONTINUOUS
 62
     2
 10
842.299501379
 20
254.65
 30
0.0
 11
833.99102349
 21
249.085002681
 31
0.0
  0
LINE
  8
7
  6
CONTINUOUS
 62
     2
 10
842.299501379
 20
254.65
 30
0.0
 11
837.88664712
 21
245.676332005
 31
0.0
  0
LINE
  8
7
  6
CONTINUOUS
 62
     2
 10
842.299501379
 20
254.65
 30
0.0
 11
831.099501379
 21
241.85
 31
0.0
  0
LINE
  8
7
  6
CONTINUOUS
 62
     2
 10
831.099501379
 20
241.85
 30
0.0
 11
772.299501379
 21
241.85
 31
0.0
  0
TEXT
  8
7
  6
CONTINUOUS
 62
     2
 10
772.299501379
 20
245.85
 30
1.2
 40
12.0
  1
ＰＦ１／２
 50
0.0
 41
0.9
 51
0.0
  7
KANJI18
  0
LINE
  8
0
  6
CONTINUOUS
 62
     1
 10
798.699501379
 20
258.85
 30
0.0
 11
798.699501379
 21
269.15
 31
0.0
  0
LINE
  8
0
  6
CONTINUOUS
 62
     1
 10
798.699501379
 20
204.65
 30
0.0
 11
798.699501379
 21
238.85
 31
0.0
  0
LINE
  8
0
  6
CONTINUOUS
 62
     1
 10
928.699501379
 20
149.85
 30
0.0
 11
928.699501379
 21
124.15
 31
0.0
  0
LINE
  8
0
  6
LTYPE2
 62
     2
 10
853.739501379
 20
269.75
 30
0.0
 11
842.299501379
 21
269.75
 31
0.0
  0
LINE
  8
0
  6
LTYPE2
 62
     2
 10
847.299501379
 20
273.65
 30
0.0
 11
847.299501379
 21
264.67
 31
0.0
  0
LINE
  8
0
  6
CONTINUOUS
 62
     1
 10
908.999501379
 20
274.65
 30
0.0
 11
844.299501379
 21
274.65
 31
0.0
  0
LINE
  8
0
  6
CONTINUOUS
 62
     1
 10
842.299501379
 20
272.65
 30
0.0
 11
842.299501379
 21
236.65
 31
0.0
  0
ARC
  8
0
  6
CONTINUOUS
 62
     1
 10
844.299501379
 20
272.65
 30
0.0
 40
2.0
 50
90.0
 51
180.0
  0
LINE
  8
0
  6
LTYPE2
 62
     2
 10
853.199501379
 20
239.55
 30
0.0
 11
842.299501379
 21
239.55
 31
0.0
  0
LINE
  8
0
  6
LTYPE2
 62
     2
 10
847.299501379
 20
245.57
 30
0.0
 11
847.299501379
 21
235.65
 31
0.0
  0
LINE
  8
0
  6
CONTINUOUS
 62
     1
 10
908.999501379
 20
234.65
 30
0.0
 11
844.299501379
 21
234.65
 31
0.0
  0
ARC
  8
0
  6
CONTINUOUS
 62
     1
 10
844.299501379
 20
236.65
 30
0.0
 40
2.0
 50
180.0
 51
270.0
  0
LINE
  8
0
  6
LTYPE2
 62
     2
 10
910.999501379
 20
269.75
 30
0.0
 11
901.039501379
 21
269.75
 31
0.0
  0
LINE
  8
0
  6
LTYPE2
 62
     2
 10
905.999501379
 20
273.65
 30
0.0
 11
905.999501379
 21
265.77
 31
0.0
  0
ARC
  8
0
  6
CONTINUOUS
 62
     1
 10
908.999501379
 20
272.65
 30
0.0
 40
2.0
 50
0.0
 51
90.0
  0
LINE
  8
0
  6
CONTINUOUS
 62
     1
 10
934.399501379
 20
267.35
 30
0.0
 11
910.999501379
 21
267.35
 31
0.0
  0
LINE
  8
0
  6
CONTINUOUS
 62
     1
 10
910.999501379
 20
272.65
 30
0.0
 11
910.999501379
 21
236.65
 31
0.0
  0
LINE
  8
0
  6
LTYPE2
 62
     2
 10
910.999501379
 20
239.55
 30
0.0
 11
901.199501379
 21
239.55
 31
0.0
  0
LINE
  8
0
  6
LTYPE2
 62
     2
 10
905.999501379
 20
245.67
 30
0.0
 11
905.999501379
 21
235.65
 31
0.0
  0
ARC
  8
0
  6
CONTINUOUS
 62
     1
 10
908.999501379
 20
236.65
 30
0.0
 40
2.0
 50
270.0
 51
0.0
  0
LINE
  8
0
  6
CONTINUOUS
 62
     1
 10
915.360522596
 20
241.95
 30
0.0
 11
910.999501379
 21
241.95
 31
0.0
  0
ARC
  8
0
  6
CONTINUOUS
 62
     1
 10
934.399501379
 20
265.35
 30
0.0
 40
2.0
 50
0.0
 51
90.0
  0
LINE
  8
0
  6
CONTINUOUS
 62
     1
 10
936.399501379
 20
265.35
 30
0.0
 11
936.399501379
 21
243.95
 31
0.0
  0
ARC
  8
0
  6
CONTINUOUS
 62
     1
 10
920.699501379
 20
254.65
 30
0.0
 40
6.0
 50
356.983045121
 51
183.016954879
  0
LINE
  8
0
  6
LTYPE2
 62
     2
 10
920.699501379
 20
263.75
 30
0.0
 11
920.699501379
 21
206.25
 31
0.0
  0
LINE
  8
0
  6
CONTINUOUS
 62
     1
 10
926.691185367
 20
254.334210526
 30
0.0
 11
924.693957371
 21
216.439473684
 31
0.0
  0
LINE
  8
0
  6
CONTINUOUS
 62
     1
 10
914.707817392
 20
254.334210526
 30
0.0
 11
916.705045388
 21
216.439473684
 31
0.0
  0
ARC
  8
0
  6
CONTINUOUS
 62
     1
 10
934.399501379
 20
243.95
 30
0.0
 40
2.0
 50
270.0
 51
0.0
  0
LINE
  8
0
  6
CONTINUOUS
 62
     1
 10
934.399501379
 20
241.95
 30
0.0
 11
926.038480162
 21
241.95
 31
0.0
  0
LINE
  8
0
  6
LTYPE2
 62
     2
 10
909.699501379
 20
216.65
 30
0.0
 11
932.699501379
 21
216.65
 31
0.0
  0
ARC
  8
0
  6
CONTINUOUS
 62
     1
 10
920.699501379
 20
216.65
 30
0.0
 40
8.75
 50
120.219855722
 51
59.780144278
  0
ARC
  8
0
  6
CONTINUOUS
 62
     1
 10
920.699501379
 20
216.65
 30
0.0
 40
4.0
 50
176.983042101
 51
3.016952287
  0
LINE
  8
0
  6
CONTINUOUS
 62
     1
 10
949.05590784
 20
178.65
 30
0.0
 11
949.05590784
 21
214.65
 31
0.0
  0
LINE
  8
0
  6
CONTINUOUS
 62
     1
 10
985.199501379
 20
186.65
 30
0.0
 11
985.199501379
 21
206.65
 31
0.0
  0
LINE
  8
0
  6
CONTINUOUS
 62
     1
 10
971.343094919
 20
178.65
 30
0.0
 11
971.343094919
 21
214.65
 31
0.0
  0
LINE
  8
0
  6
CONTINUOUS
 62
     1
 10
949.05590784
 20
214.65
 30
0.0
 11
971.343094919
 21
214.65
 31
0.0
  0
LINE
  8
0
  6
CONTINUOUS
 62
     1
 10
985.199501379
 20
206.65
 30
0.0
 11
971.343094919
 21
214.65
 31
0.0
  0
LINE
  8
0
  6
CONTINUOUS
 62
     1
 10
949.05590784
 20
178.65
 30
0.0
 11
971.343094919
 21
178.65
 31
0.0
  0
LINE
  8
0
  6
CONTINUOUS
 62
     1
 10
985.199501379
 20
186.65
 30
0.0
 11
971.343094919
 21
178.65
 31
0.0
  0
LINE
  8
0
  6
CONTINUOUS
 62
     1
 10
949.05590784
 20
178.65
 30
0.0
 11
971.343094919
 21
178.65
 31
0.0
  0
LINE
  8
0
  6
LTYPE3
 62
     2
 10
960.199501379
 20
186.65
 30
0.0
 11
960.199501379
 21
206.65
 31
0.0
  0
CIRCLE
  8
0
  6
CONTINUOUS
 62
     2
 10
960.199501379
 20
196.65
 30
0.0
 40
5.0
  0
CIRCLE
  8
0
  6
CONTINUOUS
 62
     2
 10
960.199501379
 20
196.65
 30
0.0
 40
4.0
  0
LINE
  8
0
  6
CONTINUOUS
 62
     1
 10
985.199501379
 20
204.65
 30
0.0
 11
1007.508923417
 21
204.65
 31
0.0
  0
LINE
  8
0
  6
CONTINUOUS
 62
     1
 10
1007.508923417
 20
188.65
 30
0.0
 11
985.199501379
 21
188.65
 31
0.0
  0
ARC
  8
0
  6
CONTINUOUS
 62
     1
 10
1001.954032801
 20
200.65
 30
0.0
 40
6.845203412
 50
324.242860688
 51
35.757139312
  0
ARC
  8
0
  6
CONTINUOUS
 62
     1
 10
1013.063814032
 20
200.65
 30
0.0
 40
6.845203412
 50
144.242860688
 51
215.757139312
  0
ARC
  8
0
  6
CONTINUOUS
 62
     1
 10
1013.063814032
 20
192.65
 30
0.0
 40
6.845203412
 50
144.242860688
 51
215.757139312
  0
TEXT
  8
0
  6
CONTINUOUS
 62
     2
 10
1098.033854631
 20
363.3
 30
0.0
 40
15.0
  1
１２
 50
90.0
 41
0.9
 51
0.0
  7
KANJI29
  0
TEXT
  8
0
  6
CONTINUOUS
 62
     2
 10
1098.533854631
 20
284.3
 30
0.0
 40
15.0
  1
１２
 50
90.0
 41
0.9
 51
0.0
  7
KANJI29
  0
TEXT
  8
0
  6
CONTINUOUS
 62
     2
 10
1019.8
 20
410.65
 30
0.0
 40
15.0
  1
２５
 50
0.0
 41
0.9
 51
0.0
  7
KANJI29
  0
TEXT
  8
0
  6
CONTINUOUS
 62
     2
 10
1060.6
 20
398.9
 30
0.0
 40
15.0
  1
φ１６
 50
0.0
 41
0.9
 51
0.0
  7
KANJI29
  0
LINE
  8
0
  6
CONTINUOUS
 62
     2
 10
1021.7
 20
345.0
 30
0.0
 11
1021.7
 21
413.75
 31
0.0
  0
LINE
  8
0
  6
CONTINUOUS
 62
     2
 10
1038.7
 20
368.0
 30
0.0
 11
1038.7
 21
399.0
 31
0.0
  0
LINE
  8
0
  6
CONTINUOUS
 62
     2
 10
1054.7
 20
368.0
 30
0.0
 11
1054.7
 21
400.0
 31
0.0
  0
LINE
  8
0
  6
CONTINUOUS
 62
     2
 10
1066.0
 20
355.8
 30
0.0
 11
1110.533854631
 21
355.8
 31
0.0
  0
LINE
  8
0
  6
CONTINUOUS
 62
     2
 10
1066.0
 20
343.8
 30
0.0
 11
1110.433854631
 21
343.8
 31
0.0
  0
LINE
  8
0
  6
CONTINUOUS
 62
     2
 10
1066.0
 20
327.8
 30
0.0
 11
1110.433854631
 21
327.8
 31
0.0
  0
LINE
  8
0
  6
CONTINUOUS
 62
     2
 10
1066.0
 20
315.8
 30
0.0
 11
1110.533854631
 21
315.8
 31
0.0
  0
LINE
  8
0
  6
LTYPE2
 62
     2
 10
880.099501379
 20
119.65
 30
0.0
 11
880.099501379
 21
128.63
 31
0.0
  0
LINE
  8
0
  6
LTYPE2
 62
     2
 10
821.399501379
 20
119.65
 30
0.0
 11
821.399501379
 21
127.53
 31
0.0
  0
LINE
  8
0
  6
CONTINUOUS
 62
     1
 10
792.999501379
 20
125.95
 30
0.0
 11
816.399501379
 21
125.95
 31
0.0
  0
ARC
  8
0
  6
CONTINUOUS
 62
     1
 10
792.999501379
 20
127.95
 30
0.0
 40
2.0
 50
180.0
 51
270.0
  0
ARC
  8
0
  6
CONTINUOUS
 62
     1
 10
918.699501379
 20
124.15
 30
0.0
 40
10.0
 50
270.0
 51
0.0
  0
LINE
  8
0
  6
CONTINUOUS
 62
     1
 10
798.699501379
 20
125.95
 30
0.0
 11
798.699501379
 21
124.15
 31
0.0
  0
ARC
  8
0
  6
CONTINUOUS
 62
     1
 10
808.699501379
 20
124.15
 30
0.0
 40
10.0
 50
180.0
 51
270.0
  0
ARC
  8
0
  6
CONTINUOUS
 62
     1
 10
806.699501379
 20
138.65
 30
0.0
 40
6.0
 50
176.983045121
 51
3.016954879
  0
LINE
  8
0
  6
LTYPE2
 62
     2
 10
797.438480162
 20
138.65
 30
0.0
 11
888.699501379
 21
138.65
 31
0.0
  0
LINE
  8
0
  6
LTYPE2
 62
     2
 10
873.659501379
 20
123.55
 30
0.0
 11
885.099501379
 21
123.55
 31
0.0
  0
LINE
  8
0
  6
LTYPE2
 62
     2
 10
816.399501379
 20
123.55
 30
0.0
 11
826.359501379
 21
123.55
 31
0.0
  0
ARC
  8
0
  6
CONTINUOUS
 62
     1
 10
818.399501379
 20
120.65
 30
0.0
 40
2.0
 50
180.0
 51
270.0
  0
LINE
  8
0
  6
CONTINUOUS
 62
     1
 10
818.399501379
 20
118.65
 30
0.0
 11
883.099501379
 21
118.65
 31
0.0
  0
ARC
  8
0
  6
CONTINUOUS
 62
     1
 10
883.099501379
 20
120.65
 30
0.0
 40
2.0
 50
270.0
 51
0.0
  0
LINE
  8
0
  6
CONTINUOUS
 62
     1
 10
918.699501379
 20
114.15
 30
0.0
 11
808.699501379
 21
114.15
 31
0.0
  0
LINE
  8
0
  6
CONTINUOUS
 62
     2
 10
1102.433854631
 20
343.8
 30
0.0
 11
1099.84566418
 21
334.140741737
 31
0.0
  0
LINE
  8
0
  6
CONTINUOUS
 62
     2
 10
1102.433854631
 20
343.8
 30
0.0
 11
1105.022045082
 21
334.140741737
 31
0.0
  0
LINE
  8
0
  6
CONTINUOUS
 62
     2
 10
1102.533854631
 20
343.8
 30
0.0
 11
1099.94566418
 21
334.140741737
 31
0.0
  0
LINE
  8
0
  6
CONTINUOUS
 62
     2
 10
1102.533854631
 20
343.8
 30
0.0
 11
1105.122045082
 21
334.140741737
 31
0.0
  0
LINE
  8
0
  6
CONTINUOUS
 62
     2
 10
1148.9
 20
315.8
 30
0.0
 11
1151.488190451
 21
325.459258263
 31
0.0
  0
LINE
  8
0
  6
CONTINUOUS
 62
     2
 10
1148.9
 20
315.8
 30
0.0
 11
1146.311809549
 21
325.459258263
 31
0.0
  0
LINE
  8
0
  6
CONTINUOUS
 62
     2
 10
1148.9
 20
315.8
 30
0.0
 11
1148.9
 21
355.8
 31
0.0
  0
LINE
  8
0
  6
CONTINUOUS
 62
     2
 10
1148.9
 20
355.8
 30
0.0
 11
1146.311809549
 21
346.140741737
 31
0.0
  0
LINE
  8
0
  6
CONTINUOUS
 62
     2
 10
1148.9
 20
355.8
 30
0.0
 11
1151.488190451
 21
346.140741737
 31
0.0
  0
LINE
  8
0
  6
CONTINUOUS
 62
     2
 10
1110.533854631
 20
355.8
 30
0.0
 11
1155.7
 21
355.8
 31
0.0
  0
LINE
  8
0
  6
CONTINUOUS
 62
     2
 10
1102.533854631
 20
355.8
 30
0.0
 11
1105.122045082
 21
365.459258263
 31
0.0
  0
LINE
  8
0
  6
CONTINUOUS
 62
     2
 10
1102.533854631
 20
355.8
 30
0.0
 11
1099.94566418
 21
365.459258263
 31
0.0
  0
LINE
  8
0
  6
CONTINUOUS
 62
     2
 10
1102.433854631
 20
343.8
 30
0.0
 11
1102.433854631
 21
327.8
 31
0.0
  0
LINE
  8
0
  6
CONTINUOUS
 62
     2
 10
1102.433854631
 20
327.8
 30
0.0
 11
1105.022045082
 21
337.459258263
 31
0.0
  0
LINE
  8
0
  6
CONTINUOUS
 62
     2
 10
1102.433854631
 20
327.8
 30
0.0
 11
1099.84566418
 21
337.459258263
 31
0.0
  0
LINE
  8
0
  6
CONTINUOUS
 62
     2
 10
1102.533854631
 20
347.8
 30
0.0
 11
1102.533854631
 21
272.2
 31
0.0
  0
LINE
  8
0
  6
CONTINUOUS
 62
     2
 10
1102.533854631
 20
315.8
 30
0.0
 11
1105.122045082
 21
306.140741737
 31
0.0
  0
LINE
  8
0
  6
CONTINUOUS
 62
     2
 10
1102.533854631
 20
315.8
 30
0.0
 11
1099.94566418
 21
306.140741737
 31
0.0
  0
LINE
  8
0
  6
CONTINUOUS
 62
     2
 10
1110.533854631
 20
315.8
 30
0.0
 11
1156.7
 21
315.8
 31
0.0
  0
LINE
  8
0
  6
CONTINUOUS
 62
     2
 10
1102.533854631
 20
323.8
 30
0.0
 11
1102.533854631
 21
385.0
 31
0.0
  0
TEXT
  8
0
  6
CONTINUOUS
 62
     2
 10
1102.45
 20
398.16
 30
0.84
 40
8.4
  1
ｄ９
 50
0.0
 41
0.9
 51
0.0
  7
KANJI30
  0
TEXT
  8
0
  6
CONTINUOUS
 62
     2
 10
1126.433854631
 20
323.0
 30
0.0
 40
15.0
  1
１６
 50
90.0
 41
0.9
 51
0.0
  7
KANJI29
  0
TEXT
  8
0
  6
CONTINUOUS
 62
     2
 10
1144.9
 20
324.0
 30
0.0
 40
15.0
  1
４０
 50
90.0
 41
0.9
 51
0.0
  7
KANJI29
  0
TEXT
  8
0
  6
CONTINUOUS
 62
     2
 10
1102.45
 20
406.56
 30
0.84
 40
8.4
  1
Ｈ１０
 50
0.0
 41
0.9
 51
0.0
  7
KANJI30
  0
LINE
  8
0
  6
CONTINUOUS
 62
     2
 10
1094.5
 20
580.8
 30
0.0
 11
1097.088190451
 21
590.459258263
 31
0.0
  0
LINE
  8
0
  6
CONTINUOUS
 62
     2
 10
1094.5
 20
580.8
 30
0.0
 11
1094.5
 21
620.8
 31
0.0
  0
LINE
  8
0
  6
CONTINUOUS
 62
     2
 10
1094.5
 20
620.8
 30
0.0
 11
1097.088190451
 21
611.140741737
 31
0.0
  0
LINE
  8
0
  6
CONTINUOUS
 62
     2
 10
1110.0
 20
666.0
 30
0.0
 11
1097.925927171
 21
669.235238064
 31
0.0
  0
LINE
  8
0
  6
CONTINUOUS
 62
     2
 10
1110.0
 20
666.0
 30
0.0
 11
1097.925927171
 21
662.764761936
 31
0.0
  0
LINE
  8
0
  6
CONTINUOUS
 62
     2
 10
1110.0
 20
666.0
 30
0.0
 11
1069.0
 21
666.0
 31
0.0
  0
TEXT
  8
0
  6
CONTINUOUS
 62
     3
 10
1116.0
 20
660.0
 30
0.0
 40
20.0
  1
前進
 50
0.0
 41
0.925
 51
0.0
  7
KANJI31
  0
CIRCLE
  8
0
  6
CONTINUOUS
 62
     1
 10
1046.7
 20
600.8
 30
0.0
 40
15.0
  0
TEXT
  8
0
  6
CONTINUOUS
 62
     2
 10
1512.25
 20
602.5
 30
10.0
 40
20.0
  1
特記事項
 50
0.0
 41
0.9
 51
0.0
  7
KANJI32
  0
TEXT
  8
0
  6
CONTINUOUS
 62
     2
 10
1442.25
 20
577.5
 30
5.142857143
 40
18.0
  1
１。運転時は必ずピストンロッドの回転防止を行って下さい。
 50
0.0
 41
0.857142857
 51
0.0
  7
KANJI33
  0
TEXT
  8
0
  6
CONTINUOUS
 62
     2
 10
1442.25
 20
553.5
 30
5.13
 40
18.0
  1
２。モートル：全閉自冷かご形３０分定格
 50
0.0
 41
0.857222222
 51
0.0
  7
KANJI34
  0
TEXT
  8
0
  6
CONTINUOUS
 62
     2
 10
1441.9165915
 20
451.000003
 30
5.13
 40
18.0
  1
４。呼称ストロークは、機械的ストロークです。
 50
0.0
 41
0.857222222
 51
0.0
  7
KANJI34
  0
TEXT
  8
0
  6
CONTINUOUS
 62
     2
 10
1441.9165915
 20
426.250003
 30
5.13
 40
18.0
  1
　　必ず、常用はストローク両端に余裕を取って下さい。
 50
0.0
 41
0.857222222
 51
0.0
  7
KANJI34
  0
TEXT
  8
0
  6
CONTINUOUS
 62
     2
 10
1441.9165915
 20
401.250003
 30
5.13
 40
18.0
  1
　　前後の推奨余裕寸法は、各々４０ｍｍです。
 50
0.0
 41
0.857222222
 51
0.0
  7
KANJI34
  0
TEXT
  8
0
  6
CONTINUOUS
 62
     2
 10
1441.9165915
 20
526.000003
 30
5.13
 40
18.0
  1
３。ＬＳユニット
 50
0.0
 41
0.857222222
 51
0.0
  7
KANJI34
  0
TEXT
  8
0
  6
CONTINUOUS
 62
     2
 10
1441.9165915
 20
501.250003
 30
5.13
 40
18.0
  1
　　リミットスイッチ：１ＬＳ１－Ｊ×２ヶ（山武）
 50
0.0
 41
0.857222222
 51
0.0
  7
KANJI34
  0
TEXT
  8
0
  6
CONTINUOUS
 62
     2
 10
1441.9165915
 20
476.250003
 30
5.13
 40
18.0
  1
　　ストローク７００ｍｍ以上の場合２ロッド方式となります。
 50
0.0
 41
0.857222222
 51
0.0
  7
KANJI34
  0
TEXT
  8
0
  6
CONTINUOUS
 62
     2
 10
902.4275
 20
1267.575
 30
1.3475
 40
13.475
  1
注意：サーマルリレー等の選定は、上記の値で選定して下さい。
 50
0.0
 41
0.9
 51
0.0
  7
KANJI35
  0
LINE
  8
0
  6
CONTINUOUS
 62
     2
 10
894.7275
 20
1263.725
 30
0.0
 11
1279.9275
 21
1263.725
 31
0.0
  0
LINE
  8
0
  6
CONTINUOUS
 62
     2
 10
798.699501379
 20
120.95
 30
0.0
 11
798.699501379
 21
69.950003304
 31
0.0
  0
LINE
  8
0
  6
CONTINUOUS
 62
     2
 10
798.699501379
 20
79.950003304
 30
0.0
 11
810.773574208
 21
76.71476524
 31
0.0
  0
LINE
  8
0
  6
CONTINUOUS
 62
     2
 10
798.699501379
 20
79.950003304
 30
0.0
 11
810.773574208
 21
83.185241367
 31
0.0
  0
LINE
  8
0
  6
CONTINUOUS
 62
     2
 10
798.699501379
 20
79.950003304
 30
0.0
 11
928.699501379
 21
79.950003304
 31
0.0
  0
LINE
  8
0
  6
CONTINUOUS
 62
     2
 10
928.699501379
 20
79.950003304
 30
0.0
 11
916.625428551
 21
83.185241367
 31
0.0
  0
LINE
  8
0
  6
CONTINUOUS
 62
     2
 10
928.699501379
 20
79.950003304
 30
0.0
 11
916.625428551
 21
76.71476524
 31
0.0
  0
LINE
  8
0
  6
CONTINUOUS
 62
     2
 10
928.699501379
 20
119.150003304
 30
0.0
 11
928.699501379
 21
69.950003304
 31
0.0
  0
TEXT
  8
0
  6
CONTINUOUS
 62
     3
 10
843.449501379
 20
87.450003304
 30
0.0
 40
15.0
  1
１３０
 50
0.0
 41
0.9
 51
0.0
  7
KANJI29
  0
LINE
  8
0
  6
CONTINUOUS
 62
     2
 10
803.699501379
 20
279.15
 30
0.0
 11
737.099501379
 21
279.15
 31
0.0
  0
LINE
  8
0
  6
CONTINUOUS
 62
     2
 10
747.099501379
 20
279.15
 30
0.0
 11
743.864263316
 21
267.075927171
 31
0.0
  0
LINE
  8
0
  6
CONTINUOUS
 62
     2
 10
747.099501379
 20
279.15
 30
0.0
 11
750.334739443
 21
267.075927171
 31
0.0
  0
LINE
  8
0
  6
CONTINUOUS
 62
     2
 10
747.099501379
 20
279.15
 30
0.0
 11
747.099501379
 21
114.15
 31
0.0
  0
LINE
  8
0
  6
CONTINUOUS
 62
     2
 10
747.099501379
 20
114.15
 30
0.0
 11
750.334739443
 21
126.224072829
 31
0.0
  0
LINE
  8
0
  6
CONTINUOUS
 62
     2
 10
747.099501379
 20
114.15
 30
0.0
 11
743.864263316
 21
126.224072829
 31
0.0
  0
LINE
  8
0
  6
CONTINUOUS
 62
     2
 10
803.699501379
 20
114.15
 30
0.0
 11
737.099501379
 21
114.15
 31
0.0
  0
TEXT
  8
0
  6
CONTINUOUS
 62
     3
 10
739.599501379
 20
176.4
 30
0.0
 40
15.0
  1
１６５
 50
90.0
 41
0.9
 51
0.0
  7
KANJI29
  0
LINE
  8
0
  6
CONTINUOUS
 62
     1
 10
430.7
 20
650.3
 30
0.0
 11
430.7
 21
607.3
 31
0.0
  0
LINE
  8
0
  6
CONTINUOUS
 62
     1
 10
430.7
 20
650.3
 30
0.0
 11
500.7
 21
650.3
 31
0.0
  0
LINE
  8
0
  6
CONTINUOUS
 62
     1
 10
500.7
 20
650.3
 30
0.0
 11
500.7
 21
607.3
 31
0.0
  0
TEXT
  8
0
  6
CONTINUOUS
 62
     2
 10
441.7
 20
612.3
 30
5.0
 40
20.0
  1
銘板
 50
0.0
 41
0.925
 51
0.0
  7
KANJI36
  0
LINE
  8
0
  6
CONTINUOUS
 62
     1
 10
430.7
 20
607.3
 30
0.0
 11
500.7
 21
607.3
 31
0.0
  0
LINE
  8
0
  6
LTYPE3
 62
     6
 10
249.505262694
 20
903.933317
 30
0.0
 11
119.108333
 21
903.933317
 31
0.0
  0
LINE
  8
0
  6
CONTINUOUS
 62
     6
 10
114.08354931
 20
879.227506033
 30
0.0
 11
124.288526417
 21
889.43248314
 31
0.0
  0
TEXT
  8
0
  6
CONTINUOUS
 62
     6
 10
129.353806047
 20
912.599448352
 30
1.518597784
 40
15.185977837
  1
エコノストップモータ
 50
0.0
 41
0.66671875
 51
0.0
  7
KANJI37
  0
LINE
  8
0
  6
LTYPE3
 62
     6
 10
249.505262694
 20
808.521584891
 30
0.0
 11
249.505262694
 21
903.933317
 31
0.0
  0
CIRCLE
  8
0
  6
CONTINUOUS
 62
     6
 10
163.937339575
 20
858.739846957
 30
0.0
 40
18.223173404
  0
TEXT
  8
0
  6
CONTINUOUS
 62
     6
 10
156.283606745
 20
849.992723723
 30
1.82231734
 40
18.223173404
  1
Ｍ
 50
0.0
 41
0.9
 51
0.0
  7
KANJI38
  0
LINE
  8
0
  6
CONTINUOUS
 62
     6
 10
139.882750681
 20
833.227404191
 30
0.0
 11
151.181118192
 21
846.348089042
 31
0.0
  0
LINE
  8
0
  6
CONTINUOUS
 62
     6
 10
139.882750681
 20
884.252289723
 30
0.0
 11
151.181118192
 21
871.131604872
 31
0.0
  0
LINE
  8
0
  6
CONTINUOUS
 62
     6
 10
139.882750681
 20
884.252289723
 30
0.0
 11
123.481894617
 21
884.252289723
 31
0.0
  0
LINE
  8
0
  6
CONTINUOUS
 62
     6
 10
146.078629639
 20
858.739846957
 30
0.0
 11
123.481894617
 21
858.739846957
 31
0.0
  0
LINE
  8
0
  6
CONTINUOUS
 62
     6
 10
139.882750681
 20
833.227404191
 30
0.0
 11
123.481894617
 21
833.227404191
 31
0.0
  0
LINE
  8
0
  6
CONTINUOUS
 62
     6
 10
114.08354931
 20
853.715063267
 30
0.0
 11
124.288526417
 21
863.920040374
 31
0.0
  0
LINE
  8
0
  6
CONTINUOUS
 62
     6
 10
114.08354931
 20
828.202620501
 30
0.0
 11
124.288526417
 21
838.407597607
 31
0.0
  0
LINE
  8
0
  6
LTYPE3
 62
     6
 10
249.505262694
 20
808.521584891
 30
0.0
 11
119.108333
 21
808.521584891
 31
0.0
  0
TEXT
  8
0
  6
CONTINUOUS
 62
     2
 10
124.203726364
 20
783.312221811
 30
0.0
 40
15.6
  1
モーター結線図
 50
0.0
 41
0.925
 51
0.0
  7
KANJI39
  0
TEXT
  8
0
  6
CONTINUOUS
 62
     6
 10
189.862021562
 20
850.484749405
 30
1.457853872
 40
14.578538724
  1
Ｂ
 50
0.0
 41
0.9
 51
0.0
  7
KANJI40
  0
CIRCLE
  8
0
  6
CONTINUOUS
 62
     6
 10
196.422363988
 20
858.739846957
 30
0.0
 40
14.578538724
  0
LINE
  8
0
  6
LTYPE3
 62
     6
 10
119.108333
 20
903.933317
 30
0.0
 11
119.108333
 21
887.532460936
 31
0.0
  0
TEXT
  8
0
  6
CONTINUOUS
 62
     6
 10
101.573590591
 20
890.448168681
 30
1.093390404
 40
10.933904043
  1
Ｕ
 50
0.0
 41
0.9
 51
0.0
  7
KANJI41
  0
CIRCLE
  8
0
  6
CONTINUOUS
 62
     6
 10
119.108333
 20
884.252289723
 30
0.0
 40
4.373561617
  0
TEXT
  8
0
  6
CONTINUOUS
 62
     6
 10
102.666980995
 20
864.571262446
 30
1.093390404
 40
10.933904043
  1
Ｖ
 50
0.0
 41
0.9
 51
0.0
  7
KANJI41
  0
TEXT
  8
0
  6
CONTINUOUS
 62
     6
 10
103.760371399
 20
838.694356212
 30
1.093390404
 40
10.933904043
  1
Ｗ
 50
0.0
 41
0.9
 51
0.0
  7
KANJI41
  0
CIRCLE
  8
0
  6
CONTINUOUS
 62
     6
 10
119.108333
 20
858.739846957
 30
0.0
 40
4.373561617
  0
LINE
  8
0
  6
LTYPE3
 62
     6
 10
119.108333
 20
880.243191574
 30
0.0
 11
119.108333
 21
862.02001817
 31
0.0
  0
CIRCLE
  8
0
  6
CONTINUOUS
 62
     6
 10
119.108333
 20
833.227404191
 30
0.0
 40
4.373561617
  0
LINE
  8
0
  6
LTYPE3
 62
     6
 10
119.108333
 20
854.730748808
 30
0.0
 11
119.108333
 21
837.600965808
 31
0.0
  0
LINE
  8
0
  6
LTYPE3
 62
     6
 10
119.108333
 20
828.853842574
 30
0.0
 11
119.108333
 21
808.521584891
 31
0.0
  0
ARC
  8
0
  6
CONTINUOUS
 62
     2
 10
185.7
 20
603.3
 30
0.0
 40
20.0
 50
231.952957468
 51
156.801409486
  0
TEXT
  8
0
  6
CONTINUOUS
 62
     2
 10
105.3170994
 20
594.178385972
 30
0.0
 40
15.0
  1
前進方向
 50
0.0
 41
0.9
 51
0.0
  7
KANJI29
  0
LINE
  8
0
  6
CONTINUOUS
 62
     2
 10
167.3170994
 20
611.178385972
 30
0.0
 11
169.61179211
 21
621.015824749
 31
0.0
  0
LINE
  8
0
  6
CONTINUOUS
 62
     2
 10
167.3170994
 20
611.178385972
 30
0.0
 11
175.585260778
 21
616.085722507
 31
0.0
  0
LINE
  8
0
  6
CONTINUOUS
 62
     1
 10
604.855334713
 20
226.368333333
 30
0.0
 11
604.855334713
 21
172.451666667
 31
0.0
  0
LINE
  8
0
  6
CONTINUOUS
 62
     1
 10
606.522001379
 20
170.785
 30
0.0
 11
636.522001379
 21
170.785
 31
0.0
  0
ARC
  8
0
  6
CONTINUOUS
 62
     1
 10
606.522001379
 20
172.451666667
 30
0.0
 40
1.666666667
 50
180.0
 51
270.0
  0
LINE
  8
0
  6
CONTINUOUS
 62
     1
 10
638.188668046
 20
226.368333333
 30
0.0
 11
638.188668046
 21
172.451666667
 31
0.0
  0
ARC
  8
0
  6
CONTINUOUS
 62
     1
 10
636.522001379
 20
172.451666667
 30
0.0
 40
1.666666667
 50
270.0
 51
0.0
  0
ARC
  8
0
  6
CONTINUOUS
 62
     1
 10
606.522001379
 20
226.368333333
 30
0.0
 40
1.666666667
 50
90.0
 51
180.0
  0
LINE
  8
0
  6
CONTINUOUS
 62
     1
 10
610.938668046
 20
247.535
 30
0.0
 11
610.938668046
 21
228.035
 31
0.0
  0
LINE
  8
0
  6
CONTINUOUS
 62
     1
 10
606.522001379
 20
228.035
 30
0.0
 11
636.522001379
 21
228.035
 31
0.0
  0
ARC
  8
0
  6
CONTINUOUS
 62
     1
 10
636.522001379
 20
226.368333333
 30
0.0
 40
1.666666667
 50
0.0
 51
90.0
  0
ARC
  8
0
  6
CONTINUOUS
 62
     1
 10
612.605334713
 20
247.535
 30
0.0
 40
1.666666667
 50
90.0
 51
180.0
  0
ARC
  8
0
  6
CONTINUOUS
 62
     1
 10
621.522001379
 20
236.118333333
 30
0.0
 40
5.0
 50
131.983045121
 51
318.016954879
  0
LINE
  8
0
  6
LTYPE2
 62
     2
 10
616.159774955
 20
230.756106909
 30
0.0
 11
650.041974887
 21
264.638306841
 31
0.0
  0
LINE
  8
0
  6
CONTINUOUS
 62
     1
 10
618.177448463
 20
239.835047714
 30
0.0
 11
641.684014172
 21
260.987857658
 31
0.0
  0
LINE
  8
0
  6
CONTINUOUS
 62
     1
 10
625.23871576
 20
232.773780417
 30
0.0
 11
646.391525704
 21
256.280346126
 31
0.0
  0
LINE
  8
0
  6
LTYPE2
 62
     2
 10
650.395528278
 20
252.02823591
 30
0.0
 11
636.842648305
 21
265.581115883
 31
0.0
  0
ARC
  8
0
  6
CONTINUOUS
 62
     1
 10
643.913716117
 20
258.510048071
 30
0.0
 40
7.291666667
 50
255.219855722
 51
194.780144278
  0
ARC
  8
0
  6
CONTINUOUS
 62
     1
 10
643.913716117
 20
258.510048071
 30
0.0
 40
3.333333333
 50
311.983042101
 51
138.016952287
  0
LINE
  8
0
  6
CONTINUOUS
 62
     1
 10
632.105334713
 20
240.404474875
 30
0.0
 11
632.105334713
 21
228.035
 31
0.0
  0
LINE
  8
0
  6
CONTINUOUS
 62
     1
 10
612.605334713
 20
249.201666667
 30
0.0
 11
628.586327684
 21
249.201666667
 31
0.0
  0
LINE
  8
0
  6
LTYPE3
 62
     2
 10
609.126168046
 20
208.451666667
 30
0.0
 11
634.126168046
 21
208.451666667
 31
0.0
  0
LINE
  8
0
  6
LTYPE3
 62
     2
 10
634.126168046
 20
208.451666667
 30
0.0
 11
634.126168046
 21
216.368333333
 31
0.0
  0
LINE
  8
0
  6
LTYPE3
 62
     2
 10
634.126168046
 20
216.368333333
 30
0.0
 11
609.126168046
 21
216.368333333
 31
0.0
  0
LINE
  8
0
  6
LTYPE3
 62
     2
 10
609.126168046
 20
216.368333333
 30
0.0
 11
609.126168046
 21
208.451666667
 31
0.0
  0
LINE
  8
0
  6
CONTINUOUS
 62
     1
 10
609.126168046
 20
183.451666667
 30
0.0
 11
634.126168046
 21
183.451666667
 31
0.0
  0
LINE
  8
0
  6
CONTINUOUS
 62
     1
 10
634.126168046
 20
183.451666667
 30
0.0
 11
634.126168046
 21
191.368333333
 31
0.0
  0
LINE
  8
0
  6
CONTINUOUS
 62
     1
 10
634.126168046
 20
191.368333333
 30
0.0
 11
609.126168046
 21
191.368333333
 31
0.0
  0
LINE
  8
0
  6
CONTINUOUS
 62
     1
 10
609.126168046
 20
191.368333333
 30
0.0
 11
609.126168046
 21
183.451666667
 31
0.0
  0
TEXT
  8
0
  6
CONTINUOUS
 62
     2
 10
608.105334713
 20
219.118333333
 30
0.0
 40
8.333333333
  1
４
 50
0.0
 41
0.85
 51
0.0
  7
KANJI42
  0
TEXT
  8
0
  6
CONTINUOUS
 62
     2
 10
628.938668046
 20
219.118333333
 30
0.0
 40
8.333333333
  1
３
 50
0.0
 41
0.85
 51
0.0
  7
KANJI42
  0
POLYLINE
  8
0
  6
CONTINUOUS
 62
     2
 66
     1
 70
     1
  0
VERTEX
  8
0
  6
CONTINUOUS
 62
     2
 10
617.272001379
 20
218.493333333
 30
0.0
 42
0.021820078
  0
VERTEX
  8
0
  6
CONTINUOUS
 62
     2
 10
617.264866438
 20
218.656750351
 30
0.0
 42
0.021820078
  0
VERTEX
  8
0
  6
CONTINUOUS
 62
     2
 10
617.243515916
 20
218.818923666
 30
0.0
 42
0.021820078
  0
VERTEX
  8
0
  6
CONTINUOUS
 62
     2
 10
617.208112304
 20
218.978619043
 30
0.0
 42
0.021820078
  0
VERTEX
  8
0
  6
CONTINUOUS
 62
     2
 10
617.158925043
 20
219.134621102
 30
0.0
 42
0.021820078
  0
VERTEX
  8
0
  6
CONTINUOUS
 62
     2
 10
617.09632848
 20
219.285742574
 30
0.0
 42
0.021820078
  0
VERTEX
  8
0
  6
CONTINUOUS
 62
     2
 10
617.020799011
 20
219.430833333
 30
0.0
 42
0.021820078
  0
VERTEX
  8
0
  6
CONTINUOUS
 62
     2
 10
616.932911462
 20
219.568789151
 30
0.0
 42
0.021820078
  0
VERTEX
  8
0
  6
CONTINUOUS
 62
     2
 10
616.83333471
 20
219.698560101
 30
0.0
 42
0.021820078
  0
VERTEX
  8
0
  6
CONTINUOUS
 62
     2
 10
616.722826594
 20
219.819158548
 30
0.0
 42
0.021820078
  0
VERTEX
  8
0
  6
CONTINUOUS
 62
     2
 10
616.602228148
 20
219.929666664
 30
0.0
 42
0.021820078
  0
VERTEX
  8
0
  6
CONTINUOUS
 62
     2
 10
616.472457198
 20
220.029243416
 30
0.0
 42
0.021820078
  0
VERTEX
  8
0
  6
CONTINUOUS
 62
     2
 10
616.334501379
 20
220.117130965
 30
0.0
 42
0.021820078
  0
VERTEX
  8
0
  6
CONTINUOUS
 62
     2
 10
616.18941062
 20
220.192660434
 30
0.0
 42
0.021820078
  0
VERTEX
  8
0
  6
CONTINUOUS
 62
     2
 10
616.038289148
 20
220.255256997
 30
0.0
 42
0.021820078
  0
VERTEX
  8
0
  6
CONTINUOUS
 62
     2
 10
615.882287089
 20
220.304444258
 30
0.0
 42
0.021820078
  0
VERTEX
  8
0
  6
CONTINUOUS
 62
     2
 10
615.722591712
 20
220.33984787
 30
0.0
 42
0.021820078
  0
VERTEX
  8
0
  6
CONTINUOUS
 62
     2
 10
615.560418397
 20
220.361198392
 30
0.0
 42
0.021820078
  0
VERTEX
  8
0
  6
CONTINUOUS
 62
     2
 10
615.397001379
 20
220.368333333
 30
0.0
 42
0.021820078
  0
VERTEX
  8
0
  6
CONTINUOUS
 62
     2
 10
615.233584362
 20
220.361198392
 30
0.0
 42
0.021820078
  0
VERTEX
  8
0
  6
CONTINUOUS
 62
     2
 10
615.071411046
 20
220.33984787
 30
0.0
 42
0.021820078
  0
VERTEX
  8
0
  6
CONTINUOUS
 62
     2
 10
614.91171567
 20
220.304444258
 30
0.0
 42
0.021820078
  0
VERTEX
  8
0
  6
CONTINUOUS
 62
     2
 10
614.755713611
 20
220.255256997
 30
0.0
 42
0.021820078
  0
VERTEX
  8
0
  6
CONTINUOUS
 62
     2
 10
614.604592139
 20
220.192660434
 30
0.0
 42
0.021820078
  0
VERTEX
  8
0
  6
CONTINUOUS
 62
     2
 10
614.459501379
 20
220.117130965
 30
0.0
 42
0.021820078
  0
VERTEX
  8
0
  6
CONTINUOUS
 62
     2
 10
614.321545561
 20
220.029243416
 30
0.0
 42
0.021820078
  0
VERTEX
  8
0
  6
CONTINUOUS
 62
     2
 10
614.191774611
 20
219.929666664
 30
0.0
 42
0.021820078
  0
VERTEX
  8
0
  6
CONTINUOUS
 62
     2
 10
614.071176165
 20
219.819158548
 30
0.0
 42
0.021820078
  0
VERTEX
  8
0
  6
CONTINUOUS
 62
     2
 10
613.960668049
 20
219.698560101
 30
0.0
 42
0.021820078
  0
VERTEX
  8
0
  6
CONTINUOUS
 62
     2
 10
613.861091296
 20
219.568789151
 30
0.0
 42
0.021820078
  0
VERTEX
  8
0
  6
CONTINUOUS
 62
     2
 10
613.773203747
 20
219.430833333
 30
0.0
 42
0.021820078
  0
VERTEX
  8
0
  6
CONTINUOUS
 62
     2
 10
613.697674279
 20
219.285742574
 30
0.0
 42
0.021820078
  0
VERTEX
  8
0
  6
CONTINUOUS
 62
     2
 10
613.635077715
 20
219.134621102
 30
0.0
 42
0.021820078
  0
VERTEX
  8
0
  6
CONTINUOUS
 62
     2
 10
613.585890455
 20
218.978619043
 30
0.0
 42
0.021820078
  0
VERTEX
  8
0
  6
CONTINUOUS
 62
     2
 10
613.550486842
 20
218.818923666
 30
0.0
 42
0.021820078
  0
VERTEX
  8
0
  6
CONTINUOUS
 62
     2
 10
613.52913632
 20
218.656750351
 30
0.0
 42
0.021820078
  0
VERTEX
  8
0
  6
CONTINUOUS
 62
     2
 10
613.522001379
 20
218.493333333
 30
0.0
 42
0.021820078
  0
VERTEX
  8
0
  6
CONTINUOUS
 62
     2
 10
613.52913632
 20
218.329916316
 30
0.0
 42
0.021820078
  0
VERTEX
  8
0
  6
CONTINUOUS
 62
     2
 10
613.550486842
 20
218.167743
 30
0.0
 42
0.021820078
  0
VERTEX
  8
0
  6
CONTINUOUS
 62
     2
 10
613.585890455
 20
218.008047624
 30
0.0
 42
0.021820078
  0
VERTEX
  8
0
  6
CONTINUOUS
 62
     2
 10
613.635077715
 20
217.852045565
 30
0.0
 42
0.021820078
  0
VERTEX
  8
0
  6
CONTINUOUS
 62
     2
 10
613.697674279
 20
217.700924093
 30
0.0
 42
0.021820078
  0
VERTEX
  8
0
  6
CONTINUOUS
 62
     2
 10
613.773203747
 20
217.555833333
 30
0.0
 42
0.021820078
  0
VERTEX
  8
0
  6
CONTINUOUS
 62
     2
 10
613.861091296
 20
217.417877515
 30
0.0
 42
0.021820078
  0
VERTEX
  8
0
  6
CONTINUOUS
 62
     2
 10
613.960668049
 20
217.288106565
 30
0.0
 42
0.021820078
  0
VERTEX
  8
0
  6
CONTINUOUS
 62
     2
 10
614.071176165
 20
217.167508119
 30
0.0
 42
0.021820078
  0
VERTEX
  8
0
  6
CONTINUOUS
 62
     2
 10
614.191774611
 20
217.057000002
 30
0.0
 42
0.021820078
  0
VERTEX
  8
0
  6
CONTINUOUS
 62
     2
 10
614.321545561
 20
216.95742325
 30
0.0
 42
0.021820078
  0
VERTEX
  8
0
  6
CONTINUOUS
 62
     2
 10
614.459501379
 20
216.869535701
 30
0.0
 42
0.021820078
  0
VERTEX
  8
0
  6
CONTINUOUS
 62
     2
 10
614.604592139
 20
216.794006233
 30
0.0
 42
0.021820078
  0
VERTEX
  8
0
  6
CONTINUOUS
 62
     2
 10
614.755713611
 20
216.731409669
 30
0.0
 42
0.021820078
  0
VERTEX
  8
0
  6
CONTINUOUS
 62
     2
 10
614.91171567
 20
216.682222409
 30
0.0
 42
0.021820078
  0
VERTEX
  8
0
  6
CONTINUOUS
 62
     2
 10
615.071411046
 20
216.646818796
 30
0.0
 42
0.021820078
  0
VERTEX
  8
0
  6
CONTINUOUS
 62
     2
 10
615.233584362
 20
216.625468274
 30
0.0
 42
0.021820078
  0
VERTEX
  8
0
  6
CONTINUOUS
 62
     2
 10
615.397001379
 20
216.618333333
 30
0.0
 42
0.021820078
  0
VERTEX
  8
0
  6
CONTINUOUS
 62
     2
 10
615.560418397
 20
216.625468274
 30
0.0
 42
0.021820078
  0
VERTEX
  8
0
  6
CONTINUOUS
 62
     2
 10
615.722591712
 20
216.646818796
 30
0.0
 42
0.021820078
  0
VERTEX
  8
0
  6
CONTINUOUS
 62
     2
 10
615.882287089
 20
216.682222409
 30
0.0
 42
0.021820078
  0
VERTEX
  8
0
  6
CONTINUOUS
 62
     2
 10
616.038289148
 20
216.731409669
 30
0.0
 42
0.021820078
  0
VERTEX
  8
0
  6
CONTINUOUS
 62
     2
 10
616.18941062
 20
216.794006233
 30
0.0
 42
0.021820078
  0
VERTEX
  8
0
  6
CONTINUOUS
 62
     2
 10
616.334501379
 20
216.869535701
 30
0.0
 42
0.021820078
  0
VERTEX
  8
0
  6
CONTINUOUS
 62
     2
 10
616.472457198
 20
216.95742325
 30
0.0
 42
0.021820078
  0
VERTEX
  8
0
  6
CONTINUOUS
 62
     2
 10
616.602228148
 20
217.057000002
 30
0.0
 42
0.021820078
  0
VERTEX
  8
0
  6
CONTINUOUS
 62
     2
 10
616.722826594
 20
217.167508119
 30
0.0
 42
0.021820078
  0
VERTEX
  8
0
  6
CONTINUOUS
 62
     2
 10
616.83333471
 20
217.288106565
 30
0.0
 42
0.021820078
  0
VERTEX
  8
0
  6
CONTINUOUS
 62
     2
 10
616.932911462
 20
217.417877515
 30
0.0
 42
0.021820078
  0
VERTEX
  8
0
  6
CONTINUOUS
 62
     2
 10
617.020799011
 20
217.555833333
 30
0.0
 42
0.021820078
  0
VERTEX
  8
0
  6
CONTINUOUS
 62
     2
 10
617.09632848
 20
217.700924093
 30
0.0
 42
0.021820078
  0
VERTEX
  8
0
  6
CONTINUOUS
 62
     2
 10
617.158925043
 20
217.852045565
 30
0.0
 42
0.021820078
  0
VERTEX
  8
0
  6
CONTINUOUS
 62
     2
 10
617.208112304
 20
218.008047624
 30
0.0
 42
0.021820078
  0
VERTEX
  8
0
  6
CONTINUOUS
 62
     2
 10
617.243515916
 20
218.167743
 30
0.0
 42
0.021820078
  0
VERTEX
  8
0
  6
CONTINUOUS
 62
     2
 10
617.264866438
 20
218.329916316
 30
0.0
 42
0.021820078
  0
SEQEND
  8
0
  6
CONTINUOUS
 62
     2
  0
POLYLINE
  8
0
  6
CONTINUOUS
 62
     2
 66
     1
 70
     1
  0
VERTEX
  8
0
  6
CONTINUOUS
 62
     2
 10
629.772001379
 20
218.493333333
 30
0.0
 42
0.021820078
  0
VERTEX
  8
0
  6
CONTINUOUS
 62
     2
 10
629.764866438
 20
218.656750351
 30
0.0
 42
0.021820078
  0
VERTEX
  8
0
  6
CONTINUOUS
 62
     2
 10
629.743515916
 20
218.818923666
 30
0.0
 42
0.021820078
  0
VERTEX
  8
0
  6
CONTINUOUS
 62
     2
 10
629.708112304
 20
218.978619043
 30
0.0
 42
0.021820078
  0
VERTEX
  8
0
  6
CONTINUOUS
 62
     2
 10
629.658925043
 20
219.134621102
 30
0.0
 42
0.021820078
  0
VERTEX
  8
0
  6
CONTINUOUS
 62
     2
 10
629.59632848
 20
219.285742574
 30
0.0
 42
0.021820078
  0
VERTEX
  8
0
  6
CONTINUOUS
 62
     2
 10
629.520799011
 20
219.430833333
 30
0.0
 42
0.021820078
  0
VERTEX
  8
0
  6
CONTINUOUS
 62
     2
 10
629.432911462
 20
219.568789151
 30
0.0
 42
0.021820078
  0
VERTEX
  8
0
  6
CONTINUOUS
 62
     2
 10
629.33333471
 20
219.698560101
 30
0.0
 42
0.021820078
  0
VERTEX
  8
0
  6
CONTINUOUS
 62
     2
 10
629.222826594
 20
219.819158548
 30
0.0
 42
0.021820078
  0
VERTEX
  8
0
  6
CONTINUOUS
 62
     2
 10
629.102228148
 20
219.929666664
 30
0.0
 42
0.021820078
  0
VERTEX
  8
0
  6
CONTINUOUS
 62
     2
 10
628.972457198
 20
220.029243416
 30
0.0
 42
0.021820078
  0
VERTEX
  8
0
  6
CONTINUOUS
 62
     2
 10
628.834501379
 20
220.117130965
 30
0.0
 42
0.021820078
  0
VERTEX
  8
0
  6
CONTINUOUS
 62
     2
 10
628.68941062
 20
220.192660434
 30
0.0
 42
0.021820078
  0
VERTEX
  8
0
  6
CONTINUOUS
 62
     2
 10
628.538289148
 20
220.255256997
 30
0.0
 42
0.021820078
  0
VERTEX
  8
0
  6
CONTINUOUS
 62
     2
 10
628.382287089
 20
220.304444258
 30
0.0
 42
0.021820078
  0
VERTEX
  8
0
  6
CONTINUOUS
 62
     2
 10
628.222591712
 20
220.33984787
 30
0.0
 42
0.021820078
  0
VERTEX
  8
0
  6
CONTINUOUS
 62
     2
 10
628.060418397
 20
220.361198392
 30
0.0
 42
0.021820078
  0
VERTEX
  8
0
  6
CONTINUOUS
 62
     2
 10
627.897001379
 20
220.368333333
 30
0.0
 42
0.021820078
  0
VERTEX
  8
0
  6
CONTINUOUS
 62
     2
 10
627.733584362
 20
220.361198392
 30
0.0
 42
0.021820078
  0
VERTEX
  8
0
  6
CONTINUOUS
 62
     2
 10
627.571411046
 20
220.33984787
 30
0.0
 42
0.021820078
  0
VERTEX
  8
0
  6
CONTINUOUS
 62
     2
 10
627.41171567
 20
220.304444258
 30
0.0
 42
0.021820078
  0
VERTEX
  8
0
  6
CONTINUOUS
 62
     2
 10
627.255713611
 20
220.255256997
 30
0.0
 42
0.021820078
  0
VERTEX
  8
0
  6
CONTINUOUS
 62
     2
 10
627.104592139
 20
220.192660434
 30
0.0
 42
0.021820078
  0
VERTEX
  8
0
  6
CONTINUOUS
 62
     2
 10
626.959501379
 20
220.117130965
 30
0.0
 42
0.021820078
  0
VERTEX
  8
0
  6
CONTINUOUS
 62
     2
 10
626.821545561
 20
220.029243416
 30
0.0
 42
0.021820078
  0
VERTEX
  8
0
  6
CONTINUOUS
 62
     2
 10
626.691774611
 20
219.929666664
 30
0.0
 42
0.021820078
  0
VERTEX
  8
0
  6
CONTINUOUS
 62
     2
 10
626.571176165
 20
219.819158548
 30
0.0
 42
0.021820078
  0
VERTEX
  8
0
  6
CONTINUOUS
 62
     2
 10
626.460668049
 20
219.698560101
 30
0.0
 42
0.021820078
  0
VERTEX
  8
0
  6
CONTINUOUS
 62
     2
 10
626.361091296
 20
219.568789151
 30
0.0
 42
0.021820078
  0
VERTEX
  8
0
  6
CONTINUOUS
 62
     2
 10
626.273203747
 20
219.430833333
 30
0.0
 42
0.021820078
  0
VERTEX
  8
0
  6
CONTINUOUS
 62
     2
 10
626.197674279
 20
219.285742574
 30
0.0
 42
0.021820078
  0
VERTEX
  8
0
  6
CONTINUOUS
 62
     2
 10
626.135077715
 20
219.134621102
 30
0.0
 42
0.021820078
  0
VERTEX
  8
0
  6
CONTINUOUS
 62
     2
 10
626.085890455
 20
218.978619043
 30
0.0
 42
0.021820078
  0
VERTEX
  8
0
  6
CONTINUOUS
 62
     2
 10
626.050486842
 20
218.818923666
 30
0.0
 42
0.021820078
  0
VERTEX
  8
0
  6
CONTINUOUS
 62
     2
 10
626.02913632
 20
218.656750351
 30
0.0
 42
0.021820078
  0
VERTEX
  8
0
  6
CONTINUOUS
 62
     2
 10
626.022001379
 20
218.493333333
 30
0.0
 42
0.021820078
  0
VERTEX
  8
0
  6
CONTINUOUS
 62
     2
 10
626.02913632
 20
218.329916316
 30
0.0
 42
0.021820078
  0
VERTEX
  8
0
  6
CONTINUOUS
 62
     2
 10
626.050486842
 20
218.167743
 30
0.0
 42
0.021820078
  0
VERTEX
  8
0
  6
CONTINUOUS
 62
     2
 10
626.085890455
 20
218.008047624
 30
0.0
 42
0.021820078
  0
VERTEX
  8
0
  6
CONTINUOUS
 62
     2
 10
626.135077715
 20
217.852045565
 30
0.0
 42
0.021820078
  0
VERTEX
  8
0
  6
CONTINUOUS
 62
     2
 10
626.197674279
 20
217.700924093
 30
0.0
 42
0.021820078
  0
VERTEX
  8
0
  6
CONTINUOUS
 62
     2
 10
626.273203747
 20
217.555833333
 30
0.0
 42
0.021820078
  0
VERTEX
  8
0
  6
CONTINUOUS
 62
     2
 10
626.361091296
 20
217.417877515
 30
0.0
 42
0.021820078
  0
VERTEX
  8
0
  6
CONTINUOUS
 62
     2
 10
626.460668049
 20
217.288106565
 30
0.0
 42
0.021820078
  0
VERTEX
  8
0
  6
CONTINUOUS
 62
     2
 10
626.571176165
 20
217.167508119
 30
0.0
 42
0.021820078
  0
VERTEX
  8
0
  6
CONTINUOUS
 62
     2
 10
626.691774611
 20
217.057000002
 30
0.0
 42
0.021820078
  0
VERTEX
  8
0
  6
CONTINUOUS
 62
     2
 10
626.821545561
 20
216.95742325
 30
0.0
 42
0.021820078
  0
VERTEX
  8
0
  6
CONTINUOUS
 62
     2
 10
626.959501379
 20
216.869535701
 30
0.0
 42
0.021820078
  0
VERTEX
  8
0
  6
CONTINUOUS
 62
     2
 10
627.104592139
 20
216.794006233
 30
0.0
 42
0.021820078
  0
VERTEX
  8
0
  6
CONTINUOUS
 62
     2
 10
627.255713611
 20
216.731409669
 30
0.0
 42
0.021820078
  0
VERTEX
  8
0
  6
CONTINUOUS
 62
     2
 10
627.41171567
 20
216.682222409
 30
0.0
 42
0.021820078
  0
VERTEX
  8
0
  6
CONTINUOUS
 62
     2
 10
627.571411046
 20
216.646818796
 30
0.0
 42
0.021820078
  0
VERTEX
  8
0
  6
CONTINUOUS
 62
     2
 10
627.733584362
 20
216.625468274
 30
0.0
 42
0.021820078
  0
VERTEX
  8
0
  6
CONTINUOUS
 62
     2
 10
627.897001379
 20
216.618333333
 30
0.0
 42
0.021820078
  0
VERTEX
  8
0
  6
CONTINUOUS
 62
     2
 10
628.060418397
 20
216.625468274
 30
0.0
 42
0.021820078
  0
VERTEX
  8
0
  6
CONTINUOUS
 62
     2
 10
628.222591712
 20
216.646818796
 30
0.0
 42
0.021820078
  0
VERTEX
  8
0
  6
CONTINUOUS
 62
     2
 10
628.382287089
 20
216.682222409
 30
0.0
 42
0.021820078
  0
VERTEX
  8
0
  6
CONTINUOUS
 62
     2
 10
628.538289148
 20
216.731409669
 30
0.0
 42
0.021820078
  0
VERTEX
  8
0
  6
CONTINUOUS
 62
     2
 10
628.68941062
 20
216.794006233
 30
0.0
 42
0.021820078
  0
VERTEX
  8
0
  6
CONTINUOUS
 62
     2
 10
628.834501379
 20
216.869535701
 30
0.0
 42
0.021820078
  0
VERTEX
  8
0
  6
CONTINUOUS
 62
     2
 10
628.972457198
 20
216.95742325
 30
0.0
 42
0.021820078
  0
VERTEX
  8
0
  6
CONTINUOUS
 62
     2
 10
629.102228148
 20
217.057000002
 30
0.0
 42
0.021820078
  0
VERTEX
  8
0
  6
CONTINUOUS
 62
     2
 10
629.222826594
 20
217.167508119
 30
0.0
 42
0.021820078
  0
VERTEX
  8
0
  6
CONTINUOUS
 62
     2
 10
629.33333471
 20
217.288106565
 30
0.0
 42
0.021820078
  0
VERTEX
  8
0
  6
CONTINUOUS
 62
     2
 10
629.432911462
 20
217.417877515
 30
0.0
 42
0.021820078
  0
VERTEX
  8
0
  6
CONTINUOUS
 62
     2
 10
629.520799011
 20
217.555833333
 30
0.0
 42
0.021820078
  0
VERTEX
  8
0
  6
CONTINUOUS
 62
     2
 10
629.59632848
 20
217.700924093
 30
0.0
 42
0.021820078
  0
VERTEX
  8
0
  6
CONTINUOUS
 62
     2
 10
629.658925043
 20
217.852045565
 30
0.0
 42
0.021820078
  0
VERTEX
  8
0
  6
CONTINUOUS
 62
     2
 10
629.708112304
 20
218.008047624
 30
0.0
 42
0.021820078
  0
VERTEX
  8
0
  6
CONTINUOUS
 62
     2
 10
629.743515916
 20
218.167743
 30
0.0
 42
0.021820078
  0
VERTEX
  8
0
  6
CONTINUOUS
 62
     2
 10
629.764866438
 20
218.329916316
 30
0.0
 42
0.021820078
  0
SEQEND
  8
0
  6
CONTINUOUS
 62
     2
  0
POLYLINE
  8
0
  6
CONTINUOUS
 62
     2
 66
     1
 70
     1
  0
VERTEX
  8
0
  6
CONTINUOUS
 62
     2
 10
617.272001379
 20
181.535
 30
0.0
 42
-0.021820078
  0
VERTEX
  8
0
  6
CONTINUOUS
 62
     2
 10
617.264866438
 20
181.371582982
 30
0.0
 42
-0.021820078
  0
VERTEX
  8
0
  6
CONTINUOUS
 62
     2
 10
617.243515916
 20
181.209409667
 30
0.0
 42
-0.021820078
  0
VERTEX
  8
0
  6
CONTINUOUS
 62
     2
 10
617.208112304
 20
181.04971429
 30
0.0
 42
-0.021820078
  0
VERTEX
  8
0
  6
CONTINUOUS
 62
     2
 10
617.158925043
 20
180.893712231
 30
0.0
 42
-0.021820078
  0
VERTEX
  8
0
  6
CONTINUOUS
 62
     2
 10
617.09632848
 20
180.742590759
 30
0.0
 42
-0.021820078
  0
VERTEX
  8
0
  6
CONTINUOUS
 62
     2
 10
617.020799011
 20
180.5975
 30
0.0
 42
-0.021820078
  0
VERTEX
  8
0
  6
CONTINUOUS
 62
     2
 10
616.932911462
 20
180.459544182
 30
0.0
 42
-0.021820078
  0
VERTEX
  8
0
  6
CONTINUOUS
 62
     2
 10
616.83333471
 20
180.329773232
 30
0.0
 42
-0.021820078
  0
VERTEX
  8
0
  6
CONTINUOUS
 62
     2
 10
616.722826594
 20
180.209174785
 30
0.0
 42
-0.021820078
  0
VERTEX
  8
0
  6
CONTINUOUS
 62
     2
 10
616.602228148
 20
180.098666669
 30
0.0
 42
-0.021820078
  0
VERTEX
  8
0
  6
CONTINUOUS
 62
     2
 10
616.472457198
 20
179.999089917
 30
0.0
 42
-0.021820078
  0
VERTEX
  8
0
  6
CONTINUOUS
 62
     2
 10
616.334501379
 20
179.911202368
 30
0.0
 42
-0.021820078
  0
VERTEX
  8
0
  6
CONTINUOUS
 62
     2
 10
616.18941062
 20
179.835672899
 30
0.0
 42
-0.021820078
  0
VERTEX
  8
0
  6
CONTINUOUS
 62
     2
 10
616.038289148
 20
179.773076336
 30
0.0
 42
-0.021820078
  0
VERTEX
  8
0
  6
CONTINUOUS
 62
     2
 10
615.882287089
 20
179.723889076
 30
0.0
 42
-0.021820078
  0
VERTEX
  8
0
  6
CONTINUOUS
 62
     2
 10
615.722591712
 20
179.688485463
 30
0.0
 42
-0.021820078
  0
VERTEX
  8
0
  6
CONTINUOUS
 62
     2
 10
615.560418397
 20
179.667134941
 30
0.0
 42
-0.021820078
  0
VERTEX
  8
0
  6
CONTINUOUS
 62
     2
 10
615.397001379
 20
179.66
 30
0.0
 42
-0.021820078
  0
VERTEX
  8
0
  6
CONTINUOUS
 62
     2
 10
615.233584362
 20
179.667134941
 30
0.0
 42
-0.021820078
  0
VERTEX
  8
0
  6
CONTINUOUS
 62
     2
 10
615.071411046
 20
179.688485463
 30
0.0
 42
-0.021820078
  0
VERTEX
  8
0
  6
CONTINUOUS
 62
     2
 10
614.91171567
 20
179.723889076
 30
0.0
 42
-0.021820078
  0
VERTEX
  8
0
  6
CONTINUOUS
 62
     2
 10
614.755713611
 20
179.773076336
 30
0.0
 42
-0.021820078
  0
VERTEX
  8
0
  6
CONTINUOUS
 62
     2
 10
614.604592139
 20
179.835672899
 30
0.0
 42
-0.021820078
  0
VERTEX
  8
0
  6
CONTINUOUS
 62
     2
 10
614.459501379
 20
179.911202368
 30
0.0
 42
-0.021820078
  0
VERTEX
  8
0
  6
CONTINUOUS
 62
     2
 10
614.321545561
 20
179.999089917
 30
0.0
 42
-0.021820078
  0
VERTEX
  8
0
  6
CONTINUOUS
 62
     2
 10
614.191774611
 20
180.098666669
 30
0.0
 42
-0.021820078
  0
VERTEX
  8
0
  6
CONTINUOUS
 62
     2
 10
614.071176165
 20
180.209174785
 30
0.0
 42
-0.021820078
  0
VERTEX
  8
0
  6
CONTINUOUS
 62
     2
 10
613.960668049
 20
180.329773232
 30
0.0
 42
-0.021820078
  0
VERTEX
  8
0
  6
CONTINUOUS
 62
     2
 10
613.861091296
 20
180.459544182
 30
0.0
 42
-0.021820078
  0
VERTEX
  8
0
  6
CONTINUOUS
 62
     2
 10
613.773203747
 20
180.5975
 30
0.0
 42
-0.021820078
  0
VERTEX
  8
0
  6
CONTINUOUS
 62
     2
 10
613.697674279
 20
180.742590759
 30
0.0
 42
-0.021820078
  0
VERTEX
  8
0
  6
CONTINUOUS
 62
     2
 10
613.635077715
 20
180.893712231
 30
0.0
 42
-0.021820078
  0
VERTEX
  8
0
  6
CONTINUOUS
 62
     2
 10
613.585890455
 20
181.04971429
 30
0.0
 42
-0.021820078
  0
VERTEX
  8
0
  6
CONTINUOUS
 62
     2
 10
613.550486842
 20
181.209409667
 30
0.0
 42
-0.021820078
  0
VERTEX
  8
0
  6
CONTINUOUS
 62
     2
 10
613.52913632
 20
181.371582982
 30
0.0
 42
-0.021820078
  0
VERTEX
  8
0
  6
CONTINUOUS
 62
     2
 10
613.522001379
 20
181.535
 30
0.0
 42
-0.021820078
  0
VERTEX
  8
0
  6
CONTINUOUS
 62
     2
 10
613.52913632
 20
181.698417018
 30
0.0
 42
-0.021820078
  0
VERTEX
  8
0
  6
CONTINUOUS
 62
     2
 10
613.550486842
 20
181.860590333
 30
0.0
 42
-0.021820078
  0
VERTEX
  8
0
  6
CONTINUOUS
 62
     2
 10
613.585890455
 20
182.02028571
 30
0.0
 42
-0.021820078
  0
VERTEX
  8
0
  6
CONTINUOUS
 62
     2
 10
613.635077715
 20
182.176287769
 30
0.0
 42
-0.021820078
  0
VERTEX
  8
0
  6
CONTINUOUS
 62
     2
 10
613.697674279
 20
182.327409241
 30
0.0
 42
-0.021820078
  0
VERTEX
  8
0
  6
CONTINUOUS
 62
     2
 10
613.773203747
 20
182.4725
 30
0.0
 42
-0.021820078
  0
VERTEX
  8
0
  6
CONTINUOUS
 62
     2
 10
613.861091296
 20
182.610455818
 30
0.0
 42
-0.021820078
  0
VERTEX
  8
0
  6
CONTINUOUS
 62
     2
 10
613.960668049
 20
182.740226768
 30
0.0
 42
-0.021820078
  0
VERTEX
  8
0
  6
CONTINUOUS
 62
     2
 10
614.071176165
 20
182.860825215
 30
0.0
 42
-0.021820078
  0
VERTEX
  8
0
  6
CONTINUOUS
 62
     2
 10
614.191774611
 20
182.971333331
 30
0.0
 42
-0.021820078
  0
VERTEX
  8
0
  6
CONTINUOUS
 62
     2
 10
614.321545561
 20
183.070910083
 30
0.0
 42
-0.021820078
  0
VERTEX
  8
0
  6
CONTINUOUS
 62
     2
 10
614.459501379
 20
183.158797632
 30
0.0
 42
-0.021820078
  0
VERTEX
  8
0
  6
CONTINUOUS
 62
     2
 10
614.604592139
 20
183.234327101
 30
0.0
 42
-0.021820078
  0
VERTEX
  8
0
  6
CONTINUOUS
 62
     2
 10
614.755713611
 20
183.296923664
 30
0.0
 42
-0.021820078
  0
VERTEX
  8
0
  6
CONTINUOUS
 62
     2
 10
614.91171567
 20
183.346110924
 30
0.0
 42
-0.021820078
  0
VERTEX
  8
0
  6
CONTINUOUS
 62
     2
 10
615.071411046
 20
183.381514537
 30
0.0
 42
-0.021820078
  0
VERTEX
  8
0
  6
CONTINUOUS
 62
     2
 10
615.233584362
 20
183.402865059
 30
0.0
 42
-0.021820078
  0
VERTEX
  8
0
  6
CONTINUOUS
 62
     2
 10
615.397001379
 20
183.41
 30
0.0
 42
-0.021820078
  0
VERTEX
  8
0
  6
CONTINUOUS
 62
     2
 10
615.560418397
 20
183.402865059
 30
0.0
 42
-0.021820078
  0
VERTEX
  8
0
  6
CONTINUOUS
 62
     2
 10
615.722591712
 20
183.381514537
 30
0.0
 42
-0.021820078
  0
VERTEX
  8
0
  6
CONTINUOUS
 62
     2
 10
615.882287089
 20
183.346110924
 30
0.0
 42
-0.021820078
  0
VERTEX
  8
0
  6
CONTINUOUS
 62
     2
 10
616.038289148
 20
183.296923664
 30
0.0
 42
-0.021820078
  0
VERTEX
  8
0
  6
CONTINUOUS
 62
     2
 10
616.18941062
 20
183.234327101
 30
0.0
 42
-0.021820078
  0
VERTEX
  8
0
  6
CONTINUOUS
 62
     2
 10
616.334501379
 20
183.158797632
 30
0.0
 42
-0.021820078
  0
VERTEX
  8
0
  6
CONTINUOUS
 62
     2
 10
616.472457198
 20
183.070910083
 30
0.0
 42
-0.021820078
  0
VERTEX
  8
0
  6
CONTINUOUS
 62
     2
 10
616.602228148
 20
182.971333331
 30
0.0
 42
-0.021820078
  0
VERTEX
  8
0
  6
CONTINUOUS
 62
     2
 10
616.722826594
 20
182.860825215
 30
0.0
 42
-0.021820078
  0
VERTEX
  8
0
  6
CONTINUOUS
 62
     2
 10
616.83333471
 20
182.740226768
 30
0.0
 42
-0.021820078
  0
VERTEX
  8
0
  6
CONTINUOUS
 62
     2
 10
616.932911462
 20
182.610455818
 30
0.0
 42
-0.021820078
  0
VERTEX
  8
0
  6
CONTINUOUS
 62
     2
 10
617.020799011
 20
182.4725
 30
0.0
 42
-0.021820078
  0
VERTEX
  8
0
  6
CONTINUOUS
 62
     2
 10
617.09632848
 20
182.327409241
 30
0.0
 42
-0.021820078
  0
VERTEX
  8
0
  6
CONTINUOUS
 62
     2
 10
617.158925043
 20
182.176287769
 30
0.0
 42
-0.021820078
  0
VERTEX
  8
0
  6
CONTINUOUS
 62
     2
 10
617.208112304
 20
182.02028571
 30
0.0
 42
-0.021820078
  0
VERTEX
  8
0
  6
CONTINUOUS
 62
     2
 10
617.243515916
 20
181.860590333
 30
0.0
 42
-0.021820078
  0
VERTEX
  8
0
  6
CONTINUOUS
 62
     2
 10
617.264866438
 20
181.698417018
 30
0.0
 42
-0.021820078
  0
SEQEND
  8
0
  6
CONTINUOUS
 62
     2
  0
POLYLINE
  8
0
  6
CONTINUOUS
 62
     2
 66
     1
 70
     1
  0
VERTEX
  8
0
  6
CONTINUOUS
 62
     2
 10
629.772001379
 20
181.535
 30
0.0
 42
-0.021820078
  0
VERTEX
  8
0
  6
CONTINUOUS
 62
     2
 10
629.764866438
 20
181.371582982
 30
0.0
 42
-0.021820078
  0
VERTEX
  8
0
  6
CONTINUOUS
 62
     2
 10
629.743515916
 20
181.209409667
 30
0.0
 42
-0.021820078
  0
VERTEX
  8
0
  6
CONTINUOUS
 62
     2
 10
629.708112304
 20
181.04971429
 30
0.0
 42
-0.021820078
  0
VERTEX
  8
0
  6
CONTINUOUS
 62
     2
 10
629.658925043
 20
180.893712231
 30
0.0
 42
-0.021820078
  0
VERTEX
  8
0
  6
CONTINUOUS
 62
     2
 10
629.59632848
 20
180.742590759
 30
0.0
 42
-0.021820078
  0
VERTEX
  8
0
  6
CONTINUOUS
 62
     2
 10
629.520799011
 20
180.5975
 30
0.0
 42
-0.021820078
  0
VERTEX
  8
0
  6
CONTINUOUS
 62
     2
 10
629.432911462
 20
180.459544182
 30
0.0
 42
-0.021820078
  0
VERTEX
  8
0
  6
CONTINUOUS
 62
     2
 10
629.33333471
 20
180.329773232
 30
0.0
 42
-0.021820078
  0
VERTEX
  8
0
  6
CONTINUOUS
 62
     2
 10
629.222826594
 20
180.209174785
 30
0.0
 42
-0.021820078
  0
VERTEX
  8
0
  6
CONTINUOUS
 62
     2
 10
629.102228148
 20
180.098666669
 30
0.0
 42
-0.021820078
  0
VERTEX
  8
0
  6
CONTINUOUS
 62
     2
 10
628.972457198
 20
179.999089917
 30
0.0
 42
-0.021820078
  0
VERTEX
  8
0
  6
CONTINUOUS
 62
     2
 10
628.834501379
 20
179.911202368
 30
0.0
 42
-0.021820078
  0
VERTEX
  8
0
  6
CONTINUOUS
 62
     2
 10
628.68941062
 20
179.835672899
 30
0.0
 42
-0.021820078
  0
VERTEX
  8
0
  6
CONTINUOUS
 62
     2
 10
628.538289148
 20
179.773076336
 30
0.0
 42
-0.021820078
  0
VERTEX
  8
0
  6
CONTINUOUS
 62
     2
 10
628.382287089
 20
179.723889076
 30
0.0
 42
-0.021820078
  0
VERTEX
  8
0
  6
CONTINUOUS
 62
     2
 10
628.222591712
 20
179.688485463
 30
0.0
 42
-0.021820078
  0
VERTEX
  8
0
  6
CONTINUOUS
 62
     2
 10
628.060418397
 20
179.667134941
 30
0.0
 42
-0.021820078
  0
VERTEX
  8
0
  6
CONTINUOUS
 62
     2
 10
627.897001379
 20
179.66
 30
0.0
 42
-0.021820078
  0
VERTEX
  8
0
  6
CONTINUOUS
 62
     2
 10
627.733584362
 20
179.667134941
 30
0.0
 42
-0.021820078
  0
VERTEX
  8
0
  6
CONTINUOUS
 62
     2
 10
627.571411046
 20
179.688485463
 30
0.0
 42
-0.021820078
  0
VERTEX
  8
0
  6
CONTINUOUS
 62
     2
 10
627.41171567
 20
179.723889076
 30
0.0
 42
-0.021820078
  0
VERTEX
  8
0
  6
CONTINUOUS
 62
     2
 10
627.255713611
 20
179.773076336
 30
0.0
 42
-0.021820078
  0
VERTEX
  8
0
  6
CONTINUOUS
 62
     2
 10
627.104592139
 20
179.835672899
 30
0.0
 42
-0.021820078
  0
VERTEX
  8
0
  6
CONTINUOUS
 62
     2
 10
626.959501379
 20
179.911202368
 30
0.0
 42
-0.021820078
  0
VERTEX
  8
0
  6
CONTINUOUS
 62
     2
 10
626.821545561
 20
179.999089917
 30
0.0
 42
-0.021820078
  0
VERTEX
  8
0
  6
CONTINUOUS
 62
     2
 10
626.691774611
 20
180.098666669
 30
0.0
 42
-0.021820078
  0
VERTEX
  8
0
  6
CONTINUOUS
 62
     2
 10
626.571176165
 20
180.209174785
 30
0.0
 42
-0.021820078
  0
VERTEX
  8
0
  6
CONTINUOUS
 62
     2
 10
626.460668049
 20
180.329773232
 30
0.0
 42
-0.021820078
  0
VERTEX
  8
0
  6
CONTINUOUS
 62
     2
 10
626.361091296
 20
180.459544182
 30
0.0
 42
-0.021820078
  0
VERTEX
  8
0
  6
CONTINUOUS
 62
     2
 10
626.273203747
 20
180.5975
 30
0.0
 42
-0.021820078
  0
VERTEX
  8
0
  6
CONTINUOUS
 62
     2
 10
626.197674279
 20
180.742590759
 30
0.0
 42
-0.021820078
  0
VERTEX
  8
0
  6
CONTINUOUS
 62
     2
 10
626.135077715
 20
180.893712231
 30
0.0
 42
-0.021820078
  0
VERTEX
  8
0
  6
CONTINUOUS
 62
     2
 10
626.085890455
 20
181.04971429
 30
0.0
 42
-0.021820078
  0
VERTEX
  8
0
  6
CONTINUOUS
 62
     2
 10
626.050486842
 20
181.209409667
 30
0.0
 42
-0.021820078
  0
VERTEX
  8
0
  6
CONTINUOUS
 62
     2
 10
626.02913632
 20
181.371582982
 30
0.0
 42
-0.021820078
  0
VERTEX
  8
0
  6
CONTINUOUS
 62
     2
 10
626.022001379
 20
181.535
 30
0.0
 42
-0.021820078
  0
VERTEX
  8
0
  6
CONTINUOUS
 62
     2
 10
626.02913632
 20
181.698417018
 30
0.0
 42
-0.021820078
  0
VERTEX
  8
0
  6
CONTINUOUS
 62
     2
 10
626.050486842
 20
181.860590333
 30
0.0
 42
-0.021820078
  0
VERTEX
  8
0
  6
CONTINUOUS
 62
     2
 10
626.085890455
 20
182.02028571
 30
0.0
 42
-0.021820078
  0
VERTEX
  8
0
  6
CONTINUOUS
 62
     2
 10
626.135077715
 20
182.176287769
 30
0.0
 42
-0.021820078
  0
VERTEX
  8
0
  6
CONTINUOUS
 62
     2
 10
626.197674279
 20
182.327409241
 30
0.0
 42
-0.021820078
  0
VERTEX
  8
0
  6
CONTINUOUS
 62
     2
 10
626.273203747
 20
182.4725
 30
0.0
 42
-0.021820078
  0
VERTEX
  8
0
  6
CONTINUOUS
 62
     2
 10
626.361091296
 20
182.610455818
 30
0.0
 42
-0.021820078
  0
VERTEX
  8
0
  6
CONTINUOUS
 62
     2
 10
626.460668049
 20
182.740226768
 30
0.0
 42
-0.021820078
  0
VERTEX
  8
0
  6
CONTINUOUS
 62
     2
 10
626.571176165
 20
182.860825215
 30
0.0
 42
-0.021820078
  0
VERTEX
  8
0
  6
CONTINUOUS
 62
     2
 10
626.691774611
 20
182.971333331
 30
0.0
 42
-0.021820078
  0
VERTEX
  8
0
  6
CONTINUOUS
 62
     2
 10
626.821545561
 20
183.070910083
 30
0.0
 42
-0.021820078
  0
VERTEX
  8
0
  6
CONTINUOUS
 62
     2
 10
626.959501379
 20
183.158797632
 30
0.0
 42
-0.021820078
  0
VERTEX
  8
0
  6
CONTINUOUS
 62
     2
 10
627.104592139
 20
183.234327101
 30
0.0
 42
-0.021820078
  0
VERTEX
  8
0
  6
CONTINUOUS
 62
     2
 10
627.255713611
 20
183.296923664
 30
0.0
 42
-0.021820078
  0
VERTEX
  8
0
  6
CONTINUOUS
 62
     2
 10
627.41171567
 20
183.346110924
 30
0.0
 42
-0.021820078
  0
VERTEX
  8
0
  6
CONTINUOUS
 62
     2
 10
627.571411046
 20
183.381514537
 30
0.0
 42
-0.021820078
  0
VERTEX
  8
0
  6
CONTINUOUS
 62
     2
 10
627.733584362
 20
183.402865059
 30
0.0
 42
-0.021820078
  0
VERTEX
  8
0
  6
CONTINUOUS
 62
     2
 10
627.897001379
 20
183.41
 30
0.0
 42
-0.021820078
  0
VERTEX
  8
0
  6
CONTINUOUS
 62
     2
 10
628.060418397
 20
183.402865059
 30
0.0
 42
-0.021820078
  0
VERTEX
  8
0
  6
CONTINUOUS
 62
     2
 10
628.222591712
 20
183.381514537
 30
0.0
 42
-0.021820078
  0
VERTEX
  8
0
  6
CONTINUOUS
 62
     2
 10
628.382287089
 20
183.346110924
 30
0.0
 42
-0.021820078
  0
VERTEX
  8
0
  6
CONTINUOUS
 62
     2
 10
628.538289148
 20
183.296923664
 30
0.0
 42
-0.021820078
  0
VERTEX
  8
0
  6
CONTINUOUS
 62
     2
 10
628.68941062
 20
183.234327101
 30
0.0
 42
-0.021820078
  0
VERTEX
  8
0
  6
CONTINUOUS
 62
     2
 10
628.834501379
 20
183.158797632
 30
0.0
 42
-0.021820078
  0
VERTEX
  8
0
  6
CONTINUOUS
 62
     2
 10
628.972457198
 20
183.070910083
 30
0.0
 42
-0.021820078
  0
VERTEX
  8
0
  6
CONTINUOUS
 62
     2
 10
629.102228148
 20
182.971333331
 30
0.0
 42
-0.021820078
  0
VERTEX
  8
0
  6
CONTINUOUS
 62
     2
 10
629.222826594
 20
182.860825215
 30
0.0
 42
-0.021820078
  0
VERTEX
  8
0
  6
CONTINUOUS
 62
     2
 10
629.33333471
 20
182.740226768
 30
0.0
 42
-0.021820078
  0
VERTEX
  8
0
  6
CONTINUOUS
 62
     2
 10
629.432911462
 20
182.610455818
 30
0.0
 42
-0.021820078
  0
VERTEX
  8
0
  6
CONTINUOUS
 62
     2
 10
629.520799011
 20
182.4725
 30
0.0
 42
-0.021820078
  0
VERTEX
  8
0
  6
CONTINUOUS
 62
     2
 10
629.59632848
 20
182.327409241
 30
0.0
 42
-0.021820078
  0
VERTEX
  8
0
  6
CONTINUOUS
 62
     2
 10
629.658925043
 20
182.176287769
 30
0.0
 42
-0.021820078
  0
VERTEX
  8
0
  6
CONTINUOUS
 62
     2
 10
629.708112304
 20
182.02028571
 30
0.0
 42
-0.021820078
  0
VERTEX
  8
0
  6
CONTINUOUS
 62
     2
 10
629.743515916
 20
181.860590333
 30
0.0
 42
-0.021820078
  0
VERTEX
  8
0
  6
CONTINUOUS
 62
     2
 10
629.764866438
 20
181.698417018
 30
0.0
 42
-0.021820078
  0
SEQEND
  8
0
  6
CONTINUOUS
 62
     2
  0
TEXT
  8
0
  6
CONTINUOUS
 62
     2
 10
608.105334713
 20
172.868333333
 30
0.0
 40
8.333333333
  1
１
 50
0.0
 41
0.85
 51
0.0
  7
KANJI42
  0
TEXT
  8
0
  6
CONTINUOUS
 62
     2
 10
628.938668046
 20
172.868333333
 30
0.0
 40
8.333333333
  1
２
 50
0.0
 41
0.85
 51
0.0
  7
KANJI42
  0
TEXT
  8
0
  6
CONTINUOUS
 62
     2
 10
581.522001379
 20
218.451666667
 30
0.0
 40
8.333333333
  1
（ＮＯ）
 50
0.0
 41
0.75
 51
0.0
  7
KANJI43
  0
TEXT
  8
0
  6
CONTINUOUS
 62
     2
 10
636.522001379
 20
218.451666667
 30
0.0
 40
8.333333333
  1
（ＮＯ）
 50
0.0
 41
0.75
 51
0.0
  7
KANJI43
  0
TEXT
  8
0
  6
CONTINUOUS
 62
     2
 10
581.522001379
 20
170.535
 30
0.0
 40
8.333333333
  1
（ＮＣ）
 50
0.0
 41
0.75
 51
0.0
  7
KANJI43
  0
TEXT
  8
0
  6
CONTINUOUS
 62
     2
 10
636.522001379
 20
170.535
 30
0.0
 40
8.333333333
  1
（ＮＣ）
 50
0.0
 41
0.75
 51
0.0
  7
KANJI43
  0
TEXT
  8
0
  6
CONTINUOUS
 62
     2
 10
568.084501379
 20
146.368333333
 30
0.0
 40
12.5
  1
外部ＬＳリミットＳＷ
 50
0.0
 41
0.9
 51
0.0
  7
KANJI44
  0
TEXT
  8
0
  6
CONTINUOUS
 62
     2
 10
599.126168046
 20
130.535
 30
0.0
 40
12.5
  1
端子符号
 50
0.0
 41
0.9
 51
0.0
  7
KANJI44
  0
LINE
  8
0
  6
CONTINUOUS
 62
     2
 10
686.209501379
 20
135.951666667
 30
0.0
 11
686.209501379
 21
277.41
 31
0.0
  0
LINE
  8
0
  6
CONTINUOUS
 62
     2
 10
686.209501379
 20
277.41
 30
0.0
 11
558.501168046
 21
277.41
 31
0.0
  0
LINE
  8
0
  6
CONTINUOUS
 62
     2
 10
558.501168046
 20
277.41
 30
0.0
 11
558.501168046
 21
135.951666667
 31
0.0
  0
LINE
  8
0
  6
CONTINUOUS
 62
     2
 10
648.709501379
 20
135.951666667
 30
0.0
 11
686.209501379
 21
135.951666667
 31
0.0
  0
LINE
  8
0
  6
CONTINUOUS
 62
     2
 10
558.501168046
 20
135.951666667
 30
0.0
 11
591.001168046
 21
135.951666667
 31
0.0
  0
LINE
  8
0
  6
CONTINUOUS
 62
     1
 10
1042.5
 20
588.5
 30
0.0
 11
1044.5
 21
588.2
 31
0.0
  0
LINE
  8
0
  6
CONTINUOUS
 62
     1
 10
1045.0
 20
592.9
 30
0.0
 11
1044.764615385
 21
591.330769231
 31
0.0
  0
LINE
  8
0
  6
CONTINUOUS
 62
     1
 10
1044.764615385
 20
591.330769231
 30
0.0
 11
1042.5
 21
588.5
 31
0.0
  0
LINE
  8
0
  6
CONTINUOUS
 62
     1
 10
1046.7
 20
590.9
 30
0.0
 11
1044.5
 21
588.2
 31
0.0
  0
LINE
  8
0
  6
CONTINUOUS
 62
     1
 10
1050.9
 20
588.5
 30
0.0
 11
1048.9
 21
588.2
 31
0.0
  0
LINE
  8
0
  6
CONTINUOUS
 62
     1
 10
1048.4
 20
592.9
 30
0.0
 11
1048.635384615
 21
591.330769231
 31
0.0
  0
LINE
  8
0
  6
CONTINUOUS
 62
     1
 10
1048.635384615
 20
591.330769231
 30
0.0
 11
1050.9
 21
588.5
 31
0.0
  0
LINE
  8
0
  6
CONTINUOUS
 62
     1
 10
1046.7
 20
590.9
 30
0.0
 11
1048.9
 21
588.2
 31
0.0
  0
CIRCLE
  8
0
  6
CONTINUOUS
 62
     1
 10
1046.699984741
 20
611.8
 30
0.0
 40
3.0
  0
LINE
  8
0
  6
CONTINUOUS
 62
     1
 10
706.399501379
 20
632.55
 30
0.0
 11
828.7
 21
632.55
 31
0.0
  0
LINE
  8
0
  6
CONTINUOUS
 62
     1
 10
836.7
 20
632.55
 30
0.0
 11
888.7
 21
632.55
 31
0.0
  0
LINE
  8
0
  6
CONTINUOUS
 62
     1
 10
839.7
 20
569.05
 30
0.0
 11
885.699501379
 21
569.05
 31
0.0
  0
LINE
  8
0
  6
CONTINUOUS
 62
     1
 10
899.7
 20
569.05
 30
0.0
 11
951.7
 21
569.05
 31
0.0
  0
LINE
  8
0
  6
CONTINUOUS
 62
     1
 10
901.7
 20
632.55
 30
0.0
 11
896.7
 21
632.55
 31
0.0
  0
TEXT
  8
0
  6
CONTINUOUS
 62
     2
 10
728.3
 20
638.8
 30
0.0
 40
15.0
  1
φ６４
 50
90.0
 41
0.9
 51
0.0
  7
KANJI29
  0
LINE
  8
0
  6
CONTINUOUS
 62
     2
 10
732.3
 20
569.05
 30
0.0
 11
732.3
 21
673.6
 31
0.0
  0
LINE
  8
0
  6
CONTINUOUS
 62
     2
 10
732.3
 20
632.55
 30
0.0
 11
729.711809549
 21
622.890741737
 31
0.0
  0
LINE
  8
0
  6
CONTINUOUS
 62
     2
 10
732.3
 20
632.55
 30
0.0
 11
734.888190451
 21
622.890741737
 31
0.0
  0
LINE
  8
0
  6
CONTINUOUS
 62
     2
 10
732.3
 20
569.05
 30
0.0
 11
734.888190451
 21
578.709258263
 31
0.0
  0
LINE
  8
0
  6
CONTINUOUS
 62
     2
 10
732.3
 20
569.05
 30
0.0
 11
729.711809549
 21
578.709258263
 31
0.0
  0
LINE
  8
0
  6
CONTINUOUS
 62
     2
 10
1112.0
 20
600.8
 30
0.0
 11
1130.0
 21
600.8
 31
0.0
  0
LINE
  8
0
  6
CONTINUOUS
 62
     2
 10
1120.0
 20
600.8
 30
0.0
 11
1116.764761936
 21
588.725927171
 31
0.0
  0
LINE
  8
0
  6
CONTINUOUS
 62
     2
 10
1120.0
 20
600.8
 30
0.0
 11
1123.235238064
 21
588.725927171
 31
0.0
  0
LINE
  8
0
  6
CONTINUOUS
 62
     2
 10
1120.0
 20
600.8
 30
0.0
 11
1120.0
 21
447.8
 31
0.0
  0
LINE
  8
0
  6
CONTINUOUS
 62
     2
 10
1120.0
 20
447.8
 30
0.0
 11
1123.235238064
 21
459.874072829
 31
0.0
  0
LINE
  8
0
  6
CONTINUOUS
 62
     2
 10
1120.0
 20
447.8
 30
0.0
 11
1116.764761936
 21
459.874072829
 31
0.0
  0
TEXT
  8
0
  6
CONTINUOUS
 62
     3
 10
1112.5
 20
504.05
 30
0.0
 40
15.0
  1
１５３
 50
90.0
 41
0.9
 51
0.0
  7
KANJI29
  0
TEXT
  8
0
  6
CONTINUOUS
 62
     2
 10
165.7
 20
499.3
 30
0.0
 40
20.0
  1
ブレーキ解放装置はありません。
 50
0.0
 41
0.925
 51
0.0
  7
KANJI31
  0
TEXT
  8
0
  6
CONTINUOUS
 62
     2
 10
166.7
 20
474.3
 30
0.0
 40
20.0
  1
そのまま手動操作をして下さい．
 50
0.0
 41
0.925
 51
0.0
  7
KANJI31
  0
LINE
  8
0
  6
LTYPE1
 62
     2
 10
713.45
 20
505.8
 30
0.0
 11
478.45
 21
505.8
 31
0.0
  0
LINE
  8
0
  6
LTYPE1
 62
     2
 10
713.45
 20
511.8
 30
0.0
 11
478.45
 21
511.8
 31
0.0
  0
LINE
  8
0
  6
LTYPE1
 62
     2
 10
468.95
 20
491.8
 30
0.0
 11
468.95
 21
499.2
 31
0.0
  0
LINE
  8
0
  6
LTYPE1
 62
     2
 10
475.95
 20
501.6
 30
0.0
 11
470.335640646
 21
501.6
 31
0.0
  0
LINE
  8
0
  6
LTYPE1
 62
     2
 10
468.95
 20
499.2
 30
0.0
 11
470.335640646
 21
501.6
 31
0.0
  0
LINE
  8
0
  6
LTYPE1
 62
     2
 10
468.95
 20
499.2
 30
0.0
 11
470.335640646
 21
501.6
 31
0.0
  0
ARC
  8
0
  6
LTYPE1
 62
     2
 10
471.807883832
 20
499.15
 30
0.0
 40
2.858321186
 50
177.010501597
 51
238.997686085
  0
LINE
  8
0
  6
LTYPE1
 62
     2
 10
475.95
 20
491.8
 30
0.0
 11
475.95
 21
501.6
 31
0.0
  0
LINE
  8
0
  6
LTYPE1
 62
     2
 10
478.45
 20
501.0
 30
0.0
 11
475.95
 21
501.0
 31
0.0
  0
LINE
  8
0
  6
LTYPE1
 62
     2
 10
494.45
 20
502.2
 30
0.0
 11
500.95
 21
502.2
 31
0.0
  0
LINE
  8
0
  6
LTYPE1
 62
     2
 10
500.95
 20
497.0
 30
0.0
 11
494.45
 21
497.0
 31
0.0
  0
LINE
  8
0
  6
LTYPE1
 62
     2
 10
486.45
 20
501.8
 30
0.0
 11
486.45
 21
517.8
 31
0.0
  0
LINE
  8
0
  6
LTYPE1
 62
     2
 10
480.79122
 20
517.2999
 30
0.0
 11
478.95594
 21
516.240300598
 31
0.0
  0
LINE
  8
0
  6
LTYPE1
 62
     2
 10
486.45
 20
517.2999
 30
0.0
 11
480.79122
 21
517.2999
 31
0.0
  0
ARC
  8
0
  6
LTYPE1
 62
     2
 10
480.829455
 20
515.114476233
 30
0.0
 40
2.185758211
 50
31.002313915
 51
92.989498403
  0
ARC
  8
0
  6
LTYPE1
 62
     2
 10
486.45
 20
510.144844663
 30
0.0
 40
7.155055337
 50
58.419912243
 51
121.580087757
  0
LINE
  8
0
  6
LTYPE1
 62
     2
 10
478.95594
 20
511.8
 30
0.0
 11
478.95594
 21
516.240300598
 31
0.0
  0
LINE
  8
0
  6
LTYPE1
 62
     2
 10
482.70297
 20
511.8
 30
0.0
 11
482.70297
 21
516.240300598
 31
0.0
  0
LINE
  8
0
  6
LTYPE1
 62
     2
 10
492.10878
 20
517.2999
 30
0.0
 11
493.94406
 21
516.240300598
 31
0.0
  0
LINE
  8
0
  6
LTYPE1
 62
     2
 10
486.45
 20
517.2999
 30
0.0
 11
492.10878
 21
517.2999
 31
0.0
  0
LINE
  8
0
  6
LTYPE1
 62
     2
 10
492.10878
 20
517.2999
 30
0.0
 11
493.94406
 21
516.240300598
 31
0.0
  0
ARC
  8
0
  6
LTYPE1
 62
     2
 10
492.070545
 20
515.114476233
 30
0.0
 40
2.185758211
 50
87.010501597
 51
148.997686085
  0
LINE
  8
0
  6
LTYPE1
 62
     2
 10
490.19703
 20
511.8
 30
0.0
 11
490.19703
 21
516.240300598
 31
0.0
  0
LINE
  8
0
  6
LTYPE1
 62
     2
 10
493.94406
 20
511.8
 30
0.0
 11
493.94406
 21
516.240300598
 31
0.0
  0
LINE
  8
0
  6
LTYPE1
 62
     2
 10
494.45
 20
478.8
 30
0.0
 11
494.45
 21
505.8
 31
0.0
  0
LINE
  8
0
  6
LTYPE1
 62
     2
 10
494.45
 20
502.2
 30
0.0
 11
494.45
 21
481.4
 31
0.0
  0
LINE
  8
0
  6
LTYPE1
 62
     2
 10
478.45
 20
478.8
 30
0.0
 11
478.45
 21
511.8
 31
0.0
  0
LINE
  8
0
  6
LTYPE1
 62
     2
 10
541.45
 20
450.8
 30
0.0
 11
541.45
 21
503.8
 31
0.0
  0
ARC
  8
0
  6
LTYPE1
 62
     2
 10
498.05
 20
499.6
 30
0.0
 40
3.9
 50
317.9
 51
42.1
  0
LINE
  8
0
  6
LTYPE1
 62
     2
 10
541.45
 20
503.8
 30
0.0
 11
509.45
 21
503.8
 31
0.0
  0
LINE
  8
0
  6
LTYPE1
 62
     2
 10
509.45
 20
450.8
 30
0.0
 11
509.45
 21
503.8
 31
0.0
  0
LINE
  8
0
  6
CONTINUOUS
 62
     1
 10
527.95
 20
472.35
 30
0.0
 11
527.95
 21
456.35
 31
0.0
  0
LINE
  8
0
  6
CONTINUOUS
 62
     1
 10
527.95
 20
472.35
 30
0.0
 11
541.45
 21
472.35
 31
0.0
  0
LINE
  8
0
  6
LTYPE2
 62
     2
 10
497.45
 20
491.8
 30
0.0
 11
508.95
 21
491.8
 31
0.0
  0
LINE
  8
0
  6
LTYPE1
 62
     2
 10
475.95
 20
496.7
 30
0.0
 11
470.335640646
 21
496.7
 31
0.0
  0
LINE
  8
0
  6
LTYPE1
 62
     2
 10
464.45
 20
495.8
 30
0.0
 11
468.95
 21
495.8
 31
0.0
  0
LINE
  8
0
  6
LTYPE1
 62
     2
 10
501.95
 20
495.8
 30
0.0
 11
509.45
 21
495.8
 31
0.0
  0
LINE
  8
0
  6
LTYPE1
 62
     2
 10
509.45
 20
495.8
 30
0.0
 11
514.45
 21
495.8
 31
0.0
  0
LINE
  8
0
  6
LTYPE1
 62
     2
 10
541.45
 20
497.8
 30
0.0
 11
509.45
 21
497.8
 31
0.0
  0
LINE
  8
0
  6
LTYPE1
 62
     2
 10
501.95
 20
494.8
 30
0.0
 11
509.45
 21
494.8
 31
0.0
  0
LINE
  8
0
  6
LTYPE1
 62
     2
 10
509.45
 20
494.8
 30
0.0
 11
514.45
 21
494.8
 31
0.0
  0
LINE
  8
0
  6
LTYPE1
 62
     2
 10
464.45
 20
494.8
 30
0.0
 11
468.95
 21
494.8
 31
0.0
  0
LINE
  8
0
  6
LTYPE1
 62
     2
 10
475.950000004
 20
491.8
 30
0.0
 11
478.45
 21
494.299999996
 31
0.0
  0
LINE
  8
0
  6
LTYPE1
 62
     2
 10
494.45
 20
481.4
 30
0.0
 11
500.95
 21
481.4
 31
0.0
  0
ARC
  8
0
  6
LTYPE1
 62
     2
 10
498.05
 20
484.0
 30
0.0
 40
3.9
 50
317.9
 51
42.1
  0
LINE
  8
0
  6
LTYPE1
 62
     2
 10
475.95
 20
482.0
 30
0.0
 11
470.335640646
 21
482.0
 31
0.0
  0
LINE
  8
0
  6
LTYPE1
 62
     2
 10
468.95
 20
484.4
 30
0.0
 11
470.335640646
 21
482.0
 31
0.0
  0
LINE
  8
0
  6
LTYPE1
 62
     2
 10
468.95
 20
491.8
 30
0.0
 11
468.95
 21
484.4
 31
0.0
  0
LINE
  8
0
  6
LTYPE1
 62
     2
 10
475.95
 20
486.9
 30
0.0
 11
470.335640646
 21
486.9
 31
0.0
  0
ARC
  8
0
  6
LTYPE1
 62
     2
 10
471.807883832
 20
484.45
 30
0.0
 40
2.858321186
 50
121.002313915
 51
182.989498403
  0
LINE
  8
0
  6
LTYPE1
 62
     2
 10
464.45
 20
487.8
 30
0.0
 11
468.95
 21
487.8
 31
0.0
  0
LINE
  8
0
  6
LTYPE1
 62
     2
 10
464.45
 20
488.8
 30
0.0
 11
468.95
 21
488.8
 31
0.0
  0
LINE
  8
0
  6
LTYPE1
 62
     2
 10
475.95
 20
491.8
 30
0.0
 11
475.95
 21
482.0
 31
0.0
  0
LINE
  8
0
  6
LTYPE1
 62
     2
 10
494.45
 20
486.6
 30
0.0
 11
500.95
 21
486.6
 31
0.0
  0
LINE
  8
0
  6
LTYPE1
 62
     2
 10
501.95
 20
488.8
 30
0.0
 11
509.45
 21
488.8
 31
0.0
  0
LINE
  8
0
  6
LTYPE1
 62
     2
 10
501.95
 20
487.8
 30
0.0
 11
509.45
 21
487.8
 31
0.0
  0
LINE
  8
0
  6
LTYPE1
 62
     2
 10
509.45
 20
487.8
 30
0.0
 11
514.45
 21
487.8
 31
0.0
  0
LINE
  8
0
  6
LTYPE1
 62
     2
 10
509.45
 20
488.8
 30
0.0
 11
514.45
 21
488.8
 31
0.0
  0
LINE
  8
0
  6
LTYPE1
 62
     2
 10
509.45
 20
485.8
 30
0.0
 11
541.45
 21
485.8
 31
0.0
  0
ARC
  8
0
  6
LTYPE1
 62
     2
 10
478.3066828
 20
491.8
 30
0.0
 40
9.3566828
 50
148.419912243
 51
211.580087757
  0
LINE
  8
0
  6
LTYPE1
 62
     2
 10
464.45
 20
487.8
 30
0.0
 11
464.45
 21
495.8
 31
0.0
  0
ARC
  8
0
  6
LTYPE1
 62
     2
 10
487.95
 20
491.8
 30
0.0
 40
14.0
 50
338.2
 51
21.8
  0
LINE
  8
0
  6
LTYPE1
 62
     2
 10
501.95
 20
484.0
 30
0.0
 11
501.95
 21
499.6
 31
0.0
  0
LINE
  8
0
  6
LTYPE1
 62
     2
 10
514.45
 20
485.8
 30
0.0
 11
514.45
 21
497.8
 31
0.0
  0
LINE
  8
0
  6
LTYPE1
 62
     2
 10
478.45
 20
478.8
 30
0.0
 11
494.45
 21
478.8
 31
0.0
  0
LINE
  8
0
  6
LTYPE1
 62
     2
 10
478.45
 20
491.8
 30
0.0
 11
475.950000004
 21
489.300000004
 31
0.0
  0
LINE
  8
0
  6
LTYPE1
 62
     2
 10
478.45
 20
482.6
 30
0.0
 11
475.95
 21
482.6
 31
0.0
  0
LINE
  8
0
  6
LTYPE1
 62
     2
 10
506.95
 20
473.6
 30
0.0
 11
501.335640646
 21
473.6
 31
0.0
  0
LINE
  8
0
  6
LTYPE1
 62
     2
 10
499.95
 20
471.2
 30
0.0
 11
501.335640646
 21
473.6
 31
0.0
  0
LINE
  8
0
  6
LTYPE1
 62
     2
 10
499.95
 20
471.2
 30
0.0
 11
501.335640646
 21
473.6
 31
0.0
  0
LINE
  8
0
  6
LTYPE1
 62
     2
 10
509.45
 20
473.0
 30
0.0
 11
506.95
 21
473.0
 31
0.0
  0
LINE
  8
0
  6
LTYPE1
 62
     2
 10
499.95
 20
463.8
 30
0.0
 11
499.95
 21
471.2
 31
0.0
  0
LINE
  8
0
  6
LTYPE1
 62
     2
 10
506.95
 20
468.7
 30
0.0
 11
501.335640646
 21
468.7
 31
0.0
  0
ARC
  8
0
  6
LTYPE1
 62
     2
 10
502.807883832
 20
471.15
 30
0.0
 40
2.858321186
 50
177.010501597
 51
238.997686085
  0
LINE
  8
0
  6
LTYPE1
 62
     2
 10
506.95
 20
463.8
 30
0.0
 11
506.95
 21
473.6
 31
0.0
  0
LINE
  8
0
  6
LTYPE1
 62
     2
 10
491.45
 20
467.8
 30
0.0
 11
499.95
 21
467.8
 31
0.0
  0
ARC
  8
0
  6
LTYPE1
 62
     2
 10
509.3066828
 20
463.8
 30
0.0
 40
9.3566828
 50
148.419912243
 51
211.580087757
  0
LINE
  8
0
  6
LTYPE1
 62
     2
 10
491.45
 20
459.8
 30
0.0
 11
491.45
 21
467.8
 31
0.0
  0
LINE
  8
0
  6
CONTINUOUS
 62
     1
 10
527.95
 20
456.35
 30
0.0
 11
541.45
 21
456.35
 31
0.0
  0
LINE
  8
0
  6
LTYPE1
 62
     2
 10
509.45
 20
450.8
 30
0.0
 11
541.45
 21
450.8
 31
0.0
  0
LINE
  8
0
  6
LTYPE1
 62
     2
 10
506.95
 20
463.8
 30
0.0
 11
506.95
 21
454.0
 31
0.0
  0
LINE
  8
0
  6
LTYPE1
 62
     2
 10
506.95
 20
454.0
 30
0.0
 11
501.335640646
 21
454.0
 31
0.0
  0
LINE
  8
0
  6
LTYPE1
 62
     2
 10
499.95
 20
456.4
 30
0.0
 11
501.335640646
 21
454.0
 31
0.0
  0
LINE
  8
0
  6
LTYPE1
 62
     2
 10
499.95
 20
463.8
 30
0.0
 11
499.95
 21
456.4
 31
0.0
  0
LINE
  8
0
  6
LTYPE1
 62
     2
 10
506.95
 20
458.9
 30
0.0
 11
501.335640646
 21
458.9
 31
0.0
  0
ARC
  8
0
  6
LTYPE1
 62
     2
 10
502.807883832
 20
456.45
 30
0.0
 40
2.858321186
 50
121.002313915
 51
182.989498403
  0
LINE
  8
0
  6
LTYPE1
 62
     2
 10
509.45
 20
454.6
 30
0.0
 11
506.95
 21
454.6
 31
0.0
  0
LINE
  8
0
  6
LTYPE1
 62
     2
 10
509.45
 20
463.8
 30
0.0
 11
506.950000004
 21
461.300000004
 31
0.0
  0
LINE
  8
0
  6
LTYPE1
 62
     2
 10
491.45
 20
459.8
 30
0.0
 11
499.95
 21
459.8
 31
0.0
  0
LINE
  8
0
  6
LTYPE1
 62
     2
 10
491.45
 20
460.8
 30
0.0
 11
499.95
 21
460.8
 31
0.0
  0
LINE
  8
0
  6
LTYPE1
 62
     2
 10
506.950000004
 20
463.8
 30
0.0
 11
509.45
 21
466.299999996
 31
0.0
  0
LINE
  8
0
  6
LTYPE1
 62
     2
 10
491.45
 20
466.8
 30
0.0
 11
499.95
 21
466.8
 31
0.0
  0
LINE
  8
0
  6
LTYPE3
 62
     2
 10
458.95
 20
491.8
 30
0.0
 11
798.21
 21
491.8
 31
0.0
  0
LINE
  8
0
  6
LTYPE2
 62
     2
 10
484.05
 20
463.8
 30
0.0
 11
1028.1
 21
463.8
 31
0.0
  0
LINE
  8
0
  6
LTYPE1
 62
     2
 10
541.45
 20
485.8
 30
0.0
 11
790.0
 21
485.8
 31
0.0
  0
LINE
  8
0
  6
LTYPE1
 62
     2
 10
541.45
 20
497.8
 30
0.0
 11
790.0
 21
497.8
 31
0.0
  0
LINE
  8
0
  6
CONTINUOUS
 62
     1
 10
541.45
 20
452.8
 30
0.0
 11
541.45
 21
474.8
 31
0.0
  0
LINE
  8
0
  6
LTYPE3
 62
     2
 10
562.45
 20
453.8
 30
0.0
 11
562.45
 21
473.8
 31
0.0
  0
CIRCLE
  8
0
  6
CONTINUOUS
 62
     2
 10
562.45
 20
463.8
 30
0.0
 40
5.0
  0
CIRCLE
  8
0
  6
CONTINUOUS
 62
     2
 10
562.45
 20
463.8
 30
0.0
 40
4.0
  0
LINE
  8
0
  6
CONTINUOUS
 62
     1
 10
550.1
 20
479.8
 30
0.0
 11
574.8
 21
479.8
 31
0.0
  0
LINE
  8
0
  6
CONTINUOUS
 62
     1
 10
550.1
 20
447.8
 30
0.0
 11
550.1
 21
479.8
 31
0.0
  0
LINE
  8
0
  6
CONTINUOUS
 62
     1
 10
550.1
 20
447.8
 30
0.0
 11
574.8
 21
447.8
 31
0.0
  0
LINE
  8
0
  6
CONTINUOUS
 62
     1
 10
541.45
 20
474.8
 30
0.0
 11
550.110254038
 21
479.8
 31
0.0
  0
LINE
  8
0
  6
CONTINUOUS
 62
     1
 10
541.45
 20
452.8
 30
0.0
 11
550.110254038
 21
447.8
 31
0.0
  0
LINE
  8
0
  6
CONTINUOUS
 62
     1
 10
583.45
 20
471.8
 30
0.0
 11
815.4
 21
471.8
 31
0.0
  0
LINE
  8
0
  6
CONTINUOUS
 62
     1
 10
583.45
 20
455.8
 30
0.0
 11
846.7
 21
455.8
 31
0.0
  0
LINE
  8
0
  6
CONTINUOUS
 62
     1
 10
574.8
 20
447.8
 30
0.0
 11
574.8
 21
479.8
 31
0.0
  0
LINE
  8
0
  6
CONTINUOUS
 62
     1
 10
583.45
 20
474.8
 30
0.0
 11
574.789745962
 21
479.8
 31
0.0
  0
LINE
  8
0
  6
CONTINUOUS
 62
     1
 10
583.45
 20
452.8
 30
0.0
 11
583.45
 21
474.8
 31
0.0
  0
LINE
  8
0
  6
CONTINUOUS
 62
     1
 10
583.45
 20
452.8
 30
0.0
 11
574.789745962
 21
447.8
 31
0.0
  0
LINE
  8
0
  6
LTYPE1
 62
     2
 10
713.45
 20
505.8
 30
0.0
 11
713.45
 21
581.3
 31
0.0
  0
LINE
  8
0
  6
LTYPE1
 62
     2
 10
712.95
 20
505.8
 30
0.0
 11
712.95
 21
501.2
 31
0.0
  0
LINE
  8
0
  6
LTYPE1
 62
     2
 10
712.95
 20
505.8
 30
0.0
 11
697.95
 21
505.8
 31
0.0
  0
LINE
  8
0
  6
LTYPE1
 62
     2
 10
697.95
 20
505.8
 30
0.0
 11
697.95
 21
501.2
 31
0.0
  0
LINE
  8
0
  6
LTYPE1
 62
     2
 10
701.65
 20
505.8
 30
0.0
 11
701.65
 21
501.2
 31
0.0
  0
LINE
  8
0
  6
LTYPE1
 62
     2
 10
709.25
 20
505.8
 30
0.0
 11
709.25
 21
501.2
 31
0.0
  0
LINE
  8
0
  6
LTYPE1
 62
     2
 10
711.15
 20
500.5
 30
0.0
 11
699.75
 21
500.5
 31
0.0
  0
ARC
  8
0
  6
LTYPE1
 62
     2
 10
699.75
 20
503.3
 30
0.0
 40
2.8
 50
228.5
 51
311.5
  0
ARC
  8
0
  6
LTYPE1
 62
     2
 10
705.45
 20
511.2
 30
0.0
 40
10.7
 50
249.1
 51
290.9
  0
ARC
  8
0
  6
LTYPE1
 62
     2
 10
711.15
 20
503.3
 30
0.0
 40
2.8
 50
228.5
 51
311.5
  0
LINE
  8
0
  6
LTYPE1
 62
     2
 10
705.45
 20
497.0
 30
0.0
 11
705.45
 21
508.8
 31
0.0
  0
LINE
  8
0
  6
LTYPE3
 62
     2
 10
705.45
 20
493.15
 30
0.0
 11
705.45
 21
517.45
 31
0.0
  0
LINE
  8
0
  6
LTYPE1
 62
     2
 10
699.45
 20
512.3
 30
0.0
 11
699.45
 21
581.3
 31
0.0
  0
LINE
  8
0
  6
LTYPE2
 62
     2
 10
706.45
 20
551.05
 30
0.0
 11
706.45
 21
645.05
 31
0.0
  0
LINE
  8
0
  6
LTYPE1
 62
     2
 10
699.45
 20
561.3
 30
0.0
 11
713.45
 21
561.3
 31
0.0
  0
LINE
  8
0
  6
LTYPE1
 62
     2
 10
710.45
 20
581.3
 30
0.0
 11
710.45
 21
637.05
 31
0.0
  0
LINE
  8
0
  6
LTYPE1
 62
     2
 10
702.45
 20
581.3
 30
0.0
 11
702.45
 21
637.05
 31
0.0
  0
LINE
  8
0
  6
LTYPE1
 62
     2
 10
699.45
 20
581.3
 30
0.0
 11
713.45
 21
581.3
 31
0.0
  0
ARC
  8
0
  6
LTYPE1
 62
     2
 10
706.45
 20
637.05
 30
0.0
 40
4.0
 50
0.0
 51
180.0
  0
LINE
  8
0
  6
CONTINUOUS
 62
     1
 10
825.7
 20
512.3
 30
0.0
 11
825.7
 21
581.3
 31
0.0
  0
LINE
  8
0
  6
CONTINUOUS
 62
     1
 10
797.7
 20
512.3
 30
0.0
 11
927.7
 21
512.3
 31
0.0
  0
LINE
  8
0
  6
CONTINUOUS
 62
     1
 10
797.7
 20
506.3
 30
0.0
 11
797.7
 21
512.3
 31
0.0
  0
LINE
  8
0
  6
CONTINUOUS
 62
     1
 10
797.7
 20
506.3
 30
0.0
 11
927.7
 21
506.3
 31
0.0
  0
LINE
  8
0
  6
CONTINUOUS
 62
     1
 10
815.4
 20
505.3
 30
0.0
 11
790.0
 21
505.3
 31
0.0
  0
LINE
  8
0
  6
CONTINUOUS
 62
     1
 10
815.4
 20
479.9
 30
0.0
 11
790.0
 21
479.9
 31
0.0
  0
LINE
  8
0
  6
CONTINUOUS
 62
     1
 10
815.4
 20
506.3
 30
0.0
 11
815.4
 21
466.3
 31
0.0
  0
LINE
  8
0
  6
CONTINUOUS
 62
     1
 10
815.4
 20
472.3
 30
0.0
 11
841.3
 21
472.3
 31
0.0
  0
LINE
  8
0
  6
CONTINUOUS
 62
     1
 10
815.4
 20
466.3
 30
0.0
 11
841.3
 21
466.3
 31
0.0
  0
LINE
  8
0
  6
CONTINUOUS
 62
     1
 10
790.0
 20
505.3
 30
0.0
 11
790.0
 21
479.9
 31
0.0
  0
LINE
  8
0
  6
CONTINUOUS
 62
     1
 10
839.7
 20
512.3
 30
0.0
 11
839.7
 21
581.3
 31
0.0
  0
LINE
  8
0
  6
CONTINUOUS
 62
     1
 10
841.3
 20
506.3
 30
0.0
 11
841.3
 21
466.3
 31
0.0
  0
LINE
  8
0
  6
LTYPE5
 62
     2
 10
850.8
 20
485.0
 30
0.0
 11
833.8
 21
485.0
 31
0.0
  0
LINE
  8
0
  6
CONTINUOUS
 62
     1
 10
846.7
 20
451.3
 30
0.0
 11
846.7
 21
466.3
 31
0.0
  0
LINE
  8
0
  6
CONTINUOUS
 62
     1
 10
846.7
 20
451.3
 30
0.0
 11
878.7
 21
451.3
 31
0.0
  0
LINE
  8
0
  6
CONTINUOUS
 62
     1
 10
841.3
 20
472.3
 30
0.0
 11
910.0
 21
472.3
 31
0.0
  0
LINE
  8
0
  6
CONTINUOUS
 62
     1
 10
841.3
 20
466.3
 30
0.0
 11
910.0
 21
466.3
 31
0.0
  0
LINE
  8
0
  6
LTYPE2
 62
     2
 10
832.7
 20
551.05
 30
0.0
 11
832.7
 21
645.05
 31
0.0
  0
LINE
  8
0
  6
CONTINUOUS
 62
     1
 10
825.7
 20
561.3
 30
0.0
 11
839.7
 21
561.3
 31
0.0
  0
LINE
  8
0
  6
CONTINUOUS
 62
     1
 10
836.7
 20
581.3
 30
0.0
 11
836.7
 21
637.05
 31
0.0
  0
LINE
  8
0
  6
CONTINUOUS
 62
     1
 10
828.7
 20
581.3
 30
0.0
 11
828.7
 21
637.05
 31
0.0
  0
LINE
  8
0
  6
CONTINUOUS
 62
     1
 10
825.7
 20
581.3
 30
0.0
 11
839.7
 21
581.3
 31
0.0
  0
ARC
  8
0
  6
CONTINUOUS
 62
     1
 10
832.7
 20
637.05
 30
0.0
 40
4.0
 50
0.0
 51
180.0
  0
LINE
  8
0
  6
CONTINUOUS
 62
     1
 10
885.7
 20
512.3
 30
0.0
 11
885.7
 21
581.3
 31
0.0
  0
LINE
  8
0
  6
CONTINUOUS
 62
     1
 10
899.7
 20
512.3
 30
0.0
 11
899.7
 21
581.3
 31
0.0
  0
LINE
  8
0
  6
CONTINUOUS
 62
     1
 10
935.4
 20
505.3
 30
0.0
 11
935.4
 21
479.9
 31
0.0
  0
LINE
  8
0
  6
CONTINUOUS
 62
     1
 10
910.0
 20
505.3
 30
0.0
 11
935.4
 21
505.3
 31
0.0
  0
LINE
  8
0
  6
CONTINUOUS
 62
     1
 10
927.7
 20
506.3
 30
0.0
 11
927.7
 21
512.3
 31
0.0
  0
LINE
  8
0
  6
CONTINUOUS
 62
     1
 10
910.0
 20
479.9
 30
0.0
 11
935.4
 21
479.9
 31
0.0
  0
LINE
  8
0
  6
CONTINUOUS
 62
     1
 10
910.0
 20
506.3
 30
0.0
 11
910.0
 21
466.3
 31
0.0
  0
LINE
  8
0
  6
CONTINUOUS
 62
     1
 10
878.7
 20
451.3
 30
0.0
 11
878.7
 21
466.3
 31
0.0
  0
LINE
  8
0
  6
CONTINUOUS
 62
     1
 10
878.7
 20
455.8
 30
0.0
 11
945.7
 21
455.8
 31
0.0
  0
LINE
  8
0
  6
CONTINUOUS
 62
     1
 10
910.0
 20
471.8
 30
0.0
 11
945.7
 21
471.8
 31
0.0
  0
LINE
  8
0
  6
CONTINUOUS
 62
     1
 10
995.7
 20
450.8
 30
0.0
 11
995.7
 21
626.8
 31
0.0
  0
LINE
  8
0
  6
CONTINUOUS
 62
     1
 10
995.7
 20
450.8
 30
0.0
 11
1011.7
 21
450.8
 31
0.0
  0
LINE
  8
0
  6
CONTINUOUS
 62
     1
 10
987.7
 20
471.8
 30
0.0
 11
995.7
 21
471.8
 31
0.0
  0
LINE
  8
0
  6
CONTINUOUS
 62
     1
 10
987.7
 20
455.8
 30
0.0
 11
995.7
 21
455.8
 31
0.0
  0
LINE
  8
0
  6
CONTINUOUS
 62
     2
 10
984.05
 20
447.8
 30
0.0
 11
1130.0
 21
447.8
 31
0.0
  0
LINE
  8
0
  6
LTYPE3
 62
     2
 10
966.7
 20
453.8
 30
0.0
 11
966.7
 21
473.8
 31
0.0
  0
CIRCLE
  8
0
  6
CONTINUOUS
 62
     2
 10
966.7
 20
463.8
 30
0.0
 40
5.0
  0
CIRCLE
  8
0
  6
CONTINUOUS
 62
     2
 10
966.7
 20
463.8
 30
0.0
 40
4.0
  0
LINE
  8
0
  6
CONTINUOUS
 62
     1
 10
945.7
 20
474.8
 30
0.0
 11
954.360254038
 21
479.8
 31
0.0
  0
LINE
  8
0
  6
CONTINUOUS
 62
     1
 10
954.35
 20
479.8
 30
0.0
 11
979.05
 21
479.8
 31
0.0
  0
LINE
  8
0
  6
CONTINUOUS
 62
     1
 10
954.35
 20
447.8
 30
0.0
 11
954.35
 21
479.8
 31
0.0
  0
LINE
  8
0
  6
CONTINUOUS
 62
     1
 10
979.05
 20
447.8
 30
0.0
 11
979.05
 21
479.8
 31
0.0
  0
LINE
  8
0
  6
CONTINUOUS
 62
     1
 10
987.7
 20
474.8
 30
0.0
 11
979.039745962
 21
479.8
 31
0.0
  0
LINE
  8
0
  6
CONTINUOUS
 62
     1
 10
987.7
 20
452.8
 30
0.0
 11
987.7
 21
474.8
 31
0.0
  0
LINE
  8
0
  6
CONTINUOUS
 62
     1
 10
945.7
 20
452.8
 30
0.0
 11
945.7
 21
474.8
 31
0.0
  0
LINE
  8
0
  6
CONTINUOUS
 62
     1
 10
954.35
 20
447.8
 30
0.0
 11
979.05
 21
447.8
 31
0.0
  0
LINE
  8
0
  6
CONTINUOUS
 62
     1
 10
945.7
 20
452.8
 30
0.0
 11
954.360254038
 21
447.8
 31
0.0
  0
LINE
  8
0
  6
CONTINUOUS
 62
     1
 10
987.7
 20
452.8
 30
0.0
 11
979.039745962
 21
447.8
 31
0.0
  0
LINE
  8
0
  6
CONTINUOUS
 62
     1
 10
1011.7
 20
453.05
 30
0.0
 11
1014.7
 21
453.05
 31
0.0
  0
LINE
  8
0
  6
CONTINUOUS
 62
     1
 10
1011.7
 20
450.8
 30
0.0
 11
1011.7
 21
626.8
 31
0.0
  0
LINE
  8
0
  6
CONTINUOUS
 62
     1
 10
1011.7
 20
474.55
 30
0.0
 11
1014.7
 21
474.55
 31
0.0
  0
LINE
  8
0
  6
CONTINUOUS
 62
     1
 10
1011.7
 20
463.8
 30
0.0
 11
1014.700254073
 21
466.800254073
 31
0.0
  0
LINE
  8
0
  6
CONTINUOUS
 62
     1
 10
1014.700254073
 20
463.8
 30
0.0
 11
1011.7
 21
460.799745927
 31
0.0
  0
LINE
  8
0
  6
CONTINUOUS
 62
     1
 10
1014.7
 20
463.8
 30
0.0
 11
1014.7
 21
452.85046
 31
0.0
  0
LINE
  8
0
  6
CONTINUOUS
 62
     1
 10
1022.7211
 20
463.8
 30
0.0
 11
1022.7211
 21
455.53198
 31
0.0
  0
ARC
  8
0
  6
CONTINUOUS
 62
     1
 10
1012.266878307
 20
463.8
 30
0.0
 40
10.454221693
 50
328.419912243
 51
31.580087757
  0
ARC
  8
0
  6
CONTINUOUS
 62
     1
 10
1019.527986394
 20
455.587845
 30
0.0
 40
3.193602261
 50
357.010501597
 51
58.997686085
  0
LINE
  8
0
  6
CONTINUOUS
 62
     1
 10
1014.7
 20
458.32523
 30
0.0
 11
1021.172923706
 21
458.32523
 31
0.0
  0
LINE
  8
0
  6
CONTINUOUS
 62
     1
 10
1022.7211
 20
457.8
 30
0.0
 11
1035.7
 21
457.8
 31
0.0
  0
LINE
  8
0
  6
CONTINUOUS
 62
     1
 10
1035.7
 20
457.8
 30
0.0
 11
1035.7
 21
469.8
 31
0.0
  0
LINE
  8
0
  6
CONTINUOUS
 62
     1
 10
1014.7
 20
463.8
 30
0.0
 11
1014.7
 21
474.74954
 31
0.0
  0
LINE
  8
0
  6
CONTINUOUS
 62
     1
 10
1022.7211
 20
472.06802
 30
0.0
 11
1021.172923706
 21
474.74954
 31
0.0
  0
LINE
  8
0
  6
CONTINUOUS
 62
     1
 10
1022.7211
 20
463.8
 30
0.0
 11
1022.7211
 21
472.06802
 31
0.0
  0
ARC
  8
0
  6
CONTINUOUS
 62
     1
 10
1019.527986394
 20
472.012155
 30
0.0
 40
3.193602261
 50
301.002313915
 51
2.989498403
  0
LINE
  8
0
  6
CONTINUOUS
 62
     1
 10
1014.7
 20
474.74954
 30
0.0
 11
1021.172923706
 21
474.74954
 31
0.0
  0
LINE
  8
0
  6
CONTINUOUS
 62
     1
 10
1014.7
 20
469.27477
 30
0.0
 11
1021.172923706
 21
469.27477
 31
0.0
  0
LINE
  8
0
  6
CONTINUOUS
 62
     1
 10
1022.7211
 20
469.8
 30
0.0
 11
1035.7
 21
469.8
 31
0.0
  0
LINE
  8
0
  6
CONTINUOUS
 62
     1
 10
1022.7211
 20
455.53198
 30
0.0
 11
1021.172923706
 21
452.85046
 31
0.0
  0
LINE
  8
0
  6
CONTINUOUS
 62
     1
 10
1022.7211
 20
455.53198
 30
0.0
 11
1021.172923706
 21
452.85046
 31
0.0
  0
LINE
  8
0
  6
CONTINUOUS
 62
     1
 10
1014.7
 20
452.85046
 30
0.0
 11
1021.172923706
 21
452.85046
 31
0.0
  0
LINE
  8
0
  6
LTYPE2
 62
     2
 10
892.7
 20
551.05
 30
0.0
 11
892.7
 21
645.05
 31
0.0
  0
LINE
  8
0
  6
CONTINUOUS
 62
     1
 10
885.7
 20
561.3
 30
0.0
 11
899.7
 21
561.3
 31
0.0
  0
LINE
  8
0
  6
CONTINUOUS
 62
     1
 10
896.7
 20
581.3
 30
0.0
 11
896.7
 21
637.05
 31
0.0
  0
LINE
  8
0
  6
CONTINUOUS
 62
     1
 10
888.7
 20
581.3
 30
0.0
 11
888.7
 21
637.05
 31
0.0
  0
LINE
  8
0
  6
CONTINUOUS
 62
     1
 10
885.7
 20
581.3
 30
0.0
 11
899.7
 21
581.3
 31
0.0
  0
ARC
  8
0
  6
CONTINUOUS
 62
     1
 10
892.7
 20
637.05
 30
0.0
 40
4.0
 50
0.0
 51
180.0
  0
LINE
  8
0
  6
LTYPE5
 62
     2
 10
1213.583016023
 20
679.430274068
 30
0.0
 11
1248.938355082
 21
714.785613127
 31
0.0
  0
ARC
  8
0
  6
LTYPE1
 62
     1
 10
1231.826370977
 20
697.673629023
 30
0.0
 40
16.0
 50
225.0
 51
99.340912304
  0
ARC
  8
0
  6
CONTINUOUS
 62
     1
 10
1231.826370977
 20
697.673629023
 30
0.0
 40
16.0
 50
99.340912304
 51
170.659087696
  0
LINE
  8
0
  6
CONTINUOUS
 62
     1
 10
1217.205465137
 20
688.002470651
 30
0.0
 11
1209.022177284
 21
679.819182798
 31
0.0
  0
LINE
  8
0
  6
CONTINUOUS
 62
     1
 10
1211.872701496
 20
694.690522289
 30
0.0
 11
1177.025595435
 21
659.843416229
 31
0.0
  0
LINE
  8
0
  6
CONTINUOUS
 62
     1
 10
1216.292118878
 20
687.796231173
 30
0.0
 11
1208.668623894
 21
680.172736188
 31
0.0
  0
LINE
  8
0
  6
LTYPE2
 62
     2
 10
1208.350425842
 20
692.86530291
 30
0.0
 11
1221.926876041
 21
679.288852712
 31
0.0
  0
LINE
  8
0
  6
LTYPE1
 62
     2
 10
1221.396545955
 20
692.193551468
 30
0.0
 11
1226.346293423
 21
687.243804
 31
0.0
  0
LINE
  8
0
  6
LTYPE1
 62
     2
 10
1226.346293423
 20
687.243804
 30
0.0
 11
1221.020895477
 21
681.918406054
 31
0.0
  0
ARC
  8
0
  6
LTYPE1
 62
     1
 10
1231.826370977
 20
697.673629023
 30
0.0
 40
16.0
 50
170.659087696
 51
225.0
  0
LINE
  8
0
  6
LTYPE1
 62
     2
 10
1221.396545955
 20
692.193551468
 30
0.0
 11
1217.205465137
 21
688.002470651
 31
0.0
  0
LINE
  8
0
  6
LTYPE1
 62
     1
 10
1212.734487885
 20
695.552308679
 30
0.0
 11
1211.872701496
 21
694.690522289
 31
0.0
  0
LINE
  8
0
  6
LTYPE1
 62
     1
 10
1218.391342135
 20
689.89545443
 30
0.0
 11
1216.292118878
 21
687.796231173
 31
0.0
  0
LINE
  8
0
  6
LTYPE5
 62
     2
 10
1219.239870272
 20
710.260129728
 30
0.0
 11
1333.944043872
 21
595.555956128
 31
0.0
  0
LINE
  8
0
  6
CONTINUOUS
 62
     1
 10
1213.441594667
 20
697.673629023
 30
0.0
 11
1289.102020254
 21
588.072077939
 31
0.0
  0
LINE
  8
0
  6
CONTINUOUS
 62
     1
 10
1213.441594667
 20
697.673629023
 30
0.0
 11
1231.826370977
 21
716.058405333
 31
0.0
  0
LINE
  8
0
  6
LTYPE1
 62
     1
 10
1212.734487885
 20
695.552308679
 30
0.0
 11
1219.746630132
 21
688.540166432
 31
0.0
  0
LINE
  8
0
  6
CONTINUOUS
 62
     2
 10
1177.025595435
 20
667.843416229
 30
0.0
 11
1177.025595435
 21
792.372652293
 31
0.0
  0
LINE
  8
0
  6
CONTINUOUS
 62
     1
 10
1284.859379566
 20
698.380735804
 30
0.0
 11
1285.566486348
 21
697.673629023
 31
0.0
  0
LINE
  8
0
  6
CONTINUOUS
 62
     1
 10
1313.143650814
 20
726.665007051
 30
0.0
 11
1284.859379566
 21
698.380735804
 31
0.0
  0
LINE
  8
0
  6
CONTINUOUS
 62
     1
 10
1295.112427894
 20
727.018560442
 30
0.0
 11
1304.304816049
 21
717.826172286
 31
0.0
  0
LINE
  8
0
  6
CONTINUOUS
 62
     1
 10
1284.505826176
 20
716.411958724
 30
0.0
 11
1293.698214331
 21
707.219570569
 31
0.0
  0
LINE
  8
0
  6
CONTINUOUS
 62
     1
 10
1282.738059223
 20
700.502056147
 30
0.0
 11
1291.576893988
 21
709.340890912
 31
0.0
  0
LINE
  8
2
  6
CONTINUOUS
 62
     2
 10
1328.7
 20
743.539142961
 30
0.0
 11
1328.7
 21
775.372652293
 31
0.0
  0
CIRCLE
  8
0
  6
CONTINUOUS
 62
     1
 10
1231.826370977
 20
697.673629023
 30
0.0
 40
6.49995
  0
LINE
  8
0
  6
CONTINUOUS
 62
     1
 10
1233.772979378
 20
704.919338067
 30
0.0
 11
1226.527270333
 21
702.972729667
 31
0.0
  0
CIRCLE
  8
0
  6
LTYPE1
 62
     2
 10
1231.826370977
 20
697.673629023
 30
0.0
 40
3.2
  0
CIRCLE
  8
0
  6
CONTINUOUS
 62
     1
 10
1231.826370977
 20
697.673629023
 30
0.0
 40
4.0
  0
LINE
  8
0
  6
CONTINUOUS
 62
     1
 10
1239.072080022
 20
699.620237423
 30
0.0
 11
1237.125471622
 21
692.374528378
 31
0.0
  0
LINE
  8
0
  6
CONTINUOUS
 62
     1
 10
1239.072080022
 20
699.620237423
 30
0.0
 11
1233.772979378
 21
704.919338067
 31
0.0
  0
LINE
  8
0
  6
LTYPE1
 62
     1
 10
1233.947691321
 20
716.765512115
 30
0.0
 11
1234.809477711
 21
717.627298504
 31
0.0
  0
LINE
  8
0
  6
CONTINUOUS
 62
     1
 10
1249.680817202
 20
720.477822716
 30
0.0
 11
1254.630564671
 21
715.528075248
 31
0.0
  0
LINE
  8
0
  6
LTYPE2
 62
     2
 10
1234.937640815
 20
722.846630433
 30
0.0
 11
1250.211147288
 21
707.573123959
 31
0.0
  0
LINE
  8
0
  6
CONTINUOUS
 62
     1
 10
1249.256553134
 20
720.902086785
 30
0.0
 11
1257.2822151
 21
725.95790027
 31
0.0
  0
LINE
  8
0
  6
LTYPE1
 62
     2
 10
1237.306448532
 20
708.103454045
 30
0.0
 11
1242.256196
 21
703.153706577
 31
0.0
  0
LINE
  8
0
  6
LTYPE1
 62
     2
 10
1247.581593946
 20
708.479104523
 30
0.0
 11
1242.256196
 21
703.153706577
 31
0.0
  0
LINE
  8
0
  6
CONTINUOUS
 62
     1
 10
1241.703768827
 20
713.207881122
 30
0.0
 11
1249.327263812
 21
720.831376106
 31
0.0
  0
LINE
  8
0
  6
CONTINUOUS
 62
     1
 10
1234.809477711
 20
717.627298504
 30
0.0
 11
1269.656583771
 21
752.474404565
 31
0.0
  0
LINE
  8
0
  6
LTYPE1
 62
     1
 10
1239.60454557
 20
711.108657865
 30
0.0
 11
1241.703768827
 21
713.207881122
 31
0.0
  0
LINE
  8
0
  6
CONTINUOUS
 62
     1
 10
1229.879762577
 20
690.427919978
 30
0.0
 11
1224.580661933
 21
695.727020622
 31
0.0
  0
LINE
  8
0
  6
CONTINUOUS
 62
     1
 10
1224.580661933
 20
695.727020622
 30
0.0
 11
1226.527270333
 21
702.972729667
 31
0.0
  0
LINE
  8
0
  6
CONTINUOUS
 62
     1
 10
1229.879762577
 20
690.427919978
 30
0.0
 11
1237.125471622
 21
692.374528378
 31
0.0
  0
LINE
  8
0
  6
CONTINUOUS
 62
     1
 10
1319.154058454
 20
727.018560442
 30
0.0
 11
1323.396699141
 21
722.775919755
 31
0.0
  0
LINE
  8
0
  6
LTYPE2
 62
     2
 10
1282.384505832
 20
750.494505577
 30
0.0
 11
1315.618524548
 21
717.260486861
 31
0.0
  0
LINE
  8
0
  6
CONTINUOUS
 62
     1
 10
1315.972077939
 20
723.836579926
 30
0.0
 11
1287.687806691
 21
752.120851174
 31
0.0
  0
LINE
  8
0
  6
LTYPE2
 62
     2
 10
1260.393484937
 20
751.13090168
 30
0.0
 11
1301.405678246
 21
710.118708371
 31
0.0
  0
CIRCLE
  8
0
  6
CONTINUOUS
 62
     1
 10
1286.556435841
 20
724.967950776
 30
0.0
 40
9.36
  0
LINE
  8
0
  6
LTYPE2
 62
     2
 10
1295.748823997
 20
734.160338932
 30
0.0
 11
1277.364047686
 21
715.775562621
 31
0.0
  0
CIRCLE
  8
0
  6
CONTINUOUS
 62
     2
 10
1286.556435841
 20
724.967950776
 30
0.0
 40
10.47
  0
LINE
  8
0
  6
LTYPE2
 62
     2
 10
1293.556792975
 20
696.612968851
 30
0.0
 11
1260.322774259
 21
729.846987567
 31
0.0
  0
LINE
  8
0
  6
CONTINUOUS
 62
     1
 10
1291.223340597
 20
748.585317268
 30
0.0
 11
1262.93906935
 21
720.301046021
 31
0.0
  0
LINE
  8
0
  6
CONTINUOUS
 62
     1
 10
1287.637938583
 20
744.999915254
 30
0.0
 11
1262.93906935
 21
720.301046021
 31
0.0
  0
LINE
  8
0
  6
CONTINUOUS
 62
     1
 10
1287.687806691
 20
752.120851174
 30
0.0
 11
1259.403535444
 21
723.836579926
 31
0.0
  0
LINE
  8
0
  6
CONTINUOUS
 62
     1
 10
1269.656583771
 20
752.474404565
 30
0.0
 11
1278.848971926
 21
743.282016409
 31
0.0
  0
LINE
  8
0
  6
CONTINUOUS
 62
     1
 10
1259.049982053
 20
741.867802847
 30
0.0
 11
1268.242370209
 21
732.675414691
 31
0.0
  0
LINE
  8
0
  6
CONTINUOUS
 62
     1
 10
1259.403535444
 20
723.836579926
 30
0.0
 11
1287.687806691
 21
695.552308679
 31
0.0
  0
LINE
  8
0
  6
CONTINUOUS
 62
     1
 10
1257.2822151
 20
725.95790027
 30
0.0
 11
1266.121049865
 21
734.796735035
 31
0.0
  0
LINE
  8
0
  6
LTYPE1
 62
     1
 10
1233.947691321
 20
716.765512115
 30
0.0
 11
1240.959833568
 21
709.753369868
 31
0.0
  0
LINE
  8
0
  6
CONTINUOUS
 62
     1
 10
1254.630564671
 20
715.528075248
 30
0.0
 11
1245.631146496
 21
706.528657072
 31
0.0
  0
LINE
  8
0
  6
CONTINUOUS
 62
     1
 10
1249.680817202
 20
720.477822716
 30
0.0
 11
1239.958098961
 21
710.755104475
 31
0.0
  0
LINE
  8
0
  6
LTYPE1
 62
     2
 10
1241.497529349
 20
712.294534863
 30
0.0
 11
1239.958098961
 21
710.755104475
 31
0.0
  0
LINE
  8
0
  6
CONTINUOUS
 62
     1
 10
1323.396699141
 20
722.775919755
 30
0.0
 11
1282.02555468
 21
681.404775294
 31
0.0
  0
LINE
  8
0
  6
CONTINUOUS
 62
     1
 10
1277.00563631
 20
684.870138298
 30
0.0
 11
1319.154058454
 21
727.018560442
 31
0.0
  0
LINE
  8
0
  6
CONTINUOUS
 62
     2
 10
1328.7
 20
747.539142961
 30
0.0
 11
1328.7
 21
792.372652293
 31
0.0
  0
ARC
  8
0
  6
CONTINUOUS
 62
     1
 10
1362.7
 20
723.8
 30
0.0
 40
2.0
 50
0.0
 51
90.0
  0
ARC
  8
0
  6
CONTINUOUS
 62
     1
 10
1370.7
 20
721.820045888
 30
0.0
 40
2.0
 50
0.0
 51
90.0
  0
LINE
  8
0
  6
CONTINUOUS
 62
     1
 10
1372.7
 20
677.8
 30
0.0
 11
1372.7
 21
721.820045888
 31
0.0
  0
LINE
  8
0
  6
CONTINUOUS
 62
     1
 10
1364.699899538
 20
723.820045888
 30
0.0
 11
1370.7
 21
723.820045888
 31
0.0
  0
LINE
  8
0
  6
CONTINUOUS
 62
     1
 10
1364.7
 20
723.820045888
 30
0.0
 11
1364.7
 21
685.146153846
 31
0.0
  0
ARC
  8
0
  6
CONTINUOUS
 62
     1
 10
1362.7
 20
685.146153846
 30
0.0
 40
2.0
 50
270.0
 51
0.0
  0
LINE
  8
0
  6
CONTINUOUS
 62
     1
 10
1362.7
 20
725.8
 30
0.0
 11
1314.008657865
 21
725.8
 31
0.0
  0
LINE
  8
0
  6
LTYPE5
 62
     2
 10
1328.7
 20
739.539142961
 30
0.0
 11
1328.7
 21
532.3
 31
0.0
  0
LINE
  8
0
  6
CONTINUOUS
 62
     2
 10
1328.7
 20
788.372652293
 30
0.0
 11
1177.025595435
 21
788.372652293
 31
0.0
  0
LINE
  8
0
  6
CONTINUOUS
 62
     2
 10
1177.025595435
 20
788.372652293
 30
0.0
 11
1187.89290757
 21
785.663127062
 31
0.0
  0
LINE
  8
0
  6
CONTINUOUS
 62
     2
 10
1177.025595435
 20
788.372652293
 30
0.0
 11
1187.89290757
 21
791.082177523
 31
0.0
  0
LINE
  8
0
  6
CONTINUOUS
 62
     2
 10
1328.7
 20
788.372652293
 30
0.0
 11
1317.832687866
 21
791.082177523
 31
0.0
  0
LINE
  8
0
  6
CONTINUOUS
 62
     2
 10
1328.7
 20
788.372652293
 30
0.0
 11
1317.832687866
 21
785.663127062
 31
0.0
  0
LINE
  8
0
  6
CONTINUOUS
 62
     1
 10
1209.022177284
 20
679.819182798
 30
0.0
 11
1213.971924752
 21
674.869435329
 31
0.0
  0
LINE
  8
0
  6
CONTINUOUS
 62
     1
 10
1208.597913215
 20
680.243446866
 30
0.0
 11
1203.54209973
 21
672.2177849
 31
0.0
  0
LINE
  8
0
  6
CONTINUOUS
 62
     1
 10
1202.481439558
 20
610.345941546
 30
0.0
 11
1206.724080245
 21
606.103300859
 31
0.0
  0
LINE
  8
0
  6
LTYPE2
 62
     2
 10
1211.532406357
 20
614.588582233
 30
0.0
 11
1178.298387642
 21
647.822600949
 31
0.0
  0
LINE
  8
0
  6
LTYPE2
 62
     2
 10
1200.360119215
 20
668.47011896
 30
0.0
 11
1233.59413793
 21
635.236100244
 31
0.0
  0
LINE
  8
0
  6
CONTINUOUS
 62
     1
 10
1233.947691321
 20
641.812193309
 30
0.0
 11
1205.663420074
 21
613.527922061
 31
0.0
  0
LINE
  8
0
  6
CONTINUOUS
 62
     1
 10
1205.663420074
 20
613.527922061
 30
0.0
 11
1205.734130752
 21
613.457211383
 31
0.0
  0
LINE
  8
0
  6
CONTINUOUS
 62
     1
 10
1177.379148826
 20
641.812193309
 30
0.0
 11
1205.663420074
 21
613.527922061
 31
0.0
  0
LINE
  8
0
  6
CONTINUOUS
 62
     1
 10
1233.947691321
 20
641.812193309
 30
0.0
 11
1205.663420074
 21
670.096464556
 31
0.0
  0
LINE
  8
0
  6
LTYPE2
 62
     2
 10
1179.783311882
 20
667.6923015
 30
0.0
 11
1220.795505191
 21
626.680108191
 31
0.0
  0
LINE
  8
0
  6
CONTINUOUS
 62
     1
 10
1203.54209973
 20
672.2177849
 30
0.0
 11
1194.703264965
 21
663.378950135
 31
0.0
  0
LINE
  8
0
  6
CONTINUOUS
 62
     1
 10
1194.703264965
 20
663.378950135
 30
0.0
 11
1184.096663247
 21
652.772348417
 31
0.0
  0
ARC
  8
0
  6
CONTINUOUS
 62
     1
 10
1195.410371746
 20
636.933156519
 30
0.0
 40
2.0
 50
135.0
 51
225.0
  0
LINE
  8
0
  6
CONTINUOUS
 62
     1
 10
1209.128243301
 20
653.479455198
 30
0.0
 11
1193.996158184
 21
638.347370081
 31
0.0
  0
ARC
  8
0
  6
CONTINUOUS
 62
     1
 10
1210.542456864
 20
652.065241636
 30
0.0
 40
2.0
 50
45.0
 51
135.0
  0
LINE
  8
0
  6
CONTINUOUS
 62
     1
 10
1193.996158184
 20
635.518942956
 30
0.0
 11
1209.128243301
 21
620.386857839
 31
0.0
  0
ARC
  8
0
  6
CONTINUOUS
 62
     1
 10
1210.542456864
 20
621.801071401
 30
0.0
 40
2.0
 50
225.0
 51
315.0
  0
LINE
  8
0
  6
LTYPE2
 62
     2
 10
1200.572251249
 20
626.962950904
 30
0.0
 11
1220.654083835
 21
647.04478349
 31
0.0
  0
LINE
  8
0
  6
CONTINUOUS
 62
     1
 10
1187.632197153
 20
670.450017947
 30
0.0
 11
1206.865501602
 21
651.216713499
 31
0.0
  0
LINE
  8
0
  6
CONTINUOUS
 62
     1
 10
1189.753517497
 20
647.115494168
 30
0.0
 11
1180.914682732
 21
638.276659403
 31
0.0
  0
LINE
  8
0
  6
CONTINUOUS
 62
     1
 10
1209.198953979
 20
666.56093065
 30
0.0
 11
1200.289408537
 21
657.651385207
 31
0.0
  0
LINE
  8
0
  6
CONTINUOUS
 62
     1
 10
1186.147272913
 20
650.580317396
 30
0.0
 11
1177.379148826
 21
641.812193309
 31
0.0
  0
LINE
  8
0
  6
CONTINUOUS
 62
     1
 10
1205.663420074
 20
670.096464556
 30
0.0
 11
1196.824585309
 21
661.257629791
 31
0.0
  0
LINE
  8
0
  6
CONTINUOUS
 62
     1
 10
1177.025595435
 20
659.843416229
 30
0.0
 11
1196.258899884
 21
640.610111781
 31
0.0
  0
LINE
  8
0
  6
CONTINUOUS
 62
     1
 10
1221.020895477
 20
681.918406054
 30
0.0
 11
1213.971924752
 21
674.869435329
 31
0.0
  0
LINE
  8
0
  6
CONTINUOUS
 62
     1
 10
1211.956670426
 20
653.479455198
 30
0.0
 11
1227.088755543
 21
638.347370081
 31
0.0
  0
LINE
  8
0
  6
CONTINUOUS
 62
     1
 10
1227.088755543
 20
635.518942956
 30
0.0
 11
1211.956670426
 21
620.386857839
 31
0.0
  0
LINE
  8
0
  6
CONTINUOUS
 62
     1
 10
1248.095224706
 20
647.47444532
 30
0.0
 11
1206.724080245
 21
606.103300859
 31
0.0
  0
LINE
  8
0
  6
CONTINUOUS
 62
     1
 10
1202.481439558
 20
610.345941546
 30
0.0
 11
1244.629861702
 21
652.49436369
 31
0.0
  0
LINE
  8
0
  6
CONTINUOUS
 62
     1
 10
1297.7
 20
608.8
 30
0.0
 11
1297.7
 21
592.8
 31
0.0
  0
LINE
  8
0
  6
CONTINUOUS
 62
     1
 10
1320.7
 20
620.8
 30
0.0
 11
1320.7
 21
580.8
 31
0.0
  0
LINE
  8
0
  6
CONTINUOUS
 62
     1
 10
1308.7
 20
620.8
 30
0.0
 11
1308.7
 21
580.8
 31
0.0
  0
LINE
  8
0
  6
CONTINUOUS
 62
     1
 10
1308.7
 20
620.8
 30
0.0
 11
1328.7
 21
620.8
 31
0.0
  0
LINE
  8
0
  6
CONTINUOUS
 62
     1
 10
1320.7
 20
608.8
 30
0.0
 11
1328.7
 21
608.8
 31
0.0
  0
LINE
  8
0
  6
CONTINUOUS
 62
     1
 10
1305.7
 20
585.8
 30
0.0
 11
1305.7
 21
615.8
 31
0.0
  0
LINE
  8
0
  6
CONTINUOUS
 62
     1
 10
1308.7
 20
615.8
 30
0.0
 11
1305.7
 21
615.8
 31
0.0
  0
LINE
  8
0
  6
LTYPE3
 62
     2
 10
1303.05
 20
596.4
 30
0.0
 11
1303.05
 21
604.8
 31
0.0
  0
CIRCLE
  8
0
  6
CONTINUOUS
 62
     1
 10
1303.05
 20
600.8
 30
0.0
 40
2.0
  0
LINE
  8
0
  6
CONTINUOUS
 62
     1
 10
1348.7
 20
615.8
 30
0.0
 11
1351.7
 21
615.8
 31
0.0
  0
LINE
  8
0
  6
CONTINUOUS
 62
     1
 10
1297.7
 20
608.8
 30
0.0
 11
1305.7
 21
608.8
 31
0.0
  0
LINE
  8
0
  6
LTYPE1
 62
     2
 10
1320.7
 20
608.8
 30
0.0
 11
1305.7
 21
608.8
 31
0.0
  0
LINE
  8
0
  6
LTYPE1
 62
     2
 10
1290.7
 20
608.8
 30
0.0
 11
1268.7
 21
608.8
 31
0.0
  0
LINE
  8
0
  6
LTYPE1
 62
     2
 10
1290.7
 20
592.8
 30
0.0
 11
1290.7
 21
608.8
 31
0.0
  0
LINE
  8
0
  6
CONTINUOUS
 62
     2
 10
1270.7
 20
651.8
 30
0.0
 11
1284.7
 21
651.8
 31
0.0
  0
LINE
  8
0
  6
CONTINUOUS
 62
     2
 10
1277.7
 20
658.8
 30
0.0
 11
1277.7
 21
644.8
 31
0.0
  0
ARC
  8
0
  6
LTYPE1
 62
     1
 10
1277.7
 20
651.8
 30
0.0
 40
4.5
 50
41.810314895
 51
138.189685105
  0
ARC
  8
0
  6
LTYPE1
 62
     1
 10
1277.7
 20
651.8
 30
0.0
 40
10.0
 50
162.542396876
 51
180.0
  0
ARC
  8
0
  6
LTYPE1
 62
     1
 10
1277.7
 20
651.8
 30
0.0
 40
4.5
 50
138.189685105
 51
0.0
  0
ARC
  8
0
  6
LTYPE1
 62
     1
 10
1277.7
 20
651.8
 30
0.0
 40
4.5
 50
0.0
 51
41.810314895
  0
LINE
  8
0
  6
LTYPE1
 62
     1
 10
1290.7
 20
624.888309077
 30
0.0
 11
1272.67747451
 21
621.539142961
 31
0.0
  0
LINE
  8
0
  6
LTYPE1
 62
     1
 10
1272.67747451
 20
621.539142961
 30
0.0
 11
1268.7
 21
620.8
 31
0.0
  0
LINE
  8
0
  6
LTYPE5
 62
     2
 10
1359.247012947
 20
631.347012947
 30
0.0
 11
1284.152272785
 21
556.252272785
 31
0.0
  0
ARC
  8
0
  6
CONTINUOUS
 62
     1
 10
1225.674541981
 20
636.933156519
 30
0.0
 40
2.0
 50
315.0
 51
45.0
  0
LINE
  8
0
  6
LTYPE5
 62
     2
 10
1359.247012947
 20
631.347012947
 30
0.0
 11
1284.152272785
 21
556.252272785
 31
0.0
  0
LINE
  8
0
  6
CONTINUOUS
 62
     1
 10
1358.7
 20
670.8
 30
0.0
 11
1358.7
 21
673.8
 31
0.0
  0
ARC
  8
0
  6
CONTINUOUS
 62
     1
 10
1354.7
 20
667.8
 30
0.0
 40
3.0
 50
90.0
 51
180.0
  0
ARC
  8
0
  6
CONTINUOUS
 62
     1
 10
1370.7
 20
681.8
 30
0.0
 40
2.0
 50
270.0
 51
0.0
  0
ARC
  8
0
  6
CONTINUOUS
 62
     1
 10
1370.7
 20
677.8
 30
0.0
 40
2.0
 50
270.0
 51
0.0
  0
ARC
  8
0
  6
CONTINUOUS
 62
     1
 10
1362.7
 20
675.8
 30
0.0
 40
2.0
 50
270.0
 51
0.0
  0
LINE
  8
0
  6
CONTINUOUS
 62
     2
 10
1386.7
 20
651.8
 30
0.0
 11
1372.7
 21
651.8
 31
0.0
  0
ARC
  8
0
  6
CONTINUOUS
 62
     1
 10
1379.7
 20
651.8
 30
0.0
 40
4.5
 50
138.189685104
 51
180.0
  0
ARC
  8
0
  6
CONTINUOUS
 62
     1
 10
1379.7
 20
651.8
 30
0.0
 40
4.5
 50
180.0
 51
41.810314896
  0
ARC
  8
0
  6
CONTINUOUS
 62
     1
 10
1379.7
 20
651.8
 30
0.0
 40
4.5
 50
41.810314896
 51
138.189685104
  0
LINE
  8
0
  6
LTYPE1
 62
     2
 10
1366.7
 20
608.8
 30
0.0
 11
1388.7
 21
608.8
 31
0.0
  0
LINE
  8
0
  6
LTYPE1
 62
     2
 10
1366.7
 20
592.8
 30
0.0
 11
1366.7
 21
608.8
 31
0.0
  0
LINE
  8
0
  6
CONTINUOUS
 62
     1
 10
1351.7
 20
615.8
 30
0.0
 11
1351.7
 21
585.8
 31
0.0
  0
LINE
  8
0
  6
CONTINUOUS
 62
     1
 10
1373.247727215
 20
608.578174593
 30
0.0
 11
1320.921825407
 21
556.252272785
 31
0.0
  0
LINE
  8
0
  6
CONTINUOUS
 62
     1
 10
1359.7
 20
608.8
 30
0.0
 11
1359.7
 21
592.8
 31
0.0
  0
LINE
  8
0
  6
CONTINUOUS
 62
     1
 10
1348.7
 20
620.8
 30
0.0
 11
1348.7
 21
580.8
 31
0.0
  0
LINE
  8
0
  6
LTYPE3
 62
     2
 10
1354.35
 20
605.2
 30
0.0
 11
1354.35
 21
596.8
 31
0.0
  0
LINE
  8
0
  6
CONTINUOUS
 62
     1
 10
1359.7
 20
608.8
 30
0.0
 11
1351.7
 21
608.8
 31
0.0
  0
LINE
  8
0
  6
LTYPE1
 62
     2
 10
1336.7
 20
608.8
 30
0.0
 11
1351.7
 21
608.8
 31
0.0
  0
LINE
  8
0
  6
CONTINUOUS
 62
     1
 10
1336.7
 20
620.8
 30
0.0
 11
1336.7
 21
580.8
 31
0.0
  0
CIRCLE
  8
0
  6
CONTINUOUS
 62
     1
 10
1354.35
 20
600.8
 30
0.0
 40
2.0
  0
LINE
  8
0
  6
CONTINUOUS
 62
     1
 10
1348.7
 20
620.8
 30
0.0
 11
1328.7
 21
620.8
 31
0.0
  0
LINE
  8
0
  6
CONTINUOUS
 62
     1
 10
1336.7
 20
608.8
 30
0.0
 11
1328.7
 21
608.8
 31
0.0
  0
LINE
  8
0
  6
LTYPE5
 62
     2
 10
1391.160039412
 20
600.8
 30
0.0
 11
1265.7
 21
600.8
 31
0.0
  0
LINE
  8
0
  6
CONTINUOUS
 62
     1
 10
1372.947895493
 20
623.72724872
 30
0.0
 11
1388.7
 21
620.8
 31
0.0
  0
CIRCLE
  8
0
  6
LTYPE1
 62
     2
 10
1328.7
 20
600.8
 30
0.0
 40
32.25
  0
LINE
  8
0
  6
CONTINUOUS
 62
     1
 10
1308.7
 20
580.8
 30
0.0
 11
1328.7
 21
580.8
 31
0.0
  0
LINE
  8
0
  6
CONTINUOUS
 62
     1
 10
1320.7
 20
592.8
 30
0.0
 11
1328.7
 21
592.8
 31
0.0
  0
LINE
  8
0
  6
CONTINUOUS
 62
     1
 10
1308.7
 20
585.8
 30
0.0
 11
1305.7
 21
585.8
 31
0.0
  0
LINE
  8
0
  6
CONTINUOUS
 62
     1
 10
1297.7
 20
592.8
 30
0.0
 11
1305.7
 21
592.8
 31
0.0
  0
LINE
  8
0
  6
LTYPE1
 62
     2
 10
1320.7
 20
592.8
 30
0.0
 11
1305.7
 21
592.8
 31
0.0
  0
LINE
  8
0
  6
LTYPE1
 62
     2
 10
1290.7
 20
592.8
 30
0.0
 11
1268.7
 21
592.8
 31
0.0
  0
LINE
  8
7
  6
CONTINUOUS
 62
     2
 10
1395.0
 20
600.8
 30
0.0
 11
1433.2
 21
600.8
 31
0.0
  0
LINE
  8
0
  6
CONTINUOUS
 62
     2
 10
1403.0
 20
600.8
 30
0.0
 11
1432.2
 21
600.8
 31
0.0
  0
LINE
  8
0
  6
CONTINUOUS
 62
     2
 10
1379.7
 20
658.8
 30
0.0
 11
1379.7
 21
644.8
 31
0.0
  0
ARC
  8
0
  6
CONTINUOUS
 62
     1
 10
1379.7
 20
651.8
 30
0.0
 40
10.0
 50
30.0
 51
90.0
  0
ARC
  8
0
  6
CONTINUOUS
 62
     1
 10
1379.7
 20
651.8
 30
0.0
 40
10.0
 50
0.0
 51
30.0
  0
LINE
  8
0
  6
CONTINUOUS
 62
     1
 10
1389.7
 20
565.3
 30
0.0
 11
1389.7
 21
651.8
 31
0.0
  0
LINE
  8
0
  6
CONTINUOUS
 62
     1
 10
1388.7
 20
580.8
 30
0.0
 11
1388.7
 21
620.8
 31
0.0
  0
LINE
  8
0
  6
LTYPE1
 62
     2
 10
1366.7
 20
592.8
 30
0.0
 11
1388.7
 21
592.8
 31
0.0
  0
LINE
  8
0
  6
CONTINUOUS
 62
     2
 10
1388.7
 20
579.7
 30
0.0
 11
1388.7
 21
494.8
 31
0.0
  0
LINE
  8
0
  6
CONTINUOUS
 62
     1
 10
1348.7
 20
585.8
 30
0.0
 11
1351.7
 21
585.8
 31
0.0
  0
ARC
  8
0
  6
CONTINUOUS
 62
     1
 10
1328.7
 20
600.8
 30
0.0
 40
57.0
 50
201.813245084
 51
338.186754916
  0
CIRCLE
  8
0
  6
CONTINUOUS
 62
     1
 10
1379.7
 20
549.8
 30
0.0
 40
4.5
  0
LINE
  8
0
  6
CONTINUOUS
 62
     2
 10
1386.7
 20
549.8
 30
0.0
 11
1372.7
 21
549.8
 31
0.0
  0
LINE
  8
0
  6
CONTINUOUS
 62
     2
 10
1379.7
 20
542.8
 30
0.0
 11
1379.7
 21
556.8
 31
0.0
  0
LINE
  8
0
  6
CONTINUOUS
 62
     1
 10
1389.7
 20
549.8
 30
0.0
 11
1389.7
 21
565.3
 31
0.0
  0
ARC
  8
0
  6
CONTINUOUS
 62
     1
 10
1379.7
 20
549.8
 30
0.0
 40
10.0
 50
270.0
 51
0.0
  0
LINE
  8
0
  6
CONTINUOUS
 62
     1
 10
1328.7
 20
539.8
 30
0.0
 11
1379.7
 21
539.8
 31
0.0
  0
LINE
  8
0
  6
CONTINUOUS
 62
     2
 10
1268.7
 20
578.9
 30
0.0
 11
1268.7
 21
495.7
 31
0.0
  0
CIRCLE
  8
0
  6
CONTINUOUS
 62
     1
 10
1277.7
 20
549.8
 30
0.0
 40
4.5
  0
LINE
  8
0
  6
CONTINUOUS
 62
     2
 10
1270.7
 20
549.8
 30
0.0
 11
1284.7
 21
549.8
 31
0.0
  0
LINE
  8
0
  6
CONTINUOUS
 62
     2
 10
1277.7
 20
542.8
 30
0.0
 11
1277.7
 21
556.8
 31
0.0
  0
LINE
  8
0
  6
CONTINUOUS
 62
     1
 10
1267.7
 20
564.6
 30
0.0
 11
1267.7
 21
549.8
 31
0.0
  0
ARC
  8
0
  6
CONTINUOUS
 62
     1
 10
1277.7
 20
549.8
 30
0.0
 40
10.0
 50
180.0
 51
270.0
  0
LINE
  8
0
  6
CONTINUOUS
 62
     1
 10
1277.7
 20
539.8
 30
0.0
 11
1328.7
 21
539.8
 31
0.0
  0
LINE
  8
0
  6
CONTINUOUS
 62
     1
 10
1348.7
 20
580.8
 30
0.0
 11
1328.7
 21
580.8
 31
0.0
  0
LINE
  8
0
  6
CONTINUOUS
 62
     1
 10
1336.7
 20
592.8
 30
0.0
 11
1328.7
 21
592.8
 31
0.0
  0
LINE
  8
0
  6
CONTINUOUS
 62
     1
 10
1359.7
 20
592.8
 30
0.0
 11
1351.7
 21
592.8
 31
0.0
  0
LINE
  8
0
  6
LTYPE1
 62
     2
 10
1336.7
 20
592.8
 30
0.0
 11
1351.7
 21
592.8
 31
0.0
  0
TEXT
  8
0
  6
CONTINUOUS
 62
     2
 10
1311.7
 20
506.7
 30
0.8
 40
12.0
  1
１２０
 50
0.0
 41
0.9
 51
0.0
  7
KANJI45
  0
LINE
  8
0
  6
CONTINUOUS
 62
     1
 10
1370.215396986
 20
577.719232831
 30
0.0
 11
1388.7
 21
580.8
 31
0.0
  0
LINE
  8
0
  6
CONTINUOUS
 62
     1
 10
1284.089826945
 20
578.235028843
 30
0.0
 11
1268.7
 21
580.8
 31
0.0
  0
LINE
  8
0
  6
CONTINUOUS
 62
     2
 10
1268.7
 20
502.7
 30
0.0
 11
1388.7
 21
502.7
 31
0.0
  0
LINE
  8
0
  6
CONTINUOUS
 62
     2
 10
1388.7
 20
502.7
 30
0.0
 11
1379.040741737
 21
505.288190451
 31
0.0
  0
LINE
  8
0
  6
CONTINUOUS
 62
     2
 10
1388.7
 20
502.7
 30
0.0
 11
1379.040741737
 21
500.111809549
 31
0.0
  0
LINE
  8
0
  6
CONTINUOUS
 62
     2
 10
1268.7
 20
502.7
 30
0.0
 11
1278.359258263
 21
500.111809549
 31
0.0
  0
LINE
  8
0
  6
CONTINUOUS
 62
     2
 10
1268.7
 20
502.7
 30
0.0
 11
1278.359258263
 21
505.288190451
 31
0.0
  0
LINE
  8
0
  6
CONTINUOUS
 62
     1
 10
1301.476388924
 20
575.697709268
 30
0.0
 11
1289.102020254
 21
588.072077939
 31
0.0
  0
LINE
  8
0
  6
CONTINUOUS
 62
     1
 10
1305.719029611
 20
579.940349955
 30
0.0
 11
1301.476388924
 21
575.697709268
 31
0.0
  0
LINE
  8
0
  6
CONTINUOUS
 62
     1
 10
1307.840349955
 20
577.819029611
 30
0.0
 11
1303.597709268
 21
573.576388924
 31
0.0
  0
LINE
  8
0
  6
CONTINUOUS
 62
     1
 10
1320.921825407
 20
556.252272785
 30
0.0
 11
1303.597709268
 21
573.576388924
 31
0.0
  0
LINE
  8
0
  6
CONTINUOUS
 62
     1
 10
1373.247727215
 20
608.578174593
 30
0.0
 11
1355.923611076
 21
625.902290732
 31
0.0
  0
LINE
  8
0
  6
CONTINUOUS
 62
     1
 10
1355.923611076
 20
625.902290732
 30
0.0
 11
1351.680970389
 21
621.659650045
 31
0.0
  0
LINE
  8
0
  6
CONTINUOUS
 62
     1
 10
1353.802290732
 20
628.023611076
 30
0.0
 11
1349.559650045
 21
623.780970389
 31
0.0
  0
LINE
  8
0
  6
CONTINUOUS
 62
     1
 10
1353.802290732
 20
628.023611076
 30
0.0
 11
1341.427922061
 21
640.397979746
 31
0.0
  0
LINE
  8
0
  6
CONTINUOUS
 62
     1
 10
1240.311652352
 20
639.690872965
 30
0.0
 11
1260.464195615
 21
619.538329701
 31
0.0
  0
ARC
  8
0
  6
CONTINUOUS
 62
     1
 10
1261.878409178
 20
620.952543264
 30
0.0
 40
2.0
 50
225.0
 51
315.0
  0
LINE
  8
0
  6
CONTINUOUS
 62
     1
 10
1265.413943084
 20
621.659650045
 30
0.0
 11
1263.29262274
 21
619.538329701
 31
0.0
  0
ARC
  8
0
  6
CONTINUOUS
 62
     1
 10
1274.606331239
 20
592.668272016
 30
0.0
 40
2.0
 50
135.0
 51
225.0
  0
LINE
  8
0
  6
CONTINUOUS
 62
     1
 10
1273.192117677
 20
591.254058454
 30
0.0
 11
1284.505826176
 21
579.940349955
 31
0.0
  0
ARC
  8
0
  6
CONTINUOUS
 62
     1
 10
1285.920039738
 20
581.354563517
 30
0.0
 40
2.0
 50
225.0
 51
315.0
  0
LINE
  8
0
  6
CONTINUOUS
 62
     1
 10
1289.809127035
 20
689.188347648
 30
0.0
 11
1309.961670299
 21
669.035804385
 31
0.0
  0
ARC
  8
0
  6
CONTINUOUS
 62
     1
 10
1308.547456736
 20
667.621590822
 30
0.0
 40
2.0
 50
315.0
 51
45.0
  0
LINE
  8
0
  6
CONTINUOUS
 62
     1
 10
1307.840349955
 20
664.086056916
 30
0.0
 11
1309.961670299
 21
666.20737726
 31
0.0
  0
ARC
  8
0
  6
CONTINUOUS
 62
     1
 10
1336.831727984
 20
654.893668761
 30
0.0
 40
2.0
 50
45.0
 51
135.0
  0
LINE
  8
0
  6
CONTINUOUS
 62
     1
 10
1338.245941546
 20
656.307882323
 30
0.0
 11
1349.559650045
 21
644.994173824
 31
0.0
  0
ARC
  8
0
  6
CONTINUOUS
 62
     1
 10
1348.145436483
 20
643.579960262
 30
0.0
 40
2.0
 50
315.0
 51
45.0
  0
LINE
  8
0
  6
CONTINUOUS
 62
     1
 10
1279.882337765
 20
600.772705667
 30
0.0
 11
1273.192117677
 21
594.082485579
 31
0.0
  0
LINE
  8
0
  6
CONTINUOUS
 62
     1
 10
1328.496991924
 20
649.387359826
 30
0.0
 11
1335.417514421
 21
656.307882323
 31
0.0
  0
LINE
  8
0
  6
LTYPE1
 62
     2
 10
1286.7
 20
679.8
 30
0.0
 11
1291.796181881
 21
679.8
 31
0.0
  0
ARC
  8
0
  6
LTYPE1
 62
     2
 10
1286.7
 20
681.8
 30
0.0
 40
2.0
 50
180.0
 51
270.0
  0
ARC
  8
0
  6
LTYPE1
 62
     2
 10
1286.7
 20
677.8
 30
0.0
 40
2.0
 50
180.0
 51
270.0
  0
LINE
  8
0
  6
LTYPE1
 62
     2
 10
1284.7
 20
677.8
 30
0.0
 11
1284.7
 21
685.276823854
 31
0.0
  0
LINE
  8
0
  6
LTYPE1
 62
     2
 10
1286.7
 20
675.8
 30
0.0
 11
1296.978880519
 21
675.8
 31
0.0
  0
LINE
  8
0
  6
LTYPE1
 62
     2
 10
1292.700100462
 20
675.8
 30
0.0
 11
1292.700100462
 21
675.8
 31
0.0
  0
ARC
  8
0
  6
LTYPE1
 62
     2
 10
1294.700100462
 20
675.8
 30
0.0
 40
2.0
 50
180.0
 51
270.0
  0
LINE
  8
0
  6
LTYPE1
 62
     2
 10
1299.570229837
 20
673.8
 30
0.0
 11
1294.700100462
 21
673.8
 31
0.0
  0
LINE
  8
0
  6
LTYPE1
 62
     2
 10
1304.914631971
 20
673.8
 30
0.0
 11
1299.570229837
 21
673.8
 31
0.0
  0
LINE
  8
0
  6
LTYPE1
 62
     2
 10
1298.7
 20
670.8
 30
0.0
 11
1298.7
 21
673.8
 31
0.0
  0
LINE
  8
0
  6
LTYPE1
 62
     2
 10
1298.7
 20
670.8
 30
0.0
 11
1303.662925574
 21
670.8
 31
0.0
  0
ARC
  8
0
  6
LTYPE1
 62
     2
 10
1302.7
 20
667.8
 30
0.0
 40
3.0
 50
0.0
 51
90.0
  0
LINE
  8
0
  6
LTYPE1
 62
     2
 10
1303.662925574
 20
670.8
 30
0.0
 11
1305.793311627
 21
670.8
 31
0.0
  0
LINE
  8
0
  6
LTYPE1
 62
     2
 10
1305.7
 20
660.8
 30
0.0
 11
1305.7
 21
667.8
 31
0.0
  0
LINE
  8
0
  6
LTYPE1
 62
     2
 10
1291.796181881
 20
679.8
 30
0.0
 11
1299.197474683
 21
679.8
 31
0.0
  0
LINE
  8
0
  6
LTYPE1
 62
     2
 10
1294.7
 20
683.146153846
 30
0.0
 11
1295.851320837
 21
683.146153846
 31
0.0
  0
LINE
  8
0
  6
CONTINUOUS
 62
     1
 10
1284.7
 20
692.564501988
 30
0.0
 11
1284.7
 21
698.54011537
 31
0.0
  0
LINE
  8
0
  6
CONTINUOUS
 62
     1
 10
1292.7
 20
690.54011537
 30
0.0
 11
1292.7
 21
686.297474683
 31
0.0
  0
ARC
  8
0
  6
LTYPE1
 62
     2
 10
1294.7
 20
685.146153846
 30
0.0
 40
2.0
 50
180.0
 51
270.0
  0
LINE
  8
0
  6
LTYPE1
 62
     2
 10
1292.7
 20
686.226764005
 30
0.0
 11
1292.7
 21
685.146153846
 31
0.0
  0
LINE
  8
0
  6
LTYPE1
 62
     2
 10
1284.7
 20
685.467046966
 30
0.0
 11
1284.7
 21
692.564501988
 31
0.0
  0
LINE
  8
0
  6
LTYPE1
 62
     1
 10
1267.7
 20
651.8
 30
0.0
 11
1267.7
 21
619.075004474
 31
0.0
  0
LINE
  8
0
  6
LTYPE1
 62
     1
 10
1268.7
 20
617.626406343
 30
0.0
 11
1268.7
 21
620.8
 31
0.0
  0
LINE
  8
0
  6
CONTINUOUS
 62
     1
 10
1267.7
 20
619.075004474
 30
0.0
 11
1267.7
 21
564.6
 31
0.0
  0
LINE
  8
0
  6
CONTINUOUS
 62
     1
 10
1268.7
 20
580.8
 30
0.0
 11
1268.7
 21
617.626406343
 31
0.0
  0
LINE
  8
0
  6
LTYPE1
 62
     1
 10
1277.7
 20
661.8
 30
0.0
 11
1310.424995526
 21
661.8
 31
0.0
  0
LINE
  8
0
  6
CONTINUOUS
 62
     1
 10
1310.424995526
 20
661.8
 30
0.0
 11
1379.7
 21
661.8
 31
0.0
  0
ARC
  8
0
  6
LTYPE1
 62
     1
 10
1328.7
 20
600.8
 30
0.0
 40
57.0
 50
101.069835596
 51
158.027867552
  0
ARC
  8
0
  6
CONTINUOUS
 62
     1
 10
1328.7
 20
600.8
 30
0.0
 40
57.0
 50
21.972132448
 51
101.069835596
  0
ARC
  8
0
  6
CONTINUOUS
 62
     1
 10
1328.7
 20
600.8
 30
0.0
 40
47.5
 50
181.646196586
 51
63.239400847
  0
ARC
  8
0
  6
LTYPE1
 62
     2
 10
1328.7
 20
600.8
 30
0.0
 40
47.5
 50
63.239400847
 51
181.576892564
  0
LINE
  8
0
  6
CONTINUOUS
 62
     1
 10
1341.427922061
 20
640.397979746
 30
0.0
 11
1231.826370977
 21
716.058405333
 31
0.0
  0
LINE
  8
0
  6
CONTINUOUS
 62
     1
 10
1213.441594667
 20
697.673629023
 30
0.0
 11
1231.826370977
 21
716.058405333
 31
0.0
  0
LINE
  8
0
  6
LTYPE1
 62
     2
 10
1344.609902577
 20
637.215999231
 30
0.0
 11
1349.559650045
 21
642.165746699
 31
0.0
  0
LINE
  8
0
  6
LTYPE1
 62
     2
 10
1292.284000769
 20
584.890097423
 30
0.0
 11
1287.334253301
 21
579.940349955
 31
0.0
  0
LINE
  8
0
  6
CONTINUOUS
 62
     2
 10
1384.700026429
 20
539.8
 30
0.0
 11
1438.2
 21
539.8
 31
0.0
  0
TEXT
  8
0
  6
CONTINUOUS
 62
     3
 10
1423.2
 20
556.8
 30
0.0
 40
15.0
  1
６１
 50
90.0
 41
0.9
 51
0.0
  7
KANJI29
  0
LINE
  8
0
  6
CONTINUOUS
 62
     2
 10
1267.7
 20
544.800007629
 30
0.0
 11
1267.7
 21
438.0
 31
0.0
  0
LINE
  8
0
  6
CONTINUOUS
 62
     2
 10
1267.7
 20
448.0
 30
0.0
 11
1279.774072829
 21
444.764761936
 31
0.0
  0
LINE
  8
0
  6
CONTINUOUS
 62
     2
 10
1267.7
 20
448.0
 30
0.0
 11
1279.774072829
 21
451.235238064
 31
0.0
  0
LINE
  8
0
  6
CONTINUOUS
 62
     2
 10
1267.7
 20
448.0
 30
0.0
 11
1389.7
 21
448.0
 31
0.0
  0
LINE
  8
0
  6
CONTINUOUS
 62
     2
 10
1389.7
 20
448.0
 30
0.0
 11
1377.625927171
 21
451.235238064
 31
0.0
  0
LINE
  8
0
  6
CONTINUOUS
 62
     2
 10
1389.7
 20
448.0
 30
0.0
 11
1377.625927171
 21
444.764761936
 31
0.0
  0
LINE
  8
0
  6
CONTINUOUS
 62
     2
 10
1389.7
 20
544.80001706
 30
0.0
 11
1389.7
 21
438.0
 31
0.0
  0
TEXT
  8
0
  6
CONTINUOUS
 62
     3
 10
1308.45
 20
453.0
 30
0.0
 40
15.0
  1
１２２
 50
0.0
 41
0.9
 51
0.0
  7
KANJI29
  0
LINE
  8
0
  6
CONTINUOUS
 62
     2
 10
1427.2
 20
600.8
 30
0.0
 11
1438.2
 21
600.8
 31
0.0
  0
LINE
  8
0
  6
CONTINUOUS
 62
     2
 10
1428.2
 20
600.8
 30
0.0
 11
1424.964761936
 21
588.725927171
 31
0.0
  0
LINE
  8
0
  6
CONTINUOUS
 62
     2
 10
1428.2
 20
600.8
 30
0.0
 11
1431.435238064
 21
588.725927171
 31
0.0
  0
LINE
  8
0
  6
CONTINUOUS
 62
     2
 10
1428.2
 20
600.8
 30
0.0
 11
1428.2
 21
539.8
 31
0.0
  0
LINE
  8
0
  6
CONTINUOUS
 62
     2
 10
1428.2
 20
539.8
 30
0.0
 11
1431.435238064
 21
551.874072829
 31
0.0
  0
LINE
  8
0
  6
CONTINUOUS
 62
     2
 10
1428.2
 20
539.8
 30
0.0
 11
1424.964761936
 21
551.874072829
 31
0.0
  0
LINE
  8
0
  6
CONTINUOUS
 62
     2
 10
1422.2
 20
600.8
 30
0.0
 11
1438.2
 21
600.8
 31
0.0
  0
LINE
  8
0
  6
CONTINUOUS
 62
     2
 10
1428.2
 20
600.8
 30
0.0
 11
1431.435238064
 21
612.874072829
 31
0.0
  0
LINE
  8
0
  6
CONTINUOUS
 62
     2
 10
1428.2
 20
600.8
 30
0.0
 11
1424.964761936
 21
612.874072829
 31
0.0
  0
LINE
  8
0
  6
CONTINUOUS
 62
     2
 10
1428.2
 20
600.8
 30
0.0
 11
1428.2
 21
725.8
 31
0.0
  0
LINE
  8
0
  6
CONTINUOUS
 62
     2
 10
1428.2
 20
725.8
 30
0.0
 11
1424.964761936
 21
713.725927171
 31
0.0
  0
LINE
  8
0
  6
CONTINUOUS
 62
     2
 10
1428.2
 20
725.8
 30
0.0
 11
1431.435238064
 21
713.725927171
 31
0.0
  0
LINE
  8
0
  6
CONTINUOUS
 62
     2
 10
1367.7
 20
725.8
 30
0.0
 11
1438.2
 21
725.8
 31
0.0
  0
TEXT
  8
0
  6
CONTINUOUS
 62
     3
 10
1423.2
 20
643.05
 30
0.0
 40
15.0
  1
１２５
 50
90.0
 41
0.9
 51
0.0
  7
KANJI29
  0
LINE
  8
0
  6
CONTINUOUS
 62
     2
 10
143.0
 20
285.8
 30
0.0
 11
150.72740661
 21
283.729447639
 31
0.0
  0
LINE
  8
0
  6
CONTINUOUS
 62
     2
 10
143.0
 20
285.8
 30
0.0
 11
150.72740661
 21
287.870552361
 31
0.0
  0
LINE
  8
0
  6
CONTINUOUS
 62
     2
 10
143.0
 20
285.8
 30
0.0
 11
280.6
 21
285.8
 31
0.0
  0
LINE
  8
0
  6
CONTINUOUS
 62
     2
 10
280.6
 20
285.8
 30
0.0
 11
272.87259339
 21
287.870552361
 31
0.0
  0
LINE
  8
0
  6
CONTINUOUS
 62
     2
 10
280.6
 20
285.8
 30
0.0
 11
272.87259339
 21
283.729447639
 31
0.0
  0
LINE
  8
0
  6
CONTINUOUS
 62
     2
 10
280.6
 20
284.6
 30
0.0
 11
280.6
 21
281.8
 31
0.0
  0
LINE
  8
0
  6
CONTINUOUS
 62
     2
 10
280.6
 20
285.8
 30
0.0
 11
288.32740661
 21
283.729447639
 31
0.0
  0
LINE
  8
0
  6
CONTINUOUS
 62
     2
 10
280.6
 20
285.8
 30
0.0
 11
288.32740661
 21
287.870552361
 31
0.0
  0
LINE
  8
0
  6
CONTINUOUS
 62
     2
 10
280.6
 20
285.8
 30
0.0
 11
483.0
 21
285.8
 31
0.0
  0
LINE
  8
0
  6
CONTINUOUS
 62
     2
 10
483.0
 20
285.8
 30
0.0
 11
475.27259339
 21
287.870552361
 31
0.0
  0
LINE
  8
0
  6
CONTINUOUS
 62
     2
 10
483.0
 20
285.8
 30
0.0
 11
475.27259339
 21
283.729447639
 31
0.0
  0
LINE
  8
0
  6
CONTINUOUS
 62
     2
 10
280.6
 20
259.470552361
 30
0.0
 11
272.87259339
 21
261.541104722
 31
0.0
  0
LINE
  8
0
  6
CONTINUOUS
 62
     2
 10
280.6
 20
259.470552361
 30
0.0
 11
272.87259339
 21
257.4
 31
0.0
  0
LINE
  8
0
  6
CONTINUOUS
 62
     2
 10
268.6
 20
259.470552361
 30
0.0
 11
280.6
 21
259.470552361
 31
0.0
  0
LINE
  8
0
  6
CONTINUOUS
 62
     2
 10
280.6
 20
259.470552361
 30
0.0
 11
301.4
 21
259.470552361
 31
0.0
  0
LINE
  8
0
  6
CONTINUOUS
 62
     2
 10
301.4
 20
259.470552361
 30
0.0
 11
309.12740661
 21
257.4
 31
0.0
  0
LINE
  8
0
  6
CONTINUOUS
 62
     2
 10
301.4
 20
259.470552361
 30
0.0
 11
309.12740661
 21
261.541104722
 31
0.0
  0
LINE
  8
0
  6
CONTINUOUS
 62
     2
 10
143.0
 20
234.2
 30
0.0
 11
143.0
 21
228.2
 31
0.0
  0
LINE
  8
0
  6
CONTINUOUS
 62
     2
 10
143.0
 20
232.2
 30
0.0
 11
150.72740661
 21
230.129447639
 31
0.0
  0
LINE
  8
0
  6
CONTINUOUS
 62
     2
 10
143.0
 20
232.2
 30
0.0
 11
150.72740661
 21
234.270552361
 31
0.0
  0
LINE
  8
0
  6
CONTINUOUS
 62
     2
 10
143.0
 20
232.2
 30
0.0
 11
301.4
 21
232.2
 31
0.0
  0
LINE
  8
0
  6
CONTINUOUS
 62
     2
 10
301.4
 20
232.2
 30
0.0
 11
293.67259339
 21
234.270552361
 31
0.0
  0
LINE
  8
0
  6
CONTINUOUS
 62
     2
 10
301.4
 20
232.2
 30
0.0
 11
293.67259339
 21
230.129447639
 31
0.0
  0
LINE
  8
0
  6
CONTINUOUS
 62
     2
 10
301.4
 20
233.4
 30
0.0
 11
301.4
 21
228.2
 31
0.0
  0
LINE
  8
0
  6
CONTINUOUS
 62
     2
 10
301.4
 20
232.2
 30
0.0
 11
309.12740661
 21
230.129447639
 31
0.0
  0
LINE
  8
0
  6
CONTINUOUS
 62
     2
 10
301.4
 20
232.2
 30
0.0
 11
309.12740661
 21
234.270552361
 31
0.0
  0
LINE
  8
0
  6
CONTINUOUS
 62
     2
 10
483.0
 20
228.6
 30
0.0
 11
483.0
 21
228.2
 31
0.0
  0
LINE
  8
0
  6
CONTINUOUS
 62
     2
 10
143.0
 20
203.0
 30
0.0
 11
150.72740661
 21
200.929447639
 31
0.0
  0
LINE
  8
0
  6
CONTINUOUS
 62
     2
 10
143.0
 20
203.0
 30
0.0
 11
150.72740661
 21
205.070552361
 31
0.0
  0
LINE
  8
0
  6
CONTINUOUS
 62
     2
 10
143.0
 20
203.0
 30
0.0
 11
460.6
 21
203.0
 31
0.0
  0
LINE
  8
0
  6
CONTINUOUS
 62
     2
 10
460.6
 20
203.0
 30
0.0
 11
452.87259339
 21
205.070552361
 31
0.0
  0
LINE
  8
0
  6
CONTINUOUS
 62
     2
 10
460.6
 20
203.0
 30
0.0
 11
452.87259339
 21
200.929447639
 31
0.0
  0
LINE
  8
0
  6
CONTINUOUS
 62
     2
 10
460.6
 20
203.8
 30
0.0
 11
460.6
 21
199.0
 31
0.0
  0
LINE
  8
0
  6
CONTINUOUS
 62
     2
 10
460.6
 20
203.0
 30
0.0
 11
452.87259339
 21
205.070552361
 31
0.0
  0
LINE
  8
0
  6
CONTINUOUS
 62
     2
 10
460.6
 20
203.0
 30
0.0
 11
452.87259339
 21
200.929447639
 31
0.0
  0
LINE
  8
0
  6
CONTINUOUS
 62
     2
 10
448.6
 20
203.0
 30
0.0
 11
460.6
 21
203.0
 31
0.0
  0
LINE
  8
0
  6
CONTINUOUS
 62
     2
 10
460.6
 20
203.0
 30
0.0
 11
483.0
 21
203.0
 31
0.0
  0
LINE
  8
0
  6
CONTINUOUS
 62
     2
 10
483.0
 20
203.0
 30
0.0
 11
490.72740661
 21
200.929447639
 31
0.0
  0
LINE
  8
0
  6
CONTINUOUS
 62
     2
 10
483.0
 20
203.0
 30
0.0
 11
490.72740661
 21
205.070552361
 31
0.0
  0
LINE
  8
0
  6
CONTINUOUS
 62
     2
 10
143.0
 20
296.6
 30
0.0
 11
143.0
 21
281.8
 31
0.0
  0
LINE
  8
0
  6
CONTINUOUS
 62
     2
 10
483.0
 20
296.6
 30
0.0
 11
483.0
 21
281.8
 31
0.0
  0
LINE
  8
0
  6
CONTINUOUS
 62
     2
 10
280.6
 20
285.4
 30
0.0
 11
280.6
 21
296.6
 31
0.0
  0
LINE
  8
0
  6
CONTINUOUS
 62
     2
 10
301.4
 20
272.270552361
 30
0.0
 11
301.4
 21
255.470552361
 31
0.0
  0
LINE
  8
0
  6
CONTINUOUS
 62
     2
 10
143.0
 20
281.8
 30
0.0
 11
143.0
 21
189.8
 31
0.0
  0
LINE
  8
0
  6
CONTINUOUS
 62
     2
 10
483.0
 20
285.8
 30
0.0
 11
483.0
 21
191.0
 31
0.0
  0
LINE
  8
0
  6
CONTINUOUS
 62
     2
 10
301.4
 20
259.470552361
 30
0.0
 11
301.4
 21
223.0
 31
0.0
  0
LINE
  8
0
  6
CONTINUOUS
 62
     2
 10
280.6
 20
285.8
 30
0.0
 11
280.6
 21
250.2
 31
0.0
  0
TEXT
  8
0
  6
CONTINUOUS
 62
     3
 10
184.8
 20
287.8
 30
0.0
 40
15.0
  1
ｍｉｎ．Ｌ
 50
0.0
 41
0.9
 51
0.0
  7
KANJI29
  0
TEXT
  8
0
  6
CONTINUOUS
 62
     3
 10
338.6
 20
287.8
 30
0.0
 40
15.0
  1
機械的ストローク
 50
0.0
 41
0.9
 51
0.0
  7
KANJI29
  0
TEXT
  8
0
  6
CONTINUOUS
 62
     3
 10
313.4
 20
261.470552361
 30
0.0
 40
15.0
  1
余裕
 50
0.0
 41
0.9
 51
0.0
  7
KANJI29
  0
TEXT
  8
0
  6
CONTINUOUS
 62
     3
 10
195.2
 20
234.2
 30
0.0
 40
15.0
  1
常用ｍｉｎ
 50
0.0
 41
0.9
 51
0.0
  7
KANJI29
  0
TEXT
  8
0
  6
CONTINUOUS
 62
     3
 10
354.4
 20
234.2
 30
0.0
 40
15.0
  1
常用ストローク
 50
0.0
 41
0.9
 51
0.0
  7
KANJI29
  0
TEXT
  8
0
  6
CONTINUOUS
 62
     3
 10
274.8
 20
205.0
 30
0.0
 40
15.0
  1
常用ｍａｘ
 50
0.0
 41
0.9
 51
0.0
  7
KANJI29
  0
TEXT
  8
0
  6
CONTINUOUS
 62
     3
 10
495.0
 20
205.0
 30
0.0
 40
15.0
  1
余裕
 50
0.0
 41
0.9
 51
0.0
  7
KANJI29
  0
LINE
  8
0
  6
CONTINUOUS
 62
     2
 10
301.4
 20
259.470552361
 30
0.0
 11
341.5
 21
259.470552361
 31
0.0
  0
LINE
  8
0
  6
CONTINUOUS
 62
     2
 10
483.0
 20
203.0
 30
0.0
 11
525.5
 21
203.0
 31
0.0
  0
TEXT
  8
0
  6
CONTINUOUS
 62
     2
 10
1292.781202688
 20
484.119799552
 30
1.2
 40
12.8
  1
トラニオン幅
 50
0.0
 41
0.84375
 51
0.0
  7
KANJI46
  0
LINE
  8
0
  6
CONTINUOUS
 62
     1
 10
868.25
 20
1231.95
 30
0.0
 11
868.25
 21
979.95
 31
0.0
  0
LINE
  8
0
  6
CONTINUOUS
 62
     1
 10
1036.25
 20
1231.95
 30
0.0
 11
1036.25
 21
979.95
 31
0.0
  0
LINE
  8
0
  6
CONTINUOUS
 62
     2
 10
1116.25
 20
1231.95
 30
0.0
 11
1116.25
 21
979.95
 31
0.0
  0
LINE
  8
0
  6
CONTINUOUS
 62
     2
 10
1196.25
 20
1231.95
 30
0.0
 11
1196.25
 21
979.95
 31
0.0
  0
LINE
  8
0
  6
CONTINUOUS
 62
     2
 10
1276.25
 20
1231.95
 30
0.0
 11
1276.25
 21
979.95
 31
0.0
  0
LINE
  8
0
  6
CONTINUOUS
 62
     2
 10
1356.25
 20
1231.95
 30
0.0
 11
1356.25
 21
979.95
 31
0.0
  0
LINE
  8
0
  6
CONTINUOUS
 62
     2
 10
1436.25
 20
1231.95
 30
0.0
 11
1436.25
 21
979.95
 31
0.0
  0
LINE
  8
0
  6
CONTINUOUS
 62
     1
 10
1516.25
 20
1231.95
 30
0.0
 11
1516.25
 21
979.95
 31
0.0
  0
TEXT
  8
0
  6
CONTINUOUS
 62
     2
 10
881.25
 20
986.35
 30
0.8
 40
12.0
  1
ＭＣＥＤＢＢ０１－　　　ＪＬ
 50
0.0
 41
0.833333333
 51
0.0
  7
KANJI24
  0
LINE
  8
0
  6
CONTINUOUS
 62
     2
 10
460.6
 20
246.0
 30
0.0
 11
460.6
 21
190.2
 31
0.0
  0
LINE
  8
0
  6
CONTINUOUS
 62
     2
 10
460.6
 20
232.2
 30
0.0
 11
452.87259339
 21
234.270552361
 31
0.0
  0
LINE
  8
0
  6
CONTINUOUS
 62
     2
 10
460.6
 20
232.2
 30
0.0
 11
452.87259339
 21
230.129447639
 31
0.0
  0
LINE
  8
0
  6
CONTINUOUS
 62
     2
 10
301.4
 20
232.2
 30
0.0
 11
460.6
 21
232.2
 31
0.0
  0
LINE
  8
0
  6
LTYPE1
 62
     2
 10
1296.978880519
 20
675.8
 30
0.0
 11
1303.197474683
 21
675.8
 31
0.0
  0
LINE
  8
0
  6
CONTINUOUS
 62
     1
 10
1303.197474683
 20
675.8
 30
0.0
 11
1370.7
 21
675.8
 31
0.0
  0
LINE
  8
0
  6
CONTINUOUS
 62
     1
 10
1362.7
 20
673.8
 30
0.0
 11
1305.197474683
 21
673.8
 31
0.0
  0
LINE
  8
0
  6
CONTINUOUS
 62
     1
 10
1308.197474683
 20
670.8
 30
0.0
 11
1358.7
 21
670.8
 31
0.0
  0
LINE
  8
0
  6
CONTINUOUS
 62
     1
 10
1299.197474683
 20
679.8
 30
0.0
 11
1370.700015259
 21
679.8
 31
0.0
  0
LINE
  8
0
  6
CONTINUOUS
 62
     1
 10
1295.851320837
 20
683.146153846
 30
0.0
 11
1362.7
 21
683.146153846
 31
0.0
  0
LINE
  8
0
  6
CONTINUOUS
 62
     1
 10
1351.7
 20
661.8
 30
0.0
 11
1351.7
 21
667.8
 31
0.0
  0
LINE
  8
0
  6
LTYPE1
 62
     2
 10
1284.7
 20
698.54011537
 30
0.0
 11
1284.7
 21
716.411958724
 31
0.0
  0
LINE
  8
0
  6
LTYPE1
 62
     2
 10
1292.7
 20
723.067046966
 30
0.0
 11
1292.7
 21
690.54011537
 31
0.0
  0
LINE
  8
0
  6
LTYPE1
 62
     2
 10
1284.7
 20
716.411958724
 30
0.0
 11
1284.7
 21
721.820045888
 31
0.0
  0
ARC
  8
0
  6
LTYPE1
 62
     2
 10
1286.7
 20
721.820045888
 30
0.0
 40
2.0
 50
90.0
 51
180.0
  0
LINE
  8
0
  6
LTYPE1
 62
     2
 10
1286.7
 20
723.820045888
 30
0.0
 11
1292.700100462
 21
723.820045888
 31
0.0
  0
ARC
  8
0
  6
LTYPE1
 62
     2
 10
1294.7
 20
723.8
 30
0.0
 40
2.0
 50
90.0
 51
180.0
  0
LINE
  8
0
  6
LTYPE1
 62
     2
 10
1294.7
 20
725.8
 30
0.0
 11
1312.278643763
 21
725.8
 31
0.0
  0
TEXT
  8
2
  6
CONTINUOUS
 62
     2
 10
1153.819716322
 20
860.572652293
 30
0.0
 40
15.0
  1
２－ＰＦ１／２
 50
0.0
 41
0.9
 51
0.0
  7
KANJI29
  0
LINE
  8
2
  6
CONTINUOUS
 62
     2
 10
1290.174649635
 20
734.870698219
 30
0.0
 11
1264.124733044
 21
856.572652293
 31
0.0
  0
LINE
  8
2
  6
CONTINUOUS
 62
     2
 10
1264.124733044
 20
856.572652293
 30
0.0
 11
1153.819716322
 21
856.572652293
 31
0.0
  0
LINE
  8
2
  6
CONTINUOUS
 62
     2
 10
1290.2
 20
735.1
 30
0.0
 11
1291.298851058
 21
745.03944296
 31
0.0
  0
LINE
  8
2
  6
CONTINUOUS
 62
     2
 10
1290.2
 20
735.1
 30
0.0
 11
1286.181911451
 21
744.257235632
 31
0.0
  0
TEXT
  8
0
  6
CONTINUOUS
 62
     2
 10
1227.462797718
 20
792.372652293
 30
0.0
 40
15.0
  1
１５２
 50
0.0
 41
0.9
 51
0.0
  7
KANJI29
  0
TEXT
  8
2
  6
CONTINUOUS
 62
     2
 10
198.0
 20
742.1
 30
1.2
 40
16.0
  1
手動軸カバー
 50
0.0
 41
0.925
 51
0.0
  7
KANJI47
  0
TEXT
  8
2
  6
CONTINUOUS
 62
     2
 10
198.0
 20
718.1
 30
1.2
 40
16.0
  1
手動軸□１０
 50
0.0
 41
0.925
 51
0.0
  7
KANJI47
  0
LINE
  8
2
  6
CONTINUOUS
 62
     2
 10
312.385350584
 20
653.55
 30
0.0
 11
295.8
 21
738.1
 31
0.0
  0
LINE
  8
0
  6
CONTINUOUS
 62
     2
 10
295.8
 20
738.1
 30
0.0
 11
188.4
 21
738.1
 31
0.0
  0
TEXT
  8
0
  6
CONTINUOUS
 62
     2
 10
1391.9166945
 20
94.999995
 30
1.5
 40
17.5
  1
０７．０９．２６
 50
0.0
 41
0.571428571
 51
0.0
  7
KANJI48
  0
TEXT
  8
0
  6
CONTINUOUS
 62
     2
 10
1622.25
 20
1270.5
 30
138.5
 40
17.5
  1
形式
 50
0.0
 41
0.9
 51
0.0
  7
KANJI49
  0
TEXT
  8
0
  6
CONTINUOUS
 62
     2
 10
1622.25
 20
1235.5
 30
138.5
 40
17.5
  1
推力
 50
0.0
 41
0.9
 51
0.0
  7
KANJI49
  0
TEXT
  8
0
  6
CONTINUOUS
 62
     2
 10
1622.25
 20
1095.5
 30
138.5
 40
17.5
  1
構造
 50
0.0
 41
0.9
 51
0.0
  7
KANJI49
  0
TEXT
  8
0
  6
CONTINUOUS
 62
     2
 10
1622.25
 20
675.5
 30
138.5
 40
17.5
  1
台数
 50
0.0
 41
0.9
 51
0.0
  7
KANJI49
  0
TEXT
  8
0
  6
CONTINUOUS
 62
     2
 10
1622.25
 20
710.5
 30
61.375
 40
17.5
  1
付属品
 50
0.0
 41
0.9
 51
0.0
  7
KANJI50
  0
TEXT
  8
0
  6
CONTINUOUS
 62
     2
 10
1622.25
 20
1025.5
 30
61.375
 40
17.5
  1
塗装色
 50
0.0
 41
0.9
 51
0.0
  7
KANJI50
  0
TEXT
  8
0
  6
CONTINUOUS
 62
     2
 10
1622.25
 20
1200.5
 30
22.8125
 40
17.5
  1
ストローク
 50
0.0
 41
0.9
 51
0.0
  7
KANJI51
  0
TEXT
  8
0
  6
CONTINUOUS
 62
     2
 10
1622.25
 20
1060.5
 30
9.958
 40
17.5
  1
過負荷安全装置
 50
0.0
 41
0.9
 51
0.0
  7
KANJI52
  0
TEXT
  8
0
  6
CONTINUOUS
 62
     2
 10
1647.25
 20
1310.0
 30
14.2497
 40
22.5
  1
マイティシリンダ仕様
 50
0.0
 41
0.9
 51
0.0
  7
KANJI53
  0
TEXT
  8
0
  6
CONTINUOUS
 62
     2
 10
1647.25
 20
990.5
 30
15.3125
 40
17.5
  1
出力　極数
 50
0.0
 41
0.9
 51
0.0
  7
KANJI54
  0
TEXT
  8
0
  6
CONTINUOUS
 62
     2
 10
1647.25
 20
955.5
 30
25.6665
 40
17.5
  1
電源電圧
 50
0.0
 41
0.9
 51
0.0
  7
KANJI55
  0
TEXT
  8
0
  6
CONTINUOUS
 62
     2
 10
1647.25
 20
920.5
 30
46.375
 40
17.5
  1
周波数
 50
0.0
 41
0.9
 51
0.0
  7
KANJI56
  0
TEXT
  8
0
  6
CONTINUOUS
 62
     2
 10
1647.25
 20
850.5
 30
46.375
 40
17.5
  1
絶縁級
 50
0.0
 41
0.9
 51
0.0
  7
KANJI56
  0
TEXT
  8
0
  6
CONTINUOUS
 62
     2
 10
1647.25
 20
885.5
 30
108.5
 40
17.5
  1
電流
 50
0.0
 41
0.9
 51
0.0
  7
KANJI57
  0
TEXT
  8
0
  6
CONTINUOUS
 62
     2
 10
1647.25
 20
780.5
 30
108.5
 40
17.5
  1
形式
 50
0.0
 41
0.9
 51
0.0
  7
KANJI57
  0
TEXT
  8
0
  6
CONTINUOUS
 62
     2
 10
1647.25
 20
745.5
 30
25.6665
 40
17.5
  1
操作方式
 50
0.0
 41
0.9
 51
0.0
  7
KANJI55
  0
TEXT
  8
0
  6
CONTINUOUS
 62
     2
 10
1607.25
 20
1130.5
 30
1.5
 40
17.5
  1
ピストンロッド回転トルク
 50
0.0
 41
0.9
 51
0.0
  7
KANJI58
  0
TEXT
  8
0
  6
CONTINUOUS
 62
     2
 10
1605.125
 20
994.0
 30
11.0
 40
17.5
  1
モ　トル仕様
 50
0.0
 41
0.9
 51
0.0
  7
KANJI59
  0
TEXT
  8
0
  6
CONTINUOUS
 62
     2
 10
1604.0
 20
804.0
 30
0.857142857
 40
15.0
  1
ブレ　キ
 50
0.0
 41
0.9
 51
0.0
  7
KANJI60
  0
LINE
  8
0
  6
CONTINUOUS
 62
     2
 10
1603.75
 20
769.5
 30
0.0
 11
1603.75
 21
759.0
 31
0.0
  0
LINE
  8
0
  6
CONTINUOUS
 62
     2
 10
1603.75
 20
966.0
 30
0.0
 11
1603.75
 21
954.5
 31
0.0
  0
TEXT
  8
0
  6
CONTINUOUS
 62
     2
 10
1959.75
 20
1169.0
 30
0.1
 40
12.5
  1
ｍｍ／ｓｅｃ
 50
0.0
 41
0.8
 51
0.0
  7
KANJI61
  0
TEXT
  8
0
  6
CONTINUOUS
 62
     2
 10
1997.25
 20
1202.5
 30
0.1
 40
12.5
  1
ｍｍ
 50
0.0
 41
0.8
 51
0.0
  7
KANJI61
  0
TEXT
  8
0
  6
CONTINUOUS
 62
     2
 10
2004.25
 20
990.5
 30
10.982142857
 40
15.0
  1
Ｐ
 50
0.0
 41
0.9
 51
0.0
  7
KANJI62
  0
TEXT
  8
0
  6
CONTINUOUS
 62
     2
 10
1921.25
 20
990.5
 30
1.0
 40
15.0
  1
ＫＷ
 50
0.0
 41
0.857142857
 51
0.0
  7
KANJI63
  0
TEXT
  8
0
  6
CONTINUOUS
 62
     2
 10
1979.25
 20
990.5
 30
12.8125
 40
17.5
  1
４
 50
0.0
 41
0.9
 51
0.0
  7
KANJI64
  0
TEXT
  8
0
  6
CONTINUOUS
 62
     2
 10
1843.75
 20
1027.0
 30
0.5
 40
14.0
  1
マンセル
 50
0.0
 41
0.9
 51
0.0
  7
KANJI65
  0
TEXT
  8
0
  6
CONTINUOUS
 62
     2
 10
1902.25
 20
1028.0
 30
0.2
 40
14.0
  1
７．５ＧＹ５／４．５
 50
0.0
 41
0.785714286
 51
0.0
  7
KANJI66
  0
TEXT
  8
0
  6
CONTINUOUS
 62
     2
 10
1839.75
 20
781.0
 30
1.5
 40
14.0
  1
スプリング制動式電磁ブレーキ
 50
0.0
 41
0.8
 51
0.0
  7
KANJI67
  0
TEXT
  8
0
  6
CONTINUOUS
 62
     2
 10
1874.75
 20
745.5
 30
10.0
 40
17.5
  1
同時切り
 50
0.0
 41
0.9
 51
0.0
  7
KANJI68
  0
TEXT
  8
0
  6
CONTINUOUS
 62
     2
 10
2004.75
 20
955.5
 30
0.18
 40
15.0
  1
Ｖ
 50
0.0
 41
0.8
 51
0.0
  7
KANJI69
  0
TEXT
  8
0
  6
CONTINUOUS
 62
     2
 10
1995.75
 20
920.5
 30
0.18
 40
15.0
  1
Ｈｚ
 50
0.0
 41
0.8
 51
0.0
  7
KANJI69
  0
TEXT
  8
0
  6
CONTINUOUS
 62
     2
 10
2005.875
 20
886.625
 30
1.5
 40
15.0
  1
Ａ
 50
0.0
 41
0.9
 51
0.0
  7
KANJI70
  0
TEXT
  8
0
  6
CONTINUOUS
 62
     2
 10
1927.125
 20
852.875
 30
1.5
 40
15.0
  1
Ｅ
 50
0.0
 41
0.9
 51
0.0
  7
KANJI70
  0
LINE
  8
0
  6
CONTINUOUS
 62
     2
 10
1584.75
 20
736.5
 30
0.0
 11
2022.25
 21
736.5
 31
0.0
  0
LINE
  8
0
  6
CONTINUOUS
 62
     2
 10
1584.75
 20
1016.5
 30
0.0
 11
2022.25
 21
1016.5
 31
0.0
  0
LINE
  8
0
  6
CONTINUOUS
 62
     2
 10
1584.75
 20
806.5
 30
0.0
 11
2022.25
 21
806.5
 31
0.0
  0
LINE
  8
0
  6
CONTINUOUS
 62
     2
 10
1624.75
 20
771.5
 30
0.0
 11
2022.25
 21
771.5
 31
0.0
  0
LINE
  8
0
  6
CONTINUOUS
 62
     2
 10
1624.75
 20
841.5
 30
0.0
 11
2022.25
 21
841.5
 31
0.0
  0
LINE
  8
0
  6
CONTINUOUS
 62
     2
 10
1624.75
 20
876.5
 30
0.0
 11
2022.25
 21
876.5
 31
0.0
  0
LINE
  8
0
  6
CONTINUOUS
 62
     2
 10
1624.75
 20
946.5
 30
0.0
 11
2022.25
 21
946.5
 31
0.0
  0
LINE
  8
0
  6
CONTINUOUS
 62
     2
 10
1624.75
 20
911.5
 30
0.0
 11
2022.25
 21
911.5
 31
0.0
  0
LINE
  8
0
  6
CONTINUOUS
 62
     2
 10
1624.75
 20
981.5
 30
0.0
 11
2022.25
 21
981.5
 31
0.0
  0
LINE
  8
0
  6
CONTINUOUS
 62
     2
 10
1584.75
 20
1296.5
 30
0.0
 11
2022.25
 21
1296.5
 31
0.0
  0
LINE
  8
0
  6
CONTINUOUS
 62
     2
 10
1584.75
 20
1261.5
 30
0.0
 11
2022.25
 21
1261.5
 31
0.0
  0
LINE
  8
0
  6
CONTINUOUS
 62
     2
 10
1584.75
 20
1226.5
 30
0.0
 11
2022.25
 21
1226.5
 31
0.0
  0
LINE
  8
0
  6
CONTINUOUS
 62
     2
 10
1584.75
 20
1191.5
 30
0.0
 11
2022.25
 21
1191.5
 31
0.0
  0
LINE
  8
0
  6
CONTINUOUS
 62
     2
 10
1584.75
 20
1156.5
 30
0.0
 11
2022.25
 21
1156.5
 31
0.0
  0
LINE
  8
0
  6
CONTINUOUS
 62
     2
 10
1584.75
 20
1121.5
 30
0.0
 11
2022.25
 21
1121.5
 31
0.0
  0
LINE
  8
0
  6
CONTINUOUS
 62
     2
 10
1584.75
 20
1086.5
 30
0.0
 11
2022.25
 21
1086.5
 31
0.0
  0
LINE
  8
0
  6
CONTINUOUS
 62
     2
 10
1584.75
 20
1051.5
 30
0.0
 11
2022.25
 21
1051.5
 31
0.0
  0
LINE
  8
0
  6
CONTINUOUS
 62
     2
 10
1624.75
 20
1016.5
 30
0.0
 11
1624.75
 21
736.5
 31
0.0
  0
LINE
  8
0
  6
CONTINUOUS
 62
     1
 10
1584.75
 20
1346.5
 30
0.0
 11
2022.25
 21
1346.5
 31
0.0
  0
LINE
  8
0
  6
CONTINUOUS
 62
     2
 10
1584.75
 20
701.5
 30
0.0
 11
2022.25
 21
701.5
 31
0.0
  0
TEXT
  8
0
  6
CONTINUOUS
 62
     2
 10
1882.75
 20
956.0
 30
1.5
 40
15.0
  1
　　　／　
 50
0.0
 41
0.9
 51
0.0
  7
KANJI70
  0
TEXT
  8
0
  6
CONTINUOUS
 62
     2
 10
1897.125
 20
920.375
 30
1.5
 40
15.0
  1
　５０／６０
 50
0.0
 41
0.9
 51
0.0
  7
KANJI70
  0
TEXT
  8
0
  6
CONTINUOUS
 62
     2
 10
1871.75
 20
1096.0
 30
12.8125
 40
17.5
  1
全閉屋外形
 50
0.0
 41
0.9
 51
0.0
  7
KANJI64
  0
TEXT
  8
0
  6
CONTINUOUS
 62
     2
 10
1863.375
 20
991.625
 30
1.5
 40
15.0
  1
０．３
 50
0.0
 41
0.9
 51
0.0
  7
KANJI70
  0
TEXT
  8
0
  6
CONTINUOUS
 62
     2
 10
1864.25
 20
1235.5
 30
1.5
 40
15.0
  1
９８０Ｎ（１００ｋｇ）
 50
0.0
 41
0.9
 51
0.0
  7
KANJI70
  0
TEXT
  8
0
  6
CONTINUOUS
 62
     2
 10
1622.25
 20
1165.5
 30
5.0
 40
17.5
  1
公称速度（５０／６０Ｈｚ）
 50
0.0
 41
0.9
 51
0.0
  7
KANJI71
  0
TEXT
  8
0
  6
CONTINUOUS
 62
     2
 10
1852.125
 20
1165.375
 30
1.5
 40
15.0
  1
　７５／９０
 50
0.0
 41
0.9
 51
0.0
  7
KANJI70
  0
TEXT
  8
0
  6
CONTINUOUS
 62
     2
 10
1840.75
 20
1269.625
 30
1.0
 40
15.0
  1
ＭＣＥＤＢＢ０１－　　ＪＬ
 50
0.0
 41
0.833333333
 51
0.0
  7
KANJI72
  0
LINE
  8
0
  6
CONTINUOUS
 62
     2
 10
1910.0
 20
1067.5
 30
0.0
 11
1932.5
 21
1067.5
 31
0.0
  0
TEXT
  8
0
  6
CONTINUOUS
 62
     2
 10
1842.875
 20
1130.375
 30
0.0
 40
15.0
  1
２．９Ｎ・ｍ（０．３ｋｇ・ｍ）
 50
0.0
 41
0.833333333
 51
0.0
  7
KANJI73
  0
TEXT
  8
0
  6
CONTINUOUS
 62
     2
 10
1622.25
 20
675.5
 30
138.5
 40
17.5
  1
台数
 50
0.0
 41
0.9
 51
0.0
  7
KANJI49
  0
LINE
  8
0
  6
CONTINUOUS
 62
     1
 10
1584.75
 20
631.5
 30
0.0
 11
2022.25
 21
631.5
 31
0.0
  0
LINE
  8
0
  6
CONTINUOUS
 62
     2
 10
1584.75
 20
666.5
 30
0.0
 11
2022.25
 21
666.5
 31
0.0
  0
TEXT
  8
0
  6
CONTINUOUS
 62
     2
 10
1622.25
 20
640.5
 30
5.0
 40
17.5
  1
概算重量（１台当り）
 50
0.0
 41
0.857142857
 51
0.0
  7
KANJI11
  0
TEXT
  8
0
  6
CONTINUOUS
 62
     2
 10
1976.25
 20
641.65
 30
0.0
 40
17.5
  1
ｋｇ
 50
0.0
 41
0.9
 51
0.0
  7
KANJI74
  0
LINE
  8
0
  6
CONTINUOUS
 62
     2
 10
1834.75
 20
1296.5
 30
0.0
 11
1834.75
 21
631.5
 31
0.0
  0
LINE
  8
0
  6
CONTINUOUS
 62
     1
 10
1584.75
 20
1346.5
 30
0.0
 11
1584.75
 21
631.5
 31
0.0
  0
LINE
  8
0
  6
CONTINUOUS
 62
     1
 10
868.25
 20
979.95
 30
0.0
 11
1516.25
 21
979.95
 31
0.0
  0
LINE
  8
0
  6
CONTINUOUS
 62
     1
 10
928.699501379
 20
188.65
 30
0.0
 11
928.699501379
 21
170.65
 31
0.0
  0
ENDSEC
  0
EOF
