  0
SECTION
  2
HEADER
  9
$ACADVER
  1
AC1009
  9
$DWGCODEPAGE
  3
dos932
  9
$EXTMIN
 10
0.0
 20
0.0
 30
0.0
  9
$EXTMAX
 10
2100.0
 20
1485.0
 30
0.0
  9
$LIMMIN
 10
0.0
 20
0.0
  9
$LIMMAX
 10
2100.0
 20
1485.0
  9
$LTSCALE
 40
1.0
  9
$PDMODE
 70
     0
  0
ENDSEC
  0
SECTION
  2
TABLES
  0
TABLE
  2
VPORT
 70
     1
  0
VPORT
  2
*ACTIVE
 70
     0
 10
0.0
 20
0.0
 11
1.0
 21
1.0
 12
1050.0
 22
742.5
 13
0.0
 23
0.0
 14
10.0
 24
10.0
 15
10.0
 25
10.0
 16
0.0
 26
0.0
 36
1.0
 17
0.0
 27
0.0
 37
0.0
 40
2100.0
 41
1.414141414
 42
50.0
 43
0.0
 44
0.0
 50
0.0
 51
0.0
 71
     0
 72
  1000
 73
     1
 74
     3
 75
     0
 76
     0
 77
     0
 78
     0
  0
ENDTAB
  0
TABLE
  2
LTYPE
 70
     6
  0
LTYPE
  2
CONTINUOUS
 70
    64
  3
Solid line
 72
    65
 73
     0
 40
0.0
  0
LTYPE
  2
LTYPE1
 70
    64
  3
CENTER
 72
    65
 73
     4
 40
50.0
 49
35.0
 49
-5.0
 49
5.0
 49
-5.0
  0
LTYPE
  2
LTYPE2
 70
    64
  3
HIDDEN
 72
    65
 73
     2
 40
15.0
 49
9.0
 49
-6.0
  0
LTYPE
  2
LTYPE3
 70
    64
  3
PHANTOM
 72
    65
 73
     6
 40
75.0
 49
56.25
 49
-3.75
 49
3.75
 49
-3.75
 49
3.75
 49
-3.75
  0
LTYPE
  2
LTYPE4
 70
    64
  3
CENTER
 72
    65
 73
     4
 40
75.0
 49
52.5
 49
-7.5
 49
7.5
 49
-7.5
  0
LTYPE
  2
LTYPE5
 70
    64
  3
CENTER
 72
    65
 73
     4
 40
100.0
 49
70.0
 49
-10.0
 49
10.0
 49
-10.0
  0
ENDTAB
  0
TABLE
  2
LAYER
 70
   128
  0
LAYER
  2
0
 70
     0
 62
     7
  6
CONTINUOUS
  0
LAYER
  2
2
 70
     0
 62
     7
  6
CONTINUOUS
  0
LAYER
  2
3
 70
     0
 62
     7
  6
CONTINUOUS
  0
LAYER
  2
4
 70
     0
 62
     7
  6
CONTINUOUS
  0
LAYER
  2
5
 70
     0
 62
     7
  6
CONTINUOUS
  0
LAYER
  2
6
 70
     0
 62
     7
  6
CONTINUOUS
  0
LAYER
  2
7
 70
     0
 62
     7
  6
CONTINUOUS
  0
LAYER
  2
8
 70
     0
 62
     7
  6
CONTINUOUS
  0
LAYER
  2
9
 70
     0
 62
     7
  6
CONTINUOUS
  0
LAYER
  2
10
 70
     0
 62
     7
  6
CONTINUOUS
  0
LAYER
  2
11
 70
     0
 62
     7
  6
CONTINUOUS
  0
LAYER
  2
12
 70
     0
 62
     7
  6
CONTINUOUS
  0
LAYER
  2
13
 70
     0
 62
     7
  6
CONTINUOUS
  0
LAYER
  2
14
 70
     0
 62
     7
  6
CONTINUOUS
  0
LAYER
  2
15
 70
     0
 62
     7
  6
CONTINUOUS
  0
LAYER
  2
16
 70
     0
 62
     7
  6
CONTINUOUS
  0
LAYER
  2
17
 70
     0
 62
     7
  6
CONTINUOUS
  0
LAYER
  2
18
 70
     0
 62
     7
  6
CONTINUOUS
  0
LAYER
  2
19
 70
     0
 62
     7
  6
CONTINUOUS
  0
LAYER
  2
20
 70
     0
 62
     7
  6
CONTINUOUS
  0
LAYER
  2
21
 70
     0
 62
     7
  6
CONTINUOUS
  0
LAYER
  2
22
 70
     0
 62
     7
  6
CONTINUOUS
  0
LAYER
  2
23
 70
     0
 62
     7
  6
CONTINUOUS
  0
LAYER
  2
24
 70
     0
 62
     7
  6
CONTINUOUS
  0
LAYER
  2
25
 70
     0
 62
     7
  6
CONTINUOUS
  0
LAYER
  2
26
 70
     0
 62
     7
  6
CONTINUOUS
  0
LAYER
  2
27
 70
     0
 62
     7
  6
CONTINUOUS
  0
LAYER
  2
28
 70
     0
 62
     7
  6
CONTINUOUS
  0
LAYER
  2
29
 70
     0
 62
     7
  6
CONTINUOUS
  0
LAYER
  2
30
 70
     0
 62
     7
  6
CONTINUOUS
  0
LAYER
  2
31
 70
     0
 62
     7
  6
CONTINUOUS
  0
LAYER
  2
32
 70
     0
 62
     7
  6
CONTINUOUS
  0
LAYER
  2
33
 70
     0
 62
     7
  6
CONTINUOUS
  0
LAYER
  2
34
 70
     0
 62
     7
  6
CONTINUOUS
  0
LAYER
  2
35
 70
     0
 62
     7
  6
CONTINUOUS
  0
LAYER
  2
36
 70
     0
 62
     7
  6
CONTINUOUS
  0
LAYER
  2
37
 70
     0
 62
     7
  6
CONTINUOUS
  0
LAYER
  2
38
 70
     0
 62
     7
  6
CONTINUOUS
  0
LAYER
  2
39
 70
     0
 62
     7
  6
CONTINUOUS
  0
LAYER
  2
40
 70
     0
 62
     7
  6
CONTINUOUS
  0
LAYER
  2
41
 70
     0
 62
     7
  6
CONTINUOUS
  0
LAYER
  2
42
 70
     0
 62
     7
  6
CONTINUOUS
  0
LAYER
  2
43
 70
     0
 62
     7
  6
CONTINUOUS
  0
LAYER
  2
44
 70
     0
 62
     7
  6
CONTINUOUS
  0
LAYER
  2
45
 70
     0
 62
     7
  6
CONTINUOUS
  0
LAYER
  2
46
 70
     0
 62
     7
  6
CONTINUOUS
  0
LAYER
  2
47
 70
     0
 62
     7
  6
CONTINUOUS
  0
LAYER
  2
48
 70
     0
 62
     7
  6
CONTINUOUS
  0
LAYER
  2
49
 70
     0
 62
     7
  6
CONTINUOUS
  0
LAYER
  2
50
 70
     0
 62
     7
  6
CONTINUOUS
  0
LAYER
  2
51
 70
     0
 62
     7
  6
CONTINUOUS
  0
LAYER
  2
52
 70
     0
 62
     7
  6
CONTINUOUS
  0
LAYER
  2
53
 70
     0
 62
     7
  6
CONTINUOUS
  0
LAYER
  2
54
 70
     0
 62
     7
  6
CONTINUOUS
  0
LAYER
  2
55
 70
     0
 62
     7
  6
CONTINUOUS
  0
LAYER
  2
56
 70
     0
 62
     7
  6
CONTINUOUS
  0
LAYER
  2
57
 70
     0
 62
     7
  6
CONTINUOUS
  0
LAYER
  2
58
 70
     0
 62
     7
  6
CONTINUOUS
  0
LAYER
  2
59
 70
     0
 62
     7
  6
CONTINUOUS
  0
LAYER
  2
60
 70
     0
 62
     7
  6
CONTINUOUS
  0
LAYER
  2
61
 70
     0
 62
     7
  6
CONTINUOUS
  0
LAYER
  2
62
 70
     0
 62
     7
  6
CONTINUOUS
  0
LAYER
  2
63
 70
     0
 62
     7
  6
CONTINUOUS
  0
LAYER
  2
64
 70
     0
 62
     7
  6
CONTINUOUS
  0
LAYER
  2
65
 70
     0
 62
     7
  6
CONTINUOUS
  0
LAYER
  2
66
 70
     0
 62
     7
  6
CONTINUOUS
  0
LAYER
  2
67
 70
     0
 62
     7
  6
CONTINUOUS
  0
LAYER
  2
68
 70
     0
 62
     7
  6
CONTINUOUS
  0
LAYER
  2
69
 70
     0
 62
     7
  6
CONTINUOUS
  0
LAYER
  2
70
 70
     0
 62
     7
  6
CONTINUOUS
  0
LAYER
  2
71
 70
     0
 62
     7
  6
CONTINUOUS
  0
LAYER
  2
72
 70
     0
 62
     7
  6
CONTINUOUS
  0
LAYER
  2
73
 70
     0
 62
     7
  6
CONTINUOUS
  0
LAYER
  2
74
 70
     0
 62
     7
  6
CONTINUOUS
  0
LAYER
  2
75
 70
     0
 62
     7
  6
CONTINUOUS
  0
LAYER
  2
76
 70
     0
 62
     7
  6
CONTINUOUS
  0
LAYER
  2
77
 70
     0
 62
     7
  6
CONTINUOUS
  0
LAYER
  2
78
 70
     0
 62
     7
  6
CONTINUOUS
  0
LAYER
  2
79
 70
     0
 62
     7
  6
CONTINUOUS
  0
LAYER
  2
80
 70
     0
 62
     7
  6
CONTINUOUS
  0
LAYER
  2
81
 70
     0
 62
     7
  6
CONTINUOUS
  0
LAYER
  2
82
 70
     0
 62
     7
  6
CONTINUOUS
  0
LAYER
  2
83
 70
     0
 62
     7
  6
CONTINUOUS
  0
LAYER
  2
84
 70
     0
 62
     7
  6
CONTINUOUS
  0
LAYER
  2
85
 70
     0
 62
     7
  6
CONTINUOUS
  0
LAYER
  2
86
 70
     0
 62
     7
  6
CONTINUOUS
  0
LAYER
  2
87
 70
     0
 62
     7
  6
CONTINUOUS
  0
LAYER
  2
88
 70
     0
 62
     7
  6
CONTINUOUS
  0
LAYER
  2
89
 70
     0
 62
     7
  6
CONTINUOUS
  0
LAYER
  2
90
 70
     0
 62
     7
  6
CONTINUOUS
  0
LAYER
  2
91
 70
     0
 62
     7
  6
CONTINUOUS
  0
LAYER
  2
92
 70
     0
 62
     7
  6
CONTINUOUS
  0
LAYER
  2
93
 70
     0
 62
     7
  6
CONTINUOUS
  0
LAYER
  2
94
 70
     0
 62
     7
  6
CONTINUOUS
  0
LAYER
  2
95
 70
     0
 62
     7
  6
CONTINUOUS
  0
LAYER
  2
96
 70
     0
 62
     7
  6
CONTINUOUS
  0
LAYER
  2
97
 70
     0
 62
     7
  6
CONTINUOUS
  0
LAYER
  2
98
 70
     0
 62
     7
  6
CONTINUOUS
  0
LAYER
  2
99
 70
     0
 62
     7
  6
CONTINUOUS
  0
LAYER
  2
100
 70
     0
 62
     7
  6
CONTINUOUS
  0
LAYER
  2
101
 70
     0
 62
     7
  6
CONTINUOUS
  0
LAYER
  2
102
 70
     0
 62
     7
  6
CONTINUOUS
  0
LAYER
  2
103
 70
     0
 62
     7
  6
CONTINUOUS
  0
LAYER
  2
104
 70
     0
 62
     7
  6
CONTINUOUS
  0
LAYER
  2
105
 70
     0
 62
     7
  6
CONTINUOUS
  0
LAYER
  2
106
 70
     0
 62
     7
  6
CONTINUOUS
  0
LAYER
  2
107
 70
     0
 62
     7
  6
CONTINUOUS
  0
LAYER
  2
108
 70
     0
 62
     7
  6
CONTINUOUS
  0
LAYER
  2
109
 70
     0
 62
     7
  6
CONTINUOUS
  0
LAYER
  2
110
 70
     0
 62
     7
  6
CONTINUOUS
  0
LAYER
  2
111
 70
     0
 62
     7
  6
CONTINUOUS
  0
LAYER
  2
112
 70
     0
 62
     7
  6
CONTINUOUS
  0
LAYER
  2
113
 70
     0
 62
     7
  6
CONTINUOUS
  0
LAYER
  2
114
 70
     0
 62
     7
  6
CONTINUOUS
  0
LAYER
  2
115
 70
     0
 62
     7
  6
CONTINUOUS
  0
LAYER
  2
116
 70
     0
 62
     7
  6
CONTINUOUS
  0
LAYER
  2
117
 70
     0
 62
     7
  6
CONTINUOUS
  0
LAYER
  2
118
 70
     0
 62
     7
  6
CONTINUOUS
  0
LAYER
  2
119
 70
     0
 62
     7
  6
CONTINUOUS
  0
LAYER
  2
120
 70
     0
 62
     7
  6
CONTINUOUS
  0
LAYER
  2
121
 70
     0
 62
     7
  6
CONTINUOUS
  0
LAYER
  2
122
 70
     0
 62
     7
  6
CONTINUOUS
  0
LAYER
  2
123
 70
     0
 62
     7
  6
CONTINUOUS
  0
LAYER
  2
124
 70
     0
 62
     7
  6
CONTINUOUS
  0
LAYER
  2
125
 70
     0
 62
     7
  6
CONTINUOUS
  0
LAYER
  2
126
 70
     0
 62
     7
  6
CONTINUOUS
  0
LAYER
  2
127
 70
     0
 62
     7
  6
CONTINUOUS
  0
LAYER
  2
128
 70
     0
 62
     7
  6
CONTINUOUS
  0
ENDTAB
  0
TABLE
  2
STYLE
 70
    70
  0
STYLE
  2
STANDARD
 70
     0
 40
0.0
 41
1.0
 50
0.0
 71
     0
 42
0.2
  3
txt.shx
  4
extfont.shx
  0
STYLE
  2
KANJI0
 70
     0
 40
8.4
 41
0.9
 50
0.0
 71
     0
 42
8.4
  3
txt.shx
  4
extfont.shx
  0
STYLE
  2
KANJI1
 70
     0
 40
15.0
 41
0.9
 50
0.0
 71
     0
 42
15.0
  3
txt.shx
  4
extfont.shx
  0
STYLE
  2
KANJI2
 70
     0
 40
8.666666
 41
0.6
 50
0.0
 71
     0
 42
8.666666
  3
txt.shx
  4
extfont.shx
  0
STYLE
  2
KANJI3
 70
     0
 40
10.3999992
 41
0.6
 50
0.0
 71
     0
 42
10.3999992
  3
txt.shx
  4
extfont.shx
  0
STYLE
  2
KANJI4
 70
     0
 40
15.1666655
 41
0.42031746
 50
0.0
 71
     0
 42
15.1666655
  3
txt.shx
  4
extfont.shx
  0
STYLE
  2
KANJI5
 70
     0
 40
25.999998
 41
0.9
 50
0.0
 71
     0
 42
25.999998
  3
txt.shx
  4
extfont.shx
  0
STYLE
  2
KANJI6
 70
     0
 40
8.666666
 41
0.8
 50
0.0
 71
     0
 42
8.666666
  3
txt.shx
  4
extfont.shx
  0
STYLE
  2
KANJI7
 70
     0
 40
10.3999992
 41
0.8
 50
0.0
 71
     0
 42
10.3999992
  3
txt.shx
  4
extfont.shx
  0
STYLE
  2
KANJI8
 70
     0
 40
25.0
 41
1.0
 50
0.0
 71
     0
 42
25.0
  3
txt.shx
  4
extfont.shx
  0
STYLE
  2
KANJI9
 70
     0
 40
25.0
 41
1.0
 50
0.0
 71
     0
 42
25.0
  3
txt.shx
  4
extfont.shx
  0
STYLE
  2
KANJI10
 70
     0
 40
25.0
 41
0.8
 50
0.0
 71
     0
 42
25.0
  3
txt.shx
  4
extfont.shx
  0
STYLE
  2
KANJI11
 70
     0
 40
20.0
 41
1.0
 50
0.0
 71
     0
 42
20.0
  3
txt.shx
  4
extfont.shx
  0
STYLE
  2
KANJI12
 70
     0
 40
18.0
 41
1.111111111
 50
0.0
 71
     0
 42
18.0
  3
txt.shx
  4
extfont.shx
  0
STYLE
  2
KANJI13
 70
     0
 40
17.5
 41
0.857142857
 50
0.0
 71
     0
 42
17.5
  3
txt.shx
  4
extfont.shx
  0
STYLE
  2
KANJI14
 70
     0
 40
22.5
 41
0.666666667
 50
0.0
 71
     0
 42
22.5
  3
txt.shx
  4
extfont.shx
  0
STYLE
  2
KANJI15
 70
     0
 40
9.999997897
 41
0.6
 50
0.0
 71
     0
 42
9.999997897
  3
txt.shx
  4
extfont.shx
  0
STYLE
  2
KANJI16
 70
     0
 40
11.999997477
 41
0.9
 50
0.0
 71
     0
 42
11.999997477
  3
txt.shx
  4
extfont.shx
  0
STYLE
  2
KANJI17
 70
     0
 40
14.999996846
 41
0.9
 50
0.0
 71
     0
 42
14.999996846
  3
txt.shx
  4
extfont.shx
  0
STYLE
  2
KANJI18
 70
     0
 40
12.999999
 41
0.75
 50
0.0
 71
     0
 42
12.999999
  3
txt.shx
  4
extfont.shx
  0
STYLE
  2
KANJI19
 70
     0
 40
12.8
 41
0.9
 50
0.0
 71
     0
 42
12.8
  3
txt.shx
  4
extfont.shx
  0
STYLE
  2
KANJI20
 70
     0
 40
12.0
 41
0.9
 50
0.0
 71
     0
 42
12.0
  3
txt.shx
  4
extfont.shx
  0
STYLE
  2
KANJI21
 70
     0
 40
12.0
 41
0.9
 50
0.0
 71
     0
 42
12.0
  3
txt.shx
  4
extfont.shx
  0
STYLE
  2
KANJI22
 70
     0
 40
14.0
 41
0.9
 50
0.0
 71
     0
 42
14.0
  3
txt.shx
  4
extfont.shx
  0
STYLE
  2
KANJI23
 70
     0
 40
10.8
 41
0.740740741
 50
0.0
 71
     0
 42
10.8
  3
txt.shx
  4
extfont.shx
  0
STYLE
  2
KANJI24
 70
     0
 40
14.0
 41
0.857142857
 50
0.0
 71
     0
 42
14.0
  3
txt.shx
  4
extfont.shx
  0
STYLE
  2
KANJI25
 70
     0
 40
12.0
 41
0.833333333
 50
0.0
 71
     0
 42
12.0
  3
txt.shx
  4
extfont.shx
  0
STYLE
  2
KANJI26
 70
     0
 40
17.5
 41
0.793650794
 50
0.0
 71
     0
 42
17.5
  3
txt.shx
  4
extfont.shx
  0
STYLE
  2
KANJI27
 70
     0
 40
25.0
 41
0.8
 50
0.0
 71
     0
 42
25.0
  3
txt.shx
  4
extfont.shx
  0
STYLE
  2
KANJI28
 70
     0
 40
15.0
 41
1.0
 50
0.0
 71
     0
 42
15.0
  3
txt.shx
  4
extfont.shx
  0
STYLE
  2
KANJI29
 70
     0
 40
11.55
 41
0.9
 50
0.0
 71
     0
 42
11.55
  3
txt.shx
  4
extfont.shx
  0
STYLE
  2
KANJI30
 70
     0
 40
10.933904043
 41
0.9
 50
0.0
 71
     0
 42
10.933904043
  3
txt.shx
  4
extfont.shx
  0
STYLE
  2
KANJI31
 70
     0
 40
15.185977837
 41
0.66671875
 50
0.0
 71
     0
 42
15.185977837
  3
txt.shx
  4
extfont.shx
  0
STYLE
  2
KANJI32
 70
     0
 40
18.223173404
 41
0.9
 50
0.0
 71
     0
 42
18.223173404
  3
txt.shx
  4
extfont.shx
  0
STYLE
  2
KANJI33
 70
     0
 40
15.6
 41
0.925
 50
0.0
 71
     0
 42
15.6
  3
txt.shx
  4
extfont.shx
  0
STYLE
  2
KANJI34
 70
     0
 40
14.578538724
 41
0.9
 50
0.0
 71
     0
 42
14.578538724
  3
txt.shx
  4
extfont.shx
  0
STYLE
  2
KANJI35
 70
     0
 40
16.0
 41
0.925
 50
0.0
 71
     0
 42
16.0
  3
txt.shx
  4
extfont.shx
  0
STYLE
  2
KANJI36
 70
     0
 40
20.0
 41
0.925
 50
0.0
 71
     0
 42
20.0
  3
txt.shx
  4
extfont.shx
  0
STYLE
  2
KANJI37
 70
     0
 40
20.0
 41
0.9
 50
0.0
 71
     0
 42
20.0
  3
txt.shx
  4
extfont.shx
  0
STYLE
  2
KANJI38
 70
     0
 40
18.0
 41
0.857142857
 50
0.0
 71
     0
 42
18.0
  3
txt.shx
  4
extfont.shx
  0
STYLE
  2
KANJI39
 70
     0
 40
18.0
 41
0.857222222
 50
0.0
 71
     0
 42
18.0
  3
txt.shx
  4
extfont.shx
  0
STYLE
  2
KANJI40
 70
     0
 40
13.475
 41
0.9
 50
0.0
 71
     0
 42
13.475
  3
txt.shx
  4
extfont.shx
  0
STYLE
  2
KANJI41
 70
     0
 40
20.0
 41
0.925
 50
0.0
 71
     0
 42
20.0
  3
txt.shx
  4
extfont.shx
  0
STYLE
  2
KANJI42
 70
     0
 40
17.5
 41
0.571428571
 50
0.0
 71
     0
 42
17.5
  3
txt.shx
  4
extfont.shx
  0
STYLE
  2
KANJI43
 70
     0
 40
17.5
 41
0.9
 50
0.0
 71
     0
 42
17.5
  3
txt.shx
  4
extfont.shx
  0
STYLE
  2
KANJI44
 70
     0
 40
17.5
 41
0.9
 50
0.0
 71
     0
 42
17.5
  3
txt.shx
  4
extfont.shx
  0
STYLE
  2
KANJI45
 70
     0
 40
17.5
 41
0.9
 50
0.0
 71
     0
 42
17.5
  3
txt.shx
  4
extfont.shx
  0
STYLE
  2
KANJI46
 70
     0
 40
17.5
 41
0.9
 50
0.0
 71
     0
 42
17.5
  3
txt.shx
  4
extfont.shx
  0
STYLE
  2
KANJI47
 70
     0
 40
22.5
 41
0.9
 50
0.0
 71
     0
 42
22.5
  3
txt.shx
  4
extfont.shx
  0
STYLE
  2
KANJI48
 70
     0
 40
17.5
 41
0.9
 50
0.0
 71
     0
 42
17.5
  3
txt.shx
  4
extfont.shx
  0
STYLE
  2
KANJI49
 70
     0
 40
17.5
 41
0.9
 50
0.0
 71
     0
 42
17.5
  3
txt.shx
  4
extfont.shx
  0
STYLE
  2
KANJI50
 70
     0
 40
17.5
 41
0.9
 50
0.0
 71
     0
 42
17.5
  3
txt.shx
  4
extfont.shx
  0
STYLE
  2
KANJI51
 70
     0
 40
17.5
 41
0.9
 50
0.0
 71
     0
 42
17.5
  3
txt.shx
  4
extfont.shx
  0
STYLE
  2
KANJI52
 70
     0
 40
17.5
 41
0.9
 50
0.0
 71
     0
 42
17.5
  3
txt.shx
  4
extfont.shx
  0
STYLE
  2
KANJI53
 70
     4
 40
17.5
 41
0.9
 50
0.0
 71
     0
 42
17.5
  3
txt.shx
  4
extfont.shx
  0
STYLE
  2
KANJI54
 70
     4
 40
15.0
 41
0.9
 50
0.0
 71
     0
 42
15.0
  3
txt.shx
  4
extfont.shx
  0
STYLE
  2
KANJI55
 70
     0
 40
12.5
 41
0.8
 50
0.0
 71
     0
 42
12.5
  3
txt.shx
  4
extfont.shx
  0
STYLE
  2
KANJI56
 70
     0
 40
15.0
 41
0.9
 50
0.0
 71
     0
 42
15.0
  3
txt.shx
  4
extfont.shx
  0
STYLE
  2
KANJI57
 70
     0
 40
15.0
 41
0.857142857
 50
0.0
 71
     0
 42
15.0
  3
txt.shx
  4
extfont.shx
  0
STYLE
  2
KANJI58
 70
     0
 40
17.5
 41
0.9
 50
0.0
 71
     0
 42
17.5
  3
txt.shx
  4
extfont.shx
  0
STYLE
  2
KANJI59
 70
     0
 40
14.0
 41
0.9
 50
0.0
 71
     0
 42
14.0
  3
txt.shx
  4
extfont.shx
  0
STYLE
  2
KANJI60
 70
     0
 40
14.0
 41
0.785714286
 50
0.0
 71
     0
 42
14.0
  3
txt.shx
  4
extfont.shx
  0
STYLE
  2
KANJI61
 70
     0
 40
14.0
 41
0.8
 50
0.0
 71
     0
 42
14.0
  3
txt.shx
  4
extfont.shx
  0
STYLE
  2
KANJI62
 70
     0
 40
17.5
 41
0.9
 50
0.0
 71
     0
 42
17.5
  3
txt.shx
  4
extfont.shx
  0
STYLE
  2
KANJI63
 70
     0
 40
15.0
 41
0.8
 50
0.0
 71
     0
 42
15.0
  3
txt.shx
  4
extfont.shx
  0
STYLE
  2
KANJI64
 70
     0
 40
15.0
 41
0.9
 50
0.0
 71
     0
 42
15.0
  3
txt.shx
  4
extfont.shx
  0
STYLE
  2
KANJI65
 70
     0
 40
17.5
 41
0.9
 50
0.0
 71
     0
 42
17.5
  3
txt.shx
  4
extfont.shx
  0
STYLE
  2
KANJI66
 70
     0
 40
15.0
 41
0.833333333
 50
0.0
 71
     0
 42
15.0
  3
txt.shx
  4
extfont.shx
  0
STYLE
  2
KANJI67
 70
     0
 40
15.0
 41
0.833333333
 50
0.0
 71
     0
 42
15.0
  3
txt.shx
  4
extfont.shx
  0
STYLE
  2
KANJI68
 70
     0
 40
17.5
 41
0.9
 50
0.0
 71
     0
 42
17.5
  3
txt.shx
  4
extfont.shx
  0
ENDTAB
  0
TABLE
  2
VIEW
 70
     0
  0
ENDTAB
  0
ENDSEC
  0
SECTION
  2
BLOCKS
  0
ENDSEC
  0
SECTION
  2
ENTITIES
  0
LINE
  8
0
  6
CONTINUOUS
 62
     1
 10
1031.25
 20
555.0
 30
0.0
 11
1081.25
 21
555.0
 31
0.0
  0
LINE
  8
0
  6
CONTINUOUS
 62
     1
 10
1084.25
 20
558.0
 30
0.0
 11
1084.25
 21
575.0
 31
0.0
  0
LINE
  8
0
  6
CONTINUOUS
 62
     1
 10
1081.25
 20
555.0
 30
0.0
 11
1084.25
 21
558.0
 31
0.0
  0
LINE
  8
0
  6
CONTINUOUS
 62
     1
 10
1031.25
 20
595.0
 30
0.0
 11
1081.25
 21
595.0
 31
0.0
  0
LINE
  8
0
  6
CONTINUOUS
 62
     1
 10
1084.25
 20
592.0
 30
0.0
 11
1084.25
 21
575.0
 31
0.0
  0
LINE
  8
0
  6
CONTINUOUS
 62
     1
 10
1081.25
 20
595.0
 30
0.0
 11
1084.25
 21
592.0
 31
0.0
  0
CIRCLE
  8
0
  6
CONTINUOUS
 62
     1
 10
1066.25
 20
575.0
 30
0.0
 40
8.0
  0
LINE
  8
0
  6
CONTINUOUS
 62
     2
 10
1066.25
 20
830.0
 30
0.0
 11
1056.590741737
 21
832.588190451
 31
0.0
  0
LINE
  8
0
  6
CONTINUOUS
 62
     2
 10
1066.25
 20
830.0
 30
0.0
 11
1056.590741737
 21
827.411809549
 31
0.0
  0
LINE
  8
0
  6
CONTINUOUS
 62
     2
 10
1046.25
 20
830.0
 30
0.0
 11
1104.25
 21
830.0
 31
0.0
  0
LINE
  8
0
  6
CONTINUOUS
 62
     2
 10
1084.25
 20
830.0
 30
0.0
 11
1093.909258263
 21
827.411809549
 31
0.0
  0
LINE
  8
0
  6
CONTINUOUS
 62
     2
 10
1084.25
 20
830.0
 30
0.0
 11
1093.909258263
 21
832.588190451
 31
0.0
  0
LINE
  8
0
  6
CONTINUOUS
 62
     2
 10
1066.25
 20
830.0
 30
0.0
 11
1066.25
 21
822.0
 31
0.0
  0
LINE
  8
0
  6
CONTINUOUS
 62
     2
 10
1066.25
 20
830.0
 30
0.0
 11
1056.590741737
 21
832.588190451
 31
0.0
  0
LINE
  8
0
  6
CONTINUOUS
 62
     2
 10
1066.25
 20
830.0
 30
0.0
 11
1056.590741737
 21
827.411809549
 31
0.0
  0
LINE
  8
0
  6
CONTINUOUS
 62
     2
 10
971.25
 20
770.0
 30
0.0
 11
980.909258263
 21
767.411809549
 31
0.0
  0
LINE
  8
0
  6
CONTINUOUS
 62
     2
 10
971.25
 20
770.0
 30
0.0
 11
980.909258263
 21
772.588190451
 31
0.0
  0
LINE
  8
0
  6
CONTINUOUS
 62
     2
 10
971.25
 20
770.0
 30
0.0
 11
1031.25
 21
770.0
 31
0.0
  0
LINE
  8
0
  6
CONTINUOUS
 62
     2
 10
1031.25
 20
770.0
 30
0.0
 11
1021.590741737
 21
772.588190451
 31
0.0
  0
LINE
  8
0
  6
CONTINUOUS
 62
     2
 10
1031.25
 20
770.0
 30
0.0
 11
1021.590741737
 21
767.411809549
 31
0.0
  0
LINE
  8
0
  6
CONTINUOUS
 62
     2
 10
1031.25
 20
770.0
 30
0.0
 11
1040.909258263
 21
767.411809549
 31
0.0
  0
LINE
  8
0
  6
CONTINUOUS
 62
     2
 10
1031.25
 20
770.0
 30
0.0
 11
1040.909258263
 21
772.588190451
 31
0.0
  0
LINE
  8
0
  6
CONTINUOUS
 62
     2
 10
1031.25
 20
770.0
 30
0.0
 11
1066.25
 21
770.0
 31
0.0
  0
LINE
  8
0
  6
CONTINUOUS
 62
     2
 10
1066.25
 20
770.0
 30
0.0
 11
1056.590741737
 21
772.588190451
 31
0.0
  0
LINE
  8
0
  6
CONTINUOUS
 62
     2
 10
1066.25
 20
770.0
 30
0.0
 11
1056.590741737
 21
767.411809549
 31
0.0
  0
LINE
  8
0
  6
CONTINUOUS
 62
     2
 10
1066.25
 20
800.5
 30
0.0
 11
1056.590741737
 21
803.088190451
 31
0.0
  0
LINE
  8
0
  6
CONTINUOUS
 62
     2
 10
1066.25
 20
800.5
 30
0.0
 11
1056.590741737
 21
797.911809549
 31
0.0
  0
LINE
  8
0
  6
CONTINUOUS
 62
     2
 10
971.25
 20
770.0
 30
0.0
 11
961.590741737
 21
772.588190451
 31
0.0
  0
LINE
  8
0
  6
CONTINUOUS
 62
     2
 10
971.25
 20
770.0
 30
0.0
 11
961.590741737
 21
767.411809549
 31
0.0
  0
LINE
  8
0
  6
CONTINUOUS
 62
     2
 10
1066.25
 20
830.0
 30
0.0
 11
1056.590741737
 21
832.588190451
 31
0.0
  0
LINE
  8
0
  6
CONTINUOUS
 62
     2
 10
1066.25
 20
830.0
 30
0.0
 11
1056.590741737
 21
827.411809549
 31
0.0
  0
LINE
  8
0
  6
CONTINUOUS
 62
     1
 10
702.65
 20
535.0
 30
0.0
 11
702.65
 21
615.0
 31
0.0
  0
LINE
  8
0
  6
CONTINUOUS
 62
     1
 10
702.65
 20
535.0
 30
0.0
 11
702.65
 21
615.0
 31
0.0
  0
LINE
  8
0
  6
CONTINUOUS
 62
     1
 10
694.65
 20
535.0
 30
0.0
 11
702.65
 21
535.0
 31
0.0
  0
LINE
  8
0
  6
CONTINUOUS
 62
     1
 10
694.65
 20
615.0
 30
0.0
 11
702.65
 21
615.0
 31
0.0
  0
LINE
  8
0
  6
CONTINUOUS
 62
     1
 10
694.65
 20
612.0
 30
0.0
 11
702.65
 21
612.0
 31
0.0
  0
LINE
  8
0
  6
CONTINUOUS
 62
     1
 10
694.65
 20
538.0
 30
0.0
 11
702.65
 21
538.0
 31
0.0
  0
LINE
  8
0
  6
CONTINUOUS
 62
     1
 10
694.65
 20
573.5
 30
0.0
 11
702.65
 21
573.5
 31
0.0
  0
LINE
  8
0
  6
CONTINUOUS
 62
     1
 10
694.65
 20
576.5
 30
0.0
 11
702.65
 21
576.5
 31
0.0
  0
LINE
  8
0
  6
CONTINUOUS
 62
     1
 10
694.65
 20
535.0
 30
0.0
 11
694.65
 21
615.0
 31
0.0
  0
LINE
  8
0
  6
CONTINUOUS
 62
     1
 10
759.15
 20
587.5
 30
0.0
 11
784.15
 21
587.5
 31
0.0
  0
LINE
  8
0
  6
CONTINUOUS
 62
     1
 10
784.15
 20
562.5
 30
0.0
 11
784.15
 21
587.5
 31
0.0
  0
LINE
  8
0
  6
CONTINUOUS
 62
     1
 10
759.15
 20
562.5
 30
0.0
 11
784.15
 21
562.5
 31
0.0
  0
LINE
  8
0
  6
CONTINUOUS
 62
     1
 10
759.15
 20
562.5
 30
0.0
 11
759.15
 21
587.5
 31
0.0
  0
CIRCLE
  8
0
  6
CONTINUOUS
 62
     1
 10
771.65
 20
575.0
 30
0.0
 40
12.5
  0
LINE
  8
0
  6
LTYPE1
 62
     2
 10
771.65
 20
593.7
 30
0.0
 11
771.65
 21
554.0
 31
0.0
  0
LINE
  8
0
  6
CONTINUOUS
 62
     2
 10
767.100185255
 20
566.85
 30
0.0
 11
766.910119959
 21
556.851806404
 31
0.0
  0
LINE
  8
0
  6
CONTINUOUS
 62
     2
 10
767.100185255
 20
566.85
 30
0.0
 11
761.936487082
 21
558.286343002
 31
0.0
  0
LINE
  8
0
  6
CONTINUOUS
 62
     2
 10
645.25
 20
800.5
 30
0.0
 11
654.909258263
 21
797.911809549
 31
0.0
  0
LINE
  8
0
  6
CONTINUOUS
 62
     2
 10
645.25
 20
800.5
 30
0.0
 11
654.909258263
 21
803.088190451
 31
0.0
  0
LINE
  8
0
  6
CONTINUOUS
 62
     2
 10
645.25
 20
634.0
 30
0.0
 11
645.25
 21
806.5
 31
0.0
  0
LINE
  8
0
  6
CONTINUOUS
 62
     2
 10
645.25
 20
770.0
 30
0.0
 11
654.909258263
 21
767.411809549
 31
0.0
  0
LINE
  8
0
  6
CONTINUOUS
 62
     2
 10
645.25
 20
770.0
 30
0.0
 11
654.909258263
 21
772.588190451
 31
0.0
  0
LINE
  8
0
  6
CONTINUOUS
 62
     2
 10
645.25
 20
800.5
 30
0.0
 11
635.590741737
 21
803.088190451
 31
0.0
  0
LINE
  8
0
  6
CONTINUOUS
 62
     2
 10
645.25
 20
800.5
 30
0.0
 11
635.590741737
 21
797.911809549
 31
0.0
  0
LINE
  8
0
  6
CONTINUOUS
 62
     2
 10
1066.25
 20
800.5
 30
0.0
 11
645.25
 21
800.5
 31
0.0
  0
LINE
  8
0
  6
CONTINUOUS
 62
     2
 10
971.25
 20
770.0
 30
0.0
 11
645.25
 21
770.0
 31
0.0
  0
LINE
  8
0
  6
LTYPE1
 62
     2
 10
555.25
 20
575.0
 30
0.0
 11
1095.15
 21
575.0
 31
0.0
  0
LINE
  8
0
  6
CONTINUOUS
 62
     1
 10
566.25
 20
518.0
 30
0.0
 11
566.25
 21
575.0
 31
0.0
  0
LINE
  8
0
  6
CONTINUOUS
 62
     1
 10
566.25
 20
632.0
 30
0.0
 11
566.25
 21
575.0
 31
0.0
  0
LINE
  8
0
  6
CONTINUOUS
 62
     1
 10
566.25
 20
538.0
 30
0.0
 11
694.65
 21
538.0
 31
0.0
  0
LINE
  8
0
  6
CONTINUOUS
 62
     1
 10
566.25
 20
612.0
 30
0.0
 11
694.65
 21
612.0
 31
0.0
  0
LINE
  8
0
  6
CONTINUOUS
 62
     1
 10
566.25
 20
632.0
 30
0.0
 11
603.25
 21
612.5
 31
0.0
  0
LINE
  8
0
  6
CONTINUOUS
 62
     1
 10
566.25
 20
518.0
 30
0.0
 11
603.25
 21
537.5
 31
0.0
  0
LINE
  8
0
  6
CONTINUOUS
 62
     1
 10
566.25
 20
578.0
 30
0.0
 11
612.25
 21
578.0
 31
0.0
  0
LINE
  8
0
  6
CONTINUOUS
 62
     1
 10
566.25
 20
572.0
 30
0.0
 11
611.25
 21
572.0
 31
0.0
  0
LINE
  8
0
  6
CONTINUOUS
 62
     2
 10
767.100185255
 20
566.85
 30
0.0
 11
745.998088834
 21
493.687641749
 31
0.0
  0
LINE
  8
0
  6
LTYPE2
 62
     2
 10
1041.25
 20
555.0
 30
0.0
 11
1041.25
 21
575.0
 31
0.0
  0
LINE
  8
0
  6
LTYPE2
 62
     2
 10
1041.25
 20
595.0
 30
0.0
 11
1041.25
 21
575.0
 31
0.0
  0
LINE
  8
0
  6
CONTINUOUS
 62
     1
 10
941.25
 20
606.75
 30
0.0
 11
941.25
 21
575.0
 31
0.0
  0
LINE
  8
0
  6
CONTINUOUS
 62
     1
 10
971.25
 20
543.25
 30
0.0
 11
971.25
 21
575.0
 31
0.0
  0
LINE
  8
0
  6
CONTINUOUS
 62
     1
 10
921.25
 20
541.25
 30
0.0
 11
941.25
 21
541.25
 31
0.0
  0
LINE
  8
0
  6
CONTINUOUS
 62
     1
 10
941.25
 20
541.25
 30
0.0
 11
945.405575539
 21
525.741180955
 31
0.0
  0
ARC
  8
0
  6
CONTINUOUS
 62
     1
 10
946.371501365
 20
526.0
 30
0.0
 40
1.0
 50
195.0
 51
270.0
  0
ARC
  8
0
  6
CONTINUOUS
 62
     1
 10
946.371501365
 20
526.0
 30
0.0
 40
1.0
 50
270.0
 51
345.0
  0
LINE
  8
0
  6
CONTINUOUS
 62
     1
 10
949.619721439
 20
534.258819045
 30
0.0
 11
947.337427191
 21
525.741180955
 31
0.0
  0
ARC
  8
0
  6
CONTINUOUS
 62
     1
 10
950.585647265
 20
534.0
 30
0.0
 40
1.0
 50
90.0
 51
165.0
  0
ARC
  8
0
  6
CONTINUOUS
 62
     1
 10
954.799793166
 20
526.0
 30
0.0
 40
1.0
 50
195.0
 51
270.0
  0
LINE
  8
0
  6
CONTINUOUS
 62
     1
 10
951.551573092
 20
534.258819045
 30
0.0
 11
953.833867339
 21
525.741180955
 31
0.0
  0
ARC
  8
0
  6
CONTINUOUS
 62
     1
 10
950.585647265
 20
534.0
 30
0.0
 40
1.0
 50
15.0
 51
90.0
  0
ARC
  8
0
  6
CONTINUOUS
 62
     1
 10
954.799814745
 20
526.0
 30
0.0
 40
1.0
 50
270.0
 51
345.0
  0
LINE
  8
0
  6
CONTINUOUS
 62
     1
 10
958.048034819
 20
534.258819045
 30
0.0
 11
955.765740571
 21
525.741180955
 31
0.0
  0
ARC
  8
0
  6
CONTINUOUS
 62
     1
 10
959.013960645
 20
534.0
 30
0.0
 40
1.0
 50
90.0
 51
165.0
  0
LINE
  8
0
  6
CONTINUOUS
 62
     1
 10
924.25
 20
539.25
 30
0.0
 11
938.25
 21
539.25
 31
0.0
  0
LINE
  8
0
  6
CONTINUOUS
 62
     1
 10
921.25
 20
608.75
 30
0.0
 11
921.25
 21
575.0
 31
0.0
  0
LINE
  8
0
  6
CONTINUOUS
 62
     1
 10
941.25
 20
608.75
 30
0.0
 11
941.25
 21
575.0
 31
0.0
  0
LINE
  8
0
  6
CONTINUOUS
 62
     1
 10
941.25
 20
608.75
 30
0.0
 11
945.405575539
 21
624.258819045
 31
0.0
  0
ARC
  8
0
  6
CONTINUOUS
 62
     1
 10
946.371501365
 20
624.0
 30
0.0
 40
1.0
 50
90.0
 51
165.0
  0
ARC
  8
0
  6
CONTINUOUS
 62
     1
 10
946.371501365
 20
624.0
 30
0.0
 40
1.0
 50
15.0
 51
90.0
  0
LINE
  8
0
  6
CONTINUOUS
 62
     1
 10
949.619721439
 20
615.741180955
 30
0.0
 11
947.337427191
 21
624.258819045
 31
0.0
  0
ARC
  8
0
  6
CONTINUOUS
 62
     1
 10
950.585647265
 20
616.0
 30
0.0
 40
1.0
 50
195.0
 51
270.0
  0
ARC
  8
0
  6
CONTINUOUS
 62
     1
 10
954.799793166
 20
624.0
 30
0.0
 40
1.0
 50
90.0
 51
165.0
  0
LINE
  8
0
  6
CONTINUOUS
 62
     1
 10
951.551573092
 20
615.741180955
 30
0.0
 11
953.833867339
 21
624.258819045
 31
0.0
  0
ARC
  8
0
  6
CONTINUOUS
 62
     1
 10
950.585647265
 20
616.0
 30
0.0
 40
1.0
 50
270.0
 51
345.0
  0
ARC
  8
0
  6
CONTINUOUS
 62
     1
 10
954.799814745
 20
624.0
 30
0.0
 40
1.0
 50
15.0
 51
90.0
  0
LINE
  8
0
  6
CONTINUOUS
 62
     1
 10
958.048034819
 20
615.741180955
 30
0.0
 11
955.765740571
 21
624.258819045
 31
0.0
  0
ARC
  8
0
  6
CONTINUOUS
 62
     1
 10
959.013960645
 20
616.0
 30
0.0
 40
1.0
 50
195.0
 51
270.0
  0
LINE
  8
0
  6
CONTINUOUS
 62
     1
 10
924.25
 20
610.75
 30
0.0
 11
924.25
 21
575.0
 31
0.0
  0
LINE
  8
0
  6
CONTINUOUS
 62
     1
 10
924.25
 20
610.75
 30
0.0
 11
938.25
 21
610.75
 31
0.0
  0
LINE
  8
0
  6
CONTINUOUS
 62
     1
 10
938.25
 20
610.75
 30
0.0
 11
938.25
 21
575.0
 31
0.0
  0
LINE
  8
0
  6
CONTINUOUS
 62
     1
 10
921.25
 20
541.25
 30
0.0
 11
921.25
 21
543.25
 31
0.0
  0
LINE
  8
0
  6
CONTINUOUS
 62
     1
 10
941.25
 20
541.25
 30
0.0
 11
941.25
 21
543.25
 31
0.0
  0
LINE
  8
0
  6
CONTINUOUS
 62
     1
 10
938.25
 20
539.25
 30
0.0
 11
938.25
 21
541.25
 31
0.0
  0
LINE
  8
0
  6
CONTINUOUS
 62
     1
 10
924.25
 20
539.25
 30
0.0
 11
924.25
 21
541.25
 31
0.0
  0
LINE
  8
0
  6
CONTINUOUS
 62
     1
 10
938.25
 20
608.75
 30
0.0
 11
941.25
 21
608.75
 31
0.0
  0
LINE
  8
0
  6
CONTINUOUS
 62
     1
 10
921.25
 20
608.75
 30
0.0
 11
924.25
 21
608.75
 31
0.0
  0
LINE
  8
0
  6
CONTINUOUS
 62
     1
 10
946.371501365
 20
625.0
 30
0.0
 11
946.371501365
 21
575.0
 31
0.0
  0
LINE
  8
0
  6
CONTINUOUS
 62
     1
 10
950.585658055
 20
615.0
 30
0.0
 11
950.585658055
 21
575.0
 31
0.0
  0
LINE
  8
0
  6
CONTINUOUS
 62
     1
 10
954.799814745
 20
625.0
 30
0.0
 11
954.799814745
 21
575.0
 31
0.0
  0
LINE
  8
0
  6
CONTINUOUS
 62
     1
 10
959.013971435
 20
615.0
 30
0.0
 11
959.013971435
 21
575.0
 31
0.0
  0
LINE
  8
0
  6
CONTINUOUS
 62
     1
 10
941.25
 20
543.25
 30
0.0
 11
941.25
 21
575.0
 31
0.0
  0
ARC
  8
0
  6
CONTINUOUS
 62
     1
 10
982.498000531
 20
616.0
 30
0.0
 40
1.0
 50
195.0
 51
270.0
  0
LINE
  8
0
  6
CONTINUOUS
 62
     1
 10
981.532074705
 20
615.741180955
 30
0.0
 11
979.249780457
 21
624.258819045
 31
0.0
  0
ARC
  8
0
  6
CONTINUOUS
 62
     1
 10
978.283854631
 20
624.0
 30
0.0
 40
1.0
 50
15.0
 51
90.0
  0
ARC
  8
0
  6
CONTINUOUS
 62
     1
 10
974.069708731
 20
616.0
 30
0.0
 40
1.0
 50
270.0
 51
345.0
  0
LINE
  8
0
  6
CONTINUOUS
 62
     1
 10
975.035634557
 20
615.741180955
 30
0.0
 11
977.317928805
 21
624.258819045
 31
0.0
  0
ARC
  8
0
  6
CONTINUOUS
 62
     1
 10
978.283854631
 20
624.0
 30
0.0
 40
1.0
 50
90.0
 51
165.0
  0
ARC
  8
0
  6
CONTINUOUS
 62
     1
 10
982.498000531
 20
534.0
 30
0.0
 40
1.0
 50
90.0
 51
165.0
  0
LINE
  8
0
  6
CONTINUOUS
 62
     1
 10
981.532074705
 20
534.258819045
 30
0.0
 11
979.249780457
 21
525.741180955
 31
0.0
  0
ARC
  8
0
  6
CONTINUOUS
 62
     1
 10
978.283854631
 20
526.0
 30
0.0
 40
1.0
 50
270.0
 51
345.0
  0
ARC
  8
0
  6
CONTINUOUS
 62
     1
 10
974.069708731
 20
534.0
 30
0.0
 40
1.0
 50
15.0
 51
90.0
  0
LINE
  8
0
  6
CONTINUOUS
 62
     1
 10
975.035634557
 20
534.258819045
 30
0.0
 11
977.317928805
 21
525.741180955
 31
0.0
  0
ARC
  8
0
  6
CONTINUOUS
 62
     1
 10
978.283854631
 20
526.0
 30
0.0
 40
1.0
 50
195.0
 51
270.0
  0
LINE
  8
0
  6
CONTINUOUS
 62
     1
 10
978.283854631
 20
625.0
 30
0.0
 11
978.283854631
 21
575.0
 31
0.0
  0
LINE
  8
0
  6
CONTINUOUS
 62
     1
 10
973.869708731
 20
615.0
 30
0.0
 11
973.869708731
 21
575.0
 31
0.0
  0
LINE
  8
0
  6
CONTINUOUS
 62
     1
 10
982.498000531
 20
615.0
 30
0.0
 11
982.498000531
 21
575.0
 31
0.0
  0
LINE
  8
0
  6
LTYPE3
 62
     2
 10
959.013971435
 20
535.0
 30
0.0
 11
973.869708731
 21
535.0
 31
0.0
  0
LINE
  8
0
  6
LTYPE3
 62
     2
 10
954.799814745
 20
625.0
 30
0.0
 11
978.283854631
 21
625.0
 31
0.0
  0
LINE
  8
0
  6
LTYPE3
 62
     2
 10
954.799814745
 20
525.0
 30
0.0
 11
978.283854631
 21
525.0
 31
0.0
  0
LINE
  8
0
  6
LTYPE3
 62
     2
 10
959.013971435
 20
615.0
 30
0.0
 11
973.869708731
 21
615.0
 31
0.0
  0
POINT
  8
0
  6
CONTINUOUS
 62
     1
 10
897.889501379
 20
575.0
 30
0.0
  0
LINE
  8
0
  6
CONTINUOUS
 62
     1
 10
921.249501379
 20
543.25
 30
0.0
 11
971.25
 21
543.25
 31
0.0
  0
LINE
  8
0
  6
CONTINUOUS
 62
     1
 10
532.25
 20
575.0
 30
0.0
 11
532.25
 21
632.0
 31
0.0
  0
ARC
  8
0
  6
CONTINUOUS
 62
     1
 10
536.75
 20
633.5
 30
0.0
 40
1.5
 50
270.0
 51
0.0
  0
LINE
  8
0
  6
CONTINUOUS
 62
     1
 10
538.25
 20
633.5
 30
0.0
 11
538.25
 21
634.5
 31
0.0
  0
ARC
  8
0
  6
CONTINUOUS
 62
     1
 10
539.75
 20
634.5
 30
0.0
 40
1.5
 50
90.0
 51
180.0
  0
LINE
  8
0
  6
CONTINUOUS
 62
     1
 10
383.25
 20
575.0
 30
0.0
 11
383.25
 21
632.0
 31
0.0
  0
ARC
  8
0
  6
CONTINUOUS
 62
     1
 10
379.75
 20
630.5
 30
0.0
 40
1.5
 50
90.0
 51
180.0
  0
LINE
  8
0
  6
CONTINUOUS
 62
     1
 10
538.25
 20
575.0
 30
0.0
 11
538.25
 21
634.1
 31
0.0
  0
LINE
  8
0
  6
CONTINUOUS
 62
     1
 10
378.25
 20
618.070524155
 30
0.0
 11
378.25
 21
630.5
 31
0.0
  0
ARC
  8
0
  6
CONTINUOUS
 62
     1
 10
376.75
 20
618.070524155
 30
0.0
 40
1.5
 50
288.970407808
 51
0.0
  0
LINE
  8
0
  6
CONTINUOUS
 62
     1
 10
362.25
 20
575.0
 30
0.0
 11
362.25
 21
610.429475845
 31
0.0
  0
LINE
  8
0
  6
CONTINUOUS
 62
     1
 10
363.262380347
 20
611.848005744
 30
0.0
 11
377.237619653
 21
616.651994256
 31
0.0
  0
ARC
  8
0
  6
CONTINUOUS
 62
     1
 10
363.75
 20
610.429475845
 30
0.0
 40
1.5
 50
108.970407808
 51
180.0
  0
LINE
  8
0
  6
CONTINUOUS
 62
     1
 10
378.25
 20
575.0
 30
0.0
 11
378.25
 21
618.070524155
 31
0.0
  0
ARC
  8
0
  6
CONTINUOUS
 62
     1
 10
350.25
 20
591.5
 30
0.0
 40
1.0
 50
90.0
 51
180.0
  0
LINE
  8
0
  6
CONTINUOUS
 62
     1
 10
350.25
 20
592.5
 30
0.0
 11
362.25
 21
592.5
 31
0.0
  0
LINE
  8
0
  6
CONTINUOUS
 62
     1
 10
349.25
 20
575.0
 30
0.0
 11
349.25
 21
591.5
 31
0.0
  0
LINE
  8
0
  6
CONTINUOUS
 62
     1
 10
532.25
 20
575.0
 30
0.0
 11
532.25
 21
518.0
 31
0.0
  0
ARC
  8
0
  6
CONTINUOUS
 62
     1
 10
536.75
 20
516.5
 30
0.0
 40
1.5
 50
0.0
 51
90.0
  0
LINE
  8
0
  6
CONTINUOUS
 62
     1
 10
538.25
 20
516.5
 30
0.0
 11
538.25
 21
515.5
 31
0.0
  0
ARC
  8
0
  6
CONTINUOUS
 62
     1
 10
539.75
 20
515.5
 30
0.0
 40
1.5
 50
180.0
 51
270.0
  0
LINE
  8
0
  6
CONTINUOUS
 62
     1
 10
383.25
 20
575.0
 30
0.0
 11
383.25
 21
518.0
 31
0.0
  0
LINE
  8
0
  6
CONTINUOUS
 62
     1
 10
379.75
 20
518.0
 30
0.0
 11
536.75
 21
518.0
 31
0.0
  0
ARC
  8
0
  6
CONTINUOUS
 62
     1
 10
379.75
 20
519.5
 30
0.0
 40
1.5
 50
180.0
 51
270.0
  0
LINE
  8
0
  6
CONTINUOUS
 62
     1
 10
538.25
 20
575.0
 30
0.0
 11
538.25
 21
515.9
 31
0.0
  0
LINE
  8
0
  6
CONTINUOUS
 62
     1
 10
362.25
 20
575.0
 30
0.0
 11
362.25
 21
539.570524155
 31
0.0
  0
ARC
  8
0
  6
CONTINUOUS
 62
     1
 10
363.75
 20
539.570524155
 30
0.0
 40
1.5
 50
180.0
 51
251.029592192
  0
ARC
  8
0
  6
CONTINUOUS
 62
     1
 10
350.25
 20
558.5
 30
0.0
 40
1.0
 50
180.0
 51
270.0
  0
LINE
  8
0
  6
CONTINUOUS
 62
     1
 10
350.25
 20
557.5
 30
0.0
 11
362.25
 21
557.5
 31
0.0
  0
LINE
  8
0
  6
CONTINUOUS
 62
     1
 10
349.25
 20
575.0
 30
0.0
 11
349.25
 21
558.5
 31
0.0
  0
LINE
  8
0
  6
LTYPE4
 62
     2
 10
370.25
 20
611.062445841
 30
0.0
 11
381.25
 21
611.062445841
 31
0.0
  0
LINE
  8
0
  6
CONTINUOUS
 62
     1
 10
378.25
 20
531.929475845
 30
0.0
 11
378.25
 21
519.5
 31
0.0
  0
LINE
  8
0
  6
CONTINUOUS
 62
     1
 10
363.262380347
 20
538.151994256
 30
0.0
 11
377.237619653
 21
533.348005744
 31
0.0
  0
LINE
  8
0
  6
CONTINUOUS
 62
     1
 10
378.25
 20
575.0
 30
0.0
 11
378.25
 21
531.929475845
 31
0.0
  0
LINE
  8
0
  6
LTYPE4
 62
     2
 10
370.25
 20
538.937554159
 30
0.0
 11
381.25
 21
538.937554159
 31
0.0
  0
ARC
  8
0
  6
CONTINUOUS
 62
     1
 10
519.25
 20
635.0
 30
0.0
 40
3.0
 50
270.0
 51
0.0
  0
LINE
  8
0
  6
CONTINUOUS
 62
     1
 10
379.75
 20
632.0
 30
0.0
 11
536.75
 21
632.0
 31
0.0
  0
ARC
  8
0
  6
CONTINUOUS
 62
     1
 10
479.25
 20
635.0
 30
0.0
 40
3.0
 50
180.0
 51
270.0
  0
LINE
  8
0
  6
LTYPE4
 62
     2
 10
499.25
 20
620.0
 30
0.0
 11
499.25
 21
707.9321338
 31
0.0
  0
LINE
  8
0
  6
CONTINUOUS
 62
     1
 10
334.75
 20
590.5
 30
0.0
 11
349.25
 21
590.5
 31
0.0
  0
ARC
  8
0
  6
CONTINUOUS
 62
     1
 10
334.75
 20
589.0
 30
0.0
 40
1.5
 50
90.0
 51
180.0
  0
LINE
  8
0
  6
CONTINUOUS
 62
     1
 10
334.75
 20
559.5
 30
0.0
 11
349.25
 21
559.5
 31
0.0
  0
LINE
  8
0
  6
CONTINUOUS
 62
     1
 10
333.25
 20
561.0
 30
0.0
 11
333.25
 21
589.0
 31
0.0
  0
ARC
  8
0
  6
CONTINUOUS
 62
     1
 10
334.75
 20
561.0
 30
0.0
 40
1.5
 50
180.0
 51
270.0
  0
LINE
  8
2
  6
CONTINUOUS
 62
     2
 10
338.85
 20
592.5
 30
0.0
 11
339.530459689
 21
602.476821869
 31
0.0
  0
LINE
  8
2
  6
CONTINUOUS
 62
     2
 10
338.85
 20
592.5
 30
0.0
 11
334.450884442
 21
601.480411032
 31
0.0
  0
LINE
  8
2
  6
CONTINUOUS
 62
     2
 10
310.25
 20
632.0
 30
0.0
 11
307.661809549
 21
622.340741737
 31
0.0
  0
LINE
  8
2
  6
CONTINUOUS
 62
     2
 10
310.25
 20
632.0
 30
0.0
 11
312.838190451
 21
622.340741737
 31
0.0
  0
LINE
  8
2
  6
CONTINUOUS
 62
     2
 10
310.25
 20
632.0
 30
0.0
 11
310.25
 21
518.0
 31
0.0
  0
LINE
  8
2
  6
CONTINUOUS
 62
     2
 10
310.25
 20
518.0
 30
0.0
 11
312.838190451
 21
527.659258263
 31
0.0
  0
LINE
  8
2
  6
CONTINUOUS
 62
     2
 10
310.25
 20
518.0
 30
0.0
 11
307.661809549
 21
527.659258263
 31
0.0
  0
LINE
  8
2
  6
CONTINUOUS
 62
     2
 10
374.25
 20
632.0
 30
0.0
 11
305.75
 21
632.0
 31
0.0
  0
LINE
  8
2
  6
CONTINUOUS
 62
     2
 10
374.25
 20
518.0
 30
0.0
 11
305.75
 21
518.0
 31
0.0
  0
LINE
  8
0
  6
CONTINUOUS
 62
     1
 10
433.25
 20
653.0
 30
0.0
 11
433.25
 21
687.0
 31
0.0
  0
LINE
  8
0
  6
CONTINUOUS
 62
     1
 10
433.25
 20
653.0
 30
0.0
 11
459.25
 21
653.0
 31
0.0
  0
LINE
  8
0
  6
CONTINUOUS
 62
     1
 10
433.25
 20
687.0
 30
0.0
 11
459.25
 21
687.0
 31
0.0
  0
LINE
  8
0
  6
LTYPE4
 62
     2
 10
426.320524155
 20
670.0
 30
0.0
 11
466.320524155
 21
670.0
 31
0.0
  0
LINE
  8
0
  6
CONTINUOUS
 62
     1
 10
529.25
 20
645.0
 30
0.0
 11
529.25
 21
648.0
 31
0.0
  0
ARC
  8
0
  6
CONTINUOUS
 62
     1
 10
525.25
 20
642.0
 30
0.0
 40
3.0
 50
90.0
 51
180.0
  0
LINE
  8
0
  6
CONTINUOUS
 62
     1
 10
522.25
 20
635.0
 30
0.0
 11
522.25
 21
642.0
 31
0.0
  0
LINE
  8
0
  6
CONTINUOUS
 62
     1
 10
469.25
 20
645.0
 30
0.0
 11
469.25
 21
648.0
 31
0.0
  0
ARC
  8
0
  6
CONTINUOUS
 62
     1
 10
473.25
 20
642.0
 30
0.0
 40
3.0
 50
0.0
 51
90.0
  0
LINE
  8
0
  6
CONTINUOUS
 62
     1
 10
476.25
 20
635.0
 30
0.0
 11
476.25
 21
642.0
 31
0.0
  0
LINE
  8
0
  6
CONTINUOUS
 62
     1
 10
469.25
 20
645.0
 30
0.0
 11
529.25
 21
645.0
 31
0.0
  0
LINE
  8
0
  6
CONTINUOUS
 62
     1
 10
544.337912088
 20
650.0
 30
0.0
 11
452.25
 21
694.020045888
 31
0.0
  0
LINE
  8
0
  6
CONTINUOUS
 62
     1
 10
546.25
 20
654.0
 30
0.0
 11
544.337912088
 21
650.0
 31
0.0
  0
LINE
  8
0
  6
CONTINUOUS
 62
     1
 10
546.25
 20
654.0
 30
0.0
 11
454.162087912
 21
698.020045888
 31
0.0
  0
LINE
  8
0
  6
CONTINUOUS
 62
     1
 10
454.162087912
 20
698.020045888
 30
0.0
 11
452.25
 21
694.020045888
 31
0.0
  0
LINE
  8
0
  6
CONTINUOUS
 62
     1
 10
539.25
 20
657.346153846
 30
0.0
 11
539.25
 21
697.0
 31
0.0
  0
ARC
  8
0
  6
CONTINUOUS
 62
     1
 10
536.25
 20
697.0
 30
0.0
 40
3.0
 50
0.0
 51
90.0
  0
LINE
  8
0
  6
CONTINUOUS
 62
     1
 10
539.25
 20
651.0
 30
0.0
 11
539.25
 21
652.4321338
 31
0.0
  0
ARC
  8
0
  6
CONTINUOUS
 62
     1
 10
536.25
 20
651.0
 30
0.0
 40
3.0
 50
270.0
 51
0.0
  0
LINE
  8
0
  6
CONTINUOUS
 62
     1
 10
459.25
 20
651.0
 30
0.0
 11
459.25
 21
690.673892042
 31
0.0
  0
LINE
  8
0
  6
CONTINUOUS
 62
     1
 10
462.25
 20
648.0
 30
0.0
 11
536.25
 21
648.0
 31
0.0
  0
ARC
  8
0
  6
CONTINUOUS
 62
     1
 10
462.25
 20
651.0
 30
0.0
 40
3.0
 50
180.0
 51
270.0
  0
LINE
  8
0
  6
CONTINUOUS
 62
     1
 10
459.25
 20
695.587912088
 30
0.0
 11
459.25
 21
697.0
 31
0.0
  0
LINE
  8
0
  6
CONTINUOUS
 62
     1
 10
462.25
 20
700.0
 30
0.0
 11
536.25
 21
700.0
 31
0.0
  0
ARC
  8
0
  6
CONTINUOUS
 62
     1
 10
462.25
 20
697.0
 30
0.0
 40
3.0
 50
90.0
 51
180.0
  0
LINE
  8
2
  6
CONTINUOUS
 62
     2
 10
331.935350584
 20
627.75
 30
0.0
 11
315.35
 21
712.3
 31
0.0
  0
LINE
  8
2
  6
CONTINUOUS
 62
     2
 10
338.85
 20
592.5
 30
0.0
 11
334.387353923
 21
615.25
 31
0.0
  0
LINE
  8
0
  6
CONTINUOUS
 62
     1
 10
376.95
 20
611.062445841
 30
0.0
 11
376.95
 21
606.450565841
 31
0.0
  0
LINE
  8
0
  6
CONTINUOUS
 62
     1
 10
376.95
 20
611.062445841
 30
0.0
 11
376.95
 21
615.674325841
 31
0.0
  0
LINE
  8
0
  6
CONTINUOUS
 62
     1
 10
373.4498
 20
607.580005841
 30
0.0
 11
374.101882488
 21
606.450565841
 31
0.0
  0
LINE
  8
0
  6
CONTINUOUS
 62
     1
 10
373.4498
 20
611.062445841
 30
0.0
 11
373.4498
 21
607.580005841
 31
0.0
  0
LINE
  8
0
  6
CONTINUOUS
 62
     1
 10
373.4498
 20
614.544885841
 30
0.0
 11
374.101882488
 21
615.674325841
 31
0.0
  0
LINE
  8
0
  6
CONTINUOUS
 62
     1
 10
373.4498
 20
611.062445841
 30
0.0
 11
373.4498
 21
614.544885841
 31
0.0
  0
ARC
  8
0
  6
CONTINUOUS
 62
     1
 10
377.853054926
 20
611.062445841
 30
0.0
 40
4.403254926
 50
148.419912243
 51
211.580087757
  0
ARC
  8
0
  6
CONTINUOUS
 62
     1
 10
374.794720132
 20
607.603535841
 30
0.0
 40
1.34512595
 50
121.002313915
 51
182.989498403
  0
LINE
  8
0
  6
CONTINUOUS
 62
     1
 10
373.4498
 20
614.544885841
 30
0.0
 11
374.101882488
 21
615.674325841
 31
0.0
  0
ARC
  8
0
  6
CONTINUOUS
 62
     1
 10
374.794720132
 20
614.521355841
 30
0.0
 40
1.34512595
 50
177.010501597
 51
238.997686085
  0
LINE
  8
0
  6
CONTINUOUS
 62
     1
 10
376.95
 20
606.450565841
 30
0.0
 11
374.101882488
 21
606.450565841
 31
0.0
  0
LINE
  8
0
  6
CONTINUOUS
 62
     1
 10
376.95
 20
608.756505841
 30
0.0
 11
374.101882488
 21
608.756505841
 31
0.0
  0
LINE
  8
0
  6
CONTINUOUS
 62
     1
 10
376.95
 20
613.368385841
 30
0.0
 11
374.101882488
 21
613.368385841
 31
0.0
  0
LINE
  8
0
  6
CONTINUOUS
 62
     1
 10
376.95
 20
615.674325841
 30
0.0
 11
374.101882488
 21
615.674325841
 31
0.0
  0
LINE
  8
0
  6
CONTINUOUS
 62
     1
 10
378.25
 20
606.462445841
 30
0.0
 11
376.95
 21
606.462445841
 31
0.0
  0
LINE
  8
0
  6
CONTINUOUS
 62
     1
 10
378.25
 20
611.062445841
 30
0.0
 11
376.950000446
 21
609.762446287
 31
0.0
  0
LINE
  8
0
  6
CONTINUOUS
 62
     1
 10
376.950000446
 20
611.062445841
 30
0.0
 11
378.25
 21
612.362445394
 31
0.0
  0
LINE
  8
0
  6
CONTINUOUS
 62
     1
 10
378.25
 20
615.662445841
 30
0.0
 11
376.95
 21
615.662445841
 31
0.0
  0
LINE
  8
0
  6
CONTINUOUS
 62
     1
 10
348.25
 20
571.2
 30
0.0
 11
349.25
 21
571.2
 31
0.0
  0
LINE
  8
0
  6
CONTINUOUS
 62
     1
 10
345.45
 20
571.5
 30
0.0
 11
345.767542648
 21
570.95
 31
0.0
  0
LINE
  8
0
  6
CONTINUOUS
 62
     1
 10
345.767542648
 20
570.95
 30
0.0
 11
348.25
 21
570.95
 31
0.0
  0
ARC
  8
0
  6
CONTINUOUS
 62
     1
 10
347.222973788
 20
571.9625
 30
0.0
 40
1.772973788
 50
145.174816769
 51
214.825183231
  0
LINE
  8
0
  6
CONTINUOUS
 62
     1
 10
348.25
 20
579.05
 30
0.0
 11
348.25
 21
570.95
 31
0.0
  0
LINE
  8
0
  6
CONTINUOUS
 62
     1
 10
348.25
 20
578.8
 30
0.0
 11
349.25
 21
578.8
 31
0.0
  0
LINE
  8
0
  6
CONTINUOUS
 62
     1
 10
348.25
 20
575.0
 30
0.0
 11
349.25
 21
576.0
 31
0.0
  0
LINE
  8
0
  6
CONTINUOUS
 62
     1
 10
345.767542648
 20
579.05
 30
0.0
 11
348.25
 21
579.05
 31
0.0
  0
LINE
  8
0
  6
CONTINUOUS
 62
     1
 10
345.45
 20
578.5
 30
0.0
 11
345.767542648
 21
579.05
 31
0.0
  0
LINE
  8
0
  6
CONTINUOUS
 62
     1
 10
345.767542648
 20
577.025
 30
0.0
 11
348.25
 21
577.025
 31
0.0
  0
ARC
  8
0
  6
CONTINUOUS
 62
     1
 10
347.222973788
 20
578.0375
 30
0.0
 40
1.772973788
 50
145.174816769
 51
214.825183231
  0
LINE
  8
0
  6
CONTINUOUS
 62
     1
 10
348.25
 20
574.0
 30
0.0
 11
349.25
 21
575.0
 31
0.0
  0
LINE
  8
0
  6
CONTINUOUS
 62
     1
 10
345.767542648
 20
572.975
 30
0.0
 11
348.25
 21
572.975
 31
0.0
  0
LINE
  8
0
  6
CONTINUOUS
 62
     1
 10
345.45
 20
578.5
 30
0.0
 11
345.45
 21
571.5
 31
0.0
  0
ARC
  8
0
  6
CONTINUOUS
 62
     1
 10
352.065581181
 20
575.0
 30
0.0
 40
6.615581181
 50
162.175912681
 51
197.824087319
  0
ARC
  8
0
  6
CONTINUOUS
 62
     1
 10
376.75
 20
531.929475845
 30
0.0
 40
1.5
 50
0.0
 51
71.029592192
  0
LINE
  8
0
  6
CONTINUOUS
 62
     1
 10
376.95
 20
538.937554159
 30
0.0
 11
376.95
 21
543.549434159
 31
0.0
  0
LINE
  8
0
  6
CONTINUOUS
 62
     1
 10
373.4498
 20
542.419994159
 30
0.0
 11
374.101882488
 21
543.549434159
 31
0.0
  0
LINE
  8
0
  6
CONTINUOUS
 62
     1
 10
373.4498
 20
538.937554159
 30
0.0
 11
373.4498
 21
542.419994159
 31
0.0
  0
ARC
  8
0
  6
CONTINUOUS
 62
     1
 10
374.794720132
 20
542.396464159
 30
0.0
 40
1.34512595
 50
177.010501597
 51
238.997686085
  0
LINE
  8
0
  6
CONTINUOUS
 62
     1
 10
376.95
 20
543.549434159
 30
0.0
 11
374.101882488
 21
543.549434159
 31
0.0
  0
LINE
  8
0
  6
CONTINUOUS
 62
     1
 10
378.25
 20
543.537554159
 30
0.0
 11
376.95
 21
543.537554159
 31
0.0
  0
LINE
  8
0
  6
CONTINUOUS
 62
     1
 10
376.95
 20
538.937554159
 30
0.0
 11
376.95
 21
534.325674159
 31
0.0
  0
LINE
  8
0
  6
CONTINUOUS
 62
     1
 10
373.4498
 20
535.455114159
 30
0.0
 11
374.101882488
 21
534.325674159
 31
0.0
  0
LINE
  8
0
  6
CONTINUOUS
 62
     1
 10
373.4498
 20
538.937554159
 30
0.0
 11
373.4498
 21
535.455114159
 31
0.0
  0
ARC
  8
0
  6
CONTINUOUS
 62
     1
 10
377.853054926
 20
538.937554159
 30
0.0
 40
4.403254926
 50
148.419912243
 51
211.580087757
  0
LINE
  8
0
  6
CONTINUOUS
 62
     1
 10
373.4498
 20
535.455114159
 30
0.0
 11
374.101882488
 21
534.325674159
 31
0.0
  0
ARC
  8
0
  6
CONTINUOUS
 62
     1
 10
374.794720132
 20
535.478644159
 30
0.0
 40
1.34512595
 50
121.002313915
 51
182.989498403
  0
LINE
  8
0
  6
CONTINUOUS
 62
     1
 10
376.95
 20
536.631614159
 30
0.0
 11
374.101882488
 21
536.631614159
 31
0.0
  0
LINE
  8
0
  6
CONTINUOUS
 62
     1
 10
376.95
 20
534.325674159
 30
0.0
 11
374.101882488
 21
534.325674159
 31
0.0
  0
LINE
  8
0
  6
CONTINUOUS
 62
     1
 10
378.25
 20
534.337554159
 30
0.0
 11
376.95
 21
534.337554159
 31
0.0
  0
LINE
  8
0
  6
CONTINUOUS
 62
     1
 10
376.95
 20
541.243494159
 30
0.0
 11
374.101882488
 21
541.243494159
 31
0.0
  0
LINE
  8
0
  6
CONTINUOUS
 62
     1
 10
378.25
 20
538.937554159
 30
0.0
 11
376.950000446
 21
540.237553713
 31
0.0
  0
LINE
  8
0
  6
CONTINUOUS
 62
     1
 10
376.950000446
 20
538.937554159
 30
0.0
 11
378.25
 21
537.637554606
 31
0.0
  0
LINE
  8
0
  6
CONTINUOUS
 62
     2
 10
433.25
 20
670.0
 30
0.0
 11
433.869310852
 21
679.98080428
 31
0.0
  0
LINE
  8
0
  6
CONTINUOUS
 62
     2
 10
433.25
 20
670.0
 30
0.0
 11
428.795936791
 21
678.953285482
 31
0.0
  0
LINE
  8
0
  6
LTYPE1
 62
     2
 10
555.25
 20
575.0
 30
0.0
 11
326.25
 21
575.0
 31
0.0
  0
LINE
  8
0
  6
CONTINUOUS
 62
     2
 10
333.25
 20
800.5
 30
0.0
 11
342.909258263
 21
797.911809549
 31
0.0
  0
LINE
  8
0
  6
CONTINUOUS
 62
     2
 10
333.25
 20
800.5
 30
0.0
 11
342.909258263
 21
803.088190451
 31
0.0
  0
LINE
  8
0
  6
CONTINUOUS
 62
     2
 10
333.25
 20
830.0
 30
0.0
 11
342.909258263
 21
827.411809549
 31
0.0
  0
LINE
  8
0
  6
CONTINUOUS
 62
     2
 10
333.25
 20
830.0
 30
0.0
 11
342.909258263
 21
832.588190451
 31
0.0
  0
LINE
  8
0
  6
CONTINUOUS
 62
     2
 10
333.25
 20
598.0
 30
0.0
 11
333.25
 21
836.0
 31
0.0
  0
LINE
  8
0
  6
CONTINUOUS
 62
     2
 10
645.25
 20
800.5
 30
0.0
 11
333.25
 21
800.5
 31
0.0
  0
LINE
  8
0
  6
CONTINUOUS
 62
     2
 10
1066.25
 20
830.0
 30
0.0
 11
333.25
 21
830.0
 31
0.0
  0
LINE
  8
0
  6
CONTINUOUS
 62
     1
 10
1074.25
 20
370.0
 30
0.0
 11
1074.25
 21
362.0
 31
0.0
  0
LINE
  8
0
  6
CONTINUOUS
 62
     1
 10
1058.25
 20
362.0
 30
0.0
 11
1058.25
 21
370.0
 31
0.0
  0
LINE
  8
0
  6
CONTINUOUS
 62
     1
 10
1084.25
 20
362.0
 30
0.0
 11
1084.25
 21
350.0
 31
0.0
  0
LINE
  8
0
  6
CONTINUOUS
 62
     1
 10
1074.25
 20
339.0
 30
0.0
 11
1058.25
 21
339.0
 31
0.0
  0
LINE
  8
0
  6
CONTINUOUS
 62
     1
 10
1041.25
 20
370.0
 30
0.0
 11
1041.25
 21
362.0
 31
0.0
  0
LINE
  8
0
  6
CONTINUOUS
 62
     1
 10
1041.25
 20
362.0
 30
0.0
 11
1084.25
 21
362.0
 31
0.0
  0
LINE
  8
0
  6
CONTINUOUS
 62
     1
 10
1074.25
 20
370.0
 30
0.0
 11
1074.25
 21
378.0
 31
0.0
  0
LINE
  8
0
  6
CONTINUOUS
 62
     1
 10
1058.25
 20
378.0
 30
0.0
 11
1058.25
 21
370.0
 31
0.0
  0
LINE
  8
0
  6
CONTINUOUS
 62
     1
 10
1084.25
 20
378.0
 30
0.0
 11
1084.25
 21
390.0
 31
0.0
  0
LINE
  8
0
  6
CONTINUOUS
 62
     1
 10
1074.25
 20
401.0
 30
0.0
 11
1058.25
 21
401.0
 31
0.0
  0
LINE
  8
0
  6
CONTINUOUS
 62
     1
 10
1041.25
 20
370.0
 30
0.0
 11
1041.25
 21
378.0
 31
0.0
  0
LINE
  8
0
  6
CONTINUOUS
 62
     1
 10
1041.25
 20
378.0
 30
0.0
 11
1084.25
 21
378.0
 31
0.0
  0
LINE
  8
0
  6
CONTINUOUS
 62
     2
 10
1121.983854631
 20
378.0
 30
0.0
 11
1119.39566418
 21
368.340741737
 31
0.0
  0
LINE
  8
0
  6
CONTINUOUS
 62
     2
 10
1121.983854631
 20
378.0
 30
0.0
 11
1124.572045082
 21
368.340741737
 31
0.0
  0
LINE
  8
0
  6
CONTINUOUS
 62
     2
 10
1122.083854631
 20
378.0
 30
0.0
 11
1119.49566418
 21
368.340741737
 31
0.0
  0
LINE
  8
0
  6
CONTINUOUS
 62
     2
 10
1122.083854631
 20
378.0
 30
0.0
 11
1124.672045082
 21
368.340741737
 31
0.0
  0
LINE
  8
0
  6
LTYPE1
 62
     2
 10
1066.25
 20
331.1
 30
0.0
 11
1066.25
 21
615.0
 31
0.0
  0
LINE
  8
0
  6
CONTINUOUS
 62
     2
 10
1168.45
 20
350.0
 30
0.0
 11
1171.038190451
 21
359.659258263
 31
0.0
  0
LINE
  8
0
  6
CONTINUOUS
 62
     2
 10
1168.45
 20
350.0
 30
0.0
 11
1165.861809549
 21
359.659258263
 31
0.0
  0
LINE
  8
0
  6
CONTINUOUS
 62
     2
 10
1168.45
 20
350.0
 30
0.0
 11
1168.45
 21
390.0
 31
0.0
  0
LINE
  8
0
  6
CONTINUOUS
 62
     2
 10
1168.45
 20
390.0
 30
0.0
 11
1165.861809549
 21
380.340741737
 31
0.0
  0
LINE
  8
0
  6
CONTINUOUS
 62
     2
 10
1168.45
 20
390.0
 30
0.0
 11
1171.038190451
 21
380.340741737
 31
0.0
  0
LINE
  8
0
  6
CONTINUOUS
 62
     2
 10
1130.083854631
 20
390.0
 30
0.0
 11
1175.25
 21
390.0
 31
0.0
  0
LINE
  8
0
  6
CONTINUOUS
 62
     2
 10
1122.083854631
 20
390.0
 30
0.0
 11
1124.672045082
 21
399.659258263
 31
0.0
  0
LINE
  8
0
  6
CONTINUOUS
 62
     2
 10
1122.083854631
 20
390.0
 30
0.0
 11
1119.49566418
 21
399.659258263
 31
0.0
  0
LINE
  8
0
  6
CONTINUOUS
 62
     2
 10
1121.983854631
 20
378.0
 30
0.0
 11
1121.983854631
 21
362.0
 31
0.0
  0
LINE
  8
0
  6
CONTINUOUS
 62
     2
 10
1121.983854631
 20
362.0
 30
0.0
 11
1124.572045082
 21
371.659258263
 31
0.0
  0
LINE
  8
0
  6
CONTINUOUS
 62
     2
 10
1121.983854631
 20
362.0
 30
0.0
 11
1119.39566418
 21
371.659258263
 31
0.0
  0
LINE
  8
0
  6
CONTINUOUS
 62
     2
 10
1122.083854631
 20
382.0
 30
0.0
 11
1122.083854631
 21
306.4
 31
0.0
  0
LINE
  8
0
  6
CONTINUOUS
 62
     2
 10
1122.083854631
 20
350.0
 30
0.0
 11
1124.672045082
 21
340.340741737
 31
0.0
  0
LINE
  8
0
  6
CONTINUOUS
 62
     2
 10
1122.083854631
 20
350.0
 30
0.0
 11
1119.49566418
 21
340.340741737
 31
0.0
  0
LINE
  8
0
  6
CONTINUOUS
 62
     2
 10
1130.083854631
 20
350.0
 30
0.0
 11
1176.25
 21
350.0
 31
0.0
  0
LINE
  8
0
  6
CONTINUOUS
 62
     1
 10
1051.25
 20
393.0
 30
0.0
 11
1081.25
 21
393.0
 31
0.0
  0
LINE
  8
0
  6
CONTINUOUS
 62
     1
 10
1051.25
 20
390.0
 30
0.0
 11
1051.25
 21
393.0
 31
0.0
  0
LINE
  8
0
  6
CONTINUOUS
 62
     1
 10
1081.25
 20
390.0
 30
0.0
 11
1081.25
 21
393.0
 31
0.0
  0
LINE
  8
0
  6
CONTINUOUS
 62
     1
 10
1074.25
 20
393.0
 30
0.0
 11
1074.25
 21
401.0
 31
0.0
  0
LINE
  8
0
  6
CONTINUOUS
 62
     1
 10
1058.25
 20
401.0
 30
0.0
 11
1058.25
 21
393.0
 31
0.0
  0
LINE
  8
0
  6
LTYPE2
 62
     2
 10
1058.25
 20
393.0
 30
0.0
 11
1058.25
 21
378.0
 31
0.0
  0
LINE
  8
0
  6
LTYPE2
 62
     2
 10
1074.25
 20
378.0
 30
0.0
 11
1074.25
 21
393.0
 31
0.0
  0
LINE
  8
0
  6
LTYPE4
 62
     2
 10
1061.85
 20
395.65
 30
0.0
 11
1070.25
 21
395.65
 31
0.0
  0
CIRCLE
  8
0
  6
CONTINUOUS
 62
     1
 10
1066.25
 20
395.65
 30
0.0
 40
2.0
  0
LINE
  8
0
  6
CONTINUOUS
 62
     1
 10
1074.25
 20
339.0
 30
0.0
 11
1058.25
 21
339.0
 31
0.0
  0
LINE
  8
0
  6
CONTINUOUS
 62
     1
 10
1051.25
 20
347.0
 30
0.0
 11
1081.25
 21
347.0
 31
0.0
  0
LINE
  8
0
  6
CONTINUOUS
 62
     1
 10
1051.25
 20
350.0
 30
0.0
 11
1051.25
 21
347.0
 31
0.0
  0
LINE
  8
0
  6
CONTINUOUS
 62
     1
 10
1081.25
 20
350.0
 30
0.0
 11
1081.25
 21
347.0
 31
0.0
  0
LINE
  8
0
  6
CONTINUOUS
 62
     1
 10
1074.25
 20
347.0
 30
0.0
 11
1074.25
 21
339.0
 31
0.0
  0
LINE
  8
0
  6
CONTINUOUS
 62
     1
 10
1058.25
 20
339.0
 30
0.0
 11
1058.25
 21
347.0
 31
0.0
  0
LINE
  8
0
  6
LTYPE4
 62
     2
 10
1061.85
 20
344.35
 30
0.0
 11
1070.25
 21
344.35
 31
0.0
  0
CIRCLE
  8
0
  6
CONTINUOUS
 62
     1
 10
1066.25
 20
344.35
 30
0.0
 40
2.0
  0
LINE
  8
0
  6
CONTINUOUS
 62
     1
 10
1058.25
 20
339.0
 30
0.0
 11
1058.25
 21
347.0
 31
0.0
  0
LINE
  8
0
  6
CONTINUOUS
 62
     1
 10
1074.25
 20
347.0
 30
0.0
 11
1074.25
 21
339.0
 31
0.0
  0
LINE
  8
0
  6
LTYPE2
 62
     2
 10
1074.25
 20
362.0
 30
0.0
 11
1074.25
 21
347.0
 31
0.0
  0
LINE
  8
0
  6
LTYPE2
 62
     2
 10
1058.25
 20
347.0
 30
0.0
 11
1058.25
 21
362.0
 31
0.0
  0
LINE
  8
0
  6
CONTINUOUS
 62
     2
 10
1122.083854631
 20
358.0
 30
0.0
 11
1122.083854631
 21
419.2
 31
0.0
  0
LINE
  8
0
  6
CONTINUOUS
 62
     2
 10
1058.25
 20
428.1
 30
0.0
 11
1048.590741737
 21
430.688190451
 31
0.0
  0
LINE
  8
0
  6
CONTINUOUS
 62
     2
 10
1058.25
 20
428.1
 30
0.0
 11
1048.590741737
 21
425.511809549
 31
0.0
  0
LINE
  8
0
  6
CONTINUOUS
 62
     2
 10
1074.25
 20
428.1
 30
0.0
 11
1083.909258263
 21
425.511809549
 31
0.0
  0
LINE
  8
0
  6
CONTINUOUS
 62
     2
 10
1074.25
 20
428.1
 30
0.0
 11
1083.909258263
 21
430.688190451
 31
0.0
  0
LINE
  8
0
  6
CONTINUOUS
 62
     2
 10
1038.25
 20
428.1
 30
0.0
 11
1130.25
 21
428.1
 31
0.0
  0
TEXT
  8
0
  6
CONTINUOUS
 62
     2
 10
1122.0
 20
440.76
 30
0.84
 40
8.4
  1
Ｈ１０
 50
0.0
 41
0.9
 51
0.0
  7
KANJI0
  0
TEXT
  8
0
  6
CONTINUOUS
 62
     2
 10
1122.0
 20
432.36
 30
0.84
 40
8.4
  1
ｈ９
 50
0.0
 41
0.9
 51
0.0
  7
KANJI0
  0
LINE
  8
0
  6
CONTINUOUS
 62
     2
 10
1066.25
 20
440.35
 30
0.0
 11
1066.25
 21
448.85
 31
0.0
  0
LINE
  8
0
  6
CONTINUOUS
 62
     2
 10
1066.25
 20
440.85
 30
0.0
 11
1056.590741737
 21
443.438190451
 31
0.0
  0
LINE
  8
0
  6
CONTINUOUS
 62
     2
 10
1066.25
 20
440.85
 30
0.0
 11
1056.590741737
 21
438.261809549
 31
0.0
  0
LINE
  8
0
  6
CONTINUOUS
 62
     2
 10
1066.25
 20
440.85
 30
0.0
 11
1041.25
 21
440.85
 31
0.0
  0
LINE
  8
0
  6
CONTINUOUS
 62
     2
 10
1041.25
 20
440.85
 30
0.0
 11
1050.909258263
 21
438.261809549
 31
0.0
  0
LINE
  8
0
  6
CONTINUOUS
 62
     2
 10
1041.25
 20
440.85
 30
0.0
 11
1050.909258263
 21
443.438190451
 31
0.0
  0
LINE
  8
0
  6
CONTINUOUS
 62
     1
 10
1031.25
 20
390.0
 30
0.0
 11
1084.25
 21
390.0
 31
0.0
  0
LINE
  8
0
  6
CONTINUOUS
 62
     1
 10
1031.25
 20
350.0
 30
0.0
 11
1084.25
 21
350.0
 31
0.0
  0
LINE
  8
0
  6
LTYPE1
 62
     2
 10
989.15
 20
370.0
 30
0.0
 11
1095.15
 21
370.0
 31
0.0
  0
LINE
  8
0
  6
CONTINUOUS
 62
     1
 10
1012.75
 20
405.0
 30
0.0
 11
1002.75
 21
405.0
 31
0.0
  0
LINE
  8
0
  6
CONTINUOUS
 62
     1
 10
1015.25
 20
403.0
 30
0.0
 11
1000.25
 21
403.0
 31
0.0
  0
LINE
  8
0
  6
CONTINUOUS
 62
     1
 10
1012.75
 20
403.0
 30
0.0
 11
1012.75
 21
405.0
 31
0.0
  0
LINE
  8
0
  6
CONTINUOUS
 62
     1
 10
1002.75
 20
403.0
 30
0.0
 11
1002.75
 21
405.0
 31
0.0
  0
LINE
  8
0
  6
CONTINUOUS
 62
     1
 10
1015.25
 20
370.0
 30
0.0
 11
1015.25
 21
403.0
 31
0.0
  0
LINE
  8
0
  6
CONTINUOUS
 62
     1
 10
1000.25
 20
370.0
 30
0.0
 11
1000.25
 21
403.0
 31
0.0
  0
LINE
  8
0
  6
CONTINUOUS
 62
     1
 10
1000.25
 20
400.5
 30
0.0
 11
995.893462567
 21
416.758819045
 31
0.0
  0
ARC
  8
0
  6
CONTINUOUS
 62
     1
 10
994.927536741
 20
416.5
 30
0.0
 40
1.0
 50
15.0
 51
90.0
  0
ARC
  8
0
  6
CONTINUOUS
 62
     1
 10
994.927535915
 20
416.5
 30
0.0
 40
1.0
 50
90.0
 51
165.0
  0
LINE
  8
0
  6
CONTINUOUS
 62
     1
 10
990.339569879
 20
403.241180955
 30
0.0
 11
993.961610088
 21
416.758819045
 31
0.0
  0
ARC
  8
0
  6
CONTINUOUS
 62
     1
 10
989.373644052
 20
403.5
 30
0.0
 40
1.0
 50
270.0
 51
345.0
  0
ARC
  8
0
  6
CONTINUOUS
 62
     1
 10
989.373643378
 20
403.5
 30
0.0
 40
1.0
 50
195.0
 51
270.0
  0
LINE
  8
0
  6
CONTINUOUS
 62
     1
 10
988.407717552
 20
403.241180955
 30
0.0
 11
984.785677342
 21
416.758819045
 31
0.0
  0
ARC
  8
0
  6
CONTINUOUS
 62
     1
 10
983.819751516
 20
416.5
 30
0.0
 40
1.0
 50
15.0
 51
90.0
  0
ARC
  8
0
  6
CONTINUOUS
 62
     1
 10
983.819749864
 20
416.5
 30
0.0
 40
1.0
 50
90.0
 51
165.0
  0
ARC
  8
0
  6
CONTINUOUS
 62
     1
 10
978.265858827
 20
403.5
 30
0.0
 40
1.0
 50
270.0
 51
345.0
  0
LINE
  8
0
  6
CONTINUOUS
 62
     1
 10
979.231784654
 20
403.241180955
 30
0.0
 11
982.853824863
 21
416.758819045
 31
0.0
  0
LINE
  8
0
  6
CONTINUOUS
 62
     1
 10
978.265858827
 20
402.5
 30
0.0
 11
978.265858827
 21
370.0
 31
0.0
  0
LINE
  8
0
  6
CONTINUOUS
 62
     1
 10
983.81975069
 20
417.5
 30
0.0
 11
983.81975069
 21
370.0
 31
0.0
  0
LINE
  8
0
  6
CONTINUOUS
 62
     1
 10
994.927536741
 20
417.5
 30
0.0
 11
994.927536741
 21
370.0
 31
0.0
  0
LINE
  8
0
  6
CONTINUOUS
 62
     1
 10
989.373644052
 20
370.0
 30
0.0
 11
989.373644052
 21
402.5
 31
0.0
  0
LINE
  8
0
  6
CONTINUOUS
 62
     1
 10
1012.75
 20
335.0
 30
0.0
 11
1002.75
 21
335.0
 31
0.0
  0
LINE
  8
0
  6
CONTINUOUS
 62
     1
 10
1015.25
 20
337.0
 30
0.0
 11
1000.25
 21
337.0
 31
0.0
  0
LINE
  8
0
  6
CONTINUOUS
 62
     1
 10
1012.75
 20
337.0
 30
0.0
 11
1012.75
 21
335.0
 31
0.0
  0
LINE
  8
0
  6
CONTINUOUS
 62
     1
 10
1002.75
 20
337.0
 30
0.0
 11
1002.75
 21
335.0
 31
0.0
  0
LINE
  8
0
  6
CONTINUOUS
 62
     1
 10
1000.25
 20
370.0
 30
0.0
 11
1000.25
 21
337.0
 31
0.0
  0
LINE
  8
0
  6
CONTINUOUS
 62
     1
 10
1000.25
 20
339.5
 30
0.0
 11
995.893462567
 21
323.241180955
 31
0.0
  0
ARC
  8
0
  6
CONTINUOUS
 62
     1
 10
994.927536741
 20
323.5
 30
0.0
 40
1.0
 50
270.0
 51
345.0
  0
ARC
  8
0
  6
CONTINUOUS
 62
     1
 10
994.927535915
 20
323.5
 30
0.0
 40
1.0
 50
195.0
 51
270.0
  0
LINE
  8
0
  6
CONTINUOUS
 62
     1
 10
990.339569879
 20
336.758819045
 30
0.0
 11
993.961610088
 21
323.241180955
 31
0.0
  0
ARC
  8
0
  6
CONTINUOUS
 62
     1
 10
989.373644052
 20
336.5
 30
0.0
 40
1.0
 50
15.0
 51
90.0
  0
ARC
  8
0
  6
CONTINUOUS
 62
     1
 10
989.373643378
 20
336.5
 30
0.0
 40
1.0
 50
90.0
 51
165.0
  0
LINE
  8
0
  6
CONTINUOUS
 62
     1
 10
988.407717552
 20
336.758819045
 30
0.0
 11
984.785677342
 21
323.241180955
 31
0.0
  0
ARC
  8
0
  6
CONTINUOUS
 62
     1
 10
983.819751516
 20
323.5
 30
0.0
 40
1.0
 50
270.0
 51
345.0
  0
ARC
  8
0
  6
CONTINUOUS
 62
     1
 10
983.819749864
 20
323.5
 30
0.0
 40
1.0
 50
195.0
 51
270.0
  0
ARC
  8
0
  6
CONTINUOUS
 62
     1
 10
978.265858827
 20
336.5
 30
0.0
 40
1.0
 50
15.0
 51
90.0
  0
LINE
  8
0
  6
CONTINUOUS
 62
     1
 10
979.231784654
 20
336.758819045
 30
0.0
 11
982.853824863
 21
323.241180955
 31
0.0
  0
LINE
  8
0
  6
CONTINUOUS
 62
     1
 10
978.265858827
 20
337.5
 30
0.0
 11
978.265858827
 21
370.0
 31
0.0
  0
LINE
  8
0
  6
CONTINUOUS
 62
     1
 10
983.81975069
 20
322.5
 30
0.0
 11
983.81975069
 21
370.0
 31
0.0
  0
LINE
  8
0
  6
CONTINUOUS
 62
     1
 10
994.927536741
 20
322.5
 30
0.0
 11
994.927536741
 21
370.0
 31
0.0
  0
LINE
  8
0
  6
CONTINUOUS
 62
     1
 10
989.373644052
 20
370.0
 30
0.0
 11
989.373644052
 21
337.5
 31
0.0
  0
LINE
  8
0
  6
CONTINUOUS
 62
     1
 10
1015.25
 20
350.0
 30
0.0
 11
1015.25
 21
407.0
 31
0.0
  0
LINE
  8
0
  6
CONTINUOUS
 62
     1
 10
1015.25
 20
407.0
 30
0.0
 11
1031.25
 21
407.0
 31
0.0
  0
LINE
  8
0
  6
CONTINUOUS
 62
     1
 10
1031.25
 20
407.0
 30
0.0
 11
1031.25
 21
333.0
 31
0.0
  0
LINE
  8
0
  6
CONTINUOUS
 62
     1
 10
1015.25
 20
333.0
 30
0.0
 11
1031.25
 21
333.0
 31
0.0
  0
LINE
  8
0
  6
CONTINUOUS
 62
     1
 10
1015.25
 20
370.0
 30
0.0
 11
1015.25
 21
333.0
 31
0.0
  0
LINE
  8
0
  6
CONTINUOUS
 62
     1
 10
921.25
 20
543.25
 30
0.0
 11
971.25
 21
543.25
 31
0.0
  0
LINE
  8
0
  6
CONTINUOUS
 62
     2
 10
971.25
 20
581.25
 30
0.0
 11
971.25
 21
774.75
 31
0.0
  0
LINE
  8
0
  6
CONTINUOUS
 62
     1
 10
566.25
 20
632.0
 30
0.0
 11
555.25
 21
632.0
 31
0.0
  0
LINE
  8
0
  6
CONTINUOUS
 62
     1
 10
566.25
 20
518.0
 30
0.0
 11
555.25
 21
518.0
 31
0.0
  0
LINE
  8
0
  6
CONTINUOUS
 62
     2
 10
421.803486224
 20
726.517161767
 30
0.0
 11
376.203486224
 21
726.517161767
 31
0.0
  0
LINE
  8
0
  6
CONTINUOUS
 62
     2
 10
433.25
 20
670.0
 30
0.0
 11
421.803486224
 21
726.517161767
 31
0.0
  0
LINE
  8
2
  6
CONTINUOUS
 62
     2
 10
645.25
 20
770.0
 30
0.0
 11
635.590741737
 21
772.588190451
 31
0.0
  0
LINE
  8
2
  6
CONTINUOUS
 62
     2
 10
645.25
 20
770.0
 30
0.0
 11
635.590741737
 21
767.411809549
 31
0.0
  0
LINE
  8
2
  6
CONTINUOUS
 62
     2
 10
645.25
 20
770.0
 30
0.0
 11
555.25
 21
770.0
 31
0.0
  0
LINE
  8
2
  6
CONTINUOUS
 62
     2
 10
555.25
 20
770.0
 30
0.0
 11
564.909258263
 21
767.411809549
 31
0.0
  0
LINE
  8
2
  6
CONTINUOUS
 62
     2
 10
555.25
 20
770.0
 30
0.0
 11
564.909258263
 21
772.588190451
 31
0.0
  0
LINE
  8
2
  6
CONTINUOUS
 62
     2
 10
555.25
 20
642.5
 30
0.0
 11
555.25
 21
774.0
 31
0.0
  0
LINE
  8
2
  6
CONTINUOUS
 62
     2
 10
555.25
 20
770.0
 30
0.0
 11
545.590741737
 21
772.588190451
 31
0.0
  0
LINE
  8
2
  6
CONTINUOUS
 62
     2
 10
555.25
 20
770.0
 30
0.0
 11
545.590741737
 21
767.411809549
 31
0.0
  0
LINE
  8
2
  6
CONTINUOUS
 62
     2
 10
555.25
 20
770.0
 30
0.0
 11
333.25
 21
770.0
 31
0.0
  0
LINE
  8
2
  6
CONTINUOUS
 62
     2
 10
333.25
 20
770.0
 30
0.0
 11
342.909258263
 21
767.411809549
 31
0.0
  0
LINE
  8
2
  6
CONTINUOUS
 62
     2
 10
333.25
 20
770.0
 30
0.0
 11
342.909258263
 21
772.588190451
 31
0.0
  0
LINE
  8
2
  6
CONTINUOUS
 62
     2
 10
333.25
 20
766.0
 30
0.0
 11
333.25
 21
766.0
 31
0.0
  0
LINE
  8
0
  6
CONTINUOUS
 62
     2
 10
1066.25
 20
590.0
 30
0.0
 11
1066.25
 21
832.5
 31
0.0
  0
LINE
  8
0
  6
CONTINUOUS
 62
     1
 10
555.25
 20
515.0
 30
0.0
 11
555.25
 21
575.0
 31
0.0
  0
LINE
  8
0
  6
CONTINUOUS
 62
     1
 10
546.25
 20
515.0
 30
0.0
 11
555.25
 21
515.0
 31
0.0
  0
LINE
  8
0
  6
CONTINUOUS
 62
     1
 10
546.25
 20
514.0
 30
0.0
 11
546.25
 21
575.0
 31
0.0
  0
LINE
  8
0
  6
CONTINUOUS
 62
     1
 10
539.749990656
 20
514.0
 30
0.0
 11
546.25
 21
514.0
 31
0.0
  0
LINE
  8
0
  6
CONTINUOUS
 62
     1
 10
539.75
 20
636.0
 30
0.0
 11
546.25
 21
636.0
 31
0.0
  0
LINE
  8
0
  6
CONTINUOUS
 62
     1
 10
546.25
 20
636.0
 30
0.0
 11
546.25
 21
514.0
 31
0.0
  0
LINE
  8
0
  6
CONTINUOUS
 62
     1
 10
555.25
 20
634.0
 30
0.0
 11
555.25
 21
575.0
 31
0.0
  0
LINE
  8
0
  6
CONTINUOUS
 62
     1
 10
555.25
 20
634.0
 30
0.0
 11
555.25
 21
515.0
 31
0.0
  0
LINE
  8
0
  6
CONTINUOUS
 62
     1
 10
546.25
 20
634.0
 30
0.0
 11
555.25
 21
634.0
 31
0.0
  0
LINE
  8
2
  6
CONTINUOUS
 62
     2
 10
413.25
 20
575.0
 30
0.0
 11
415.838190451
 21
584.659258263
 31
0.0
  0
LINE
  8
2
  6
CONTINUOUS
 62
     2
 10
413.25
 20
575.0
 30
0.0
 11
410.661809549
 21
584.659258263
 31
0.0
  0
LINE
  8
2
  6
CONTINUOUS
 62
     2
 10
413.25
 20
575.0
 30
0.0
 11
413.25
 21
700.0
 31
0.0
  0
LINE
  8
2
  6
CONTINUOUS
 62
     2
 10
413.25
 20
700.0
 30
0.0
 11
410.661809549
 21
690.340741737
 31
0.0
  0
LINE
  8
2
  6
CONTINUOUS
 62
     2
 10
413.25
 20
700.0
 30
0.0
 11
415.838190451
 21
690.340741737
 31
0.0
  0
LINE
  8
2
  6
CONTINUOUS
 62
     2
 10
458.25001079
 20
700.0
 30
0.0
 11
409.25
 21
700.0
 31
0.0
  0
LINE
  8
0
  6
CONTINUOUS
 62
     1
 10
1014.25
 20
598.0
 30
0.0
 11
1028.25
 21
598.0
 31
0.0
  0
LINE
  8
0
  6
CONTINUOUS
 62
     1
 10
1028.25
 20
575.0
 30
0.0
 11
1028.25
 21
598.0
 31
0.0
  0
LINE
  8
0
  6
CONTINUOUS
 62
     1
 10
1011.25
 20
596.0
 30
0.0
 11
1014.25
 21
596.0
 31
0.0
  0
LINE
  8
0
  6
CONTINUOUS
 62
     1
 10
1011.25
 20
596.0
 30
0.0
 11
1003.678072258
 21
624.258819045
 31
0.0
  0
ARC
  8
0
  6
CONTINUOUS
 62
     1
 10
1002.712146432
 20
624.0
 30
0.0
 40
1.0
 50
15.0
 51
90.0
  0
ARC
  8
0
  6
CONTINUOUS
 62
     1
 10
1002.712146432
 20
624.0
 30
0.0
 40
1.0
 50
90.0
 51
165.0
  0
LINE
  8
0
  6
CONTINUOUS
 62
     1
 10
1014.25
 20
552.0
 30
0.0
 11
1028.25
 21
552.0
 31
0.0
  0
LINE
  8
0
  6
CONTINUOUS
 62
     1
 10
1011.25
 20
554.0
 30
0.0
 11
1003.678072258
 21
525.741180955
 31
0.0
  0
ARC
  8
0
  6
CONTINUOUS
 62
     1
 10
1002.712146432
 20
526.0
 30
0.0
 40
1.0
 50
270.0
 51
345.0
  0
ARC
  8
0
  6
CONTINUOUS
 62
     1
 10
1002.712146432
 20
526.0
 30
0.0
 40
1.0
 50
195.0
 51
270.0
  0
LINE
  8
0
  6
CONTINUOUS
 62
     1
 10
1002.712146432
 20
575.0
 30
0.0
 11
1002.712146432
 21
625.0
 31
0.0
  0
LINE
  8
0
  6
CONTINUOUS
 62
     1
 10
1014.25
 20
575.0
 30
0.0
 11
1014.25
 21
598.0
 31
0.0
  0
LINE
  8
0
  6
CONTINUOUS
 62
     1
 10
1011.25
 20
575.0
 30
0.0
 11
1011.25
 21
596.0
 31
0.0
  0
LINE
  8
0
  6
CONTINUOUS
 62
     1
 10
1011.25
 20
556.0
 30
0.0
 11
1011.25
 21
554.0
 31
0.0
  0
LINE
  8
0
  6
CONTINUOUS
 62
     1
 10
1014.25
 20
554.0
 30
0.0
 11
1014.25
 21
552.0
 31
0.0
  0
LINE
  8
0
  6
CONTINUOUS
 62
     1
 10
1028.25
 20
554.0
 30
0.0
 11
1028.25
 21
552.0
 31
0.0
  0
LINE
  8
0
  6
CONTINUOUS
 62
     1
 10
1011.25
 20
554.0
 30
0.0
 11
1028.25
 21
554.0
 31
0.0
  0
LINE
  8
0
  6
CONTINUOUS
 62
     1
 10
1028.25
 20
596.0
 30
0.0
 11
1031.25
 21
596.0
 31
0.0
  0
LINE
  8
0
  6
CONTINUOUS
 62
     1
 10
1031.25
 20
575.0
 30
0.0
 11
1031.25
 21
596.0
 31
0.0
  0
LINE
  8
0
  6
CONTINUOUS
 62
     1
 10
1028.25
 20
554.0
 30
0.0
 11
1031.25
 21
554.0
 31
0.0
  0
LINE
  8
0
  6
CONTINUOUS
 62
     1
 10
971.25
 20
556.0
 30
0.0
 11
1031.25
 21
556.0
 31
0.0
  0
LINE
  8
0
  6
CONTINUOUS
 62
     1
 10
1031.25
 20
554.0
 30
0.0
 11
1031.25
 21
556.0
 31
0.0
  0
LINE
  8
0
  6
CONTINUOUS
 62
     1
 10
999.463926358
 20
615.741180955
 30
0.0
 11
1001.746220605
 21
624.258819045
 31
0.0
  0
ARC
  8
0
  6
CONTINUOUS
 62
     1
 10
998.498000531
 20
616.0
 30
0.0
 40
1.0
 50
270.0
 51
345.0
  0
LINE
  8
0
  6
CONTINUOUS
 62
     1
 10
999.463926358
 20
534.258819045
 30
0.0
 11
1001.746220605
 21
525.741180955
 31
0.0
  0
ARC
  8
0
  6
CONTINUOUS
 62
     1
 10
998.498000531
 20
534.0
 30
0.0
 40
1.0
 50
15.0
 51
90.0
  0
LINE
  8
0
  6
CONTINUOUS
 62
     1
 10
982.498000531
 20
615.0
 30
0.0
 11
982.498000531
 21
575.0
 31
0.0
  0
ARC
  8
0
  6
CONTINUOUS
 62
     1
 10
990.069708731
 20
534.0
 30
0.0
 40
1.0
 50
15.0
 51
90.0
  0
LINE
  8
0
  6
CONTINUOUS
 62
     1
 10
991.035634557
 20
534.258819045
 30
0.0
 11
993.317928805
 21
525.741180955
 31
0.0
  0
ARC
  8
0
  6
CONTINUOUS
 62
     1
 10
994.283854631
 20
526.0
 30
0.0
 40
1.0
 50
195.0
 51
270.0
  0
ARC
  8
0
  6
CONTINUOUS
 62
     1
 10
998.498000531
 20
534.0
 30
0.0
 40
1.0
 50
90.0
 51
165.0
  0
LINE
  8
0
  6
CONTINUOUS
 62
     1
 10
997.532074705
 20
534.258819045
 30
0.0
 11
995.249780457
 21
525.741180955
 31
0.0
  0
ARC
  8
0
  6
CONTINUOUS
 62
     1
 10
994.283854631
 20
526.0
 30
0.0
 40
1.0
 50
270.0
 51
345.0
  0
ARC
  8
0
  6
CONTINUOUS
 62
     1
 10
990.069708731
 20
616.0
 30
0.0
 40
1.0
 50
270.0
 51
345.0
  0
LINE
  8
0
  6
CONTINUOUS
 62
     1
 10
991.035634557
 20
615.741180955
 30
0.0
 11
993.317928805
 21
624.258819045
 31
0.0
  0
ARC
  8
0
  6
CONTINUOUS
 62
     1
 10
994.283854631
 20
624.0
 30
0.0
 40
1.0
 50
90.0
 51
165.0
  0
ARC
  8
0
  6
CONTINUOUS
 62
     1
 10
998.498000531
 20
616.0
 30
0.0
 40
1.0
 50
195.0
 51
270.0
  0
LINE
  8
0
  6
CONTINUOUS
 62
     1
 10
997.532074705
 20
615.741180955
 30
0.0
 11
995.249780457
 21
624.258819045
 31
0.0
  0
ARC
  8
0
  6
CONTINUOUS
 62
     1
 10
994.283854631
 20
624.0
 30
0.0
 40
1.0
 50
15.0
 51
90.0
  0
LINE
  8
0
  6
CONTINUOUS
 62
     1
 10
994.283854631
 20
625.0
 30
0.0
 11
994.283854631
 21
575.0
 31
0.0
  0
LINE
  8
0
  6
LTYPE3
 62
     2
 10
982.498000531
 20
615.0
 30
0.0
 11
989.998000531
 21
615.0
 31
0.0
  0
LINE
  8
0
  6
LTYPE3
 62
     2
 10
978.283854631
 20
625.0
 30
0.0
 11
994.283854631
 21
625.0
 31
0.0
  0
LINE
  8
0
  6
LTYPE3
 62
     2
 10
982.498000531
 20
535.0
 30
0.0
 11
990.069708731
 21
535.0
 31
0.0
  0
LINE
  8
0
  6
LTYPE3
 62
     2
 10
978.283865421
 20
525.0
 30
0.0
 11
994.383865421
 21
525.0
 31
0.0
  0
LINE
  8
0
  6
CONTINUOUS
 62
     1
 10
990.069708731
 20
615.0
 30
0.0
 11
990.069708731
 21
575.0
 31
0.0
  0
LINE
  8
0
  6
CONTINUOUS
 62
     1
 10
990.069708731
 20
615.0
 30
0.0
 11
990.069708731
 21
575.0
 31
0.0
  0
LINE
  8
0
  6
CONTINUOUS
 62
     1
 10
998.469708731
 20
615.1
 30
0.0
 11
998.469708731
 21
575.1
 31
0.0
  0
LINE
  8
0
  6
CONTINUOUS
 62
     1
 10
998.469708731
 20
615.1
 30
0.0
 11
998.469708731
 21
575.1
 31
0.0
  0
LINE
  8
2
  6
CONTINUOUS
 62
     2
 10
979.81975069
 20
417.5
 30
0.0
 11
932.469708731
 21
417.5
 31
0.0
  0
LINE
  8
2
  6
CONTINUOUS
 62
     2
 10
940.469708731
 20
417.5
 30
0.0
 11
937.88151828
 21
407.840741737
 31
0.0
  0
LINE
  8
2
  6
CONTINUOUS
 62
     2
 10
940.469708731
 20
417.5
 30
0.0
 11
943.057899182
 21
407.840741737
 31
0.0
  0
LINE
  8
2
  6
CONTINUOUS
 62
     2
 10
940.469708731
 20
417.5
 30
0.0
 11
940.469708731
 21
322.5
 31
0.0
  0
LINE
  8
2
  6
CONTINUOUS
 62
     2
 10
940.469708731
 20
322.5
 30
0.0
 11
943.057899182
 21
332.159258263
 31
0.0
  0
LINE
  8
2
  6
CONTINUOUS
 62
     2
 10
940.469708731
 20
322.5
 30
0.0
 11
937.88151828
 21
332.159258263
 31
0.0
  0
LINE
  8
2
  6
CONTINUOUS
 62
     2
 10
979.81975069
 20
322.5
 30
0.0
 11
932.469708731
 21
322.5
 31
0.0
  0
LINE
  8
0
  6
CONTINUOUS
 62
     2
 10
732.85
 20
543.25
 30
0.0
 11
735.438190451
 21
552.909258263
 31
0.0
  0
LINE
  8
0
  6
CONTINUOUS
 62
     2
 10
732.85
 20
543.25
 30
0.0
 11
730.261809549
 21
552.909258263
 31
0.0
  0
LINE
  8
0
  6
CONTINUOUS
 62
     2
 10
732.85
 20
606.75
 30
0.0
 11
730.261809549
 21
597.090741737
 31
0.0
  0
LINE
  8
0
  6
CONTINUOUS
 62
     2
 10
732.85
 20
606.75
 30
0.0
 11
735.438190451
 21
597.090741737
 31
0.0
  0
LINE
  8
0
  6
CONTINUOUS
 62
     2
 10
732.85
 20
543.25
 30
0.0
 11
732.85
 21
647.8
 31
0.0
  0
LINE
  8
0
  6
CONTINUOUS
 62
     2
 10
1031.25
 20
772.5
 30
0.0
 11
1031.25
 21
599.0
 31
0.0
  0
LINE
  8
0
  6
CONTINUOUS
 62
     2
 10
1223.75
 20
474.4
 30
0.0
 11
1343.75
 21
474.4
 31
0.0
  0
LINE
  8
0
  6
CONTINUOUS
 62
     2
 10
1343.75
 20
474.4
 30
0.0
 11
1334.090741737
 21
476.988190451
 31
0.0
  0
LINE
  8
0
  6
CONTINUOUS
 62
     2
 10
1343.75
 20
474.4
 30
0.0
 11
1334.090741737
 21
471.811809549
 31
0.0
  0
LINE
  8
0
  6
CONTINUOUS
 62
     2
 10
1343.75
 20
551.4
 30
0.0
 11
1343.75
 21
466.5
 31
0.0
  0
ARC
  8
0
  6
CONTINUOUS
 62
     1
 10
1283.75
 20
572.5
 30
0.0
 40
57.0
 50
201.813245084
 51
338.186754916
  0
CIRCLE
  8
0
  6
CONTINUOUS
 62
     1
 10
1334.75
 20
521.5
 30
0.0
 40
4.5
  0
LINE
  8
0
  6
CONTINUOUS
 62
     2
 10
1341.75
 20
521.5
 30
0.0
 11
1327.75
 21
521.5
 31
0.0
  0
LINE
  8
0
  6
CONTINUOUS
 62
     2
 10
1334.75
 20
514.5
 30
0.0
 11
1334.75
 21
528.5
 31
0.0
  0
LINE
  8
0
  6
CONTINUOUS
 62
     1
 10
1344.75
 20
521.5
 30
0.0
 11
1344.75
 21
537.0
 31
0.0
  0
ARC
  8
0
  6
CONTINUOUS
 62
     1
 10
1334.75
 20
521.5
 30
0.0
 40
10.0
 50
270.0
 51
0.0
  0
LINE
  8
0
  6
CONTINUOUS
 62
     1
 10
1283.75
 20
511.5
 30
0.0
 11
1334.75
 21
511.5
 31
0.0
  0
LINE
  8
0
  6
CONTINUOUS
 62
     2
 10
1223.75
 20
474.4
 30
0.0
 11
1233.409258263
 21
471.811809549
 31
0.0
  0
LINE
  8
0
  6
CONTINUOUS
 62
     2
 10
1223.75
 20
474.4
 30
0.0
 11
1233.409258263
 21
476.988190451
 31
0.0
  0
LINE
  8
0
  6
CONTINUOUS
 62
     2
 10
1223.75
 20
550.6
 30
0.0
 11
1223.75
 21
467.4
 31
0.0
  0
CIRCLE
  8
0
  6
CONTINUOUS
 62
     1
 10
1232.75
 20
521.5
 30
0.0
 40
4.5
  0
LINE
  8
0
  6
CONTINUOUS
 62
     2
 10
1225.75
 20
521.5
 30
0.0
 11
1239.75
 21
521.5
 31
0.0
  0
LINE
  8
0
  6
CONTINUOUS
 62
     2
 10
1232.75
 20
514.5
 30
0.0
 11
1232.75
 21
528.5
 31
0.0
  0
LINE
  8
0
  6
CONTINUOUS
 62
     1
 10
1232.75
 20
511.5
 30
0.0
 11
1283.75
 21
511.5
 31
0.0
  0
LINE
  8
0
  6
LTYPE5
 62
     2
 10
1283.75
 20
711.239142961
 30
0.0
 11
1283.75
 21
504.0
 31
0.0
  0
ARC
  8
0
  6
CONTINUOUS
 62
     1
 10
1283.75
 20
572.5
 30
0.0
 40
57.0
 50
21.813245084
 51
158.186754916
  0
LINE
  8
0
  6
CONTINUOUS
 62
     1
 10
1343.75
 20
552.5
 30
0.0
 11
1343.75
 21
592.5
 31
0.0
  0
LINE
  8
0
  6
CONTINUOUS
 62
     1
 10
1326.245317777
 20
595.752934146
 30
0.0
 11
1343.75
 21
592.5
 31
0.0
  0
LINE
  8
0
  6
LTYPE2
 62
     2
 10
1321.75
 20
580.5
 30
0.0
 11
1343.75
 21
580.5
 31
0.0
  0
LINE
  8
0
  6
LTYPE2
 62
     2
 10
1321.75
 20
564.5
 30
0.0
 11
1321.75
 21
580.5
 31
0.0
  0
LINE
  8
0
  6
LTYPE2
 62
     2
 10
1321.75
 20
564.5
 30
0.0
 11
1343.75
 21
564.5
 31
0.0
  0
LINE
  8
0
  6
CONTINUOUS
 62
     1
 10
1323.75
 20
549.166666667
 30
0.0
 11
1343.75
 21
552.5
 31
0.0
  0
LINE
  8
0
  6
CONTINUOUS
 62
     1
 10
1223.75
 20
552.5
 30
0.0
 11
1223.75
 21
592.5
 31
0.0
  0
LINE
  8
0
  6
CONTINUOUS
 62
     1
 10
1241.254682223
 20
595.752934146
 30
0.0
 11
1223.75
 21
592.5
 31
0.0
  0
LINE
  8
0
  6
LTYPE2
 62
     2
 10
1245.75
 20
580.5
 30
0.0
 11
1223.75
 21
580.5
 31
0.0
  0
LINE
  8
0
  6
LTYPE2
 62
     2
 10
1245.75
 20
564.5
 30
0.0
 11
1245.75
 21
580.5
 31
0.0
  0
LINE
  8
0
  6
LTYPE2
 62
     2
 10
1245.75
 20
564.5
 30
0.0
 11
1223.75
 21
564.5
 31
0.0
  0
LINE
  8
0
  6
CONTINUOUS
 62
     1
 10
1243.75
 20
549.166666667
 30
0.0
 11
1223.75
 21
552.5
 31
0.0
  0
LINE
  8
0
  6
CONTINUOUS
 62
     1
 10
1306.75
 20
587.5
 30
0.0
 11
1306.75
 21
557.5
 31
0.0
  0
LINE
  8
0
  6
CONTINUOUS
 62
     1
 10
1314.75
 20
580.5
 30
0.0
 11
1314.75
 21
564.5
 31
0.0
  0
LINE
  8
0
  6
CONTINUOUS
 62
     1
 10
1303.75
 20
592.5
 30
0.0
 11
1303.75
 21
552.5
 31
0.0
  0
LINE
  8
0
  6
LTYPE4
 62
     2
 10
1309.4
 20
576.9
 30
0.0
 11
1309.4
 21
568.5
 31
0.0
  0
LINE
  8
0
  6
CONTINUOUS
 62
     1
 10
1291.75
 20
592.5
 30
0.0
 11
1291.75
 21
552.5
 31
0.0
  0
CIRCLE
  8
0
  6
CONTINUOUS
 62
     1
 10
1309.4
 20
572.5
 30
0.0
 40
2.0
  0
LINE
  8
0
  6
CONTINUOUS
 62
     1
 10
1314.75
 20
580.5
 30
0.0
 11
1306.75
 21
580.5
 31
0.0
  0
LINE
  8
0
  6
LTYPE2
 62
     2
 10
1291.75
 20
580.5
 30
0.0
 11
1306.75
 21
580.5
 31
0.0
  0
LINE
  8
0
  6
CONTINUOUS
 62
     1
 10
1303.75
 20
587.5
 30
0.0
 11
1306.75
 21
587.5
 31
0.0
  0
LINE
  8
0
  6
CONTINUOUS
 62
     1
 10
1314.75
 20
564.5
 30
0.0
 11
1306.75
 21
564.5
 31
0.0
  0
LINE
  8
0
  6
LTYPE2
 62
     2
 10
1291.75
 20
564.5
 30
0.0
 11
1306.75
 21
564.5
 31
0.0
  0
LINE
  8
0
  6
CONTINUOUS
 62
     1
 10
1303.75
 20
557.5
 30
0.0
 11
1306.75
 21
557.5
 31
0.0
  0
LINE
  8
0
  6
CONTINUOUS
 62
     1
 10
1260.75
 20
587.5
 30
0.0
 11
1260.75
 21
557.5
 31
0.0
  0
LINE
  8
0
  6
CONTINUOUS
 62
     1
 10
1252.75
 20
580.5
 30
0.0
 11
1252.75
 21
564.5
 31
0.0
  0
LINE
  8
0
  6
LTYPE4
 62
     2
 10
1258.1
 20
576.9
 30
0.0
 11
1258.1
 21
568.5
 31
0.0
  0
LINE
  8
0
  6
CONTINUOUS
 62
     1
 10
1275.75
 20
592.5
 30
0.0
 11
1275.75
 21
552.5
 31
0.0
  0
CIRCLE
  8
0
  6
CONTINUOUS
 62
     1
 10
1258.1
 20
572.5
 30
0.0
 40
2.0
  0
LINE
  8
0
  6
CONTINUOUS
 62
     1
 10
1252.75
 20
580.5
 30
0.0
 11
1260.75
 21
580.5
 31
0.0
  0
LINE
  8
0
  6
LTYPE2
 62
     2
 10
1275.75
 20
580.5
 30
0.0
 11
1260.75
 21
580.5
 31
0.0
  0
LINE
  8
0
  6
CONTINUOUS
 62
     1
 10
1263.75
 20
587.5
 30
0.0
 11
1260.75
 21
587.5
 31
0.0
  0
LINE
  8
0
  6
CONTINUOUS
 62
     1
 10
1252.75
 20
564.5
 30
0.0
 11
1260.75
 21
564.5
 31
0.0
  0
LINE
  8
0
  6
LTYPE2
 62
     2
 10
1275.75
 20
564.5
 30
0.0
 11
1260.75
 21
564.5
 31
0.0
  0
LINE
  8
0
  6
CONTINUOUS
 62
     1
 10
1263.75
 20
557.5
 30
0.0
 11
1260.75
 21
557.5
 31
0.0
  0
LINE
  8
0
  6
CONTINUOUS
 62
     1
 10
1303.75
 20
592.5
 30
0.0
 11
1263.75
 21
592.5
 31
0.0
  0
LINE
  8
0
  6
CONTINUOUS
 62
     1
 10
1263.75
 20
592.5
 30
0.0
 11
1263.75
 21
552.5
 31
0.0
  0
LINE
  8
0
  6
CONTINUOUS
 62
     1
 10
1303.75
 20
552.5
 30
0.0
 11
1263.75
 21
552.5
 31
0.0
  0
LINE
  8
0
  6
CONTINUOUS
 62
     1
 10
1291.75
 20
580.5
 30
0.0
 11
1275.75
 21
580.5
 31
0.0
  0
LINE
  8
0
  6
CONTINUOUS
 62
     1
 10
1291.75
 20
564.5
 30
0.0
 11
1275.75
 21
564.5
 31
0.0
  0
CIRCLE
  8
0
  6
CONTINUOUS
 62
     1
 10
1283.75
 20
572.5
 30
0.0
 40
47.5
  0
LINE
  8
0
  6
CONTINUOUS
 62
     2
 10
1334.75
 20
630.5
 30
0.0
 11
1334.75
 21
616.5
 31
0.0
  0
LINE
  8
0
  6
CONTINUOUS
 62
     2
 10
1341.75
 20
623.5
 30
0.0
 11
1327.75
 21
623.5
 31
0.0
  0
ARC
  8
0
  6
CONTINUOUS
 62
     1
 10
1334.75
 20
623.5
 30
0.0
 40
4.5
 50
138.189685104
 51
180.0
  0
ARC
  8
0
  6
CONTINUOUS
 62
     1
 10
1334.75
 20
623.5
 30
0.0
 40
4.5
 50
180.0
 51
41.810314896
  0
ARC
  8
0
  6
CONTINUOUS
 62
     1
 10
1334.75
 20
623.5
 30
0.0
 40
4.5
 50
41.810314896
 51
138.189685104
  0
ARC
  8
0
  6
CONTINUOUS
 62
     1
 10
1334.75
 20
623.5
 30
0.0
 40
10.0
 50
30.0
 51
90.0
  0
ARC
  8
0
  6
CONTINUOUS
 62
     1
 10
1334.75
 20
623.5
 30
0.0
 40
10.0
 50
0.0
 51
30.0
  0
LINE
  8
0
  6
CONTINUOUS
 62
     1
 10
1344.75
 20
537.0
 30
0.0
 11
1344.75
 21
623.5
 31
0.0
  0
LINE
  8
0
  6
CONTINUOUS
 62
     2
 10
1232.75
 20
630.5
 30
0.0
 11
1232.75
 21
616.5
 31
0.0
  0
LINE
  8
0
  6
CONTINUOUS
 62
     2
 10
1225.75
 20
623.5
 30
0.0
 11
1239.75
 21
623.5
 31
0.0
  0
ARC
  8
0
  6
CONTINUOUS
 62
     1
 10
1232.75
 20
623.5
 30
0.0
 40
4.5
 50
0.0
 51
41.810314896
  0
ARC
  8
0
  6
CONTINUOUS
 62
     1
 10
1232.75
 20
623.5
 30
0.0
 40
4.5
 50
138.189685104
 51
0.0
  0
ARC
  8
0
  6
CONTINUOUS
 62
     1
 10
1232.75
 20
623.5
 30
0.0
 40
4.5
 50
41.810314896
 51
138.189685104
  0
ARC
  8
0
  6
CONTINUOUS
 62
     1
 10
1232.75
 20
623.5
 30
0.0
 40
10.0
 50
150.0
 51
180.0
  0
LINE
  8
0
  6
CONTINUOUS
 62
     1
 10
1232.75
 20
633.5
 30
0.0
 11
1334.75
 21
633.5
 31
0.0
  0
ARC
  8
0
  6
CONTINUOUS
 62
     1
 10
1232.75
 20
623.5
 30
0.0
 40
10.0
 50
90.0
 51
150.0
  0
ARC
  8
0
  6
CONTINUOUS
 62
     1
 10
1232.75
 20
521.5
 30
0.0
 40
10.0
 50
180.0
 51
270.0
  0
LINE
  8
0
  6
CONTINUOUS
 62
     1
 10
1222.75
 20
521.5
 30
0.0
 11
1222.75
 21
623.5
 31
0.0
  0
ARC
  8
0
  6
CONTINUOUS
 62
     1
 10
1317.75
 20
695.5
 30
0.0
 40
2.0
 50
0.0
 51
90.0
  0
ARC
  8
0
  6
CONTINUOUS
 62
     1
 10
1325.75
 20
693.520045888
 30
0.0
 40
2.0
 50
0.0
 51
90.0
  0
LINE
  8
0
  6
CONTINUOUS
 62
     1
 10
1327.75
 20
649.5
 30
0.0
 11
1327.75
 21
693.520045888
 31
0.0
  0
LINE
  8
0
  6
CONTINUOUS
 62
     1
 10
1319.749899538
 20
695.520045888
 30
0.0
 11
1325.75
 21
695.520045888
 31
0.0
  0
LINE
  8
0
  6
CONTINUOUS
 62
     1
 10
1319.75
 20
695.520045888
 30
0.0
 11
1319.75
 21
656.846153846
 31
0.0
  0
ARC
  8
0
  6
CONTINUOUS
 62
     1
 10
1317.75
 20
656.846153846
 30
0.0
 40
2.0
 50
270.0
 51
0.0
  0
ARC
  8
0
  6
CONTINUOUS
 62
     1
 10
1325.75
 20
653.5
 30
0.0
 40
2.0
 50
270.0
 51
0.0
  0
ARC
  8
0
  6
CONTINUOUS
 62
     1
 10
1325.75
 20
649.5
 30
0.0
 40
2.0
 50
270.0
 51
0.0
  0
ARC
  8
0
  6
CONTINUOUS
 62
     1
 10
1317.75
 20
647.5
 30
0.0
 40
2.0
 50
270.0
 51
0.0
  0
LINE
  8
0
  6
CONTINUOUS
 62
     1
 10
1313.75
 20
642.5
 30
0.0
 11
1313.75
 21
645.5
 31
0.0
  0
ARC
  8
0
  6
CONTINUOUS
 62
     1
 10
1309.75
 20
639.5
 30
0.0
 40
3.0
 50
90.0
 51
180.0
  0
LINE
  8
0
  6
CONTINUOUS
 62
     1
 10
1306.75
 20
632.5
 30
0.0
 11
1306.75
 21
639.5
 31
0.0
  0
ARC
  8
0
  6
CONTINUOUS
 62
     1
 10
1241.75
 20
693.520045888
 30
0.0
 40
2.0
 50
90.0
 51
180.0
  0
LINE
  8
0
  6
CONTINUOUS
 62
     1
 10
1239.75
 20
649.5
 30
0.0
 11
1239.75
 21
693.520045888
 31
0.0
  0
LINE
  8
0
  6
CONTINUOUS
 62
     1
 10
1247.750100462
 20
695.520045888
 30
0.0
 11
1241.75
 21
695.520045888
 31
0.0
  0
LINE
  8
0
  6
CONTINUOUS
 62
     1
 10
1247.75
 20
695.520045888
 30
0.0
 11
1247.75
 21
656.846153846
 31
0.0
  0
ARC
  8
0
  6
CONTINUOUS
 62
     1
 10
1257.75
 20
639.5
 30
0.0
 40
3.0
 50
0.0
 51
90.0
  0
LINE
  8
0
  6
CONTINUOUS
 62
     1
 10
1260.75
 20
632.5
 30
0.0
 11
1260.75
 21
639.5
 31
0.0
  0
LINE
  8
0
  6
CONTINUOUS
 62
     1
 10
1317.75
 20
697.5
 30
0.0
 11
1249.75
 21
697.5
 31
0.0
  0
ARC
  8
0
  6
CONTINUOUS
 62
     1
 10
1249.75
 20
695.5
 30
0.0
 40
2.0
 50
90.0
 51
180.0
  0
LINE
  8
0
  6
CONTINUOUS
 62
     1
 10
1249.75
 20
654.846153846
 30
0.0
 11
1317.75
 21
654.846153846
 31
0.0
  0
ARC
  8
0
  6
CONTINUOUS
 62
     1
 10
1249.75
 20
656.846153846
 30
0.0
 40
2.0
 50
180.0
 51
270.0
  0
LINE
  8
0
  6
CONTINUOUS
 62
     1
 10
1241.75
 20
651.5
 30
0.0
 11
1325.750015259
 21
651.5
 31
0.0
  0
ARC
  8
0
  6
CONTINUOUS
 62
     1
 10
1241.75
 20
653.5
 30
0.0
 40
2.0
 50
180.0
 51
270.0
  0
LINE
  8
0
  6
CONTINUOUS
 62
     1
 10
1241.75
 20
647.5
 30
0.0
 11
1325.75
 21
647.5
 31
0.0
  0
ARC
  8
0
  6
CONTINUOUS
 62
     1
 10
1241.75
 20
649.5
 30
0.0
 40
2.0
 50
180.0
 51
270.0
  0
LINE
  8
0
  6
CONTINUOUS
 62
     1
 10
1317.75
 20
645.5
 30
0.0
 11
1249.75
 21
645.5
 31
0.0
  0
ARC
  8
0
  6
CONTINUOUS
 62
     1
 10
1249.75
 20
647.5
 30
0.0
 40
2.0
 50
180.0
 51
270.0
  0
LINE
  8
0
  6
CONTINUOUS
 62
     1
 10
1253.75
 20
642.5
 30
0.0
 11
1313.75
 21
642.5
 31
0.0
  0
LINE
  8
0
  6
CONTINUOUS
 62
     1
 10
1253.75
 20
642.5
 30
0.0
 11
1253.75
 21
645.5
 31
0.0
  0
LINE
  8
0
  6
LTYPE5
 62
     2
 10
1382.75
 20
572.5
 30
0.0
 11
1220.75
 21
572.5
 31
0.0
  0
LINE
  8
2
  6
CONTINUOUS
 62
     2
 10
1379.25
 20
572.5
 30
0.0
 11
1388.25
 21
572.5
 31
0.0
  0
LINE
  8
2
  6
CONTINUOUS
 62
     2
 10
1383.25
 20
572.5
 30
0.0
 11
1386.485238064
 21
584.574072829
 31
0.0
  0
LINE
  8
2
  6
CONTINUOUS
 62
     2
 10
1383.25
 20
572.5
 30
0.0
 11
1380.014761936
 21
584.574072829
 31
0.0
  0
LINE
  8
2
  6
CONTINUOUS
 62
     2
 10
1383.25
 20
572.5
 30
0.0
 11
1383.25
 21
697.5
 31
0.0
  0
LINE
  8
2
  6
CONTINUOUS
 62
     2
 10
1383.25
 20
697.5
 30
0.0
 11
1380.014761936
 21
685.425927171
 31
0.0
  0
LINE
  8
2
  6
CONTINUOUS
 62
     2
 10
1383.25
 20
697.5
 30
0.0
 11
1386.485238064
 21
685.425927171
 31
0.0
  0
LINE
  8
2
  6
CONTINUOUS
 62
     2
 10
1322.750015259
 20
697.5
 30
0.0
 11
1388.25
 21
697.5
 31
0.0
  0
TEXT
  8
2
  6
CONTINUOUS
 62
     3
 10
1378.25
 20
614.75
 30
0.0
 40
15.0
  1
１２５
 50
90.0
 41
0.9
 51
0.0
  7
KANJI1
  0
TEXT
  8
0
  6
CONTINUOUS
 62
     2
 10
1063.45
 20
834.0
 30
0.0
 40
15.0
  1
１８
 50
0.0
 41
0.9
 51
0.0
  7
KANJI1
  0
TEXT
  8
0
  6
CONTINUOUS
 62
     2
 10
1036.95
 20
774.0
 30
0.0
 40
15.0
  1
３５
 50
0.0
 41
0.9
 51
0.0
  7
KANJI1
  0
TEXT
  8
0
  6
CONTINUOUS
 62
     2
 10
961.65
 20
774.0
 30
0.0
 40
15.0
  1
ｍｉｎ．Ｐ
 50
0.0
 41
0.9
 51
0.0
  7
KANJI1
  0
TEXT
  8
0
  6
CONTINUOUS
 62
     2
 10
822.85
 20
774.0
 30
0.0
 40
15.0
  1
Ｃ
 50
0.0
 41
0.9
 51
0.0
  7
KANJI1
  0
TEXT
  8
0
  6
CONTINUOUS
 62
     2
 10
841.35
 20
804.5
 30
0.0
 40
15.0
  1
ｍｉｎ．Ｌ
 50
0.0
 41
0.9
 51
0.0
  7
KANJI1
  0
TEXT
  8
0
  6
CONTINUOUS
 62
     2
 10
676.85
 20
834.0
 30
0.0
 40
15.0
  1
ｍｉｎ．ＡＬ
 50
0.0
 41
0.9
 51
0.0
  7
KANJI1
  0
TEXT
  8
0
  6
CONTINUOUS
 62
     2
 10
376.203486224
 20
730.517161767
 30
0.0
 40
15.0
  1
ＰＦ３／４
 50
0.0
 41
0.9
 51
0.0
  7
KANJI1
  0
TEXT
  8
2
  6
CONTINUOUS
 62
     2
 10
425.05
 20
774.0
 30
0.0
 40
15.0
  1
２２２
 50
0.0
 41
0.9
 51
0.0
  7
KANJI1
  0
TEXT
  8
2
  6
CONTINUOUS
 62
     2
 10
587.65
 20
774.0
 30
0.0
 40
15.0
  1
９０
 50
0.0
 41
0.9
 51
0.0
  7
KANJI1
  0
TEXT
  8
0
  6
CONTINUOUS
 62
     2
 10
503.75
 20
804.5
 30
0.0
 40
15.0
  1
３１２
 50
0.0
 41
0.9
 51
0.0
  7
KANJI1
  0
TEXT
  8
2
  6
CONTINUOUS
 62
     2
 10
409.25001079
 20
645.5
 30
0.0
 40
15.0
  1
１２５
 50
90.0
 41
0.9
 51
0.0
  7
KANJI1
  0
TEXT
  8
2
  6
CONTINUOUS
 62
     2
 10
306.25
 20
549.2
 30
0.0
 40
15.0
  1
φ１１４
 50
90.0
 41
0.9
 51
0.0
  7
KANJI1
  0
TEXT
  8
0
  6
CONTINUOUS
 62
     2
 10
728.85
 20
613.0
 30
0.0
 40
15.0
  1
φ６４
 50
90.0
 41
0.9
 51
0.0
  7
KANJI1
  0
TEXT
  8
0
  6
CONTINUOUS
 62
     2
 10
754.245769772
 20
497.687641749
 30
0.0
 40
15.0
  1
給脂口
 50
0.0
 41
0.9
 51
0.0
  7
KANJI1
  0
TEXT
  8
0
  6
CONTINUOUS
 62
     2
 10
1117.583854631
 20
397.5
 30
0.0
 40
15.0
  1
１２
 50
90.0
 41
0.9
 51
0.0
  7
KANJI1
  0
TEXT
  8
2
  6
CONTINUOUS
 62
     2
 10
936.469708731
 20
349.6
 30
0.0
 40
15.0
  1
φ９５
 50
90.0
 41
0.9
 51
0.0
  7
KANJI1
  0
TEXT
  8
0
  6
CONTINUOUS
 62
     2
 10
1145.983854631
 20
357.2
 30
0.0
 40
15.0
  1
１６
 50
90.0
 41
0.9
 51
0.0
  7
KANJI1
  0
TEXT
  8
0
  6
CONTINUOUS
 62
     2
 10
1164.45
 20
358.2
 30
0.0
 40
15.0
  1
４０
 50
90.0
 41
0.9
 51
0.0
  7
KANJI1
  0
TEXT
  8
0
  6
CONTINUOUS
 62
     2
 10
1118.083854631
 20
318.5
 30
0.0
 40
15.0
  1
１２
 50
90.0
 41
0.9
 51
0.0
  7
KANJI1
  0
TEXT
  8
0
  6
CONTINUOUS
 62
     2
 10
1247.831202688
 20
455.819799552
 30
0.0
 40
15.0
  1
トラニオン幅
 50
0.0
 41
0.9
 51
0.0
  7
KANJI1
  0
TEXT
  8
0
  6
CONTINUOUS
 62
     2
 10
1266.75
 20
478.4
 30
0.0
 40
15.0
  1
１２０
 50
0.0
 41
0.9
 51
0.0
  7
KANJI1
  0
TEXT
  8
0
  6
CONTINUOUS
 62
     2
 10
1040.95
 20
444.85
 30
0.0
 40
15.0
  1
２５
 50
0.0
 41
0.9
 51
0.0
  7
KANJI1
  0
TEXT
  8
0
  6
CONTINUOUS
 62
     2
 10
1082.25
 20
433.1
 30
0.0
 40
15.0
  1
φ１６
 50
0.0
 41
0.9
 51
0.0
  7
KANJI1
  0
LINE
  8
0
  6
CONTINUOUS
 62
     2
 10
1119.05
 20
555.0
 30
0.0
 11
1121.638190451
 21
564.659258263
 31
0.0
  0
LINE
  8
0
  6
CONTINUOUS
 62
     2
 10
1119.05
 20
555.0
 30
0.0
 11
1116.461809549
 21
564.659258263
 31
0.0
  0
LINE
  8
0
  6
CONTINUOUS
 62
     2
 10
1119.05
 20
555.0
 30
0.0
 11
1119.05
 21
595.0
 31
0.0
  0
LINE
  8
0
  6
CONTINUOUS
 62
     2
 10
1119.05
 20
595.0
 30
0.0
 11
1116.461809549
 21
585.340741737
 31
0.0
  0
LINE
  8
0
  6
CONTINUOUS
 62
     2
 10
1119.05
 20
595.0
 30
0.0
 11
1121.638190451
 21
585.340741737
 31
0.0
  0
LINE
  8
0
  6
CONTINUOUS
 62
     2
 10
1086.25
 20
595.0
 30
0.0
 11
1123.15
 21
595.0
 31
0.0
  0
LINE
  8
0
  6
CONTINUOUS
 62
     2
 10
1086.25
 20
555.0
 30
0.0
 11
1123.55
 21
555.0
 31
0.0
  0
TEXT
  8
0
  6
CONTINUOUS
 62
     2
 10
1115.05
 20
563.6
 30
0.0
 40
15.0
  1
４０
 50
90.0
 41
0.9
 51
0.0
  7
KANJI1
  0
LINE
  8
0
  6
CONTINUOUS
 62
     2
 10
745.998088834
 20
493.687641749
 30
0.0
 11
805.0
 21
493.687641749
 31
0.0
  0
TEXT
  8
0
  6
CONTINUOUS
 62
     2
 10
394.15
 20
530.0
 30
0.0
 40
15.0
  1
エコノストップモータ
 50
0.0
 41
0.9
 51
0.0
  7
KANJI1
  0
TEXT
  8
0
  6
CONTINUOUS
 62
     2
 10
397.05
 20
547.0
 30
0.0
 40
15.0
  1
日本電産
 50
0.0
 41
0.9
 51
0.0
  7
KANJI1
  0
LINE
  8
0
  6
LTYPE1
 62
     2
 10
645.25
 20
540.0
 30
0.0
 11
645.25
 21
639.25
 31
0.0
  0
LINE
  8
0
  6
LTYPE4
 62
     2
 10
802.65
 20
535.0
 30
0.0
 11
802.65
 21
615.0
 31
0.0
  0
LINE
  8
0
  6
LTYPE4
 62
     2
 10
799.65
 20
535.0
 30
0.0
 11
799.65
 21
615.0
 31
0.0
  0
LINE
  8
0
  6
CONTINUOUS
 62
     1
 10
802.65
 20
606.75
 30
0.0
 11
921.25
 21
606.75
 31
0.0
  0
LINE
  8
0
  6
CONTINUOUS
 62
     1
 10
802.65
 20
543.25
 30
0.0
 11
921.25
 21
543.25
 31
0.0
  0
LINE
  8
0
  6
CONTINUOUS
 62
     1
 10
702.65
 20
543.25
 30
0.0
 11
799.65
 21
543.25
 31
0.0
  0
LINE
  8
0
  6
CONTINUOUS
 62
     1
 10
702.65
 20
606.75
 30
0.0
 11
799.65
 21
606.75
 31
0.0
  0
LINE
  8
0
  6
CONTINUOUS
 62
     6
 10
72.25
 20
1402.0
 30
0.0
 11
2007.25
 21
1402.0
 31
0.0
  0
LINE
  8
0
  6
CONTINUOUS
 62
     6
 10
2007.25
 20
1402.0
 30
0.0
 11
2007.25
 21
57.0
 31
0.0
  0
LINE
  8
0
  6
CONTINUOUS
 62
     6
 10
2007.25
 20
57.0
 30
0.0
 11
72.25
 21
57.0
 31
0.0
  0
LINE
  8
0
  6
CONTINUOUS
 62
     4
 10
1335.583385
 20
95.999997
 30
0.0
 11
1493.7500395
 21
95.999997
 31
0.0
  0
TEXT
  8
0
  6
CONTINUOUS
 62
     4
 10
1344.250051
 20
80.8333315
 30
0.8666666
 40
8.666666
  1
ＳＣＡＬＥ
 50
0.0
 41
0.6
 51
0.0
  7
KANJI2
  0
TEXT
  8
0
  6
CONTINUOUS
 62
     4
 10
1344.250051
 20
115.4999955
 30
0.8666666
 40
8.666666
  1
ＤＡＴＥ
 50
0.0
 41
0.6
 51
0.0
  7
KANJI2
  0
TEXT
  8
0
  6
CONTINUOUS
 62
     4
 10
1344.250051
 20
67.8333325
 30
1.03999992
 40
10.3999992
  1
尺度
 50
0.0
 41
0.6
 51
0.0
  7
KANJI3
  0
TEXT
  8
0
  6
CONTINUOUS
 62
     4
 10
1344.250051
 20
102.4999965
 30
1.03999992
 40
10.3999992
  1
日付
 50
0.0
 41
0.6
 51
0.0
  7
KANJI3
  0
LINE
  8
0
  6
CONTINUOUS
 62
     4
 10
1493.7500395
 20
115.4999955
 30
0.0
 11
2002.916667
 21
115.4999955
 31
0.0
  0
LINE
  8
0
  6
LTYPE2
 62
     4
 10
1857.7500115
 20
121.999995
 30
0.0
 11
1857.7500115
 21
156.666659
 31
0.0
  0
LINE
  8
0
  6
LTYPE2
 62
     4
 10
1827.4166805
 20
121.999995
 30
0.0
 11
1827.4166805
 21
156.666659
 31
0.0
  0
LINE
  8
0
  6
LTYPE2
 62
     4
 10
1797.0833495
 20
121.999995
 30
0.0
 11
1797.0833495
 21
156.666659
 31
0.0
  0
LINE
  8
0
  6
LTYPE2
 62
     4
 10
1766.7500185
 20
121.999995
 30
0.0
 11
1766.7500185
 21
156.666659
 31
0.0
  0
LINE
  8
0
  6
LTYPE2
 62
     4
 10
1736.4166875
 20
121.999995
 30
0.0
 11
1736.4166875
 21
156.666659
 31
0.0
  0
LINE
  8
0
  6
LTYPE2
 62
     4
 10
1706.0833565
 20
121.999995
 30
0.0
 11
1706.0833565
 21
156.666659
 31
0.0
  0
LINE
  8
0
  6
LTYPE2
 62
     4
 10
1675.7500255
 20
121.999995
 30
0.0
 11
1675.7500255
 21
156.666659
 31
0.0
  0
LINE
  8
0
  6
LTYPE2
 62
     4
 10
1645.4166945
 20
121.999995
 30
0.0
 11
1645.4166945
 21
156.666659
 31
0.0
  0
LINE
  8
0
  6
LTYPE2
 62
     4
 10
1645.4166945
 20
121.999995
 30
0.0
 11
1857.7500115
 21
121.999995
 31
0.0
  0
LINE
  8
0
  6
CONTINUOUS
 62
     6
 10
993.250078
 20
95.999997
 30
0.0
 11
1335.583385
 21
95.999997
 31
0.0
  0
LINE
  8
0
  6
CONTINUOUS
 62
     6
 10
993.250078
 20
61.333333
 30
0.0
 11
2002.916667
 21
61.333333
 31
0.0
  0
TEXT
  8
0
  6
CONTINUOUS
 62
     6
 10
1498.0833725
 20
80.8333315
 30
0.0
 40
15.1666655
  1
ＵＮＩＴＥＣ　ＩＮＤＵＳＴＲＹ　ＣＯ．，ＬＴＤ．
 50
0.0
 41
0.42031746
 51
0.0
  7
KANJI4
  0
TEXT
  8
0
  6
CONTINUOUS
 62
     6
 10
1710.795856138
 20
75.1999986
 30
2.5999998
 40
25.999998
  1
ユニテック工業株式会社
 50
0.0
 41
0.9
 51
0.0
  7
KANJI5
  0
LINE
  8
0
  6
CONTINUOUS
 62
     6
 10
1335.583385
 20
61.333333
 30
0.0
 11
1335.583385
 21
338.666645
 31
0.0
  0
LINE
  8
0
  6
CONTINUOUS
 62
     6
 10
2002.916667
 20
61.333333
 30
0.0
 11
2002.916667
 21
338.666645
 31
0.0
  0
LINE
  8
0
  6
CONTINUOUS
 62
     4
 10
1493.7500395
 20
61.333333
 30
0.0
 11
1493.7500395
 21
338.666645
 31
0.0
  0
LINE
  8
0
  6
CONTINUOUS
 62
     6
 10
1676.129192138
 20
84.2999979
 30
0.0
 11
1664.689193018
 21
84.2999979
 31
0.0
  0
LINE
  8
0
  6
CONTINUOUS
 62
     6
 10
1676.129192138
 20
86.37999774
 30
0.0
 11
1664.689193018
 21
86.37999774
 31
0.0
  0
LINE
  8
0
  6
CONTINUOUS
 62
     6
 10
1676.129192138
 20
84.2999979
 30
0.0
 11
1687.569191258
 21
84.2999979
 31
0.0
  0
LINE
  8
0
  6
CONTINUOUS
 62
     6
 10
1676.129192138
 20
86.37999774
 30
0.0
 11
1687.569191258
 21
86.37999774
 31
0.0
  0
LINE
  8
0
  6
CONTINUOUS
 62
     6
 10
1687.569191258
 20
86.37999774
 30
0.0
 11
1687.569191258
 21
84.2999979
 31
0.0
  0
ARC
  8
0
  6
CONTINUOUS
 62
     6
 10
1690.169191058
 20
85.33999782
 30
0.0
 40
10.3999992
 50
185.739170477
 51
90.0
  0
ARC
  8
0
  6
CONTINUOUS
 62
     6
 10
1690.169191058
 20
85.33999782
 30
0.0
 40
12.47999904
 50
184.780191847
 51
90.0
  0
LINE
  8
0
  6
CONTINUOUS
 62
     6
 10
1664.689193018
 20
84.2999979
 30
0.0
 11
1664.689193018
 21
86.37999774
 31
0.0
  0
LINE
  8
0
  6
CONTINUOUS
 62
     6
 10
1674.569192258
 20
97.81999686
 30
0.0
 11
1662.089193218
 21
97.81999686
 31
0.0
  0
LINE
  8
0
  6
CONTINUOUS
 62
     6
 10
1677.689192018
 20
97.81999686
 30
0.0
 11
1690.169191058
 21
97.81999686
 31
0.0
  0
ARC
  8
0
  6
CONTINUOUS
 62
     6
 10
1662.089193218
 20
85.33999782
 30
0.0
 40
10.3999992
 50
90.0
 51
354.260829523
  0
ARC
  8
0
  6
CONTINUOUS
 62
     6
 10
1662.089193218
 20
85.33999782
 30
0.0
 40
12.47999904
 50
90.0
 51
355.219808153
  0
LINE
  8
0
  6
CONTINUOUS
 62
     6
 10
1674.569192258
 20
97.81999686
 30
0.0
 11
1674.569192258
 21
95.73999702
 31
0.0
  0
LINE
  8
0
  6
CONTINUOUS
 62
     6
 10
1662.089193218
 20
95.73999702
 30
0.0
 11
1674.569192258
 21
95.73999702
 31
0.0
  0
LINE
  8
0
  6
CONTINUOUS
 62
     6
 10
1677.689192018
 20
97.81999686
 30
0.0
 11
1677.689192018
 21
95.73999702
 31
0.0
  0
LINE
  8
0
  6
CONTINUOUS
 62
     6
 10
1690.169191058
 20
95.73999702
 30
0.0
 11
1677.689192018
 21
95.73999702
 31
0.0
  0
TEXT
  8
0
  6
CONTINUOUS
 62
     4
 10
1344.250051
 20
150.1666595
 30
0.8666666
 40
8.666666
  1
ＤＲＡＷＮ
 50
0.0
 41
0.6
 51
0.0
  7
KANJI2
  0
TEXT
  8
0
  6
CONTINUOUS
 62
     4
 10
1344.250051
 20
184.8333235
 30
0.8666666
 40
8.666666
  1
ＤＥＳＩＧＮ
 50
0.0
 41
0.6
 51
0.0
  7
KANJI2
  0
TEXT
  8
0
  6
CONTINUOUS
 62
     4
 10
1344.250051
 20
219.4999875
 30
0.8666666
 40
8.666666
  1
ＣＨＥＣＫ
 50
0.0
 41
0.6
 51
0.0
  7
KANJI2
  0
TEXT
  8
0
  6
CONTINUOUS
 62
     4
 10
1344.250051
 20
254.1666515
 30
0.8666666
 40
8.666666
  1
ＣＯＤＥ
 50
0.0
 41
0.6
 51
0.0
  7
KANJI2
  0
LINE
  8
0
  6
CONTINUOUS
 62
     4
 10
1335.583385
 20
199.999989
 30
0.0
 11
1493.7500395
 21
199.999989
 31
0.0
  0
LINE
  8
0
  6
CONTINUOUS
 62
     4
 10
1335.583385
 20
165.333325
 30
0.0
 11
1493.7500395
 21
165.333325
 31
0.0
  0
LINE
  8
0
  6
CONTINUOUS
 62
     4
 10
1335.583385
 20
234.666653
 30
0.0
 11
1493.7500395
 21
234.666653
 31
0.0
  0
LINE
  8
0
  6
CONTINUOUS
 62
     4
 10
1335.583385
 20
269.333317
 30
0.0
 11
2002.916667
 21
269.333317
 31
0.0
  0
TEXT
  8
0
  6
CONTINUOUS
 62
     4
 10
1344.250051
 20
171.8333245
 30
1.03999992
 40
10.3999992
  1
設計
 50
0.0
 41
0.6
 51
0.0
  7
KANJI3
  0
TEXT
  8
0
  6
CONTINUOUS
 62
     4
 10
1344.250051
 20
206.4999885
 30
1.03999992
 40
10.3999992
  1
検図
 50
0.0
 41
0.6
 51
0.0
  7
KANJI3
  0
TEXT
  8
0
  6
CONTINUOUS
 62
     4
 10
1344.250051
 20
241.1666525
 30
1.03999992
 40
10.3999992
  1
分類
 50
0.0
 41
0.6
 51
0.0
  7
KANJI3
  0
LINE
  8
0
  6
CONTINUOUS
 62
     4
 10
1506.53337185
 20
234.666653
 30
0.0
 11
2002.916667
 21
234.666653
 31
0.0
  0
LINE
  8
0
  6
CONTINUOUS
 62
     4
 10
1493.7500395
 20
165.333325
 30
0.0
 11
2002.916667
 21
165.333325
 31
0.0
  0
TEXT
  8
0
  6
CONTINUOUS
 62
     4
 10
1502.4167055
 20
150.1666595
 30
0.8666666
 40
8.666666
  1
ＤＲＡＷＩＮＧ　ＮＯ．
 50
0.0
 41
0.8
 51
0.0
  7
KANJI6
  0
TEXT
  8
0
  6
CONTINUOUS
 62
     4
 10
1502.4167055
 20
184.8333235
 30
0.8666666
 40
8.666666
  1
ＭＦＧ　ＮＯ．
 50
0.0
 41
0.8
 51
0.0
  7
KANJI6
  0
TEXT
  8
0
  6
CONTINUOUS
 62
     4
 10
1502.4167055
 20
219.4999875
 30
0.8666666
 40
8.666666
  1
ＴＹＰＥ
 50
0.0
 41
0.8
 51
0.0
  7
KANJI6
  0
LINE
  8
0
  6
CONTINUOUS
 62
     4
 10
1506.7500385
 20
199.999989
 30
0.0
 11
1706.0833565
 21
199.999989
 31
0.0
  0
TEXT
  8
0
  6
CONTINUOUS
 62
     4
 10
1502.4167055
 20
134.999994
 30
1.03999992
 40
10.3999992
  1
図　面　番　号
 50
0.0
 41
0.8
 51
0.0
  7
KANJI7
  0
TEXT
  8
0
  6
CONTINUOUS
 62
     4
 10
1502.4167055
 20
169.666658
 30
1.03999992
 40
10.3999992
  1
製番
 50
0.0
 41
0.8
 51
0.0
  7
KANJI7
  0
TEXT
  8
0
  6
CONTINUOUS
 62
     4
 10
1502.4167055
 20
204.333322
 30
1.03999992
 40
10.3999992
  1
機種
 50
0.0
 41
0.8
 51
0.0
  7
KANJI7
  0
LINE
  8
0
  6
CONTINUOUS
 62
     4
 10
1335.583385
 20
130.666661
 30
0.0
 11
1493.7500395
 21
130.666661
 31
0.0
  0
TEXT
  8
0
  6
CONTINUOUS
 62
     4
 10
1344.250051
 20
137.1666605
 30
1.03999992
 40
10.3999992
  1
作図
 50
0.0
 41
0.6
 51
0.0
  7
KANJI3
  0
LINE
  8
0
  6
LTYPE2
 62
     4
 10
1645.4166945
 20
156.666659
 30
0.0
 11
1857.7500115
 21
156.666659
 31
0.0
  0
LINE
  8
0
  6
CONTINUOUS
 62
     4
 10
1875.0833435
 20
140.41666025
 30
0.0
 11
1883.7500095
 21
140.41666025
 31
0.0
  0
LINE
  8
0
  6
CONTINUOUS
 62
     4
 10
1929.250006
 20
127.41666125
 30
0.0
 11
1898.916675
 21
127.41666125
 31
0.0
  0
LINE
  8
0
  6
CONTINUOUS
 62
     4
 10
1898.916675
 20
127.41666125
 30
0.0
 11
1914.0833405
 21
153.41665925
 31
0.0
  0
LINE
  8
0
  6
CONTINUOUS
 62
     4
 10
1914.0833405
 20
153.41665925
 30
0.0
 11
1929.250006
 21
127.41666125
 31
0.0
  0
LINE
  8
0
  6
CONTINUOUS
 62
     4
 10
2002.916667
 20
303.999981
 30
0.0
 11
2002.916667
 21
338.666645
 31
0.0
  0
TEXT
  8
0
  6
CONTINUOUS
 62
     4
 10
1719.0833555
 20
219.4999875
 30
0.8666666
 40
8.666666
  1
ＴＩＴＬＥ
 50
0.0
 41
0.8
 51
0.0
  7
KANJI6
  0
TEXT
  8
0
  6
CONTINUOUS
 62
     4
 10
1719.0833555
 20
204.333322
 30
1.03999992
 40
10.3999992
  1
名称
 50
0.0
 41
0.8
 51
0.0
  7
KANJI7
  0
TEXT
  8
0
  6
CONTINUOUS
 62
     2
 10
1789.75
 20
172.0
 30
12.5
 40
25.0
  1
外形寸法図
 50
0.0
 41
1.0
 51
0.0
  7
KANJI8
  0
TEXT
  8
0
  6
CONTINUOUS
 62
     2
 10
1759.75
 20
202.0
 30
3.571428571
 40
25.0
  1
マイティシリンダ
 50
0.0
 41
1.0
 51
0.0
  7
KANJI9
  0
TEXT
  8
0
  6
CONTINUOUS
 62
     2
 10
1619.1666945
 20
126.999995
 30
1.5
 40
25.0
  1
Ａ
 50
0.0
 41
0.8
 51
0.0
  7
KANJI10
  0
CIRCLE
  8
0
  6
CONTINUOUS
 62
     2
 10
1586.6666945
 20
180.749995
 30
0.0
 40
12.5
  0
TEXT
  8
0
  6
CONTINUOUS
 62
     2
 10
1577.2916945
 20
171.374995
 30
1.5
 40
20.0
  1
Ｓ
 50
0.0
 41
1.0
 51
0.0
  7
KANJI11
  0
LINE
  8
0
  6
CONTINUOUS
 62
     6
 10
1336.208385
 20
303.999981
 30
0.0
 11
2003.541667
 21
303.999981
 31
0.0
  0
LINE
  8
0
  6
CONTINUOUS
 62
     6
 10
1335.583385
 20
338.666645
 30
0.0
 11
2002.916667
 21
338.666645
 31
0.0
  0
TEXT
  8
0
  6
CONTINUOUS
 62
     4
 10
1351.0
 20
309.166664
 30
5.0
 40
18.0
  1
ご用途
 50
0.0
 41
1.111111111
 51
0.0
  7
KANJI12
  0
TEXT
  8
0
  6
CONTINUOUS
 62
     4
 10
1351.0
 20
274.5
 30
5.0
 40
18.0
  1
ご注文主
 50
0.0
 41
1.111111111
 51
0.0
  7
KANJI12
  0
TEXT
  8
0
  6
CONTINUOUS
 62
     2
 10
1391.4166945
 20
139.499995
 30
5.0
 40
17.5
  1
岡田
 50
0.0
 41
0.857142857
 51
0.0
  7
KANJI13
  0
TEXT
  8
0
  6
CONTINUOUS
 62
     2
 10
1427.25
 20
67.0
 30
1.5
 40
22.5
  1
１／５
 50
0.0
 41
0.666666667
 51
0.0
  7
KANJI14
  0
TEXT
  8
0
  6
CONTINUOUS
 62
     4
 10
1103.7500695
 20
80.8333315
 30
0.8666666
 40
8.666666
  1
ＢＹ
 50
0.0
 41
0.6
 51
0.0
  7
KANJI2
  0
TEXT
  8
0
  6
CONTINUOUS
 62
     4
 10
1199.0833955
 20
80.8333315
 30
0.8666666
 40
8.666666
  1
ＤＥＳＣＲＩＰＴＩＯＮ
 50
0.0
 41
0.6
 51
0.0
  7
KANJI2
  0
TEXT
  8
0
  6
CONTINUOUS
 62
     4
 10
1103.7500695
 20
67.8333325
 30
1.03999992
 40
10.3999992
  1
担当
 50
0.0
 41
0.6
 51
0.0
  7
KANJI3
  0
TEXT
  8
0
  6
CONTINUOUS
 62
     4
 10
1212.0833945
 20
67.8333325
 30
1.03999992
 40
10.3999992
  1
記　　　　事
 50
0.0
 41
0.6
 51
0.0
  7
KANJI3
  0
LINE
  8
0
  6
CONTINUOUS
 62
     4
 10
1011.66674325
 20
89.4999975
 30
0.0
 11
997.583411
 21
67.8333325
 31
0.0
  0
TEXT
  8
0
  6
CONTINUOUS
 62
     4
 10
1047.4167405
 20
80.8333315
 30
0.8666666
 40
8.666666
  1
ＤＡＴＥ
 50
0.0
 41
0.6
 51
0.0
  7
KANJI2
  0
TEXT
  8
0
  6
CONTINUOUS
 62
     4
 10
1053.91674
 20
67.8333325
 30
1.03999992
 40
10.3999992
  1
日付
 50
0.0
 41
0.6
 51
0.0
  7
KANJI3
  0
LINE
  8
0
  6
CONTINUOUS
 62
     4
 10
997.583411
 20
67.8333325
 30
0.0
 11
1025.7500755
 21
67.8333325
 31
0.0
  0
LINE
  8
0
  6
CONTINUOUS
 62
     4
 10
1011.66674325
 20
89.4999975
 30
0.0
 11
1025.7500755
 21
67.8333325
 31
0.0
  0
LINE
  8
0
  6
CONTINUOUS
 62
     6
 10
993.250078
 20
61.333333
 30
0.0
 11
993.250078
 21
95.999997
 31
0.0
  0
LINE
  8
0
  6
CONTINUOUS
 62
     4
 10
1030.0834085
 20
61.333333
 30
0.0
 11
1030.0834085
 21
95.999997
 31
0.0
  0
LINE
  8
0
  6
CONTINUOUS
 62
     4
 10
1090.7500705
 20
61.333333
 30
0.0
 11
1090.7500705
 21
95.999997
 31
0.0
  0
LINE
  8
0
  6
CONTINUOUS
 62
     4
 10
1129.7500675
 20
61.333333
 30
0.0
 11
1129.7500675
 21
95.999997
 31
0.0
  0
LINE
  8
0
  6
CONTINUOUS
 62
     6
 10
72.25
 20
57.0
 30
0.0
 11
72.25
 21
1402.0
 31
0.0
  0
TEXT
  8
0
  6
CONTINUOUS
 62
     4
 10
87.249996846
 20
81.999994744
 30
0.99999979
 40
9.999997897
  1
ＰＡＲＴＳ　ＬＩＳＴ
 50
0.0
 41
0.6
 51
0.0
  7
KANJI15
  0
TEXT
  8
0
  6
CONTINUOUS
 62
     4
 10
87.249996846
 20
66.999997897
 30
1.199999748
 40
11.999997477
  1
部品表
 50
0.0
 41
0.9
 51
0.0
  7
KANJI16
  0
LINE
  8
0
  6
CONTINUOUS
 62
     6
 10
77.249998949
 20
131.999984231
 30
0.0
 11
402.249930615
 21
131.999984231
 31
0.0
  0
LINE
  8
0
  6
CONTINUOUS
 62
     6
 10
77.249998949
 20
61.999998949
 30
0.0
 11
402.249930615
 21
61.999998949
 31
0.0
  0
LINE
  8
0
  6
CONTINUOUS
 62
     6
 10
77.249998949
 20
61.999998949
 30
0.0
 11
77.249998949
 21
131.999984231
 31
0.0
  0
LINE
  8
0
  6
CONTINUOUS
 62
     6
 10
77.249998949
 20
96.99999159
 30
0.0
 11
402.249930615
 21
96.99999159
 31
0.0
  0
TEXT
  8
0
  6
CONTINUOUS
 62
     2
 10
87.249996846
 20
106.999989487
 30
1.499999685
 40
14.999996846
  1
ＰＬ
 50
0.0
 41
0.9
 51
0.0
  7
KANJI17
  0
LINE
  8
0
  6
CONTINUOUS
 62
     4
 10
15.333333
 20
61.333333
 30
0.0
 11
67.333329
 21
61.333333
 31
0.0
  0
LINE
  8
0
  6
CONTINUOUS
 62
     4
 10
15.333333
 20
87.333331
 30
0.0
 11
67.333329
 21
87.333331
 31
0.0
  0
LINE
  8
0
  6
CONTINUOUS
 62
     4
 10
15.333333
 20
113.333329
 30
0.0
 11
67.333329
 21
113.333329
 31
0.0
  0
LINE
  8
0
  6
CONTINUOUS
 62
     4
 10
15.333333
 20
139.333327
 30
0.0
 11
67.333329
 21
139.333327
 31
0.0
  0
LINE
  8
0
  6
CONTINUOUS
 62
     4
 10
15.333333
 20
165.333325
 30
0.0
 11
67.333329
 21
165.333325
 31
0.0
  0
LINE
  8
0
  6
CONTINUOUS
 62
     4
 10
15.333333
 20
191.333323
 30
0.0
 11
67.333329
 21
191.333323
 31
0.0
  0
LINE
  8
0
  6
CONTINUOUS
 62
     4
 10
15.333333
 20
217.333321
 30
0.0
 11
67.333329
 21
217.333321
 31
0.0
  0
LINE
  8
0
  6
CONTINUOUS
 62
     4
 10
15.333333
 20
243.333319
 30
0.0
 11
67.333329
 21
243.333319
 31
0.0
  0
LINE
  8
0
  6
CONTINUOUS
 62
     4
 10
15.333333
 20
269.333317
 30
0.0
 11
67.333329
 21
269.333317
 31
0.0
  0
LINE
  8
0
  6
CONTINUOUS
 62
     4
 10
15.333333
 20
295.333315
 30
0.0
 11
67.333329
 21
295.333315
 31
0.0
  0
LINE
  8
0
  6
CONTINUOUS
 62
     4
 10
67.333329
 20
61.333333
 30
0.0
 11
67.333329
 21
295.333315
 31
0.0
  0
LINE
  8
0
  6
CONTINUOUS
 62
     4
 10
41.333331
 20
61.333333
 30
0.0
 11
41.333331
 21
269.333317
 31
0.0
  0
TEXT
  8
0
  6
CONTINUOUS
 62
     4
 10
24.21666565
 20
68.91666575
 30
1.2999999
 40
12.999999
  1
計
 50
0.0
 41
0.75
 51
0.0
  7
KANJI18
  0
TEXT
  8
0
  6
CONTINUOUS
 62
     4
 10
24.21666565
 20
121.34999505
 30
1.2999999
 40
12.999999
  1
設
 50
0.0
 41
0.75
 51
0.0
  7
KANJI18
  0
TEXT
  8
0
  6
CONTINUOUS
 62
     4
 10
24.21666565
 20
146.91665975
 30
1.2999999
 40
12.999999
  1
管
 50
0.0
 41
0.75
 51
0.0
  7
KANJI18
  0
TEXT
  8
0
  6
CONTINUOUS
 62
     4
 10
24.21666565
 20
172.91665775
 30
1.2999999
 40
12.999999
  1
製
 50
0.0
 41
0.75
 51
0.0
  7
KANJI18
  0
TEXT
  8
0
  6
CONTINUOUS
 62
     4
 10
24.21666565
 20
198.91665575
 30
1.2999999
 40
12.999999
  1
資
 50
0.0
 41
0.75
 51
0.0
  7
KANJI18
  0
TEXT
  8
0
  6
CONTINUOUS
 62
     4
 10
24.21666565
 20
224.91665375
 30
1.2999999
 40
12.999999
  1
営
 50
0.0
 41
0.75
 51
0.0
  7
KANJI18
  0
TEXT
  8
0
  6
CONTINUOUS
 62
     4
 10
24.21666565
 20
250.91665175
 30
1.2999999
 40
12.999999
  1
客
 50
0.0
 41
0.75
 51
0.0
  7
KANJI18
  0
TEXT
  8
0
  6
CONTINUOUS
 62
     4
 10
23.999999
 20
277.999983
 30
1.2999999
 40
12.999999
  1
出　図
 50
0.0
 41
0.75
 51
0.0
  7
KANJI18
  0
LINE
  8
0
  6
CONTINUOUS
 62
     4
 10
15.333333
 20
61.333333
 30
0.0
 11
15.333333
 21
295.333315
 31
0.0
  0
TEXT
  8
0
  6
CONTINUOUS
 62
     4
 10
312.249949538
 20
81.999994744
 30
0.99999979
 40
9.999997897
  1
Ｎ０．
 50
0.0
 41
0.6
 51
0.0
  7
KANJI15
  0
TEXT
  8
0
  6
CONTINUOUS
 62
     4
 10
312.249949538
 20
66.999997897
 30
1.199999748
 40
11.999997477
  1
項番
 50
0.0
 41
0.9
 51
0.0
  7
KANJI16
  0
LINE
  8
0
  6
CONTINUOUS
 62
     6
 10
402.249930615
 20
61.999998949
 30
0.0
 11
402.249930615
 21
131.999984231
 31
0.0
  0
LINE
  8
0
  6
CONTINUOUS
 62
     6
 10
302.249951641
 20
61.999998949
 30
0.0
 11
302.249951641
 21
131.999984231
 31
0.0
  0
LINE
  8
0
  6
CONTINUOUS
 62
     1
 10
853.25
 20
1239.95
 30
0.0
 11
1501.25
 21
1239.95
 31
0.0
  0
LINE
  8
0
  6
CONTINUOUS
 62
     1
 10
853.25
 20
1211.95
 30
0.0
 11
1501.25
 21
1211.95
 31
0.0
  0
LINE
  8
0
  6
CONTINUOUS
 62
     2
 10
853.25
 20
1183.95
 30
0.0
 11
1501.25
 21
1183.95
 31
0.0
  0
LINE
  8
0
  6
CONTINUOUS
 62
     2
 10
853.25
 20
1155.95
 30
0.0
 11
1501.25
 21
1155.95
 31
0.0
  0
LINE
  8
0
  6
CONTINUOUS
 62
     2
 10
853.25
 20
1127.95
 30
0.0
 11
1501.25
 21
1127.95
 31
0.0
  0
TEXT
  8
0
  6
CONTINUOUS
 62
     2
 10
893.25
 20
1219.95
 30
1.28
 40
12.8
  1
形
 50
0.0
 41
0.9
 51
0.0
  7
KANJI19
  0
TEXT
  8
0
  6
CONTINUOUS
 62
     2
 10
971.25
 20
1219.95
 30
1.28
 40
12.8
  1
式
 50
0.0
 41
0.9
 51
0.0
  7
KANJI19
  0
TEXT
  8
0
  6
CONTINUOUS
 62
     2
 10
1031.65
 20
1219.15
 30
1.2
 40
12.0
  1
ストローク
 50
0.0
 41
0.9
 51
0.0
  7
KANJI20
  0
TEXT
  8
0
  6
CONTINUOUS
 62
     2
 10
1108.45
 20
1218.35
 30
0.0
 40
12.0
  1
ｍｉｎ　
 50
0.0
 41
0.9
 51
0.0
  7
KANJI21
  0
TEXT
  8
0
  6
CONTINUOUS
 62
     2
 10
1188.45
 20
1218.35
 30
0.0
 40
12.0
  1
ｍｉｎ　
 50
0.0
 41
0.9
 51
0.0
  7
KANJI21
  0
TEXT
  8
0
  6
CONTINUOUS
 62
     2
 10
1348.45
 20
1218.35
 30
0.0
 40
12.0
  1
ｍｉｎ　
 50
0.0
 41
0.9
 51
0.0
  7
KANJI21
  0
TEXT
  8
0
  6
CONTINUOUS
 62
     2
 10
1149.25
 20
1219.15
 30
1.4
 40
14.0
  1
ＡＬ
 50
0.0
 41
0.9
 51
0.0
  7
KANJI22
  0
TEXT
  8
0
  6
CONTINUOUS
 62
     2
 10
1229.25
 20
1219.15
 30
1.4
 40
14.0
  1
Ｌ
 50
0.0
 41
0.9
 51
0.0
  7
KANJI22
  0
TEXT
  8
0
  6
CONTINUOUS
 62
     2
 10
1297.25
 20
1219.15
 30
1.4
 40
14.0
  1
Ｃ
 50
0.0
 41
0.9
 51
0.0
  7
KANJI22
  0
TEXT
  8
0
  6
CONTINUOUS
 62
     2
 10
1389.25
 20
1219.15
 30
1.4
 40
14.0
  1
Ｐ
 50
0.0
 41
0.9
 51
0.0
  7
KANJI22
  0
TEXT
  8
0
  6
CONTINUOUS
 62
     2
 10
1471.55
 20
1218.85
 30
0.0
 40
10.8
  1
（ｋｇ）
 50
0.0
 41
0.740740741
 51
0.0
  7
KANJI23
  0
TEXT
  8
0
  6
CONTINUOUS
 62
     2
 10
1423.55
 20
1218.65
 30
1.2
 40
14.0
  1
概算重量
 50
0.0
 41
0.857142857
 51
0.0
  7
KANJI24
  0
TEXT
  8
0
  6
CONTINUOUS
 62
     2
 10
1039.25
 20
1190.65
 30
1.2
 40
12.0
  1
　１００
 50
0.0
 41
0.9
 51
0.0
  7
KANJI20
  0
TEXT
  8
0
  6
CONTINUOUS
 62
     2
 10
1039.25
 20
1162.65
 30
1.2
 40
12.0
  1
　２００
 50
0.0
 41
0.9
 51
0.0
  7
KANJI20
  0
TEXT
  8
0
  6
CONTINUOUS
 62
     2
 10
1039.25
 20
1134.65
 30
1.2
 40
12.0
  1
　３００
 50
0.0
 41
0.9
 51
0.0
  7
KANJI20
  0
TEXT
  8
0
  6
CONTINUOUS
 62
     2
 10
1359.25
 20
1134.65
 30
1.2
 40
12.0
  1
　　３５
 50
0.0
 41
0.9
 51
0.0
  7
KANJI20
  0
TEXT
  8
0
  6
CONTINUOUS
 62
     2
 10
1359.25
 20
1162.65
 30
1.2
 40
12.0
  1
　　３５
 50
0.0
 41
0.9
 51
0.0
  7
KANJI20
  0
TEXT
  8
0
  6
CONTINUOUS
 62
     2
 10
1359.25
 20
1190.65
 30
1.2
 40
12.0
  1
　　３５
 50
0.0
 41
0.9
 51
0.0
  7
KANJI20
  0
TEXT
  8
0
  6
CONTINUOUS
 62
     2
 10
1039.25
 20
1022.65
 30
1.2
 40
12.0
  1
　７００
 50
0.0
 41
0.9
 51
0.0
  7
KANJI20
  0
LINE
  8
0
  6
CONTINUOUS
 62
     2
 10
853.25
 20
1071.95
 30
0.0
 11
1501.25
 21
1071.95
 31
0.0
  0
LINE
  8
0
  6
CONTINUOUS
 62
     2
 10
853.25
 20
1099.95
 30
0.0
 11
1501.25
 21
1099.95
 31
0.0
  0
LINE
  8
0
  6
CONTINUOUS
 62
     2
 10
853.25
 20
1015.95
 30
0.0
 11
1501.25
 21
1015.95
 31
0.0
  0
LINE
  8
0
  6
CONTINUOUS
 62
     2
 10
853.25
 20
1043.95
 30
0.0
 11
1501.25
 21
1043.95
 31
0.0
  0
TEXT
  8
0
  6
CONTINUOUS
 62
     2
 10
1039.25
 20
1078.65
 30
1.2
 40
12.0
  1
　５００
 50
0.0
 41
0.9
 51
0.0
  7
KANJI20
  0
TEXT
  8
0
  6
CONTINUOUS
 62
     2
 10
1039.25
 20
1106.65
 30
1.2
 40
12.0
  1
　４００
 50
0.0
 41
0.9
 51
0.0
  7
KANJI20
  0
TEXT
  8
0
  6
CONTINUOUS
 62
     2
 10
1039.25
 20
1050.65
 30
1.2
 40
12.0
  1
　６００
 50
0.0
 41
0.9
 51
0.0
  7
KANJI20
  0
TEXT
  8
0
  6
CONTINUOUS
 62
     2
 10
1279.25
 20
1190.65
 30
1.2
 40
12.0
  1
　１９８
 50
0.0
 41
0.9
 51
0.0
  7
KANJI20
  0
TEXT
  8
0
  6
CONTINUOUS
 62
     2
 10
1279.25
 20
1162.65
 30
1.2
 40
12.0
  1
　２９８
 50
0.0
 41
0.9
 51
0.0
  7
KANJI20
  0
TEXT
  8
0
  6
CONTINUOUS
 62
     2
 10
1279.25
 20
1134.65
 30
1.2
 40
12.0
  1
　３９８
 50
0.0
 41
0.9
 51
0.0
  7
KANJI20
  0
TEXT
  8
0
  6
CONTINUOUS
 62
     2
 10
1279.25
 20
1106.65
 30
1.2
 40
12.0
  1
　４９８
 50
0.0
 41
0.9
 51
0.0
  7
KANJI20
  0
TEXT
  8
0
  6
CONTINUOUS
 62
     2
 10
1279.25
 20
1078.65
 30
1.2
 40
12.0
  1
　５９８
 50
0.0
 41
0.9
 51
0.0
  7
KANJI20
  0
TEXT
  8
0
  6
CONTINUOUS
 62
     2
 10
1279.25
 20
1050.65
 30
1.2
 40
12.0
  1
　７３８
 50
0.0
 41
0.9
 51
0.0
  7
KANJI20
  0
TEXT
  8
0
  6
CONTINUOUS
 62
     2
 10
1279.25
 20
1022.65
 30
1.2
 40
12.0
  1
　８３８
 50
0.0
 41
0.9
 51
0.0
  7
KANJI20
  0
TEXT
  8
0
  6
CONTINUOUS
 62
     2
 10
1199.25
 20
1190.65
 30
1.2
 40
12.0
  1
　２６８
 50
0.0
 41
0.9
 51
0.0
  7
KANJI20
  0
TEXT
  8
0
  6
CONTINUOUS
 62
     2
 10
1199.25
 20
1162.65
 30
1.2
 40
12.0
  1
　３６８
 50
0.0
 41
0.9
 51
0.0
  7
KANJI20
  0
TEXT
  8
0
  6
CONTINUOUS
 62
     2
 10
1199.25
 20
1134.65
 30
1.2
 40
12.0
  1
　４６８
 50
0.0
 41
0.9
 51
0.0
  7
KANJI20
  0
TEXT
  8
0
  6
CONTINUOUS
 62
     2
 10
1119.25
 20
1190.65
 30
1.2
 40
12.0
  1
　５８０
 50
0.0
 41
0.9
 51
0.0
  7
KANJI20
  0
TEXT
  8
0
  6
CONTINUOUS
 62
     2
 10
1119.25
 20
1162.65
 30
1.2
 40
12.0
  1
　６８０
 50
0.0
 41
0.9
 51
0.0
  7
KANJI20
  0
TEXT
  8
0
  6
CONTINUOUS
 62
     2
 10
1119.25
 20
1134.65
 30
1.2
 40
12.0
  1
　７８０
 50
0.0
 41
0.9
 51
0.0
  7
KANJI20
  0
TEXT
  8
0
  6
CONTINUOUS
 62
     2
 10
1439.25
 20
1190.65
 30
1.2
 40
12.0
  1
　　１７
 50
0.0
 41
0.9
 51
0.0
  7
KANJI20
  0
TEXT
  8
0
  6
CONTINUOUS
 62
     2
 10
1439.25
 20
1162.65
 30
1.2
 40
12.0
  1
　　１８
 50
0.0
 41
0.9
 51
0.0
  7
KANJI20
  0
TEXT
  8
0
  6
CONTINUOUS
 62
     2
 10
1439.25
 20
1134.65
 30
1.2
 40
12.0
  1
　　１９
 50
0.0
 41
0.9
 51
0.0
  7
KANJI20
  0
TEXT
  8
0
  6
CONTINUOUS
 62
     2
 10
866.25
 20
1190.35
 30
0.8
 40
12.0
  1
ＭＣＥＤＢＢ０１－　　１Ｊ
 50
0.0
 41
0.833333333
 51
0.0
  7
KANJI25
  0
TEXT
  8
0
  6
CONTINUOUS
 62
     2
 10
866.25
 20
1162.35
 30
0.8
 40
12.0
  1
ＭＣＥＤＢＢ０１－　　２Ｊ
 50
0.0
 41
0.833333333
 51
0.0
  7
KANJI25
  0
TEXT
  8
0
  6
CONTINUOUS
 62
     2
 10
866.25
 20
1134.35
 30
0.8
 40
12.0
  1
ＭＣＥＤＢＢ０１－　　３Ｊ
 50
0.0
 41
0.833333333
 51
0.0
  7
KANJI25
  0
TEXT
  8
0
  6
CONTINUOUS
 62
     2
 10
866.25
 20
1106.35
 30
0.8
 40
12.0
  1
ＭＣＥＤＢＢ０１－　　４Ｊ
 50
0.0
 41
0.833333333
 51
0.0
  7
KANJI25
  0
TEXT
  8
0
  6
CONTINUOUS
 62
     2
 10
866.25
 20
1078.35
 30
0.8
 40
12.0
  1
ＭＣＥＤＢＢ０１－　　５Ｊ
 50
0.0
 41
0.833333333
 51
0.0
  7
KANJI25
  0
TEXT
  8
0
  6
CONTINUOUS
 62
     2
 10
866.25
 20
1050.35
 30
0.8
 40
12.0
  1
ＭＣＥＤＢＢ０１－　　６Ｊ
 50
0.0
 41
0.833333333
 51
0.0
  7
KANJI25
  0
TEXT
  8
0
  6
CONTINUOUS
 62
     2
 10
866.25
 20
1022.35
 30
0.8
 40
12.0
  1
ＭＣＥＤＢＢ０１－　　７Ｊ
 50
0.0
 41
0.833333333
 51
0.0
  7
KANJI25
  0
TEXT
  8
0
  6
CONTINUOUS
 62
     2
 10
1359.25
 20
1106.65
 30
1.2
 40
12.0
  1
　　８５
 50
0.0
 41
0.9
 51
0.0
  7
KANJI20
  0
TEXT
  8
0
  6
CONTINUOUS
 62
     2
 10
1359.25
 20
1078.65
 30
1.2
 40
12.0
  1
　１１２
 50
0.0
 41
0.9
 51
0.0
  7
KANJI20
  0
TEXT
  8
0
  6
CONTINUOUS
 62
     2
 10
1359.25
 20
1050.65
 30
1.2
 40
12.0
  1
　１２８
 50
0.0
 41
0.9
 51
0.0
  7
KANJI20
  0
TEXT
  8
0
  6
CONTINUOUS
 62
     2
 10
1359.25
 20
1022.65
 30
1.2
 40
12.0
  1
　１４８
 50
0.0
 41
0.9
 51
0.0
  7
KANJI20
  0
TEXT
  8
0
  6
CONTINUOUS
 62
     2
 10
1199.25
 20
1106.65
 30
1.2
 40
12.0
  1
　６１８
 50
0.0
 41
0.9
 51
0.0
  7
KANJI20
  0
TEXT
  8
0
  6
CONTINUOUS
 62
     2
 10
1199.25
 20
1078.65
 30
1.2
 40
12.0
  1
　７４５
 50
0.0
 41
0.9
 51
0.0
  7
KANJI20
  0
TEXT
  8
0
  6
CONTINUOUS
 62
     2
 10
1199.25
 20
1050.65
 30
1.2
 40
12.0
  1
　９０１
 50
0.0
 41
0.9
 51
0.0
  7
KANJI20
  0
TEXT
  8
0
  6
CONTINUOUS
 62
     2
 10
1199.25
 20
1022.65
 30
1.2
 40
12.0
  1
１０２１
 50
0.0
 41
0.9
 51
0.0
  7
KANJI20
  0
TEXT
  8
0
  6
CONTINUOUS
 62
     2
 10
1119.25
 20
1106.65
 30
1.2
 40
12.0
  1
　９３０
 50
0.0
 41
0.9
 51
0.0
  7
KANJI20
  0
TEXT
  8
0
  6
CONTINUOUS
 62
     2
 10
1119.25
 20
1078.65
 30
1.2
 40
12.0
  1
１０５７
 50
0.0
 41
0.9
 51
0.0
  7
KANJI20
  0
TEXT
  8
0
  6
CONTINUOUS
 62
     2
 10
1119.25
 20
1050.65
 30
1.2
 40
12.0
  1
１２１３
 50
0.0
 41
0.9
 51
0.0
  7
KANJI20
  0
TEXT
  8
0
  6
CONTINUOUS
 62
     2
 10
1119.25
 20
1022.65
 30
1.2
 40
12.0
  1
１３３３
 50
0.0
 41
0.9
 51
0.0
  7
KANJI20
  0
TEXT
  8
0
  6
CONTINUOUS
 62
     2
 10
1439.25
 20
1106.65
 30
1.2
 40
12.0
  1
　　２１
 50
0.0
 41
0.9
 51
0.0
  7
KANJI20
  0
TEXT
  8
0
  6
CONTINUOUS
 62
     2
 10
1439.25
 20
1078.65
 30
1.2
 40
12.0
  1
　　２２
 50
0.0
 41
0.9
 51
0.0
  7
KANJI20
  0
TEXT
  8
0
  6
CONTINUOUS
 62
     2
 10
1439.25
 20
1050.65
 30
1.2
 40
12.0
  1
　　２３
 50
0.0
 41
0.9
 51
0.0
  7
KANJI20
  0
TEXT
  8
0
  6
CONTINUOUS
 62
     2
 10
1439.25
 20
1022.65
 30
1.2
 40
12.0
  1
　　２５
 50
0.0
 41
0.9
 51
0.0
  7
KANJI20
  0
TEXT
  8
0
  6
CONTINUOUS
 62
     2
 10
1554.75
 20
207.0
 30
0.0
 40
17.5
  1
ＭＣＥＤＢＢ０１－Ｊ
 50
0.0
 41
0.793650794
 51
0.0
  7
KANJI26
  0
TEXT
  8
0
  6
CONTINUOUS
 62
     2
 10
1650.4166945
 20
126.999995
 30
10.833333333
 40
25.0
  1
３００２３４０
 50
0.0
 41
0.8
 51
0.0
  7
KANJI27
  0
TEXT
  8
0
  6
CONTINUOUS
 62
     2
 10
129.75
 20
24.5
 30
1.5
 40
15.0
  1
ＦＤ　Ｎｏ．ＭＣ１８６
 50
0.0
 41
1.0
 51
0.0
  7
KANJI28
  0
CIRCLE
  8
0
  6
CONTINUOUS
 62
     1
 10
645.25
 20
575.0
 30
0.0
 40
33.75
  0
CIRCLE
  8
0
  6
CONTINUOUS
 62
     1
 10
645.25
 20
575.0
 30
0.0
 40
25.0
  0
CIRCLE
  8
0
  6
CONTINUOUS
 62
     1
 10
645.25
 20
575.0
 30
0.0
 40
8.0
  0
LINE
  8
0
  6
CONTINUOUS
 62
     2
 10
647.625
 20
566.25
 30
0.0
 11
647.586568356
 21
553.75005908
 31
0.0
  0
LINE
  8
0
  6
CONTINUOUS
 62
     2
 10
647.625
 20
566.25
 30
0.0
 11
647.586568356
 21
553.75005908
 31
0.0
  0
LINE
  8
0
  6
CONTINUOUS
 62
     2
 10
647.625
 20
566.25
 30
0.0
 11
653.84168768
 21
555.405517795
 31
0.0
  0
LINE
  8
0
  6
CONTINUOUS
 62
     2
 10
648.21471794
 20
565.221287278
 30
0.0
 11
653.84168768
 21
555.405517795
 31
0.0
  0
LINE
  8
0
  6
CONTINUOUS
 62
     2
 10
648.21471794
 20
565.221287278
 30
0.0
 11
694.35
 21
390.9
 31
0.0
  0
TEXT
  8
0
  6
CONTINUOUS
 62
     2
 10
694.35
 20
394.9
 30
0.0
 40
15.0
  1
φ１６Ｈ１０深２２
 50
0.0
 41
0.9
 51
0.0
  7
KANJI1
  0
LINE
  8
0
  6
CONTINUOUS
 62
     2
 10
694.35
 20
390.9
 30
0.0
 11
816.0
 21
390.9
 31
0.0
  0
LINE
  8
0
  6
CONTINUOUS
 62
     1
 10
1277.625
 20
1393.0
 30
0.0
 11
1277.625
 21
1292.9
 31
0.0
  0
LINE
  8
0
  6
CONTINUOUS
 62
     2
 10
1219.875
 20
1393.0
 30
0.0
 11
1219.875
 21
1292.9
 31
0.0
  0
LINE
  8
0
  6
CONTINUOUS
 62
     2
 10
1162.125
 20
1393.0
 30
0.0
 11
1162.125
 21
1292.9
 31
0.0
  0
LINE
  8
0
  6
CONTINUOUS
 62
     1
 10
1085.125
 20
1393.0
 30
0.0
 11
1085.125
 21
1292.9
 31
0.0
  0
LINE
  8
0
  6
CONTINUOUS
 62
     1
 10
1085.125
 20
1393.0
 30
0.0
 11
1277.625
 21
1393.0
 31
0.0
  0
LINE
  8
0
  6
CONTINUOUS
 62
     1
 10
1085.125
 20
1362.2
 30
0.0
 11
1277.625
 21
1362.2
 31
0.0
  0
LINE
  8
0
  6
CONTINUOUS
 62
     2
 10
1085.125
 20
1339.1
 30
0.0
 11
1277.625
 21
1339.1
 31
0.0
  0
LINE
  8
0
  6
CONTINUOUS
 62
     2
 10
1085.125
 20
1316.0
 30
0.0
 11
1277.625
 21
1316.0
 31
0.0
  0
LINE
  8
0
  6
CONTINUOUS
 62
     1
 10
1085.125
 20
1292.9
 30
0.0
 11
1277.625
 21
1292.9
 31
0.0
  0
TEXT
  8
0
  6
CONTINUOUS
 62
     2
 10
1227.575
 20
1379.525
 30
1.155
 40
11.55
  1
起動電流
 50
0.0
 41
0.9
 51
0.0
  7
KANJI29
  0
TEXT
  8
0
  6
CONTINUOUS
 62
     2
 10
1227.575
 20
1366.05
 30
1.155
 40
11.55
  1
　　　Ａ
 50
0.0
 41
0.9
 51
0.0
  7
KANJI29
  0
TEXT
  8
0
  6
CONTINUOUS
 62
     2
 10
1169.825
 20
1379.525
 30
1.155
 40
11.55
  1
定格電流
 50
0.0
 41
0.9
 51
0.0
  7
KANJI29
  0
TEXT
  8
0
  6
CONTINUOUS
 62
     2
 10
1169.825
 20
1366.05
 30
1.155
 40
11.55
  1
　　　Ａ
 50
0.0
 41
0.9
 51
0.0
  7
KANJI29
  0
TEXT
  8
0
  6
CONTINUOUS
 62
     2
 10
1091.67
 20
1321.775
 30
1.155
 40
11.55
  1
２００／６０
 50
0.0
 41
0.9
 51
0.0
  7
KANJI29
  0
TEXT
  8
0
  6
CONTINUOUS
 62
     2
 10
1091.67
 20
1379.525
 30
1.155
 40
11.55
  1
電圧／周波数
 50
0.0
 41
0.9
 51
0.0
  7
KANJI29
  0
TEXT
  8
0
  6
CONTINUOUS
 62
     2
 10
1091.67
 20
1366.05
 30
1.155
 40
11.55
  1
　Ｖ／Ｈｚ
 50
0.0
 41
0.9
 51
0.0
  7
KANJI29
  0
TEXT
  8
0
  6
CONTINUOUS
 62
     2
 10
1091.67
 20
1344.875
 30
1.155
 40
11.55
  1
２００／５０
 50
0.0
 41
0.9
 51
0.0
  7
KANJI29
  0
TEXT
  8
0
  6
CONTINUOUS
 62
     2
 10
1091.67
 20
1298.675
 30
1.155
 40
11.55
  1
２２０／６０
 50
0.0
 41
0.9
 51
0.0
  7
KANJI29
  0
LINE
  8
0
  6
CONTINUOUS
 62
     1
 10
1046.625
 20
1393.0
 30
0.0
 11
1046.625
 21
1292.9
 31
0.0
  0
LINE
  8
0
  6
CONTINUOUS
 62
     2
 10
988.875
 20
1393.0
 30
0.0
 11
988.875
 21
1292.9
 31
0.0
  0
LINE
  8
0
  6
CONTINUOUS
 62
     2
 10
931.125
 20
1393.0
 30
0.0
 11
931.125
 21
1292.9
 31
0.0
  0
LINE
  8
0
  6
CONTINUOUS
 62
     1
 10
854.125
 20
1393.0
 30
0.0
 11
854.125
 21
1292.9
 31
0.0
  0
LINE
  8
0
  6
CONTINUOUS
 62
     1
 10
854.125
 20
1393.0
 30
0.0
 11
1046.625
 21
1393.0
 31
0.0
  0
LINE
  8
0
  6
CONTINUOUS
 62
     1
 10
854.125
 20
1362.2
 30
0.0
 11
1046.625
 21
1362.2
 31
0.0
  0
LINE
  8
0
  6
CONTINUOUS
 62
     2
 10
854.125
 20
1339.1
 30
0.0
 11
1046.625
 21
1339.1
 31
0.0
  0
LINE
  8
0
  6
CONTINUOUS
 62
     2
 10
854.125
 20
1316.0
 30
0.0
 11
1046.625
 21
1316.0
 31
0.0
  0
LINE
  8
0
  6
CONTINUOUS
 62
     1
 10
854.125
 20
1292.9
 30
0.0
 11
1046.625
 21
1292.9
 31
0.0
  0
TEXT
  8
0
  6
CONTINUOUS
 62
     2
 10
996.575
 20
1379.525
 30
1.155
 40
11.55
  1
起動電流
 50
0.0
 41
0.9
 51
0.0
  7
KANJI29
  0
TEXT
  8
0
  6
CONTINUOUS
 62
     2
 10
996.575
 20
1366.05
 30
1.155
 40
11.55
  1
　　　Ａ
 50
0.0
 41
0.9
 51
0.0
  7
KANJI29
  0
TEXT
  8
0
  6
CONTINUOUS
 62
     2
 10
938.825
 20
1379.525
 30
1.155
 40
11.55
  1
定格電流
 50
0.0
 41
0.9
 51
0.0
  7
KANJI29
  0
TEXT
  8
0
  6
CONTINUOUS
 62
     2
 10
938.825
 20
1366.05
 30
1.155
 40
11.55
  1
　　　Ａ
 50
0.0
 41
0.9
 51
0.0
  7
KANJI29
  0
TEXT
  8
0
  6
CONTINUOUS
 62
     2
 10
860.67
 20
1379.525
 30
1.155
 40
11.55
  1
電圧／周波数
 50
0.0
 41
0.9
 51
0.0
  7
KANJI29
  0
TEXT
  8
0
  6
CONTINUOUS
 62
     2
 10
860.67
 20
1366.05
 30
1.155
 40
11.55
  1
　Ｖ／Ｈｚ
 50
0.0
 41
0.9
 51
0.0
  7
KANJI29
  0
TEXT
  8
0
  6
CONTINUOUS
 62
     2
 10
860.67
 20
1344.875
 30
1.155
 40
11.55
  1
４００／５０
 50
0.0
 41
0.9
 51
0.0
  7
KANJI29
  0
TEXT
  8
0
  6
CONTINUOUS
 62
     2
 10
860.67
 20
1321.775
 30
1.155
 40
11.55
  1
４００／６０
 50
0.0
 41
0.9
 51
0.0
  7
KANJI29
  0
TEXT
  8
0
  6
CONTINUOUS
 62
     2
 10
860.67
 20
1298.675
 30
1.155
 40
11.55
  1
４４０／６０
 50
0.0
 41
0.9
 51
0.0
  7
KANJI29
  0
TEXT
  8
0
  6
CONTINUOUS
 62
     2
 10
938.825
 20
1344.875
 30
1.155
 40
11.55
  1
　２．０
 50
0.0
 41
0.9
 51
0.0
  7
KANJI29
  0
TEXT
  8
0
  6
CONTINUOUS
 62
     2
 10
938.825
 20
1321.775
 30
1.155
 40
11.55
  1
　１．４
 50
0.0
 41
0.9
 51
0.0
  7
KANJI29
  0
TEXT
  8
0
  6
CONTINUOUS
 62
     2
 10
938.825
 20
1298.675
 30
1.155
 40
11.55
  1
　１．７
 50
0.0
 41
0.9
 51
0.0
  7
KANJI29
  0
TEXT
  8
0
  6
CONTINUOUS
 62
     2
 10
1169.825
 20
1344.875
 30
1.155
 40
11.55
  1
　４．０
 50
0.0
 41
0.9
 51
0.0
  7
KANJI29
  0
TEXT
  8
0
  6
CONTINUOUS
 62
     2
 10
1169.825
 20
1321.775
 30
1.155
 40
11.55
  1
　２．８
 50
0.0
 41
0.9
 51
0.0
  7
KANJI29
  0
TEXT
  8
0
  6
CONTINUOUS
 62
     2
 10
1169.825
 20
1298.675
 30
1.155
 40
11.55
  1
　３．３
 50
0.0
 41
0.9
 51
0.0
  7
KANJI29
  0
TEXT
  8
0
  6
CONTINUOUS
 62
     2
 10
1227.575
 20
1344.875
 30
1.155
 40
11.55
  1
　９．２
 50
0.0
 41
0.9
 51
0.0
  7
KANJI29
  0
TEXT
  8
0
  6
CONTINUOUS
 62
     2
 10
1227.575
 20
1321.775
 30
1.155
 40
11.55
  1
　８
 50
0.0
 41
0.9
 51
0.0
  7
KANJI29
  0
TEXT
  8
0
  6
CONTINUOUS
 62
     2
 10
1227.575
 20
1298.675
 30
1.155
 40
11.55
  1
　８．８
 50
0.0
 41
0.9
 51
0.0
  7
KANJI29
  0
TEXT
  8
0
  6
CONTINUOUS
 62
     2
 10
996.575
 20
1344.875
 30
1.155
 40
11.55
  1
　４．６
 50
0.0
 41
0.9
 51
0.0
  7
KANJI29
  0
TEXT
  8
0
  6
CONTINUOUS
 62
     2
 10
996.575
 20
1321.775
 30
1.155
 40
11.55
  1
　４
 50
0.0
 41
0.9
 51
0.0
  7
KANJI29
  0
TEXT
  8
0
  6
CONTINUOUS
 62
     2
 10
996.575
 20
1298.675
 30
1.155
 40
11.55
  1
　４．４
 50
0.0
 41
0.9
 51
0.0
  7
KANJI29
  0
LINE
  8
0
  6
CONTINUOUS
 62
     2
 10
1084.25
 20
600.0
 30
0.0
 11
1084.25
 21
833.0
 31
0.0
  0
LINE
  8
0
  6
CONTINUOUS
 62
     2
 10
1041.25
 20
381.0
 30
0.0
 11
1041.25
 21
447.95
 31
0.0
  0
LINE
  8
0
  6
CONTINUOUS
 62
     2
 10
1058.25
 20
402.5
 30
0.0
 11
1058.25
 21
433.2
 31
0.0
  0
LINE
  8
0
  6
CONTINUOUS
 62
     2
 10
1074.25
 20
402.5
 30
0.0
 11
1074.25
 21
434.2
 31
0.0
  0
LINE
  8
0
  6
CONTINUOUS
 62
     2
 10
1087.0
 20
390.0
 30
0.0
 11
1130.083854631
 21
390.0
 31
0.0
  0
LINE
  8
0
  6
CONTINUOUS
 62
     2
 10
1087.0
 20
378.0
 30
0.0
 11
1129.983854631
 21
378.0
 31
0.0
  0
LINE
  8
0
  6
CONTINUOUS
 62
     2
 10
1087.0
 20
362.0
 30
0.0
 11
1129.983854631
 21
362.0
 31
0.0
  0
LINE
  8
0
  6
CONTINUOUS
 62
     2
 10
1087.0
 20
350.0
 30
0.0
 11
1130.083854631
 21
350.0
 31
0.0
  0
LINE
  8
0
  6
CONTINUOUS
 62
     2
 10
1084.25
 20
350.0
 30
0.0
 11
1084.5
 21
350.0
 31
0.0
  0
LINE
  8
0
  6
LTYPE4
 62
     6
 10
138.658333
 20
878.133317
 30
0.0
 11
138.658333
 21
861.732460936
 31
0.0
  0
LINE
  8
0
  6
LTYPE4
 62
     6
 10
269.055262694
 20
878.133317
 30
0.0
 11
138.658333
 21
878.133317
 31
0.0
  0
TEXT
  8
0
  6
CONTINUOUS
 62
     6
 10
121.123590591
 20
864.648168681
 30
1.093390404
 40
10.933904043
  1
Ｕ
 50
0.0
 41
0.9
 51
0.0
  7
KANJI30
  0
CIRCLE
  8
0
  6
CONTINUOUS
 62
     6
 10
138.658333
 20
858.452289723
 30
0.0
 40
4.373561617
  0
LINE
  8
0
  6
CONTINUOUS
 62
     6
 10
133.63354931
 20
853.427506033
 30
0.0
 11
143.838526417
 21
863.63248314
 31
0.0
  0
TEXT
  8
0
  6
CONTINUOUS
 62
     6
 10
148.903806047
 20
886.799448352
 30
1.518597784
 40
15.185977837
  1
エコノストップモータ
 50
0.0
 41
0.66671875
 51
0.0
  7
KANJI31
  0
LINE
  8
0
  6
LTYPE4
 62
     6
 10
269.055262694
 20
782.721584891
 30
0.0
 11
269.055262694
 21
878.133317
 31
0.0
  0
CIRCLE
  8
0
  6
CONTINUOUS
 62
     6
 10
183.487339575
 20
832.939846957
 30
0.0
 40
18.223173404
  0
TEXT
  8
0
  6
CONTINUOUS
 62
     6
 10
175.833606745
 20
824.192723723
 30
1.82231734
 40
18.223173404
  1
Ｍ
 50
0.0
 41
0.9
 51
0.0
  7
KANJI32
  0
LINE
  8
0
  6
CONTINUOUS
 62
     6
 10
159.432750681
 20
807.427404191
 30
0.0
 11
170.731118192
 21
820.548089042
 31
0.0
  0
LINE
  8
0
  6
CONTINUOUS
 62
     6
 10
159.432750681
 20
858.452289723
 30
0.0
 11
170.731118192
 21
845.331604872
 31
0.0
  0
LINE
  8
0
  6
CONTINUOUS
 62
     6
 10
159.432750681
 20
858.452289723
 30
0.0
 11
143.031894617
 21
858.452289723
 31
0.0
  0
LINE
  8
0
  6
CONTINUOUS
 62
     6
 10
165.628629639
 20
832.939846957
 30
0.0
 11
143.031894617
 21
832.939846957
 31
0.0
  0
LINE
  8
0
  6
CONTINUOUS
 62
     6
 10
159.432750681
 20
807.427404191
 30
0.0
 11
143.031894617
 21
807.427404191
 31
0.0
  0
TEXT
  8
0
  6
CONTINUOUS
 62
     6
 10
122.216980995
 20
838.771262446
 30
1.093390404
 40
10.933904043
  1
Ｖ
 50
0.0
 41
0.9
 51
0.0
  7
KANJI30
  0
TEXT
  8
0
  6
CONTINUOUS
 62
     6
 10
123.310371399
 20
812.894356212
 30
1.093390404
 40
10.933904043
  1
Ｗ
 50
0.0
 41
0.9
 51
0.0
  7
KANJI30
  0
CIRCLE
  8
0
  6
CONTINUOUS
 62
     6
 10
138.658333
 20
832.939846957
 30
0.0
 40
4.373561617
  0
LINE
  8
0
  6
CONTINUOUS
 62
     6
 10
133.63354931
 20
827.915063267
 30
0.0
 11
143.838526417
 21
838.120040374
 31
0.0
  0
LINE
  8
0
  6
LTYPE4
 62
     6
 10
138.658333
 20
854.443191574
 30
0.0
 11
138.658333
 21
836.22001817
 31
0.0
  0
CIRCLE
  8
0
  6
CONTINUOUS
 62
     6
 10
138.658333
 20
807.427404191
 30
0.0
 40
4.373561617
  0
LINE
  8
0
  6
CONTINUOUS
 62
     6
 10
133.63354931
 20
802.402620501
 30
0.0
 11
143.838526417
 21
812.607597607
 31
0.0
  0
LINE
  8
0
  6
LTYPE4
 62
     6
 10
138.658333
 20
828.930748808
 30
0.0
 11
138.658333
 21
811.800965808
 31
0.0
  0
LINE
  8
0
  6
LTYPE4
 62
     6
 10
269.055262694
 20
782.721584891
 30
0.0
 11
138.658333
 21
782.721584891
 31
0.0
  0
LINE
  8
0
  6
LTYPE4
 62
     6
 10
138.658333
 20
803.053842574
 30
0.0
 11
138.658333
 21
782.721584891
 31
0.0
  0
TEXT
  8
0
  6
CONTINUOUS
 62
     2
 10
143.753726364
 20
757.512221811
 30
0.0
 40
15.6
  1
モーター結線図
 50
0.0
 41
0.925
 51
0.0
  7
KANJI33
  0
TEXT
  8
0
  6
CONTINUOUS
 62
     6
 10
209.412021562
 20
824.684749405
 30
1.457853872
 40
14.578538724
  1
Ｂ
 50
0.0
 41
0.9
 51
0.0
  7
KANJI34
  0
CIRCLE
  8
0
  6
CONTINUOUS
 62
     6
 10
215.972363988
 20
832.939846957
 30
0.0
 40
14.578538724
  0
TEXT
  8
2
  6
CONTINUOUS
 62
     2
 10
225.55
 20
716.3
 30
1.2
 40
16.0
  1
手動軸カバー
 50
0.0
 41
0.925
 51
0.0
  7
KANJI35
  0
ARC
  8
0
  6
CONTINUOUS
 62
     2
 10
205.25
 20
577.5
 30
0.0
 40
20.0
 50
231.952957468
 51
156.801409486
  0
TEXT
  8
0
  6
CONTINUOUS
 62
     2
 10
124.8670994
 20
568.378385972
 30
0.0
 40
15.0
  1
前進方向
 50
0.0
 41
0.9
 51
0.0
  7
KANJI1
  0
LINE
  8
0
  6
CONTINUOUS
 62
     2
 10
186.8670994
 20
585.378385972
 30
0.0
 11
189.16179211
 21
595.215824749
 31
0.0
  0
LINE
  8
0
  6
CONTINUOUS
 62
     2
 10
186.8670994
 20
585.378385972
 30
0.0
 11
195.135260778
 21
590.285722507
 31
0.0
  0
LINE
  8
0
  6
CONTINUOUS
 62
     2
 10
315.35
 20
712.3
 30
0.0
 11
217.35
 21
712.3
 31
0.0
  0
LINE
  8
0
  6
CONTINUOUS
 62
     2
 10
534.750007629
 20
636.0
 30
0.0
 11
254.35
 21
636.0
 31
0.0
  0
LINE
  8
0
  6
CONTINUOUS
 62
     2
 10
264.35
 20
636.0
 30
0.0
 11
261.114761936
 21
623.925927171
 31
0.0
  0
LINE
  8
0
  6
CONTINUOUS
 62
     2
 10
264.35
 20
636.0
 30
0.0
 11
267.585238064
 21
623.925927171
 31
0.0
  0
LINE
  8
0
  6
CONTINUOUS
 62
     2
 10
264.35
 20
636.0
 30
0.0
 11
264.35
 21
514.0
 31
0.0
  0
LINE
  8
0
  6
CONTINUOUS
 62
     2
 10
264.35
 20
514.0
 30
0.0
 11
267.585238064
 21
526.074072829
 31
0.0
  0
LINE
  8
0
  6
CONTINUOUS
 62
     2
 10
264.35
 20
514.0
 30
0.0
 11
261.114761936
 21
526.074072829
 31
0.0
  0
LINE
  8
0
  6
CONTINUOUS
 62
     2
 10
534.75001079
 20
514.0
 30
0.0
 11
254.35
 21
514.0
 31
0.0
  0
TEXT
  8
0
  6
CONTINUOUS
 62
     3
 10
261.35
 20
548.0
 30
0.0
 40
15.0
  1
□１２２
 50
90.0
 41
0.9
 51
0.0
  7
KANJI1
  0
TEXT
  8
0
  6
CONTINUOUS
 62
     2
 10
315.25
 20
444.5
 30
0.0
 40
20.0
  1
ブレーキ解放装置はありません。
 50
0.0
 41
0.925
 51
0.0
  7
KANJI36
  0
TEXT
  8
0
  6
CONTINUOUS
 62
     2
 10
316.25
 20
419.5
 30
0.0
 40
20.0
  1
そのまま手動操作をして下さい．
 50
0.0
 41
0.925
 51
0.0
  7
KANJI36
  0
LINE
  8
0
  6
CONTINUOUS
 62
     2
 10
1138.25
 20
648.5
 30
0.0
 11
1126.175927171
 21
651.735238064
 31
0.0
  0
LINE
  8
0
  6
CONTINUOUS
 62
     2
 10
1138.25
 20
648.5
 30
0.0
 11
1126.175927171
 21
645.264761936
 31
0.0
  0
LINE
  8
0
  6
CONTINUOUS
 62
     2
 10
1138.25
 20
648.5
 30
0.0
 11
1097.25
 21
648.5
 31
0.0
  0
TEXT
  8
0
  6
CONTINUOUS
 62
     3
 10
1144.25
 20
642.5
 30
0.0
 40
20.0
  1
前進
 50
0.0
 41
0.925
 51
0.0
  7
KANJI36
  0
CIRCLE
  8
0
  6
CONTINUOUS
 62
     1
 10
1066.25
 20
575.0
 30
0.0
 40
15.0
  0
TEXT
  8
0
  6
CONTINUOUS
 62
     2
 10
1497.25
 20
590.5
 30
10.0
 40
20.0
  1
特記事項
 50
0.0
 41
0.9
 51
0.0
  7
KANJI37
  0
TEXT
  8
0
  6
CONTINUOUS
 62
     2
 10
1427.25
 20
550.5
 30
5.142857143
 40
18.0
  1
１。運転時は必ずピストンロッドの回転防止を行って下さい。
 50
0.0
 41
0.857142857
 51
0.0
  7
KANJI38
  0
TEXT
  8
0
  6
CONTINUOUS
 62
     2
 10
1427.25
 20
516.5
 30
5.13
 40
18.0
  1
２。モートル：全閉自冷かご形３０分定格
 50
0.0
 41
0.857222222
 51
0.0
  7
KANJI39
  0
TEXT
  8
0
  6
CONTINUOUS
 62
     2
 10
1426.9165915
 20
482.500003
 30
5.13
 40
18.0
  1
３。呼称ストロークは、機械的ストロークです。
 50
0.0
 41
0.857222222
 51
0.0
  7
KANJI39
  0
TEXT
  8
0
  6
CONTINUOUS
 62
     2
 10
1426.9165915
 20
453.750003
 30
5.13
 40
18.0
  1
　　必ず、常用はストローク両端に余裕を取って下さい。
 50
0.0
 41
0.857222222
 51
0.0
  7
KANJI39
  0
TEXT
  8
0
  6
CONTINUOUS
 62
     2
 10
1426.9165915
 20
419.750003
 30
5.13
 40
18.0
  1
　　前後の推奨余裕寸法は、各々４０ｍｍです。
 50
0.0
 41
0.857222222
 51
0.0
  7
KANJI39
  0
TEXT
  8
0
  6
CONTINUOUS
 62
     2
 10
887.4275
 20
1275.575
 30
1.3475
 40
13.475
  1
注意：サーマルリレー等の選定は、上記の値で選定して下さい。
 50
0.0
 41
0.9
 51
0.0
  7
KANJI40
  0
LINE
  8
0
  6
CONTINUOUS
 62
     2
 10
879.7275
 20
1271.725
 30
0.0
 11
1270.6275
 21
1271.725
 31
0.0
  0
LINE
  8
0
  6
CONTINUOUS
 62
     1
 10
1062.05
 20
562.7
 30
0.0
 11
1064.05
 21
562.4
 31
0.0
  0
LINE
  8
0
  6
CONTINUOUS
 62
     1
 10
1064.55
 20
567.1
 30
0.0
 11
1064.314615385
 21
565.530769231
 31
0.0
  0
LINE
  8
0
  6
CONTINUOUS
 62
     1
 10
1064.314615385
 20
565.530769231
 30
0.0
 11
1062.05
 21
562.7
 31
0.0
  0
LINE
  8
0
  6
CONTINUOUS
 62
     1
 10
1066.25
 20
565.1
 30
0.0
 11
1064.05
 21
562.4
 31
0.0
  0
LINE
  8
0
  6
CONTINUOUS
 62
     1
 10
1070.45
 20
562.7
 30
0.0
 11
1068.45
 21
562.4
 31
0.0
  0
LINE
  8
0
  6
CONTINUOUS
 62
     1
 10
1067.95
 20
567.1
 30
0.0
 11
1068.185384615
 21
565.530769231
 31
0.0
  0
LINE
  8
0
  6
CONTINUOUS
 62
     1
 10
1068.185384615
 20
565.530769231
 30
0.0
 11
1070.45
 21
562.7
 31
0.0
  0
LINE
  8
0
  6
CONTINUOUS
 62
     1
 10
1066.25
 20
565.1
 30
0.0
 11
1068.45
 21
562.4
 31
0.0
  0
CIRCLE
  8
0
  6
CONTINUOUS
 62
     1
 10
1066.249984741
 20
586.0
 30
0.0
 40
3.0
  0
LINE
  8
0
  6
CONTINUOUS
 62
     1
 10
450.25
 20
624.5
 30
0.0
 11
450.25
 21
581.5
 31
0.0
  0
LINE
  8
0
  6
CONTINUOUS
 62
     1
 10
450.25
 20
624.5
 30
0.0
 11
520.25
 21
624.5
 31
0.0
  0
TEXT
  8
0
  6
CONTINUOUS
 62
     2
 10
461.25
 20
586.5
 30
5.0
 40
20.0
  1
銘板
 50
0.0
 41
0.925
 51
0.0
  7
KANJI41
  0
LINE
  8
0
  6
CONTINUOUS
 62
     1
 10
520.25
 20
624.5
 30
0.0
 11
520.25
 21
581.5
 31
0.0
  0
LINE
  8
0
  6
CONTINUOUS
 62
     1
 10
450.25
 20
581.5
 30
0.0
 11
520.25
 21
581.5
 31
0.0
  0
LINE
  8
0
  6
CONTINUOUS
 62
     2
 10
1378.25
 20
572.5
 30
0.0
 11
1388.25
 21
572.5
 31
0.0
  0
LINE
  8
0
  6
CONTINUOUS
 62
     2
 10
1383.25
 20
572.5
 30
0.0
 11
1380.661809549
 21
562.840741737
 31
0.0
  0
LINE
  8
0
  6
CONTINUOUS
 62
     2
 10
1383.25
 20
572.5
 30
0.0
 11
1385.838190451
 21
562.840741737
 31
0.0
  0
LINE
  8
0
  6
CONTINUOUS
 62
     2
 10
1383.25
 20
572.5
 30
0.0
 11
1383.25
 21
511.5
 31
0.0
  0
LINE
  8
0
  6
CONTINUOUS
 62
     2
 10
1383.25
 20
511.5
 30
0.0
 11
1385.838190451
 21
521.159258263
 31
0.0
  0
LINE
  8
0
  6
CONTINUOUS
 62
     2
 10
1383.25
 20
511.5
 30
0.0
 11
1380.661809549
 21
521.159258263
 31
0.0
  0
LINE
  8
0
  6
CONTINUOUS
 62
     2
 10
1339.750015259
 20
511.5
 30
0.0
 11
1388.25
 21
511.5
 31
0.0
  0
TEXT
  8
0
  6
CONTINUOUS
 62
     3
 10
1380.75
 20
528.5
 30
0.0
 40
15.0
  1
６１
 50
90.0
 41
0.9
 51
0.0
  7
KANJI1
  0
LINE
  8
0
  6
CONTINUOUS
 62
     2
 10
1222.75
 20
516.500015259
 30
0.0
 11
1222.75
 21
405.5
 31
0.0
  0
LINE
  8
0
  6
CONTINUOUS
 62
     2
 10
1222.75
 20
410.5
 30
0.0
 11
1232.409258263
 21
407.911809549
 31
0.0
  0
LINE
  8
0
  6
CONTINUOUS
 62
     2
 10
1222.75
 20
410.5
 30
0.0
 11
1232.409258263
 21
413.088190451
 31
0.0
  0
LINE
  8
0
  6
CONTINUOUS
 62
     2
 10
1222.75
 20
410.5
 30
0.0
 11
1344.75
 21
410.5
 31
0.0
  0
LINE
  8
0
  6
CONTINUOUS
 62
     2
 10
1344.75
 20
410.5
 30
0.0
 11
1335.090741737
 21
413.088190451
 31
0.0
  0
LINE
  8
0
  6
CONTINUOUS
 62
     2
 10
1344.75
 20
410.5
 30
0.0
 11
1335.090741737
 21
407.911809549
 31
0.0
  0
LINE
  8
0
  6
CONTINUOUS
 62
     2
 10
1344.75
 20
516.5
 30
0.0
 11
1344.75
 21
405.5
 31
0.0
  0
TEXT
  8
0
  6
CONTINUOUS
 62
     3
 10
1263.5
 20
413.0
 30
0.0
 40
15.0
  1
１２２
 50
0.0
 41
0.9
 51
0.0
  7
KANJI1
  0
LINE
  8
0
  6
CONTINUOUS
 62
     2
 10
481.0
 20
208.0
 30
0.0
 11
488.72740661
 21
205.929447639
 31
0.0
  0
LINE
  8
0
  6
CONTINUOUS
 62
     2
 10
481.0
 20
208.0
 30
0.0
 11
488.72740661
 21
210.070552361
 31
0.0
  0
LINE
  8
0
  6
CONTINUOUS
 62
     2
 10
481.0
 20
208.0
 30
0.0
 11
618.6
 21
208.0
 31
0.0
  0
LINE
  8
0
  6
CONTINUOUS
 62
     2
 10
618.6
 20
208.0
 30
0.0
 11
610.87259339
 21
210.070552361
 31
0.0
  0
LINE
  8
0
  6
CONTINUOUS
 62
     2
 10
618.6
 20
208.0
 30
0.0
 11
610.87259339
 21
205.929447639
 31
0.0
  0
LINE
  8
0
  6
CONTINUOUS
 62
     2
 10
618.6
 20
206.8
 30
0.0
 11
618.6
 21
204.0
 31
0.0
  0
LINE
  8
0
  6
CONTINUOUS
 62
     2
 10
618.6
 20
208.0
 30
0.0
 11
626.32740661
 21
205.929447639
 31
0.0
  0
LINE
  8
0
  6
CONTINUOUS
 62
     2
 10
618.6
 20
208.0
 30
0.0
 11
626.32740661
 21
210.070552361
 31
0.0
  0
LINE
  8
0
  6
CONTINUOUS
 62
     2
 10
618.6
 20
208.0
 30
0.0
 11
821.0
 21
208.0
 31
0.0
  0
LINE
  8
0
  6
CONTINUOUS
 62
     2
 10
821.0
 20
208.0
 30
0.0
 11
813.27259339
 21
210.070552361
 31
0.0
  0
LINE
  8
0
  6
CONTINUOUS
 62
     2
 10
821.0
 20
208.0
 30
0.0
 11
813.27259339
 21
205.929447639
 31
0.0
  0
LINE
  8
0
  6
CONTINUOUS
 62
     2
 10
618.6
 20
181.670552361
 30
0.0
 11
610.87259339
 21
183.741104722
 31
0.0
  0
LINE
  8
0
  6
CONTINUOUS
 62
     2
 10
618.6
 20
181.670552361
 30
0.0
 11
610.87259339
 21
179.6
 31
0.0
  0
LINE
  8
0
  6
CONTINUOUS
 62
     2
 10
606.6
 20
181.670552361
 30
0.0
 11
618.6
 21
181.670552361
 31
0.0
  0
LINE
  8
0
  6
CONTINUOUS
 62
     2
 10
618.6
 20
181.670552361
 30
0.0
 11
639.4
 21
181.670552361
 31
0.0
  0
LINE
  8
0
  6
CONTINUOUS
 62
     2
 10
639.4
 20
181.670552361
 30
0.0
 11
647.12740661
 21
179.6
 31
0.0
  0
LINE
  8
0
  6
CONTINUOUS
 62
     2
 10
639.4
 20
181.670552361
 30
0.0
 11
647.12740661
 21
183.741104722
 31
0.0
  0
LINE
  8
0
  6
CONTINUOUS
 62
     2
 10
481.0
 20
156.4
 30
0.0
 11
481.0
 21
150.4
 31
0.0
  0
LINE
  8
0
  6
CONTINUOUS
 62
     2
 10
481.0
 20
154.4
 30
0.0
 11
488.72740661
 21
152.329447639
 31
0.0
  0
LINE
  8
0
  6
CONTINUOUS
 62
     2
 10
481.0
 20
154.4
 30
0.0
 11
488.72740661
 21
156.470552361
 31
0.0
  0
LINE
  8
0
  6
CONTINUOUS
 62
     2
 10
481.0
 20
154.4
 30
0.0
 11
639.4
 21
154.4
 31
0.0
  0
LINE
  8
0
  6
CONTINUOUS
 62
     2
 10
639.4
 20
154.4
 30
0.0
 11
631.67259339
 21
156.470552361
 31
0.0
  0
LINE
  8
0
  6
CONTINUOUS
 62
     2
 10
639.4
 20
154.4
 30
0.0
 11
631.67259339
 21
152.329447639
 31
0.0
  0
LINE
  8
0
  6
CONTINUOUS
 62
     2
 10
639.4
 20
155.6
 30
0.0
 11
639.4
 21
150.4
 31
0.0
  0
LINE
  8
0
  6
CONTINUOUS
 62
     2
 10
639.4
 20
154.4
 30
0.0
 11
647.12740661
 21
152.329447639
 31
0.0
  0
LINE
  8
0
  6
CONTINUOUS
 62
     2
 10
639.4
 20
154.4
 30
0.0
 11
647.12740661
 21
156.470552361
 31
0.0
  0
LINE
  8
0
  6
CONTINUOUS
 62
     2
 10
821.0
 20
150.8
 30
0.0
 11
821.0
 21
150.4
 31
0.0
  0
LINE
  8
0
  6
CONTINUOUS
 62
     2
 10
481.0
 20
125.2
 30
0.0
 11
488.72740661
 21
123.129447639
 31
0.0
  0
LINE
  8
0
  6
CONTINUOUS
 62
     2
 10
481.0
 20
125.2
 30
0.0
 11
488.72740661
 21
127.270552361
 31
0.0
  0
LINE
  8
0
  6
CONTINUOUS
 62
     2
 10
481.0
 20
125.2
 30
0.0
 11
798.6
 21
125.2
 31
0.0
  0
LINE
  8
0
  6
CONTINUOUS
 62
     2
 10
798.6
 20
125.2
 30
0.0
 11
790.87259339
 21
127.270552361
 31
0.0
  0
LINE
  8
0
  6
CONTINUOUS
 62
     2
 10
798.6
 20
125.2
 30
0.0
 11
790.87259339
 21
123.129447639
 31
0.0
  0
LINE
  8
0
  6
CONTINUOUS
 62
     2
 10
798.6
 20
126.0
 30
0.0
 11
798.6
 21
121.2
 31
0.0
  0
LINE
  8
0
  6
CONTINUOUS
 62
     2
 10
798.6
 20
125.2
 30
0.0
 11
790.87259339
 21
127.270552361
 31
0.0
  0
LINE
  8
0
  6
CONTINUOUS
 62
     2
 10
798.6
 20
125.2
 30
0.0
 11
790.87259339
 21
123.129447639
 31
0.0
  0
LINE
  8
0
  6
CONTINUOUS
 62
     2
 10
786.6
 20
125.2
 30
0.0
 11
798.6
 21
125.2
 31
0.0
  0
LINE
  8
0
  6
CONTINUOUS
 62
     2
 10
798.6
 20
125.2
 30
0.0
 11
821.0
 21
125.2
 31
0.0
  0
LINE
  8
0
  6
CONTINUOUS
 62
     2
 10
821.0
 20
125.2
 30
0.0
 11
828.72740661
 21
123.129447639
 31
0.0
  0
LINE
  8
0
  6
CONTINUOUS
 62
     2
 10
821.0
 20
125.2
 30
0.0
 11
828.72740661
 21
127.270552361
 31
0.0
  0
LINE
  8
0
  6
CONTINUOUS
 62
     2
 10
481.0
 20
218.8
 30
0.0
 11
481.0
 21
204.0
 31
0.0
  0
LINE
  8
0
  6
CONTINUOUS
 62
     2
 10
821.0
 20
218.8
 30
0.0
 11
821.0
 21
204.0
 31
0.0
  0
LINE
  8
0
  6
CONTINUOUS
 62
     2
 10
618.6
 20
207.6
 30
0.0
 11
618.6
 21
218.8
 31
0.0
  0
LINE
  8
0
  6
CONTINUOUS
 62
     2
 10
639.4
 20
194.470552361
 30
0.0
 11
639.4
 21
177.670552361
 31
0.0
  0
LINE
  8
0
  6
CONTINUOUS
 62
     2
 10
481.0
 20
204.0
 30
0.0
 11
481.0
 21
112.0
 31
0.0
  0
LINE
  8
0
  6
CONTINUOUS
 62
     2
 10
821.0
 20
208.0
 30
0.0
 11
821.0
 21
113.2
 31
0.0
  0
LINE
  8
0
  6
CONTINUOUS
 62
     2
 10
639.4
 20
181.670552361
 30
0.0
 11
639.4
 21
145.2
 31
0.0
  0
LINE
  8
0
  6
CONTINUOUS
 62
     2
 10
618.6
 20
208.0
 30
0.0
 11
618.6
 21
172.4
 31
0.0
  0
TEXT
  8
0
  6
CONTINUOUS
 62
     3
 10
522.8
 20
210.0
 30
0.0
 40
15.0
  1
ｍｉｎ．Ｌ
 50
0.0
 41
0.9
 51
0.0
  7
KANJI1
  0
TEXT
  8
0
  6
CONTINUOUS
 62
     3
 10
676.6
 20
210.0
 30
0.0
 40
15.0
  1
機械的ストローク
 50
0.0
 41
0.9
 51
0.0
  7
KANJI1
  0
TEXT
  8
0
  6
CONTINUOUS
 62
     3
 10
651.4
 20
183.670552361
 30
0.0
 40
15.0
  1
余裕
 50
0.0
 41
0.9
 51
0.0
  7
KANJI1
  0
TEXT
  8
0
  6
CONTINUOUS
 62
     3
 10
533.2
 20
156.4
 30
0.0
 40
15.0
  1
常用ｍｉｎ
 50
0.0
 41
0.9
 51
0.0
  7
KANJI1
  0
TEXT
  8
0
  6
CONTINUOUS
 62
     3
 10
692.4
 20
156.4
 30
0.0
 40
15.0
  1
常用ストローク
 50
0.0
 41
0.9
 51
0.0
  7
KANJI1
  0
TEXT
  8
0
  6
CONTINUOUS
 62
     3
 10
612.8
 20
127.2
 30
0.0
 40
15.0
  1
常用ｍａｘ
 50
0.0
 41
0.9
 51
0.0
  7
KANJI1
  0
TEXT
  8
0
  6
CONTINUOUS
 62
     3
 10
833.0
 20
127.2
 30
0.0
 40
15.0
  1
余裕
 50
0.0
 41
0.9
 51
0.0
  7
KANJI1
  0
LINE
  8
0
  6
CONTINUOUS
 62
     2
 10
639.4
 20
181.670552361
 30
0.0
 11
679.5
 21
181.670552361
 31
0.0
  0
LINE
  8
0
  6
CONTINUOUS
 62
     2
 10
821.0
 20
125.2
 30
0.0
 11
863.5
 21
125.2
 31
0.0
  0
LINE
  8
0
  6
CONTINUOUS
 62
     1
 10
853.25
 20
987.95
 30
0.0
 11
1501.25
 21
987.95
 31
0.0
  0
LINE
  8
0
  6
CONTINUOUS
 62
     1
 10
853.25
 20
1239.95
 30
0.0
 11
853.25
 21
987.95
 31
0.0
  0
LINE
  8
0
  6
CONTINUOUS
 62
     1
 10
1021.25
 20
1239.95
 30
0.0
 11
1021.25
 21
987.95
 31
0.0
  0
LINE
  8
0
  6
CONTINUOUS
 62
     2
 10
1101.25
 20
1239.95
 30
0.0
 11
1101.25
 21
987.95
 31
0.0
  0
LINE
  8
0
  6
CONTINUOUS
 62
     2
 10
1181.25
 20
1239.95
 30
0.0
 11
1181.25
 21
987.95
 31
0.0
  0
LINE
  8
0
  6
CONTINUOUS
 62
     2
 10
1261.25
 20
1239.95
 30
0.0
 11
1261.25
 21
987.95
 31
0.0
  0
LINE
  8
0
  6
CONTINUOUS
 62
     2
 10
1341.25
 20
1239.95
 30
0.0
 11
1341.25
 21
987.95
 31
0.0
  0
LINE
  8
0
  6
CONTINUOUS
 62
     2
 10
1421.25
 20
1239.95
 30
0.0
 11
1421.25
 21
987.95
 31
0.0
  0
LINE
  8
0
  6
CONTINUOUS
 62
     1
 10
1501.25
 20
1239.95
 30
0.0
 11
1501.25
 21
987.95
 31
0.0
  0
TEXT
  8
0
  6
CONTINUOUS
 62
     2
 10
866.25
 20
994.35
 30
0.8
 40
12.0
  1
ＭＣＥＤＢＢ０１－　　　Ｊ
 50
0.0
 41
0.833333333
 51
0.0
  7
KANJI25
  0
LINE
  8
0
  6
CONTINUOUS
 62
     2
 10
798.6
 20
167.0
 30
0.0
 11
798.6
 21
112.4
 31
0.0
  0
LINE
  8
0
  6
CONTINUOUS
 62
     2
 10
798.6
 20
154.4
 30
0.0
 11
790.87259339
 21
156.470552361
 31
0.0
  0
LINE
  8
0
  6
CONTINUOUS
 62
     2
 10
798.6
 20
154.4
 30
0.0
 11
790.87259339
 21
152.329447639
 31
0.0
  0
LINE
  8
0
  6
CONTINUOUS
 62
     2
 10
639.4
 20
154.4
 30
0.0
 11
798.6
 21
154.4
 31
0.0
  0
TEXT
  8
2
  6
CONTINUOUS
 62
     2
 10
225.55
 20
692.3
 30
1.2
 40
16.0
  1
手動軸□１０
 50
0.0
 41
0.925
 51
0.0
  7
KANJI35
  0
TEXT
  8
0
  6
CONTINUOUS
 62
     2
 10
1376.9166945
 20
102.999995
 30
1.5
 40
17.5
  1
０７．０９．２６
 50
0.0
 41
0.571428571
 51
0.0
  7
KANJI42
  0
TEXT
  8
0
  6
CONTINUOUS
 62
     2
 10
1607.25
 20
1278.5
 30
138.5
 40
17.5
  1
形式
 50
0.0
 41
0.9
 51
0.0
  7
KANJI43
  0
TEXT
  8
0
  6
CONTINUOUS
 62
     2
 10
1607.25
 20
1243.5
 30
138.5
 40
17.5
  1
推力
 50
0.0
 41
0.9
 51
0.0
  7
KANJI43
  0
TEXT
  8
0
  6
CONTINUOUS
 62
     2
 10
1607.25
 20
1103.5
 30
138.5
 40
17.5
  1
構造
 50
0.0
 41
0.9
 51
0.0
  7
KANJI43
  0
TEXT
  8
0
  6
CONTINUOUS
 62
     2
 10
1607.25
 20
683.5
 30
138.5
 40
17.5
  1
台数
 50
0.0
 41
0.9
 51
0.0
  7
KANJI43
  0
TEXT
  8
0
  6
CONTINUOUS
 62
     2
 10
1607.25
 20
718.5
 30
61.375
 40
17.5
  1
付属品
 50
0.0
 41
0.9
 51
0.0
  7
KANJI44
  0
TEXT
  8
0
  6
CONTINUOUS
 62
     2
 10
1607.25
 20
1033.5
 30
61.375
 40
17.5
  1
塗装色
 50
0.0
 41
0.9
 51
0.0
  7
KANJI44
  0
TEXT
  8
0
  6
CONTINUOUS
 62
     2
 10
1607.25
 20
1208.5
 30
22.8125
 40
17.5
  1
ストローク
 50
0.0
 41
0.9
 51
0.0
  7
KANJI45
  0
TEXT
  8
0
  6
CONTINUOUS
 62
     2
 10
1607.25
 20
1068.5
 30
9.958
 40
17.5
  1
過負荷安全装置
 50
0.0
 41
0.9
 51
0.0
  7
KANJI46
  0
TEXT
  8
0
  6
CONTINUOUS
 62
     2
 10
1632.25
 20
1318.0
 30
14.2497
 40
22.5
  1
マイティシリンダ仕様
 50
0.0
 41
0.9
 51
0.0
  7
KANJI47
  0
TEXT
  8
0
  6
CONTINUOUS
 62
     2
 10
1632.25
 20
998.5
 30
15.3125
 40
17.5
  1
出力　極数
 50
0.0
 41
0.9
 51
0.0
  7
KANJI48
  0
TEXT
  8
0
  6
CONTINUOUS
 62
     2
 10
1632.25
 20
963.5
 30
25.6665
 40
17.5
  1
電源電圧
 50
0.0
 41
0.9
 51
0.0
  7
KANJI49
  0
TEXT
  8
0
  6
CONTINUOUS
 62
     2
 10
1632.25
 20
928.5
 30
46.375
 40
17.5
  1
周波数
 50
0.0
 41
0.9
 51
0.0
  7
KANJI50
  0
TEXT
  8
0
  6
CONTINUOUS
 62
     2
 10
1632.25
 20
858.5
 30
46.375
 40
17.5
  1
絶縁級
 50
0.0
 41
0.9
 51
0.0
  7
KANJI50
  0
TEXT
  8
0
  6
CONTINUOUS
 62
     2
 10
1632.25
 20
893.5
 30
108.5
 40
17.5
  1
電流
 50
0.0
 41
0.9
 51
0.0
  7
KANJI51
  0
TEXT
  8
0
  6
CONTINUOUS
 62
     2
 10
1632.25
 20
788.5
 30
108.5
 40
17.5
  1
形式
 50
0.0
 41
0.9
 51
0.0
  7
KANJI51
  0
TEXT
  8
0
  6
CONTINUOUS
 62
     2
 10
1632.25
 20
753.5
 30
25.6665
 40
17.5
  1
操作方式
 50
0.0
 41
0.9
 51
0.0
  7
KANJI49
  0
TEXT
  8
0
  6
CONTINUOUS
 62
     2
 10
1592.25
 20
1138.5
 30
1.5
 40
17.5
  1
ピストンロッド回転トルク
 50
0.0
 41
0.9
 51
0.0
  7
KANJI52
  0
TEXT
  8
0
  6
CONTINUOUS
 62
     2
 10
1590.125
 20
1002.0
 30
11.0
 40
17.5
  1
モ　トル仕様
 50
0.0
 41
0.9
 51
0.0
  7
KANJI53
  0
TEXT
  8
0
  6
CONTINUOUS
 62
     2
 10
1589.0
 20
812.0
 30
0.857142857
 40
15.0
  1
ブレ　キ
 50
0.0
 41
0.9
 51
0.0
  7
KANJI54
  0
LINE
  8
0
  6
CONTINUOUS
 62
     2
 10
1588.75
 20
777.5
 30
0.0
 11
1588.75
 21
767.0
 31
0.0
  0
LINE
  8
0
  6
CONTINUOUS
 62
     2
 10
1588.75
 20
974.0
 30
0.0
 11
1588.75
 21
962.5
 31
0.0
  0
TEXT
  8
0
  6
CONTINUOUS
 62
     2
 10
1944.75
 20
1177.0
 30
0.1
 40
12.5
  1
ｍｍ／ｓｅｃ
 50
0.0
 41
0.8
 51
0.0
  7
KANJI55
  0
TEXT
  8
0
  6
CONTINUOUS
 62
     2
 10
1982.25
 20
1210.5
 30
0.1
 40
12.5
  1
ｍｍ
 50
0.0
 41
0.8
 51
0.0
  7
KANJI55
  0
TEXT
  8
0
  6
CONTINUOUS
 62
     2
 10
1989.25
 20
998.5
 30
10.982142857
 40
15.0
  1
Ｐ
 50
0.0
 41
0.9
 51
0.0
  7
KANJI56
  0
TEXT
  8
0
  6
CONTINUOUS
 62
     2
 10
1906.25
 20
998.5
 30
1.0
 40
15.0
  1
ＫＷ
 50
0.0
 41
0.857142857
 51
0.0
  7
KANJI57
  0
TEXT
  8
0
  6
CONTINUOUS
 62
     2
 10
1964.25
 20
998.5
 30
12.8125
 40
17.5
  1
４
 50
0.0
 41
0.9
 51
0.0
  7
KANJI58
  0
TEXT
  8
0
  6
CONTINUOUS
 62
     2
 10
1828.75
 20
1035.0
 30
0.5
 40
14.0
  1
マンセル
 50
0.0
 41
0.9
 51
0.0
  7
KANJI59
  0
TEXT
  8
0
  6
CONTINUOUS
 62
     2
 10
1887.25
 20
1036.0
 30
0.2
 40
14.0
  1
７．５ＧＹ５／４．５
 50
0.0
 41
0.785714286
 51
0.0
  7
KANJI60
  0
TEXT
  8
0
  6
CONTINUOUS
 62
     2
 10
1824.75
 20
789.0
 30
1.5
 40
14.0
  1
スプリング制動式電磁ブレーキ
 50
0.0
 41
0.8
 51
0.0
  7
KANJI61
  0
TEXT
  8
0
  6
CONTINUOUS
 62
     2
 10
1859.75
 20
753.5
 30
10.0
 40
17.5
  1
同時切り
 50
0.0
 41
0.9
 51
0.0
  7
KANJI62
  0
TEXT
  8
0
  6
CONTINUOUS
 62
     2
 10
1989.75
 20
963.5
 30
0.18
 40
15.0
  1
Ｖ
 50
0.0
 41
0.8
 51
0.0
  7
KANJI63
  0
TEXT
  8
0
  6
CONTINUOUS
 62
     2
 10
1980.75
 20
928.5
 30
0.18
 40
15.0
  1
Ｈｚ
 50
0.0
 41
0.8
 51
0.0
  7
KANJI63
  0
TEXT
  8
0
  6
CONTINUOUS
 62
     2
 10
1990.875
 20
894.625
 30
1.5
 40
15.0
  1
Ａ
 50
0.0
 41
0.9
 51
0.0
  7
KANJI64
  0
TEXT
  8
0
  6
CONTINUOUS
 62
     2
 10
1912.125
 20
860.875
 30
1.5
 40
15.0
  1
Ｅ
 50
0.0
 41
0.9
 51
0.0
  7
KANJI64
  0
LINE
  8
0
  6
CONTINUOUS
 62
     2
 10
1569.75
 20
744.5
 30
0.0
 11
2007.25
 21
744.5
 31
0.0
  0
LINE
  8
0
  6
CONTINUOUS
 62
     2
 10
1569.75
 20
1024.5
 30
0.0
 11
2007.25
 21
1024.5
 31
0.0
  0
LINE
  8
0
  6
CONTINUOUS
 62
     2
 10
1569.75
 20
814.5
 30
0.0
 11
2007.25
 21
814.5
 31
0.0
  0
LINE
  8
0
  6
CONTINUOUS
 62
     2
 10
1609.75
 20
779.5
 30
0.0
 11
2007.25
 21
779.5
 31
0.0
  0
LINE
  8
0
  6
CONTINUOUS
 62
     2
 10
1609.75
 20
849.5
 30
0.0
 11
2007.25
 21
849.5
 31
0.0
  0
LINE
  8
0
  6
CONTINUOUS
 62
     2
 10
1609.75
 20
884.5
 30
0.0
 11
2007.25
 21
884.5
 31
0.0
  0
LINE
  8
0
  6
CONTINUOUS
 62
     2
 10
1609.75
 20
954.5
 30
0.0
 11
2007.25
 21
954.5
 31
0.0
  0
LINE
  8
0
  6
CONTINUOUS
 62
     2
 10
1609.75
 20
919.5
 30
0.0
 11
2007.25
 21
919.5
 31
0.0
  0
LINE
  8
0
  6
CONTINUOUS
 62
     2
 10
1609.75
 20
989.5
 30
0.0
 11
2007.25
 21
989.5
 31
0.0
  0
LINE
  8
0
  6
CONTINUOUS
 62
     2
 10
1569.75
 20
1304.5
 30
0.0
 11
2007.25
 21
1304.5
 31
0.0
  0
LINE
  8
0
  6
CONTINUOUS
 62
     2
 10
1569.75
 20
1269.5
 30
0.0
 11
2007.25
 21
1269.5
 31
0.0
  0
LINE
  8
0
  6
CONTINUOUS
 62
     2
 10
1569.75
 20
1234.5
 30
0.0
 11
2007.25
 21
1234.5
 31
0.0
  0
LINE
  8
0
  6
CONTINUOUS
 62
     2
 10
1569.75
 20
1199.5
 30
0.0
 11
2007.25
 21
1199.5
 31
0.0
  0
LINE
  8
0
  6
CONTINUOUS
 62
     2
 10
1569.75
 20
1164.5
 30
0.0
 11
2007.25
 21
1164.5
 31
0.0
  0
LINE
  8
0
  6
CONTINUOUS
 62
     2
 10
1569.75
 20
1129.5
 30
0.0
 11
2007.25
 21
1129.5
 31
0.0
  0
LINE
  8
0
  6
CONTINUOUS
 62
     2
 10
1569.75
 20
1094.5
 30
0.0
 11
2007.25
 21
1094.5
 31
0.0
  0
LINE
  8
0
  6
CONTINUOUS
 62
     2
 10
1569.75
 20
1059.5
 30
0.0
 11
2007.25
 21
1059.5
 31
0.0
  0
LINE
  8
0
  6
CONTINUOUS
 62
     2
 10
1609.75
 20
1024.5
 30
0.0
 11
1609.75
 21
744.5
 31
0.0
  0
LINE
  8
0
  6
CONTINUOUS
 62
     1
 10
1569.75
 20
1354.5
 30
0.0
 11
2007.25
 21
1354.5
 31
0.0
  0
LINE
  8
0
  6
CONTINUOUS
 62
     2
 10
1569.75
 20
709.5
 30
0.0
 11
2007.25
 21
709.5
 31
0.0
  0
TEXT
  8
0
  6
CONTINUOUS
 62
     2
 10
1867.75
 20
964.0
 30
1.5
 40
15.0
  1
　　　／　
 50
0.0
 41
0.9
 51
0.0
  7
KANJI64
  0
TEXT
  8
0
  6
CONTINUOUS
 62
     2
 10
1882.125
 20
928.375
 30
1.5
 40
15.0
  1
　５０／６０
 50
0.0
 41
0.9
 51
0.0
  7
KANJI64
  0
TEXT
  8
0
  6
CONTINUOUS
 62
     2
 10
1856.75
 20
1104.0
 30
12.8125
 40
17.5
  1
全閉屋外形
 50
0.0
 41
0.9
 51
0.0
  7
KANJI58
  0
TEXT
  8
0
  6
CONTINUOUS
 62
     2
 10
1848.375
 20
999.625
 30
1.5
 40
15.0
  1
０．３
 50
0.0
 41
0.9
 51
0.0
  7
KANJI64
  0
TEXT
  8
0
  6
CONTINUOUS
 62
     2
 10
1849.25
 20
1243.5
 30
1.5
 40
15.0
  1
９８０Ｎ（１００ｋｇ）
 50
0.0
 41
0.9
 51
0.0
  7
KANJI64
  0
TEXT
  8
0
  6
CONTINUOUS
 62
     2
 10
1607.25
 20
1173.5
 30
5.0
 40
17.5
  1
公称速度（５０／６０Ｈｚ）
 50
0.0
 41
0.9
 51
0.0
  7
KANJI65
  0
TEXT
  8
0
  6
CONTINUOUS
 62
     2
 10
1825.75
 20
1277.625
 30
1.0
 40
15.0
  1
ＭＣＥＤＢＢ０１－　　Ｊ
 50
0.0
 41
0.833333333
 51
0.0
  7
KANJI66
  0
TEXT
  8
0
  6
CONTINUOUS
 62
     2
 10
1837.125
 20
1173.375
 30
1.5
 40
15.0
  1
　７５／９０
 50
0.0
 41
0.9
 51
0.0
  7
KANJI64
  0
LINE
  8
0
  6
CONTINUOUS
 62
     2
 10
1896.0
 20
1071.0
 30
0.0
 11
1918.5
 21
1071.0
 31
0.0
  0
TEXT
  8
0
  6
CONTINUOUS
 62
     2
 10
1827.875
 20
1138.375
 30
0.0
 40
15.0
  1
２．９Ｎ・ｍ（０．３ｋｇ・ｍ）
 50
0.0
 41
0.833333333
 51
0.0
  7
KANJI67
  0
TEXT
  8
0
  6
CONTINUOUS
 62
     2
 10
1607.25
 20
683.5
 30
138.5
 40
17.5
  1
台数
 50
0.0
 41
0.9
 51
0.0
  7
KANJI43
  0
LINE
  8
0
  6
CONTINUOUS
 62
     1
 10
1569.75
 20
639.5
 30
0.0
 11
2007.25
 21
639.5
 31
0.0
  0
LINE
  8
0
  6
CONTINUOUS
 62
     2
 10
1569.75
 20
674.5
 30
0.0
 11
2007.25
 21
674.5
 31
0.0
  0
TEXT
  8
0
  6
CONTINUOUS
 62
     2
 10
1607.25
 20
648.5
 30
5.0
 40
17.5
  1
概算重量（１台当り）
 50
0.0
 41
0.857142857
 51
0.0
  7
KANJI13
  0
TEXT
  8
0
  6
CONTINUOUS
 62
     2
 10
1961.25
 20
649.65
 30
0.0
 40
17.5
  1
ｋｇ
 50
0.0
 41
0.9
 51
0.0
  7
KANJI68
  0
LINE
  8
0
  6
CONTINUOUS
 62
     2
 10
1819.75
 20
1304.5
 30
0.0
 11
1819.75
 21
639.5
 31
0.0
  0
LINE
  8
0
  6
CONTINUOUS
 62
     1
 10
1569.75
 20
1354.5
 30
0.0
 11
1569.75
 21
639.5
 31
0.0
  0
ENDSEC
  0
EOF
