  0
SECTION
  2
HEADER
  9
$EXTMIN
 10
0.0
 20
0.0
 30
0.0
  9
$EXTMAX
 10
3360.0
 20
2376.0
 30
0.0
  9
$LIMMIN
 10
0.0
 20
0.0
  9
$LIMMAX
 10
3360.0
 20
2376.0
  9
$LTSCALE
 40
1.0
  9
$PDMODE
 70
     0
  0
ENDSEC
  0
SECTION
  2
TABLES
  0
TABLE
  2
LTYPE
 70
     6
  0
LTYPE
  2
CONTINUOUS
 70
    64
  3
Solid line
 72
    65
 73
     0
 40
0.0
  0
LTYPE
  2
LTYPE1
 70
    64
  3
HIDDEN
 72
    65
 73
     2
 40
24.0
 49
14.4
 49
-9.6
  0
LTYPE
  2
LTYPE2
 70
    64
  3
CENTER
 72
    65
 73
     4
 40
80.0
 49
56.0
 49
-8.0
 49
8.0
 49
-8.0
  0
LTYPE
  2
LTYPE3
 70
    64
  3
CENTER
 72
    65
 73
     4
 40
120.0
 49
84.0
 49
-12.0
 49
12.0
 49
-12.0
  0
LTYPE
  2
LTYPE4
 70
    64
  3
PHANTOM
 72
    65
 73
     6
 40
120.0
 49
90.0
 49
-6.0
 49
6.0
 49
-6.0
 49
6.0
 49
-6.0
  0
LTYPE
  2
LTYPE5
 70
    64
  3
CENTER
 72
    65
 73
     4
 40
160.0
 49
112.0
 49
-16.0
 49
16.0
 49
-16.0
  0
ENDTAB
  0
TABLE
  2
LAYER
 70
   128
  0
LAYER
  2
0
 70
     0
 62
     7
  6
CONTINUOUS
  0
LAYER
  2
2
 70
     0
 62
     7
  6
CONTINUOUS
  0
LAYER
  2
3
 70
     0
 62
     7
  6
CONTINUOUS
  0
LAYER
  2
4
 70
     0
 62
     7
  6
CONTINUOUS
  0
LAYER
  2
5
 70
     0
 62
     7
  6
CONTINUOUS
  0
LAYER
  2
6
 70
     0
 62
     7
  6
CONTINUOUS
  0
LAYER
  2
7
 70
     0
 62
     7
  6
CONTINUOUS
  0
LAYER
  2
8
 70
     0
 62
     7
  6
CONTINUOUS
  0
LAYER
  2
9
 70
     0
 62
     7
  6
CONTINUOUS
  0
LAYER
  2
10
 70
     0
 62
     7
  6
CONTINUOUS
  0
LAYER
  2
11
 70
     0
 62
     7
  6
CONTINUOUS
  0
LAYER
  2
12
 70
     0
 62
     7
  6
CONTINUOUS
  0
LAYER
  2
13
 70
     0
 62
     7
  6
CONTINUOUS
  0
LAYER
  2
14
 70
     0
 62
     7
  6
CONTINUOUS
  0
LAYER
  2
15
 70
     0
 62
     7
  6
CONTINUOUS
  0
LAYER
  2
16
 70
     0
 62
     7
  6
CONTINUOUS
  0
LAYER
  2
17
 70
     0
 62
     7
  6
CONTINUOUS
  0
LAYER
  2
18
 70
     0
 62
     7
  6
CONTINUOUS
  0
LAYER
  2
19
 70
     0
 62
     7
  6
CONTINUOUS
  0
LAYER
  2
20
 70
     0
 62
     7
  6
CONTINUOUS
  0
LAYER
  2
21
 70
     0
 62
     7
  6
CONTINUOUS
  0
LAYER
  2
22
 70
     0
 62
     7
  6
CONTINUOUS
  0
LAYER
  2
23
 70
     0
 62
     7
  6
CONTINUOUS
  0
LAYER
  2
24
 70
     0
 62
     7
  6
CONTINUOUS
  0
LAYER
  2
25
 70
     0
 62
     7
  6
CONTINUOUS
  0
LAYER
  2
26
 70
     0
 62
     7
  6
CONTINUOUS
  0
LAYER
  2
27
 70
     0
 62
     7
  6
CONTINUOUS
  0
LAYER
  2
28
 70
     0
 62
     7
  6
CONTINUOUS
  0
LAYER
  2
29
 70
     0
 62
     7
  6
CONTINUOUS
  0
LAYER
  2
30
 70
     0
 62
     7
  6
CONTINUOUS
  0
LAYER
  2
31
 70
     0
 62
     7
  6
CONTINUOUS
  0
LAYER
  2
32
 70
     0
 62
     7
  6
CONTINUOUS
  0
LAYER
  2
33
 70
     0
 62
     7
  6
CONTINUOUS
  0
LAYER
  2
34
 70
     0
 62
     7
  6
CONTINUOUS
  0
LAYER
  2
35
 70
     0
 62
     7
  6
CONTINUOUS
  0
LAYER
  2
36
 70
     0
 62
     7
  6
CONTINUOUS
  0
LAYER
  2
37
 70
     0
 62
     7
  6
CONTINUOUS
  0
LAYER
  2
38
 70
     0
 62
     7
  6
CONTINUOUS
  0
LAYER
  2
39
 70
     0
 62
     7
  6
CONTINUOUS
  0
LAYER
  2
40
 70
     0
 62
     7
  6
CONTINUOUS
  0
LAYER
  2
41
 70
     0
 62
     7
  6
CONTINUOUS
  0
LAYER
  2
42
 70
     0
 62
     7
  6
CONTINUOUS
  0
LAYER
  2
43
 70
     0
 62
     7
  6
CONTINUOUS
  0
LAYER
  2
44
 70
     0
 62
     7
  6
CONTINUOUS
  0
LAYER
  2
45
 70
     0
 62
     7
  6
CONTINUOUS
  0
LAYER
  2
46
 70
     0
 62
     7
  6
CONTINUOUS
  0
LAYER
  2
47
 70
     0
 62
     7
  6
CONTINUOUS
  0
LAYER
  2
48
 70
     0
 62
     7
  6
CONTINUOUS
  0
LAYER
  2
49
 70
     0
 62
     7
  6
CONTINUOUS
  0
LAYER
  2
50
 70
     0
 62
     7
  6
CONTINUOUS
  0
LAYER
  2
51
 70
     0
 62
     7
  6
CONTINUOUS
  0
LAYER
  2
52
 70
     0
 62
     7
  6
CONTINUOUS
  0
LAYER
  2
53
 70
     0
 62
     7
  6
CONTINUOUS
  0
LAYER
  2
54
 70
     0
 62
     7
  6
CONTINUOUS
  0
LAYER
  2
55
 70
     0
 62
     7
  6
CONTINUOUS
  0
LAYER
  2
56
 70
     0
 62
     7
  6
CONTINUOUS
  0
LAYER
  2
57
 70
     0
 62
     7
  6
CONTINUOUS
  0
LAYER
  2
58
 70
     0
 62
     7
  6
CONTINUOUS
  0
LAYER
  2
59
 70
     0
 62
     7
  6
CONTINUOUS
  0
LAYER
  2
60
 70
     0
 62
     7
  6
CONTINUOUS
  0
LAYER
  2
61
 70
     0
 62
     7
  6
CONTINUOUS
  0
LAYER
  2
62
 70
     0
 62
     7
  6
CONTINUOUS
  0
LAYER
  2
63
 70
     0
 62
     7
  6
CONTINUOUS
  0
LAYER
  2
64
 70
     0
 62
     7
  6
CONTINUOUS
  0
LAYER
  2
65
 70
     0
 62
     7
  6
CONTINUOUS
  0
LAYER
  2
66
 70
     0
 62
     7
  6
CONTINUOUS
  0
LAYER
  2
67
 70
     0
 62
     7
  6
CONTINUOUS
  0
LAYER
  2
68
 70
     0
 62
     7
  6
CONTINUOUS
  0
LAYER
  2
69
 70
     0
 62
     7
  6
CONTINUOUS
  0
LAYER
  2
70
 70
     0
 62
     7
  6
CONTINUOUS
  0
LAYER
  2
71
 70
     0
 62
     7
  6
CONTINUOUS
  0
LAYER
  2
72
 70
     0
 62
     7
  6
CONTINUOUS
  0
LAYER
  2
73
 70
     0
 62
     7
  6
CONTINUOUS
  0
LAYER
  2
74
 70
     0
 62
     7
  6
CONTINUOUS
  0
LAYER
  2
75
 70
     0
 62
     7
  6
CONTINUOUS
  0
LAYER
  2
76
 70
     0
 62
     7
  6
CONTINUOUS
  0
LAYER
  2
77
 70
     0
 62
     7
  6
CONTINUOUS
  0
LAYER
  2
78
 70
     0
 62
     7
  6
CONTINUOUS
  0
LAYER
  2
79
 70
     0
 62
     7
  6
CONTINUOUS
  0
LAYER
  2
80
 70
     0
 62
     7
  6
CONTINUOUS
  0
LAYER
  2
81
 70
     0
 62
     7
  6
CONTINUOUS
  0
LAYER
  2
82
 70
     0
 62
     7
  6
CONTINUOUS
  0
LAYER
  2
83
 70
     0
 62
     7
  6
CONTINUOUS
  0
LAYER
  2
84
 70
     0
 62
     7
  6
CONTINUOUS
  0
LAYER
  2
85
 70
     0
 62
     7
  6
CONTINUOUS
  0
LAYER
  2
86
 70
     0
 62
     7
  6
CONTINUOUS
  0
LAYER
  2
87
 70
     0
 62
     7
  6
CONTINUOUS
  0
LAYER
  2
88
 70
     0
 62
     7
  6
CONTINUOUS
  0
LAYER
  2
89
 70
     0
 62
     7
  6
CONTINUOUS
  0
LAYER
  2
90
 70
     0
 62
     7
  6
CONTINUOUS
  0
LAYER
  2
91
 70
     0
 62
     7
  6
CONTINUOUS
  0
LAYER
  2
92
 70
     0
 62
     7
  6
CONTINUOUS
  0
LAYER
  2
93
 70
     0
 62
     7
  6
CONTINUOUS
  0
LAYER
  2
94
 70
     0
 62
     7
  6
CONTINUOUS
  0
LAYER
  2
95
 70
     0
 62
     7
  6
CONTINUOUS
  0
LAYER
  2
96
 70
     0
 62
     7
  6
CONTINUOUS
  0
LAYER
  2
97
 70
     0
 62
     7
  6
CONTINUOUS
  0
LAYER
  2
98
 70
     0
 62
     7
  6
CONTINUOUS
  0
LAYER
  2
99
 70
     0
 62
     7
  6
CONTINUOUS
  0
LAYER
  2
100
 70
     0
 62
     7
  6
CONTINUOUS
  0
LAYER
  2
101
 70
     0
 62
     7
  6
CONTINUOUS
  0
LAYER
  2
102
 70
     0
 62
     7
  6
CONTINUOUS
  0
LAYER
  2
103
 70
     0
 62
     7
  6
CONTINUOUS
  0
LAYER
  2
104
 70
     0
 62
     7
  6
CONTINUOUS
  0
LAYER
  2
105
 70
     0
 62
     7
  6
CONTINUOUS
  0
LAYER
  2
106
 70
     0
 62
     7
  6
CONTINUOUS
  0
LAYER
  2
107
 70
     0
 62
     7
  6
CONTINUOUS
  0
LAYER
  2
108
 70
     0
 62
     7
  6
CONTINUOUS
  0
LAYER
  2
109
 70
     0
 62
     7
  6
CONTINUOUS
  0
LAYER
  2
110
 70
     0
 62
     7
  6
CONTINUOUS
  0
LAYER
  2
111
 70
     0
 62
     7
  6
CONTINUOUS
  0
LAYER
  2
112
 70
     0
 62
     7
  6
CONTINUOUS
  0
LAYER
  2
113
 70
     0
 62
     7
  6
CONTINUOUS
  0
LAYER
  2
114
 70
     0
 62
     7
  6
CONTINUOUS
  0
LAYER
  2
115
 70
     0
 62
     7
  6
CONTINUOUS
  0
LAYER
  2
116
 70
     0
 62
     7
  6
CONTINUOUS
  0
LAYER
  2
117
 70
     0
 62
     7
  6
CONTINUOUS
  0
LAYER
  2
118
 70
     0
 62
     7
  6
CONTINUOUS
  0
LAYER
  2
119
 70
     0
 62
     7
  6
CONTINUOUS
  0
LAYER
  2
120
 70
     0
 62
     7
  6
CONTINUOUS
  0
LAYER
  2
121
 70
     0
 62
     7
  6
CONTINUOUS
  0
LAYER
  2
122
 70
     0
 62
     7
  6
CONTINUOUS
  0
LAYER
  2
123
 70
     0
 62
     7
  6
CONTINUOUS
  0
LAYER
  2
124
 70
     0
 62
     7
  6
CONTINUOUS
  0
LAYER
  2
125
 70
     0
 62
     7
  6
CONTINUOUS
  0
LAYER
  2
126
 70
     0
 62
     7
  6
CONTINUOUS
  0
LAYER
  2
127
 70
     0
 62
     7
  6
CONTINUOUS
  0
LAYER
  2
128
 70
     0
 62
     7
  6
CONTINUOUS
  0
ENDTAB
  0
TABLE
  2
STYLE
 70
    65
  0
STYLE
  2
STANDARD
 70
     0
 40
0.0
 41
1.0
 50
0.0
 71
     0
 42
0.2
  3
txt
  4

  0
STYLE
  2
KANJI0
 70
     0
 40
40.0
 41
1.0
 50
0.0
 71
     0
 42
40.0
  3

  4
bigfont
  0
STYLE
  2
KANJI1
 70
     0
 40
40.0
 41
1.0
 50
0.0
 71
     0
 42
40.0
  3

  4
bigfont
  0
STYLE
  2
KANJI2
 70
     0
 40
24.0
 41
0.9
 50
0.0
 71
     0
 42
24.0
  3

  4
bigfont
  0
STYLE
  2
KANJI3
 70
     0
 40
24.0
 41
0.9
 50
0.0
 71
     0
 42
24.0
  3

  4
bigfont
  0
STYLE
  2
KANJI4
 70
     0
 40
19.2
 41
0.777777778
 50
0.0
 71
     0
 42
19.2
  3

  4
bigfont
  0
STYLE
  2
KANJI5
 70
     0
 40
25.6
 41
0.9
 50
0.0
 71
     0
 42
25.6
  3

  4
bigfont
  0
STYLE
  2
KANJI6
 70
     0
 40
32.0
 41
0.9
 50
0.0
 71
     0
 42
32.0
  3

  4
bigfont
  0
STYLE
  2
KANJI7
 70
     0
 40
28.8
 41
0.857142857
 50
0.0
 71
     0
 42
28.8
  3

  4
bigfont
  0
STYLE
  2
KANJI8
 70
     0
 40
28.8
 41
0.857222222
 50
0.0
 71
     0
 42
28.8
  3

  4
bigfont
  0
STYLE
  2
KANJI9
 70
     0
 40
28.0
 41
0.9
 50
0.0
 71
     0
 42
28.0
  3

  4
bigfont
  0
STYLE
  2
KANJI10
 70
     0
 40
15.999996636
 41
0.6
 50
0.0
 71
     0
 42
15.999996636
  3

  4
bigfont
  0
STYLE
  2
KANJI11
 70
     0
 40
19.199995963
 41
0.9
 50
0.0
 71
     0
 42
19.199995963
  3

  4
bigfont
  0
STYLE
  2
KANJI12
 70
     0
 40
13.8666656
 41
0.8
 50
0.0
 71
     0
 42
13.8666656
  3

  4
bigfont
  0
STYLE
  2
KANJI13
 70
     0
 40
13.8666656
 41
0.75
 50
0.0
 71
     0
 42
13.8666656
  3

  4
bigfont
  0
STYLE
  2
KANJI14
 70
     0
 40
16.63999872
 41
0.75
 50
0.0
 71
     0
 42
16.63999872
  3

  4
bigfont
  0
STYLE
  2
KANJI15
 70
     0
 40
16.63999872
 41
0.9
 50
0.0
 71
     0
 42
16.63999872
  3

  4
bigfont
  0
STYLE
  2
KANJI16
 70
     0
 40
16.63999872
 41
0.8
 50
0.0
 71
     0
 42
16.63999872
  3

  4
bigfont
  0
STYLE
  2
KANJI17
 70
     0
 40
20.7999984
 41
0.9
 50
0.0
 71
     0
 42
20.7999984
  3

  4
bigfont
  0
STYLE
  2
KANJI18
 70
     0
 40
13.8666656
 41
0.75
 50
0.0
 71
     0
 42
13.8666656
  3

  4
bigfont
  0
STYLE
  2
KANJI19
 70
     0
 40
20.7999984
 41
0.75
 50
0.0
 71
     0
 42
20.7999984
  3

  4
bigfont
  0
STYLE
  2
KANJI20
 70
     0
 40
12.47999904
 41
0.75
 50
0.0
 71
     0
 42
12.47999904
  3

  4
bigfont
  0
STYLE
  2
KANJI21
 70
     0
 40
13.8666656
 41
0.6
 50
0.0
 71
     0
 42
13.8666656
  3

  4
bigfont
  0
STYLE
  2
KANJI22
 70
     0
 40
16.63999872
 41
0.6
 50
0.0
 71
     0
 42
16.63999872
  3

  4
bigfont
  0
STYLE
  2
KANJI23
 70
     0
 40
13.8666656
 41
0.8
 50
0.0
 71
     0
 42
13.8666656
  3

  4
bigfont
  0
STYLE
  2
KANJI24
 70
     0
 40
16.63999872
 41
0.8
 50
0.0
 71
     0
 42
16.63999872
  3

  4
bigfont
  0
STYLE
  2
KANJI25
 70
     0
 40
20.7999984
 41
0.75
 50
0.0
 71
     0
 42
20.7999984
  3

  4
bigfont
  0
STYLE
  2
KANJI26
 70
     0
 40
69.333328
 41
0.9
 50
0.0
 71
     0
 42
69.333328
  3

  4
bigfont
  0
STYLE
  2
KANJI27
 70
     0
 40
23.999994954
 41
0.9
 50
0.0
 71
     0
 42
23.999994954
  3

  4
bigfont
  0
STYLE
  2
KANJI28
 70
     0
 40
24.2666648
 41
0.42031746
 50
0.0
 71
     0
 42
24.2666648
  3

  4
bigfont
  0
STYLE
  2
KANJI29
 70
     0
 40
41.5999968
 41
0.9
 50
0.0
 71
     0
 42
41.5999968
  3

  4
bigfont
  0
STYLE
  2
KANJI30
 70
     0
 40
36.0
 41
0.666666667
 50
0.0
 71
     0
 42
36.0
  3

  4
bigfont
  0
STYLE
  2
KANJI31
 70
     0
 40
36.0
 41
0.9
 50
0.0
 71
     0
 42
36.0
  3

  4
bigfont
  0
STYLE
  2
KANJI32
 70
     4
 40
28.0
 41
0.9
 50
0.0
 71
     0
 42
28.0
  3

  4
bigfont
  0
STYLE
  2
KANJI33
 70
     4
 40
24.0
 41
0.9
 50
0.0
 71
     0
 42
24.0
  3

  4
bigfont
  0
STYLE
  2
KANJI34
 70
     0
 40
28.0
 41
0.9
 50
0.0
 71
     0
 42
28.0
  3

  4
bigfont
  0
STYLE
  2
KANJI35
 70
     0
 40
24.0
 41
0.9
 50
0.0
 71
     0
 42
24.0
  3

  4
bigfont
  0
STYLE
  2
KANJI36
 70
     0
 40
24.0
 41
0.857142857
 50
0.0
 71
     0
 42
24.0
  3

  4
bigfont
  0
STYLE
  2
KANJI37
 70
     0
 40
28.0
 41
0.9
 50
0.0
 71
     0
 42
28.0
  3

  4
bigfont
  0
STYLE
  2
KANJI38
 70
     0
 40
22.4
 41
0.9
 50
0.0
 71
     0
 42
22.4
  3

  4
bigfont
  0
STYLE
  2
KANJI39
 70
     0
 40
22.4
 41
0.785714286
 50
0.0
 71
     0
 42
22.4
  3

  4
bigfont
  0
STYLE
  2
KANJI40
 70
     0
 40
22.4
 41
0.8
 50
0.0
 71
     0
 42
22.4
  3

  4
bigfont
  0
STYLE
  2
KANJI41
 70
     0
 40
24.0
 41
0.8
 50
0.0
 71
     0
 42
24.0
  3

  4
bigfont
  0
STYLE
  2
KANJI42
 70
     0
 40
30.4
 41
0.9
 50
0.0
 71
     0
 42
30.4
  3

  4
bigfont
  0
STYLE
  2
KANJI43
 70
     0
 40
30.4
 41
0.9
 50
0.0
 71
     0
 42
30.4
  3

  4
bigfont
  0
STYLE
  2
KANJI44
 70
     0
 40
30.4
 41
0.9
 50
0.0
 71
     0
 42
30.4
  3

  4
bigfont
  0
STYLE
  2
KANJI45
 70
     0
 40
30.4
 41
0.9
 50
0.0
 71
     0
 42
30.4
  3

  4
bigfont
  0
STYLE
  2
KANJI46
 70
     0
 40
30.4
 41
0.9
 50
0.0
 71
     0
 42
30.4
  3

  4
bigfont
  0
STYLE
  2
KANJI47
 70
     0
 40
30.4
 41
0.9
 50
0.0
 71
     0
 42
30.4
  3

  4
bigfont
  0
STYLE
  2
KANJI48
 70
     0
 40
30.4
 41
0.9
 50
0.0
 71
     0
 42
30.4
  3

  4
bigfont
  0
STYLE
  2
KANJI49
 70
     0
 40
30.4
 41
0.9
 50
0.0
 71
     0
 42
30.4
  3

  4
bigfont
  0
STYLE
  2
KANJI50
 70
     0
 40
30.4
 41
0.9
 50
0.0
 71
     0
 42
30.4
  3

  4
bigfont
  0
STYLE
  2
KANJI51
 70
     0
 40
30.4
 41
0.9
 50
0.0
 71
     0
 42
30.4
  3

  4
bigfont
  0
STYLE
  2
KANJI52
 70
     0
 40
22.4
 41
0.8
 50
0.0
 71
     0
 42
22.4
  3

  4
bigfont
  0
STYLE
  2
KANJI53
 70
     0
 40
28.0
 41
0.914285714
 50
0.0
 71
     0
 42
28.0
  3

  4
bigfont
  0
STYLE
  2
KANJI54
 70
     0
 40
28.0
 41
0.793650794
 50
0.0
 71
     0
 42
28.0
  3

  4
bigfont
  0
STYLE
  2
KANJI55
 70
     0
 40
24.0
 41
0.9
 50
0.0
 71
     0
 42
24.0
  3

  4
bigfont
  0
STYLE
  2
KANJI56
 70
     0
 40
24.0
 41
0.9
 50
0.0
 71
     0
 42
24.0
  3

  4
bigfont
  0
STYLE
  2
KANJI57
 70
     0
 40
24.0
 41
1.0
 50
0.0
 71
     0
 42
24.0
  3

  4
bigfont
  0
STYLE
  2
KANJI58
 70
     0
 40
24.0
 41
0.9
 50
0.0
 71
     0
 42
24.0
  3

  4
bigfont
  0
STYLE
  2
KANJI59
 70
     0
 40
40.0
 41
0.8
 50
0.0
 71
     0
 42
40.0
  3

  4
bigfont
  0
STYLE
  2
KANJI60
 70
     0
 40
23.9994
 41
0.9
 50
0.0
 71
     0
 42
23.9994
  3

  4
bigfont
  0
STYLE
  2
KANJI61
 70
     0
 40
27.9993
 41
0.9
 50
0.0
 71
     0
 42
27.9993
  3

  4
bigfont
  0
STYLE
  2
KANJI62
 70
     0
 40
24.0
 41
0.833333333
 50
0.0
 71
     0
 42
24.0
  3

  4
bigfont
  0
STYLE
  2
KANJI63
 70
     0
 40
28.0
 41
0.857142857
 50
0.0
 71
     0
 42
28.0
  3

  4
bigfont
  0
ENDTAB
  0
TABLE
  2
VIEW
 70
     0
  0
ENDTAB
  0
ENDSEC
  0
SECTION
  2
BLOCKS
  0
ENDSEC
  0
SECTION
  2
ENTITIES
  0
LINE
  8
0
  6
CONTINUOUS
 62
     4
 10
3248.0
 20
-56.0
 11
2456.0
 21
-56.0
  0
LINE
  8
0
  6
CONTINUOUS
 62
     4
 10
3248.0
 20
-136.0
 11
2456.0
 21
-136.0
  0
LINE
  8
0
 62
    99
 10
665.0
 20
0.0
 11
665.0
 21
2376.0
  0
LINE
  8
0
 62
    99
 10
0.0
 20
620.0
 11
3360.0
 21
620.0
  0
LINE
  8
0
 62
    99
 10
0.0
 20
566.0
 11
3360.0
 21
566.0
  0
LINE
  8
0
 62
    99
 10
0.0
 20
509.0
 11
3360.0
 21
509.0
  0
LINE
  8
0
 62
    99
 10
0.0
 20
451.0
 11
3360.0
 21
451.0
  0
LINE
  8
0
 62
    99
 10
0.0
 20
394.0
 11
3360.0
 21
394.0
  0
LINE
  8
0
 62
    99
 10
0.0
 20
336.0
 11
3360.0
 21
336.0
  0
TEXT
  8
0
  6
CONTINUOUS
 62
     2
 10
2844.0
 20
292.0
 30
20.0
 40
40.0
  1
外形寸法図
 50
0.0
 41
1.0
 51
0.0
  7
KANJI0
  0
TEXT
  8
0
  6
CONTINUOUS
 62
     2
 10
2796.0
 20
340.0
 30
5.714285714
 40
40.0
  1
マイティシリンダ
 50
0.0
 41
1.0
 51
0.0
  7
KANJI1
  0
LINE
  8
0
  6
CONTINUOUS
 62
     1
 10
604.0
 20
732.0
 11
1844.0
 21
732.0
  0
LINE
  8
0
  6
CONTINUOUS
 62
     1
 10
604.0
 20
676.0
 11
1844.0
 21
676.0
  0
LINE
  8
0
  6
CONTINUOUS
 62
     1
 10
1844.0
 20
732.0
 11
1844.0
 21
340.0
  0
LINE
  8
0
  6
CONTINUOUS
 62
     1
 10
604.0
 20
340.0
 11
1844.0
 21
340.0
  0
LINE
  8
0
  6
CONTINUOUS
 62
     1
 10
604.0
 20
732.0
 11
604.0
 21
340.0
  0
LINE
  8
0
  6
CONTINUOUS
 62
     1
 10
884.0
 20
732.0
 11
884.0
 21
340.0
  0
LINE
  8
0
  6
CONTINUOUS
 62
     2
 10
1044.0
 20
732.0
 11
1044.0
 21
340.0
  0
LINE
  8
0
  6
CONTINUOUS
 62
     2
 10
1204.0
 20
732.0
 11
1204.0
 21
340.0
  0
LINE
  8
0
  6
CONTINUOUS
 62
     2
 10
1364.0
 20
732.0
 11
1364.0
 21
340.0
  0
LINE
  8
0
  6
CONTINUOUS
 62
     2
 10
1524.0
 20
732.0
 11
1524.0
 21
340.0
  0
LINE
  8
0
  6
CONTINUOUS
 62
     2
 10
1684.0
 20
732.0
 11
1684.0
 21
340.0
  0
LINE
  8
0
  6
CONTINUOUS
 62
     2
 10
604.0
 20
396.0
 11
1844.0
 21
396.0
  0
LINE
  8
0
  6
CONTINUOUS
 62
     2
 10
604.0
 20
620.0
 11
1844.0
 21
620.0
  0
LINE
  8
0
  6
CONTINUOUS
 62
     2
 10
604.0
 20
564.0
 11
1844.0
 21
564.0
  0
LINE
  8
0
  6
CONTINUOUS
 62
     2
 10
604.0
 20
508.0
 11
1844.0
 21
508.0
  0
LINE
  8
0
  6
CONTINUOUS
 62
     2
 10
604.0
 20
452.0
 11
1844.0
 21
452.0
  0
TEXT
  8
0
  6
CONTINUOUS
 62
     2
 10
904.8
 20
692.0
 30
2.4
 40
24.0
  1
ストローク
 50
0.0
 41
0.9
 51
0.0
  7
KANJI2
  0
TEXT
  8
0
  6
CONTINUOUS
 62
     2
 10
1058.4
 20
690.4
 30
0.0
 40
24.0
  1
ｍｉｎ　
 50
0.0
 41
0.9
 51
0.0
  7
KANJI3
  0
TEXT
  8
0
  6
CONTINUOUS
 62
     2
 10
1218.4
 20
690.4
 30
0.0
 40
24.0
  1
ｍｉｎ　
 50
0.0
 41
0.9
 51
0.0
  7
KANJI3
  0
TEXT
  8
0
  6
CONTINUOUS
 62
     2
 10
1538.4
 20
690.4
 30
0.0
 40
24.0
  1
ｍｉｎ　
 50
0.0
 41
0.9
 51
0.0
  7
KANJI3
  0
TEXT
  8
0
  6
CONTINUOUS
 62
     2
 10
1787.0
 20
693.8
 30
0.0
 40
19.2
  1
（ｋｇ）
 50
0.0
 41
0.777777778
 51
0.0
  7
KANJI4
  0
TEXT
  8
0
  6
CONTINUOUS
 62
     2
 10
1691.0
 20
691.0
 30
2.56
 40
25.6
  1
概算重量
 50
0.0
 41
0.9
 51
0.0
  7
KANJI5
  0
TEXT
  8
0
  6
CONTINUOUS
 62
     2
 10
660.0
 20
692.0
 30
2.56
 40
25.6
  1
形
 50
0.0
 41
0.9
 51
0.0
  7
KANJI5
  0
TEXT
  8
0
  6
CONTINUOUS
 62
     2
 10
816.0
 20
692.0
 30
2.56
 40
25.6
  1
式
 50
0.0
 41
0.9
 51
0.0
  7
KANJI5
  0
TEXT
  8
0
  6
CONTINUOUS
 62
     2
 10
2396.0
 20
913.6
 30
16.0
 40
32.0
  1
特記事項
 50
0.0
 41
0.9
 51
0.0
  7
KANJI6
  0
TEXT
  8
0
  6
CONTINUOUS
 62
     2
 10
2284.0
 20
849.6
 30
8.228571429
 40
28.8
  1
１。運転時は必ずピストンロッドの回転防止を行って下さい。
 50
0.0
 41
0.857142857
 51
0.0
  7
KANJI7
  0
TEXT
  8
0
  6
CONTINUOUS
 62
     2
 10
2284.0
 20
787.2
 30
8.208
 40
28.8
  1
２。モートル：全閉自冷かご形３０分定格
 50
0.0
 41
0.857222222
 51
0.0
  7
KANJI8
  0
TEXT
  8
0
  6
CONTINUOUS
 62
     2
 10
1140.0
 20
692.0
 30
2.8
 40
28.0
  1
ＡＬ
 50
0.0
 41
0.9
 51
0.0
  7
KANJI9
  0
TEXT
  8
0
  6
CONTINUOUS
 62
     2
 10
1300.0
 20
692.0
 30
2.8
 40
28.0
  1
Ｌ
 50
0.0
 41
0.9
 51
0.0
  7
KANJI9
  0
TEXT
  8
0
  6
CONTINUOUS
 62
     2
 10
1436.0
 20
692.0
 30
2.8
 40
28.0
  1
Ｃ
 50
0.0
 41
0.9
 51
0.0
  7
KANJI9
  0
TEXT
  8
0
  6
CONTINUOUS
 62
     2
 10
1620.0
 20
692.0
 30
2.8
 40
28.0
  1
Ｐ
 50
0.0
 41
0.9
 51
0.0
  7
KANJI9
  0
TEXT
  8
0
  6
CONTINUOUS
 62
     4
 10
139.999994954
 20
147.99999159
 30
1.599999664
 40
15.999996636
  1
ＰＡＲＴＳ　ＬＩＳＴ
 50
0.0
 41
0.6
 51
0.0
  7
KANJI10
  0
TEXT
  8
0
  6
CONTINUOUS
 62
     4
 10
499.999919262
 20
147.99999159
 30
1.599999664
 40
15.999996636
  1
Ｎ０．
 50
0.0
 41
0.6
 51
0.0
  7
KANJI10
  0
TEXT
  8
0
  6
CONTINUOUS
 62
     4
 10
139.999994954
 20
123.999996636
 30
1.919999596
 40
19.199995963
  1
部品表
 50
0.0
 41
0.9
 51
0.0
  7
KANJI11
  0
TEXT
  8
0
  6
CONTINUOUS
 62
     4
 10
499.999919262
 20
123.999996636
 30
1.919999596
 40
19.199995963
  1
項番
 50
0.0
 41
0.9
 51
0.0
  7
KANJI11
  0
LINE
  8
0
  6
CONTINUOUS
 62
     4
 10
2834.1333624
 20
2253.0666672
 11
2834.1333624
 21
2131.7333432
  0
LINE
  8
0
  6
CONTINUOUS
 62
     4
 10
2768.2667008
 20
2253.0666672
 11
2768.2667008
 21
2131.7333432
  0
LINE
  8
0
  6
CONTINUOUS
 62
     4
 10
2650.4000432
 20
2253.0666672
 11
2650.4000432
 21
2131.7333432
  0
LINE
  8
0
  6
CONTINUOUS
 62
     4
 10
2532.5333856
 20
2253.0666672
 11
2532.5333856
 21
2131.7333432
  0
LINE
  8
0
  6
CONTINUOUS
 62
     4
 10
2466.666724
 20
2253.0666672
 11
2466.666724
 21
2131.7333432
  0
LINE
  8
0
  6
CONTINUOUS
 62
     4
 10
2400.8000624
 20
2253.0666672
 11
2400.8000624
 21
2131.7333432
  0
TEXT
  8
0
  6
CONTINUOUS
 62
     4
 10
2282.9334048
 20
2228.8000024
 30
1.38666656
 40
13.8666656
  1
（μ）
 50
0.0
 41
0.8
 51
0.0
  7
KANJI12
  0
TEXT
  8
0
  6
CONTINUOUS
 62
     4
 10
2276.000072
 20
2201.0666712
 30
1.38666656
 40
13.8666656
  1
０．８－Ｓ
 50
0.0
 41
0.75
 51
0.0
  7
KANJI13
  0
TEXT
  8
0
  6
CONTINUOUS
 62
     4
 10
2341.8667336
 20
2201.0666712
 30
1.38666656
 40
13.8666656
  1
　６－Ｓ
 50
0.0
 41
0.75
 51
0.0
  7
KANJI13
  0
TEXT
  8
0
  6
CONTINUOUS
 62
     4
 10
2407.7333952
 20
2201.0666712
 30
1.38666656
 40
13.8666656
  1
２５－Ｓ
 50
0.0
 41
0.75
 51
0.0
  7
KANJI13
  0
TEXT
  8
0
  6
CONTINUOUS
 62
     4
 10
2473.6000568
 20
2201.0666712
 30
1.38666656
 40
13.8666656
  1
１００－Ｓ
 50
0.0
 41
0.75
 51
0.0
  7
KANJI13
  0
TEXT
  8
0
  6
CONTINUOUS
 62
     4
 10
2539.4667184
 20
2201.0666712
 30
1.38666656
 40
13.8666656
  1
ＭＡＣＨＩＮＩＮＧ
 50
0.0
 41
0.75
 51
0.0
  7
KANJI13
  0
TEXT
  8
0
  6
CONTINUOUS
 62
     4
 10
2539.4667184
 20
2225.333336
 30
1.38666656
 40
13.8666656
  1
ＷＩＴＨＯＵＴ
 50
0.0
 41
0.75
 51
0.0
  7
KANJI13
  0
TEXT
  8
0
  6
CONTINUOUS
 62
     4
 10
2657.333376
 20
2225.333336
 30
1.38666656
 40
13.8666656
  1
ＭＡＣＨＩＮＩＮＧ
 50
0.0
 41
0.75
 51
0.0
  7
KANJI13
  0
TEXT
  8
0
  6
CONTINUOUS
 62
     4
 10
2657.333376
 20
2201.0666712
 30
1.38666656
 40
13.8666656
  1
ＴＯＬＥＲＡＮＣＥ
 50
0.0
 41
0.75
 51
0.0
  7
KANJI13
  0
TEXT
  8
0
  6
CONTINUOUS
 62
     4
 10
2775.2000336
 20
2225.333336
 30
1.38666656
 40
13.8666656
  1
０．５≦
 50
0.0
 41
0.75
 51
0.0
  7
KANJI13
  0
TEXT
  8
0
  6
CONTINUOUS
 62
     4
 10
2775.2000336
 20
2176.8000064
 30
1.38666656
 40
13.8666656
  1
≦６
 50
0.0
 41
0.75
 51
0.0
  7
KANJI13
  0
TEXT
  8
0
  6
CONTINUOUS
 62
     4
 10
2841.0666952
 20
2176.8000064
 30
1.38666656
 40
13.8666656
  1
≦３０
 50
0.0
 41
0.75
 51
0.0
  7
KANJI13
  0
TEXT
  8
0
  6
CONTINUOUS
 62
     4
 10
2841.0666952
 20
2225.333336
 30
1.38666656
 40
13.8666656
  1
６＜
 50
0.0
 41
0.75
 51
0.0
  7
KANJI13
  0
TEXT
  8
0
  6
CONTINUOUS
 62
     4
 10
2778.6667
 20
2142.1333424
 30
1.38666656
 40
13.8666656
  1
±０．１
 50
0.0
 41
0.75
 51
0.0
  7
KANJI13
  0
TEXT
  8
0
  6
CONTINUOUS
 62
     4
 10
2844.5333616
 20
2142.1333424
 30
1.38666656
 40
13.8666656
  1
±０．２
 50
0.0
 41
0.75
 51
0.0
  7
KANJI13
  0
ARC
  8
0
  6
CONTINUOUS
 62
     4
 10
2581.85960666
 20
2143.52000896
 40
11.09333248
 50
30.0
 51
180.0
  0
ARC
  8
0
  6
CONTINUOUS
 62
     4
 10
2601.07382214
 20
2154.61334144
 40
11.09333248
 50
210.0
 51
0.0
  0
LINE
  8
0
  6
CONTINUOUS
 62
     4
 10
2493.5333886
 20
2156.000008
 11
2505.666721
 21
2156.000008
  0
LINE
  8
0
  6
CONTINUOUS
 62
     4
 10
2493.5333886
 20
2156.000008
 11
2499.6000548
 21
2142.1333424
  0
LINE
  8
0
  6
CONTINUOUS
 62
     4
 10
2499.6000548
 20
2142.1333424
 11
2505.666721
 21
2156.000008
  0
LINE
  8
0
  6
CONTINUOUS
 62
     4
 10
2421.6000608
 20
2156.000008
 11
2427.666727
 21
2142.1333424
  0
LINE
  8
0
  6
CONTINUOUS
 62
     4
 10
2427.666727
 20
2142.1333424
 11
2433.7333932
 21
2156.000008
  0
LINE
  8
0
  6
CONTINUOUS
 62
     4
 10
2433.7333932
 20
2156.000008
 11
2439.8000594
 21
2142.1333424
  0
LINE
  8
0
  6
CONTINUOUS
 62
     4
 10
2439.8000594
 20
2142.1333424
 11
2445.8667256
 21
2156.000008
  0
LINE
  8
0
  6
CONTINUOUS
 62
     4
 10
2421.6000608
 20
2156.000008
 11
2445.8667256
 21
2156.000008
  0
LINE
  8
0
  6
CONTINUOUS
 62
     4
 10
2334.9334008
 20
2253.0666672
 11
2334.9334008
 21
2131.7333432
  0
LINE
  8
0
  6
CONTINUOUS
 62
     4
 10
2277.7334052
 20
2156.000008
 11
2326.2667348
 21
2156.000008
  0
LINE
  8
0
  6
CONTINUOUS
 62
     4
 10
2277.7334052
 20
2156.000008
 11
2283.8000714
 21
2142.1333424
  0
LINE
  8
0
  6
CONTINUOUS
 62
     4
 10
2283.8000714
 20
2142.1333424
 11
2289.8667376
 21
2156.000008
  0
LINE
  8
0
  6
CONTINUOUS
 62
     4
 10
2289.8667376
 20
2156.000008
 11
2295.9334038
 21
2142.1333424
  0
LINE
  8
0
  6
CONTINUOUS
 62
     4
 10
2295.9334038
 20
2142.1333424
 11
2302.00007
 21
2156.000008
  0
LINE
  8
0
  6
CONTINUOUS
 62
     4
 10
2302.00007
 20
2156.000008
 11
2308.0667362
 21
2142.1333424
  0
LINE
  8
0
  6
CONTINUOUS
 62
     4
 10
2308.0667362
 20
2142.1333424
 11
2314.1334024
 21
2156.000008
  0
LINE
  8
0
  6
CONTINUOUS
 62
     4
 10
2314.1334024
 20
2156.000008
 11
2320.2000686
 21
2142.1333424
  0
LINE
  8
0
  6
CONTINUOUS
 62
     4
 10
2320.2000686
 20
2142.1333424
 11
2326.2667348
 21
2156.000008
  0
LINE
  8
0
  6
CONTINUOUS
 62
     4
 10
2349.666733
 20
2156.000008
 11
2355.7333992
 21
2142.1333424
  0
LINE
  8
0
  6
CONTINUOUS
 62
     4
 10
2355.7333992
 20
2142.1333424
 11
2361.8000654
 21
2156.000008
  0
LINE
  8
0
  6
CONTINUOUS
 62
     4
 10
2361.8000654
 20
2156.000008
 11
2367.8667316
 21
2142.1333424
  0
LINE
  8
0
  6
CONTINUOUS
 62
     4
 10
2367.8667316
 20
2142.1333424
 11
2373.9333978
 21
2156.000008
  0
LINE
  8
0
  6
CONTINUOUS
 62
     4
 10
2373.9333978
 20
2156.000008
 11
2380.000064
 21
2142.1333424
  0
LINE
  8
0
  6
CONTINUOUS
 62
     4
 10
2380.000064
 20
2142.1333424
 11
2386.0667302
 21
2156.000008
  0
LINE
  8
0
  6
CONTINUOUS
 62
     4
 10
2349.666733
 20
2156.000008
 11
2386.0667302
 21
2156.000008
  0
TEXT
  8
0
  6
CONTINUOUS
 62
     4
 10
2539.4667184
 20
2176.8000064
 30
1.663999872
 40
16.63999872
  1
加工なし
 50
0.0
 41
0.75
 51
0.0
  7
KANJI14
  0
TEXT
  8
0
  6
CONTINUOUS
 62
     4
 10
2657.333376
 20
2176.8000064
 30
1.663999872
 40
16.63999872
  1
普通加工交差
 50
0.0
 41
0.9
 51
0.0
  7
KANJI15
  0
TEXT
  8
0
  6
CONTINUOUS
 62
     4
 10
2685.0667072
 20
2142.1333424
 30
1.663999872
 40
16.63999872
  1
（ｍｍ）
 50
0.0
 41
0.75
 51
0.0
  7
KANJI14
  0
LINE
  8
0
  6
CONTINUOUS
 62
     4
 10
3031.7333472
 20
2253.0666672
 11
3031.7333472
 21
2131.7333432
  0
LINE
  8
0
  6
CONTINUOUS
 62
     4
 10
3118.4000072
 20
2253.0666672
 11
3118.4000072
 21
2131.7333432
  0
LINE
  8
0
  6
CONTINUOUS
 62
     4
 10
2965.8666856
 20
2253.0666672
 11
2965.8666856
 21
2131.7333432
  0
LINE
  8
0
  6
CONTINUOUS
 62
     4
 10
2900.000024
 20
2253.0666672
 11
2900.000024
 21
2131.7333432
  0
TEXT
  8
0
  6
CONTINUOUS
 62
     4
 10
2906.9333568
 20
2176.8000064
 30
1.38666656
 40
13.8666656
  1
≦１２０
 50
0.0
 41
0.75
 51
0.0
  7
KANJI13
  0
TEXT
  8
0
  6
CONTINUOUS
 62
     4
 10
2906.9333568
 20
2225.333336
 30
1.38666656
 40
13.8666656
  1
３０＜
 50
0.0
 41
0.75
 51
0.0
  7
KANJI13
  0
TEXT
  8
0
  6
CONTINUOUS
 62
     4
 10
2972.8000184
 20
2225.333336
 30
1.38666656
 40
13.8666656
  1
１２０＜
 50
0.0
 41
0.75
 51
0.0
  7
KANJI13
  0
TEXT
  8
0
  6
CONTINUOUS
 62
     4
 10
2972.8000184
 20
2176.8000064
 30
1.38666656
 40
13.8666656
  1
≦３１５
 50
0.0
 41
0.75
 51
0.0
  7
KANJI13
  0
TEXT
  8
0
  6
CONTINUOUS
 62
     4
 10
3038.66668
 20
2225.333336
 30
1.38666656
 40
13.8666656
  1
３１５＜
 50
0.0
 41
0.75
 51
0.0
  7
KANJI13
  0
TEXT
  8
0
  6
CONTINUOUS
 62
     4
 10
3038.66668
 20
2176.8000064
 30
1.38666656
 40
13.8666656
  1
≦１０００
 50
0.0
 41
0.75
 51
0.0
  7
KANJI13
  0
TEXT
  8
0
  6
CONTINUOUS
 62
     4
 10
3125.33334
 20
2225.333336
 30
1.38666656
 40
13.8666656
  1
１０００＜
 50
0.0
 41
0.75
 51
0.0
  7
KANJI13
  0
TEXT
  8
0
  6
CONTINUOUS
 62
     4
 10
3125.33334
 20
2176.8000064
 30
1.38666656
 40
13.8666656
  1
≦２０００
 50
0.0
 41
0.75
 51
0.0
  7
KANJI13
  0
TEXT
  8
0
  6
CONTINUOUS
 62
     4
 10
2910.4000232
 20
2142.1333424
 30
1.38666656
 40
13.8666656
  1
±０．３
 50
0.0
 41
0.75
 51
0.0
  7
KANJI13
  0
TEXT
  8
0
  6
CONTINUOUS
 62
     4
 10
2976.2666848
 20
2142.1333424
 30
1.38666656
 40
13.8666656
  1
±０．５
 50
0.0
 41
0.75
 51
0.0
  7
KANJI13
  0
TEXT
  8
0
  6
CONTINUOUS
 62
     4
 10
3052.5333456
 20
2142.1333424
 30
1.38666656
 40
13.8666656
  1
±０．８
 50
0.0
 41
0.75
 51
0.0
  7
KANJI13
  0
TEXT
  8
0
  6
CONTINUOUS
 62
     4
 10
3139.2000056
 20
2142.1333424
 30
1.38666656
 40
13.8666656
  1
±１．２
 50
0.0
 41
0.75
 51
0.0
  7
KANJI13
  0
LINE
  8
0
  6
CONTINUOUS
 62
     4
 10
2269.0667392
 20
2253.0666672
 11
2269.0667392
 21
2131.7333432
  0
TEXT
  8
0
  6
CONTINUOUS
 62
     4
 10
2158.1334144
 20
2201.0666712
 30
1.38666656
 40
13.8666656
  1
ＲＯＵＧＨＮＥＳＳ
 50
0.0
 41
0.8
 51
0.0
  7
KANJI12
  0
TEXT
  8
0
  6
CONTINUOUS
 62
     4
 10
2158.1334144
 20
2225.333336
 30
1.38666656
 40
13.8666656
  1
ＳＵＲＦＡＣＥ
 50
0.0
 41
0.8
 51
0.0
  7
KANJI12
  0
TEXT
  8
0
  6
CONTINUOUS
 62
     4
 10
2158.1334144
 20
2176.8000064
 30
1.663999872
 40
16.63999872
  1
仕上面粗さ
 50
0.0
 41
0.8
 51
0.0
  7
KANJI16
  0
TEXT
  8
0
  6
CONTINUOUS
 62
     4
 10
2168.5334136
 20
2142.1333424
 30
1.663999872
 40
16.63999872
  1
ＳＹＭ．記号
 50
0.0
 41
0.75
 51
0.0
  7
KANJI14
  0
LINE
  8
0
  6
CONTINUOUS
 62
     4
 10
3205.0666672
 20
2166.4000072
 11
2151.2000816
 21
2166.4000072
  0
TEXT
  8
0
  6
CONTINUOUS
 62
     4
 10
2334.9334008
 20
2266.9333328
 30
2.07999984
 40
20.7999984
  1
ＩＳＯ
 50
0.0
 41
0.9
 51
0.0
  7
KANJI17
  0
TEXT
  8
0
  6
CONTINUOUS
 62
     4
 10
2397.333396
 20
2266.9333328
 30
1.38666656
 40
13.8666656
  1
ＭＥＴＲＩＣ　ＳＣＲＥＷ　ＴＨＲＥＡＤ
 50
0.0
 41
0.75
 51
0.0
  7
KANJI18
  0
TEXT
  8
0
  6
CONTINUOUS
 62
     4
 10
2632.72004456
 20
2266.9333328
 30
1.38666656
 40
13.8666656
  1
ＩＳＯ
 50
0.0
 41
0.75
 51
0.0
  7
KANJI18
  0
TEXT
  8
0
  6
CONTINUOUS
 62
     4
 10
2830.32002936
 20
2266.9333328
 30
2.07999984
 40
20.7999984
  1
３
 50
0.0
 41
0.75
 51
0.0
  7
KANJI19
  0
TEXT
  8
0
  6
CONTINUOUS
 62
     4
 10
2847.65336136
 20
2266.9333328
 30
1.38666656
 40
13.8666656
  1
ＲＤ　ＡＮＧＬＥ　ＰＲＯＪＥＣＴＩＯＮ　第３角法
 50
0.0
 41
0.75
 51
0.0
  7
KANJI18
  0
TEXT
  8
0
  6
CONTINUOUS
 62
     4
 10
2670.85337496
 20
2266.9333328
 30
1.247999904
 40
12.47999904
  1
メートルネジ使用
 50
0.0
 41
0.75
 51
0.0
  7
KANJI20
  0
TEXT
  8
0
  6
CONTINUOUS
 62
     4
 10
2151.2000816
 20
257.0666552
 30
1.38666656
 40
13.8666656
  1
ＤＲＡＷＮ
 50
0.0
 41
0.6
 51
0.0
  7
KANJI21
  0
TEXT
  8
0
  6
CONTINUOUS
 62
     4
 10
2151.2000816
 20
312.5333176
 30
1.38666656
 40
13.8666656
  1
ＤＥＳＩＧＮ
 50
0.0
 41
0.6
 51
0.0
  7
KANJI21
  0
TEXT
  8
0
  6
CONTINUOUS
 62
     4
 10
2151.2000816
 20
367.99998
 30
1.38666656
 40
13.8666656
  1
ＣＨＥＣＫ
 50
0.0
 41
0.6
 51
0.0
  7
KANJI21
  0
TEXT
  8
0
  6
CONTINUOUS
 62
     4
 10
2151.2000816
 20
423.4666424
 30
1.38666656
 40
13.8666656
  1
ＣＯＤＥ
 50
0.0
 41
0.6
 51
0.0
  7
KANJI21
  0
LINE
  8
0
  6
CONTINUOUS
 62
     4
 10
2137.333416
 20
336.7999824
 11
2390.4000632
 21
336.7999824
  0
LINE
  8
0
  6
CONTINUOUS
 62
     4
 10
2137.333416
 20
281.33332
 11
2390.4000632
 21
281.33332
  0
LINE
  8
0
  6
CONTINUOUS
 62
     4
 10
2137.333416
 20
392.2666448
 11
2390.4000632
 21
392.2666448
  0
LINE
  8
0
  6
CONTINUOUS
 62
     4
 10
2137.333416
 20
447.7333072
 11
3205.0666672
 21
447.7333072
  0
TEXT
  8
0
  6
CONTINUOUS
 62
     4
 10
2151.2000816
 20
291.7333192
 30
1.663999872
 40
16.63999872
  1
設計
 50
0.0
 41
0.6
 51
0.0
  7
KANJI22
  0
TEXT
  8
0
  6
CONTINUOUS
 62
     4
 10
2151.2000816
 20
347.1999816
 30
1.663999872
 40
16.63999872
  1
検図
 50
0.0
 41
0.6
 51
0.0
  7
KANJI22
  0
TEXT
  8
0
  6
CONTINUOUS
 62
     4
 10
2151.2000816
 20
402.666644
 30
1.663999872
 40
16.63999872
  1
分類
 50
0.0
 41
0.6
 51
0.0
  7
KANJI22
  0
LINE
  8
0
  6
CONTINUOUS
 62
     4
 10
2410.85339496
 20
392.2666448
 11
3205.0666672
 21
392.2666448
  0
LINE
  8
0
  6
CONTINUOUS
 62
     4
 10
2390.4000632
 20
281.33332
 11
3205.0666672
 21
281.33332
  0
TEXT
  8
0
  6
CONTINUOUS
 62
     4
 10
2404.2667288
 20
257.0666552
 30
1.38666656
 40
13.8666656
  1
ＤＲＡＷＩＮＧ　ＮＯ．
 50
0.0
 41
0.8
 51
0.0
  7
KANJI23
  0
TEXT
  8
0
  6
CONTINUOUS
 62
     4
 10
2404.2667288
 20
312.5333176
 30
1.38666656
 40
13.8666656
  1
ＭＦＧ　ＮＯ．
 50
0.0
 41
0.8
 51
0.0
  7
KANJI23
  0
TEXT
  8
0
  6
CONTINUOUS
 62
     4
 10
2404.2667288
 20
367.99998
 30
1.38666656
 40
13.8666656
  1
ＴＹＰＥ
 50
0.0
 41
0.8
 51
0.0
  7
KANJI23
  0
LINE
  8
0
  6
CONTINUOUS
 62
     4
 10
2411.2000616
 20
336.7999824
 11
2730.1333704
 21
336.7999824
  0
TEXT
  8
0
  6
CONTINUOUS
 62
     4
 10
2404.2667288
 20
232.7999904
 30
1.663999872
 40
16.63999872
  1
図　面　番　号
 50
0.0
 41
0.8
 51
0.0
  7
KANJI24
  0
TEXT
  8
0
  6
CONTINUOUS
 62
     4
 10
2404.2667288
 20
288.2666528
 30
1.663999872
 40
16.63999872
  1
製番
 50
0.0
 41
0.8
 51
0.0
  7
KANJI24
  0
TEXT
  8
0
  6
CONTINUOUS
 62
     4
 10
2404.2667288
 20
343.7333152
 30
1.663999872
 40
16.63999872
  1
機種
 50
0.0
 41
0.8
 51
0.0
  7
KANJI24
  0
LINE
  8
0
  6
CONTINUOUS
 62
     4
 10
2137.333416
 20
170.3999952
 11
2390.4000632
 21
170.3999952
  0
LINE
  8
0
  6
CONTINUOUS
 62
     4
 10
2137.333416
 20
225.8666576
 11
2390.4000632
 21
225.8666576
  0
TEXT
  8
0
  6
CONTINUOUS
 62
     4
 10
2151.2000816
 20
146.1333304
 30
1.38666656
 40
13.8666656
  1
ＳＣＡＬＥ
 50
0.0
 41
0.6
 51
0.0
  7
KANJI21
  0
TEXT
  8
0
  6
CONTINUOUS
 62
     4
 10
2151.2000816
 20
201.5999928
 30
1.38666656
 40
13.8666656
  1
ＤＡＴＥ
 50
0.0
 41
0.6
 51
0.0
  7
KANJI21
  0
TEXT
  8
0
  6
CONTINUOUS
 62
     4
 10
2151.2000816
 20
125.333332
 30
1.663999872
 40
16.63999872
  1
尺度
 50
0.0
 41
0.6
 51
0.0
  7
KANJI22
  0
TEXT
  8
0
  6
CONTINUOUS
 62
     4
 10
2151.2000816
 20
180.7999944
 30
1.663999872
 40
16.63999872
  1
日付
 50
0.0
 41
0.6
 51
0.0
  7
KANJI22
  0
TEXT
  8
0
  6
CONTINUOUS
 62
     4
 10
2151.2000816
 20
236.2666568
 30
1.663999872
 40
16.63999872
  1
作図
 50
0.0
 41
0.6
 51
0.0
  7
KANJI22
  0
LINE
  8
0
  6
CONTINUOUS
 62
     4
 10
1745.6001128
 20
114.9333328
 11
1745.6001128
 21
170.3999952
  0
LINE
  8
0
  6
CONTINUOUS
 62
     4
 10
1808.000108
 20
114.9333328
 11
1808.000108
 21
170.3999952
  0
TEXT
  8
0
  6
CONTINUOUS
 62
     4
 10
1766.4001112
 20
146.1333304
 30
1.38666656
 40
13.8666656
  1
ＢＹ
 50
0.0
 41
0.6
 51
0.0
  7
KANJI21
  0
TEXT
  8
0
  6
CONTINUOUS
 62
     4
 10
1918.9334328
 20
146.1333304
 30
1.38666656
 40
13.8666656
  1
ＤＥＳＣＲＩＰＴＩＯＮ
 50
0.0
 41
0.6
 51
0.0
  7
KANJI21
  0
TEXT
  8
0
  6
CONTINUOUS
 62
     4
 10
1766.4001112
 20
125.333332
 30
1.663999872
 40
16.63999872
  1
担当
 50
0.0
 41
0.6
 51
0.0
  7
KANJI22
  0
TEXT
  8
0
  6
CONTINUOUS
 62
     4
 10
1939.7334312
 20
125.333332
 30
1.663999872
 40
16.63999872
  1
記　　　　事
 50
0.0
 41
0.6
 51
0.0
  7
KANJI22
  0
LINE
  8
0
  6
CONTINUOUS
 62
     4
 10
1619.0667892
 20
159.999996
 11
1596.5334576
 21
125.333332
  0
TEXT
  8
0
  6
CONTINUOUS
 62
     4
 10
1676.2667848
 20
146.1333304
 30
1.38666656
 40
13.8666656
  1
ＤＡＴＥ
 50
0.0
 41
0.6
 51
0.0
  7
KANJI21
  0
TEXT
  8
0
  6
CONTINUOUS
 62
     4
 10
1686.666784
 20
125.333332
 30
1.663999872
 40
16.63999872
  1
日付
 50
0.0
 41
0.6
 51
0.0
  7
KANJI22
  0
LINE
  8
0
  6
CONTINUOUS
 62
     4
 10
1596.5334576
 20
125.333332
 11
1641.6001208
 21
125.333332
  0
LINE
  8
0
  6
CONTINUOUS
 62
     4
 10
1648.5334536
 20
114.9333328
 11
1648.5334536
 21
170.3999952
  0
LINE
  8
0
  6
CONTINUOUS
 62
     4
 10
1619.0667892
 20
159.999996
 11
1641.6001208
 21
125.333332
  0
LINE
  8
0
  6
CONTINUOUS
 62
     4
 10
2390.4000632
 20
201.5999928
 11
3205.0666672
 21
201.5999928
  0
LINE
  8
0
  6
CONTINUOUS
 62
     4
 10
2390.4000632
 20
114.9333328
 11
2390.4000632
 21
447.7333072
  0
LINE
  8
0
  6
LTYPE1
 62
     4
 10
2972.8000184
 20
211.999992
 11
2972.8000184
 21
267.4666544
  0
LINE
  8
0
  6
LTYPE1
 62
     4
 10
2924.2666888
 20
211.999992
 11
2924.2666888
 21
267.4666544
  0
LINE
  8
0
  6
LTYPE1
 62
     4
 10
2875.7333592
 20
211.999992
 11
2875.7333592
 21
267.4666544
  0
LINE
  8
0
  6
LTYPE1
 62
     4
 10
2827.2000296
 20
211.999992
 11
2827.2000296
 21
267.4666544
  0
LINE
  8
0
  6
LTYPE1
 62
     4
 10
2778.6667
 20
211.999992
 11
2778.6667
 21
267.4666544
  0
LINE
  8
0
  6
LTYPE1
 62
     4
 10
2730.1333704
 20
211.999992
 11
2730.1333704
 21
267.4666544
  0
LINE
  8
0
  6
LTYPE1
 62
     4
 10
2681.6000408
 20
211.999992
 11
2681.6000408
 21
267.4666544
  0
LINE
  8
0
  6
LTYPE1
 62
     4
 10
2633.0667112
 20
211.999992
 11
2633.0667112
 21
267.4666544
  0
LINE
  8
0
  6
LTYPE1
 62
     4
 10
2633.0667112
 20
267.4666544
 11
2972.8000184
 21
267.4666544
  0
LINE
  8
0
  6
LTYPE1
 62
     4
 10
2633.0667112
 20
211.999992
 11
2972.8000184
 21
211.999992
  0
LINE
  8
0
  6
CONTINUOUS
 62
     4
 10
3000.5333496
 20
241.4666564
 11
3014.4000152
 21
241.4666564
  0
LINE
  8
0
  6
CONTINUOUS
 62
     4
 10
3087.2000096
 20
220.666658
 11
3038.66668
 21
220.666658
  0
LINE
  8
0
  6
CONTINUOUS
 62
     4
 10
3038.66668
 20
220.666658
 11
3062.9333448
 21
262.2666548
  0
LINE
  8
0
  6
CONTINUOUS
 62
     4
 10
3062.9333448
 20
262.2666548
 11
3087.2000096
 21
220.666658
  0
LINE
  8
0
  6
CONTINUOUS
 62
     4
 10
3218.9333328
 20
114.9333328
 11
3302.1333264
 21
114.9333328
  0
LINE
  8
0
  6
CONTINUOUS
 62
     4
 10
3218.9333328
 20
156.5333296
 11
3302.1333264
 21
156.5333296
  0
LINE
  8
0
  6
CONTINUOUS
 62
     4
 10
3218.9333328
 20
198.1333264
 11
3302.1333264
 21
198.1333264
  0
LINE
  8
0
  6
CONTINUOUS
 62
     4
 10
3218.9333328
 20
239.7333232
 11
3302.1333264
 21
239.7333232
  0
LINE
  8
0
  6
CONTINUOUS
 62
     4
 10
3218.9333328
 20
281.33332
 11
3302.1333264
 21
281.33332
  0
LINE
  8
0
  6
CONTINUOUS
 62
     4
 10
3218.9333328
 20
322.9333168
 11
3302.1333264
 21
322.9333168
  0
LINE
  8
0
  6
CONTINUOUS
 62
     4
 10
3218.9333328
 20
364.5333136
 11
3302.1333264
 21
364.5333136
  0
LINE
  8
0
  6
CONTINUOUS
 62
     4
 10
3218.9333328
 20
406.1333104
 11
3302.1333264
 21
406.1333104
  0
LINE
  8
0
  6
CONTINUOUS
 62
     4
 10
3218.9333328
 20
447.7333072
 11
3302.1333264
 21
447.7333072
  0
LINE
  8
0
  6
CONTINUOUS
 62
     4
 10
3218.9333328
 20
489.333304
 11
3302.1333264
 21
489.333304
  0
LINE
  8
0
  6
CONTINUOUS
 62
     4
 10
3302.1333264
 20
114.9333328
 11
3302.1333264
 21
489.333304
  0
LINE
  8
0
  6
CONTINUOUS
 62
     4
 10
3260.5333296
 20
114.9333328
 11
3260.5333296
 21
447.7333072
  0
TEXT
  8
0
  6
CONTINUOUS
 62
     4
 10
3233.14666504
 20
127.0666652
 30
2.07999984
 40
20.7999984
  1
計
 50
0.0
 41
0.75
 51
0.0
  7
KANJI25
  0
TEXT
  8
0
  6
CONTINUOUS
 62
     4
 10
3233.14666504
 20
210.95999208
 30
2.07999984
 40
20.7999984
  1
設
 50
0.0
 41
0.75
 51
0.0
  7
KANJI25
  0
TEXT
  8
0
  6
CONTINUOUS
 62
     4
 10
3233.14666504
 20
251.8666556
 30
2.07999984
 40
20.7999984
  1
管
 50
0.0
 41
0.75
 51
0.0
  7
KANJI25
  0
TEXT
  8
0
  6
CONTINUOUS
 62
     4
 10
3233.14666504
 20
293.4666524
 30
2.07999984
 40
20.7999984
  1
製
 50
0.0
 41
0.75
 51
0.0
  7
KANJI25
  0
TEXT
  8
0
  6
CONTINUOUS
 62
     4
 10
3233.14666504
 20
335.0666492
 30
2.07999984
 40
20.7999984
  1
資
 50
0.0
 41
0.75
 51
0.0
  7
KANJI25
  0
TEXT
  8
0
  6
CONTINUOUS
 62
     4
 10
3233.14666504
 20
376.666646
 30
2.07999984
 40
20.7999984
  1
営
 50
0.0
 41
0.75
 51
0.0
  7
KANJI25
  0
TEXT
  8
0
  6
CONTINUOUS
 62
     4
 10
3233.14666504
 20
418.2666428
 30
2.07999984
 40
20.7999984
  1
客
 50
0.0
 41
0.75
 51
0.0
  7
KANJI25
  0
TEXT
  8
0
  6
CONTINUOUS
 62
     4
 10
3232.7999984
 20
461.5999728
 30
2.07999984
 40
20.7999984
  1
出　図
 50
0.0
 41
0.75
 51
0.0
  7
KANJI25
  0
LINE
  8
0
  6
CONTINUOUS
 62
     4
 10
3218.9333328
 20
114.9333328
 11
3218.9333328
 21
489.333304
  0
TEXT
  8
0
  6
CONTINUOUS
 62
     4
 10
3094.1333424
 20
38.666672
 30
6.9333328
 40
69.333328
  1
／
 50
0.0
 41
0.9
 51
0.0
  7
KANJI26
  0
TEXT
  8
0
  6
CONTINUOUS
 62
     4
 10
2750.9333688
 20
367.99998
 30
1.38666656
 40
13.8666656
  1
ＴＩＴＬＥ
 50
0.0
 41
0.8
 51
0.0
  7
KANJI23
  0
TEXT
  8
0
  6
CONTINUOUS
 62
     4
 10
2750.9333688
 20
343.7333152
 30
1.663999872
 40
16.63999872
  1
名称
 50
0.0
 41
0.8
 51
0.0
  7
KANJI24
  0
LINE
  8
0
  6
CONTINUOUS
 62
     6
 10
116.0
 20
108.0
 11
116.0
 21
2260.0
  0
LINE
  8
0
  6
CONTINUOUS
 62
     6
 10
116.0
 20
2260.0
 11
3212.0
 21
2260.0
  0
LINE
  8
0
  6
CONTINUOUS
 62
     6
 10
3212.0
 20
2260.0
 11
3212.0
 21
108.0
  0
LINE
  8
0
  6
CONTINUOUS
 62
     6
 10
2151.2000816
 20
2253.0666672
 11
2151.2000816
 21
2131.7333432
  0
LINE
  8
0
  6
CONTINUOUS
 62
     6
 10
3205.0666672
 20
2253.0666672
 11
2151.2000816
 21
2253.0666672
  0
LINE
  8
0
  6
CONTINUOUS
 62
     6
 10
3205.0666672
 20
2131.7333432
 11
2151.2000816
 21
2131.7333432
  0
LINE
  8
0
  6
CONTINUOUS
 62
     6
 10
3205.0666672
 20
2253.0666672
 11
3205.0666672
 21
2131.7333432
  0
LINE
  8
0
  6
CONTINUOUS
 62
     6
 10
3212.0
 20
108.0
 11
116.0
 21
108.0
  0
LINE
  8
0
  6
CONTINUOUS
 62
     6
 10
643.999888985
 20
115.999998318
 11
643.999888985
 21
227.999974769
  0
LINE
  8
0
  6
CONTINUOUS
 62
     6
 10
123.999998318
 20
227.999974769
 11
643.999888985
 21
227.999974769
  0
LINE
  8
0
  6
CONTINUOUS
 62
     6
 10
123.999998318
 20
115.999998318
 11
643.999888985
 21
115.999998318
  0
LINE
  8
0
  6
CONTINUOUS
 62
     6
 10
123.999998318
 20
115.999998318
 11
123.999998318
 21
227.999974769
  0
LINE
  8
0
  6
CONTINUOUS
 62
     6
 10
483.999922626
 20
115.999998318
 11
483.999922626
 21
227.999974769
  0
LINE
  8
0
  6
CONTINUOUS
 62
     6
 10
123.999998318
 20
171.999986544
 11
643.999888985
 21
171.999986544
  0
TEXT
  8
0
  6
CONTINUOUS
 62
     3
 10
139.999994954
 20
187.999983179
 30
2.399999495
 40
23.999994954
  1
ＰＬ
 50
0.0
 41
0.9
 51
0.0
  7
KANJI27
  0
LINE
  8
0
  6
CONTINUOUS
 62
     6
 10
1589.6001248
 20
114.9333328
 11
1589.6001248
 21
170.3999952
  0
LINE
  8
0
  6
CONTINUOUS
 62
     6
 10
1589.6001248
 20
170.3999952
 11
2137.333416
 21
170.3999952
  0
LINE
  8
0
  6
CONTINUOUS
 62
     6
 10
1589.6001248
 20
114.9333328
 11
3205.0666672
 21
114.9333328
  0
LINE
  8
0
  6
CONTINUOUS
 62
     6
 10
2682.20670742
 20
151.67999664
 11
2659.32670918
 21
151.67999664
  0
LINE
  8
0
  6
CONTINUOUS
 62
     6
 10
2682.20670742
 20
155.83999632
 11
2659.32670918
 21
155.83999632
  0
LINE
  8
0
  6
CONTINUOUS
 62
     6
 10
2682.20670742
 20
151.67999664
 11
2705.08670566
 21
151.67999664
  0
LINE
  8
0
  6
CONTINUOUS
 62
     6
 10
2682.20670742
 20
155.83999632
 11
2705.08670566
 21
155.83999632
  0
LINE
  8
0
  6
CONTINUOUS
 62
     6
 10
2705.08670566
 20
155.83999632
 11
2705.08670566
 21
151.67999664
  0
ARC
  8
0
  6
CONTINUOUS
 62
     6
 10
2710.28670526
 20
153.75999648
 40
20.7999984
 50
185.739170477
 51
90.0
  0
ARC
  8
0
  6
CONTINUOUS
 62
     6
 10
2710.28670526
 20
153.75999648
 40
24.95999808
 50
184.780191847
 51
90.0
  0
LINE
  8
0
  6
CONTINUOUS
 62
     6
 10
2659.32670918
 20
151.67999664
 11
2659.32670918
 21
155.83999632
  0
TEXT
  8
0
  6
CONTINUOUS
 62
     6
 10
2397.333396
 20
146.1333304
 30
0.0
 40
24.2666648
  1
ＵＮＩＴＥＣ　ＩＮＤＵＳＴＲＹ　ＣＯ．，ＬＴＤ．
 50
0.0
 41
0.42031746
 51
0.0
  7
KANJI28
  0
LINE
  8
0
  6
CONTINUOUS
 62
     6
 10
2679.08670766
 20
178.71999456
 11
2654.12670958
 21
178.71999456
  0
LINE
  8
0
  6
CONTINUOUS
 62
     6
 10
2685.32670718
 20
178.71999456
 11
2710.28670526
 21
178.71999456
  0
ARC
  8
0
  6
CONTINUOUS
 62
     6
 10
2654.12670958
 20
153.75999648
 40
20.7999984
 50
90.0
 51
354.260829523
  0
ARC
  8
0
  6
CONTINUOUS
 62
     6
 10
2654.12670958
 20
153.75999648
 40
24.95999808
 50
90.0
 51
355.219808153
  0
LINE
  8
0
  6
CONTINUOUS
 62
     6
 10
2679.08670766
 20
178.71999456
 11
2679.08670766
 21
174.55999488
  0
LINE
  8
0
  6
CONTINUOUS
 62
     6
 10
2654.12670958
 20
174.55999488
 11
2679.08670766
 21
174.55999488
  0
LINE
  8
0
  6
CONTINUOUS
 62
     6
 10
2685.32670718
 20
178.71999456
 11
2685.32670718
 21
174.55999488
  0
LINE
  8
0
  6
CONTINUOUS
 62
     6
 10
2710.28670526
 20
174.55999488
 11
2685.32670718
 21
174.55999488
  0
TEXT
  8
0
  6
CONTINUOUS
 62
     6
 10
2737.67336982
 20
137.11999776
 30
4.15999968
 40
41.5999968
  1
ユニテック工業株式会社
 50
0.0
 41
0.9
 51
0.0
  7
KANJI29
  0
LINE
  8
0
  6
CONTINUOUS
 62
     6
 10
2137.333416
 20
503.1999696
 11
3205.0666672
 21
503.1999696
  0
TEXT
  8
0
  6
CONTINUOUS
 62
     3
 10
2284.0
 20
124.0
 30
2.4
 40
36.0
  1
１／８
 50
0.0
 41
0.666666667
 51
0.0
  7
KANJI30
  0
LINE
  8
0
  6
CONTINUOUS
 62
     1
 10
2504.0
 20
2089.0
 11
2504.0
 21
1001.0
  0
TEXT
  8
0
  6
CONTINUOUS
 62
     2
 10
2604.0
 20
2030.6
 30
22.79952
 40
36.0
  1
マイティシリンダ仕様
 50
0.0
 41
0.9
 51
0.0
  7
KANJI31
  0
TEXT
  8
0
  6
CONTINUOUS
 62
     2
 10
2536.6
 20
1525.0
 30
17.6
 40
28.0
  1
モ　トル仕様
 50
0.0
 41
0.9
 51
0.0
  7
KANJI32
  0
TEXT
  8
0
  6
CONTINUOUS
 62
     2
 10
2534.8
 20
1221.0
 30
1.371428571
 40
24.0
  1
ブレ　キ
 50
0.0
 41
0.9
 51
0.0
  7
KANJI33
  0
LINE
  8
0
  6
CONTINUOUS
 62
     2
 10
2534.4
 20
1165.8
 11
2534.4
 21
1149.0
  0
LINE
  8
0
  6
CONTINUOUS
 62
     2
 10
2534.4
 20
1480.2
 11
2534.4
 21
1461.8
  0
TEXT
  8
0
  6
CONTINUOUS
 62
     2
 10
2963.2
 20
1631.4
 30
11.36
 40
28.0
  1
推力リミッタ
 50
0.0
 41
0.9
 51
0.0
  7
KANJI34
  0
TEXT
  8
0
  6
CONTINUOUS
 62
     2
 10
3175.2
 20
1519.4
 30
17.571428571
 40
24.0
  1
Ｐ
 50
0.0
 41
0.9
 51
0.0
  7
KANJI35
  0
TEXT
  8
0
  6
CONTINUOUS
 62
     2
 10
3042.4
 20
1519.4
 30
1.6
 40
24.0
  1
ＫＷ
 50
0.0
 41
0.857142857
 51
0.0
  7
KANJI36
  0
TEXT
  8
0
  6
CONTINUOUS
 62
     2
 10
3135.2
 20
1519.4
 30
20.5
 40
28.0
  1
４
 50
0.0
 41
0.9
 51
0.0
  7
KANJI37
  0
TEXT
  8
0
  6
CONTINUOUS
 62
     2
 10
2918.4
 20
1577.8
 30
0.8
 40
22.4
  1
マンセル
 50
0.0
 41
0.9
 51
0.0
  7
KANJI38
  0
TEXT
  8
0
  6
CONTINUOUS
 62
     2
 10
3012.0
 20
1579.4
 30
0.32
 40
22.4
  1
７．５ＧＹ５／４．５
 50
0.0
 41
0.785714286
 51
0.0
  7
KANJI39
  0
TEXT
  8
0
  6
CONTINUOUS
 62
     2
 10
2912.0
 20
1184.2
 30
2.4
 40
22.4
  1
スプリング制動式電磁ブレーキ
 50
0.0
 41
0.8
 51
0.0
  7
KANJI40
  0
TEXT
  8
0
  6
CONTINUOUS
 62
     2
 10
3176.0
 20
1463.4
 30
0.288
 40
24.0
  1
Ｖ
 50
0.0
 41
0.8
 51
0.0
  7
KANJI41
  0
TEXT
  8
0
  6
CONTINUOUS
 62
     2
 10
3161.6
 20
1407.4
 30
0.288
 40
24.0
  1
Ｈｚ
 50
0.0
 41
0.8
 51
0.0
  7
KANJI41
  0
TEXT
  8
0
  6
CONTINUOUS
 62
     2
 10
3003.8
 20
1407.2
 30
2.4
 40
24.0
  1
５０／６０
 50
0.0
 41
0.9
 51
0.0
  7
KANJI2
  0
TEXT
  8
0
  6
CONTINUOUS
 62
     2
 10
3177.8
 20
1353.2
 30
2.4
 40
24.0
  1
Ａ
 50
0.0
 41
0.9
 51
0.0
  7
KANJI2
  0
TEXT
  8
0
  6
CONTINUOUS
 62
     2
 10
3051.8
 20
1299.2
 30
2.4
 40
24.0
  1
Ｅ
 50
0.0
 41
0.9
 51
0.0
  7
KANJI2
  0
LINE
  8
0
  6
CONTINUOUS
 62
     2
 10
2568.0
 20
1561.0
 11
2568.0
 21
1113.0
  0
LINE
  8
0
  6
CONTINUOUS
 62
     2
 10
2904.0
 20
2009.0
 11
2904.0
 21
1001.0
  0
TEXT
  8
0
  6
CONTINUOUS
 62
     2
 10
2564.0
 20
1967.4
 30
240.594285714
 40
30.4
  1
形式
 50
0.0
 41
0.9
 51
0.0
  7
KANJI42
  0
TEXT
  8
0
  6
CONTINUOUS
 62
     2
 10
2564.0
 20
1911.4
 30
240.594285714
 40
30.4
  1
推力
 50
0.0
 41
0.9
 51
0.0
  7
KANJI42
  0
TEXT
  8
0
  6
CONTINUOUS
 62
     2
 10
2564.0
 20
1855.4
 30
39.628571429
 40
30.4
  1
ストローク
 50
0.0
 41
0.9
 51
0.0
  7
KANJI43
  0
TEXT
  8
0
  6
CONTINUOUS
 62
     2
 10
2564.0
 20
1799.4
 30
61.957805714
 40
30.4
  1
公称速度
 50
0.0
 41
0.9
 51
0.0
  7
KANJI44
  0
TEXT
  8
0
  6
CONTINUOUS
 62
     2
 10
2540.0
 20
1743.4
 30
2.605714286
 40
30.4
  1
ピストンロッド回転トルク
 50
0.0
 41
0.9
 51
0.0
  7
KANJI45
  0
TEXT
  8
0
  6
CONTINUOUS
 62
     2
 10
2564.0
 20
1687.4
 30
240.594285714
 40
30.4
  1
構造
 50
0.0
 41
0.9
 51
0.0
  7
KANJI42
  0
TEXT
  8
0
  6
CONTINUOUS
 62
     2
 10
2564.0
 20
1631.4
 30
17.298468571
 40
30.4
  1
過負荷安全装置
 50
0.0
 41
0.9
 51
0.0
  7
KANJI46
  0
TEXT
  8
0
  6
CONTINUOUS
 62
     2
 10
2564.0
 20
1575.4
 30
106.617142857
 40
30.4
  1
塗装色
 50
0.0
 41
0.9
 51
0.0
  7
KANJI47
  0
TEXT
  8
0
  6
CONTINUOUS
 62
     2
 10
2604.0
 20
1519.4
 30
26.6
 40
30.4
  1
出力　極数
 50
0.0
 41
0.9
 51
0.0
  7
KANJI48
  0
TEXT
  8
0
  6
CONTINUOUS
 62
     2
 10
2604.0
 20
1463.4
 30
44.586377143
 40
30.4
  1
電源電圧
 50
0.0
 41
0.9
 51
0.0
  7
KANJI49
  0
TEXT
  8
0
  6
CONTINUOUS
 62
     2
 10
2604.0
 20
1407.4
 30
80.56
 40
30.4
  1
周波数
 50
0.0
 41
0.9
 51
0.0
  7
KANJI50
  0
TEXT
  8
0
  6
CONTINUOUS
 62
     2
 10
2604.0
 20
1351.4
 30
188.48
 40
30.4
  1
電流
 50
0.0
 41
0.9
 51
0.0
  7
KANJI51
  0
TEXT
  8
0
  6
CONTINUOUS
 62
     2
 10
2604.0
 20
1295.4
 30
80.56
 40
30.4
  1
絶縁級
 50
0.0
 41
0.9
 51
0.0
  7
KANJI50
  0
TEXT
  8
0
  6
CONTINUOUS
 62
     2
 10
2604.0
 20
1183.4
 30
188.48
 40
30.4
  1
形式
 50
0.0
 41
0.9
 51
0.0
  7
KANJI51
  0
TEXT
  8
0
  6
CONTINUOUS
 62
     2
 10
2604.0
 20
1127.4
 30
44.586377143
 40
30.4
  1
操作方式
 50
0.0
 41
0.9
 51
0.0
  7
KANJI49
  0
TEXT
  8
0
  6
CONTINUOUS
 62
     2
 10
2564.0
 20
1071.4
 30
106.617142857
 40
30.4
  1
付属品
 50
0.0
 41
0.9
 51
0.0
  7
KANJI47
  0
TEXT
  8
0
  6
CONTINUOUS
 62
     2
 10
2564.0
 20
1015.4
 30
240.594285714
 40
30.4
  1
台数
 50
0.0
 41
0.9
 51
0.0
  7
KANJI42
  0
TEXT
  8
0
  6
CONTINUOUS
 62
     2
 10
3154.8
 20
1858.6
 30
0.1792
 40
22.4
  1
ｍｍ
 50
0.0
 41
0.8
 51
0.0
  7
KANJI52
  0
TEXT
  8
0
  6
CONTINUOUS
 62
     2
 10
3094.8
 20
1805.0
 30
0.1792
 40
22.4
  1
ｍｍ／ｓｅｃ
 50
0.0
 41
0.8
 51
0.0
  7
KANJI52
  0
LINE
  8
0
  6
CONTINUOUS
 62
     1
 10
2504.0
 20
1001.0
 11
3212.0
 21
1001.0
  0
LINE
  8
0
  6
CONTINUOUS
 62
     2
 10
2504.0
 20
1057.0
 11
3212.0
 21
1057.0
  0
LINE
  8
0
  6
CONTINUOUS
 62
     2
 10
2504.0
 20
1113.0
 11
3212.0
 21
1113.0
  0
LINE
  8
0
  6
CONTINUOUS
 62
     2
 10
2568.0
 20
1169.0
 11
3212.0
 21
1169.0
  0
LINE
  8
0
  6
CONTINUOUS
 62
     2
 10
2504.0
 20
1225.0
 11
3212.0
 21
1225.0
  0
LINE
  8
0
  6
CONTINUOUS
 62
     2
 10
2568.0
 20
1281.0
 11
3212.0
 21
1281.0
  0
LINE
  8
0
  6
CONTINUOUS
 62
     2
 10
2568.0
 20
1337.0
 11
3212.0
 21
1337.0
  0
LINE
  8
0
  6
CONTINUOUS
 62
     2
 10
2568.0
 20
1393.0
 11
3212.0
 21
1393.0
  0
LINE
  8
0
  6
CONTINUOUS
 62
     2
 10
2568.0
 20
1449.0
 11
3212.0
 21
1449.0
  0
LINE
  8
0
  6
CONTINUOUS
 62
     2
 10
2568.0
 20
1505.0
 11
3212.0
 21
1505.0
  0
LINE
  8
0
  6
CONTINUOUS
 62
     2
 10
2504.0
 20
1561.0
 11
3212.0
 21
1561.0
  0
LINE
  8
0
  6
CONTINUOUS
 62
     2
 10
2504.0
 20
1617.0
 11
3212.0
 21
1617.0
  0
LINE
  8
0
  6
CONTINUOUS
 62
     2
 10
2504.0
 20
1673.0
 11
3212.0
 21
1673.0
  0
LINE
  8
0
  6
CONTINUOUS
 62
     1
 10
2504.0
 20
2089.0
 11
3212.0
 21
2089.0
  0
LINE
  8
0
  6
CONTINUOUS
 62
     2
 10
2504.0
 20
2009.0
 11
3212.0
 21
2009.0
  0
LINE
  8
0
  6
CONTINUOUS
 62
     2
 10
2504.0
 20
1953.0
 11
3212.0
 21
1953.0
  0
LINE
  8
0
  6
CONTINUOUS
 62
     2
 10
2504.0
 20
1897.0
 11
3212.0
 21
1897.0
  0
LINE
  8
0
  6
CONTINUOUS
 62
     2
 10
2504.0
 20
1841.0
 11
3212.0
 21
1841.0
  0
LINE
  8
0
  6
CONTINUOUS
 62
     2
 10
2504.0
 20
1785.0
 11
3212.0
 21
1785.0
  0
LINE
  8
0
  6
CONTINUOUS
 62
     2
 10
2504.0
 20
1729.0
 11
3212.0
 21
1729.0
  0
TEXT
  8
0
  6
CONTINUOUS
 62
     2
 10
2980.8
 20
1464.2
 30
2.4
 40
24.0
  1
　　　　　　／　
 50
0.0
 41
0.9
 51
0.0
  7
KANJI2
  0
TEXT
  8
0
  6
CONTINUOUS
 62
     2
 10
2980.8
 20
1352.2
 30
2.4
 40
24.0
  1
　　　　　　／　　
 50
0.0
 41
0.9
 51
0.0
  7
KANJI2
  0
LINE
  8
1
  6
CONTINUOUS
 62
     2
 10
670.0
 20
1026.0
 11
650.681483474
 21
1031.176380902
  0
LINE
  8
1
  6
CONTINUOUS
 62
     2
 10
670.0
 20
1026.0
 11
650.681483474
 21
1020.823619098
  0
LINE
  8
1
  6
CONTINUOUS
 62
     2
 10
670.0
 20
1026.0
 11
600.0
 21
1026.0
  0
LINE
  8
1
  6
CONTINUOUS
 62
     2
 10
600.0
 20
1026.0
 11
619.318516526
 21
1020.823619098
  0
LINE
  8
1
  6
CONTINUOUS
 62
     2
 10
600.0
 20
1026.0
 11
619.318516526
 21
1031.176380902
  0
LINE
  8
1
  6
CONTINUOUS
 62
     2
 10
600.0
 20
1193.0
 11
600.0
 21
1010.0
  0
LINE
  8
1
  6
CONTINUOUS
 62
     2
 10
600.0
 20
1026.0
 11
580.681483474
 21
1031.176380902
  0
LINE
  8
1
  6
CONTINUOUS
 62
     2
 10
600.0
 20
1026.0
 11
580.681483474
 21
1020.823619098
  0
LINE
  8
1
  6
CONTINUOUS
 62
     2
 10
600.0
 20
1026.0
 11
445.0
 21
1026.0
  0
LINE
  8
1
  6
CONTINUOUS
 62
     2
 10
445.0
 20
1026.0
 11
464.318516526
 21
1020.823619098
  0
LINE
  8
1
  6
CONTINUOUS
 62
     2
 10
445.0
 20
1026.0
 11
464.318516526
 21
1031.176380902
  0
LINE
  8
1
  6
CONTINUOUS
 62
     2
 10
445.0
 20
1193.0
 11
445.0
 21
1010.0
  0
LINE
  8
0
  6
CONTINUOUS
 62
     1
 10
600.0
 20
1201.0
 11
445.0
 21
1201.0
  0
LINE
  8
0
  6
CONTINUOUS
 62
     1
 10
445.0
 20
1451.8
 11
442.0
 21
1451.8
  0
LINE
  8
0
  6
CONTINUOUS
 62
     1
 10
442.0
 20
1451.8
 11
442.0
 21
1430.2
  0
LINE
  8
0
  6
CONTINUOUS
 62
     1
 10
442.0
 20
1430.2
 11
445.0
 21
1430.2
  0
LINE
  8
0
  6
CONTINUOUS
 62
     1
 10
445.0
 20
1430.2
 11
445.0
 21
1451.8
  0
LINE
  8
0
  6
CONTINUOUS
 62
     1
 10
442.0
 20
1432.0
 11
442.0
 21
1450.0
  0
LINE
  8
0
  6
CONTINUOUS
 62
     1
 10
434.5
 20
1432.0
 11
434.5
 21
1450.0
  0
LINE
  8
0
  6
LTYPE2
 62
     2
 10
449.0
 20
1441.0
 11
430.5
 21
1441.0
  0
LINE
  8
0
  6
CONTINUOUS
 62
     1
 10
434.5
 20
1450.0
 11
442.0
 21
1450.0
  0
LINE
  8
0
  6
CONTINUOUS
 62
     1
 10
434.5
 20
1432.0
 11
442.0
 21
1432.0
  0
LINE
  8
0
  6
CONTINUOUS
 62
     1
 10
442.0
 20
1441.0
 11
435.5
 21
1441.0
  0
ARC
  8
0
  6
CONTINUOUS
 62
     1
 10
445.1
 20
1436.5
 40
10.6
 50
154.9
 51
205.1
  0
ARC
  8
0
  6
CONTINUOUS
 62
     1
 10
445.1
 20
1445.5
 40
10.6
 50
154.9
 51
205.1
  0
LINE
  8
0
  6
CONTINUOUS
 62
     1
 10
442.0
 20
1441.0
 11
445.0
 21
1442.732050808
  0
LINE
  8
0
  6
CONTINUOUS
 62
     1
 10
445.0
 20
1441.0
 11
442.0
 21
1439.267949192
  0
LINE
  8
0
  6
CONTINUOUS
 62
     1
 10
445.0
 20
1241.8
 11
442.0
 21
1241.8
  0
LINE
  8
0
  6
CONTINUOUS
 62
     1
 10
442.0
 20
1241.8
 11
442.0
 21
1220.2
  0
LINE
  8
0
  6
CONTINUOUS
 62
     1
 10
442.0
 20
1220.2
 11
445.0
 21
1220.2
  0
LINE
  8
0
  6
CONTINUOUS
 62
     1
 10
445.0
 20
1220.2
 11
445.0
 21
1241.8
  0
LINE
  8
0
  6
CONTINUOUS
 62
     1
 10
442.0
 20
1222.0
 11
442.0
 21
1240.0
  0
LINE
  8
0
  6
CONTINUOUS
 62
     1
 10
434.5
 20
1222.0
 11
434.5
 21
1240.0
  0
LINE
  8
0
  6
LTYPE2
 62
     2
 10
449.0
 20
1231.0
 11
430.5
 21
1231.0
  0
LINE
  8
0
  6
CONTINUOUS
 62
     1
 10
434.5
 20
1240.0
 11
442.0
 21
1240.0
  0
LINE
  8
0
  6
CONTINUOUS
 62
     1
 10
434.5
 20
1222.0
 11
442.0
 21
1222.0
  0
LINE
  8
0
  6
CONTINUOUS
 62
     1
 10
442.0
 20
1231.0
 11
435.5
 21
1231.0
  0
ARC
  8
0
  6
CONTINUOUS
 62
     1
 10
445.1
 20
1226.5
 40
10.6
 50
154.9
 51
205.1
  0
ARC
  8
0
  6
CONTINUOUS
 62
     1
 10
445.1
 20
1235.5
 40
10.6
 50
154.9
 51
205.1
  0
LINE
  8
0
  6
CONTINUOUS
 62
     1
 10
442.0
 20
1231.0
 11
445.0
 21
1232.732050808
  0
LINE
  8
0
  6
CONTINUOUS
 62
     1
 10
445.0
 20
1231.0
 11
442.0
 21
1229.267949192
  0
LINE
  8
1
  6
CONTINUOUS
 62
     2
 10
670.0
 20
1018.0
 11
670.0
 21
943.0
  0
LINE
  8
1
  6
CONTINUOUS
 62
     2
 10
670.0
 20
959.0
 11
650.681483474
 21
964.176380902
  0
LINE
  8
1
  6
CONTINUOUS
 62
     2
 10
670.0
 20
959.0
 11
650.681483474
 21
953.823619098
  0
LINE
  8
1
  6
CONTINUOUS
 62
     2
 10
670.0
 20
959.0
 11
445.0
 21
959.0
  0
LINE
  8
1
  6
CONTINUOUS
 62
     2
 10
445.0
 20
959.0
 11
464.318516526
 21
953.823619098
  0
LINE
  8
1
  6
CONTINUOUS
 62
     2
 10
445.0
 20
959.0
 11
464.318516526
 21
964.176380902
  0
LINE
  8
1
  6
CONTINUOUS
 62
     2
 10
445.0
 20
1018.0
 11
445.0
 21
943.0
  0
TEXT
  8
1
  6
CONTINUOUS
 62
     2
 10
481.7
 20
1034.0
 30
2.4
 40
28.0
  1
１５５
 50
0.0
 41
0.914285714
 51
0.0
  7
KANJI53
  0
TEXT
  8
1
  6
CONTINUOUS
 62
     2
 10
608.2
 20
1034.0
 30
2.4
 40
28.0
  1
７０
 50
0.0
 41
0.914285714
 51
0.0
  7
KANJI53
  0
TEXT
  8
1
  6
CONTINUOUS
 62
     2
 10
516.7
 20
967.0
 30
2.4
 40
28.0
  1
２２５
 50
0.0
 41
0.914285714
 51
0.0
  7
KANJI53
  0
CIRCLE
  8
0
  6
CONTINUOUS
 62
     1
 10
2608.5
 20
308.9
 40
23.0
  0
TEXT
  8
0
  6
CONTINUOUS
 62
     2
 10
2597.8
 20
295.4
 30
0.0
 40
28.0
  1
Ｓ
 50
0.0
 41
0.793650794
 51
0.0
  7
KANJI54
  0
TEXT
  8
0
  6
CONTINUOUS
 62
     2
 10
2227.0
 20
241.0
 30
2.4
 40
24.0
  1
佐竹
 50
0.0
 41
0.9
 51
0.0
  7
KANJI2
  0
TEXT
  8
0
  6
CONTINUOUS
 62
     2
 10
1081.7
 20
633.0
 30
2.4
 40
24.0
  1
１１０５
 50
0.0
 41
0.9
 51
0.0
  7
KANJI2
  0
TEXT
  8
0
  6
CONTINUOUS
 62
     2
 10
2215.0
 20
181.0
 30
2.4
 40
24.0
  1
００．３．２２
 50
0.0
 41
0.9
 51
0.0
  7
KANJI2
  0
LINE
  8
6
  6
CONTINUOUS
 62
     2
 10
721.01036957
 20
1112.541
 11
886.5
 21
1112.541
  0
LINE
  8
6
  6
CONTINUOUS
 62
     2
 10
670.0
 20
1173.0
 11
670.0
 21
1062.041
  0
LINE
  8
0
  6
LTYPE3
 62
     2
 10
623.0
 20
1336.0
 11
437.07
 21
1336.0
  0
LINE
  8
1
  6
CONTINUOUS
 62
     2
 10
670.0
 20
1173.0
 11
670.0
 21
1055.541
  0
LINE
  8
1
  6
CONTINUOUS
 62
     2
 10
670.0
 20
1173.0
 11
670.0
 21
1056.3
  0
LINE
  8
1
  6
CONTINUOUS
 62
     2
 10
670.0
 20
1173.0
 11
670.0
 21
1010.0
  0
CIRCLE
  8
0
  6
CONTINUOUS
 62
     1
 10
670.0
 20
1336.0
 40
22.5
  0
CIRCLE
  8
0
  6
CONTINUOUS
 62
     1
 10
670.0
 20
1336.0
 40
45.0
  0
CIRCLE
  8
0
  6
CONTINUOUS
 62
     1
 10
670.0
 20
1336.0
 40
55.0
  0
LINE
  8
0
  6
CONTINUOUS
 62
     1
 10
635.0
 20
1436.0
 11
658.0
 21
1417.5
  0
LINE
  8
0
  6
CONTINUOUS
 62
     1
 10
635.0
 20
1382.5
 11
635.0
 21
1436.0
  0
LINE
  8
0
  6
CONTINUOUS
 62
     1
 10
658.0
 20
1392.5
 11
658.0
 21
1417.5
  0
LINE
  8
0
  6
CONTINUOUS
 62
     1
 10
600.0
 20
1236.0
 11
635.0
 21
1236.0
  0
LINE
  8
0
  6
CONTINUOUS
 62
     1
 10
635.0
 20
1236.0
 11
658.0
 21
1254.5
  0
LINE
  8
0
  6
CONTINUOUS
 62
     1
 10
635.0
 20
1289.5
 11
635.0
 21
1236.0
  0
LINE
  8
0
  6
CONTINUOUS
 62
     1
 10
658.0
 20
1279.5
 11
658.0
 21
1254.5
  0
LINE
  8
0
  6
CONTINUOUS
 62
     1
 10
860.0
 20
1236.0
 11
830.0
 21
1254.5
  0
LINE
  8
0
  6
CONTINUOUS
 62
     1
 10
658.0
 20
1254.5
 11
830.0
 21
1254.5
  0
LINE
  8
0
  6
CONTINUOUS
 62
     1
 10
860.0
 20
1236.0
 11
900.0
 21
1236.0
  0
LINE
  8
0
  6
CONTINUOUS
 62
     1
 10
830.0
 20
1336.0
 11
830.0
 21
1254.5
  0
LINE
  8
0
  6
LTYPE3
 62
     2
 10
670.0
 20
1266.398877817
 11
670.0
 21
1403.366558854
  0
LINE
  8
0
  6
CONTINUOUS
 62
     1
 10
937.0
 20
1336.0
 11
937.0
 21
1436.0
  0
LINE
  8
0
  6
CONTINUOUS
 62
     1
 10
914.0
 20
1336.0
 11
914.0
 21
1436.0
  0
LINE
  8
0
  6
CONTINUOUS
 62
     1
 10
940.0
 20
1423.5
 11
940.0
 21
1434.44954
  0
LINE
  8
0
  6
CONTINUOUS
 62
     1
 10
940.0
 20
1423.5
 11
940.0
 21
1412.55046
  0
LINE
  8
0
  6
CONTINUOUS
 62
     1
 10
937.0
 20
1434.25
 11
940.0
 21
1434.25
  0
LINE
  8
0
  6
CONTINUOUS
 62
     1
 10
937.0
 20
1423.5
 11
940.000254073
 21
1426.500254073
  0
LINE
  8
0
  6
CONTINUOUS
 62
     1
 10
940.000254073
 20
1423.5
 11
937.0
 21
1420.499745927
  0
LINE
  8
0
  6
CONTINUOUS
 62
     1
 10
937.0
 20
1412.75
 11
940.0
 21
1412.75
  0
LINE
  8
0
  6
CONTINUOUS
 62
     1
 10
940.0
 20
1434.25
 11
951.3
 21
1434.25
  0
LINE
  8
0
  6
CONTINUOUS
 62
     1
 10
951.3
 20
1423.5
 11
951.3
 21
1434.25
  0
LINE
  8
0
  6
CONTINUOUS
 62
     1
 10
951.3
 20
1434.25
 11
952.0
 21
1433.037564435
  0
LINE
  8
0
  6
CONTINUOUS
 62
     1
 10
952.0
 20
1423.5
 11
952.0
 21
1433.037564435
  0
LINE
  8
0
  6
CONTINUOUS
 62
     1
 10
940.0
 20
1412.75
 11
951.3
 21
1412.75
  0
LINE
  8
0
  6
CONTINUOUS
 62
     1
 10
951.3
 20
1423.5
 11
951.3
 21
1412.75
  0
LINE
  8
0
  6
CONTINUOUS
 62
     1
 10
951.3
 20
1412.75
 11
952.0
 21
1413.962435565
  0
LINE
  8
0
  6
CONTINUOUS
 62
     1
 10
952.0
 20
1423.5
 11
952.0
 21
1413.962435565
  0
LINE
  8
0
  6
LTYPE3
 62
     2
 10
900.0
 20
1423.5
 11
963.7
 21
1423.5
  0
LINE
  8
0
  6
CONTINUOUS
 62
     1
 10
937.0
 20
1336.0
 11
937.0
 21
1236.0
  0
LINE
  8
0
  6
CONTINUOUS
 62
     1
 10
914.0
 20
1336.0
 11
914.0
 21
1236.0
  0
LINE
  8
0
  6
CONTINUOUS
 62
     1
 10
900.0
 20
1236.0
 11
937.0
 21
1236.0
  0
LINE
  8
0
  6
CONTINUOUS
 62
     1
 10
900.0
 20
1336.0
 11
900.0
 21
1236.0
  0
LINE
  8
0
  6
CONTINUOUS
 62
     1
 10
940.0
 20
1248.5
 11
940.0
 21
1237.55046
  0
LINE
  8
0
  6
CONTINUOUS
 62
     1
 10
940.0
 20
1248.5
 11
940.0
 21
1259.44954
  0
LINE
  8
0
  6
CONTINUOUS
 62
     1
 10
937.0
 20
1237.75
 11
940.0
 21
1237.75
  0
LINE
  8
0
  6
CONTINUOUS
 62
     1
 10
937.0
 20
1248.5
 11
940.000254073
 21
1245.499745927
  0
LINE
  8
0
  6
CONTINUOUS
 62
     1
 10
940.000254073
 20
1248.5
 11
937.0
 21
1251.500254073
  0
LINE
  8
0
  6
CONTINUOUS
 62
     1
 10
937.0
 20
1259.25
 11
940.0
 21
1259.25
  0
LINE
  8
0
  6
CONTINUOUS
 62
     1
 10
940.0
 20
1237.75
 11
951.3
 21
1237.75
  0
LINE
  8
0
  6
CONTINUOUS
 62
     1
 10
951.3
 20
1248.5
 11
951.3
 21
1237.75
  0
LINE
  8
0
  6
CONTINUOUS
 62
     1
 10
951.3
 20
1237.75
 11
952.0
 21
1238.962435565
  0
LINE
  8
0
  6
CONTINUOUS
 62
     1
 10
952.0
 20
1248.5
 11
952.0
 21
1238.962435565
  0
LINE
  8
0
  6
CONTINUOUS
 62
     1
 10
940.0
 20
1259.25
 11
951.3
 21
1259.25
  0
LINE
  8
0
  6
CONTINUOUS
 62
     1
 10
951.3
 20
1248.5
 11
951.3
 21
1259.25
  0
LINE
  8
0
  6
CONTINUOUS
 62
     1
 10
951.3
 20
1259.25
 11
952.0
 21
1258.037564435
  0
LINE
  8
0
  6
CONTINUOUS
 62
     1
 10
952.0
 20
1248.5
 11
952.0
 21
1258.037564435
  0
LINE
  8
0
  6
LTYPE3
 62
     2
 10
900.0
 20
1248.5
 11
963.7
 21
1248.5
  0
CIRCLE
  8
0
  6
CONTINUOUS
 62
     1
 10
1138.3
 20
1336.0
 40
19.5
  0
LINE
  8
0
  6
CONTINUOUS
 62
     1
 10
1118.3
 20
1356.0
 11
1158.3
 21
1356.0
  0
LINE
  8
0
  6
CONTINUOUS
 62
     1
 10
1158.3
 20
1316.0
 11
1158.3
 21
1356.0
  0
LINE
  8
0
  6
CONTINUOUS
 62
     1
 10
1118.3
 20
1316.0
 11
1158.3
 21
1316.0
  0
LINE
  8
0
  6
CONTINUOUS
 62
     1
 10
1118.3
 20
1316.0
 11
1118.3
 21
1356.0
  0
LINE
  8
0
  6
LTYPE2
 62
     2
 10
1138.3
 20
1310.9
 11
1138.3
 21
1360.8
  0
LINE
  8
6
  6
CONTINUOUS
 62
     2
 10
670.0
 20
1254.398877817
 11
670.0
 21
1062.0
  0
LINE
  8
6
  6
CONTINUOUS
 62
     2
 10
1085.0
 20
1266.0
 11
1090.176380902
 21
1285.318516526
  0
LINE
  8
6
  6
CONTINUOUS
 62
     2
 10
1085.0
 20
1266.0
 11
1079.823619098
 21
1285.318516526
  0
LINE
  8
6
  6
CONTINUOUS
 62
     2
 10
1085.0
 20
1266.0
 11
1085.0
 21
1406.0
  0
LINE
  8
6
  6
CONTINUOUS
 62
     2
 10
1085.0
 20
1406.0
 11
1079.823619098
 21
1386.681483474
  0
LINE
  8
6
  6
CONTINUOUS
 62
     2
 10
1085.0
 20
1406.0
 11
1090.176380902
 21
1386.681483474
  0
TEXT
  8
6
  6
CONTINUOUS
 62
     2
 10
1077.0
 20
1289.2
 30
2.4
 40
24.0
  1
φ１４０
 50
90.0
 41
0.9
 51
0.0
  7
KANJI55
  0
LINE
  8
6
  6
CONTINUOUS
 62
     2
 10
1405.0
 20
1428.5
 11
1404.5
 21
1428.5
  0
LINE
  8
0
  6
LTYPE3
 62
     2
 10
1588.000190206
 20
1170.0
 11
1588.000190206
 21
1390.5
  0
LINE
  8
0
  6
LTYPE3
 62
     2
 10
1641.0
 20
1336.0
 11
421.0
 21
1336.0
  0
LINE
  8
0
  6
CONTINUOUS
 62
     1
 10
1488.0
 20
1383.5
 11
1628.000190206
 21
1383.5
  0
LINE
  8
0
  6
CONTINUOUS
 62
     1
 10
1628.000190206
 20
1383.5
 11
1638.000190206
 21
1373.5
  0
LINE
  8
0
  6
CONTINUOUS
 62
     1
 10
1488.0
 20
1288.5
 11
1628.000190206
 21
1288.5
  0
LINE
  8
0
  6
CONTINUOUS
 62
     1
 10
1638.000190206
 20
1298.5
 11
1638.000190206
 21
1373.5
  0
LINE
  8
0
  6
CONTINUOUS
 62
     1
 10
1628.000190206
 20
1288.5
 11
1638.000190206
 21
1298.5
  0
CIRCLE
  8
0
  6
CONTINUOUS
 62
     1
 10
1588.000190206
 20
1336.0
 40
22.5
  0
LINE
  8
0
  6
CONTINUOUS
 62
     1
 10
1628.000190206
 20
1383.5
 11
1628.000190206
 21
1376.388736054
  0
LINE
  8
0
  6
CONTINUOUS
 62
     1
 10
1628.000190206
 20
1376.388736054
 11
1638.000190206
 21
1363.747752752
  0
LINE
  8
0
  6
CONTINUOUS
 62
     1
 10
1628.000190206
 20
1376.388736054
 11
1498.0
 21
1376.388736054
  0
LINE
  8
0
  6
CONTINUOUS
 62
     1
 10
1628.000190206
 20
1288.5
 11
1628.000190206
 21
1295.611263946
  0
LINE
  8
0
  6
CONTINUOUS
 62
     1
 10
1628.000190206
 20
1295.611263946
 11
1638.000190206
 21
1308.252247248
  0
LINE
  8
0
  6
CONTINUOUS
 62
     1
 10
1628.000190206
 20
1295.611263946
 11
1498.0
 21
1295.611263946
  0
LINE
  8
0
  6
CONTINUOUS
 62
     1
 10
1498.0
 20
1376.388736054
 11
1498.0
 21
1295.611263946
  0
LINE
  8
0
  6
CONTINUOUS
 62
     1
 10
1344.149691586
 20
1348.0
 11
1344.149691586
 21
1336.0
  0
LINE
  8
0
  6
CONTINUOUS
 62
     1
 10
1344.149691586
 20
1407.591148475
 11
1344.149691586
 21
1336.0
  0
POINT
  8
0
  6
CONTINUOUS
 62
     1
 10
726.0
 20
1336.0
  0
LINE
  8
0
  6
CONTINUOUS
 62
     1
 10
783.0
 20
1465.944375069
 11
773.0
 21
1455.944375069
  0
LINE
  8
0
  6
CONTINUOUS
 62
     1
 10
773.0
 20
1397.305778818
 11
773.0
 21
1455.944375069
  0
LINE
  8
0
  6
CONTINUOUS
 62
     1
 10
783.0
 20
1387.305778818
 11
773.0
 21
1397.305778818
  0
ARC
  8
0
  6
CONTINUOUS
 62
     1
 10
771.0
 20
1466.466558854
 40
3.0
 50
90.0
 51
180.0
  0
ARC
  8
0
  6
CONTINUOUS
 62
     1
 10
771.0
 20
1385.63644216
 40
3.0
 50
180.0
 51
270.0
  0
ARC
  8
0
  6
CONTINUOUS
 62
     1
 10
771.0
 20
1382.194983542
 40
3.0
 50
180.0
 51
270.0
  0
ARC
  8
0
  6
CONTINUOUS
 62
     1
 10
771.0
 20
1381.334618887
 40
3.0
 50
180.0
 51
270.0
  0
LINE
  8
0
  6
CONTINUOUS
 62
     1
 10
891.0
 20
1397.305778818
 11
891.0
 21
1455.944375069
  0
LINE
  8
0
  6
CONTINUOUS
 62
     1
 10
896.0
 20
1354.657620342
 11
896.0
 21
1466.466558854
  0
ARC
  8
0
  6
CONTINUOUS
 62
     1
 10
893.0
 20
1466.466558854
 40
3.0
 50
0.0
 51
90.0
  0
LINE
  8
0
  6
CONTINUOUS
 62
     1
 10
891.0
 20
1455.944375069
 11
881.0
 21
1465.944375069
  0
LINE
  8
0
  6
CONTINUOUS
 62
     1
 10
783.0
 20
1465.944375069
 11
881.0
 21
1465.944375069
  0
LINE
  8
0
  6
CONTINUOUS
 62
     1
 10
891.0
 20
1397.305778818
 11
881.0
 21
1387.305778818
  0
LINE
  8
0
  6
CONTINUOUS
 62
     1
 10
783.0
 20
1387.305778818
 11
881.0
 21
1387.305778818
  0
LINE
  8
0
  6
CONTINUOUS
 62
     1
 10
771.0
 20
1469.466558854
 11
893.0
 21
1469.466558854
  0
ARC
  8
0
  6
CONTINUOUS
 62
     1
 10
893.0
 20
1385.63644216
 40
3.0
 50
270.0
 51
0.0
  0
ARC
  8
0
  6
CONTINUOUS
 62
     1
 10
893.0
 20
1382.194983542
 40
3.0
 50
270.0
 51
0.0
  0
ARC
  8
0
  6
CONTINUOUS
 62
     1
 10
893.0
 20
1381.334618887
 40
3.0
 50
270.0
 51
0.0
  0
LINE
  8
0
  6
CONTINUOUS
 62
     1
 10
770.507319827
 20
1382.63644216
 11
893.0
 21
1382.63644216
  0
LINE
  8
0
  6
CONTINUOUS
 62
     1
 10
770.607319827
 20
1379.194983542
 11
893.0
 21
1379.194983542
  0
LINE
  8
0
  6
CONTINUOUS
 62
     1
 10
770.607319827
 20
1378.334618887
 11
893.0
 21
1378.334618887
  0
LINE
  8
0
  6
CONTINUOUS
 62
     1
 10
901.0
 20
1381.266636349
 11
901.0
 21
1438.13271812
  0
LINE
  8
0
  6
CONTINUOUS
 62
     1
 10
896.0
 20
1381.266636349
 11
901.0
 21
1381.266636349
  0
LINE
  8
0
  6
CONTINUOUS
 62
     1
 10
896.0
 20
1438.13271812
 11
901.0
 21
1438.13271812
  0
LINE
  8
0
  6
CONTINUOUS
 62
     1
 10
896.0
 20
1405.366636349
 11
901.0
 21
1405.366636349
  0
LINE
  8
0
  6
CONTINUOUS
 62
     1
 10
858.0
 20
1354.657620342
 11
896.0
 21
1354.657620342
  0
LINE
  8
0
  6
CONTINUOUS
 62
     1
 10
901.0
 20
1425.848877817
 11
901.0
 21
1398.148877817
  0
LINE
  8
0
  6
LTYPE3
 62
     2
 10
874.737645868
 20
1411.998877817
 11
954.0
 21
1411.998877817
  0
LINE
  8
0
  6
CONTINUOUS
 62
     1
 10
768.0
 20
1336.0
 11
768.0
 21
1466.0
  0
LINE
  8
0
  6
CONTINUOUS
 62
     1
 10
658.0
 20
1417.5
 11
768.0
 21
1417.5
  0
LINE
  8
0
  6
CONTINUOUS
 62
     1
 10
768.0
 20
1353.957620342
 11
858.0
 21
1353.957620342
  0
LINE
  8
0
  6
CONTINUOUS
 62
     1
 10
860.0
 20
1354.657620342
 11
860.0
 21
1236.0
  0
LINE
  8
0
  6
CONTINUOUS
 62
     1
 10
900.0
 20
1381.266636349
 11
900.0
 21
1236.0
  0
LINE
  8
0
  6
CONTINUOUS
 62
     1
 10
901.0
 20
1436.0
 11
937.0
 21
1436.0
  0
LINE
  8
0
  6
CONTINUOUS
 62
     2
 10
1143.0
 20
1353.4
 11
1214.0
 21
1484.9
  0
LINE
  8
0
  6
CONTINUOUS
 62
     2
 10
1214.0
 20
1484.9
 11
1289.0
 21
1484.9
  0
LINE
  8
0
  6
CONTINUOUS
 62
     2
 10
1143.0
 20
1353.4
 11
1156.733041598
 21
1367.93972381
  0
LINE
  8
0
  6
CONTINUOUS
 62
     2
 10
1143.0
 20
1353.4
 11
1147.62330099
 21
1372.858290982
  0
TEXT
  8
0
  6
CONTINUOUS
 62
     2
 10
1215.5
 20
1496.1
 30
0.0
 40
24.0
  1
給脂口
 50
0.0
 41
0.9
 51
0.0
  7
KANJI3
  0
LINE
  8
0
  6
LTYPE2
 62
     2
 10
1306.149691586
 20
1176.5
 11
1306.149691586
 21
1241.8
  0
LINE
  8
0
  6
CONTINUOUS
 62
     1
 10
1487.999190206
 20
1327.5
 11
1487.999190206
 21
1336.0
  0
LINE
  8
0
  6
CONTINUOUS
 62
     1
 10
1471.999190206
 20
1336.0
 11
1487.999190206
 21
1336.0
  0
LINE
  8
6
  6
CONTINUOUS
 62
     2
 10
1653.0
 20
1336.0
 11
1692.5
 21
1336.0
  0
LINE
  8
6
  6
CONTINUOUS
 62
     2
 10
1680.5
 20
1336.0
 11
1675.323619098
 21
1316.681483474
  0
LINE
  8
6
  6
CONTINUOUS
 62
     2
 10
1680.5
 20
1336.0
 11
1685.676380902
 21
1316.681483474
  0
LINE
  8
0
  6
CONTINUOUS
 62
     1
 10
1488.0
 20
1396.0
 11
1488.0
 21
1288.5
  0
LINE
  8
0
  6
CONTINUOUS
 62
     1
 10
1488.0
 20
1396.0
 11
1472.0
 21
1396.0
  0
LINE
  8
0
  6
CONTINUOUS
 62
     1
 10
1472.0
 20
1336.0
 11
1472.0
 21
1396.0
  0
LINE
  8
0
  6
CONTINUOUS
 62
     1
 10
1344.149691586
 20
1416.0
 11
1344.149691586
 21
1295.5
  0
LINE
  8
0
  6
CONTINUOUS
 62
     1
 10
1328.149691586
 20
1416.0
 11
1344.149691586
 21
1416.0
  0
LINE
  8
0
  6
CONTINUOUS
 62
     1
 10
1268.149691586
 20
1416.0
 11
1284.149691586
 21
1416.0
  0
LINE
  8
0
  6
CONTINUOUS
 62
     1
 10
1344.149691586
 20
1266.0
 11
1438.0
 21
1266.0
  0
LINE
  8
0
  6
CONTINUOUS
 62
     1
 10
937.0
 20
1406.0
 11
1267.149691586
 21
1406.0
  0
LINE
  8
0
  6
LTYPE4
 62
     2
 10
972.149691586
 20
1416.0
 11
956.149691586
 21
1416.0
  0
LINE
  8
0
  6
LTYPE3
 62
     2
 10
832.649691586
 20
1213.5
 11
1287.849691586
 21
1213.5
  0
LINE
  8
0
  6
CONTINUOUS
 62
     1
 10
929.274192965
 20
1177.5
 11
943.130599426
 21
1169.5
  0
LINE
  8
0
  6
LTYPE1
 62
     2
 10
929.274192965
 20
1179.5
 11
979.274192965
 21
1179.5
  0
LINE
  8
0
  6
CONTINUOUS
 62
     1
 10
943.130599426
 20
1169.5
 11
965.417786504
 21
1169.5
  0
LINE
  8
0
  6
LTYPE1
 62
     2
 10
929.274192965
 20
1191.5
 11
979.274192965
 21
1191.5
  0
LINE
  8
0
  6
CONTINUOUS
 62
     1
 10
929.274192965
 20
1193.5
 11
943.130599426
 21
1201.5
  0
LINE
  8
0
  6
CONTINUOUS
 62
     1
 10
943.130599426
 20
1201.5
 11
965.417786504
 21
1201.5
  0
LINE
  8
0
  6
CONTINUOUS
 62
     1
 10
979.274192965
 20
1193.5
 11
965.417786504
 21
1201.5
  0
LINE
  8
0
  6
CONTINUOUS
 62
     1
 10
979.274192965
 20
1177.5
 11
979.274192965
 21
1193.5
  0
LINE
  8
0
  6
CONTINUOUS
 62
     1
 10
979.274192965
 20
1177.5
 11
965.417786504
 21
1169.5
  0
LINE
  8
0
  6
CONTINUOUS
 62
     1
 10
965.417786504
 20
1169.5
 11
965.417786504
 21
1201.5
  0
LINE
  8
0
  6
CONTINUOUS
 62
     1
 10
943.130599426
 20
1169.5
 11
965.417786504
 21
1169.5
  0
LINE
  8
0
  6
CONTINUOUS
 62
     1
 10
943.130599426
 20
1169.5
 11
943.130599426
 21
1201.5
  0
LINE
  8
0
  6
CONTINUOUS
 62
     1
 10
929.274192965
 20
1177.5
 11
929.274192965
 21
1193.5
  0
CIRCLE
  8
0
  6
CONTINUOUS
 62
     2
 10
954.274192965
 20
1185.5
 40
5.0
  0
CIRCLE
  8
0
  6
CONTINUOUS
 62
     2
 10
954.274192965
 20
1185.5
 40
4.0
  0
LINE
  8
0
  6
LTYPE2
 62
     2
 10
954.274192965
 20
1175.5
 11
954.274192965
 21
1195.5
  0
POINT
  8
0
  6
CONTINUOUS
 62
     1
 10
922.274192965
 20
1179.5
  0
LINE
  8
0
  6
LTYPE4
 62
     2
 10
922.274192965
 20
1225.5
 11
890.274192965
 21
1225.5
  0
LINE
  8
0
  6
LTYPE4
 62
     2
 10
922.274192965
 20
1172.5
 11
922.274192965
 21
1225.5
  0
LINE
  8
0
  6
LTYPE4
 62
     2
 10
880.274192965
 20
1207.5
 11
890.274192965
 21
1207.5
  0
LINE
  8
0
  6
LTYPE4
 62
     2
 10
864.274192965
 20
1200.5
 11
880.274192965
 21
1200.5
  0
LINE
  8
0
  6
LTYPE4
 62
     2
 10
861.774192965
 20
1213.5
 11
861.774192965
 21
1203.7
  0
LINE
  8
0
  6
LTYPE4
 62
     2
 10
861.774192965
 20
1203.7
 11
856.159833611
 21
1203.7
  0
LINE
  8
0
  6
LTYPE4
 62
     2
 10
854.774192965
 20
1206.1
 11
856.159833611
 21
1203.7
  0
LINE
  8
0
  6
LTYPE4
 62
     2
 10
854.774192965
 20
1213.5
 11
854.774192965
 21
1206.1
  0
LINE
  8
0
  6
LTYPE4
 62
     2
 10
861.774192965
 20
1208.6
 11
856.159833611
 21
1208.6
  0
ARC
  8
0
  6
LTYPE4
 62
     2
 10
857.632076797
 20
1206.15
 40
2.858321186
 50
121.002313915
 51
182.989498403
  0
LINE
  8
0
  6
LTYPE4
 62
     2
 10
864.274192965
 20
1204.3
 11
861.774192965
 21
1204.3
  0
LINE
  8
0
  6
LTYPE4
 62
     2
 10
864.274192965
 20
1213.5
 11
861.774192969
 21
1211.000000004
  0
LINE
  8
0
  6
LTYPE4
 62
     2
 10
880.274192965
 20
1219.5
 11
890.274192965
 21
1219.5
  0
LINE
  8
0
  6
LTYPE4
 62
     2
 10
861.774192969
 20
1213.5
 11
864.274192965
 21
1215.999999996
  0
LINE
  8
0
  6
LTYPE4
 62
     2
 10
864.274192965
 20
1200.5
 11
864.274192965
 21
1233.5
  0
LINE
  8
0
  6
LTYPE4
 62
     2
 10
880.274192965
 20
1200.5
 11
880.274192965
 21
1227.5
  0
LINE
  8
0
  6
LTYPE4
 62
     2
 10
854.774192965
 20
1213.5
 11
854.774192965
 21
1220.9
  0
LINE
  8
0
  6
LTYPE4
 62
     2
 10
861.774192965
 20
1213.5
 11
861.774192965
 21
1223.3
  0
LINE
  8
0
  6
LTYPE4
 62
     2
 10
861.774192965
 20
1223.3
 11
856.159833611
 21
1223.3
  0
LINE
  8
0
  6
LTYPE4
 62
     2
 10
854.774192965
 20
1220.9
 11
856.159833611
 21
1223.3
  0
LINE
  8
0
  6
LTYPE4
 62
     2
 10
861.774192965
 20
1218.4
 11
856.159833611
 21
1218.4
  0
LINE
  8
0
  6
LTYPE4
 62
     2
 10
854.774192965
 20
1220.9
 11
856.159833611
 21
1223.3
  0
ARC
  8
0
  6
LTYPE4
 62
     2
 10
857.632076797
 20
1220.85
 40
2.858321186
 50
177.010501597
 51
238.997686085
  0
LINE
  8
0
  6
LTYPE4
 62
     2
 10
864.274192965
 20
1222.7
 11
861.774192965
 21
1222.7
  0
ARC
  8
0
  6
LTYPE4
 62
     2
 10
864.130875765
 20
1213.5
 40
9.3566828
 50
148.419912243
 51
211.580087757
  0
LINE
  8
0
  6
LTYPE4
 62
     2
 10
890.274192965
 20
1172.5
 11
922.274192965
 21
1172.5
  0
LINE
  8
0
  6
LTYPE4
 62
     2
 10
887.774192965
 20
1185.5
 11
887.774192965
 21
1175.7
  0
LINE
  8
0
  6
LTYPE4
 62
     2
 10
887.774192965
 20
1175.7
 11
882.159833611
 21
1175.7
  0
LINE
  8
0
  6
LTYPE4
 62
     2
 10
880.774192965
 20
1178.1
 11
882.159833611
 21
1175.7
  0
LINE
  8
0
  6
LTYPE4
 62
     2
 10
880.774192965
 20
1185.5
 11
880.774192965
 21
1178.1
  0
LINE
  8
0
  6
LTYPE4
 62
     2
 10
887.774192965
 20
1180.6
 11
882.159833611
 21
1180.6
  0
ARC
  8
0
  6
LTYPE4
 62
     2
 10
883.632076797
 20
1178.15
 40
2.858321186
 50
121.002313915
 51
182.989498403
  0
LINE
  8
0
  6
LTYPE4
 62
     2
 10
890.274192965
 20
1176.3
 11
887.774192965
 21
1176.3
  0
LINE
  8
0
  6
LTYPE4
 62
     2
 10
887.774192965
 20
1185.5
 11
887.774192965
 21
1195.3
  0
LINE
  8
0
  6
LTYPE4
 62
     2
 10
887.774192965
 20
1195.3
 11
882.159833611
 21
1195.3
  0
LINE
  8
0
  6
LTYPE4
 62
     2
 10
880.774192965
 20
1192.9
 11
882.159833611
 21
1195.3
  0
LINE
  8
0
  6
LTYPE4
 62
     2
 10
880.774192965
 20
1185.5
 11
880.774192965
 21
1192.9
  0
LINE
  8
0
  6
LTYPE4
 62
     2
 10
887.774192965
 20
1190.4
 11
882.159833611
 21
1190.4
  0
LINE
  8
0
  6
LTYPE4
 62
     2
 10
880.774192965
 20
1192.9
 11
882.159833611
 21
1195.3
  0
ARC
  8
0
  6
LTYPE4
 62
     2
 10
883.632076797
 20
1192.85
 40
2.858321186
 50
177.010501597
 51
238.997686085
  0
LINE
  8
0
  6
LTYPE4
 62
     2
 10
887.774192969
 20
1185.5
 11
890.274192965
 21
1187.999999996
  0
LINE
  8
0
  6
LTYPE4
 62
     2
 10
890.274192965
 20
1194.7
 11
887.774192965
 21
1194.7
  0
ARC
  8
0
  6
LTYPE4
 62
     2
 10
890.130875765
 20
1185.5
 40
9.3566828
 50
148.419912243
 51
211.580087757
  0
LINE
  8
0
  6
LTYPE4
 62
     2
 10
890.274192965
 20
1185.5
 11
887.774192969
 21
1183.000000004
  0
LINE
  8
0
  6
LTYPE4
 62
     2
 10
890.274192965
 20
1172.5
 11
890.274192965
 21
1225.5
  0
LINE
  8
0
  6
CONTINUOUS
 62
     1
 10
922.274192965
 20
1191.5
 11
929.274192965
 21
1191.5
  0
LINE
  8
0
  6
CONTINUOUS
 62
     1
 10
929.274192965
 20
1179.5
 11
922.274192965
 21
1179.5
  0
LINE
  8
0
  6
CONTINUOUS
 62
     1
 10
979.274192965
 20
1191.5
 11
1258.849691586
 21
1191.5
  0
LINE
  8
0
  6
CONTINUOUS
 62
     1
 10
979.274192965
 20
1179.5
 11
1290.149691586
 21
1179.5
  0
LINE
  8
0
  6
LTYPE4
 62
     2
 10
922.274192965
 20
1207.5
 11
1243.449691586
 21
1207.5
  0
LINE
  8
0
  6
LTYPE4
 62
     2
 10
922.274192965
 20
1219.5
 11
1243.449691586
 21
1219.5
  0
LINE
  8
0
  6
LTYPE5
 62
     2
 10
860.149691586
 20
1185.5
 11
1503.649691586
 21
1185.5
  0
LINE
  8
0
  6
LTYPE4
 62
     2
 10
972.149691586
 20
1233.5
 11
864.274192965
 21
1233.5
  0
LINE
  8
0
  6
LTYPE4
 62
     2
 10
972.149691586
 20
1227.5
 11
864.274192965
 21
1227.5
  0
LINE
  8
0
  6
LTYPE4
 62
     2
 10
956.149691586
 20
1233.5
 11
956.149691586
 21
1416.0
  0
LINE
  8
0
  6
LTYPE4
 62
     2
 10
972.149691586
 20
1227.5
 11
972.149691586
 21
1416.0
  0
LINE
  8
0
  6
CONTINUOUS
 62
     1
 10
1241.149691586
 20
1233.5
 11
1371.149691586
 21
1233.5
  0
LINE
  8
0
  6
CONTINUOUS
 62
     1
 10
1378.849691586
 20
1226.5
 11
1378.849691586
 21
1201.1
  0
LINE
  8
0
  6
CONTINUOUS
 62
     1
 10
1353.449691586
 20
1226.5
 11
1378.849691586
 21
1226.5
  0
LINE
  8
0
  6
CONTINUOUS
 62
     1
 10
1241.149691586
 20
1227.5
 11
1241.149691586
 21
1233.5
  0
LINE
  8
0
  6
CONTINUOUS
 62
     1
 10
1241.149691586
 20
1227.5
 11
1371.149691586
 21
1227.5
  0
LINE
  8
0
  6
CONTINUOUS
 62
     1
 10
1371.149691586
 20
1227.5
 11
1371.149691586
 21
1233.5
  0
LINE
  8
0
  6
CONTINUOUS
 62
     1
 10
1353.449691586
 20
1201.1
 11
1378.849691586
 21
1201.1
  0
LINE
  8
0
  6
CONTINUOUS
 62
     1
 10
1284.749691586
 20
1227.5
 11
1284.749691586
 21
1187.5
  0
LINE
  8
0
  6
CONTINUOUS
 62
     1
 10
1353.449691586
 20
1227.5
 11
1353.449691586
 21
1187.5
  0
LINE
  8
0
  6
LTYPE1
 62
     2
 10
1289.849691586
 20
1196.73
 11
1284.849691586
 21
1196.73
  0
LINE
  8
0
  6
LTYPE1
 62
     2
 10
1289.849691586
 20
1197.885
 11
1284.849691586
 21
1197.885
  0
LINE
  8
0
  6
LTYPE1
 62
     2
 10
1289.849691586
 20
1217.67
 11
1284.849691586
 21
1217.67
  0
LINE
  8
0
  6
LTYPE1
 62
     2
 10
1289.849691586
 20
1216.515
 11
1284.849691586
 21
1216.515
  0
LINE
  8
0
  6
LTYPE1
 62
     2
 10
1289.849691586
 20
1217.67
 11
1284.849691586
 21
1217.67
  0
LINE
  8
0
  6
LTYPE2
 62
     2
 10
1363.149691586
 20
1212.6875
 11
1363.149691586
 21
1172.7
  0
LINE
  8
0
  6
CONTINUOUS
 62
     1
 10
1233.449691586
 20
1226.5
 11
1233.449691586
 21
1201.1
  0
LINE
  8
0
  6
CONTINUOUS
 62
     1
 10
1258.849691586
 20
1226.5
 11
1233.449691586
 21
1226.5
  0
LINE
  8
0
  6
CONTINUOUS
 62
     1
 10
1258.849691586
 20
1201.1
 11
1233.449691586
 21
1201.1
  0
LINE
  8
0
  6
CONTINUOUS
 62
     1
 10
1258.849691586
 20
1227.5
 11
1258.849691586
 21
1187.5
  0
LINE
  8
0
  6
CONTINUOUS
 62
     1
 10
1290.149691586
 20
1172.5
 11
1290.149691586
 21
1187.5
  0
LINE
  8
0
  6
CONTINUOUS
 62
     1
 10
1290.149691586
 20
1172.5
 11
1322.149691586
 21
1172.5
  0
LINE
  8
0
  6
CONTINUOUS
 62
     1
 10
1322.149691586
 20
1172.5
 11
1322.149691586
 21
1187.5
  0
LINE
  8
0
  6
LTYPE5
 62
     2
 10
1289.849691586
 20
1206.2
 11
1280.749691586
 21
1206.2
  0
LINE
  8
0
  6
CONTINUOUS
 62
     1
 10
1394.149691586
 20
1177.5
 11
1408.006098046
 21
1169.5
  0
LINE
  8
0
  6
LTYPE1
 62
     2
 10
1394.149691586
 20
1179.5
 11
1444.149691586
 21
1179.5
  0
LINE
  8
0
  6
CONTINUOUS
 62
     1
 10
1408.006098046
 20
1169.5
 11
1430.293285125
 21
1169.5
  0
LINE
  8
0
  6
LTYPE1
 62
     2
 10
1394.149691586
 20
1191.5
 11
1444.149691586
 21
1191.5
  0
LINE
  8
0
  6
CONTINUOUS
 62
     1
 10
1394.149691586
 20
1193.5
 11
1408.006098046
 21
1201.5
  0
LINE
  8
0
  6
CONTINUOUS
 62
     1
 10
1408.006098046
 20
1201.5
 11
1430.293285125
 21
1201.5
  0
LINE
  8
0
  6
CONTINUOUS
 62
     1
 10
1444.149691586
 20
1193.5
 11
1430.293285125
 21
1201.5
  0
LINE
  8
0
  6
CONTINUOUS
 62
     1
 10
1444.149691586
 20
1177.5
 11
1444.149691586
 21
1193.5
  0
LINE
  8
0
  6
CONTINUOUS
 62
     1
 10
1444.149691586
 20
1177.5
 11
1430.293285125
 21
1169.5
  0
LINE
  8
0
  6
CONTINUOUS
 62
     1
 10
1430.293285125
 20
1169.5
 11
1430.293285125
 21
1201.5
  0
LINE
  8
0
  6
CONTINUOUS
 62
     1
 10
1408.006098046
 20
1169.5
 11
1430.293285125
 21
1169.5
  0
LINE
  8
0
  6
CONTINUOUS
 62
     1
 10
1408.006098046
 20
1169.5
 11
1408.006098046
 21
1201.5
  0
LINE
  8
0
  6
CONTINUOUS
 62
     1
 10
1394.149691586
 20
1177.5
 11
1394.149691586
 21
1193.5
  0
CIRCLE
  8
0
  6
CONTINUOUS
 62
     2
 10
1419.149691586
 20
1185.5
 40
5.0
  0
CIRCLE
  8
0
  6
CONTINUOUS
 62
     2
 10
1419.149691586
 20
1185.5
 40
4.0
  0
LINE
  8
0
  6
LTYPE2
 62
     2
 10
1419.149691586
 20
1175.5
 11
1419.149691586
 21
1195.5
  0
LINE
  8
0
  6
CONTINUOUS
 62
     1
 10
1353.449691586
 20
1191.5
 11
1394.149691586
 21
1191.5
  0
LINE
  8
0
  6
CONTINUOUS
 62
     1
 10
1322.149691586
 20
1179.5
 11
1394.149691586
 21
1179.5
  0
LINE
  8
0
  6
CONTINUOUS
 62
     1
 10
1258.849691586
 20
1193.5
 11
1353.449691586
 21
1193.5
  0
LINE
  8
0
  6
CONTINUOUS
 62
     1
 10
1258.849691586
 20
1187.5
 11
1353.449691586
 21
1187.5
  0
LINE
  8
0
  6
CONTINUOUS
 62
     1
 10
1444.149691586
 20
1191.5
 11
1471.925190206
 21
1191.5
  0
LINE
  8
0
  6
CONTINUOUS
 62
     1
 10
1444.149691586
 20
1179.5
 11
1471.925190206
 21
1179.5
  0
LINE
  8
0
  6
CONTINUOUS
 62
     1
 10
1487.999190206
 20
1185.5
 11
1487.999190206
 21
1192.99406
  0
LINE
  8
0
  6
CONTINUOUS
 62
     1
 10
1487.999190206
 20
1185.5
 11
1487.999190206
 21
1178.00594
  0
LINE
  8
0
  6
CONTINUOUS
 62
     1
 10
1493.499090206
 20
1191.15878
 11
1492.439490804
 21
1192.99406
  0
LINE
  8
0
  6
CONTINUOUS
 62
     1
 10
1493.499090206
 20
1185.5
 11
1493.499090206
 21
1191.15878
  0
LINE
  8
0
  6
CONTINUOUS
 62
     1
 10
1493.499090206
 20
1179.84122
 11
1492.439490804
 21
1178.00594
  0
LINE
  8
0
  6
CONTINUOUS
 62
     1
 10
1493.499090206
 20
1185.5
 11
1493.499090206
 21
1179.84122
  0
ARC
  8
0
  6
CONTINUOUS
 62
     1
 10
1486.344034869
 20
1185.5
 40
7.155055337
 50
328.419912243
 51
31.580087757
  0
ARC
  8
0
  6
CONTINUOUS
 62
     1
 10
1491.31366644
 20
1191.120545
 40
2.185758211
 50
301.002313915
 51
2.989498403
  0
LINE
  8
0
  6
CONTINUOUS
 62
     1
 10
1493.499090206
 20
1179.84122
 11
1492.439490804
 21
1178.00594
  0
ARC
  8
0
  6
CONTINUOUS
 62
     1
 10
1491.31366644
 20
1179.879455
 40
2.185758211
 50
357.010501597
 51
58.997686085
  0
LINE
  8
0
  6
CONTINUOUS
 62
     1
 10
1487.999190206
 20
1192.99406
 11
1492.439490804
 21
1192.99406
  0
LINE
  8
0
  6
CONTINUOUS
 62
     1
 10
1487.999190206
 20
1189.24703
 11
1492.439490804
 21
1189.24703
  0
LINE
  8
0
  6
CONTINUOUS
 62
     1
 10
1487.999190206
 20
1181.75297
 11
1492.439490804
 21
1181.75297
  0
LINE
  8
0
  6
CONTINUOUS
 62
     1
 10
1487.999190206
 20
1178.00594
 11
1492.439490804
 21
1178.00594
  0
LINE
  8
0
  6
CONTINUOUS
 62
     1
 10
1493.499090206
 20
1181.5
 11
1498.499090206
 21
1181.5
  0
LINE
  8
0
  6
CONTINUOUS
 62
     1
 10
1493.499090206
 20
1189.5
 11
1498.499090206
 21
1189.5
  0
LINE
  8
0
  6
CONTINUOUS
 62
     1
 10
1498.499090206
 20
1181.5
 11
1498.499090206
 21
1189.5
  0
LINE
  8
0
  6
CONTINUOUS
 62
     2
 10
1493.499090206
 20
1188.7
 11
1498.499090206
 21
1188.7
  0
LINE
  8
0
  6
CONTINUOUS
 62
     2
 10
1493.499090206
 20
1182.3
 11
1498.499090206
 21
1182.3
  0
LINE
  8
0
  6
CONTINUOUS
 62
     1
 10
1268.149691586
 20
1233.5
 11
1268.149691586
 21
1416.0
  0
LINE
  8
0
  6
CONTINUOUS
 62
     1
 10
1284.149691586
 20
1233.5
 11
1284.149691586
 21
1416.0
  0
LINE
  8
0
  6
CONTINUOUS
 62
     1
 10
1328.149691586
 20
1233.5
 11
1328.149691586
 21
1416.0
  0
LINE
  8
0
  6
CONTINUOUS
 62
     1
 10
1344.149691586
 20
1233.5
 11
1344.149691586
 21
1416.0
  0
LINE
  8
6
  6
CONTINUOUS
 62
     2
 10
1680.5
 20
1331.0
 11
1680.5
 21
1169.5
  0
LINE
  8
6
  6
CONTINUOUS
 62
     2
 10
1680.5
 20
1169.5
 11
1685.676380902
 21
1188.818516526
  0
LINE
  8
6
  6
CONTINUOUS
 62
     2
 10
1680.5
 20
1169.5
 11
1675.323619098
 21
1188.818516526
  0
LINE
  8
6
  6
CONTINUOUS
 62
     2
 10
1438.6
 20
1169.5
 11
1692.5
 21
1169.5
  0
TEXT
  8
6
  6
CONTINUOUS
 62
     2
 10
1672.5
 20
1216.25
 30
1.6
 40
24.0
  1
１６８
 50
90.0
 41
0.9
 51
0.0
  7
KANJI56
  0
LINE
  8
0
  6
CONTINUOUS
 62
     1
 10
1284.149691586
 20
1266.0
 11
1328.149691586
 21
1266.0
  0
LINE
  8
0
  6
CONTINUOUS
 62
     1
 10
937.0
 20
1266.0
 11
1268.149691586
 21
1266.0
  0
LINE
  8
0
  6
CONTINUOUS
 62
     1
 10
600.0
 20
1436.0
 11
635.0
 21
1436.0
  0
LINE
  8
1
  6
CONTINUOUS
 62
     2
 10
824.0
 20
1395.466558854
 11
812.528561983
 21
1379.083454453
  0
LINE
  8
1
  6
CONTINUOUS
 62
     2
 10
824.0
 20
1395.466558854
 11
822.25699546
 21
1375.542655242
  0
TEXT
  8
0
  6
CONTINUOUS
 62
     2
 10
749.0
 20
1116.2
 30
0.0
 40
24.0
  1
推力リミッタ
 50
0.0
 41
0.9
 51
0.0
  7
KANJI3
  0
LINE
  8
6
  6
CONTINUOUS
 62
     2
 10
721.01036957
 20
1112.5
 11
886.5
 21
1112.5
  0
LINE
  8
1
  6
CONTINUOUS
 62
     2
 10
824.0
 20
1395.466558854
 11
721.01036957
 21
1112.5
  0
LINE
  8
1
  6
CONTINUOUS
 62
     2
 10
670.0
 20
1026.0
 11
689.318516526
 21
1020.823619098
  0
LINE
  8
1
  6
CONTINUOUS
 62
     2
 10
670.0
 20
1026.0
 11
689.318516526
 21
1031.176380902
  0
LINE
  8
1
  6
CONTINUOUS
 62
     2
 10
670.0
 20
1026.0
 11
1438.0
 21
1026.0
  0
LINE
  8
1
  6
CONTINUOUS
 62
     2
 10
1438.0
 20
1026.0
 11
1418.681483474
 21
1031.176380902
  0
LINE
  8
1
  6
CONTINUOUS
 62
     2
 10
1438.0
 20
1026.0
 11
1418.681483474
 21
1020.823619098
  0
LINE
  8
1
  6
CONTINUOUS
 62
     2
 10
1438.0
 20
1258.0
 11
1438.0
 21
1010.0
  0
TEXT
  8
1
  6
CONTINUOUS
 62
     3
 10
1041.2
 20
1034.0
 30
2.4
 40
28.0
  1
Ｃ
 50
0.0
 41
0.914285714
 51
0.0
  7
KANJI53
  0
LINE
  8
0
  6
CONTINUOUS
 62
     1
 10
1471.999190206
 20
1172.5
 11
1471.999190206
 21
1336.0
  0
LINE
  8
0
  6
CONTINUOUS
 62
     1
 10
1487.999190206
 20
1172.5
 11
1487.999190206
 21
1336.0
  0
LINE
  8
0
  6
CONTINUOUS
 62
     1
 10
1471.999190206
 20
1172.5
 11
1487.999190206
 21
1172.5
  0
LINE
  8
1
  6
CONTINUOUS
 62
     2
 10
1438.0
 20
1026.0
 11
1457.318516526
 21
1020.823619098
  0
LINE
  8
1
  6
CONTINUOUS
 62
     2
 10
1438.0
 20
1026.0
 11
1457.318516526
 21
1031.176380902
  0
LINE
  8
1
  6
CONTINUOUS
 62
     2
 10
1438.0
 20
1026.0
 11
1487.999190206
 21
1026.0
  0
LINE
  8
1
  6
CONTINUOUS
 62
     2
 10
1487.999190206
 20
1026.0
 11
1468.68067368
 21
1031.176380902
  0
LINE
  8
1
  6
CONTINUOUS
 62
     2
 10
1487.999190206
 20
1026.0
 11
1468.68067368
 21
1020.823619098
  0
LINE
  8
1
  6
CONTINUOUS
 62
     2
 10
1487.999190206
 20
1162.315113763
 11
1487.999190206
 21
1010.0
  0
LINE
  8
1
  6
CONTINUOUS
 62
     2
 10
1487.999190206
 20
1026.0
 11
1507.317706732
 21
1020.823619098
  0
LINE
  8
1
  6
CONTINUOUS
 62
     2
 10
1487.999190206
 20
1026.0
 11
1507.317706732
 21
1031.176380902
  0
LINE
  8
1
  6
CONTINUOUS
 62
     2
 10
1487.999190206
 20
1026.0
 11
1588.000190206
 21
1026.0
  0
LINE
  8
1
  6
CONTINUOUS
 62
     2
 10
1588.000190206
 20
1026.0
 11
1568.68167368
 21
1031.176380902
  0
LINE
  8
1
  6
CONTINUOUS
 62
     2
 10
1588.000190206
 20
1026.0
 11
1568.68167368
 21
1020.823619098
  0
LINE
  8
1
  6
CONTINUOUS
 62
     2
 10
1588.000190206
 20
1280.5
 11
1588.000190206
 21
1010.0
  0
TEXT
  8
1
  6
CONTINUOUS
 62
     3
 10
1497.199690206
 20
1034.0
 30
2.4
 40
28.0
  1
１００
 50
0.0
 41
0.914285714
 51
0.0
  7
KANJI53
  0
LINE
  8
1
  6
CONTINUOUS
 62
     2
 10
670.0
 20
967.0
 11
670.0
 21
975.0
  0
LINE
  8
1
  6
CONTINUOUS
 62
     2
 10
670.0
 20
959.0
 11
689.318516526
 21
953.823619098
  0
LINE
  8
1
  6
CONTINUOUS
 62
     2
 10
670.0
 20
959.0
 11
689.318516526
 21
964.176380902
  0
LINE
  8
1
  6
CONTINUOUS
 62
     2
 10
670.0
 20
959.0
 11
1588.000190206
 21
959.0
  0
LINE
  8
1
  6
CONTINUOUS
 62
     2
 10
1588.000190206
 20
959.0
 11
1568.68167368
 21
964.176380902
  0
LINE
  8
1
  6
CONTINUOUS
 62
     2
 10
1588.000190206
 20
959.0
 11
1568.68167368
 21
953.823619098
  0
LINE
  8
1
  6
CONTINUOUS
 62
     2
 10
1588.000190206
 20
1018.0
 11
1588.000190206
 21
943.0
  0
TEXT
  8
1
  6
CONTINUOUS
 62
     3
 10
1060.200095103
 20
967.0
 30
2.4
 40
28.0
  1
ｍｉｎ，Ｌ
 50
0.0
 41
0.914285714
 51
0.0
  7
KANJI53
  0
LINE
  8
1
  6
CONTINUOUS
 62
     2
 10
445.0
 20
951.0
 11
445.0
 21
882.0
  0
LINE
  8
1
  6
CONTINUOUS
 62
     2
 10
445.0
 20
898.0
 11
464.318516526
 21
892.823619098
  0
LINE
  8
1
  6
CONTINUOUS
 62
     2
 10
445.0
 20
898.0
 11
464.318516526
 21
903.176380902
  0
LINE
  8
1
  6
CONTINUOUS
 62
     2
 10
445.0
 20
898.0
 11
1588.000190206
 21
898.0
  0
LINE
  8
1
  6
CONTINUOUS
 62
     2
 10
1588.000190206
 20
898.0
 11
1568.68167368
 21
903.176380902
  0
LINE
  8
1
  6
CONTINUOUS
 62
     2
 10
1588.000190206
 20
898.0
 11
1568.68167368
 21
892.823619098
  0
LINE
  8
1
  6
CONTINUOUS
 62
     2
 10
1588.000190206
 20
951.0
 11
1588.000190206
 21
882.0
  0
TEXT
  8
1
  6
CONTINUOUS
 62
     3
 10
933.700095103
 20
906.0
 30
2.4
 40
28.0
  1
ｍｉｎ．ＡＬ
 50
0.0
 41
0.914285714
 51
0.0
  7
KANJI53
  0
LINE
  8
1
  6
CONTINUOUS
 62
     2
 10
1588.000190206
 20
898.0
 11
1607.318706732
 21
892.823619098
  0
LINE
  8
1
  6
CONTINUOUS
 62
     2
 10
1588.000190206
 20
898.0
 11
1607.318706732
 21
903.176380902
  0
LINE
  8
1
  6
CONTINUOUS
 62
     2
 10
1588.000190206
 20
898.0
 11
1638.000190206
 21
898.0
  0
LINE
  8
1
  6
CONTINUOUS
 62
     2
 10
1638.000190206
 20
898.0
 11
1618.68167368
 21
903.176380902
  0
LINE
  8
1
  6
CONTINUOUS
 62
     2
 10
1638.000190206
 20
898.0
 11
1618.68167368
 21
892.823619098
  0
LINE
  8
1
  6
CONTINUOUS
 62
     2
 10
1638.000190206
 20
1290.5
 11
1638.000190206
 21
882.0
  0
TEXT
  8
1
  6
CONTINUOUS
 62
     3
 10
1586.200190206
 20
906.0
 30
2.4
 40
28.0
  1
５０
 50
0.0
 41
0.914285714
 51
0.0
  7
KANJI53
  0
TEXT
  8
0
  6
CONTINUOUS
 62
     2
 10
1734.0
 20
636.0
 30
2.4
 40
24.0
  1
２２１
 50
0.0
 41
0.9
 51
0.0
  7
KANJI2
  0
LINE
  8
0
  6
CONTINUOUS
 62
     1
 10
600.0
 20
1201.0
 11
600.0
 21
1497.586051867
  0
LINE
  8
0
  6
CONTINUOUS
 62
     1
 10
600.0
 20
1437.586051867
 11
600.0
 21
1701.0
  0
LINE
  8
0
  6
CONTINUOUS
 62
     1
 10
600.0
 20
1701.0
 11
550.0
 21
1701.0
  0
LINE
  8
0
  6
CONTINUOUS
 62
     1
 10
462.0
 20
1201.0
 11
462.0
 21
1497.586051867
  0
LINE
  8
0
  6
CONTINUOUS
 62
     1
 10
462.0
 20
1437.586051867
 11
462.0
 21
1626.0
  0
LINE
  8
0
  6
CONTINUOUS
 62
     1
 10
445.0
 20
1201.0
 11
445.0
 21
1497.586051867
  0
LINE
  8
0
  6
CONTINUOUS
 62
     1
 10
445.0
 20
1437.586051867
 11
445.0
 21
1626.0
  0
LINE
  8
0
  6
CONTINUOUS
 62
     1
 10
567.0
 20
1566.0
 11
496.0
 21
1566.0
  0
LINE
  8
0
  6
CONTINUOUS
 62
     1
 10
567.0
 20
1566.0
 11
567.0
 21
1446.0
  0
LINE
  8
0
  6
CONTINUOUS
 62
     1
 10
567.0
 20
1446.0
 11
496.0
 21
1446.0
  0
LINE
  8
0
  6
CONTINUOUS
 62
     1
 10
496.0
 20
1446.0
 11
496.0
 21
1566.0
  0
LINE
  8
0
  6
LTYPE3
 62
     2
 10
572.0
 20
1456.0
 11
548.2
 21
1456.0
  0
LINE
  8
0
  6
LTYPE3
 62
     2
 10
518.2
 20
1556.0
 11
491.2
 21
1556.0
  0
LINE
  8
0
  6
LTYPE3
 62
     2
 10
572.2
 20
1556.0
 11
544.2
 21
1556.0
  0
LINE
  8
0
  6
LTYPE3
 62
     2
 10
557.0
 20
1467.8
 11
557.0
 21
1446.0
  0
LINE
  8
0
  6
LTYPE3
 62
     2
 10
557.0
 20
1566.0
 11
557.0
 21
1543.8
  0
LINE
  8
0
  6
LTYPE3
 62
     2
 10
506.0
 20
1544.8
 11
506.0
 21
1566.0
  0
LINE
  8
0
  6
LTYPE3
 62
     2
 10
506.0
 20
1446.0
 11
506.0
 21
1466.8
  0
LINE
  8
0
  6
LTYPE3
 62
     2
 10
518.2
 20
1456.0
 11
493.2
 21
1456.0
  0
CIRCLE
  8
0
  6
CONTINUOUS
 62
     1
 10
570.0
 20
1731.0
 40
17.5
  0
LINE
  8
0
  6
CONTINUOUS
 62
     1
 10
570.0
 20
1701.0
 11
585.0
 21
1701.0
  0
LINE
  8
0
  6
CONTINUOUS
 62
     1
 10
570.0
 20
1712.0
 11
583.751706485
 21
1712.0
  0
LINE
  8
0
  6
CONTINUOUS
 62
     1
 10
583.751706485
 20
1712.0
 11
570.0
 21
1713.5
  0
LINE
  8
0
  6
CONTINUOUS
 62
     1
 10
584.689625645
 20
1703.735028154
 11
583.751706485
 21
1712.0
  0
LINE
  8
0
  6
CONTINUOUS
 62
     1
 10
585.0
 20
1701.0
 11
584.689625645
 21
1703.735028154
  0
ARC
  8
0
  6
CONTINUOUS
 62
     1
 10
586.297773229
 20
1703.927087564
 40
1.6
 50
120.593314844
 51
186.768821444
  0
ARC
  8
0
  6
CONTINUOUS
 62
     1
 10
570.0
 20
1731.0
 40
30.0
 50
301.047754584
 51
0.0
  0
LINE
  8
0
  6
CONTINUOUS
 62
     1
 10
570.0
 20
1701.0
 11
555.0
 21
1701.0
  0
LINE
  8
0
  6
CONTINUOUS
 62
     1
 10
570.0
 20
1712.0
 11
556.248293515
 21
1712.0
  0
LINE
  8
0
  6
CONTINUOUS
 62
     1
 10
556.248293515
 20
1712.0
 11
570.0
 21
1713.5
  0
LINE
  8
0
  6
CONTINUOUS
 62
     1
 10
555.310374355
 20
1703.735028154
 11
556.248293515
 21
1712.0
  0
LINE
  8
0
  6
CONTINUOUS
 62
     1
 10
555.0
 20
1701.0
 11
555.310374355
 21
1703.735028154
  0
ARC
  8
0
  6
CONTINUOUS
 62
     1
 10
553.702226771
 20
1703.927087564
 40
1.6
 50
353.231178556
 51
59.406685156
  0
ARC
  8
0
  6
CONTINUOUS
 62
     1
 10
570.0
 20
1731.0
 40
30.0
 50
0.0
 51
239.0231413
  0
LINE
  8
0
  6
LTYPE3
 62
     2
 10
570.0
 20
1652.8
 11
570.0
 21
1767.8
  0
LINE
  8
0
  6
LTYPE3
 62
     2
 10
608.0
 20
1731.0
 11
534.0
 21
1731.0
  0
LINE
  8
0
  6
CONTINUOUS
 62
     1
 10
577.0
 20
1632.0
 11
577.0
 21
1701.0
  0
ARC
  8
0
  6
CONTINUOUS
 62
     1
 10
571.0
 20
1632.0
 40
6.0
 50
270.0
 51
0.0
  0
LINE
  8
0
  6
CONTINUOUS
 62
     1
 10
571.0
 20
1626.0
 11
445.0
 21
1626.0
  0
ARC
  8
0
  6
CONTINUOUS
 62
     1
 10
544.0
 20
1632.0
 40
6.0
 50
270.0
 51
0.0
  0
LINE
  8
0
  6
CONTINUOUS
 62
     1
 10
550.0
 20
1632.0
 11
550.0
 21
1701.0
  0
LINE
  8
0
  6
CONTINUOUS
 62
     1
 10
600.0
 20
1442.0
 11
600.0
 21
1692.0
  0
LINE
  8
0
  6
CONTINUOUS
 62
     1
 10
395.0
 20
1547.0
 11
395.0
 21
1587.0
  0
LINE
  8
0
  6
CONTINUOUS
 62
     1
 10
437.0
 20
1528.0
 11
437.0
 21
1606.0
  0
LINE
  8
0
  6
CONTINUOUS
 62
     1
 10
437.0
 20
1587.0
 11
395.0
 21
1587.0
  0
LINE
  8
0
  6
CONTINUOUS
 62
     1
 10
437.0
 20
1547.0
 11
395.0
 21
1547.0
  0
LINE
  8
0
  6
CONTINUOUS
 62
     1
 10
445.0
 20
1606.0
 11
437.0
 21
1606.0
  0
LINE
  8
0
  6
CONTINUOUS
 62
     1
 10
445.0
 20
1528.0
 11
437.0
 21
1528.0
  0
LINE
  8
0
  6
CONTINUOUS
 62
     1
 10
445.0
 20
1526.0
 11
439.0
 21
1526.0
  0
LINE
  8
0
  6
CONTINUOUS
 62
     1
 10
439.0
 20
1460.0
 11
439.0
 21
1526.0
  0
LINE
  8
0
  6
CONTINUOUS
 62
     1
 10
445.0
 20
1460.0
 11
439.0
 21
1460.0
  0
LINE
  8
0
  6
LTYPE3
 62
     2
 10
471.0
 20
1497.0
 11
432.6
 21
1497.0
  0
LINE
  8
0
  6
CONTINUOUS
 62
     2
 10
600.0
 20
1713.0
 11
600.0
 21
1842.5
  0
LINE
  8
0
  6
CONTINUOUS
 62
     2
 10
600.0
 20
1830.5
 11
580.681483474
 21
1835.676380902
  0
LINE
  8
0
  6
CONTINUOUS
 62
     2
 10
600.0
 20
1830.5
 11
580.681483474
 21
1825.323619098
  0
LINE
  8
0
  6
CONTINUOUS
 62
     2
 10
600.0
 20
1830.5
 11
395.0
 21
1830.5
  0
LINE
  8
0
  6
CONTINUOUS
 62
     2
 10
395.0
 20
1830.5
 11
414.318516526
 21
1825.323619098
  0
LINE
  8
0
  6
CONTINUOUS
 62
     2
 10
395.0
 20
1830.5
 11
414.318516526
 21
1835.676380902
  0
LINE
  8
0
  6
CONTINUOUS
 62
     2
 10
395.0
 20
1599.0
 11
395.0
 21
1842.5
  0
TEXT
  8
0
  6
CONTINUOUS
 62
     2
 10
463.5
 20
1838.5
 30
1.6
 40
24.0
  1
２０５
 50
0.0
 41
0.9
 51
0.0
  7
KANJI56
  0
LINE
  8
0
  6
CONTINUOUS
 62
     2
 10
533.5
 20
1554.0
 11
526.707359852
 21
1572.811167955
  0
LINE
  8
0
  6
CONTINUOUS
 62
     2
 10
533.5
 20
1554.0
 11
518.211817096
 21
1566.894629249
  0
LINE
  8
0
  6
CONTINUOUS
 62
     2
 10
533.5
 20
1554.0
 11
338.5
 21
1834.0
  0
LINE
  8
0
  6
CONTINUOUS
 62
     2
 10
338.5
 20
1834.0
 11
268.9
 21
1834.0
  0
TEXT
  8
0
  6
CONTINUOUS
 62
     2
 10
268.9
 20
1842.0
 30
2.4
 40
24.0
  1
点検口
 50
0.0
 41
0.9
 51
0.0
  7
KANJI2
  0
LINE
  8
0
  6
CONTINUOUS
 62
     1
 10
600.0
 20
1440.15
 11
600.0
 21
1692.0
  0
LINE
  8
0
  6
CONTINUOUS
 62
     1
 10
600.0
 20
1442.0
 11
600.0
 21
1692.0
  0
LINE
  8
0
  6
CONTINUOUS
 62
     1
 10
600.0
 20
1442.0
 11
611.0
 21
1442.0
  0
LINE
  8
0
  6
CONTINUOUS
 62
     1
 10
600.0
 20
1692.0
 11
616.0
 21
1692.0
  0
LINE
  8
0
  6
CONTINUOUS
 62
     1
 10
616.0
 20
1442.0
 11
616.0
 21
1692.0
  0
LINE
  8
0
  6
CONTINUOUS
 62
     1
 10
600.0
 20
1442.0
 11
616.0
 21
1442.0
  0
LINE
  8
1
  6
CONTINUOUS
 62
     2
 10
395.0
 20
1568.0
 11
390.790673423
 21
1587.55202214
  0
LINE
  8
1
  6
CONTINUOUS
 62
     2
 10
395.0
 20
1568.0
 11
381.578605182
 21
1582.82788458
  0
LINE
  8
1
  6
CONTINUOUS
 62
     2
 10
395.0
 20
1568.0
 11
315.0
 21
1724.0
  0
LINE
  8
1
  6
CONTINUOUS
 62
     2
 10
315.0
 20
1724.0
 11
131.0
 21
1724.0
  0
TEXT
  8
1
  6
CONTINUOUS
 62
     3
 10
131.0
 20
1732.0
 30
8.0
 40
24.0
  1
手動軸レバー
 50
0.0
 41
1.0
 51
0.0
  7
KANJI57
  0
TEXT
  8
1
  6
CONTINUOUS
 62
     3
 10
1347.0
 20
981.0
 30
2.4
 40
28.0
  1
ｍｉｎ．Ｐ
 50
0.0
 41
0.914285714
 51
0.0
  7
KANJI53
  0
TEXT
  8
0
  6
CONTINUOUS
 62
     2
 10
922.1
 20
463.8
 30
2.4
 40
24.0
  1
１０００
 50
0.0
 41
0.9
 51
0.0
  7
KANJI2
  0
TEXT
  8
0
  6
CONTINUOUS
 62
     2
 10
1397.3
 20
463.8
 30
2.4
 40
24.0
  1
１４７０
 50
0.0
 41
0.9
 51
0.0
  7
KANJI2
  0
TEXT
  8
0
  6
CONTINUOUS
 62
     2
 10
911.3
 20
632.4
 30
2.4
 40
24.0
  1
　　３００
 50
0.0
 41
0.9
 51
0.0
  7
KANJI2
  0
TEXT
  8
0
  6
CONTINUOUS
 62
     2
 10
911.3
 20
576.4
 30
2.4
 40
24.0
  1
　　５００
 50
0.0
 41
0.9
 51
0.0
  7
KANJI2
  0
TEXT
  8
0
  6
CONTINUOUS
 62
     2
 10
1229.3
 20
634.6
 30
2.4
 40
24.0
  1
　　８８０
 50
0.0
 41
0.9
 51
0.0
  7
KANJI2
  0
TEXT
  8
0
  6
CONTINUOUS
 62
     2
 10
1388.9
 20
636.0
 30
2.4
 40
24.0
  1
　　７３０
 50
0.0
 41
0.9
 51
0.0
  7
KANJI2
  0
TEXT
  8
0
  6
CONTINUOUS
 62
     2
 10
1388.9
 20
580.0
 30
2.4
 40
24.0
  1
　　９３０
 50
0.0
 41
0.9
 51
0.0
  7
KANJI2
  0
TEXT
  8
0
  6
CONTINUOUS
 62
     2
 10
936.0
 20
523.0
 30
2.4
 40
24.0
  1
７００
 50
0.0
 41
0.9
 51
0.0
  7
KANJI2
  0
TEXT
  8
0
  6
CONTINUOUS
 62
     2
 10
1400.0
 20
520.0
 30
2.4
 40
24.0
  1
１１７０
 50
0.0
 41
0.9
 51
0.0
  7
KANJI2
  0
TEXT
  8
0
  6
CONTINUOUS
 62
     2
 10
2928.0
 20
1908.0
 30
2.4
 40
24.0
  1
７８．４ＫＮ（８ｔｏｎ）
 50
0.0
 41
0.9
 51
0.0
  7
KANJI2
  0
CIRCLE
  8
0
  6
CONTINUOUS
 62
     1
 10
2159.5
 20
1334.0
 40
47.5
  0
LINE
  8
0
  6
LTYPE3
 62
     2
 10
2326.3
 20
1334.0
 11
1988.3
 21
1334.0
  0
LINE
  8
0
  6
LTYPE1
 62
     2
 10
2069.5
 20
1356.5
 11
2019.5
 21
1356.5
  0
LINE
  8
0
  6
LTYPE1
 62
     2
 10
2069.5
 20
1311.5
 11
2019.5
 21
1311.5
  0
LINE
  8
0
  6
LTYPE1
 62
     2
 10
2069.5
 20
1311.5
 11
2069.5
 21
1356.5
  0
LINE
  8
0
  6
CONTINUOUS
 62
     1
 10
2019.5
 20
1284.0
 11
2085.127626097
 21
1279.0
  0
LINE
  8
0
  6
CONTINUOUS
 62
     1
 10
2134.5
 20
1293.5
 11
2134.5
 21
1374.5
  0
LINE
  8
0
  6
CONTINUOUS
 62
     1
 10
2184.5
 20
1295.0
 11
2184.5
 21
1374.0
  0
ARC
  8
0
  6
CONTINUOUS
 62
     1
 10
2159.5
 20
1334.0
 40
37.5
 50
47.202598162
 51
132.273689006
  0
ARC
  8
0
  6
CONTINUOUS
 62
     1
 10
2159.5
 20
1334.0
 40
37.5
 50
227.202598162
 51
312.220833136
  0
LINE
  8
0
  6
LTYPE1
 62
     2
 10
2184.5
 20
1311.5
 11
2134.5
 21
1311.5
  0
LINE
  8
0
  6
LTYPE1
 62
     2
 10
2184.5
 20
1356.5
 11
2134.5
 21
1356.5
  0
LINE
  8
0
  6
CONTINUOUS
 62
     1
 10
2029.5
 20
1214.0
 11
2029.5
 21
1283.0
  0
ARC
  8
0
  6
CONTINUOUS
 62
     1
 10
2044.5
 20
1214.0
 40
15.0
 50
180.0
 51
270.0
  0
LINE
  8
0
  6
CONTINUOUS
 62
     1
 10
2097.00566924
 20
1427.810759633
 11
2047.104519278
 21
1356.54453178
  0
ARC
  8
0
  6
CONTINUOUS
 62
     1
 10
2097.334520095
 20
1436.125917906
 40
3.0
 50
325.0
 51
55.0
  0
LINE
  8
0
  6
CONTINUOUS
 62
     1
 10
2060.964679345
 20
1465.254678329
 11
2099.055249404
 21
1438.583374039
  0
ARC
  8
0
  6
CONTINUOUS
 62
     1
 10
2060.391102908
 20
1464.435526285
 40
1.0
 50
55.0
 51
145.0
  0
ARC
  8
0
  6
CONTINUOUS
 62
     1
 10
2057.851221555
 20
1462.551646589
 40
1.0
 50
55.0
 51
145.0
  0
ARC
  8
0
  6
CONTINUOUS
 62
     1
 10
2042.271182206
 20
1357.487321655
 40
3.0
 50
235.0
 51
325.0
  0
LINE
  8
0
  6
CONTINUOUS
 62
     1
 10
2002.459882837
 20
1381.701169812
 11
2040.550452896
 21
1355.029865522
  0
ARC
  8
0
  6
CONTINUOUS
 62
     1
 10
2003.033459273
 20
1382.520321856
 40
1.0
 50
145.0
 51
235.0
  0
ARC
  8
0
  6
CONTINUOUS
 62
     1
 10
2003.935036538
 20
1385.551354426
 40
1.0
 50
145.0
 51
235.0
  0
LINE
  8
0
  6
CONTINUOUS
 62
     1
 10
2006.555643058
 20
1378.83328763
 11
2065.060439566
 21
1462.386796148
  0
LINE
  8
0
  6
CONTINUOUS
 62
     1
 10
2007.784371125
 20
1377.972922976
 11
2066.289167633
 21
1461.526431493
  0
LINE
  8
0
  6
CONTINUOUS
 62
     1
 10
2099.791976228
 20
1434.405188597
 11
2044.728638338
 21
1355.766592346
  0
LINE
  8
0
  6
CONTINUOUS
 62
     1
 10
2003.115884494
 20
1386.124930862
 11
2057.032069511
 21
1463.125223025
  0
LINE
  8
0
  6
CONTINUOUS
 62
     1
 10
2002.214307229
 20
1383.093898293
 11
2059.571950864
 21
1465.009102722
  0
LINE
  8
0
  6
LTYPE2
 62
     2
 10
2001.232174803
 20
1389.885467765
 11
2016.550318031
 21
1379.159588405
  0
LINE
  8
0
  6
LTYPE2
 62
     2
 10
2052.854054074
 20
1463.609151751
 11
2068.172197302
 21
1452.883272391
  0
LINE
  8
0
  6
CONTINUOUS
 62
     1
 10
2019.5
 20
1284.0
 11
2019.5
 21
1371.225525817
  0
LINE
  8
0
  6
CONTINUOUS
 62
     1
 10
2119.110225663
 20
1417.216080952
 11
2099.299974985
 21
1431.08736781
  0
LINE
  8
0
  6
LTYPE3
 62
     2
 10
2166.158322994
 20
1329.337792048
 11
2023.158322994
 21
1429.467470012
  0
LINE
  8
0
  6
CONTINUOUS
 62
     1
 10
2068.488346391
 20
1342.792189428
 11
2047.678095714
 21
1357.363683824
  0
LINE
  8
0
  6
LTYPE1
 62
     2
 10
2249.5
 20
1311.5
 11
2299.5
 21
1311.5
  0
LINE
  8
0
  6
CONTINUOUS
 62
     1
 10
2299.5
 20
1284.0
 11
2233.872373903
 21
1279.0
  0
LINE
  8
0
  6
CONTINUOUS
 62
     1
 10
2289.5
 20
1214.0
 11
2289.5
 21
1283.0
  0
ARC
  8
0
  6
CONTINUOUS
 62
     1
 10
2274.5
 20
1214.0
 40
15.0
 50
270.0
 51
0.0
  0
LINE
  8
0
  6
LTYPE1
 62
     2
 10
2249.5
 20
1356.5
 11
2299.5
 21
1356.5
  0
LINE
  8
0
  6
LTYPE1
 62
     2
 10
2249.5
 20
1311.5
 11
2249.5
 21
1356.5
  0
LINE
  8
0
  6
CONTINUOUS
 62
     1
 10
2299.5
 20
1384.0
 11
2233.872373903
 21
1389.0
  0
LINE
  8
0
  6
CONTINUOUS
 62
     1
 10
2299.5
 20
1284.0
 11
2299.5
 21
1384.0
  0
LINE
  8
0
  6
LTYPE3
 62
     2
 10
2220.5
 20
1463.0
 11
2090.5
 21
1463.0
  0
LINE
  8
6
  6
CONTINUOUS
 62
     2
 10
2007.5
 20
1311.5
 11
1951.5
 21
1311.5
  0
LINE
  8
6
  6
CONTINUOUS
 62
     2
 10
1963.5
 20
1311.5
 11
1958.323619098
 21
1292.181483474
  0
LINE
  8
6
  6
CONTINUOUS
 62
     2
 10
1963.5
 20
1311.5
 11
1968.676380902
 21
1292.181483474
  0
LINE
  8
6
  6
CONTINUOUS
 62
     2
 10
1963.5
 20
1281.5
 11
1963.5
 21
1528.1
  0
LINE
  8
6
  6
CONTINUOUS
 62
     2
 10
1963.5
 20
1356.5
 11
1968.676380902
 21
1375.818516526
  0
LINE
  8
6
  6
CONTINUOUS
 62
     2
 10
1963.5
 20
1356.5
 11
1958.323619098
 21
1375.818516526
  0
LINE
  8
6
  6
CONTINUOUS
 62
     2
 10
2007.5
 20
1356.5
 11
1951.5
 21
1356.5
  0
LINE
  8
6
  6
CONTINUOUS
 62
     2
 10
1897.5
 20
1334.0
 11
1902.676380902
 21
1353.318516526
  0
LINE
  8
6
  6
CONTINUOUS
 62
     2
 10
1897.5
 20
1334.0
 11
1892.323619098
 21
1353.318516526
  0
LINE
  8
6
  6
CONTINUOUS
 62
     2
 10
1976.3
 20
1334.0
 11
1885.5
 21
1334.0
  0
LINE
  8
0
  6
LTYPE3
 62
     2
 10
2039.548183048
 20
1393.697752135
 11
2062.892744008
 21
1427.037240338
  0
LINE
  8
0
  6
CONTINUOUS
 62
     2
 10
1897.5
 20
1334.0
 11
1892.323619098
 21
1314.681483474
  0
LINE
  8
0
  6
CONTINUOUS
 62
     2
 10
1897.5
 20
1334.0
 11
1902.676380902
 21
1314.681483474
  0
LINE
  8
0
  6
CONTINUOUS
 62
     2
 10
1897.5
 20
1334.0
 11
1897.5
 21
1199.0
  0
LINE
  8
0
  6
CONTINUOUS
 62
     2
 10
1897.5
 20
1199.0
 11
1902.676380902
 21
1218.318516526
  0
LINE
  8
0
  6
CONTINUOUS
 62
     2
 10
1897.5
 20
1199.0
 11
1892.323619098
 21
1218.318516526
  0
LINE
  8
0
  6
CONTINUOUS
 62
     2
 10
2032.5
 20
1199.0
 11
1885.5
 21
1199.0
  0
TEXT
  8
0
  6
CONTINUOUS
 62
     2
 10
1889.5
 20
1232.5
 30
1.6
 40
24.0
  1
１３５
 50
90.0
 41
0.9
 51
0.0
  7
KANJI56
  0
LINE
  8
0
  6
CONTINUOUS
 62
     2
 10
1885.5
 20
1199.0
 11
1811.0
 21
1199.0
  0
LINE
  8
0
  6
CONTINUOUS
 62
     2
 10
1823.0
 20
1199.0
 11
1828.176380902
 21
1218.318516526
  0
LINE
  8
0
  6
CONTINUOUS
 62
     2
 10
1823.0
 20
1199.0
 11
1817.823619098
 21
1218.318516526
  0
LINE
  8
0
  6
CONTINUOUS
 62
     1
 10
2144.5
 20
1175.5
 11
2174.5
 21
1175.5
  0
LINE
  8
0
  6
LTYPE5
 62
     2
 10
2128.6
 20
1188.5
 11
2190.6
 21
1188.5
  0
CIRCLE
  8
0
  6
CONTINUOUS
 62
     1
 10
2159.5
 20
1188.5
 40
6.49995
  0
LINE
  8
0
  6
CONTINUOUS
 62
     1
 10
2165.99995
 20
1192.24703
 11
2165.99995
 21
1184.75297
  0
LINE
  8
0
  6
CONTINUOUS
 62
     1
 10
2165.99995
 20
1184.75297
 11
2159.5
 21
1181.00594
  0
LINE
  8
0
  6
CONTINUOUS
 62
     1
 10
2153.00005
 20
1192.24703
 11
2153.00005
 21
1184.75297
  0
LINE
  8
0
  6
CONTINUOUS
 62
     1
 10
2153.00005
 20
1184.75297
 11
2159.5
 21
1181.00594
  0
LINE
  8
0
  6
CONTINUOUS
 62
     1
 10
2165.99995
 20
1192.24703
 11
2159.5
 21
1195.99406
  0
LINE
  8
0
  6
CONTINUOUS
 62
     1
 10
2153.00005
 20
1192.24703
 11
2159.5
 21
1195.99406
  0
LINE
  8
0
  6
CONTINUOUS
 62
     1
 10
2242.0
 20
1229.5
 11
2242.0
 21
1235.5
  0
LINE
  8
0
  6
CONTINUOUS
 62
     1
 10
2077.0
 20
1229.5
 11
2077.0
 21
1235.5
  0
LINE
  8
0
  6
CONTINUOUS
 62
     1
 10
2121.5
 20
1229.5
 11
2081.5
 21
1229.5
  0
LINE
  8
0
  6
CONTINUOUS
 62
     1
 10
2081.5
 20
1229.5
 11
2081.5
 21
1229.6
  0
LINE
  8
0
  6
CONTINUOUS
 62
     1
 10
2081.5
 20
1189.5
 11
2081.5
 21
1190.5
  0
LINE
  8
0
  6
CONTINUOUS
 62
     1
 10
2081.5
 20
1189.5
 11
2081.5
 21
1229.5
  0
LINE
  8
0
  6
CONTINUOUS
 62
     1
 10
2121.5
 20
1229.5
 11
2121.5
 21
1189.5
  0
LINE
  8
0
  6
CONTINUOUS
 62
     1
 10
2130.75
 20
1185.0
 11
2130.75
 21
1192.0
  0
LINE
  8
0
  6
LTYPE2
 62
     2
 10
2101.5
 20
1172.9
 11
2101.5
 21
1230.9
  0
LINE
  8
0
  6
LTYPE2
 62
     2
 10
2116.6
 20
1232.9
 11
2116.6
 21
1185.9
  0
LINE
  8
0
  6
LTYPE2
 62
     2
 10
2086.4
 20
1186.9
 11
2086.4
 21
1233.9
  0
LINE
  8
0
  6
CONTINUOUS
 62
     1
 10
2144.5
 20
1176.5
 11
2144.5
 21
1184.5
  0
LINE
  8
0
  6
CONTINUOUS
 62
     1
 10
2144.5
 20
1184.5
 11
2130.75
 21
1184.5
  0
LINE
  8
0
  6
CONTINUOUS
 62
     1
 10
2121.5
 20
1186.5
 11
2109.0
 21
1186.5
  0
LINE
  8
0
  6
CONTINUOUS
 62
     1
 10
2130.75
 20
1184.4
 11
2121.5
 21
1186.5
  0
LINE
  8
0
  6
LTYPE2
 62
     2
 10
2139.5
 20
1175.3
 11
2139.5
 21
1194.5
  0
LINE
  8
0
  6
CONTINUOUS
 62
     1
 10
2109.0
 20
1186.5
 11
2094.0
 21
1186.5
  0
ARC
  8
0
  6
CONTINUOUS
 62
     1
 10
2090.8
 20
1205.7
 40
2.0
 50
180.0
 51
270.0
  0
LINE
  8
0
  6
CONTINUOUS
 62
     1
 10
2112.2
 20
1203.7
 11
2090.8
 21
1203.7
  0
ARC
  8
0
  6
CONTINUOUS
 62
     1
 10
2112.2
 20
1205.7
 40
2.0
 50
270.0
 51
360.0
  0
LINE
  8
0
  6
CONTINUOUS
 62
     1
 10
2114.2
 20
1205.7
 11
2114.2
 21
1227.1
  0
ARC
  8
0
  6
CONTINUOUS
 62
     1
 10
2112.2
 20
1227.1
 40
2.0
 50
0.0
 51
90.0
  0
LINE
  8
0
  6
CONTINUOUS
 62
     1
 10
2088.8
 20
1205.7
 11
2088.8
 21
1227.1
  0
LINE
  8
0
  6
CONTINUOUS
 62
     1
 10
2112.2
 20
1229.1
 11
2090.8
 21
1229.1
  0
ARC
  8
0
  6
CONTINUOUS
 62
     1
 10
2090.8
 20
1227.1
 40
2.0
 50
90.0
 51
180.0
  0
LINE
  8
0
  6
LTYPE2
 62
     2
 10
2087.4
 20
1216.4
 11
2115.8
 21
1216.4
  0
LINE
  8
0
  6
CONTINUOUS
 62
     1
 10
2109.0
 20
1176.5
 11
2109.0
 21
1203.7
  0
LINE
  8
0
  6
CONTINUOUS
 62
     1
 10
2094.0
 20
1194.5
 11
2081.5
 21
1194.5
  0
LINE
  8
0
  6
CONTINUOUS
 62
     1
 10
2121.5
 20
1194.5
 11
2108.9
 21
1194.5
  0
LINE
  8
0
  6
CONTINUOUS
 62
     1
 10
2093.9
 20
1189.5
 11
2081.5
 21
1189.5
  0
LINE
  8
0
  6
CONTINUOUS
 62
     1
 10
2121.5
 20
1189.5
 11
2109.0
 21
1189.5
  0
LINE
  8
0
  6
CONTINUOUS
 62
     1
 10
2237.5
 20
1229.5
 11
2197.5
 21
1229.5
  0
LINE
  8
0
  6
CONTINUOUS
 62
     1
 10
2197.5
 20
1229.5
 11
2197.5
 21
1229.6
  0
LINE
  8
0
  6
CONTINUOUS
 62
     1
 10
2197.5
 20
1189.5
 11
2197.5
 21
1190.5
  0
LINE
  8
0
  6
CONTINUOUS
 62
     1
 10
2197.5
 20
1189.5
 11
2197.5
 21
1229.5
  0
LINE
  8
0
  6
CONTINUOUS
 62
     1
 10
2237.5
 20
1229.5
 11
2237.5
 21
1189.5
  0
LINE
  8
0
  6
CONTINUOUS
 62
     1
 10
2237.5
 20
1189.5
 11
2197.5
 21
1189.5
  0
LINE
  8
0
  6
CONTINUOUS
 62
     1
 10
2237.5
 20
1194.5
 11
2197.5
 21
1194.5
  0
LINE
  8
0
  6
CONTINUOUS
 62
     1
 10
2225.0
 20
1176.5
 11
2225.0
 21
1189.5
  0
LINE
  8
0
  6
CONTINUOUS
 62
     1
 10
2210.0
 20
1176.5
 11
2210.0
 21
1189.5
  0
CIRCLE
  8
0
  6
CONTINUOUS
 62
     1
 10
2217.5
 20
1207.9
 40
9.36
  0
LINE
  8
0
  6
CONTINUOUS
 62
     1
 10
2188.25
 20
1185.0
 11
2188.25
 21
1192.0
  0
LINE
  8
0
  6
LTYPE2
 62
     2
 10
2217.5
 20
1172.9
 11
2217.5
 21
1230.9
  0
LINE
  8
0
  6
LTYPE2
 62
     2
 10
2230.5
 20
1207.9
 11
2204.5
 21
1207.9
  0
LINE
  8
0
  6
LTYPE2
 62
     2
 10
2232.6
 20
1232.9
 11
2232.6
 21
1185.9
  0
LINE
  8
0
  6
LTYPE2
 62
     2
 10
2202.4
 20
1186.9
 11
2202.4
 21
1233.9
  0
LINE
  8
0
  6
LTYPE2
 62
     2
 10
2179.5
 20
1172.9
 11
2179.5
 21
1194.5
  0
CIRCLE
  8
0
  6
CONTINUOUS
 62
     2
 10
2217.5
 20
1207.9
 40
10.47
  0
LINE
  8
0
  6
CONTINUOUS
 62
     1
 10
2174.5
 20
1176.5
 11
2174.5
 21
1185.0
  0
LINE
  8
0
  6
CONTINUOUS
 62
     1
 10
2174.5
 20
1184.5
 11
2188.25
 21
1184.5
  0
LINE
  8
0
  6
CONTINUOUS
 62
     1
 10
2197.5
 20
1186.5
 11
2210.0
 21
1186.5
  0
LINE
  8
0
  6
CONTINUOUS
 62
     1
 10
2188.25
 20
1184.4
 11
2197.5
 21
1186.5
  0
LINE
  8
0
  6
CONTINUOUS
 62
     1
 10
2174.5
 20
1176.5
 11
2225.0
 21
1176.5
  0
LINE
  8
0
  6
CONTINUOUS
 62
     1
 10
2094.0
 20
1176.5
 11
2094.0
 21
1203.7
  0
LINE
  8
0
  6
CONTINUOUS
 62
     1
 10
2144.5
 20
1176.5
 11
2094.0
 21
1176.5
  0
LINE
  8
0
  6
CONTINUOUS
 62
     1
 10
2143.5
 20
1175.5
 11
2175.5
 21
1175.5
  0
LINE
  8
0
  6
LTYPE5
 62
     2
 10
2071.5
 20
1188.5
 11
2248.5
 21
1188.5
  0
LINE
  8
0
  6
CONTINUOUS
 62
     1
 10
2139.34375
 20
1192.0
 11
2130.75
 21
1192.0
  0
LINE
  8
0
  6
CONTINUOUS
 62
     1
 10
2141.53125
 20
1185.0
 11
2130.75
 21
1185.0
  0
LINE
  8
0
  6
CONTINUOUS
 62
     1
 10
2188.25
 20
1185.0
 11
2177.46875
 21
1185.0
  0
LINE
  8
0
  6
CONTINUOUS
 62
     1
 10
2188.25
 20
1192.0
 11
2179.5
 21
1192.0
  0
LINE
  8
0
  6
LTYPE1
 62
     2
 10
2170.75
 20
1185.0
 11
2170.75
 21
1192.0
  0
LINE
  8
0
  6
LTYPE1
 62
     2
 10
2179.5
 20
1192.0
 11
2170.75
 21
1192.0
  0
LINE
  8
0
  6
LTYPE1
 62
     2
 10
2177.43125
 20
1185.0
 11
2170.75
 21
1185.0
  0
LINE
  8
0
  6
LTYPE1
 62
     2
 10
2148.25
 20
1185.0
 11
2148.25
 21
1192.0
  0
LINE
  8
0
  6
LTYPE1
 62
     2
 10
2148.25
 20
1192.0
 11
2139.34375
 21
1192.0
  0
LINE
  8
0
  6
LTYPE1
 62
     2
 10
2148.25
 20
1185.0
 11
2141.53125
 21
1185.0
  0
CIRCLE
  8
0
  6
CONTINUOUS
 62
     1
 10
2159.5
 20
1188.5
 40
4.0
  0
CIRCLE
  8
0
  6
CONTINUOUS
 62
     2
 10
2159.5
 20
1188.5
 40
3.2
  0
LINE
  8
0
  6
CONTINUOUS
 62
     1
 10
2081.5
 20
1199.0
 11
2044.5
 21
1199.0
  0
LINE
  8
0
  6
CONTINUOUS
 62
     1
 10
2237.5
 20
1199.0
 11
2274.5
 21
1199.0
  0
LINE
  8
0
  6
CONTINUOUS
 62
     1
 10
2224.5
 20
1394.0
 11
2094.5
 21
1394.0
  0
LINE
  8
0
  6
CONTINUOUS
 62
     1
 10
2094.5
 20
1299.0
 11
2094.5
 21
1394.0
  0
LINE
  8
0
  6
CONTINUOUS
 62
     1
 10
2224.5
 20
1299.0
 11
2224.5
 21
1394.0
  0
LINE
  8
0
  6
CONTINUOUS
 62
     1
 10
2143.5
 20
1175.5
 11
2094.5
 21
1299.0
  0
LINE
  8
0
  6
CONTINUOUS
 62
     1
 10
2175.5
 20
1175.5
 11
2224.5
 21
1299.0
  0
ARC
  8
0
  6
CONTINUOUS
 62
     1
 10
2159.5
 20
1334.0
 40
92.5
 50
300.640663456
 51
239.359336544
  0
ARC
  8
0
  6
CONTINUOUS
 62
     1
 10
2159.5
 20
1334.0
 40
100.0
 50
295.414174699
 51
118.25631605
  0
ARC
  8
0
  6
CONTINUOUS
 62
     1
 10
2159.5
 20
1334.0
 40
100.0
 50
168.690067526
 51
244.071542399
  0
LINE
  8
0
  6
CONTINUOUS
 62
     1
 10
2077.0
 20
1235.5
 11
2119.694331984
 21
1235.5
  0
LINE
  8
0
  6
CONTINUOUS
 62
     1
 10
2077.0
 20
1229.5
 11
2122.074898785
 21
1229.5
  0
LINE
  8
0
  6
CONTINUOUS
 62
     1
 10
2199.305668016
 20
1235.5
 11
2242.0
 21
1235.5
  0
LINE
  8
0
  6
CONTINUOUS
 62
     1
 10
2196.925101215
 20
1229.5
 11
2242.0
 21
1229.5
  0
LINE
  8
0
  6
LTYPE5
 62
     2
 10
2159.5
 20
1160.0
 11
2159.5
 21
1805.0
  0
LINE
  8
0
  6
LTYPE3
 62
     2
 10
2313.5
 20
1565.0
 11
2002.5
 21
1565.0
  0
LINE
  8
6
  6
CONTINUOUS
 62
     2
 10
1990.5
 20
1565.0
 11
1885.5
 21
1565.0
  0
LINE
  8
6
  6
CONTINUOUS
 62
     2
 10
1897.5
 20
1565.0
 11
1892.323619098
 21
1545.681483474
  0
LINE
  8
6
  6
CONTINUOUS
 62
     2
 10
1897.5
 20
1565.0
 11
1902.676380902
 21
1545.681483474
  0
LINE
  8
6
  6
CONTINUOUS
 62
     2
 10
1897.5
 20
1565.0
 11
1897.5
 21
1274.0
  0
LINE
  8
6
  6
CONTINUOUS
 62
     2
 10
1897.5
 20
1565.0
 11
1902.676380902
 21
1584.318516526
  0
LINE
  8
6
  6
CONTINUOUS
 62
     2
 10
1897.5
 20
1565.0
 11
1892.323619098
 21
1584.318516526
  0
TEXT
  8
6
  6
CONTINUOUS
 62
     2
 10
1889.5
 20
1424.7
 30
2.4
 40
24.0
  1
２３１
 50
90.0
 41
0.9
 51
0.0
  7
KANJI55
  0
ARC
  8
0
  6
CONTINUOUS
 62
     1
 10
2159.5
 20
1565.0
 40
125.0
 50
280.557968545
 51
0.0
  0
CIRCLE
  8
0
  6
CONTINUOUS
 62
     1
 10
2159.5
 20
1565.0
 40
20.0
  0
CIRCLE
  8
0
  6
CONTINUOUS
 62
     1
 10
2219.5
 20
1565.0
 40
10.0
  0
LINE
  8
0
  6
CONTINUOUS
 62
     2
 10
2219.5
 20
1580.0
 11
2219.5
 21
1550.0
  0
LINE
  8
0
  6
CONTINUOUS
 62
     1
 10
2162.833333333
 20
1545.279734056
 11
2221.166666667
 21
1555.139867028
  0
LINE
  8
0
  6
CONTINUOUS
 62
     1
 10
2162.833333333
 20
1584.720265944
 11
2221.166666667
 21
1574.860132972
  0
LINE
  8
0
  6
CONTINUOUS
 62
     2
 10
2229.5
 20
1635.0
 11
2242.445832412
 21
1647.945832412
  0
ARC
  8
0
  6
CONTINUOUS
 62
     2
 10
2159.5
 20
1565.0
 40
107.5
 50
38.280925788
 51
51.325228591
  0
LINE
  8
0
  6
CONTINUOUS
 62
     2
 10
2229.5
 20
1495.0
 11
2242.445832412
 21
1482.054167588
  0
ARC
  8
0
  6
CONTINUOUS
 62
     2
 10
2159.5
 20
1565.0
 40
107.5
 50
308.674771409
 51
321.719074212
  0
LINE
  8
0
  6
CONTINUOUS
 62
     2
 10
2089.5
 20
1635.0
 11
2076.554167588
 21
1647.945832412
  0
ARC
  8
0
  6
CONTINUOUS
 62
     2
 10
2159.5
 20
1565.0
 40
107.5
 50
128.674771409
 51
141.719074212
  0
LINE
  8
0
  6
CONTINUOUS
 62
     2
 10
2089.5
 20
1495.0
 11
2076.554167588
 21
1482.054167588
  0
ARC
  8
0
  6
CONTINUOUS
 62
     2
 10
2159.5
 20
1565.0
 40
107.5
 50
218.280925788
 51
231.325228591
  0
ARC
  8
0
  6
CONTINUOUS
 62
     1
 10
2159.5
 20
1565.0
 40
125.0
 50
0.0
 51
69.402826706
  0
CIRCLE
  8
0
  6
CONTINUOUS
 62
     1
 10
2159.5
 20
1580.0
 40
4.0
  0
CIRCLE
  8
0
  6
CONTINUOUS
 62
     1
 10
2159.5
 20
1565.0
 40
4.0
  0
CIRCLE
  8
0
  6
CONTINUOUS
 62
     1
 10
2144.5
 20
1565.0
 40
4.0
  0
CIRCLE
  8
0
  6
CONTINUOUS
 62
     1
 10
2159.5
 20
1550.0
 40
4.0
  0
CIRCLE
  8
0
  6
CONTINUOUS
 62
     1
 10
2174.5
 20
1565.0
 40
4.0
  0
ARC
  8
0
  6
CONTINUOUS
 62
     1
 10
2196.5
 20
1766.705692517
 40
3.0
 50
0.0
 51
90.0
  0
ARC
  8
0
  6
CONTINUOUS
 62
     1
 10
2203.5
 20
1769.705692517
 40
6.0
 50
0.0
 51
90.0
  0
ARC
  8
0
  6
CONTINUOUS
 62
     1
 10
2203.5
 20
1774.0
 40
6.0
 50
0.0
 51
90.0
  0
LINE
  8
0
  6
CONTINUOUS
 62
     1
 10
2203.5
 20
1780.0
 11
2159.5
 21
1780.0
  0
LINE
  8
0
  6
CONTINUOUS
 62
     1
 10
2159.5
 20
1775.705692517
 11
2203.5
 21
1775.705692517
  0
LINE
  8
0
  6
CONTINUOUS
 62
     1
 10
2159.5
 20
1769.705692517
 11
2196.5
 21
1769.705692517
  0
ARC
  8
0
  6
CONTINUOUS
 62
     1
 10
2122.5
 20
1766.705692517
 40
3.0
 50
90.0
 51
180.0
  0
ARC
  8
0
  6
CONTINUOUS
 62
     1
 10
2115.5
 20
1769.705692517
 40
6.0
 50
90.0
 51
180.0
  0
ARC
  8
0
  6
CONTINUOUS
 62
     1
 10
2115.5
 20
1774.0
 40
6.0
 50
90.0
 51
180.0
  0
LINE
  8
0
  6
CONTINUOUS
 62
     1
 10
2115.5
 20
1780.0
 11
2159.5
 21
1780.0
  0
LINE
  8
0
  6
CONTINUOUS
 62
     1
 10
2159.5
 20
1775.705692517
 11
2115.5
 21
1775.705692517
  0
LINE
  8
0
  6
CONTINUOUS
 62
     1
 10
2159.5
 20
1769.705692517
 11
2122.5
 21
1769.705692517
  0
ARC
  8
0
  6
CONTINUOUS
 62
     1
 10
2196.5
 20
1704.7
 40
3.0
 50
270.0
 51
0.0
  0
ARC
  8
0
  6
CONTINUOUS
 62
     1
 10
2203.5
 20
1710.7
 40
6.0
 50
270.0
 51
0.0
  0
LINE
  8
0
  6
CONTINUOUS
 62
     1
 10
2199.5
 20
1704.7
 11
2203.5
 21
1704.7
  0
LINE
  8
0
  6
CONTINUOUS
 62
     1
 10
2159.5
 20
1701.7
 11
2196.5
 21
1701.7
  0
ARC
  8
0
  6
CONTINUOUS
 62
     1
 10
2122.5
 20
1704.7
 40
3.0
 50
180.0
 51
270.0
  0
ARC
  8
0
  6
CONTINUOUS
 62
     1
 10
2115.5
 20
1710.7
 40
6.0
 50
180.0
 51
270.0
  0
LINE
  8
0
  6
CONTINUOUS
 62
     1
 10
2119.5
 20
1704.7
 11
2115.5
 21
1704.7
  0
LINE
  8
0
  6
CONTINUOUS
 62
     1
 10
2159.5
 20
1701.7
 11
2122.5
 21
1701.7
  0
LINE
  8
0
  6
CONTINUOUS
 62
     1
 10
2179.5
 20
1686.07764064
 11
2179.5
 21
1701.7
  0
LINE
  8
0
  6
CONTINUOUS
 62
     1
 10
2139.5
 20
1686.07764064
 11
2139.5
 21
1701.7
  0
LINE
  8
0
  6
CONTINUOUS
 62
     1
 10
2209.5
 20
1710.7
 11
2209.5
 21
1774.0
  0
LINE
  8
0
  6
CONTINUOUS
 62
     1
 10
2199.5
 20
1705.2
 11
2199.5
 21
1766.705692517
  0
LINE
  8
0
  6
CONTINUOUS
 62
     1
 10
2119.5
 20
1705.2
 11
2119.5
 21
1766.705692517
  0
LINE
  8
0
  6
CONTINUOUS
 62
     1
 10
2109.5
 20
1711.2
 11
2109.5
 21
1774.0
  0
CIRCLE
  8
0
  6
CONTINUOUS
 62
     1
 10
2159.5
 20
1733.0
 40
20.0
  0
CIRCLE
  8
0
  6
CONTINUOUS
 62
     2
 10
2159.5
 20
1733.0
 40
13.5
  0
CIRCLE
  8
0
  6
CONTINUOUS
 62
     2
 10
2159.5
 20
1733.0
 40
15.0
  0
LINE
  8
0
  6
LTYPE2
 62
     2
 10
2129.0
 20
1733.0
 11
2188.5
 21
1733.0
  0
ARC
  8
0
  6
CONTINUOUS
 62
     1
 10
2159.5
 20
1565.0
 40
125.0
 50
69.402826706
 51
280.557968545
  0
CIRCLE
  8
0
  6
CONTINUOUS
 62
     1
 10
2159.5
 20
1565.0
 40
115.0
  0
ARC
  8
0
  6
CONTINUOUS
 62
     1
 10
2064.5
 20
1565.0
 40
20.0
 50
90.0
 51
270.0
  0
ARC
  8
0
  6
CONTINUOUS
 62
     1
 10
2207.0
 20
1482.72758664
 40
20.0
 50
210.0
 51
30.0
  0
ARC
  8
0
  6
CONTINUOUS
 62
     1
 10
2207.0
 20
1647.27241336
 40
20.0
 50
330.0
 51
150.0
  0
LINE
  8
0
  6
CONTINUOUS
 62
     1
 10
2064.5
 20
1585.0
 11
2147.952994616
 21
1585.0
  0
LINE
  8
0
  6
CONTINUOUS
 62
     1
 10
2189.679491924
 20
1657.27241336
 11
2147.952994616
 21
1585.0
  0
LINE
  8
0
  6
CONTINUOUS
 62
     1
 10
2064.5
 20
1545.0
 11
2147.952994616
 21
1545.0
  0
LINE
  8
0
  6
CONTINUOUS
 62
     1
 10
2189.679491924
 20
1472.72758664
 11
2147.952994616
 21
1545.0
  0
LINE
  8
0
  6
CONTINUOUS
 62
     1
 10
2224.320508076
 20
1637.27241336
 11
2191.210211838
 21
1579.923698023
  0
LINE
  8
0
  6
CONTINUOUS
 62
     1
 10
2224.320508076
 20
1492.72758664
 11
2191.210211838
 21
1550.076301977
  0
CIRCLE
  8
0
  6
LTYPE1
 62
     1
 10
2083.486021022
 20
1488.986021022
 40
7.25
  0
CIRCLE
  8
0
  6
LTYPE1
 62
     1
 10
2235.513978978
 20
1488.986021022
 40
7.25
  0
CIRCLE
  8
0
  6
LTYPE1
 62
     1
 10
2235.513978978
 20
1641.013978978
 40
7.25
  0
CIRCLE
  8
0
  6
LTYPE1
 62
     1
 10
2083.486021022
 20
1641.013978978
 40
7.25
  0
ARC
  8
0
  6
CONTINUOUS
 62
     1
 10
2159.5
 20
1463.0
 40
31.0
 50
222.347409209
 51
317.652590791
  0
LINE
  8
0
  6
CONTINUOUS
 62
     2
 10
1800.5
 20
1042.5
 11
1918.1
 21
1042.5
  0
TEXT
  8
0
  6
CONTINUOUS
 62
     2
 10
1800.5
 20
1050.5
 30
2.4
 40
24.0
  1
ＰＦ１／２
 50
0.0
 41
0.9
 51
0.0
  7
KANJI2
  0
CIRCLE
  8
0
  6
CONTINUOUS
 62
     2
 10
2050.962354132
 20
1409.998877817
 40
10.4775
  0
CIRCLE
  8
0
  6
CONTINUOUS
 62
     2
 10
2050.962354132
 20
1409.998877817
 40
9.3155
  0
LINE
  8
1
  6
CONTINUOUS
 62
     2
 10
2049.5
 20
1398.5
 11
2037.954485113
 21
1382.169014543
  0
LINE
  8
1
  6
CONTINUOUS
 62
     2
 10
2049.5
 20
1398.5
 11
2047.666783537
 21
1378.584194282
  0
LINE
  8
1
  6
CONTINUOUS
 62
     2
 10
2049.5
 20
1398.5
 11
1918.1
 21
1042.5
  0
ARC
  8
0
  6
CONTINUOUS
 62
     1
 10
2159.5
 20
1568.7
 40
150.0
 50
116.704852248
 51
150.427488945
  0
LINE
  8
0
  6
CONTINUOUS
 62
     1
 10
2092.090801815
 20
1702.7
 11
2109.5
 21
1702.7
  0
LINE
  8
0
  6
CONTINUOUS
 62
     1
 10
2029.5
 20
1424.225525817
 11
2029.5
 21
1643.533147735
  0
ARC
  8
0
  6
CONTINUOUS
 62
     1
 10
2159.5
 20
1568.7
 40
150.0
 50
29.572511055
 51
63.295147752
  0
LINE
  8
0
  6
CONTINUOUS
 62
     1
 10
2226.909198185
 20
1702.7
 11
2209.5
 21
1702.7
  0
LINE
  8
0
  6
CONTINUOUS
 62
     1
 10
2289.5
 20
1384.761874274
 11
2289.5
 21
1643.533147735
  0
LINE
  8
0
  6
CONTINUOUS
 62
     1
 10
2021.9
 20
1454.0
 11
2021.9
 21
1574.0
  0
LINE
  8
0
  6
LTYPE3
 62
     2
 10
2044.1
 20
1564.0
 11
2017.1
 21
1564.0
  0
LINE
  8
0
  6
LTYPE3
 62
     2
 10
2044.1
 20
1464.0
 11
2019.1
 21
1464.0
  0
LINE
  8
0
  6
CONTINUOUS
 62
     1
 10
2029.5
 20
1454.0
 11
2021.9
 21
1454.0
  0
LINE
  8
0
  6
CONTINUOUS
 62
     1
 10
2029.5
 20
1574.0
 11
2021.9
 21
1574.0
  0
LINE
  8
0
  6
CONTINUOUS
 62
     1
 10
2297.1
 20
1454.0
 11
2297.1
 21
1574.0
  0
LINE
  8
0
  6
LTYPE3
 62
     2
 10
2274.9
 20
1564.0
 11
2301.9
 21
1564.0
  0
LINE
  8
0
  6
LTYPE3
 62
     2
 10
2274.9
 20
1464.0
 11
2299.9
 21
1464.0
  0
LINE
  8
0
  6
CONTINUOUS
 62
     1
 10
2289.5
 20
1454.0
 11
2297.1
 21
1454.0
  0
LINE
  8
0
  6
CONTINUOUS
 62
     1
 10
2289.5
 20
1574.0
 11
2297.1
 21
1574.0
  0
LINE
  8
6
  6
CONTINUOUS
 62
     2
 10
1897.5
 20
1780.0
 11
1892.323619098
 21
1760.681483474
  0
LINE
  8
6
  6
CONTINUOUS
 62
     2
 10
1897.5
 20
1780.0
 11
1902.676380902
 21
1760.681483474
  0
LINE
  8
0
  6
CONTINUOUS
 62
     2
 10
1823.0
 20
1780.0
 11
1817.823619098
 21
1760.681483474
  0
LINE
  8
0
  6
CONTINUOUS
 62
     2
 10
1823.0
 20
1780.0
 11
1828.176380902
 21
1760.681483474
  0
LINE
  8
6
  6
CONTINUOUS
 62
     2
 10
1897.5
 20
1565.0
 11
1897.5
 21
1780.0
  0
LINE
  8
6
  6
CONTINUOUS
 62
     2
 10
2103.5
 20
1780.0
 11
1815.0
 21
1780.0
  0
TEXT
  8
6
  6
CONTINUOUS
 62
     2
 10
1949.5
 20
1345.5
 30
2.4
 40
24.0
  1
φ４５Ｈ１０深５０
 50
90.0
 41
0.9
 51
0.0
  7
KANJI55
  0
LINE
  8
0
  6
CONTINUOUS
 62
     2
 10
1823.0
 20
1199.0
 11
1823.0
 21
1780.0
  0
LINE
  8
6
  6
CONTINUOUS
 62
     2
 10
2029.5
 20
1023.0
 11
2048.818516526
 21
1017.823619098
  0
LINE
  8
6
  6
CONTINUOUS
 62
     2
 10
2029.5
 20
1023.0
 11
2048.818516526
 21
1028.176380902
  0
LINE
  8
6
  6
CONTINUOUS
 62
     2
 10
2029.5
 20
1023.0
 11
2289.5
 21
1023.0
  0
LINE
  8
6
  6
CONTINUOUS
 62
     2
 10
2289.5
 20
1023.0
 11
2270.181483474
 21
1028.176380902
  0
LINE
  8
6
  6
CONTINUOUS
 62
     2
 10
2289.5
 20
1023.0
 11
2270.181483474
 21
1017.823619098
  0
LINE
  8
6
  6
CONTINUOUS
 62
     2
 10
2019.5
 20
953.0
 11
2038.818516526
 21
947.823619098
  0
LINE
  8
6
  6
CONTINUOUS
 62
     2
 10
2019.5
 20
953.0
 11
2038.818516526
 21
958.176380902
  0
LINE
  8
6
  6
CONTINUOUS
 62
     2
 10
2019.5
 20
953.0
 11
2299.5
 21
953.0
  0
LINE
  8
6
  6
CONTINUOUS
 62
     2
 10
2299.5
 20
953.0
 11
2280.181483474
 21
958.176380902
  0
LINE
  8
6
  6
CONTINUOUS
 62
     2
 10
2299.5
 20
953.0
 11
2280.181483474
 21
947.823619098
  0
TEXT
  8
6
  6
CONTINUOUS
 62
     2
 10
2124.7
 20
961.0
 30
2.4
 40
24.0
  1
２８０
 50
0.0
 41
0.9
 51
0.0
  7
KANJI55
  0
LINE
  8
6
  6
CONTINUOUS
 62
     2
 10
2029.5
 20
1202.0
 11
2029.5
 21
1012.5
  0
LINE
  8
6
  6
CONTINUOUS
 62
     2
 10
2019.5
 20
1272.0
 11
2019.5
 21
945.0
  0
LINE
  8
6
  6
CONTINUOUS
 62
     2
 10
2299.5
 20
1272.0
 11
2299.5
 21
945.0
  0
LINE
  8
6
  6
CONTINUOUS
 62
     2
 10
2289.5
 20
1202.0
 11
2289.5
 21
1012.5
  0
LINE
  8
1
  6
CONTINUOUS
 62
     2
 10
2159.5
 20
1152.0
 11
2159.5
 21
1086.5
  0
LINE
  8
1
  6
CONTINUOUS
 62
     2
 10
2159.5
 20
1094.5
 11
2140.181483474
 21
1099.676380902
  0
LINE
  8
1
  6
CONTINUOUS
 62
     2
 10
2159.5
 20
1094.5
 11
2140.181483474
 21
1089.323619098
  0
LINE
  8
1
  6
CONTINUOUS
 62
     2
 10
2159.5
 20
1094.5
 11
1999.5
 21
1094.5
  0
LINE
  8
1
  6
CONTINUOUS
 62
     2
 10
1999.5
 20
1094.5
 11
2018.818516526
 21
1089.323619098
  0
LINE
  8
1
  6
CONTINUOUS
 62
     2
 10
1999.5
 20
1094.5
 11
2018.818516526
 21
1099.676380902
  0
LINE
  8
1
  6
CONTINUOUS
 62
     2
 10
1999.5
 20
1376.0
 11
1999.5
 21
1086.5
  0
TEXT
  8
6
  6
CONTINUOUS
 62
     2
 10
2124.7
 20
1031.0
 30
2.4
 40
24.0
  1
２６０
 50
0.0
 41
0.9
 51
0.0
  7
KANJI55
  0
TEXT
  8
1
  6
CONTINUOUS
 62
     2
 10
2038.7
 20
1102.5
 30
2.4
 40
24.0
  1
１６０
 50
0.0
 41
0.9
 51
0.0
  7
KANJI2
  0
LINE
  8
1
  6
CONTINUOUS
 62
     2
 10
1636.000190206
 20
1383.5
 11
1755.000190206
 21
1383.5
  0
LINE
  8
1
  6
CONTINUOUS
 62
     2
 10
1739.000190206
 20
1383.5
 11
1733.823809304
 21
1364.181483474
  0
LINE
  8
1
  6
CONTINUOUS
 62
     2
 10
1739.000190206
 20
1383.5
 11
1744.176571108
 21
1364.181483474
  0
LINE
  8
1
  6
CONTINUOUS
 62
     2
 10
1739.000190206
 20
1383.5
 11
1739.000190206
 21
1288.5
  0
LINE
  8
1
  6
CONTINUOUS
 62
     2
 10
1739.000190206
 20
1288.5
 11
1744.176571108
 21
1307.818516526
  0
LINE
  8
1
  6
CONTINUOUS
 62
     2
 10
1739.000190206
 20
1288.5
 11
1733.823809304
 21
1307.818516526
  0
LINE
  8
1
  6
CONTINUOUS
 62
     2
 10
1636.000190206
 20
1288.5
 11
1755.000190206
 21
1288.5
  0
TEXT
  8
1
  6
CONTINUOUS
 62
     3
 10
1731.000190206
 20
1295.2
 30
2.4
 40
28.0
  1
φ９５
 50
90.0
 41
0.914285714
 51
0.0
  7
KANJI53
  0
LINE
  8
0
  6
CONTINUOUS
 62
     1
 10
1438.0
 20
1406.0
 11
1438.0
 21
1266.0
  0
LINE
  8
0
  6
CONTINUOUS
 62
     1
 10
1403.0
 20
1406.0
 11
1403.0
 21
1266.0
  0
LINE
  8
0
  6
CONTINUOUS
 62
     1
 10
1472.0
 20
1384.517376915
 11
1438.0
 21
1384.517376915
  0
LINE
  8
0
  6
CONTINUOUS
 62
     1
 10
1438.0
 20
1291.5
 11
1471.999190206
 21
1291.5
  0
LINE
  8
0
  6
CONTINUOUS
 62
     1
 10
1344.149691586
 20
1406.0
 11
1438.0
 21
1406.0
  0
LINE
  8
0
  6
CONTINUOUS
 62
     1
 10
1285.149691586
 20
1406.0
 11
1328.149691586
 21
1406.0
  0
LINE
  8
0
  6
CONTINUOUS
 62
     1
 10
1483.999190206
 20
1658.815113763
 11
1493.999190206
 21
1658.815113763
  0
LINE
  8
0
  6
CONTINUOUS
 62
     1
 10
1493.999190206
 20
1658.815113763
 11
1493.999190206
 21
1636.315113763
  0
LINE
  8
0
  6
CONTINUOUS
 62
     1
 10
1493.999190206
 20
1636.315113763
 11
1633.999380412
 21
1636.315113763
  0
LINE
  8
0
  6
CONTINUOUS
 62
     1
 10
1633.999380412
 20
1586.315113763
 11
1633.999380412
 21
1636.315113763
  0
LINE
  8
0
  6
CONTINUOUS
 62
     1
 10
1493.999190206
 20
1586.315113763
 11
1633.999380412
 21
1586.315113763
  0
LINE
  8
0
  6
CONTINUOUS
 62
     1
 10
1493.999190206
 20
1586.315113763
 11
1493.999190206
 21
1563.815113763
  0
LINE
  8
0
  6
LTYPE1
 62
     2
 10
1606.499380412
 20
1586.315113763
 11
1606.499380412
 21
1636.315113763
  0
LINE
  8
0
  6
LTYPE1
 62
     2
 10
1561.499380412
 20
1586.315113763
 11
1561.499380412
 21
1636.315113763
  0
LINE
  8
0
  6
CONTINUOUS
 62
     1
 10
1623.999380412
 20
1586.315113763
 11
1623.999380412
 21
1636.315113763
  0
LINE
  8
0
  6
LTYPE3
 62
     2
 10
1583.999380412
 20
1554.815113763
 11
1583.999380412
 21
1665.815113763
  0
LINE
  8
6
  6
CONTINUOUS
 62
     2
 10
1561.499380412
 20
1574.315113763
 11
1561.499380412
 21
1522.315113763
  0
LINE
  8
6
  6
CONTINUOUS
 62
     2
 10
1561.499380412
 20
1534.315113763
 11
1542.180863887
 21
1539.491494666
  0
LINE
  8
6
  6
CONTINUOUS
 62
     2
 10
1561.499380412
 20
1534.315113763
 11
1542.180863887
 21
1529.138732861
  0
LINE
  8
6
  6
CONTINUOUS
 62
     2
 10
1531.499380412
 20
1534.315113763
 11
1778.099380412
 21
1534.315113763
  0
LINE
  8
6
  6
CONTINUOUS
 62
     2
 10
1606.499380412
 20
1534.315113763
 11
1625.817896938
 21
1529.138732861
  0
LINE
  8
6
  6
CONTINUOUS
 62
     2
 10
1606.499380412
 20
1534.315113763
 11
1625.817896938
 21
1539.491494666
  0
LINE
  8
6
  6
CONTINUOUS
 62
     2
 10
1606.499380412
 20
1574.315113763
 11
1606.499380412
 21
1522.315113763
  0
TEXT
  8
6
  6
CONTINUOUS
 62
     2
 10
1636.499380412
 20
1542.315113763
 30
2.4
 40
24.0
  1
φ４５Ｈ１０
 50
0.0
 41
0.9
 51
0.0
  7
KANJI55
  0
LINE
  8
6
  6
CONTINUOUS
 62
     2
 10
1493.999190206
 20
1551.815113763
 11
1493.999190206
 21
1464.315113763
  0
LINE
  8
6
  6
CONTINUOUS
 62
     2
 10
1493.999190206
 20
1476.315113763
 11
1513.317706732
 21
1471.138732861
  0
LINE
  8
6
  6
CONTINUOUS
 62
     2
 10
1493.999190206
 20
1476.315113763
 11
1513.317706732
 21
1481.491494666
  0
LINE
  8
6
  6
CONTINUOUS
 62
     2
 10
1493.999190206
 20
1476.315113763
 11
1583.999380412
 21
1476.315113763
  0
LINE
  8
6
  6
CONTINUOUS
 62
     2
 10
1583.999380412
 20
1476.315113763
 11
1564.680863887
 21
1481.491494666
  0
LINE
  8
6
  6
CONTINUOUS
 62
     2
 10
1583.999380412
 20
1476.315113763
 11
1564.680863887
 21
1471.138732861
  0
LINE
  8
6
  6
CONTINUOUS
 62
     2
 10
1583.999380412
 20
1542.815113763
 11
1583.999380412
 21
1464.315113763
  0
TEXT
  8
6
  6
CONTINUOUS
 62
     2
 10
1516.199285309
 20
1484.315113763
 30
2.4
 40
24.0
  1
９０
 50
0.0
 41
0.9
 51
0.0
  7
KANJI55
  0
LINE
  8
6
  6
CONTINUOUS
 62
     2
 10
1645.999380412
 20
1586.315113763
 11
1706.999380412
 21
1586.315113763
  0
LINE
  8
6
  6
CONTINUOUS
 62
     2
 10
1694.999380412
 20
1586.315113763
 11
1700.175761315
 21
1605.633630289
  0
LINE
  8
6
  6
CONTINUOUS
 62
     2
 10
1694.999380412
 20
1586.315113763
 11
1689.82299951
 21
1605.633630289
  0
LINE
  8
6
  6
CONTINUOUS
 62
     2
 10
1694.999380412
 20
1586.315113763
 11
1694.999380412
 21
1636.315113763
  0
LINE
  8
6
  6
CONTINUOUS
 62
     2
 10
1694.999380412
 20
1636.315113763
 11
1689.82299951
 21
1616.996597238
  0
LINE
  8
6
  6
CONTINUOUS
 62
     2
 10
1694.999380412
 20
1636.315113763
 11
1700.175761315
 21
1616.996597238
  0
LINE
  8
6
  6
CONTINUOUS
 62
     2
 10
1645.999380412
 20
1636.315113763
 11
1706.999380412
 21
1636.315113763
  0
TEXT
  8
6
  6
CONTINUOUS
 62
     2
 10
1686.999380412
 20
1588.515113763
 30
2.4
 40
24.0
  1
５０
 50
90.0
 41
0.9
 51
0.0
  7
KANJI55
  0
LINE
  8
0
  6
CONTINUOUS
 62
     1
 10
1483.999380412
 20
1563.815113763
 11
1493.999190206
 21
1563.815113763
  0
LINE
  8
0
  6
CONTINUOUS
 62
     1
 10
1467.999380412
 20
1563.815113763
 11
1467.999380412
 21
1603.815113763
  0
LINE
  8
0
  6
CONTINUOUS
 62
     1
 10
1483.999190206
 20
1676.315113763
 11
1483.999190206
 21
1546.315113763
  0
LINE
  8
0
  6
CONTINUOUS
 62
     1
 10
1467.999380412
 20
1546.315113763
 11
1483.999190206
 21
1546.315113763
  0
LINE
  8
0
  6
CONTINUOUS
 62
     1
 10
1467.999380412
 20
1546.315113763
 11
1467.999380412
 21
1603.815113763
  0
LINE
  8
0
  6
CONTINUOUS
 62
     1
 10
1467.999190206
 20
1676.315113763
 11
1467.999190206
 21
1573.815113763
  0
LINE
  8
0
  6
CONTINUOUS
 62
     1
 10
1467.999190206
 20
1676.315113763
 11
1483.999190206
 21
1676.315113763
  0
LINE
  8
0
  6
CONTINUOUS
 62
     1
 10
1467.899190206
 20
1565.797736849
 11
1419.319380412
 21
1565.797736849
  0
LINE
  8
0
  6
CONTINUOUS
 62
     1
 10
1467.999190206
 20
1659.832490678
 11
1413.192380412
 21
1659.832490678
  0
LINE
  8
0
  6
LTYPE3
 62
     2
 10
1388.269380412
 20
1611.315113763
 11
1647.999380412
 21
1611.315113763
  0
LINE
  8
0
  6
LTYPE2
 62
     2
 10
495.0
 20
1231.0
 11
413.149691586
 21
1231.0
  0
LINE
  8
0
  6
LTYPE2
 62
     2
 10
485.0
 20
1441.0
 11
416.149691586
 21
1441.0
  0
TEXT
  8
0
  6
CONTINUOUS
 62
     2
 10
1242.5
 20
578.6
 30
2.4
 40
24.0
  1
１０８０
 50
0.0
 41
0.9
 51
0.0
  7
KANJI2
  0
TEXT
  8
0
  6
CONTINUOUS
 62
     2
 10
1242.0
 20
525.0
 30
2.4
 40
24.0
  1
１３２０
 50
0.0
 41
0.9
 51
0.0
  7
KANJI2
  0
TEXT
  8
0
  6
CONTINUOUS
 62
     2
 10
1239.5
 20
462.1
 30
2.4
 40
24.0
  1
１６２０
 50
0.0
 41
0.9
 51
0.0
  7
KANJI2
  0
TEXT
  8
0
  6
CONTINUOUS
 62
     2
 10
1567.0
 20
577.0
 30
2.4
 40
24.0
  1
　　５０
 50
0.0
 41
0.9
 51
0.0
  7
KANJI2
  0
TEXT
  8
0
  6
CONTINUOUS
 62
     2
 10
1557.0
 20
635.0
 30
2.4
 40
24.0
  1
　　　５０
 50
0.0
 41
0.9
 51
0.0
  7
KANJI2
  0
TEXT
  8
0
  6
CONTINUOUS
 62
     2
 10
1570.0
 20
522.0
 30
2.4
 40
24.0
  1
　　５０
 50
0.0
 41
0.9
 51
0.0
  7
KANJI2
  0
TEXT
  8
0
  6
CONTINUOUS
 62
     2
 10
1570.0
 20
466.0
 30
2.4
 40
24.0
  1
　　５０
 50
0.0
 41
0.9
 51
0.0
  7
KANJI2
  0
TEXT
  8
0
  6
CONTINUOUS
 62
     2
 10
1735.0
 20
579.0
 30
2.4
 40
24.0
  1
２３１
 50
0.0
 41
0.9
 51
0.0
  7
KANJI2
  0
TEXT
  8
0
  6
CONTINUOUS
 62
     2
 10
1734.0
 20
465.0
 30
2.4
 40
24.0
  1
２５９
 50
0.0
 41
0.9
 51
0.0
  7
KANJI2
  0
TEXT
  8
0
  6
CONTINUOUS
 62
     2
 10
1736.0
 20
523.0
 30
2.4
 40
24.0
  1
２４１
 50
0.0
 41
0.9
 51
0.0
  7
KANJI2
  0
TEXT
  8
0
  6
CONTINUOUS
 62
     2
 10
1081.7
 20
577.0
 30
2.4
 40
24.0
  1
１３０５
 50
0.0
 41
0.9
 51
0.0
  7
KANJI2
  0
TEXT
  8
0
  6
CONTINUOUS
 62
     2
 10
1083.0
 20
467.0
 30
2.4
 40
24.0
  1
１８４５
 50
0.0
 41
0.9
 51
0.0
  7
KANJI2
  0
TEXT
  8
0
  6
CONTINUOUS
 62
     2
 10
1079.0
 20
520.0
 30
2.4
 40
24.0
  1
１５４５
 50
0.0
 41
0.9
 51
0.0
  7
KANJI2
  0
TEXT
  8
0
  6
CONTINUOUS
 62
     2
 10
2963.2
 20
1688.2
 30
20.5
 40
28.0
  1
全閉屋内形
 50
0.0
 41
0.9
 51
0.0
  7
KANJI37
  0
TEXT
  8
6
  6
CONTINUOUS
 62
     2
 10
1889.5
 20
1646.2
 30
2.4
 40
24.0
  1
１９７
 50
90.0
 41
0.9
 51
0.0
  7
KANJI55
  0
TEXT
  8
0
  6
CONTINUOUS
 62
     2
 10
1815.0
 20
1464.0
 30
1.6
 40
24.0
  1
５６３
 50
90.0
 41
0.9
 51
0.0
  7
KANJI56
  0
TEXT
  8
0
  6
CONTINUOUS
 62
     2
 10
2940.0
 20
1743.0
 30
2.4
 40
24.0
  1
２１６Ｎ　　
 50
0.0
 41
0.9
 51
0.0
  7
KANJI2
  0
TEXT
  8
0
  6
CONTINUOUS
 62
     2
 10
3061.0
 20
1746.0
 30
0.1792
 40
22.4
  1
（２２　　ｋｇｍ）
 50
0.0
 41
0.8
 51
0.0
  7
KANJI52
  0
LINE
  8
0
  6
CONTINUOUS
 62
     6
 10
2137.333416
 20
114.9333328
 11
2137.333416
 21
553.1999696
  0
LINE
  8
0
  6
CONTINUOUS
 62
     6
 10
3205.0666672
 20
114.9333328
 11
3205.0666672
 21
553.1999696
  0
LINE
  8
0
  6
CONTINUOUS
 62
     1
 10
635.0
 20
1436.0
 11
643.702702703
 21
1429.0
  0
LINE
  8
0
  6
CONTINUOUS
 62
     1
 10
635.0
 20
1429.0
 11
635.0
 21
1436.0
  0
LINE
  8
0
  6
CONTINUOUS
 62
     1
 10
937.0
 20
1429.0
 11
937.0
 21
1436.0
  0
LINE
  8
0
  6
CONTINUOUS
 62
     1
 10
914.0
 20
1429.0
 11
914.0
 21
1436.0
  0
LINE
  8
0
  6
CONTINUOUS
 62
     1
 10
940.0
 20
1429.0
 11
940.0
 21
1434.44954
  0
LINE
  8
0
  6
CONTINUOUS
 62
     1
 10
937.0
 20
1434.25
 11
940.0
 21
1434.25
  0
LINE
  8
0
  6
CONTINUOUS
 62
     1
 10
940.0
 20
1434.25
 11
951.3
 21
1434.25
  0
LINE
  8
0
  6
CONTINUOUS
 62
     1
 10
951.3
 20
1429.0
 11
951.3
 21
1434.25
  0
LINE
  8
0
  6
CONTINUOUS
 62
     1
 10
951.3
 20
1434.25
 11
952.0
 21
1433.037564435
  0
LINE
  8
0
  6
CONTINUOUS
 62
     1
 10
952.0
 20
1429.0
 11
952.0
 21
1433.037564435
  0
LINE
  8
0
  6
CONTINUOUS
 62
     1
 10
783.0
 20
1465.944375069
 11
773.0
 21
1455.944375069
  0
LINE
  8
0
  6
CONTINUOUS
 62
     1
 10
773.0
 20
1429.0
 11
773.0
 21
1455.944375069
  0
ARC
  8
0
  6
CONTINUOUS
 62
     1
 10
771.0
 20
1466.466558854
 40
3.0
 50
90.0
 51
180.0
  0
LINE
  8
0
  6
CONTINUOUS
 62
     1
 10
891.0
 20
1429.0
 11
891.0
 21
1455.944375069
  0
LINE
  8
0
  6
CONTINUOUS
 62
     1
 10
896.0
 20
1429.0
 11
896.0
 21
1466.466558854
  0
ARC
  8
0
  6
CONTINUOUS
 62
     1
 10
893.0
 20
1466.466558854
 40
3.0
 50
0.0
 51
90.0
  0
LINE
  8
0
  6
CONTINUOUS
 62
     1
 10
891.0
 20
1455.944375069
 11
881.0
 21
1465.944375069
  0
LINE
  8
0
  6
CONTINUOUS
 62
     1
 10
783.0
 20
1465.944375069
 11
881.0
 21
1465.944375069
  0
LINE
  8
0
  6
CONTINUOUS
 62
     1
 10
771.0
 20
1469.466558854
 11
893.0
 21
1469.466558854
  0
LINE
  8
0
  6
CONTINUOUS
 62
     1
 10
901.0
 20
1429.0
 11
901.0
 21
1438.13271812
  0
LINE
  8
0
  6
CONTINUOUS
 62
     1
 10
896.0
 20
1438.13271812
 11
901.0
 21
1438.13271812
  0
LINE
  8
0
  6
CONTINUOUS
 62
     1
 10
768.0
 20
1429.0
 11
768.0
 21
1466.0
  0
LINE
  8
0
  6
CONTINUOUS
 62
     1
 10
901.0
 20
1436.0
 11
937.0
 21
1436.0
  0
LINE
  8
0
  6
CONTINUOUS
 62
     1
 10
610.720560018
 20
1442.0
 11
611.0
 21
1442.0
  0
LINE
  8
0
  6
CONTINUOUS
 62
     1
 10
616.0
 20
1442.0
 11
616.0
 21
1692.0
  0
LINE
  8
0
  6
CONTINUOUS
 62
     1
 10
610.720560018
 20
1442.0
 11
616.0
 21
1442.0
  0
LINE
  8
0
  6
CONTINUOUS
 62
     1
 10
666.0
 20
1462.0
 11
666.0
 21
1672.0
  0
LINE
  8
0
  6
CONTINUOUS
 62
     1
 10
666.0
 20
1462.0
 11
616.0
 21
1462.0
  0
LINE
  8
0
  6
CONTINUOUS
 62
     1
 10
666.0
 20
1672.0
 11
616.0
 21
1672.0
  0
LINE
  8
0
  6
CONTINUOUS
 62
     1
 10
666.0
 20
1462.0
 11
666.0
 21
1672.0
  0
LINE
  8
0
  6
CONTINUOUS
 62
     1
 10
850.0
 20
1715.0
 11
850.0
 21
1755.0
  0
LINE
  8
0
  6
CONTINUOUS
 62
     1
 10
850.0
 20
1755.0
 11
824.3
 21
1755.0
  0
LINE
  8
0
  6
CONTINUOUS
 62
     1
 10
850.0
 20
1715.0
 11
824.3
 21
1715.0
  0
ARC
  8
0
  6
CONTINUOUS
 62
     1
 10
818.3
 20
1709.7
 40
6.0
 50
270.0
 51
0.0
  0
ARC
  8
0
  6
CONTINUOUS
 62
     1
 10
704.819480257
 20
1709.7
 40
6.0
 50
190.033164511
 51
270.0
  0
LINE
  8
0
  6
CONTINUOUS
 62
     1
 10
818.661039485
 20
1703.7
 11
704.819480257
 21
1703.7
  0
ARC
  8
0
  6
CONTINUOUS
 62
     1
 10
704.819480257
 20
1772.0
 40
6.0
 50
90.0
 51
180.0
  0
LINE
  8
0
  6
CONTINUOUS
 62
     1
 10
823.108952959
 20
1778.0
 11
704.819480257
 21
1778.0
  0
LINE
  8
0
  6
CONTINUOUS
 62
     1
 10
834.377020398
 20
1777.498824355
 11
832.2
 21
1782.0
  0
LINE
  8
0
  6
CONTINUOUS
 62
     1
 10
832.2
 20
1782.0
 11
686.801684551
 21
1711.6772391
  0
LINE
  8
0
  6
CONTINUOUS
 62
     1
 10
834.377020398
 20
1777.498824355
 11
688.97870495
 21
1707.176063455
  0
LINE
  8
0
  6
CONTINUOUS
 62
     1
 10
686.801684551
 20
1711.6772391
 11
688.97870495
 21
1707.176063455
  0
LINE
  8
0
  6
CONTINUOUS
 62
     1
 10
698.819480257
 20
1718.676063455
 11
698.819480257
 21
1772.0
  0
LINE
  8
0
  6
CONTINUOUS
 62
     1
 10
699.47870495
 20
1711.676063455
 11
699.47870495
 21
1708.676063455
  0
LINE
  8
0
  6
CONTINUOUS
 62
     1
 10
824.3
 20
1709.7
 11
824.3
 21
1771.5
  0
LINE
  8
0
  6
CONTINUOUS
 62
     1
 10
1049.5
 20
1558.3
 11
1055.4
 21
1558.3
  0
LINE
  8
0
  6
CONTINUOUS
 62
     1
 10
1049.5
 20
1575.7
 11
1055.4
 21
1575.7
  0
LINE
  8
0
  6
CONTINUOUS
 62
     1
 10
1063.0
 20
1557.0
 11
1063.0
 21
1566.9
  0
LINE
  8
0
  6
CONTINUOUS
 62
     1
 10
1056.4
 20
1557.0
 11
1063.0
 21
1557.0
  0
LINE
  8
0
  6
CONTINUOUS
 62
     1
 10
1056.4
 20
1562.0
 11
1063.0
 21
1562.0
  0
LINE
  8
0
  6
CONTINUOUS
 62
     1
 10
1063.0
 20
1577.0
 11
1063.0
 21
1567.1
  0
LINE
  8
0
  6
CONTINUOUS
 62
     1
 10
1056.4
 20
1577.0
 11
1063.0
 21
1577.0
  0
LINE
  8
0
  6
CONTINUOUS
 62
     1
 10
1056.4
 20
1572.0
 11
1063.0
 21
1572.0
  0
LINE
  8
0
  6
CONTINUOUS
 62
     1
 10
1049.5
 20
1528.3
 11
1055.4
 21
1528.3
  0
LINE
  8
0
  6
CONTINUOUS
 62
     1
 10
1049.5
 20
1524.5
 11
1055.4
 21
1524.5
  0
LINE
  8
0
  6
CONTINUOUS
 62
     1
 10
1064.9
 20
1536.4
 11
1064.9
 21
1516.4
  0
LINE
  8
0
  6
CONTINUOUS
 62
     1
 10
1059.9
 20
1516.4
 11
1064.9
 21
1516.4
  0
LINE
  8
0
  6
CONTINUOUS
 62
     1
 10
1059.9
 20
1536.4
 11
1064.9
 21
1536.4
  0
LINE
  8
0
  6
CONTINUOUS
 62
     1
 10
1055.4
 20
1587.0
 11
1059.9
 21
1587.0
  0
LINE
  8
0
  6
CONTINUOUS
 62
     1
 10
1059.9
 20
1516.4
 11
1059.9
 21
1587.0
  0
LINE
  8
0
  6
LTYPE2
 62
     2
 10
1041.4
 20
1526.4
 11
1071.7
 21
1526.4
  0
LINE
  8
0
  6
CONTINUOUS
 62
     1
 10
1055.4
 20
1587.0
 11
1055.4
 21
1521.4
  0
LINE
  8
0
  6
CONTINUOUS
 62
     1
 10
1059.9
 20
1521.4
 11
1055.4
 21
1521.4
  0
LINE
  8
0
  6
CONTINUOUS
 62
     1
 10
1053.4
 20
1533.4
 11
1053.4
 21
1518.4
  0
LINE
  8
0
  6
CONTINUOUS
 62
     1
 10
1050.9
 20
1532.9
 11
1050.9
 21
1518.4
  0
LINE
  8
0
  6
CONTINUOUS
 62
     1
 10
666.0
 20
1672.0
 11
679.125
 21
1689.5
  0
ARC
  8
0
  6
CONTINUOUS
 62
     1
 10
1027.720549228
 20
1662.0
 40
20.0
 50
9.12031501
 51
90.0
  0
LINE
  8
0
  6
CONTINUOUS
 62
     1
 10
1027.720549228
 20
1682.0
 11
893.0
 21
1682.0
  0
ARC
  8
0
  6
CONTINUOUS
 62
     1
 10
1027.720549228
 20
1472.0
 40
20.0
 50
270.0
 51
350.87968499
  0
LINE
  8
0
  6
CONTINUOUS
 62
     1
 10
943.0
 20
1682.0
 11
943.0
 21
1452.0
  0
LINE
  8
0
  6
CONTINUOUS
 62
     1
 10
893.0
 20
1682.0
 11
885.5
 21
1689.5
  0
LINE
  8
0
  6
CONTINUOUS
 62
     1
 10
679.125
 20
1689.5
 11
885.5
 21
1689.5
  0
LINE
  8
0
  6
CONTINUOUS
 62
     1
 10
666.0
 20
1669.5
 11
893.0
 21
1669.5
  0
LINE
  8
0
  6
CONTINUOUS
 62
     1
 10
666.0
 20
1654.5
 11
893.0
 21
1654.5
  0
LINE
  8
0
  6
CONTINUOUS
 62
     1
 10
666.0
 20
1639.5
 11
893.0
 21
1639.5
  0
LINE
  8
0
  6
CONTINUOUS
 62
     1
 10
666.0
 20
1624.5
 11
893.0
 21
1624.5
  0
LINE
  8
0
  6
CONTINUOUS
 62
     1
 10
666.0
 20
1609.5
 11
893.0
 21
1609.5
  0
LINE
  8
0
  6
CONTINUOUS
 62
     1
 10
666.0
 20
1594.5
 11
893.0
 21
1594.5
  0
LINE
  8
0
  6
CONTINUOUS
 62
     1
 10
666.0
 20
1579.5
 11
893.0
 21
1579.5
  0
LINE
  8
0
  6
CONTINUOUS
 62
     1
 10
675.375
 20
1684.5
 11
890.5
 21
1684.5
  0
LINE
  8
0
  6
CONTINUOUS
 62
     1
 10
780.0
 20
1689.5
 11
780.0
 21
1703.7
  0
LINE
  8
0
  6
CONTINUOUS
 62
     1
 10
740.0
 20
1689.5
 11
740.0
 21
1703.7
  0
LINE
  8
0
  6
CONTINUOUS
 62
     1
 10
666.0
 20
1462.0
 11
679.125
 21
1444.5
  0
LINE
  8
0
  6
CONTINUOUS
 62
     1
 10
666.0
 20
1479.5
 11
893.0
 21
1479.5
  0
LINE
  8
0
  6
CONTINUOUS
 62
     1
 10
666.0
 20
1494.5
 11
893.0
 21
1494.5
  0
LINE
  8
0
  6
CONTINUOUS
 62
     1
 10
666.0
 20
1509.5
 11
893.0
 21
1509.5
  0
LINE
  8
0
  6
CONTINUOUS
 62
     1
 10
666.0
 20
1524.5
 11
893.0
 21
1524.5
  0
LINE
  8
0
  6
CONTINUOUS
 62
     1
 10
666.0
 20
1539.5
 11
893.0
 21
1539.5
  0
LINE
  8
0
  6
CONTINUOUS
 62
     1
 10
666.0
 20
1554.5
 11
893.0
 21
1554.5
  0
ARC
  8
0
  6
CONTINUOUS
 62
     1
 10
-1445.328453082
 20
1567.0
 40
2494.728453082
 50
357.744769101
 51
2.255230899
  0
LINE
  8
0
  6
CONTINUOUS
 62
     1
 10
610.720560018
 20
1692.0
 11
616.0
 21
1692.0
  0
LINE
  8
0
  6
CONTINUOUS
 62
     1
 10
610.720560018
 20
1436.0
 11
635.0
 21
1436.0
  0
LINE
  8
0
  6
CONTINUOUS
 62
     1
 10
679.125
 20
1444.5
 11
768.0
 21
1444.5
  0
LINE
  8
0
  6
CONTINUOUS
 62
     1
 10
675.375
 20
1449.5
 11
768.0
 21
1449.5
  0
LINE
  8
0
  6
CONTINUOUS
 62
     1
 10
666.0
 20
1464.5
 11
768.0
 21
1464.5
  0
LINE
  8
0
  6
CONTINUOUS
 62
     1
 10
893.0
 20
1682.0
 11
893.0
 21
1471.966558854
  0
LINE
  8
0
  6
CONTINUOUS
 62
     1
 10
1027.720549228
 20
1452.0
 11
898.0
 21
1452.0
  0
LINE
  8
6
  6
CONTINUOUS
 62
     2
 10
1128.279439982
 20
2239.0
 11
1128.279439982
 21
2242.0
  0
LINE
  8
6
  6
CONTINUOUS
 62
     2
 10
940.650133786
 20
2239.0
 11
942.182507886
 21
2242.0
  0
LINE
  8
0
  6
LTYPE2
 62
     2
 10
887.0
 20
1735.0
 11
814.756580424
 21
1735.0
  0
LINE
  8
0
  6
LTYPE3
 62
     2
 10
1070.0
 20
1567.0
 11
376.0
 21
1567.0
  0
LINE
  8
1
  6
CONTINUOUS
 62
     2
 10
600.0
 20
1709.0
 11
600.0
 21
1846.0
  0
LINE
  8
1
  6
CONTINUOUS
 62
     2
 10
600.0
 20
1830.0
 11
619.318516526
 21
1824.823619098
  0
LINE
  8
1
  6
CONTINUOUS
 62
     2
 10
600.0
 20
1830.0
 11
619.318516526
 21
1835.176380902
  0
LINE
  8
1
  6
CONTINUOUS
 62
     2
 10
600.0
 20
1830.0
 11
1063.0
 21
1830.0
  0
LINE
  8
1
  6
CONTINUOUS
 62
     2
 10
1063.0
 20
1830.0
 11
1043.681483474
 21
1835.176380902
  0
LINE
  8
1
  6
CONTINUOUS
 62
     2
 10
1063.0
 20
1830.0
 11
1043.681483474
 21
1824.823619098
  0
LINE
  8
1
  6
CONTINUOUS
 62
     2
 10
1063.0
 20
1585.0
 11
1063.0
 21
1846.0
  0
TEXT
  8
1
  6
CONTINUOUS
 62
     3
 10
790.7
 20
1838.0
 30
2.4
 40
28.0
  1
４６５
 50
0.0
 41
0.914285714
 51
0.0
  7
KANJI53
  0
LINE
  8
1
  6
CONTINUOUS
 62
     2
 10
1067.0
 20
1578.0
 11
1080.54563805
 21
1592.714472122
  0
LINE
  8
1
  6
CONTINUOUS
 62
     2
 10
1067.0
 20
1578.0
 11
1071.373630601
 21
1597.515925686
  0
LINE
  8
1
  6
CONTINUOUS
 62
     2
 10
1067.0
 20
1578.0
 11
1145.0
 21
1727.0
  0
LINE
  8
1
  6
CONTINUOUS
 62
     2
 10
1145.0
 20
1727.0
 11
1345.8
 21
1727.0
  0
TEXT
  8
1
  6
CONTINUOUS
 62
     3
 10
1145.0
 20
1735.0
 30
4.0
 40
24.0
  1
ブレーキ開放装置
 50
0.0
 41
0.9
 51
0.0
  7
KANJI58
  0
LINE
  8
1
  6
CONTINUOUS
 62
     2
 10
854.0
 20
1737.0
 11
867.63472633
 21
1751.631959469
  0
LINE
  8
1
  6
CONTINUOUS
 62
     2
 10
854.0
 20
1737.0
 11
858.492039641
 21
1756.489011772
  0
LINE
  8
1
  6
CONTINUOUS
 62
     2
 10
854.0
 20
1737.0
 11
939.0
 21
1897.0
  0
LINE
  8
1
  6
CONTINUOUS
 62
     2
 10
939.0
 20
1897.0
 11
1063.0
 21
1897.0
  0
TEXT
  8
1
  6
CONTINUOUS
 62
     3
 10
939.0
 20
1905.0
 30
4.0
 40
24.0
  1
ＰＦ３／４
 50
0.0
 41
0.9
 51
0.0
  7
KANJI58
  0
TEXT
  8
0
  6
CONTINUOUS
 62
     3
 10
2592.5333816
 20
219.999992
 30
17.333333333
 40
40.0
  1
Ａ３００１２４７
 50
0.0
 41
0.8
 51
0.0
  7
KANJI59
  0
TEXT
  8
0
  6
CONTINUOUS
 62
     2
 10
2508.0
 20
348.0
 30
0.0
 40
28.0
  1
ＭＣＬＧ８－　Ｌ
 50
0.0
 41
0.793650794
 51
0.0
  7
KANJI54
  0
LINE
  8
0
  6
CONTINUOUS
 62
     1
 10
2026.49
 20
2181.5948
 11
2026.49
 21
1973.6
  0
LINE
  8
0
  6
CONTINUOUS
 62
     2
 10
1906.493
 20
2181.5948
 11
1906.493
 21
1973.6
  0
LINE
  8
0
  6
CONTINUOUS
 62
     2
 10
1786.496
 20
2181.5948
 11
1786.496
 21
1973.6
  0
LINE
  8
0
  6
CONTINUOUS
 62
     1
 10
1626.5
 20
2181.5948
 11
1626.5
 21
1973.6
  0
LINE
  8
0
  6
CONTINUOUS
 62
     1
 10
1626.5
 20
2181.5948
 11
2026.49
 21
2181.5948
  0
LINE
  8
0
  6
CONTINUOUS
 62
     1
 10
1626.5
 20
2117.5964
 11
2026.49
 21
2117.5964
  0
LINE
  8
0
  6
CONTINUOUS
 62
     2
 10
1626.5
 20
2069.5976
 11
2026.49
 21
2069.5976
  0
LINE
  8
0
  6
CONTINUOUS
 62
     2
 10
1626.5
 20
2021.5988
 11
2026.49
 21
2021.5988
  0
LINE
  8
0
  6
CONTINUOUS
 62
     1
 10
1626.5
 20
1973.6
 11
2026.49
 21
1973.6
  0
TEXT
  8
0
  6
CONTINUOUS
 62
     2
 10
1922.4926
 20
2153.5955
 30
2.39994
 40
23.9994
  1
起動電流
 50
0.0
 41
0.9
 51
0.0
  7
KANJI60
  0
TEXT
  8
0
  6
CONTINUOUS
 62
     2
 10
1922.4926
 20
2125.5962
 30
2.39994
 40
23.9994
  1
　　　Ａ
 50
0.0
 41
0.9
 51
0.0
  7
KANJI60
  0
TEXT
  8
0
  6
CONTINUOUS
 62
     2
 10
1802.4956
 20
2153.5955
 30
2.39994
 40
23.9994
  1
定格電流
 50
0.0
 41
0.9
 51
0.0
  7
KANJI60
  0
TEXT
  8
0
  6
CONTINUOUS
 62
     2
 10
1802.4956
 20
2125.5962
 30
2.39994
 40
23.9994
  1
　　　Ａ
 50
0.0
 41
0.9
 51
0.0
  7
KANJI60
  0
TEXT
  8
0
  6
CONTINUOUS
 62
     2
 10
1640.09966
 20
2153.5955
 30
2.39994
 40
23.9994
  1
電圧／周波数
 50
0.0
 41
0.9
 51
0.0
  7
KANJI60
  0
TEXT
  8
0
  6
CONTINUOUS
 62
     2
 10
1640.09966
 20
2125.5962
 30
2.39994
 40
23.9994
  1
　Ｖ／Ｈｚ
 50
0.0
 41
0.9
 51
0.0
  7
KANJI60
  0
TEXT
  8
0
  6
CONTINUOUS
 62
     2
 10
1640.09966
 20
2081.5973
 30
2.39994
 40
23.9994
  1
４００／５０
 50
0.0
 41
0.9
 51
0.0
  7
KANJI60
  0
TEXT
  8
0
  6
CONTINUOUS
 62
     2
 10
1640.09966
 20
2033.5985
 30
2.39994
 40
23.9994
  1
４００／６０
 50
0.0
 41
0.9
 51
0.0
  7
KANJI60
  0
TEXT
  8
0
  6
CONTINUOUS
 62
     2
 10
1640.09966
 20
1985.5997
 30
2.39994
 40
23.9994
  1
４４０／６０
 50
0.0
 41
0.9
 51
0.0
  7
KANJI60
  0
LINE
  8
0
  6
CONTINUOUS
 62
     1
 10
1546.5
 20
2181.5948
 11
1546.5
 21
1973.6
  0
LINE
  8
0
  6
CONTINUOUS
 62
     2
 10
1426.503
 20
2181.5948
 11
1426.503
 21
1973.6
  0
LINE
  8
0
  6
CONTINUOUS
 62
     2
 10
1306.506
 20
2181.5948
 11
1306.506
 21
1973.6
  0
LINE
  8
0
  6
CONTINUOUS
 62
     1
 10
1146.51
 20
2181.5948
 11
1146.51
 21
1973.6
  0
LINE
  8
0
  6
CONTINUOUS
 62
     1
 10
1146.51
 20
2181.5948
 11
1546.5
 21
2181.5948
  0
LINE
  8
0
  6
CONTINUOUS
 62
     1
 10
1146.51
 20
2117.5964
 11
1546.5
 21
2117.5964
  0
LINE
  8
0
  6
CONTINUOUS
 62
     2
 10
1146.51
 20
2069.5976
 11
1546.5
 21
2069.5976
  0
LINE
  8
0
  6
CONTINUOUS
 62
     2
 10
1146.51
 20
2021.5988
 11
1546.5
 21
2021.5988
  0
LINE
  8
0
  6
CONTINUOUS
 62
     1
 10
1146.51
 20
1973.6
 11
1546.5
 21
1973.6
  0
TEXT
  8
0
  6
CONTINUOUS
 62
     2
 10
1442.5026
 20
2153.5955
 30
2.39994
 40
23.9994
  1
起動電流
 50
0.0
 41
0.9
 51
0.0
  7
KANJI60
  0
TEXT
  8
0
  6
CONTINUOUS
 62
     2
 10
1442.5026
 20
2125.5962
 30
2.39994
 40
23.9994
  1
　　　Ａ
 50
0.0
 41
0.9
 51
0.0
  7
KANJI60
  0
TEXT
  8
0
  6
CONTINUOUS
 62
     2
 10
1322.5056
 20
2153.5955
 30
2.39994
 40
23.9994
  1
定格電流
 50
0.0
 41
0.9
 51
0.0
  7
KANJI60
  0
TEXT
  8
0
  6
CONTINUOUS
 62
     2
 10
1322.5056
 20
2125.5962
 30
2.39994
 40
23.9994
  1
　　　Ａ
 50
0.0
 41
0.9
 51
0.0
  7
KANJI60
  0
TEXT
  8
0
  6
CONTINUOUS
 62
     2
 10
1160.10966
 20
2033.5985
 30
2.39994
 40
23.9994
  1
２００／６０
 50
0.0
 41
0.9
 51
0.0
  7
KANJI60
  0
TEXT
  8
0
  6
CONTINUOUS
 62
     2
 10
1160.10966
 20
2153.5955
 30
2.39994
 40
23.9994
  1
電圧／周波数
 50
0.0
 41
0.9
 51
0.0
  7
KANJI60
  0
TEXT
  8
0
  6
CONTINUOUS
 62
     2
 10
1160.10966
 20
2125.5962
 30
2.39994
 40
23.9994
  1
　Ｖ／Ｈｚ
 50
0.0
 41
0.9
 51
0.0
  7
KANJI60
  0
TEXT
  8
0
  6
CONTINUOUS
 62
     2
 10
1160.10966
 20
2081.5973
 30
2.39994
 40
23.9994
  1
２００／５０
 50
0.0
 41
0.9
 51
0.0
  7
KANJI60
  0
TEXT
  8
0
  6
CONTINUOUS
 62
     2
 10
1160.10966
 20
1985.5997
 30
2.39994
 40
23.9994
  1
２２０／６０
 50
0.0
 41
0.9
 51
0.0
  7
KANJI60
  0
TEXT
  8
0
  6
CONTINUOUS
 62
     2
 10
1249.097220468
 20
1927.934483
 30
2.79993
 40
27.9993
  1
注意：サーマルリレー等の選定は、上記の値を参照下さい。
 50
0.0
 41
0.9
 51
0.0
  7
KANJI61
  0
LINE
  8
0
  6
CONTINUOUS
 62
     2
 10
1233.097620468
 20
1919.934683
 11
1985.078820468
 21
1919.934683
  0
TEXT
  8
0
  6
CONTINUOUS
 62
     2
 10
1322.5056
 20
2081.5973
 30
2.39994
 40
23.9994
  1
１５．０
 50
0.0
 41
0.9
 51
0.0
  7
KANJI60
  0
TEXT
  8
0
  6
CONTINUOUS
 62
     2
 10
1322.5056
 20
2033.5985
 30
2.39994
 40
23.9994
  1
１４．０
 50
0.0
 41
0.9
 51
0.0
  7
KANJI60
  0
TEXT
  8
0
  6
CONTINUOUS
 62
     2
 10
1322.5056
 20
1985.5997
 30
2.39994
 40
23.9994
  1
１３．０
 50
0.0
 41
0.9
 51
0.0
  7
KANJI60
  0
TEXT
  8
0
  6
CONTINUOUS
 62
     2
 10
1442.5026
 20
2081.5973
 30
2.39994
 40
23.9994
  1
９１．０
 50
0.0
 41
0.9
 51
0.0
  7
KANJI60
  0
TEXT
  8
0
  6
CONTINUOUS
 62
     2
 10
1441.635999532
 20
2029.931917
 30
2.39994
 40
23.9994
  1
８６．０
 50
0.0
 41
0.9
 51
0.0
  7
KANJI60
  0
TEXT
  8
0
  6
CONTINUOUS
 62
     2
 10
1443.635949532
 20
1984.599717
 30
2.39994
 40
23.9994
  1
９４．６
 50
0.0
 41
0.9
 51
0.0
  7
KANJI60
  0
TEXT
  8
0
  6
CONTINUOUS
 62
     2
 10
1802.4956
 20
2081.5973
 30
2.39994
 40
23.9994
  1
　７．５
 50
0.0
 41
0.9
 51
0.0
  7
KANJI60
  0
TEXT
  8
0
  6
CONTINUOUS
 62
     2
 10
1802.4956
 20
2033.5985
 30
2.39994
 40
23.9994
  1
　７．０
 50
0.0
 41
0.9
 51
0.0
  7
KANJI60
  0
TEXT
  8
0
  6
CONTINUOUS
 62
     2
 10
1802.4956
 20
1985.5997
 30
2.39994
 40
23.9994
  1
　６．６
 50
0.0
 41
0.9
 51
0.0
  7
KANJI60
  0
TEXT
  8
0
  6
CONTINUOUS
 62
     2
 10
1922.4926
 20
2081.5973
 30
2.39994
 40
23.9994
  1
４５．５
 50
0.0
 41
0.9
 51
0.0
  7
KANJI60
  0
TEXT
  8
0
  6
CONTINUOUS
 62
     2
 10
1922.4926
 20
2033.5985
 30
2.39994
 40
23.9994
  1
４３．０
 50
0.0
 41
0.9
 51
0.0
  7
KANJI60
  0
TEXT
  8
0
  6
CONTINUOUS
 62
     2
 10
1922.4926
 20
1985.5997
 30
2.39994
 40
23.9994
  1
４７．３
 50
0.0
 41
0.9
 51
0.0
  7
KANJI60
  0
TEXT
  8
0
  6
CONTINUOUS
 62
     2
 10
2942.0
 20
1966.2
 30
1.6
 40
24.0
  1
ＭＣＬＧ８ー　　　　　Ｌ
 50
0.0
 41
0.833333333
 51
0.0
  7
KANJI62
  0
TEXT
  8
0
  6
CONTINUOUS
 62
     2
 10
631.0
 20
631.0
 30
1.6
 40
24.0
  1
ＭＣＬＧ８ー　　　　　３Ｌ
 50
0.0
 41
0.833333333
 51
0.0
  7
KANJI62
  0
TEXT
  8
0
  6
CONTINUOUS
 62
     2
 10
631.0
 20
581.0
 30
1.6
 40
24.0
  1
ＭＣＬＧ８－　　　　　５Ｌ
 50
0.0
 41
0.833333333
 51
0.0
  7
KANJI62
  0
TEXT
  8
0
  6
CONTINUOUS
 62
     2
 10
631.0
 20
525.0
 30
1.6
 40
24.0
  1
ＭＣＬＧ８ー　　　　　７Ｌ
 50
0.0
 41
0.833333333
 51
0.0
  7
KANJI62
  0
TEXT
  8
0
  6
CONTINUOUS
 62
     2
 10
633.0
 20
465.0
 30
1.6
 40
24.0
  1
ＭＣＬＧ８－　　　１０Ｌ
 50
0.0
 41
0.833333333
 51
0.0
  7
KANJI62
  0
TEXT
  8
0
  6
CONTINUOUS
 62
     2
 10
630.0
 20
407.0
 30
1.6
 40
24.0
  1
ＭＣＬＧ８－　　　　　　　Ｌ
 50
0.0
 41
0.833333333
 51
0.0
  7
KANJI62
  0
TEXT
  8
0
  6
CONTINUOUS
 62
     2
 10
630.0
 20
351.0
 30
1.6
 40
24.0
  1
ＭＣＬＧ８－　　　　　　　Ｌ
 50
0.0
 41
0.833333333
 51
0.0
  7
KANJI62
  0
LINE
  8
1
  6
CONTINUOUS
 62
     2
 10
1035.720549228
 20
1682.0
 11
1142.0
 21
1682.0
  0
LINE
  8
1
  6
CONTINUOUS
 62
     2
 10
1126.0
 20
1682.0
 11
1120.823619098
 21
1662.681483474
  0
LINE
  8
1
  6
CONTINUOUS
 62
     2
 10
1126.0
 20
1682.0
 11
1131.176380902
 21
1662.681483474
  0
LINE
  8
1
  6
CONTINUOUS
 62
     2
 10
1126.0
 20
1682.0
 11
1126.0
 21
1452.0
  0
LINE
  8
1
  6
CONTINUOUS
 62
     2
 10
1126.0
 20
1452.0
 11
1131.176380902
 21
1471.318516526
  0
LINE
  8
1
  6
CONTINUOUS
 62
     2
 10
1126.0
 20
1452.0
 11
1120.823619098
 21
1471.318516526
  0
LINE
  8
1
  6
CONTINUOUS
 62
     2
 10
1035.720549228
 20
1452.0
 11
1142.0
 21
1452.0
  0
TEXT
  8
1
  6
CONTINUOUS
 62
     3
 10
1118.0
 20
1526.2
 30
2.4
 40
28.0
  1
２３０
 50
90.0
 41
0.914285714
 51
0.0
  7
KANJI53
  0
TEXT
  8
0
  6
CONTINUOUS
 62
     2
 10
2931.8
 20
1799.2
 30
2.4
 40
24.0
  1
３０／３６
 50
0.0
 41
0.9
 51
0.0
  7
KANJI2
  0
TEXT
  8
0
  6
CONTINUOUS
 62
     2
 10
2949.8
 20
1521.2
 30
2.4
 40
24.0
  1
３．７
 50
0.0
 41
0.9
 51
0.0
  7
KANJI2
  0
TEXT
  8
0
  6
CONTINUOUS
 62
     2
 10
2171.0
 20
516.0
 30
2.4
 40
28.0
  1
客　先　名
 50
0.0
 41
0.857142857
 51
0.0
  7
KANJI63
  0
TEXT
  8
0
  6
CONTINUOUS
 62
     2
 10
2172.0
 20
464.0
 30
2.4
 40
28.0
  1
御　用　途
 50
0.0
 41
0.857142857
 51
0.0
  7
KANJI63
  0
LINE
  8
0
  6
CONTINUOUS
 62
     6
 10
2137.333416
 20
553.1999696
 11
3205.0666672
 21
553.1999696
  0
LINE
  8
0
  6
CONTINUOUS
 62
     6
 10
2337.333416
 20
447.7333072
 11
2337.333416
 21
553.1999696
  0
ENDSEC
  0
EOF
