  0
SECTION
  2
HEADER
  9
$EXTMIN
 10
0.0
 20
0.0
 30
0.0
  9
$EXTMAX
 10
3360.0
 20
2376.0
 30
0.0
  9
$LIMMIN
 10
0.0
 20
0.0
  9
$LIMMAX
 10
3360.0
 20
2376.0
  9
$LTSCALE
 40
1.0
  9
$PDMODE
 70
     0
  0
ENDSEC
  0
SECTION
  2
TABLES
  0
TABLE
  2
LTYPE
 70
     6
  0
LTYPE
  2
CONTINUOUS
 70
    64
  3
Solid line
 72
    65
 73
     0
 40
0.0
  0
LTYPE
  2
LTYPE1
 70
    64
  3
HIDDEN
 72
    65
 73
     2
 40
24.0
 49
14.4
 49
-9.6
  0
LTYPE
  2
LTYPE2
 70
    64
  3
CENTER
 72
    65
 73
     4
 40
80.0
 49
56.0
 49
-8.0
 49
8.0
 49
-8.0
  0
LTYPE
  2
LTYPE3
 70
    64
  3
CENTER
 72
    65
 73
     4
 40
120.0
 49
84.0
 49
-12.0
 49
12.0
 49
-12.0
  0
LTYPE
  2
LTYPE4
 70
    64
  3
PHANTOM
 72
    65
 73
     6
 40
120.0
 49
90.0
 49
-6.0
 49
6.0
 49
-6.0
 49
6.0
 49
-6.0
  0
LTYPE
  2
LTYPE5
 70
    64
  3
CENTER
 72
    65
 73
     4
 40
160.0
 49
112.0
 49
-16.0
 49
16.0
 49
-16.0
  0
ENDTAB
  0
TABLE
  2
LAYER
 70
   128
  0
LAYER
  2
0
 70
     0
 62
     7
  6
CONTINUOUS
  0
LAYER
  2
2
 70
     0
 62
     7
  6
CONTINUOUS
  0
LAYER
  2
3
 70
     0
 62
     7
  6
CONTINUOUS
  0
LAYER
  2
4
 70
     0
 62
     7
  6
CONTINUOUS
  0
LAYER
  2
5
 70
     0
 62
     7
  6
CONTINUOUS
  0
LAYER
  2
6
 70
     0
 62
     7
  6
CONTINUOUS
  0
LAYER
  2
7
 70
     0
 62
     7
  6
CONTINUOUS
  0
LAYER
  2
8
 70
     0
 62
     7
  6
CONTINUOUS
  0
LAYER
  2
9
 70
     0
 62
     7
  6
CONTINUOUS
  0
LAYER
  2
10
 70
     0
 62
     7
  6
CONTINUOUS
  0
LAYER
  2
11
 70
     0
 62
     7
  6
CONTINUOUS
  0
LAYER
  2
12
 70
     0
 62
     7
  6
CONTINUOUS
  0
LAYER
  2
13
 70
     0
 62
     7
  6
CONTINUOUS
  0
LAYER
  2
14
 70
     0
 62
     7
  6
CONTINUOUS
  0
LAYER
  2
15
 70
     0
 62
     7
  6
CONTINUOUS
  0
LAYER
  2
16
 70
     0
 62
     7
  6
CONTINUOUS
  0
LAYER
  2
17
 70
     0
 62
     7
  6
CONTINUOUS
  0
LAYER
  2
18
 70
     0
 62
     7
  6
CONTINUOUS
  0
LAYER
  2
19
 70
     0
 62
     7
  6
CONTINUOUS
  0
LAYER
  2
20
 70
     0
 62
     7
  6
CONTINUOUS
  0
LAYER
  2
21
 70
     0
 62
     7
  6
CONTINUOUS
  0
LAYER
  2
22
 70
     0
 62
     7
  6
CONTINUOUS
  0
LAYER
  2
23
 70
     0
 62
     7
  6
CONTINUOUS
  0
LAYER
  2
24
 70
     0
 62
     7
  6
CONTINUOUS
  0
LAYER
  2
25
 70
     0
 62
     7
  6
CONTINUOUS
  0
LAYER
  2
26
 70
     0
 62
     7
  6
CONTINUOUS
  0
LAYER
  2
27
 70
     0
 62
     7
  6
CONTINUOUS
  0
LAYER
  2
28
 70
     0
 62
     7
  6
CONTINUOUS
  0
LAYER
  2
29
 70
     0
 62
     7
  6
CONTINUOUS
  0
LAYER
  2
30
 70
     0
 62
     7
  6
CONTINUOUS
  0
LAYER
  2
31
 70
     0
 62
     7
  6
CONTINUOUS
  0
LAYER
  2
32
 70
     0
 62
     7
  6
CONTINUOUS
  0
LAYER
  2
33
 70
     0
 62
     7
  6
CONTINUOUS
  0
LAYER
  2
34
 70
     0
 62
     7
  6
CONTINUOUS
  0
LAYER
  2
35
 70
     0
 62
     7
  6
CONTINUOUS
  0
LAYER
  2
36
 70
     0
 62
     7
  6
CONTINUOUS
  0
LAYER
  2
37
 70
     0
 62
     7
  6
CONTINUOUS
  0
LAYER
  2
38
 70
     0
 62
     7
  6
CONTINUOUS
  0
LAYER
  2
39
 70
     0
 62
     7
  6
CONTINUOUS
  0
LAYER
  2
40
 70
     0
 62
     7
  6
CONTINUOUS
  0
LAYER
  2
41
 70
     0
 62
     7
  6
CONTINUOUS
  0
LAYER
  2
42
 70
     0
 62
     7
  6
CONTINUOUS
  0
LAYER
  2
43
 70
     0
 62
     7
  6
CONTINUOUS
  0
LAYER
  2
44
 70
     0
 62
     7
  6
CONTINUOUS
  0
LAYER
  2
45
 70
     0
 62
     7
  6
CONTINUOUS
  0
LAYER
  2
46
 70
     0
 62
     7
  6
CONTINUOUS
  0
LAYER
  2
47
 70
     0
 62
     7
  6
CONTINUOUS
  0
LAYER
  2
48
 70
     0
 62
     7
  6
CONTINUOUS
  0
LAYER
  2
49
 70
     0
 62
     7
  6
CONTINUOUS
  0
LAYER
  2
50
 70
     0
 62
     7
  6
CONTINUOUS
  0
LAYER
  2
51
 70
     0
 62
     7
  6
CONTINUOUS
  0
LAYER
  2
52
 70
     0
 62
     7
  6
CONTINUOUS
  0
LAYER
  2
53
 70
     0
 62
     7
  6
CONTINUOUS
  0
LAYER
  2
54
 70
     0
 62
     7
  6
CONTINUOUS
  0
LAYER
  2
55
 70
     0
 62
     7
  6
CONTINUOUS
  0
LAYER
  2
56
 70
     0
 62
     7
  6
CONTINUOUS
  0
LAYER
  2
57
 70
     0
 62
     7
  6
CONTINUOUS
  0
LAYER
  2
58
 70
     0
 62
     7
  6
CONTINUOUS
  0
LAYER
  2
59
 70
     0
 62
     7
  6
CONTINUOUS
  0
LAYER
  2
60
 70
     0
 62
     7
  6
CONTINUOUS
  0
LAYER
  2
61
 70
     0
 62
     7
  6
CONTINUOUS
  0
LAYER
  2
62
 70
     0
 62
     7
  6
CONTINUOUS
  0
LAYER
  2
63
 70
     0
 62
     7
  6
CONTINUOUS
  0
LAYER
  2
64
 70
     0
 62
     7
  6
CONTINUOUS
  0
LAYER
  2
65
 70
     0
 62
     7
  6
CONTINUOUS
  0
LAYER
  2
66
 70
     0
 62
     7
  6
CONTINUOUS
  0
LAYER
  2
67
 70
     0
 62
     7
  6
CONTINUOUS
  0
LAYER
  2
68
 70
     0
 62
     7
  6
CONTINUOUS
  0
LAYER
  2
69
 70
     0
 62
     7
  6
CONTINUOUS
  0
LAYER
  2
70
 70
     0
 62
     7
  6
CONTINUOUS
  0
LAYER
  2
71
 70
     0
 62
     7
  6
CONTINUOUS
  0
LAYER
  2
72
 70
     0
 62
     7
  6
CONTINUOUS
  0
LAYER
  2
73
 70
     0
 62
     7
  6
CONTINUOUS
  0
LAYER
  2
74
 70
     0
 62
     7
  6
CONTINUOUS
  0
LAYER
  2
75
 70
     0
 62
     7
  6
CONTINUOUS
  0
LAYER
  2
76
 70
     0
 62
     7
  6
CONTINUOUS
  0
LAYER
  2
77
 70
     0
 62
     7
  6
CONTINUOUS
  0
LAYER
  2
78
 70
     0
 62
     7
  6
CONTINUOUS
  0
LAYER
  2
79
 70
     0
 62
     7
  6
CONTINUOUS
  0
LAYER
  2
80
 70
     0
 62
     7
  6
CONTINUOUS
  0
LAYER
  2
81
 70
     0
 62
     7
  6
CONTINUOUS
  0
LAYER
  2
82
 70
     0
 62
     7
  6
CONTINUOUS
  0
LAYER
  2
83
 70
     0
 62
     7
  6
CONTINUOUS
  0
LAYER
  2
84
 70
     0
 62
     7
  6
CONTINUOUS
  0
LAYER
  2
85
 70
     0
 62
     7
  6
CONTINUOUS
  0
LAYER
  2
86
 70
     0
 62
     7
  6
CONTINUOUS
  0
LAYER
  2
87
 70
     0
 62
     7
  6
CONTINUOUS
  0
LAYER
  2
88
 70
     0
 62
     7
  6
CONTINUOUS
  0
LAYER
  2
89
 70
     0
 62
     7
  6
CONTINUOUS
  0
LAYER
  2
90
 70
     0
 62
     7
  6
CONTINUOUS
  0
LAYER
  2
91
 70
     0
 62
     7
  6
CONTINUOUS
  0
LAYER
  2
92
 70
     0
 62
     7
  6
CONTINUOUS
  0
LAYER
  2
93
 70
     0
 62
     7
  6
CONTINUOUS
  0
LAYER
  2
94
 70
     0
 62
     7
  6
CONTINUOUS
  0
LAYER
  2
95
 70
     0
 62
     7
  6
CONTINUOUS
  0
LAYER
  2
96
 70
     0
 62
     7
  6
CONTINUOUS
  0
LAYER
  2
97
 70
     0
 62
     7
  6
CONTINUOUS
  0
LAYER
  2
98
 70
     0
 62
     7
  6
CONTINUOUS
  0
LAYER
  2
99
 70
     0
 62
     7
  6
CONTINUOUS
  0
LAYER
  2
100
 70
     0
 62
     7
  6
CONTINUOUS
  0
LAYER
  2
101
 70
     0
 62
     7
  6
CONTINUOUS
  0
LAYER
  2
102
 70
     0
 62
     7
  6
CONTINUOUS
  0
LAYER
  2
103
 70
     0
 62
     7
  6
CONTINUOUS
  0
LAYER
  2
104
 70
     0
 62
     7
  6
CONTINUOUS
  0
LAYER
  2
105
 70
     0
 62
     7
  6
CONTINUOUS
  0
LAYER
  2
106
 70
     0
 62
     7
  6
CONTINUOUS
  0
LAYER
  2
107
 70
     0
 62
     7
  6
CONTINUOUS
  0
LAYER
  2
108
 70
     0
 62
     7
  6
CONTINUOUS
  0
LAYER
  2
109
 70
     0
 62
     7
  6
CONTINUOUS
  0
LAYER
  2
110
 70
     0
 62
     7
  6
CONTINUOUS
  0
LAYER
  2
111
 70
     0
 62
     7
  6
CONTINUOUS
  0
LAYER
  2
112
 70
     0
 62
     7
  6
CONTINUOUS
  0
LAYER
  2
113
 70
     0
 62
     7
  6
CONTINUOUS
  0
LAYER
  2
114
 70
     0
 62
     7
  6
CONTINUOUS
  0
LAYER
  2
115
 70
     0
 62
     7
  6
CONTINUOUS
  0
LAYER
  2
116
 70
     0
 62
     7
  6
CONTINUOUS
  0
LAYER
  2
117
 70
     0
 62
     7
  6
CONTINUOUS
  0
LAYER
  2
118
 70
     0
 62
     7
  6
CONTINUOUS
  0
LAYER
  2
119
 70
     0
 62
     7
  6
CONTINUOUS
  0
LAYER
  2
120
 70
     0
 62
     7
  6
CONTINUOUS
  0
LAYER
  2
121
 70
     0
 62
     7
  6
CONTINUOUS
  0
LAYER
  2
122
 70
     0
 62
     7
  6
CONTINUOUS
  0
LAYER
  2
123
 70
     0
 62
     7
  6
CONTINUOUS
  0
LAYER
  2
124
 70
     0
 62
     7
  6
CONTINUOUS
  0
LAYER
  2
125
 70
     0
 62
     7
  6
CONTINUOUS
  0
LAYER
  2
126
 70
     0
 62
     7
  6
CONTINUOUS
  0
LAYER
  2
127
 70
     0
 62
     7
  6
CONTINUOUS
  0
LAYER
  2
128
 70
     0
 62
     7
  6
CONTINUOUS
  0
ENDTAB
  0
TABLE
  2
STYLE
 70
    67
  0
STYLE
  2
STANDARD
 70
     0
 40
0.0
 41
1.0
 50
0.0
 71
     0
 42
0.2
  3
txt
  4

  0
STYLE
  2
KANJI0
 70
     0
 40
40.0
 41
1.0
 50
0.0
 71
     0
 42
40.0
  3

  4
bigfont
  0
STYLE
  2
KANJI1
 70
     0
 40
40.0
 41
1.0
 50
0.0
 71
     0
 42
40.0
  3

  4
bigfont
  0
STYLE
  2
KANJI2
 70
     0
 40
24.0
 41
0.9
 50
0.0
 71
     0
 42
24.0
  3

  4
bigfont
  0
STYLE
  2
KANJI3
 70
     0
 40
24.0
 41
0.9
 50
0.0
 71
     0
 42
24.0
  3

  4
bigfont
  0
STYLE
  2
KANJI4
 70
     0
 40
19.2
 41
0.777777778
 50
0.0
 71
     0
 42
19.2
  3

  4
bigfont
  0
STYLE
  2
KANJI5
 70
     0
 40
25.6
 41
0.9
 50
0.0
 71
     0
 42
25.6
  3

  4
bigfont
  0
STYLE
  2
KANJI6
 70
     0
 40
32.0
 41
0.9
 50
0.0
 71
     0
 42
32.0
  3

  4
bigfont
  0
STYLE
  2
KANJI7
 70
     0
 40
28.8
 41
0.857142857
 50
0.0
 71
     0
 42
28.8
  3

  4
bigfont
  0
STYLE
  2
KANJI8
 70
     0
 40
28.8
 41
0.857222222
 50
0.0
 71
     0
 42
28.8
  3

  4
bigfont
  0
STYLE
  2
KANJI9
 70
     0
 40
28.0
 41
0.9
 50
0.0
 71
     0
 42
28.0
  3

  4
bigfont
  0
STYLE
  2
KANJI10
 70
     0
 40
15.999996636
 41
0.6
 50
0.0
 71
     0
 42
15.999996636
  3

  4
bigfont
  0
STYLE
  2
KANJI11
 70
     0
 40
19.199995963
 41
0.9
 50
0.0
 71
     0
 42
19.199995963
  3

  4
bigfont
  0
STYLE
  2
KANJI12
 70
     0
 40
13.8666656
 41
0.8
 50
0.0
 71
     0
 42
13.8666656
  3

  4
bigfont
  0
STYLE
  2
KANJI13
 70
     0
 40
13.8666656
 41
0.75
 50
0.0
 71
     0
 42
13.8666656
  3

  4
bigfont
  0
STYLE
  2
KANJI14
 70
     0
 40
16.63999872
 41
0.75
 50
0.0
 71
     0
 42
16.63999872
  3

  4
bigfont
  0
STYLE
  2
KANJI15
 70
     0
 40
16.63999872
 41
0.9
 50
0.0
 71
     0
 42
16.63999872
  3

  4
bigfont
  0
STYLE
  2
KANJI16
 70
     0
 40
16.63999872
 41
0.8
 50
0.0
 71
     0
 42
16.63999872
  3

  4
bigfont
  0
STYLE
  2
KANJI17
 70
     0
 40
20.7999984
 41
0.9
 50
0.0
 71
     0
 42
20.7999984
  3

  4
bigfont
  0
STYLE
  2
KANJI18
 70
     0
 40
13.8666656
 41
0.75
 50
0.0
 71
     0
 42
13.8666656
  3

  4
bigfont
  0
STYLE
  2
KANJI19
 70
     0
 40
20.7999984
 41
0.75
 50
0.0
 71
     0
 42
20.7999984
  3

  4
bigfont
  0
STYLE
  2
KANJI20
 70
     0
 40
12.47999904
 41
0.75
 50
0.0
 71
     0
 42
12.47999904
  3

  4
bigfont
  0
STYLE
  2
KANJI21
 70
     0
 40
13.8666656
 41
0.6
 50
0.0
 71
     0
 42
13.8666656
  3

  4
bigfont
  0
STYLE
  2
KANJI22
 70
     0
 40
16.63999872
 41
0.6
 50
0.0
 71
     0
 42
16.63999872
  3

  4
bigfont
  0
STYLE
  2
KANJI23
 70
     0
 40
13.8666656
 41
0.8
 50
0.0
 71
     0
 42
13.8666656
  3

  4
bigfont
  0
STYLE
  2
KANJI24
 70
     0
 40
16.63999872
 41
0.8
 50
0.0
 71
     0
 42
16.63999872
  3

  4
bigfont
  0
STYLE
  2
KANJI25
 70
     0
 40
20.7999984
 41
0.75
 50
0.0
 71
     0
 42
20.7999984
  3

  4
bigfont
  0
STYLE
  2
KANJI26
 70
     0
 40
69.333328
 41
0.9
 50
0.0
 71
     0
 42
69.333328
  3

  4
bigfont
  0
STYLE
  2
KANJI27
 70
     0
 40
23.999994954
 41
0.9
 50
0.0
 71
     0
 42
23.999994954
  3

  4
bigfont
  0
STYLE
  2
KANJI28
 70
     0
 40
24.2666648
 41
0.42031746
 50
0.0
 71
     0
 42
24.2666648
  3

  4
bigfont
  0
STYLE
  2
KANJI29
 70
     0
 40
41.5999968
 41
0.9
 50
0.0
 71
     0
 42
41.5999968
  3

  4
bigfont
  0
STYLE
  2
KANJI30
 70
     0
 40
36.0
 41
0.666666667
 50
0.0
 71
     0
 42
36.0
  3

  4
bigfont
  0
STYLE
  2
KANJI31
 70
     0
 40
36.0
 41
0.9
 50
0.0
 71
     0
 42
36.0
  3

  4
bigfont
  0
STYLE
  2
KANJI32
 70
     4
 40
28.0
 41
0.9
 50
0.0
 71
     0
 42
28.0
  3

  4
bigfont
  0
STYLE
  2
KANJI33
 70
     4
 40
24.0
 41
0.9
 50
0.0
 71
     0
 42
24.0
  3

  4
bigfont
  0
STYLE
  2
KANJI34
 70
     0
 40
28.0
 41
0.9
 50
0.0
 71
     0
 42
28.0
  3

  4
bigfont
  0
STYLE
  2
KANJI35
 70
     0
 40
24.0
 41
0.9
 50
0.0
 71
     0
 42
24.0
  3

  4
bigfont
  0
STYLE
  2
KANJI36
 70
     0
 40
24.0
 41
0.857142857
 50
0.0
 71
     0
 42
24.0
  3

  4
bigfont
  0
STYLE
  2
KANJI37
 70
     0
 40
28.0
 41
0.9
 50
0.0
 71
     0
 42
28.0
  3

  4
bigfont
  0
STYLE
  2
KANJI38
 70
     0
 40
22.4
 41
0.9
 50
0.0
 71
     0
 42
22.4
  3

  4
bigfont
  0
STYLE
  2
KANJI39
 70
     0
 40
22.4
 41
0.785714286
 50
0.0
 71
     0
 42
22.4
  3

  4
bigfont
  0
STYLE
  2
KANJI40
 70
     0
 40
22.4
 41
0.8
 50
0.0
 71
     0
 42
22.4
  3

  4
bigfont
  0
STYLE
  2
KANJI41
 70
     0
 40
24.0
 41
0.8
 50
0.0
 71
     0
 42
24.0
  3

  4
bigfont
  0
STYLE
  2
KANJI42
 70
     0
 40
30.4
 41
0.9
 50
0.0
 71
     0
 42
30.4
  3

  4
bigfont
  0
STYLE
  2
KANJI43
 70
     0
 40
30.4
 41
0.9
 50
0.0
 71
     0
 42
30.4
  3

  4
bigfont
  0
STYLE
  2
KANJI44
 70
     0
 40
30.4
 41
0.9
 50
0.0
 71
     0
 42
30.4
  3

  4
bigfont
  0
STYLE
  2
KANJI45
 70
     0
 40
30.4
 41
0.9
 50
0.0
 71
     0
 42
30.4
  3

  4
bigfont
  0
STYLE
  2
KANJI46
 70
     0
 40
30.4
 41
0.9
 50
0.0
 71
     0
 42
30.4
  3

  4
bigfont
  0
STYLE
  2
KANJI47
 70
     0
 40
30.4
 41
0.9
 50
0.0
 71
     0
 42
30.4
  3

  4
bigfont
  0
STYLE
  2
KANJI48
 70
     0
 40
30.4
 41
0.9
 50
0.0
 71
     0
 42
30.4
  3

  4
bigfont
  0
STYLE
  2
KANJI49
 70
     0
 40
30.4
 41
0.9
 50
0.0
 71
     0
 42
30.4
  3

  4
bigfont
  0
STYLE
  2
KANJI50
 70
     0
 40
30.4
 41
0.9
 50
0.0
 71
     0
 42
30.4
  3

  4
bigfont
  0
STYLE
  2
KANJI51
 70
     0
 40
30.4
 41
0.9
 50
0.0
 71
     0
 42
30.4
  3

  4
bigfont
  0
STYLE
  2
KANJI52
 70
     0
 40
22.4
 41
0.8
 50
0.0
 71
     0
 42
22.4
  3

  4
bigfont
  0
STYLE
  2
KANJI53
 70
     0
 40
28.0
 41
0.914285714
 50
0.0
 71
     0
 42
28.0
  3

  4
bigfont
  0
STYLE
  2
KANJI54
 70
     0
 40
28.0
 41
0.793650794
 50
0.0
 71
     0
 42
28.0
  3

  4
bigfont
  0
STYLE
  2
KANJI55
 70
     0
 40
24.0
 41
0.9
 50
0.0
 71
     0
 42
24.0
  3

  4
bigfont
  0
STYLE
  2
KANJI56
 70
     0
 40
24.0
 41
0.9
 50
0.0
 71
     0
 42
24.0
  3

  4
bigfont
  0
STYLE
  2
KANJI57
 70
     0
 40
28.0
 41
0.857142857
 50
0.0
 71
     0
 42
28.0
  3

  4
bigfont
  0
STYLE
  2
KANJI58
 70
     0
 40
24.0
 41
0.9
 50
0.0
 71
     0
 42
24.0
  3

  4
bigfont
  0
STYLE
  2
KANJI59
 70
     0
 40
23.9994
 41
0.9
 50
0.0
 71
     0
 42
23.9994
  3

  4
bigfont
  0
STYLE
  2
KANJI60
 70
     0
 40
27.9993
 41
0.9
 50
0.0
 71
     0
 42
27.9993
  3

  4
bigfont
  0
STYLE
  2
KANJI61
 70
     0
 40
24.0
 41
0.833333333
 50
0.0
 71
     0
 42
24.0
  3

  4
bigfont
  0
STYLE
  2
KANJI62
 70
     0
 40
40.0
 41
0.8
 50
0.0
 71
     0
 42
40.0
  3

  4
bigfont
  0
STYLE
  2
KANJI63
 70
     0
 40
24.0
 41
0.9
 50
0.0
 71
     0
 42
24.0
  3

  4
bigfont
  0
STYLE
  2
KANJI64
 70
     0
 40
24.0
 41
0.9
 50
0.0
 71
     0
 42
24.0
  3

  4
bigfont
  0
STYLE
  2
KANJI65
 70
     0
 40
24.0
 41
0.766666667
 50
0.0
 71
     0
 42
24.0
  3

  4
bigfont
  0
ENDTAB
  0
TABLE
  2
VIEW
 70
     0
  0
ENDTAB
  0
ENDSEC
  0
SECTION
  2
BLOCKS
  0
ENDSEC
  0
SECTION
  2
ENTITIES
  0
LINE
  8
0
 62
    99
 10
144.0
 20
0.0
 11
144.0
 21
2376.0
  0
LINE
  8
0
 62
    99
 10
0.0
 20
108.0
 11
3360.0
 21
108.0
  0
LINE
  8
0
  6
CONTINUOUS
 62
     4
 10
3248.0
 20
-56.0
 11
2456.0
 21
-56.0
  0
LINE
  8
0
  6
CONTINUOUS
 62
     4
 10
3248.0
 20
-136.0
 11
2456.0
 21
-136.0
  0
LINE
  8
0
 62
    99
 10
956.002380412
 20
0.0
 11
956.002380412
 21
2376.0
  0
LINE
  8
0
 62
    99
 10
1118.002380412
 20
0.0
 11
1118.002380412
 21
2376.0
  0
LINE
  8
0
 62
    99
 10
1274.002380412
 20
0.0
 11
1274.002380412
 21
2376.0
  0
LINE
  8
0
 62
    99
 10
1613.002380412
 20
0.0
 11
1613.002380412
 21
2376.0
  0
LINE
  8
0
 62
    99
 10
1761.002380412
 20
0.0
 11
1761.002380412
 21
2376.0
  0
TEXT
  8
0
  6
CONTINUOUS
 62
     2
 10
2884.0
 20
340.0
 30
20.0
 40
40.0
  1
外形寸法図
 50
0.0
 41
1.0
 51
0.0
  7
KANJI0
  0
TEXT
  8
0
  6
CONTINUOUS
 62
     2
 10
2836.0
 20
388.0
 30
5.714285714
 40
40.0
  1
マイティシリンダ
 50
0.0
 41
1.0
 51
0.0
  7
KANJI1
  0
LINE
  8
0
  6
CONTINUOUS
 62
     1
 10
644.0
 20
780.0
 11
1884.0
 21
780.0
  0
LINE
  8
0
  6
CONTINUOUS
 62
     1
 10
644.0
 20
724.0
 11
1884.0
 21
724.0
  0
LINE
  8
0
  6
CONTINUOUS
 62
     1
 10
1884.0
 20
780.0
 11
1884.0
 21
388.0
  0
LINE
  8
0
  6
CONTINUOUS
 62
     1
 10
644.0
 20
388.0
 11
1884.0
 21
388.0
  0
LINE
  8
0
  6
CONTINUOUS
 62
     1
 10
644.0
 20
780.0
 11
644.0
 21
388.0
  0
LINE
  8
0
  6
CONTINUOUS
 62
     1
 10
924.0
 20
780.0
 11
924.0
 21
388.0
  0
LINE
  8
0
  6
CONTINUOUS
 62
     2
 10
1084.0
 20
780.0
 11
1084.0
 21
388.0
  0
LINE
  8
0
  6
CONTINUOUS
 62
     2
 10
1244.0
 20
780.0
 11
1244.0
 21
388.0
  0
LINE
  8
0
  6
CONTINUOUS
 62
     2
 10
1404.0
 20
780.0
 11
1404.0
 21
388.0
  0
LINE
  8
0
  6
CONTINUOUS
 62
     2
 10
1564.0
 20
780.0
 11
1564.0
 21
388.0
  0
LINE
  8
0
  6
CONTINUOUS
 62
     2
 10
1724.0
 20
780.0
 11
1724.0
 21
388.0
  0
LINE
  8
0
  6
CONTINUOUS
 62
     2
 10
644.0
 20
444.0
 11
1884.0
 21
444.0
  0
LINE
  8
0
  6
CONTINUOUS
 62
     2
 10
644.0
 20
668.0
 11
1884.0
 21
668.0
  0
LINE
  8
0
  6
CONTINUOUS
 62
     2
 10
644.0
 20
612.0
 11
1884.0
 21
612.0
  0
LINE
  8
0
  6
CONTINUOUS
 62
     2
 10
644.0
 20
556.0
 11
1884.0
 21
556.0
  0
LINE
  8
0
  6
CONTINUOUS
 62
     2
 10
644.0
 20
500.0
 11
1884.0
 21
500.0
  0
TEXT
  8
0
  6
CONTINUOUS
 62
     2
 10
944.8
 20
740.0
 30
2.4
 40
24.0
  1
ストローク
 50
0.0
 41
0.9
 51
0.0
  7
KANJI2
  0
TEXT
  8
0
  6
CONTINUOUS
 62
     2
 10
1098.4
 20
738.4
 30
0.0
 40
24.0
  1
ｍｉｎ　
 50
0.0
 41
0.9
 51
0.0
  7
KANJI3
  0
TEXT
  8
0
  6
CONTINUOUS
 62
     2
 10
1258.4
 20
738.4
 30
0.0
 40
24.0
  1
ｍｉｎ　
 50
0.0
 41
0.9
 51
0.0
  7
KANJI3
  0
TEXT
  8
0
  6
CONTINUOUS
 62
     2
 10
1578.4
 20
738.4
 30
0.0
 40
24.0
  1
ｍｉｎ　
 50
0.0
 41
0.9
 51
0.0
  7
KANJI3
  0
TEXT
  8
0
  6
CONTINUOUS
 62
     2
 10
1827.0
 20
741.8
 30
0.0
 40
19.2
  1
（ｋｇ）
 50
0.0
 41
0.777777778
 51
0.0
  7
KANJI4
  0
TEXT
  8
0
  6
CONTINUOUS
 62
     2
 10
1731.0
 20
739.0
 30
2.56
 40
25.6
  1
概算重量
 50
0.0
 41
0.9
 51
0.0
  7
KANJI5
  0
TEXT
  8
0
  6
CONTINUOUS
 62
     2
 10
700.0
 20
740.0
 30
2.56
 40
25.6
  1
形
 50
0.0
 41
0.9
 51
0.0
  7
KANJI5
  0
TEXT
  8
0
  6
CONTINUOUS
 62
     2
 10
856.0
 20
740.0
 30
2.56
 40
25.6
  1
式
 50
0.0
 41
0.9
 51
0.0
  7
KANJI5
  0
TEXT
  8
0
  6
CONTINUOUS
 62
     2
 10
2436.0
 20
961.6
 30
16.0
 40
32.0
  1
特記事項
 50
0.0
 41
0.9
 51
0.0
  7
KANJI6
  0
TEXT
  8
0
  6
CONTINUOUS
 62
     2
 10
2324.0
 20
897.6
 30
8.228571429
 40
28.8
  1
１。運転時は必ずピストンロッドの回転防止を行って下さい。
 50
0.0
 41
0.857142857
 51
0.0
  7
KANJI7
  0
TEXT
  8
0
  6
CONTINUOUS
 62
     2
 10
2324.0
 20
835.2
 30
8.208
 40
28.8
  1
２。モートル：全閉自冷かご形３０分定格
 50
0.0
 41
0.857222222
 51
0.0
  7
KANJI8
  0
TEXT
  8
0
  6
CONTINUOUS
 62
     2
 10
1180.0
 20
740.0
 30
2.8
 40
28.0
  1
ＡＬ
 50
0.0
 41
0.9
 51
0.0
  7
KANJI9
  0
TEXT
  8
0
  6
CONTINUOUS
 62
     2
 10
1340.0
 20
740.0
 30
2.8
 40
28.0
  1
Ｌ
 50
0.0
 41
0.9
 51
0.0
  7
KANJI9
  0
TEXT
  8
0
  6
CONTINUOUS
 62
     2
 10
1476.0
 20
740.0
 30
2.8
 40
28.0
  1
Ｃ
 50
0.0
 41
0.9
 51
0.0
  7
KANJI9
  0
TEXT
  8
0
  6
CONTINUOUS
 62
     2
 10
1660.0
 20
740.0
 30
2.8
 40
28.0
  1
Ｐ
 50
0.0
 41
0.9
 51
0.0
  7
KANJI9
  0
TEXT
  8
0
  6
CONTINUOUS
 62
     4
 10
179.999994954
 20
195.99999159
 30
1.599999664
 40
15.999996636
  1
ＰＡＲＴＳ　ＬＩＳＴ
 50
0.0
 41
0.6
 51
0.0
  7
KANJI10
  0
TEXT
  8
0
  6
CONTINUOUS
 62
     4
 10
539.999919262
 20
195.99999159
 30
1.599999664
 40
15.999996636
  1
Ｎ０．
 50
0.0
 41
0.6
 51
0.0
  7
KANJI10
  0
TEXT
  8
0
  6
CONTINUOUS
 62
     4
 10
179.999994954
 20
171.999996636
 30
1.919999596
 40
19.199995963
  1
部品表
 50
0.0
 41
0.9
 51
0.0
  7
KANJI11
  0
TEXT
  8
0
  6
CONTINUOUS
 62
     4
 10
539.999919262
 20
171.999996636
 30
1.919999596
 40
19.199995963
  1
項番
 50
0.0
 41
0.9
 51
0.0
  7
KANJI11
  0
LINE
  8
0
  6
CONTINUOUS
 62
     4
 10
2874.1333624
 20
2301.0666672
 11
2874.1333624
 21
2179.7333432
  0
LINE
  8
0
  6
CONTINUOUS
 62
     4
 10
2808.2667008
 20
2301.0666672
 11
2808.2667008
 21
2179.7333432
  0
LINE
  8
0
  6
CONTINUOUS
 62
     4
 10
2690.4000432
 20
2301.0666672
 11
2690.4000432
 21
2179.7333432
  0
LINE
  8
0
  6
CONTINUOUS
 62
     4
 10
2572.5333856
 20
2301.0666672
 11
2572.5333856
 21
2179.7333432
  0
LINE
  8
0
  6
CONTINUOUS
 62
     4
 10
2506.666724
 20
2301.0666672
 11
2506.666724
 21
2179.7333432
  0
LINE
  8
0
  6
CONTINUOUS
 62
     4
 10
2440.8000624
 20
2301.0666672
 11
2440.8000624
 21
2179.7333432
  0
TEXT
  8
0
  6
CONTINUOUS
 62
     4
 10
2322.9334048
 20
2276.8000024
 30
1.38666656
 40
13.8666656
  1
（μ）
 50
0.0
 41
0.8
 51
0.0
  7
KANJI12
  0
TEXT
  8
0
  6
CONTINUOUS
 62
     4
 10
2316.000072
 20
2249.0666712
 30
1.38666656
 40
13.8666656
  1
０．８－Ｓ
 50
0.0
 41
0.75
 51
0.0
  7
KANJI13
  0
TEXT
  8
0
  6
CONTINUOUS
 62
     4
 10
2381.8667336
 20
2249.0666712
 30
1.38666656
 40
13.8666656
  1
　６－Ｓ
 50
0.0
 41
0.75
 51
0.0
  7
KANJI13
  0
TEXT
  8
0
  6
CONTINUOUS
 62
     4
 10
2447.7333952
 20
2249.0666712
 30
1.38666656
 40
13.8666656
  1
２５－Ｓ
 50
0.0
 41
0.75
 51
0.0
  7
KANJI13
  0
TEXT
  8
0
  6
CONTINUOUS
 62
     4
 10
2513.6000568
 20
2249.0666712
 30
1.38666656
 40
13.8666656
  1
１００－Ｓ
 50
0.0
 41
0.75
 51
0.0
  7
KANJI13
  0
TEXT
  8
0
  6
CONTINUOUS
 62
     4
 10
2579.4667184
 20
2249.0666712
 30
1.38666656
 40
13.8666656
  1
ＭＡＣＨＩＮＩＮＧ
 50
0.0
 41
0.75
 51
0.0
  7
KANJI13
  0
TEXT
  8
0
  6
CONTINUOUS
 62
     4
 10
2579.4667184
 20
2273.333336
 30
1.38666656
 40
13.8666656
  1
ＷＩＴＨＯＵＴ
 50
0.0
 41
0.75
 51
0.0
  7
KANJI13
  0
TEXT
  8
0
  6
CONTINUOUS
 62
     4
 10
2697.333376
 20
2273.333336
 30
1.38666656
 40
13.8666656
  1
ＭＡＣＨＩＮＩＮＧ
 50
0.0
 41
0.75
 51
0.0
  7
KANJI13
  0
TEXT
  8
0
  6
CONTINUOUS
 62
     4
 10
2697.333376
 20
2249.0666712
 30
1.38666656
 40
13.8666656
  1
ＴＯＬＥＲＡＮＣＥ
 50
0.0
 41
0.75
 51
0.0
  7
KANJI13
  0
TEXT
  8
0
  6
CONTINUOUS
 62
     4
 10
2815.2000336
 20
2273.333336
 30
1.38666656
 40
13.8666656
  1
０．５≦
 50
0.0
 41
0.75
 51
0.0
  7
KANJI13
  0
TEXT
  8
0
  6
CONTINUOUS
 62
     4
 10
2815.2000336
 20
2224.8000064
 30
1.38666656
 40
13.8666656
  1
≦６
 50
0.0
 41
0.75
 51
0.0
  7
KANJI13
  0
TEXT
  8
0
  6
CONTINUOUS
 62
     4
 10
2881.0666952
 20
2224.8000064
 30
1.38666656
 40
13.8666656
  1
≦３０
 50
0.0
 41
0.75
 51
0.0
  7
KANJI13
  0
TEXT
  8
0
  6
CONTINUOUS
 62
     4
 10
2881.0666952
 20
2273.333336
 30
1.38666656
 40
13.8666656
  1
６＜
 50
0.0
 41
0.75
 51
0.0
  7
KANJI13
  0
TEXT
  8
0
  6
CONTINUOUS
 62
     4
 10
2818.6667
 20
2190.1333424
 30
1.38666656
 40
13.8666656
  1
±０．１
 50
0.0
 41
0.75
 51
0.0
  7
KANJI13
  0
TEXT
  8
0
  6
CONTINUOUS
 62
     4
 10
2884.5333616
 20
2190.1333424
 30
1.38666656
 40
13.8666656
  1
±０．２
 50
0.0
 41
0.75
 51
0.0
  7
KANJI13
  0
ARC
  8
0
  6
CONTINUOUS
 62
     4
 10
2621.85960666
 20
2191.52000896
 40
11.09333248
 50
30.0
 51
180.0
  0
ARC
  8
0
  6
CONTINUOUS
 62
     4
 10
2641.07382214
 20
2202.61334144
 40
11.09333248
 50
210.0
 51
0.0
  0
LINE
  8
0
  6
CONTINUOUS
 62
     4
 10
2533.5333886
 20
2204.000008
 11
2545.666721
 21
2204.000008
  0
LINE
  8
0
  6
CONTINUOUS
 62
     4
 10
2533.5333886
 20
2204.000008
 11
2539.6000548
 21
2190.1333424
  0
LINE
  8
0
  6
CONTINUOUS
 62
     4
 10
2539.6000548
 20
2190.1333424
 11
2545.666721
 21
2204.000008
  0
LINE
  8
0
  6
CONTINUOUS
 62
     4
 10
2461.6000608
 20
2204.000008
 11
2467.666727
 21
2190.1333424
  0
LINE
  8
0
  6
CONTINUOUS
 62
     4
 10
2467.666727
 20
2190.1333424
 11
2473.7333932
 21
2204.000008
  0
LINE
  8
0
  6
CONTINUOUS
 62
     4
 10
2473.7333932
 20
2204.000008
 11
2479.8000594
 21
2190.1333424
  0
LINE
  8
0
  6
CONTINUOUS
 62
     4
 10
2479.8000594
 20
2190.1333424
 11
2485.8667256
 21
2204.000008
  0
LINE
  8
0
  6
CONTINUOUS
 62
     4
 10
2461.6000608
 20
2204.000008
 11
2485.8667256
 21
2204.000008
  0
LINE
  8
0
  6
CONTINUOUS
 62
     4
 10
2374.9334008
 20
2301.0666672
 11
2374.9334008
 21
2179.7333432
  0
LINE
  8
0
  6
CONTINUOUS
 62
     4
 10
2317.7334052
 20
2204.000008
 11
2366.2667348
 21
2204.000008
  0
LINE
  8
0
  6
CONTINUOUS
 62
     4
 10
2317.7334052
 20
2204.000008
 11
2323.8000714
 21
2190.1333424
  0
LINE
  8
0
  6
CONTINUOUS
 62
     4
 10
2323.8000714
 20
2190.1333424
 11
2329.8667376
 21
2204.000008
  0
LINE
  8
0
  6
CONTINUOUS
 62
     4
 10
2329.8667376
 20
2204.000008
 11
2335.9334038
 21
2190.1333424
  0
LINE
  8
0
  6
CONTINUOUS
 62
     4
 10
2335.9334038
 20
2190.1333424
 11
2342.00007
 21
2204.000008
  0
LINE
  8
0
  6
CONTINUOUS
 62
     4
 10
2342.00007
 20
2204.000008
 11
2348.0667362
 21
2190.1333424
  0
LINE
  8
0
  6
CONTINUOUS
 62
     4
 10
2348.0667362
 20
2190.1333424
 11
2354.1334024
 21
2204.000008
  0
LINE
  8
0
  6
CONTINUOUS
 62
     4
 10
2354.1334024
 20
2204.000008
 11
2360.2000686
 21
2190.1333424
  0
LINE
  8
0
  6
CONTINUOUS
 62
     4
 10
2360.2000686
 20
2190.1333424
 11
2366.2667348
 21
2204.000008
  0
LINE
  8
0
  6
CONTINUOUS
 62
     4
 10
2389.666733
 20
2204.000008
 11
2395.7333992
 21
2190.1333424
  0
LINE
  8
0
  6
CONTINUOUS
 62
     4
 10
2395.7333992
 20
2190.1333424
 11
2401.8000654
 21
2204.000008
  0
LINE
  8
0
  6
CONTINUOUS
 62
     4
 10
2401.8000654
 20
2204.000008
 11
2407.8667316
 21
2190.1333424
  0
LINE
  8
0
  6
CONTINUOUS
 62
     4
 10
2407.8667316
 20
2190.1333424
 11
2413.9333978
 21
2204.000008
  0
LINE
  8
0
  6
CONTINUOUS
 62
     4
 10
2413.9333978
 20
2204.000008
 11
2420.000064
 21
2190.1333424
  0
LINE
  8
0
  6
CONTINUOUS
 62
     4
 10
2420.000064
 20
2190.1333424
 11
2426.0667302
 21
2204.000008
  0
LINE
  8
0
  6
CONTINUOUS
 62
     4
 10
2389.666733
 20
2204.000008
 11
2426.0667302
 21
2204.000008
  0
TEXT
  8
0
  6
CONTINUOUS
 62
     4
 10
2579.4667184
 20
2224.8000064
 30
1.663999872
 40
16.63999872
  1
加工なし
 50
0.0
 41
0.75
 51
0.0
  7
KANJI14
  0
TEXT
  8
0
  6
CONTINUOUS
 62
     4
 10
2697.333376
 20
2224.8000064
 30
1.663999872
 40
16.63999872
  1
普通加工交差
 50
0.0
 41
0.9
 51
0.0
  7
KANJI15
  0
TEXT
  8
0
  6
CONTINUOUS
 62
     4
 10
2725.0667072
 20
2190.1333424
 30
1.663999872
 40
16.63999872
  1
（ｍｍ）
 50
0.0
 41
0.75
 51
0.0
  7
KANJI14
  0
LINE
  8
0
  6
CONTINUOUS
 62
     4
 10
3071.7333472
 20
2301.0666672
 11
3071.7333472
 21
2179.7333432
  0
LINE
  8
0
  6
CONTINUOUS
 62
     4
 10
3158.4000072
 20
2301.0666672
 11
3158.4000072
 21
2179.7333432
  0
LINE
  8
0
  6
CONTINUOUS
 62
     4
 10
3005.8666856
 20
2301.0666672
 11
3005.8666856
 21
2179.7333432
  0
LINE
  8
0
  6
CONTINUOUS
 62
     4
 10
2940.000024
 20
2301.0666672
 11
2940.000024
 21
2179.7333432
  0
TEXT
  8
0
  6
CONTINUOUS
 62
     4
 10
2946.9333568
 20
2224.8000064
 30
1.38666656
 40
13.8666656
  1
≦１２０
 50
0.0
 41
0.75
 51
0.0
  7
KANJI13
  0
TEXT
  8
0
  6
CONTINUOUS
 62
     4
 10
2946.9333568
 20
2273.333336
 30
1.38666656
 40
13.8666656
  1
３０＜
 50
0.0
 41
0.75
 51
0.0
  7
KANJI13
  0
TEXT
  8
0
  6
CONTINUOUS
 62
     4
 10
3012.8000184
 20
2273.333336
 30
1.38666656
 40
13.8666656
  1
１２０＜
 50
0.0
 41
0.75
 51
0.0
  7
KANJI13
  0
TEXT
  8
0
  6
CONTINUOUS
 62
     4
 10
3012.8000184
 20
2224.8000064
 30
1.38666656
 40
13.8666656
  1
≦３１５
 50
0.0
 41
0.75
 51
0.0
  7
KANJI13
  0
TEXT
  8
0
  6
CONTINUOUS
 62
     4
 10
3078.66668
 20
2273.333336
 30
1.38666656
 40
13.8666656
  1
３１５＜
 50
0.0
 41
0.75
 51
0.0
  7
KANJI13
  0
TEXT
  8
0
  6
CONTINUOUS
 62
     4
 10
3078.66668
 20
2224.8000064
 30
1.38666656
 40
13.8666656
  1
≦１０００
 50
0.0
 41
0.75
 51
0.0
  7
KANJI13
  0
TEXT
  8
0
  6
CONTINUOUS
 62
     4
 10
3165.33334
 20
2273.333336
 30
1.38666656
 40
13.8666656
  1
１０００＜
 50
0.0
 41
0.75
 51
0.0
  7
KANJI13
  0
TEXT
  8
0
  6
CONTINUOUS
 62
     4
 10
3165.33334
 20
2224.8000064
 30
1.38666656
 40
13.8666656
  1
≦２０００
 50
0.0
 41
0.75
 51
0.0
  7
KANJI13
  0
TEXT
  8
0
  6
CONTINUOUS
 62
     4
 10
2950.4000232
 20
2190.1333424
 30
1.38666656
 40
13.8666656
  1
±０．３
 50
0.0
 41
0.75
 51
0.0
  7
KANJI13
  0
TEXT
  8
0
  6
CONTINUOUS
 62
     4
 10
3016.2666848
 20
2190.1333424
 30
1.38666656
 40
13.8666656
  1
±０．５
 50
0.0
 41
0.75
 51
0.0
  7
KANJI13
  0
TEXT
  8
0
  6
CONTINUOUS
 62
     4
 10
3092.5333456
 20
2190.1333424
 30
1.38666656
 40
13.8666656
  1
±０．８
 50
0.0
 41
0.75
 51
0.0
  7
KANJI13
  0
TEXT
  8
0
  6
CONTINUOUS
 62
     4
 10
3179.2000056
 20
2190.1333424
 30
1.38666656
 40
13.8666656
  1
±１．２
 50
0.0
 41
0.75
 51
0.0
  7
KANJI13
  0
LINE
  8
0
  6
CONTINUOUS
 62
     4
 10
2309.0667392
 20
2301.0666672
 11
2309.0667392
 21
2179.7333432
  0
TEXT
  8
0
  6
CONTINUOUS
 62
     4
 10
2198.1334144
 20
2249.0666712
 30
1.38666656
 40
13.8666656
  1
ＲＯＵＧＨＮＥＳＳ
 50
0.0
 41
0.8
 51
0.0
  7
KANJI12
  0
TEXT
  8
0
  6
CONTINUOUS
 62
     4
 10
2198.1334144
 20
2273.333336
 30
1.38666656
 40
13.8666656
  1
ＳＵＲＦＡＣＥ
 50
0.0
 41
0.8
 51
0.0
  7
KANJI12
  0
TEXT
  8
0
  6
CONTINUOUS
 62
     4
 10
2198.1334144
 20
2224.8000064
 30
1.663999872
 40
16.63999872
  1
仕上面粗さ
 50
0.0
 41
0.8
 51
0.0
  7
KANJI16
  0
TEXT
  8
0
  6
CONTINUOUS
 62
     4
 10
2208.5334136
 20
2190.1333424
 30
1.663999872
 40
16.63999872
  1
ＳＹＭ．記号
 50
0.0
 41
0.75
 51
0.0
  7
KANJI14
  0
LINE
  8
0
  6
CONTINUOUS
 62
     4
 10
3245.0666672
 20
2214.4000072
 11
2191.2000816
 21
2214.4000072
  0
TEXT
  8
0
  6
CONTINUOUS
 62
     4
 10
2374.9334008
 20
2314.9333328
 30
2.07999984
 40
20.7999984
  1
ＩＳＯ
 50
0.0
 41
0.9
 51
0.0
  7
KANJI17
  0
TEXT
  8
0
  6
CONTINUOUS
 62
     4
 10
2437.333396
 20
2314.9333328
 30
1.38666656
 40
13.8666656
  1
ＭＥＴＲＩＣ　ＳＣＲＥＷ　ＴＨＲＥＡＤ
 50
0.0
 41
0.75
 51
0.0
  7
KANJI18
  0
TEXT
  8
0
  6
CONTINUOUS
 62
     4
 10
2672.72004456
 20
2314.9333328
 30
1.38666656
 40
13.8666656
  1
ＩＳＯ
 50
0.0
 41
0.75
 51
0.0
  7
KANJI18
  0
TEXT
  8
0
  6
CONTINUOUS
 62
     4
 10
2870.32002936
 20
2314.9333328
 30
2.07999984
 40
20.7999984
  1
３
 50
0.0
 41
0.75
 51
0.0
  7
KANJI19
  0
TEXT
  8
0
  6
CONTINUOUS
 62
     4
 10
2887.65336136
 20
2314.9333328
 30
1.38666656
 40
13.8666656
  1
ＲＤ　ＡＮＧＬＥ　ＰＲＯＪＥＣＴＩＯＮ　第３角法
 50
0.0
 41
0.75
 51
0.0
  7
KANJI18
  0
TEXT
  8
0
  6
CONTINUOUS
 62
     4
 10
2710.85337496
 20
2314.9333328
 30
1.247999904
 40
12.47999904
  1
メートルネジ使用
 50
0.0
 41
0.75
 51
0.0
  7
KANJI20
  0
TEXT
  8
0
  6
CONTINUOUS
 62
     4
 10
2191.2000816
 20
305.0666552
 30
1.38666656
 40
13.8666656
  1
ＤＲＡＷＮ
 50
0.0
 41
0.6
 51
0.0
  7
KANJI21
  0
TEXT
  8
0
  6
CONTINUOUS
 62
     4
 10
2191.2000816
 20
360.5333176
 30
1.38666656
 40
13.8666656
  1
ＤＥＳＩＧＮ
 50
0.0
 41
0.6
 51
0.0
  7
KANJI21
  0
TEXT
  8
0
  6
CONTINUOUS
 62
     4
 10
2191.2000816
 20
415.99998
 30
1.38666656
 40
13.8666656
  1
ＣＨＥＣＫ
 50
0.0
 41
0.6
 51
0.0
  7
KANJI21
  0
TEXT
  8
0
  6
CONTINUOUS
 62
     4
 10
2191.2000816
 20
471.4666424
 30
1.38666656
 40
13.8666656
  1
ＣＯＤＥ
 50
0.0
 41
0.6
 51
0.0
  7
KANJI21
  0
LINE
  8
0
  6
CONTINUOUS
 62
     4
 10
2177.333416
 20
384.7999824
 11
2430.4000632
 21
384.7999824
  0
LINE
  8
0
  6
CONTINUOUS
 62
     4
 10
2177.333416
 20
329.33332
 11
2430.4000632
 21
329.33332
  0
LINE
  8
0
  6
CONTINUOUS
 62
     4
 10
2177.333416
 20
440.2666448
 11
2430.4000632
 21
440.2666448
  0
LINE
  8
0
  6
CONTINUOUS
 62
     4
 10
2177.333416
 20
495.7333072
 11
3245.0666672
 21
495.7333072
  0
TEXT
  8
0
  6
CONTINUOUS
 62
     4
 10
2191.2000816
 20
339.7333192
 30
1.663999872
 40
16.63999872
  1
設計
 50
0.0
 41
0.6
 51
0.0
  7
KANJI22
  0
TEXT
  8
0
  6
CONTINUOUS
 62
     4
 10
2191.2000816
 20
395.1999816
 30
1.663999872
 40
16.63999872
  1
検図
 50
0.0
 41
0.6
 51
0.0
  7
KANJI22
  0
TEXT
  8
0
  6
CONTINUOUS
 62
     4
 10
2191.2000816
 20
450.666644
 30
1.663999872
 40
16.63999872
  1
分類
 50
0.0
 41
0.6
 51
0.0
  7
KANJI22
  0
LINE
  8
0
  6
CONTINUOUS
 62
     4
 10
2450.85339496
 20
440.2666448
 11
3245.0666672
 21
440.2666448
  0
LINE
  8
0
  6
CONTINUOUS
 62
     4
 10
2430.4000632
 20
329.33332
 11
3245.0666672
 21
329.33332
  0
TEXT
  8
0
  6
CONTINUOUS
 62
     4
 10
2444.2667288
 20
305.0666552
 30
1.38666656
 40
13.8666656
  1
ＤＲＡＷＩＮＧ　ＮＯ．
 50
0.0
 41
0.8
 51
0.0
  7
KANJI23
  0
TEXT
  8
0
  6
CONTINUOUS
 62
     4
 10
2444.2667288
 20
360.5333176
 30
1.38666656
 40
13.8666656
  1
ＭＦＧ　ＮＯ．
 50
0.0
 41
0.8
 51
0.0
  7
KANJI23
  0
TEXT
  8
0
  6
CONTINUOUS
 62
     4
 10
2444.2667288
 20
415.99998
 30
1.38666656
 40
13.8666656
  1
ＴＹＰＥ
 50
0.0
 41
0.8
 51
0.0
  7
KANJI23
  0
LINE
  8
0
  6
CONTINUOUS
 62
     4
 10
2451.2000616
 20
384.7999824
 11
2770.1333704
 21
384.7999824
  0
TEXT
  8
0
  6
CONTINUOUS
 62
     4
 10
2444.2667288
 20
280.7999904
 30
1.663999872
 40
16.63999872
  1
図　面　番　号
 50
0.0
 41
0.8
 51
0.0
  7
KANJI24
  0
TEXT
  8
0
  6
CONTINUOUS
 62
     4
 10
2444.2667288
 20
336.2666528
 30
1.663999872
 40
16.63999872
  1
製番
 50
0.0
 41
0.8
 51
0.0
  7
KANJI24
  0
TEXT
  8
0
  6
CONTINUOUS
 62
     4
 10
2444.2667288
 20
391.7333152
 30
1.663999872
 40
16.63999872
  1
機種
 50
0.0
 41
0.8
 51
0.0
  7
KANJI24
  0
LINE
  8
0
  6
CONTINUOUS
 62
     4
 10
2177.333416
 20
218.3999952
 11
2430.4000632
 21
218.3999952
  0
LINE
  8
0
  6
CONTINUOUS
 62
     4
 10
2177.333416
 20
273.8666576
 11
2430.4000632
 21
273.8666576
  0
TEXT
  8
0
  6
CONTINUOUS
 62
     4
 10
2191.2000816
 20
194.1333304
 30
1.38666656
 40
13.8666656
  1
ＳＣＡＬＥ
 50
0.0
 41
0.6
 51
0.0
  7
KANJI21
  0
TEXT
  8
0
  6
CONTINUOUS
 62
     4
 10
2191.2000816
 20
249.5999928
 30
1.38666656
 40
13.8666656
  1
ＤＡＴＥ
 50
0.0
 41
0.6
 51
0.0
  7
KANJI21
  0
TEXT
  8
0
  6
CONTINUOUS
 62
     4
 10
2191.2000816
 20
173.333332
 30
1.663999872
 40
16.63999872
  1
尺度
 50
0.0
 41
0.6
 51
0.0
  7
KANJI22
  0
TEXT
  8
0
  6
CONTINUOUS
 62
     4
 10
2191.2000816
 20
228.7999944
 30
1.663999872
 40
16.63999872
  1
日付
 50
0.0
 41
0.6
 51
0.0
  7
KANJI22
  0
TEXT
  8
0
  6
CONTINUOUS
 62
     4
 10
2191.2000816
 20
284.2666568
 30
1.663999872
 40
16.63999872
  1
作図
 50
0.0
 41
0.6
 51
0.0
  7
KANJI22
  0
LINE
  8
0
  6
CONTINUOUS
 62
     4
 10
1785.6001128
 20
162.9333328
 11
1785.6001128
 21
218.3999952
  0
LINE
  8
0
  6
CONTINUOUS
 62
     4
 10
1848.000108
 20
162.9333328
 11
1848.000108
 21
218.3999952
  0
TEXT
  8
0
  6
CONTINUOUS
 62
     4
 10
1806.4001112
 20
194.1333304
 30
1.38666656
 40
13.8666656
  1
ＢＹ
 50
0.0
 41
0.6
 51
0.0
  7
KANJI21
  0
TEXT
  8
0
  6
CONTINUOUS
 62
     4
 10
1958.9334328
 20
194.1333304
 30
1.38666656
 40
13.8666656
  1
ＤＥＳＣＲＩＰＴＩＯＮ
 50
0.0
 41
0.6
 51
0.0
  7
KANJI21
  0
TEXT
  8
0
  6
CONTINUOUS
 62
     4
 10
1806.4001112
 20
173.333332
 30
1.663999872
 40
16.63999872
  1
担当
 50
0.0
 41
0.6
 51
0.0
  7
KANJI22
  0
TEXT
  8
0
  6
CONTINUOUS
 62
     4
 10
1979.7334312
 20
173.333332
 30
1.663999872
 40
16.63999872
  1
記　　　　事
 50
0.0
 41
0.6
 51
0.0
  7
KANJI22
  0
LINE
  8
0
  6
CONTINUOUS
 62
     4
 10
1659.0667892
 20
207.999996
 11
1636.5334576
 21
173.333332
  0
TEXT
  8
0
  6
CONTINUOUS
 62
     4
 10
1716.2667848
 20
194.1333304
 30
1.38666656
 40
13.8666656
  1
ＤＡＴＥ
 50
0.0
 41
0.6
 51
0.0
  7
KANJI21
  0
TEXT
  8
0
  6
CONTINUOUS
 62
     4
 10
1726.666784
 20
173.333332
 30
1.663999872
 40
16.63999872
  1
日付
 50
0.0
 41
0.6
 51
0.0
  7
KANJI22
  0
LINE
  8
0
  6
CONTINUOUS
 62
     4
 10
1636.5334576
 20
173.333332
 11
1681.6001208
 21
173.333332
  0
LINE
  8
0
  6
CONTINUOUS
 62
     4
 10
1688.5334536
 20
162.9333328
 11
1688.5334536
 21
218.3999952
  0
LINE
  8
0
  6
CONTINUOUS
 62
     4
 10
1659.0667892
 20
207.999996
 11
1681.6001208
 21
173.333332
  0
LINE
  8
0
  6
CONTINUOUS
 62
     4
 10
2430.4000632
 20
249.5999928
 11
3245.0666672
 21
249.5999928
  0
LINE
  8
0
  6
CONTINUOUS
 62
     4
 10
2430.4000632
 20
162.9333328
 11
2430.4000632
 21
495.7333072
  0
LINE
  8
0
  6
LTYPE1
 62
     4
 10
3012.8000184
 20
259.999992
 11
3012.8000184
 21
315.4666544
  0
LINE
  8
0
  6
LTYPE1
 62
     4
 10
2964.2666888
 20
259.999992
 11
2964.2666888
 21
315.4666544
  0
LINE
  8
0
  6
LTYPE1
 62
     4
 10
2915.7333592
 20
259.999992
 11
2915.7333592
 21
315.4666544
  0
LINE
  8
0
  6
LTYPE1
 62
     4
 10
2867.2000296
 20
259.999992
 11
2867.2000296
 21
315.4666544
  0
LINE
  8
0
  6
LTYPE1
 62
     4
 10
2818.6667
 20
259.999992
 11
2818.6667
 21
315.4666544
  0
LINE
  8
0
  6
LTYPE1
 62
     4
 10
2770.1333704
 20
259.999992
 11
2770.1333704
 21
315.4666544
  0
LINE
  8
0
  6
LTYPE1
 62
     4
 10
2721.6000408
 20
259.999992
 11
2721.6000408
 21
315.4666544
  0
LINE
  8
0
  6
LTYPE1
 62
     4
 10
2673.0667112
 20
259.999992
 11
2673.0667112
 21
315.4666544
  0
LINE
  8
0
  6
LTYPE1
 62
     4
 10
2673.0667112
 20
315.4666544
 11
3012.8000184
 21
315.4666544
  0
LINE
  8
0
  6
LTYPE1
 62
     4
 10
2673.0667112
 20
259.999992
 11
3012.8000184
 21
259.999992
  0
LINE
  8
0
  6
CONTINUOUS
 62
     4
 10
3040.5333496
 20
289.4666564
 11
3054.4000152
 21
289.4666564
  0
LINE
  8
0
  6
CONTINUOUS
 62
     4
 10
3127.2000096
 20
268.666658
 11
3078.66668
 21
268.666658
  0
LINE
  8
0
  6
CONTINUOUS
 62
     4
 10
3078.66668
 20
268.666658
 11
3102.9333448
 21
310.2666548
  0
LINE
  8
0
  6
CONTINUOUS
 62
     4
 10
3102.9333448
 20
310.2666548
 11
3127.2000096
 21
268.666658
  0
LINE
  8
0
  6
CONTINUOUS
 62
     4
 10
3258.9333328
 20
162.9333328
 11
3342.1333264
 21
162.9333328
  0
LINE
  8
0
  6
CONTINUOUS
 62
     4
 10
3258.9333328
 20
204.5333296
 11
3342.1333264
 21
204.5333296
  0
LINE
  8
0
  6
CONTINUOUS
 62
     4
 10
3258.9333328
 20
246.1333264
 11
3342.1333264
 21
246.1333264
  0
LINE
  8
0
  6
CONTINUOUS
 62
     4
 10
3258.9333328
 20
287.7333232
 11
3342.1333264
 21
287.7333232
  0
LINE
  8
0
  6
CONTINUOUS
 62
     4
 10
3258.9333328
 20
329.33332
 11
3342.1333264
 21
329.33332
  0
LINE
  8
0
  6
CONTINUOUS
 62
     4
 10
3258.9333328
 20
370.9333168
 11
3342.1333264
 21
370.9333168
  0
LINE
  8
0
  6
CONTINUOUS
 62
     4
 10
3258.9333328
 20
412.5333136
 11
3342.1333264
 21
412.5333136
  0
LINE
  8
0
  6
CONTINUOUS
 62
     4
 10
3258.9333328
 20
454.1333104
 11
3342.1333264
 21
454.1333104
  0
LINE
  8
0
  6
CONTINUOUS
 62
     4
 10
3258.9333328
 20
495.7333072
 11
3342.1333264
 21
495.7333072
  0
LINE
  8
0
  6
CONTINUOUS
 62
     4
 10
3258.9333328
 20
537.333304
 11
3342.1333264
 21
537.333304
  0
LINE
  8
0
  6
CONTINUOUS
 62
     4
 10
3342.1333264
 20
162.9333328
 11
3342.1333264
 21
537.333304
  0
LINE
  8
0
  6
CONTINUOUS
 62
     4
 10
3300.5333296
 20
162.9333328
 11
3300.5333296
 21
495.7333072
  0
TEXT
  8
0
  6
CONTINUOUS
 62
     4
 10
3273.14666504
 20
175.0666652
 30
2.07999984
 40
20.7999984
  1
計
 50
0.0
 41
0.75
 51
0.0
  7
KANJI25
  0
TEXT
  8
0
  6
CONTINUOUS
 62
     4
 10
3273.14666504
 20
258.95999208
 30
2.07999984
 40
20.7999984
  1
設
 50
0.0
 41
0.75
 51
0.0
  7
KANJI25
  0
TEXT
  8
0
  6
CONTINUOUS
 62
     4
 10
3273.14666504
 20
299.8666556
 30
2.07999984
 40
20.7999984
  1
管
 50
0.0
 41
0.75
 51
0.0
  7
KANJI25
  0
TEXT
  8
0
  6
CONTINUOUS
 62
     4
 10
3273.14666504
 20
341.4666524
 30
2.07999984
 40
20.7999984
  1
製
 50
0.0
 41
0.75
 51
0.0
  7
KANJI25
  0
TEXT
  8
0
  6
CONTINUOUS
 62
     4
 10
3273.14666504
 20
383.0666492
 30
2.07999984
 40
20.7999984
  1
資
 50
0.0
 41
0.75
 51
0.0
  7
KANJI25
  0
TEXT
  8
0
  6
CONTINUOUS
 62
     4
 10
3273.14666504
 20
424.666646
 30
2.07999984
 40
20.7999984
  1
営
 50
0.0
 41
0.75
 51
0.0
  7
KANJI25
  0
TEXT
  8
0
  6
CONTINUOUS
 62
     4
 10
3273.14666504
 20
466.2666428
 30
2.07999984
 40
20.7999984
  1
客
 50
0.0
 41
0.75
 51
0.0
  7
KANJI25
  0
TEXT
  8
0
  6
CONTINUOUS
 62
     4
 10
3272.7999984
 20
509.5999728
 30
2.07999984
 40
20.7999984
  1
出　図
 50
0.0
 41
0.75
 51
0.0
  7
KANJI25
  0
LINE
  8
0
  6
CONTINUOUS
 62
     4
 10
3258.9333328
 20
162.9333328
 11
3258.9333328
 21
537.333304
  0
TEXT
  8
0
  6
CONTINUOUS
 62
     4
 10
3134.1333424
 20
86.666672
 30
6.9333328
 40
69.333328
  1
／
 50
0.0
 41
0.9
 51
0.0
  7
KANJI26
  0
TEXT
  8
0
  6
CONTINUOUS
 62
     4
 10
2790.9333688
 20
415.99998
 30
1.38666656
 40
13.8666656
  1
ＴＩＴＬＥ
 50
0.0
 41
0.8
 51
0.0
  7
KANJI23
  0
TEXT
  8
0
  6
CONTINUOUS
 62
     4
 10
2790.9333688
 20
391.7333152
 30
1.663999872
 40
16.63999872
  1
名称
 50
0.0
 41
0.8
 51
0.0
  7
KANJI24
  0
LINE
  8
0
  6
CONTINUOUS
 62
     6
 10
156.0
 20
156.0
 11
156.0
 21
2308.0
  0
LINE
  8
0
  6
CONTINUOUS
 62
     6
 10
156.0
 20
2308.0
 11
3252.0
 21
2308.0
  0
LINE
  8
0
  6
CONTINUOUS
 62
     6
 10
3252.0
 20
2308.0
 11
3252.0
 21
156.0
  0
LINE
  8
0
  6
CONTINUOUS
 62
     6
 10
2191.2000816
 20
2301.0666672
 11
2191.2000816
 21
2179.7333432
  0
LINE
  8
0
  6
CONTINUOUS
 62
     6
 10
3245.0666672
 20
2301.0666672
 11
2191.2000816
 21
2301.0666672
  0
LINE
  8
0
  6
CONTINUOUS
 62
     6
 10
3245.0666672
 20
2179.7333432
 11
2191.2000816
 21
2179.7333432
  0
LINE
  8
0
  6
CONTINUOUS
 62
     6
 10
3245.0666672
 20
2301.0666672
 11
3245.0666672
 21
2179.7333432
  0
LINE
  8
0
  6
CONTINUOUS
 62
     6
 10
3252.0
 20
156.0
 11
156.0
 21
156.0
  0
LINE
  8
0
  6
CONTINUOUS
 62
     6
 10
683.999888985
 20
163.999998318
 11
683.999888985
 21
275.999974769
  0
LINE
  8
0
  6
CONTINUOUS
 62
     6
 10
163.999998318
 20
275.999974769
 11
683.999888985
 21
275.999974769
  0
LINE
  8
0
  6
CONTINUOUS
 62
     6
 10
163.999998318
 20
163.999998318
 11
683.999888985
 21
163.999998318
  0
LINE
  8
0
  6
CONTINUOUS
 62
     6
 10
163.999998318
 20
163.999998318
 11
163.999998318
 21
275.999974769
  0
LINE
  8
0
  6
CONTINUOUS
 62
     6
 10
523.999922626
 20
163.999998318
 11
523.999922626
 21
275.999974769
  0
LINE
  8
0
  6
CONTINUOUS
 62
     6
 10
163.999998318
 20
219.999986544
 11
683.999888985
 21
219.999986544
  0
TEXT
  8
0
  6
CONTINUOUS
 62
     3
 10
179.999994954
 20
235.999983179
 30
2.399999495
 40
23.999994954
  1
ＰＬ
 50
0.0
 41
0.9
 51
0.0
  7
KANJI27
  0
LINE
  8
0
  6
CONTINUOUS
 62
     6
 10
1629.6001248
 20
162.9333328
 11
1629.6001248
 21
218.3999952
  0
LINE
  8
0
  6
CONTINUOUS
 62
     6
 10
1629.6001248
 20
218.3999952
 11
2177.333416
 21
218.3999952
  0
LINE
  8
0
  6
CONTINUOUS
 62
     6
 10
1629.6001248
 20
162.9333328
 11
3245.0666672
 21
162.9333328
  0
LINE
  8
0
  6
CONTINUOUS
 62
     6
 10
2722.20670742
 20
199.67999664
 11
2699.32670918
 21
199.67999664
  0
LINE
  8
0
  6
CONTINUOUS
 62
     6
 10
2722.20670742
 20
203.83999632
 11
2699.32670918
 21
203.83999632
  0
LINE
  8
0
  6
CONTINUOUS
 62
     6
 10
2722.20670742
 20
199.67999664
 11
2745.08670566
 21
199.67999664
  0
LINE
  8
0
  6
CONTINUOUS
 62
     6
 10
2722.20670742
 20
203.83999632
 11
2745.08670566
 21
203.83999632
  0
LINE
  8
0
  6
CONTINUOUS
 62
     6
 10
2745.08670566
 20
203.83999632
 11
2745.08670566
 21
199.67999664
  0
ARC
  8
0
  6
CONTINUOUS
 62
     6
 10
2750.28670526
 20
201.75999648
 40
20.7999984
 50
185.739170477
 51
90.0
  0
ARC
  8
0
  6
CONTINUOUS
 62
     6
 10
2750.28670526
 20
201.75999648
 40
24.95999808
 50
184.780191847
 51
90.0
  0
LINE
  8
0
  6
CONTINUOUS
 62
     6
 10
2699.32670918
 20
199.67999664
 11
2699.32670918
 21
203.83999632
  0
TEXT
  8
0
  6
CONTINUOUS
 62
     6
 10
2437.333396
 20
194.1333304
 30
0.0
 40
24.2666648
  1
ＵＮＩＴＥＣ　ＩＮＤＵＳＴＲＹ　ＣＯ．，ＬＴＤ．
 50
0.0
 41
0.42031746
 51
0.0
  7
KANJI28
  0
LINE
  8
0
  6
CONTINUOUS
 62
     6
 10
2719.08670766
 20
226.71999456
 11
2694.12670958
 21
226.71999456
  0
LINE
  8
0
  6
CONTINUOUS
 62
     6
 10
2725.32670718
 20
226.71999456
 11
2750.28670526
 21
226.71999456
  0
ARC
  8
0
  6
CONTINUOUS
 62
     6
 10
2694.12670958
 20
201.75999648
 40
20.7999984
 50
90.0
 51
354.260829523
  0
ARC
  8
0
  6
CONTINUOUS
 62
     6
 10
2694.12670958
 20
201.75999648
 40
24.95999808
 50
90.0
 51
355.219808153
  0
LINE
  8
0
  6
CONTINUOUS
 62
     6
 10
2719.08670766
 20
226.71999456
 11
2719.08670766
 21
222.55999488
  0
LINE
  8
0
  6
CONTINUOUS
 62
     6
 10
2694.12670958
 20
222.55999488
 11
2719.08670766
 21
222.55999488
  0
LINE
  8
0
  6
CONTINUOUS
 62
     6
 10
2725.32670718
 20
226.71999456
 11
2725.32670718
 21
222.55999488
  0
LINE
  8
0
  6
CONTINUOUS
 62
     6
 10
2750.28670526
 20
222.55999488
 11
2725.32670718
 21
222.55999488
  0
TEXT
  8
0
  6
CONTINUOUS
 62
     6
 10
2777.67336982
 20
185.11999776
 30
4.15999968
 40
41.5999968
  1
ユニテック工業株式会社
 50
0.0
 41
0.9
 51
0.0
  7
KANJI29
  0
LINE
  8
0
  6
CONTINUOUS
 62
     6
 10
2177.333416
 20
551.1999696
 11
3245.0666672
 21
551.1999696
  0
LINE
  8
0
  6
CONTINUOUS
 62
     6
 10
3245.0666672
 20
162.9333328
 11
3245.0666672
 21
551.1999696
  0
TEXT
  8
0
  6
CONTINUOUS
 62
     3
 10
2324.0
 20
172.0
 30
2.4
 40
36.0
  1
１／８
 50
0.0
 41
0.666666667
 51
0.0
  7
KANJI30
  0
LINE
  8
0
  6
CONTINUOUS
 62
     1
 10
2544.0
 20
2137.0
 11
2544.0
 21
1049.0
  0
TEXT
  8
0
  6
CONTINUOUS
 62
     2
 10
2644.0
 20
2078.6
 30
22.79952
 40
36.0
  1
マイティシリンダ仕様
 50
0.0
 41
0.9
 51
0.0
  7
KANJI31
  0
TEXT
  8
0
  6
CONTINUOUS
 62
     2
 10
2576.6
 20
1573.0
 30
17.6
 40
28.0
  1
モ　トル仕様
 50
0.0
 41
0.9
 51
0.0
  7
KANJI32
  0
TEXT
  8
0
  6
CONTINUOUS
 62
     2
 10
2574.8
 20
1269.0
 30
1.371428571
 40
24.0
  1
ブレ　キ
 50
0.0
 41
0.9
 51
0.0
  7
KANJI33
  0
LINE
  8
0
  6
CONTINUOUS
 62
     2
 10
2574.4
 20
1213.8
 11
2574.4
 21
1197.0
  0
LINE
  8
0
  6
CONTINUOUS
 62
     2
 10
2574.4
 20
1528.2
 11
2574.4
 21
1509.8
  0
TEXT
  8
0
  6
CONTINUOUS
 62
     2
 10
3003.2
 20
1679.4
 30
11.36
 40
28.0
  1
推力リミッタ
 50
0.0
 41
0.9
 51
0.0
  7
KANJI34
  0
TEXT
  8
0
  6
CONTINUOUS
 62
     2
 10
3215.2
 20
1567.4
 30
17.571428571
 40
24.0
  1
Ｐ
 50
0.0
 41
0.9
 51
0.0
  7
KANJI35
  0
TEXT
  8
0
  6
CONTINUOUS
 62
     2
 10
3082.4
 20
1567.4
 30
1.6
 40
24.0
  1
ＫＷ
 50
0.0
 41
0.857142857
 51
0.0
  7
KANJI36
  0
TEXT
  8
0
  6
CONTINUOUS
 62
     2
 10
3175.2
 20
1567.4
 30
20.5
 40
28.0
  1
４
 50
0.0
 41
0.9
 51
0.0
  7
KANJI37
  0
TEXT
  8
0
  6
CONTINUOUS
 62
     2
 10
2958.4
 20
1625.8
 30
0.8
 40
22.4
  1
マンセル
 50
0.0
 41
0.9
 51
0.0
  7
KANJI38
  0
TEXT
  8
0
  6
CONTINUOUS
 62
     2
 10
3052.0
 20
1627.4
 30
0.32
 40
22.4
  1
７．５ＧＹ５／４．５
 50
0.0
 41
0.785714286
 51
0.0
  7
KANJI39
  0
TEXT
  8
0
  6
CONTINUOUS
 62
     2
 10
2952.0
 20
1232.2
 30
2.4
 40
22.4
  1
スプリング制動式電磁ブレーキ
 50
0.0
 41
0.8
 51
0.0
  7
KANJI40
  0
TEXT
  8
0
  6
CONTINUOUS
 62
     2
 10
3216.0
 20
1511.4
 30
0.288
 40
24.0
  1
Ｖ
 50
0.0
 41
0.8
 51
0.0
  7
KANJI41
  0
TEXT
  8
0
  6
CONTINUOUS
 62
     2
 10
3201.6
 20
1455.4
 30
0.288
 40
24.0
  1
Ｈｚ
 50
0.0
 41
0.8
 51
0.0
  7
KANJI41
  0
TEXT
  8
0
  6
CONTINUOUS
 62
     2
 10
3043.8
 20
1455.2
 30
2.4
 40
24.0
  1
５０／６０
 50
0.0
 41
0.9
 51
0.0
  7
KANJI2
  0
TEXT
  8
0
  6
CONTINUOUS
 62
     2
 10
3217.8
 20
1401.2
 30
2.4
 40
24.0
  1
Ａ
 50
0.0
 41
0.9
 51
0.0
  7
KANJI2
  0
TEXT
  8
0
  6
CONTINUOUS
 62
     2
 10
3091.8
 20
1347.2
 30
2.4
 40
24.0
  1
Ｅ
 50
0.0
 41
0.9
 51
0.0
  7
KANJI2
  0
LINE
  8
0
  6
CONTINUOUS
 62
     2
 10
2608.0
 20
1609.0
 11
2608.0
 21
1161.0
  0
LINE
  8
0
  6
CONTINUOUS
 62
     2
 10
2944.0
 20
2057.0
 11
2944.0
 21
1049.0
  0
TEXT
  8
0
  6
CONTINUOUS
 62
     2
 10
2604.0
 20
2015.4
 30
240.594285714
 40
30.4
  1
形式
 50
0.0
 41
0.9
 51
0.0
  7
KANJI42
  0
TEXT
  8
0
  6
CONTINUOUS
 62
     2
 10
2604.0
 20
1959.4
 30
240.594285714
 40
30.4
  1
推力
 50
0.0
 41
0.9
 51
0.0
  7
KANJI42
  0
TEXT
  8
0
  6
CONTINUOUS
 62
     2
 10
2604.0
 20
1903.4
 30
39.628571429
 40
30.4
  1
ストローク
 50
0.0
 41
0.9
 51
0.0
  7
KANJI43
  0
TEXT
  8
0
  6
CONTINUOUS
 62
     2
 10
2604.0
 20
1847.4
 30
61.957805714
 40
30.4
  1
公称速度
 50
0.0
 41
0.9
 51
0.0
  7
KANJI44
  0
TEXT
  8
0
  6
CONTINUOUS
 62
     2
 10
2580.0
 20
1791.4
 30
2.605714286
 40
30.4
  1
ピストンロッド回転トルク
 50
0.0
 41
0.9
 51
0.0
  7
KANJI45
  0
TEXT
  8
0
  6
CONTINUOUS
 62
     2
 10
2604.0
 20
1735.4
 30
240.594285714
 40
30.4
  1
構造
 50
0.0
 41
0.9
 51
0.0
  7
KANJI42
  0
TEXT
  8
0
  6
CONTINUOUS
 62
     2
 10
2604.0
 20
1679.4
 30
17.298468571
 40
30.4
  1
過負荷安全装置
 50
0.0
 41
0.9
 51
0.0
  7
KANJI46
  0
TEXT
  8
0
  6
CONTINUOUS
 62
     2
 10
2604.0
 20
1623.4
 30
106.617142857
 40
30.4
  1
塗装色
 50
0.0
 41
0.9
 51
0.0
  7
KANJI47
  0
TEXT
  8
0
  6
CONTINUOUS
 62
     2
 10
2644.0
 20
1567.4
 30
26.6
 40
30.4
  1
出力　極数
 50
0.0
 41
0.9
 51
0.0
  7
KANJI48
  0
TEXT
  8
0
  6
CONTINUOUS
 62
     2
 10
2644.0
 20
1511.4
 30
44.586377143
 40
30.4
  1
電源電圧
 50
0.0
 41
0.9
 51
0.0
  7
KANJI49
  0
TEXT
  8
0
  6
CONTINUOUS
 62
     2
 10
2644.0
 20
1455.4
 30
80.56
 40
30.4
  1
周波数
 50
0.0
 41
0.9
 51
0.0
  7
KANJI50
  0
TEXT
  8
0
  6
CONTINUOUS
 62
     2
 10
2644.0
 20
1399.4
 30
188.48
 40
30.4
  1
電流
 50
0.0
 41
0.9
 51
0.0
  7
KANJI51
  0
TEXT
  8
0
  6
CONTINUOUS
 62
     2
 10
2644.0
 20
1343.4
 30
80.56
 40
30.4
  1
絶縁級
 50
0.0
 41
0.9
 51
0.0
  7
KANJI50
  0
TEXT
  8
0
  6
CONTINUOUS
 62
     2
 10
2644.0
 20
1231.4
 30
188.48
 40
30.4
  1
形式
 50
0.0
 41
0.9
 51
0.0
  7
KANJI51
  0
TEXT
  8
0
  6
CONTINUOUS
 62
     2
 10
2644.0
 20
1175.4
 30
44.586377143
 40
30.4
  1
操作方式
 50
0.0
 41
0.9
 51
0.0
  7
KANJI49
  0
TEXT
  8
0
  6
CONTINUOUS
 62
     2
 10
2604.0
 20
1119.4
 30
106.617142857
 40
30.4
  1
付属品
 50
0.0
 41
0.9
 51
0.0
  7
KANJI47
  0
TEXT
  8
0
  6
CONTINUOUS
 62
     2
 10
2604.0
 20
1063.4
 30
240.594285714
 40
30.4
  1
台数
 50
0.0
 41
0.9
 51
0.0
  7
KANJI42
  0
TEXT
  8
0
  6
CONTINUOUS
 62
     2
 10
3194.8
 20
1906.6
 30
0.1792
 40
22.4
  1
ｍｍ
 50
0.0
 41
0.8
 51
0.0
  7
KANJI52
  0
TEXT
  8
0
  6
CONTINUOUS
 62
     2
 10
3134.8
 20
1853.0
 30
0.1792
 40
22.4
  1
ｍｍ／ｓｅｃ
 50
0.0
 41
0.8
 51
0.0
  7
KANJI52
  0
LINE
  8
0
  6
CONTINUOUS
 62
     1
 10
2544.0
 20
1049.0
 11
3252.0
 21
1049.0
  0
LINE
  8
0
  6
CONTINUOUS
 62
     2
 10
2544.0
 20
1105.0
 11
3252.0
 21
1105.0
  0
LINE
  8
0
  6
CONTINUOUS
 62
     2
 10
2544.0
 20
1161.0
 11
3252.0
 21
1161.0
  0
LINE
  8
0
  6
CONTINUOUS
 62
     2
 10
2608.0
 20
1217.0
 11
3252.0
 21
1217.0
  0
LINE
  8
0
  6
CONTINUOUS
 62
     2
 10
2544.0
 20
1273.0
 11
3252.0
 21
1273.0
  0
LINE
  8
0
  6
CONTINUOUS
 62
     2
 10
2608.0
 20
1329.0
 11
3252.0
 21
1329.0
  0
LINE
  8
0
  6
CONTINUOUS
 62
     2
 10
2608.0
 20
1385.0
 11
3252.0
 21
1385.0
  0
LINE
  8
0
  6
CONTINUOUS
 62
     2
 10
2608.0
 20
1441.0
 11
3252.0
 21
1441.0
  0
LINE
  8
0
  6
CONTINUOUS
 62
     2
 10
2608.0
 20
1497.0
 11
3252.0
 21
1497.0
  0
LINE
  8
0
  6
CONTINUOUS
 62
     2
 10
2608.0
 20
1553.0
 11
3252.0
 21
1553.0
  0
LINE
  8
0
  6
CONTINUOUS
 62
     2
 10
2544.0
 20
1609.0
 11
3252.0
 21
1609.0
  0
LINE
  8
0
  6
CONTINUOUS
 62
     2
 10
2544.0
 20
1665.0
 11
3252.0
 21
1665.0
  0
LINE
  8
0
  6
CONTINUOUS
 62
     2
 10
2544.0
 20
1721.0
 11
3252.0
 21
1721.0
  0
LINE
  8
0
  6
CONTINUOUS
 62
     1
 10
2544.0
 20
2137.0
 11
3252.0
 21
2137.0
  0
LINE
  8
0
  6
CONTINUOUS
 62
     2
 10
2544.0
 20
2057.0
 11
3252.0
 21
2057.0
  0
LINE
  8
0
  6
CONTINUOUS
 62
     2
 10
2544.0
 20
2001.0
 11
3252.0
 21
2001.0
  0
LINE
  8
0
  6
CONTINUOUS
 62
     2
 10
2544.0
 20
1945.0
 11
3252.0
 21
1945.0
  0
LINE
  8
0
  6
CONTINUOUS
 62
     2
 10
2544.0
 20
1889.0
 11
3252.0
 21
1889.0
  0
LINE
  8
0
  6
CONTINUOUS
 62
     2
 10
2544.0
 20
1833.0
 11
3252.0
 21
1833.0
  0
LINE
  8
0
  6
CONTINUOUS
 62
     2
 10
2544.0
 20
1777.0
 11
3252.0
 21
1777.0
  0
TEXT
  8
0
  6
CONTINUOUS
 62
     2
 10
3020.8
 20
1512.2
 30
2.4
 40
24.0
  1
　　　　　　／　
 50
0.0
 41
0.9
 51
0.0
  7
KANJI2
  0
TEXT
  8
0
  6
CONTINUOUS
 62
     2
 10
3020.8
 20
1400.2
 30
2.4
 40
24.0
  1
　　　　　　／　　
 50
0.0
 41
0.9
 51
0.0
  7
KANJI2
  0
LINE
  8
1
  6
CONTINUOUS
 62
     2
 10
710.0
 20
1074.0
 11
690.681483474
 21
1079.176380902
  0
LINE
  8
1
  6
CONTINUOUS
 62
     2
 10
710.0
 20
1074.0
 11
690.681483474
 21
1068.823619098
  0
LINE
  8
1
  6
CONTINUOUS
 62
     2
 10
710.0
 20
1074.0
 11
640.0
 21
1074.0
  0
LINE
  8
1
  6
CONTINUOUS
 62
     2
 10
640.0
 20
1074.0
 11
659.318516526
 21
1068.823619098
  0
LINE
  8
1
  6
CONTINUOUS
 62
     2
 10
640.0
 20
1074.0
 11
659.318516526
 21
1079.176380902
  0
LINE
  8
1
  6
CONTINUOUS
 62
     2
 10
640.0
 20
1241.0
 11
640.0
 21
1058.0
  0
LINE
  8
1
  6
CONTINUOUS
 62
     2
 10
640.0
 20
1074.0
 11
620.681483474
 21
1079.176380902
  0
LINE
  8
1
  6
CONTINUOUS
 62
     2
 10
640.0
 20
1074.0
 11
620.681483474
 21
1068.823619098
  0
LINE
  8
1
  6
CONTINUOUS
 62
     2
 10
640.0
 20
1074.0
 11
485.0
 21
1074.0
  0
LINE
  8
1
  6
CONTINUOUS
 62
     2
 10
485.0
 20
1074.0
 11
504.318516526
 21
1068.823619098
  0
LINE
  8
1
  6
CONTINUOUS
 62
     2
 10
485.0
 20
1074.0
 11
504.318516526
 21
1079.176380902
  0
LINE
  8
1
  6
CONTINUOUS
 62
     2
 10
485.0
 20
1241.0
 11
485.0
 21
1058.0
  0
LINE
  8
0
  6
CONTINUOUS
 62
     1
 10
640.0
 20
1249.0
 11
485.0
 21
1249.0
  0
LINE
  8
0
  6
CONTINUOUS
 62
     1
 10
485.0
 20
1499.8
 11
482.0
 21
1499.8
  0
LINE
  8
0
  6
CONTINUOUS
 62
     1
 10
482.0
 20
1499.8
 11
482.0
 21
1478.2
  0
LINE
  8
0
  6
CONTINUOUS
 62
     1
 10
482.0
 20
1478.2
 11
485.0
 21
1478.2
  0
LINE
  8
0
  6
CONTINUOUS
 62
     1
 10
485.0
 20
1478.2
 11
485.0
 21
1499.8
  0
LINE
  8
0
  6
CONTINUOUS
 62
     1
 10
482.0
 20
1480.0
 11
482.0
 21
1498.0
  0
LINE
  8
0
  6
CONTINUOUS
 62
     1
 10
474.5
 20
1480.0
 11
474.5
 21
1498.0
  0
LINE
  8
0
  6
LTYPE2
 62
     2
 10
489.0
 20
1489.0
 11
470.5
 21
1489.0
  0
LINE
  8
0
  6
CONTINUOUS
 62
     1
 10
474.5
 20
1498.0
 11
482.0
 21
1498.0
  0
LINE
  8
0
  6
CONTINUOUS
 62
     1
 10
474.5
 20
1480.0
 11
482.0
 21
1480.0
  0
LINE
  8
0
  6
CONTINUOUS
 62
     1
 10
482.0
 20
1489.0
 11
475.5
 21
1489.0
  0
ARC
  8
0
  6
CONTINUOUS
 62
     1
 10
485.1
 20
1484.5
 40
10.6
 50
154.9
 51
205.1
  0
ARC
  8
0
  6
CONTINUOUS
 62
     1
 10
485.1
 20
1493.5
 40
10.6
 50
154.9
 51
205.1
  0
LINE
  8
0
  6
CONTINUOUS
 62
     1
 10
482.0
 20
1489.0
 11
485.0
 21
1490.732050808
  0
LINE
  8
0
  6
CONTINUOUS
 62
     1
 10
485.0
 20
1489.0
 11
482.0
 21
1487.267949192
  0
LINE
  8
0
  6
CONTINUOUS
 62
     1
 10
485.0
 20
1289.8
 11
482.0
 21
1289.8
  0
LINE
  8
0
  6
CONTINUOUS
 62
     1
 10
482.0
 20
1289.8
 11
482.0
 21
1268.2
  0
LINE
  8
0
  6
CONTINUOUS
 62
     1
 10
482.0
 20
1268.2
 11
485.0
 21
1268.2
  0
LINE
  8
0
  6
CONTINUOUS
 62
     1
 10
485.0
 20
1268.2
 11
485.0
 21
1289.8
  0
LINE
  8
0
  6
CONTINUOUS
 62
     1
 10
482.0
 20
1270.0
 11
482.0
 21
1288.0
  0
LINE
  8
0
  6
CONTINUOUS
 62
     1
 10
474.5
 20
1270.0
 11
474.5
 21
1288.0
  0
LINE
  8
0
  6
LTYPE2
 62
     2
 10
489.0
 20
1279.0
 11
470.5
 21
1279.0
  0
LINE
  8
0
  6
CONTINUOUS
 62
     1
 10
474.5
 20
1288.0
 11
482.0
 21
1288.0
  0
LINE
  8
0
  6
CONTINUOUS
 62
     1
 10
474.5
 20
1270.0
 11
482.0
 21
1270.0
  0
LINE
  8
0
  6
CONTINUOUS
 62
     1
 10
482.0
 20
1279.0
 11
475.5
 21
1279.0
  0
ARC
  8
0
  6
CONTINUOUS
 62
     1
 10
485.1
 20
1274.5
 40
10.6
 50
154.9
 51
205.1
  0
ARC
  8
0
  6
CONTINUOUS
 62
     1
 10
485.1
 20
1283.5
 40
10.6
 50
154.9
 51
205.1
  0
LINE
  8
0
  6
CONTINUOUS
 62
     1
 10
482.0
 20
1279.0
 11
485.0
 21
1280.732050808
  0
LINE
  8
0
  6
CONTINUOUS
 62
     1
 10
485.0
 20
1279.0
 11
482.0
 21
1277.267949192
  0
LINE
  8
1
  6
CONTINUOUS
 62
     2
 10
710.0
 20
1066.0
 11
710.0
 21
991.0
  0
LINE
  8
1
  6
CONTINUOUS
 62
     2
 10
710.0
 20
1007.0
 11
690.681483474
 21
1012.176380902
  0
LINE
  8
1
  6
CONTINUOUS
 62
     2
 10
710.0
 20
1007.0
 11
690.681483474
 21
1001.823619098
  0
LINE
  8
1
  6
CONTINUOUS
 62
     2
 10
710.0
 20
1007.0
 11
485.0
 21
1007.0
  0
LINE
  8
1
  6
CONTINUOUS
 62
     2
 10
485.0
 20
1007.0
 11
504.318516526
 21
1001.823619098
  0
LINE
  8
1
  6
CONTINUOUS
 62
     2
 10
485.0
 20
1007.0
 11
504.318516526
 21
1012.176380902
  0
LINE
  8
1
  6
CONTINUOUS
 62
     2
 10
485.0
 20
1066.0
 11
485.0
 21
991.0
  0
TEXT
  8
1
  6
CONTINUOUS
 62
     2
 10
521.7
 20
1082.0
 30
2.4
 40
28.0
  1
１５５
 50
0.0
 41
0.914285714
 51
0.0
  7
KANJI53
  0
TEXT
  8
1
  6
CONTINUOUS
 62
     2
 10
648.2
 20
1082.0
 30
2.4
 40
28.0
  1
７０
 50
0.0
 41
0.914285714
 51
0.0
  7
KANJI53
  0
TEXT
  8
1
  6
CONTINUOUS
 62
     2
 10
556.7
 20
1015.0
 30
2.4
 40
28.0
  1
２２５
 50
0.0
 41
0.914285714
 51
0.0
  7
KANJI53
  0
CIRCLE
  8
0
  6
CONTINUOUS
 62
     1
 10
2648.5
 20
356.9
 40
23.0
  0
TEXT
  8
0
  6
CONTINUOUS
 62
     2
 10
2637.8
 20
343.4
 30
0.0
 40
28.0
  1
Ｓ
 50
0.0
 41
0.793650794
 51
0.0
  7
KANJI54
  0
TEXT
  8
0
  6
CONTINUOUS
 62
     2
 10
1121.7
 20
681.0
 30
2.4
 40
24.0
  1
１１０５
 50
0.0
 41
0.9
 51
0.0
  7
KANJI2
  0
TEXT
  8
0
  6
CONTINUOUS
 62
     2
 10
1774.0
 20
684.0
 30
2.4
 40
24.0
  1
２０１
 50
0.0
 41
0.9
 51
0.0
  7
KANJI2
  0
LINE
  8
0
  6
LTYPE3
 62
     2
 10
640.0
 20
1384.0
 11
485.0
 21
1384.0
  0
CIRCLE
  8
0
  6
CONTINUOUS
 62
     1
 10
710.0
 20
1384.041
 40
22.5
  0
CIRCLE
  8
0
  6
CONTINUOUS
 62
     1
 10
710.0
 20
1384.041
 40
45.0
  0
CIRCLE
  8
0
  6
CONTINUOUS
 62
     1
 10
710.0
 20
1384.041
 40
55.0
  0
LINE
  8
0
  6
CONTINUOUS
 62
     1
 10
675.0
 20
1484.041
 11
698.0
 21
1465.541
  0
LINE
  8
0
  6
CONTINUOUS
 62
     1
 10
675.0
 20
1430.541
 11
675.0
 21
1484.041
  0
LINE
  8
0
  6
CONTINUOUS
 62
     1
 10
698.0
 20
1440.541
 11
698.0
 21
1465.541
  0
LINE
  8
0
  6
CONTINUOUS
 62
     1
 10
640.0
 20
1284.041
 11
675.0
 21
1284.041
  0
LINE
  8
0
  6
CONTINUOUS
 62
     1
 10
675.0
 20
1284.041
 11
698.0
 21
1302.541
  0
LINE
  8
0
  6
CONTINUOUS
 62
     1
 10
675.0
 20
1337.541
 11
675.0
 21
1284.041
  0
LINE
  8
0
  6
CONTINUOUS
 62
     1
 10
698.0
 20
1327.541
 11
698.0
 21
1302.541
  0
LINE
  8
0
  6
CONTINUOUS
 62
     1
 10
900.0
 20
1284.041
 11
870.0
 21
1302.541
  0
LINE
  8
0
  6
CONTINUOUS
 62
     1
 10
698.0
 20
1302.541
 11
870.0
 21
1302.541
  0
LINE
  8
0
  6
CONTINUOUS
 62
     1
 10
900.0
 20
1284.041
 11
940.0
 21
1284.041
  0
LINE
  8
0
  6
CONTINUOUS
 62
     1
 10
870.0
 20
1384.041
 11
870.0
 21
1302.541
  0
LINE
  8
0
  6
LTYPE3
 62
     2
 10
710.0
 20
1314.439877817
 11
710.0
 21
1451.407558854
  0
LINE
  8
0
  6
CONTINUOUS
 62
     1
 10
977.0
 20
1384.041
 11
977.0
 21
1484.041
  0
LINE
  8
0
  6
CONTINUOUS
 62
     1
 10
954.0
 20
1384.041
 11
954.0
 21
1484.041
  0
LINE
  8
0
  6
CONTINUOUS
 62
     1
 10
980.0
 20
1471.541
 11
980.0
 21
1482.49054
  0
LINE
  8
0
  6
CONTINUOUS
 62
     1
 10
980.0
 20
1471.541
 11
980.0
 21
1460.59146
  0
LINE
  8
0
  6
CONTINUOUS
 62
     1
 10
977.0
 20
1482.291
 11
980.0
 21
1482.291
  0
LINE
  8
0
  6
CONTINUOUS
 62
     1
 10
977.0
 20
1471.541
 11
980.000254073
 21
1474.541254073
  0
LINE
  8
0
  6
CONTINUOUS
 62
     1
 10
980.000254073
 20
1471.541
 11
977.0
 21
1468.540745927
  0
LINE
  8
0
  6
CONTINUOUS
 62
     1
 10
977.0
 20
1460.791
 11
980.0
 21
1460.791
  0
LINE
  8
0
  6
CONTINUOUS
 62
     1
 10
980.0
 20
1482.291
 11
991.3
 21
1482.291
  0
LINE
  8
0
  6
CONTINUOUS
 62
     1
 10
991.3
 20
1471.541
 11
991.3
 21
1482.291
  0
LINE
  8
0
  6
CONTINUOUS
 62
     1
 10
991.3
 20
1482.291
 11
992.0
 21
1481.078564435
  0
LINE
  8
0
  6
CONTINUOUS
 62
     1
 10
992.0
 20
1471.541
 11
992.0
 21
1481.078564435
  0
LINE
  8
0
  6
CONTINUOUS
 62
     1
 10
980.0
 20
1460.791
 11
991.3
 21
1460.791
  0
LINE
  8
0
  6
CONTINUOUS
 62
     1
 10
991.3
 20
1471.541
 11
991.3
 21
1460.791
  0
LINE
  8
0
  6
CONTINUOUS
 62
     1
 10
991.3
 20
1460.791
 11
992.0
 21
1462.003435565
  0
LINE
  8
0
  6
CONTINUOUS
 62
     1
 10
992.0
 20
1471.541
 11
992.0
 21
1462.003435565
  0
LINE
  8
0
  6
LTYPE3
 62
     2
 10
940.0
 20
1471.541
 11
1003.7
 21
1471.541
  0
LINE
  8
0
  6
CONTINUOUS
 62
     1
 10
977.0
 20
1384.041
 11
977.0
 21
1284.041
  0
LINE
  8
0
  6
CONTINUOUS
 62
     1
 10
954.0
 20
1384.041
 11
954.0
 21
1284.041
  0
LINE
  8
0
  6
CONTINUOUS
 62
     1
 10
940.0
 20
1284.041
 11
977.0
 21
1284.041
  0
LINE
  8
0
  6
CONTINUOUS
 62
     1
 10
940.0
 20
1384.041
 11
940.0
 21
1284.041
  0
LINE
  8
0
  6
CONTINUOUS
 62
     1
 10
980.0
 20
1296.541
 11
980.0
 21
1285.59146
  0
LINE
  8
0
  6
CONTINUOUS
 62
     1
 10
980.0
 20
1296.541
 11
980.0
 21
1307.49054
  0
LINE
  8
0
  6
CONTINUOUS
 62
     1
 10
977.0
 20
1285.791
 11
980.0
 21
1285.791
  0
LINE
  8
0
  6
CONTINUOUS
 62
     1
 10
977.0
 20
1296.541
 11
980.000254073
 21
1293.540745927
  0
LINE
  8
0
  6
CONTINUOUS
 62
     1
 10
980.000254073
 20
1296.541
 11
977.0
 21
1299.541254073
  0
LINE
  8
0
  6
CONTINUOUS
 62
     1
 10
977.0
 20
1307.291
 11
980.0
 21
1307.291
  0
LINE
  8
0
  6
CONTINUOUS
 62
     1
 10
980.0
 20
1285.791
 11
991.3
 21
1285.791
  0
LINE
  8
0
  6
CONTINUOUS
 62
     1
 10
991.3
 20
1296.541
 11
991.3
 21
1285.791
  0
LINE
  8
0
  6
CONTINUOUS
 62
     1
 10
991.3
 20
1285.791
 11
992.0
 21
1287.003435565
  0
LINE
  8
0
  6
CONTINUOUS
 62
     1
 10
992.0
 20
1296.541
 11
992.0
 21
1287.003435565
  0
LINE
  8
0
  6
CONTINUOUS
 62
     1
 10
980.0
 20
1307.291
 11
991.3
 21
1307.291
  0
LINE
  8
0
  6
CONTINUOUS
 62
     1
 10
991.3
 20
1296.541
 11
991.3
 21
1307.291
  0
LINE
  8
0
  6
CONTINUOUS
 62
     1
 10
991.3
 20
1307.291
 11
992.0
 21
1306.078564435
  0
LINE
  8
0
  6
CONTINUOUS
 62
     1
 10
992.0
 20
1296.541
 11
992.0
 21
1306.078564435
  0
LINE
  8
0
  6
LTYPE3
 62
     2
 10
940.0
 20
1296.541
 11
1003.7
 21
1296.541
  0
CIRCLE
  8
0
  6
CONTINUOUS
 62
     1
 10
1178.3
 20
1384.041
 40
19.5
  0
LINE
  8
0
  6
CONTINUOUS
 62
     1
 10
1158.3
 20
1404.041
 11
1198.3
 21
1404.041
  0
LINE
  8
0
  6
CONTINUOUS
 62
     1
 10
1198.3
 20
1364.041
 11
1198.3
 21
1404.041
  0
LINE
  8
0
  6
CONTINUOUS
 62
     1
 10
1158.3
 20
1364.041
 11
1198.3
 21
1364.041
  0
LINE
  8
0
  6
CONTINUOUS
 62
     1
 10
1158.3
 20
1364.041
 11
1158.3
 21
1404.041
  0
LINE
  8
0
  6
LTYPE2
 62
     2
 10
1178.3
 20
1358.941
 11
1178.3
 21
1408.841
  0
LINE
  8
6
  6
CONTINUOUS
 62
     2
 10
710.0
 20
1302.439877817
 11
710.0
 21
1110.041
  0
LINE
  8
6
  6
CONTINUOUS
 62
     2
 10
1125.0
 20
1314.041
 11
1130.176380902
 21
1333.359516526
  0
LINE
  8
6
  6
CONTINUOUS
 62
     2
 10
1125.0
 20
1314.041
 11
1119.823619098
 21
1333.359516526
  0
LINE
  8
6
  6
CONTINUOUS
 62
     2
 10
1125.0
 20
1314.041
 11
1125.0
 21
1454.041
  0
LINE
  8
6
  6
CONTINUOUS
 62
     2
 10
1125.0
 20
1454.041
 11
1119.823619098
 21
1434.722483474
  0
LINE
  8
6
  6
CONTINUOUS
 62
     2
 10
1125.0
 20
1454.041
 11
1130.176380902
 21
1434.722483474
  0
TEXT
  8
6
  6
CONTINUOUS
 62
     2
 10
1117.0
 20
1337.241
 30
2.4
 40
24.0
  1
φ１４０
 50
90.0
 41
0.9
 51
0.0
  7
KANJI55
  0
LINE
  8
0
  6
CONTINUOUS
 62
     1
 10
1528.0
 20
1431.541
 11
1668.000190206
 21
1431.541
  0
LINE
  8
0
  6
CONTINUOUS
 62
     1
 10
1668.000190206
 20
1431.541
 11
1678.000190206
 21
1421.541
  0
LINE
  8
0
  6
CONTINUOUS
 62
     1
 10
1678.000190206
 20
1346.541
 11
1678.000190206
 21
1421.541
  0
LINE
  8
0
  6
CONTINUOUS
 62
     1
 10
1668.000190206
 20
1336.541
 11
1678.000190206
 21
1346.541
  0
CIRCLE
  8
0
  6
CONTINUOUS
 62
     1
 10
1628.000190206
 20
1384.041
 40
22.5
  0
LINE
  8
0
  6
CONTINUOUS
 62
     1
 10
1668.000190206
 20
1431.541
 11
1668.000190206
 21
1424.429736054
  0
LINE
  8
0
  6
CONTINUOUS
 62
     1
 10
1668.000190206
 20
1424.429736054
 11
1678.000190206
 21
1411.788752752
  0
LINE
  8
0
  6
CONTINUOUS
 62
     1
 10
1668.000190206
 20
1424.429736054
 11
1538.0
 21
1424.429736054
  0
LINE
  8
0
  6
CONTINUOUS
 62
     1
 10
1668.000190206
 20
1336.541
 11
1668.000190206
 21
1343.652263946
  0
LINE
  8
0
  6
CONTINUOUS
 62
     1
 10
1668.000190206
 20
1343.652263946
 11
1678.000190206
 21
1356.293247248
  0
LINE
  8
0
  6
CONTINUOUS
 62
     1
 10
1668.000190206
 20
1343.652263946
 11
1538.0
 21
1343.652263946
  0
LINE
  8
0
  6
CONTINUOUS
 62
     1
 10
1538.0
 20
1424.429736054
 11
1538.0
 21
1343.652263946
  0
LINE
  8
6
  6
CONTINUOUS
 62
     2
 10
1272.0
 20
1476.541
 11
1266.823619098
 21
1457.222483474
  0
LINE
  8
6
  6
CONTINUOUS
 62
     2
 10
1272.0
 20
1476.541
 11
1277.176380902
 21
1457.222483474
  0
LINE
  8
6
  6
CONTINUOUS
 62
     2
 10
1272.0
 20
1476.541
 11
1272.0
 21
1291.541
  0
LINE
  8
6
  6
CONTINUOUS
 62
     2
 10
1272.0
 20
1291.541
 11
1277.176380902
 21
1310.859516526
  0
LINE
  8
6
  6
CONTINUOUS
 62
     2
 10
1272.0
 20
1291.541
 11
1266.823619098
 21
1310.859516526
  0
TEXT
  8
6
  6
CONTINUOUS
 62
     2
 10
1264.0
 20
1337.241
 30
2.4
 40
24.0
  1
φ１８５
 50
90.0
 41
0.9
 51
0.0
  7
KANJI55
  0
POINT
  8
0
  6
CONTINUOUS
 62
     1
 10
766.0
 20
1384.041
  0
LINE
  8
0
  6
CONTINUOUS
 62
     1
 10
823.0
 20
1513.985375069
 11
813.0
 21
1503.985375069
  0
LINE
  8
0
  6
CONTINUOUS
 62
     1
 10
813.0
 20
1445.346778818
 11
813.0
 21
1503.985375069
  0
LINE
  8
0
  6
CONTINUOUS
 62
     1
 10
823.0
 20
1435.346778818
 11
813.0
 21
1445.346778818
  0
ARC
  8
0
  6
CONTINUOUS
 62
     1
 10
811.0
 20
1514.507558854
 40
3.0
 50
90.0
 51
180.0
  0
ARC
  8
0
  6
CONTINUOUS
 62
     1
 10
811.0
 20
1433.67744216
 40
3.0
 50
180.0
 51
270.0
  0
ARC
  8
0
  6
CONTINUOUS
 62
     1
 10
811.0
 20
1430.235983542
 40
3.0
 50
180.0
 51
270.0
  0
ARC
  8
0
  6
CONTINUOUS
 62
     1
 10
811.0
 20
1429.375618887
 40
3.0
 50
180.0
 51
270.0
  0
LINE
  8
0
  6
CONTINUOUS
 62
     1
 10
931.0
 20
1445.346778818
 11
931.0
 21
1503.985375069
  0
LINE
  8
0
  6
CONTINUOUS
 62
     1
 10
936.0
 20
1402.698620342
 11
936.0
 21
1514.507558854
  0
ARC
  8
0
  6
CONTINUOUS
 62
     1
 10
933.0
 20
1514.507558854
 40
3.0
 50
0.0
 51
90.0
  0
LINE
  8
0
  6
CONTINUOUS
 62
     1
 10
931.0
 20
1503.985375069
 11
921.0
 21
1513.985375069
  0
LINE
  8
0
  6
CONTINUOUS
 62
     1
 10
823.0
 20
1513.985375069
 11
921.0
 21
1513.985375069
  0
LINE
  8
0
  6
CONTINUOUS
 62
     1
 10
931.0
 20
1445.346778818
 11
921.0
 21
1435.346778818
  0
LINE
  8
0
  6
CONTINUOUS
 62
     1
 10
823.0
 20
1435.346778818
 11
921.0
 21
1435.346778818
  0
LINE
  8
0
  6
CONTINUOUS
 62
     1
 10
811.0
 20
1517.507558854
 11
933.0
 21
1517.507558854
  0
ARC
  8
0
  6
CONTINUOUS
 62
     1
 10
933.0
 20
1433.67744216
 40
3.0
 50
270.0
 51
0.0
  0
ARC
  8
0
  6
CONTINUOUS
 62
     1
 10
933.0
 20
1430.235983542
 40
3.0
 50
270.0
 51
0.0
  0
ARC
  8
0
  6
CONTINUOUS
 62
     1
 10
933.0
 20
1429.375618887
 40
3.0
 50
270.0
 51
0.0
  0
LINE
  8
0
  6
CONTINUOUS
 62
     1
 10
810.507319827
 20
1430.67744216
 11
933.0
 21
1430.67744216
  0
LINE
  8
0
  6
CONTINUOUS
 62
     1
 10
810.607319827
 20
1427.235983542
 11
933.0
 21
1427.235983542
  0
LINE
  8
0
  6
CONTINUOUS
 62
     1
 10
810.607319827
 20
1426.375618887
 11
933.0
 21
1426.375618887
  0
LINE
  8
0
  6
CONTINUOUS
 62
     1
 10
941.0
 20
1429.307636349
 11
941.0
 21
1486.17371812
  0
LINE
  8
0
  6
CONTINUOUS
 62
     1
 10
936.0
 20
1429.307636349
 11
941.0
 21
1429.307636349
  0
LINE
  8
0
  6
CONTINUOUS
 62
     1
 10
936.0
 20
1486.17371812
 11
941.0
 21
1486.17371812
  0
LINE
  8
0
  6
CONTINUOUS
 62
     1
 10
936.0
 20
1453.407636349
 11
941.0
 21
1453.407636349
  0
LINE
  8
0
  6
CONTINUOUS
 62
     1
 10
898.0
 20
1402.698620342
 11
936.0
 21
1402.698620342
  0
LINE
  8
0
  6
CONTINUOUS
 62
     1
 10
941.0
 20
1473.889877817
 11
941.0
 21
1446.189877817
  0
LINE
  8
0
  6
LTYPE3
 62
     2
 10
914.737645868
 20
1460.039877817
 11
994.0
 21
1460.039877817
  0
LINE
  8
0
  6
CONTINUOUS
 62
     1
 10
808.0
 20
1384.041
 11
808.0
 21
1514.041
  0
LINE
  8
0
  6
CONTINUOUS
 62
     1
 10
698.0
 20
1465.541
 11
808.0
 21
1465.541
  0
LINE
  8
0
  6
CONTINUOUS
 62
     1
 10
808.0
 20
1401.998620342
 11
898.0
 21
1401.998620342
  0
LINE
  8
0
  6
CONTINUOUS
 62
     1
 10
900.0
 20
1402.698620342
 11
900.0
 21
1284.041
  0
LINE
  8
0
  6
CONTINUOUS
 62
     1
 10
940.0
 20
1429.307636349
 11
940.0
 21
1284.041
  0
LINE
  8
0
  6
CONTINUOUS
 62
     1
 10
941.0
 20
1484.041
 11
977.0
 21
1484.041
  0
LINE
  8
0
  6
CONTINUOUS
 62
     1
 10
1527.999190206
 20
1375.541
 11
1527.999190206
 21
1384.041
  0
LINE
  8
0
  6
CONTINUOUS
 62
     1
 10
977.0
 20
1454.041
 11
1307.149691586
 21
1454.041
  0
LINE
  8
0
  6
CONTINUOUS
 62
     1
 10
977.0
 20
1314.041
 11
1308.149691586
 21
1314.041
  0
LINE
  8
0
  6
CONTINUOUS
 62
     1
 10
640.0
 20
1484.041
 11
675.0
 21
1484.041
  0
LINE
  8
1
  6
CONTINUOUS
 62
     2
 10
864.0
 20
1443.507558854
 11
852.528561983
 21
1427.124454453
  0
LINE
  8
1
  6
CONTINUOUS
 62
     2
 10
864.0
 20
1443.507558854
 11
862.25699546
 21
1423.583655242
  0
TEXT
  8
0
  6
CONTINUOUS
 62
     2
 10
789.0
 20
1164.241
 30
0.0
 40
24.0
  1
推力リミッタ
 50
0.0
 41
0.9
 51
0.0
  7
KANJI3
  0
LINE
  8
6
  6
CONTINUOUS
 62
     2
 10
761.01036957
 20
1160.541
 11
926.5
 21
1160.541
  0
LINE
  8
1
  6
CONTINUOUS
 62
     2
 10
864.0
 20
1443.507558854
 11
761.01036957
 21
1160.541
  0
LINE
  8
0
  6
LTYPE4
 62
     2
 10
962.274192965
 20
1272.606
 11
962.274192965
 21
1273.541
  0
LINE
  8
6
  6
CONTINUOUS
 62
     2
 10
1528.000190206
 20
1334.841
 11
1528.000190206
 21
1325.776
  0
LINE
  8
0
  6
CONTINUOUS
 62
     1
 10
1415.219691586
 20
1455.691148475
 11
1420.795406547
 21
1476.5
  0
LINE
  8
0
  6
CONTINUOUS
 62
     1
 10
1420.795406547
 20
1476.5
 11
1426.154390396
 21
1456.5
  0
LINE
  8
0
  6
CONTINUOUS
 62
     1
 10
1420.795406547
 20
1291.5
 11
1426.154390396
 21
1311.5
  0
LINE
  8
0
  6
CONTINUOUS
 62
     1
 10
1415.219691586
 20
1455.691148475
 11
1415.219691586
 21
1384.0
  0
LINE
  8
0
  6
CONTINUOUS
 62
     1
 10
1420.795406547
 20
1476.5
 11
1420.795406547
 21
1384.0
  0
LINE
  8
6
  6
CONTINUOUS
 62
     2
 10
1461.07
 20
1476.5
 11
1460.57
 21
1476.5
  0
LINE
  8
0
  6
LTYPE3
 62
     2
 10
1697.07
 20
1384.0
 11
477.07
 21
1384.0
  0
LINE
  8
6
  6
CONTINUOUS
 62
     2
 10
1408.795406547
 20
1476.5
 11
1276.07
 21
1476.5
  0
LINE
  8
6
  6
CONTINUOUS
 62
     2
 10
1408.795406547
 20
1291.5
 11
1276.07
 21
1291.5
  0
LINE
  8
0
  6
CONTINUOUS
 62
     1
 10
1498.405399739
 20
1476.5
 11
1493.04641589
 21
1456.5
  0
LINE
  8
0
  6
CONTINUOUS
 62
     1
 10
1498.405399739
 20
1476.5
 11
1498.405399739
 21
1384.0
  0
LINE
  8
0
  6
CONTINUOUS
 62
     1
 10
1516.127868375
 20
1432.379113682
 11
1516.127868375
 21
1434.279113682
  0
POINT
  8
0
  6
CONTINUOUS
 62
     1
 10
1516.127868375
 20
1434.279113682
  0
LINE
  8
0
  6
CONTINUOUS
 62
     1
 10
1516.127868375
 20
1434.279113682
 11
1524.327868375
 21
1434.279113682
  0
POINT
  8
0
  6
CONTINUOUS
 62
     1
 10
1524.327868375
 20
1434.279113682
  0
LINE
  8
0
  6
CONTINUOUS
 62
     1
 10
1524.327868375
 20
1434.279113682
 11
1524.327868375
 21
1432.579113682
  0
LINE
  8
0
  6
CONTINUOUS
 62
     1
 10
1512.87
 20
1432.517376915
 11
1498.405399739
 21
1476.5
  0
LINE
  8
0
  6
CONTINUOUS
 62
     1
 10
1512.87
 20
1432.517376915
 11
1512.87
 21
1384.0
  0
LINE
  8
0
  6
CONTINUOUS
 62
     1
 10
1524.327868375
 20
1434.279113682
 11
1524.327868375
 21
1384.0
  0
LINE
  8
0
  6
CONTINUOUS
 62
     1
 10
1516.127868375
 20
1432.517376915
 11
1516.127868375
 21
1384.0
  0
LINE
  8
0
  6
CONTINUOUS
 62
     1
 10
1498.405399739
 20
1291.5
 11
1493.04641589
 21
1311.5
  0
LINE
  8
0
  6
CONTINUOUS
 62
     1
 10
1527.97
 20
1338.482623085
 11
1512.97
 21
1338.482623085
  0
LINE
  8
0
  6
CONTINUOUS
 62
     1
 10
1512.87
 20
1338.482623085
 11
1498.405399739
 21
1291.5
  0
LINE
  8
0
  6
LTYPE4
 62
     2
 10
1420.795406547
 20
1476.5
 11
1498.405399739
 21
1476.5
  0
LINE
  8
0
  6
LTYPE4
 62
     2
 10
1420.795406547
 20
1291.5
 11
1498.405399739
 21
1291.5
  0
LINE
  8
0
  6
CONTINUOUS
 62
     1
 10
1415.219691586
 20
1455.691148475
 11
1409.643976624
 21
1476.5
  0
LINE
  8
0
  6
CONTINUOUS
 62
     1
 10
1409.643976624
 20
1476.5
 11
1404.284992776
 21
1456.5
  0
LINE
  8
0
  6
CONTINUOUS
 62
     1
 10
1415.219691586
 20
1455.691148475
 11
1415.219691586
 21
1384.0
  0
LINE
  8
0
  6
CONTINUOUS
 62
     1
 10
1409.643976624
 20
1476.5
 11
1409.643976624
 21
1384.0
  0
LINE
  8
0
  6
CONTINUOUS
 62
     1
 10
1403.615119794
 20
1454.0
 11
1403.615119794
 21
1314.0
  0
LINE
  8
0
  6
CONTINUOUS
 62
     1
 10
1404.389691586
 20
1312.211851525
 11
1409.965406547
 21
1291.403
  0
LINE
  8
0
  6
CONTINUOUS
 62
     1
 10
1390.089390396
 20
1312.408851525
 11
1404.336905595
 21
1312.408851525
  0
LINE
  8
0
  6
CONTINUOUS
 62
     1
 10
1415.393402083
 20
1311.660555123
 11
1420.795406547
 21
1291.5
  0
LINE
  8
0
  6
CONTINUOUS
 62
     1
 10
1409.965406547
 20
1291.403
 11
1415.393521287
 21
1311.661
  0
LINE
  8
0
  6
CONTINUOUS
 62
     1
 10
1528.0
 20
1432.517376915
 11
1528.0
 21
1336.541
  0
LINE
  8
0
  6
CONTINUOUS
 62
     1
 10
1527.999190206
 20
1336.541
 11
1668.000190206
 21
1336.541
  0
LINE
  8
0
  6
CONTINUOUS
 62
     1
 10
1527.999190206
 20
1336.541
 11
1527.999190206
 21
1384.041
  0
LINE
  8
0
  6
CONTINUOUS
 62
     1
 10
1478.0
 20
1339.5
 11
1528.0
 21
1339.5
  0
LINE
  8
0
  6
CONTINUOUS
 62
     1
 10
1400.219691586
 20
1314.0
 11
1478.0
 21
1314.0
  0
LINE
  8
0
  6
CONTINUOUS
 62
     1
 10
1478.0
 20
1384.0
 11
1478.0
 21
1314.0
  0
LINE
  8
0
  6
CONTINUOUS
 62
     1
 10
1293.05
 20
1454.0
 11
1403.615119794
 21
1454.0
  0
LINE
  8
0
  6
CONTINUOUS
 62
     1
 10
1303.85
 20
1314.0
 11
1400.219691586
 21
1314.0
  0
LINE
  8
0
  6
CONTINUOUS
 62
     1
 10
1404.284992776
 20
1456.5
 11
1388.6
 21
1456.5
  0
LINE
  8
0
  6
CONTINUOUS
 62
     1
 10
1426.174263377
 20
1456.5
 11
1426.174263377
 21
1383.5
  0
LINE
  8
0
  6
CONTINUOUS
 62
     1
 10
1482.11171708
 20
1455.691148475
 11
1487.687432042
 21
1476.5
  0
LINE
  8
0
  6
CONTINUOUS
 62
     1
 10
1487.687432042
 20
1476.5
 11
1493.04641589
 21
1456.5
  0
LINE
  8
0
  6
CONTINUOUS
 62
     1
 10
1482.11171708
 20
1455.691148475
 11
1482.11171708
 21
1384.0
  0
LINE
  8
0
  6
CONTINUOUS
 62
     1
 10
1487.687432042
 20
1476.5
 11
1487.687432042
 21
1384.0
  0
LINE
  8
0
  6
CONTINUOUS
 62
     1
 10
1482.11171708
 20
1455.691148475
 11
1482.11171708
 21
1384.0
  0
LINE
  8
0
  6
CONTINUOUS
 62
     1
 10
1493.066288871
 20
1456.5
 11
1493.066288871
 21
1383.5
  0
LINE
  8
0
  6
CONTINUOUS
 62
     1
 10
1487.645406547
 20
1291.7
 11
1493.004390396
 21
1311.7
  0
LINE
  8
0
  6
CONTINUOUS
 62
     1
 10
1482.243402083
 20
1311.860555123
 11
1487.645406547
 21
1291.7
  0
LINE
  8
0
  6
LTYPE4
 62
     2
 10
1426.154390396
 20
1311.5
 11
1482.204390396
 21
1311.5
  0
LINE
  8
0
  6
CONTINUOUS
 62
     1
 10
1528.0
 20
1432.517376915
 11
1524.327868375
 21
1432.517376915
  0
LINE
  8
0
  6
CONTINUOUS
 62
     1
 10
1516.127868375
 20
1432.517376915
 11
1512.87
 21
1432.517376915
  0
LINE
  8
0
  6
LTYPE3
 62
     2
 10
1628.000190206
 20
1218.041
 11
1628.000190206
 21
1454.909
  0
LINE
  8
1
  6
CONTINUOUS
 62
     2
 10
710.0
 20
1294.541
 11
710.0
 21
1103.541
  0
LINE
  8
1
  6
CONTINUOUS
 62
     2
 10
710.0
 20
1294.541
 11
710.0
 21
1104.3
  0
LINE
  8
1
  6
CONTINUOUS
 62
     2
 10
710.0
 20
1294.541
 11
710.0
 21
1058.0
  0
LINE
  8
1
  6
CONTINUOUS
 62
     2
 10
710.0
 20
1074.0
 11
729.318516526
 21
1068.823619098
  0
LINE
  8
1
  6
CONTINUOUS
 62
     2
 10
710.0
 20
1074.0
 11
729.318516526
 21
1079.176380902
  0
LINE
  8
1
  6
CONTINUOUS
 62
     2
 10
710.0
 20
1074.0
 11
1478.0
 21
1074.0
  0
LINE
  8
1
  6
CONTINUOUS
 62
     2
 10
1478.0
 20
1074.0
 11
1458.681483474
 21
1079.176380902
  0
LINE
  8
1
  6
CONTINUOUS
 62
     2
 10
1478.0
 20
1074.0
 11
1458.681483474
 21
1068.823619098
  0
LINE
  8
1
  6
CONTINUOUS
 62
     2
 10
1478.0
 20
1331.5
 11
1478.0
 21
1058.0
  0
TEXT
  8
1
  6
CONTINUOUS
 62
     3
 10
1081.2
 20
1082.0
 30
2.4
 40
28.0
  1
Ｃ
 50
0.0
 41
0.914285714
 51
0.0
  7
KANJI53
  0
LINE
  8
1
  6
CONTINUOUS
 62
     2
 10
1478.0
 20
1074.0
 11
1497.318516526
 21
1068.823619098
  0
LINE
  8
1
  6
CONTINUOUS
 62
     2
 10
1478.0
 20
1074.0
 11
1497.318516526
 21
1079.176380902
  0
LINE
  8
1
  6
CONTINUOUS
 62
     2
 10
1478.0
 20
1074.0
 11
1528.0
 21
1074.0
  0
LINE
  8
1
  6
CONTINUOUS
 62
     2
 10
1528.0
 20
1074.0
 11
1508.681483474
 21
1079.176380902
  0
LINE
  8
1
  6
CONTINUOUS
 62
     2
 10
1528.0
 20
1074.0
 11
1508.681483474
 21
1068.823619098
  0
LINE
  8
1
  6
CONTINUOUS
 62
     2
 10
1528.0
 20
1330.482623085
 11
1528.0
 21
1058.0
  0
LINE
  8
1
  6
CONTINUOUS
 62
     2
 10
1528.0
 20
1074.0
 11
1547.318516526
 21
1068.823619098
  0
LINE
  8
1
  6
CONTINUOUS
 62
     2
 10
1528.0
 20
1074.0
 11
1547.318516526
 21
1079.176380902
  0
LINE
  8
1
  6
CONTINUOUS
 62
     2
 10
1528.0
 20
1074.0
 11
1628.000190206
 21
1074.0
  0
LINE
  8
1
  6
CONTINUOUS
 62
     2
 10
1628.000190206
 20
1074.0
 11
1608.68167368
 21
1079.176380902
  0
LINE
  8
1
  6
CONTINUOUS
 62
     2
 10
1628.000190206
 20
1074.0
 11
1608.68167368
 21
1068.823619098
  0
LINE
  8
1
  6
CONTINUOUS
 62
     2
 10
1628.000190206
 20
1328.541
 11
1628.000190206
 21
1058.0
  0
TEXT
  8
1
  6
CONTINUOUS
 62
     3
 10
1537.200095103
 20
1082.0
 30
2.4
 40
28.0
  1
１００
 50
0.0
 41
0.914285714
 51
0.0
  7
KANJI53
  0
TEXT
  8
0
  6
CONTINUOUS
 62
     2
 10
1458.000190206
 20
1031.541
 30
2.4
 40
24.0
  1
ｍｉｎ、Ｐ
 50
0.0
 41
0.9
 51
0.0
  7
KANJI2
  0
LINE
  8
1
  6
CONTINUOUS
 62
     2
 10
710.0
 20
1007.0
 11
729.318516526
 21
1001.823619098
  0
LINE
  8
1
  6
CONTINUOUS
 62
     2
 10
710.0
 20
1007.0
 11
729.318516526
 21
1012.176380902
  0
LINE
  8
1
  6
CONTINUOUS
 62
     2
 10
710.0
 20
1007.0
 11
1628.000190206
 21
1007.0
  0
LINE
  8
1
  6
CONTINUOUS
 62
     2
 10
1628.000190206
 20
1007.0
 11
1608.68167368
 21
1012.176380902
  0
LINE
  8
1
  6
CONTINUOUS
 62
     2
 10
1628.000190206
 20
1007.0
 11
1608.68167368
 21
1001.823619098
  0
LINE
  8
1
  6
CONTINUOUS
 62
     2
 10
1628.000190206
 20
1066.0
 11
1628.000190206
 21
991.0
  0
TEXT
  8
1
  6
CONTINUOUS
 62
     3
 10
1100.200095103
 20
1015.0
 30
2.4
 40
28.0
  1
ｍｉｎ，Ｌ
 50
0.0
 41
0.914285714
 51
0.0
  7
KANJI53
  0
LINE
  8
1
  6
CONTINUOUS
 62
     2
 10
485.0
 20
999.0
 11
485.0
 21
932.0
  0
LINE
  8
1
  6
CONTINUOUS
 62
     2
 10
485.0
 20
948.0
 11
504.318516526
 21
942.823619098
  0
LINE
  8
1
  6
CONTINUOUS
 62
     2
 10
485.0
 20
948.0
 11
504.318516526
 21
953.176380902
  0
LINE
  8
1
  6
CONTINUOUS
 62
     2
 10
485.0
 20
948.0
 11
1628.000190206
 21
948.0
  0
LINE
  8
1
  6
CONTINUOUS
 62
     2
 10
1628.000190206
 20
948.0
 11
1608.68167368
 21
953.176380902
  0
LINE
  8
1
  6
CONTINUOUS
 62
     2
 10
1628.000190206
 20
948.0
 11
1608.68167368
 21
942.823619098
  0
LINE
  8
1
  6
CONTINUOUS
 62
     2
 10
1628.000190206
 20
999.0
 11
1628.000190206
 21
932.0
  0
TEXT
  8
1
  6
CONTINUOUS
 62
     3
 10
973.700095103
 20
956.0
 30
2.4
 40
28.0
  1
ｍｉｎ，ＡＬ
 50
0.0
 41
0.914285714
 51
0.0
  7
KANJI53
  0
LINE
  8
1
  6
CONTINUOUS
 62
     2
 10
1628.000190206
 20
948.0
 11
1647.318706732
 21
942.823619098
  0
LINE
  8
1
  6
CONTINUOUS
 62
     2
 10
1628.000190206
 20
948.0
 11
1647.318706732
 21
953.176380902
  0
LINE
  8
1
  6
CONTINUOUS
 62
     2
 10
1628.000190206
 20
948.0
 11
1678.000190206
 21
948.0
  0
LINE
  8
1
  6
CONTINUOUS
 62
     2
 10
1678.000190206
 20
948.0
 11
1658.68167368
 21
953.176380902
  0
LINE
  8
1
  6
CONTINUOUS
 62
     2
 10
1678.000190206
 20
948.0
 11
1658.68167368
 21
942.823619098
  0
LINE
  8
1
  6
CONTINUOUS
 62
     2
 10
1678.000190206
 20
1338.541
 11
1678.000190206
 21
932.0
  0
TEXT
  8
1
  6
CONTINUOUS
 62
     3
 10
1626.200190206
 20
956.0
 30
2.4
 40
28.0
  1
５０
 50
0.0
 41
0.914285714
 51
0.0
  7
KANJI53
  0
LINE
  8
0
  6
CONTINUOUS
 62
     1
 10
1526.001380412
 20
1698.509
 11
1526.001380412
 21
1707.009
  0
LINE
  8
0
  6
CONTINUOUS
 62
     1
 10
1496.407589945
 20
1799.468
 11
1491.048606097
 21
1779.468
  0
LINE
  8
0
  6
CONTINUOUS
 62
     1
 10
1496.407589945
 20
1799.468
 11
1496.407589945
 21
1706.968
  0
LINE
  8
0
  6
CONTINUOUS
 62
     1
 10
1514.130058582
 20
1755.347113682
 11
1514.130058582
 21
1757.247113682
  0
POINT
  8
0
  6
CONTINUOUS
 62
     1
 10
1514.130058582
 20
1757.247113682
  0
LINE
  8
0
  6
CONTINUOUS
 62
     1
 10
1514.130058582
 20
1757.247113682
 11
1522.330058582
 21
1757.247113682
  0
POINT
  8
0
  6
CONTINUOUS
 62
     1
 10
1522.330058582
 20
1757.247113682
  0
LINE
  8
0
  6
CONTINUOUS
 62
     1
 10
1522.330058582
 20
1757.247113682
 11
1522.330058582
 21
1755.547113682
  0
LINE
  8
0
  6
CONTINUOUS
 62
     1
 10
1510.872190206
 20
1755.485376915
 11
1496.407589945
 21
1799.468
  0
LINE
  8
0
  6
CONTINUOUS
 62
     1
 10
1510.872190206
 20
1755.485376915
 11
1510.872190206
 21
1706.968
  0
LINE
  8
0
  6
CONTINUOUS
 62
     1
 10
1522.330058582
 20
1757.247113682
 11
1522.330058582
 21
1706.968
  0
LINE
  8
0
  6
CONTINUOUS
 62
     1
 10
1514.130058582
 20
1755.485376915
 11
1514.130058582
 21
1706.968
  0
LINE
  8
0
  6
CONTINUOUS
 62
     1
 10
1480.113907287
 20
1778.659148475
 11
1485.689622248
 21
1799.468
  0
LINE
  8
0
  6
CONTINUOUS
 62
     1
 10
1485.689622248
 20
1799.468
 11
1491.048606097
 21
1779.468
  0
LINE
  8
0
  6
CONTINUOUS
 62
     1
 10
1480.113907287
 20
1778.659148475
 11
1480.113907287
 21
1706.968
  0
LINE
  8
0
  6
CONTINUOUS
 62
     1
 10
1485.689622248
 20
1799.468
 11
1485.689622248
 21
1706.968
  0
LINE
  8
0
  6
CONTINUOUS
 62
     1
 10
1480.113907287
 20
1778.659148475
 11
1480.113907287
 21
1706.968
  0
LINE
  8
0
  6
CONTINUOUS
 62
     1
 10
1491.068479078
 20
1779.468
 11
1491.068479078
 21
1706.468
  0
LINE
  8
0
  6
CONTINUOUS
 62
     1
 10
1526.002190206
 20
1755.485376915
 11
1522.330058582
 21
1755.485376915
  0
LINE
  8
0
  6
CONTINUOUS
 62
     1
 10
1514.130058582
 20
1755.485376915
 11
1510.872190206
 21
1755.485376915
  0
LINE
  8
0
  6
LTYPE3
 62
     2
 10
1627.000380412
 20
1608.309
 11
1627.000380412
 21
1863.209
  0
LINE
  8
0
  6
CONTINUOUS
 62
     1
 10
1676.002380412
 20
1682.009
 11
1676.002380412
 21
1732.009
  0
LINE
  8
0
  6
CONTINUOUS
 62
     1
 10
1666.002380412
 20
1732.009
 11
1666.002380412
 21
1682.009
  0
LINE
  8
0
  6
CONTINUOUS
 62
     1
 10
1537.000380412
 20
1750.485376915
 11
1526.002190206
 21
1750.485376915
  0
LINE
  8
0
  6
CONTINUOUS
 62
     1
 10
1537.000380412
 20
1732.009
 11
1676.002380412
 21
1732.009
  0
LINE
  8
0
  6
CONTINUOUS
 62
     1
 10
1526.002190206
 20
1755.485376915
 11
1526.002190206
 21
1680.909
  0
LINE
  8
0
  6
CONTINUOUS
 62
     1
 10
1526.001380412
 20
1680.909
 11
1526.001380412
 21
1707.009
  0
LINE
  8
6
  6
CONTINUOUS
 62
     2
 10
1459.072190206
 20
1614.468
 11
1458.572190206
 21
1614.468
  0
LINE
  8
0
  6
CONTINUOUS
 62
     1
 10
1496.407589945
 20
1614.468
 11
1491.048606097
 21
1634.468
  0
LINE
  8
0
  6
CONTINUOUS
 62
     1
 10
1496.407589945
 20
1614.468
 11
1496.407589945
 21
1706.968
  0
LINE
  8
0
  6
CONTINUOUS
 62
     1
 10
1514.130058582
 20
1658.588886318
 11
1514.130058582
 21
1656.688886318
  0
POINT
  8
0
  6
CONTINUOUS
 62
     1
 10
1514.130058582
 20
1656.688886318
  0
LINE
  8
0
  6
CONTINUOUS
 62
     1
 10
1514.130058582
 20
1656.688886318
 11
1522.330058582
 21
1656.688886318
  0
POINT
  8
0
  6
CONTINUOUS
 62
     1
 10
1522.330058582
 20
1656.688886318
  0
LINE
  8
0
  6
CONTINUOUS
 62
     1
 10
1522.330058582
 20
1656.688886318
 11
1522.330058582
 21
1658.388886318
  0
LINE
  8
0
  6
CONTINUOUS
 62
     1
 10
1510.872190206
 20
1658.450623085
 11
1496.407589945
 21
1614.468
  0
LINE
  8
0
  6
CONTINUOUS
 62
     1
 10
1510.872190206
 20
1658.450623085
 11
1510.872190206
 21
1706.968
  0
LINE
  8
0
  6
CONTINUOUS
 62
     1
 10
1522.330058582
 20
1656.688886318
 11
1522.330058582
 21
1706.968
  0
LINE
  8
0
  6
CONTINUOUS
 62
     1
 10
1514.130058582
 20
1658.450623085
 11
1514.130058582
 21
1706.968
  0
LINE
  8
0
  6
CONTINUOUS
 62
     1
 10
1480.113907287
 20
1635.276851525
 11
1485.689622248
 21
1614.468
  0
LINE
  8
0
  6
CONTINUOUS
 62
     1
 10
1485.689622248
 20
1614.468
 11
1491.048606097
 21
1634.468
  0
LINE
  8
0
  6
CONTINUOUS
 62
     1
 10
1480.113907287
 20
1635.276851525
 11
1480.113907287
 21
1706.968
  0
LINE
  8
0
  6
CONTINUOUS
 62
     1
 10
1485.689622248
 20
1614.468
 11
1485.689622248
 21
1706.968
  0
LINE
  8
0
  6
CONTINUOUS
 62
     1
 10
1480.113907287
 20
1635.276851525
 11
1480.113907287
 21
1706.968
  0
LINE
  8
0
  6
CONTINUOUS
 62
     1
 10
1491.068479078
 20
1634.468
 11
1491.068479078
 21
1707.468
  0
LINE
  8
0
  6
CONTINUOUS
 62
     1
 10
1526.002190206
 20
1658.450623085
 11
1522.330058582
 21
1658.450623085
  0
LINE
  8
0
  6
CONTINUOUS
 62
     1
 10
1514.130058582
 20
1658.450623085
 11
1510.872190206
 21
1658.450623085
  0
LINE
  8
0
  6
CONTINUOUS
 62
     1
 10
1537.000380412
 20
1663.450623085
 11
1526.002190206
 21
1663.450623085
  0
LINE
  8
0
  6
CONTINUOUS
 62
     1
 10
1526.002190206
 20
1658.450623085
 11
1526.002190206
 21
1733.027
  0
LINE
  8
0
  6
CONTINUOUS
 62
     1
 10
1537.000380412
 20
1682.009
 11
1676.002380412
 21
1682.009
  0
LINE
  8
6
  6
CONTINUOUS
 62
     2
 10
1459.072190206
 20
1799.468
 11
1458.572190206
 21
1799.468
  0
LINE
  8
0
  6
CONTINUOUS
 62
     2
 10
1418.797596753
 20
1799.468
 11
1496.407589945
 21
1799.468
  0
LINE
  8
0
  6
CONTINUOUS
 62
     2
 10
1480.113907287
 20
1778.659148475
 11
1427.113907287
 21
1778.859148475
  0
LINE
  8
0
  6
CONTINUOUS
 62
     2
 10
1418.797596753
 20
1614.468
 11
1496.407589945
 21
1614.468
  0
LINE
  8
0
  6
CONTINUOUS
 62
     2
 10
1424.156580602
 20
1634.468
 11
1480.113907287
 21
1634.468
  0
LINE
  8
0
  6
LTYPE1
 62
     2
 10
1604.500380412
 20
1682.009
 11
1604.500380412
 21
1732.009
  0
LINE
  8
0
  6
LTYPE1
 62
     2
 10
1649.500380412
 20
1682.009
 11
1649.500380412
 21
1732.009
  0
LINE
  8
1
  6
CONTINUOUS
 62
     2
 10
1627.000380412
 20
1674.009
 11
1627.000380412
 21
1515.359148475
  0
LINE
  8
1
  6
CONTINUOUS
 62
     2
 10
1627.000380412
 20
1531.359148475
 11
1607.681863887
 21
1536.535529377
  0
LINE
  8
1
  6
CONTINUOUS
 62
     2
 10
1627.000380412
 20
1531.359148475
 11
1607.681863887
 21
1526.182767573
  0
LINE
  8
1
  6
CONTINUOUS
 62
     2
 10
1627.000380412
 20
1531.359148475
 11
1537.000380412
 21
1531.359148475
  0
LINE
  8
1
  6
CONTINUOUS
 62
     2
 10
1537.000380412
 20
1531.359148475
 11
1556.318896938
 21
1526.182767573
  0
LINE
  8
1
  6
CONTINUOUS
 62
     2
 10
1537.000380412
 20
1531.359148475
 11
1556.318896938
 21
1536.535529377
  0
LINE
  8
1
  6
CONTINUOUS
 62
     2
 10
1537.000380412
 20
1655.450623085
 11
1537.000380412
 21
1515.359148475
  0
TEXT
  8
1
  6
CONTINUOUS
 62
     3
 10
1555.200380412
 20
1539.359148475
 30
2.4
 40
28.0
  1
９０
 50
0.0
 41
0.914285714
 51
0.0
  7
KANJI53
  0
LINE
  8
1
  6
CONTINUOUS
 62
     2
 10
1649.500380412
 20
1740.009
 11
1649.500380412
 21
1856.209
  0
LINE
  8
1
  6
CONTINUOUS
 62
     2
 10
1649.500380412
 20
1840.209
 11
1668.818896938
 21
1835.032619098
  0
LINE
  8
1
  6
CONTINUOUS
 62
     2
 10
1649.500380412
 20
1840.209
 11
1668.818896938
 21
1845.385380902
  0
LINE
  8
1
  6
CONTINUOUS
 62
     2
 10
1679.500380412
 20
1840.209
 11
1649.500380412
 21
1840.209
  0
LINE
  8
1
  6
CONTINUOUS
 62
     2
 10
1649.500380412
 20
1840.209
 11
1604.500380412
 21
1840.209
  0
LINE
  8
1
  6
CONTINUOUS
 62
     2
 10
1604.500380412
 20
1840.209
 11
1408.900380412
 21
1840.209
  0
LINE
  8
1
  6
CONTINUOUS
 62
     2
 10
1604.500380412
 20
1840.209
 11
1585.181863887
 21
1845.385380902
  0
LINE
  8
1
  6
CONTINUOUS
 62
     2
 10
1604.500380412
 20
1840.209
 11
1585.181863887
 21
1835.032619098
  0
LINE
  8
1
  6
CONTINUOUS
 62
     2
 10
1604.500380412
 20
1740.009
 11
1604.500380412
 21
1856.209
  0
TEXT
  8
1
  6
CONTINUOUS
 62
     3
 10
1408.900380412
 20
1848.209
 30
2.4
 40
28.0
  1
φ４５Ｈ１０
 50
0.0
 41
0.914285714
 51
0.0
  7
KANJI53
  0
LINE
  8
0
  6
LTYPE3
 62
     2
 10
1695.072190206
 20
1706.968
 11
1413.000190206
 21
1706.968
  0
LINE
  8
1
  6
CONTINUOUS
 62
     2
 10
1178.000190206
 20
1409.541
 11
1190.616691209
 21
1425.05950194
  0
LINE
  8
1
  6
CONTINUOUS
 62
     2
 10
1178.000190206
 20
1409.541
 11
1181.167149612
 21
1429.28866741
  0
LINE
  8
1
  6
CONTINUOUS
 62
     2
 10
1178.000190206
 20
1409.541
 11
1242.000190206
 21
1552.541
  0
LINE
  8
1
  6
CONTINUOUS
 62
     2
 10
1242.000190206
 20
1552.541
 11
1311.600190206
 21
1552.541
  0
TEXT
  8
1
  6
CONTINUOUS
 62
     3
 10
1242.000190206
 20
1560.541
 30
2.4
 40
24.0
  1
給脂口
 50
0.0
 41
0.9
 51
0.0
  7
KANJI2
  0
TEXT
  8
0
  6
CONTINUOUS
 62
     2
 10
1615.0
 20
626.0
 30
2.4
 40
24.0
  1
１１２
 50
0.0
 41
0.9
 51
0.0
  7
KANJI2
  0
LINE
  8
0
  6
CONTINUOUS
 62
     1
 10
640.0
 20
1249.0
 11
640.0
 21
1538.0
  0
LINE
  8
0
  6
CONTINUOUS
 62
     1
 10
640.0
 20
1478.0
 11
640.0
 21
1749.0
  0
LINE
  8
0
  6
CONTINUOUS
 62
     1
 10
640.0
 20
1749.0
 11
590.0
 21
1749.0
  0
LINE
  8
0
  6
CONTINUOUS
 62
     1
 10
502.0
 20
1249.0
 11
502.0
 21
1538.0
  0
LINE
  8
0
  6
CONTINUOUS
 62
     1
 10
502.0
 20
1478.0
 11
502.0
 21
1674.0
  0
LINE
  8
0
  6
CONTINUOUS
 62
     1
 10
485.0
 20
1249.0
 11
485.0
 21
1538.0
  0
LINE
  8
0
  6
CONTINUOUS
 62
     1
 10
485.0
 20
1478.0
 11
485.0
 21
1674.0
  0
LINE
  8
0
  6
CONTINUOUS
 62
     1
 10
607.0
 20
1614.0
 11
536.0
 21
1614.0
  0
LINE
  8
0
  6
CONTINUOUS
 62
     1
 10
607.0
 20
1614.0
 11
607.0
 21
1494.0
  0
LINE
  8
0
  6
CONTINUOUS
 62
     1
 10
607.0
 20
1494.0
 11
536.0
 21
1494.0
  0
LINE
  8
0
  6
CONTINUOUS
 62
     1
 10
536.0
 20
1494.0
 11
536.0
 21
1614.0
  0
LINE
  8
0
  6
LTYPE3
 62
     2
 10
612.0
 20
1504.0
 11
588.2
 21
1504.0
  0
LINE
  8
0
  6
LTYPE3
 62
     2
 10
558.2
 20
1604.0
 11
531.2
 21
1604.0
  0
LINE
  8
0
  6
LTYPE3
 62
     2
 10
612.2
 20
1604.0
 11
584.2
 21
1604.0
  0
LINE
  8
0
  6
LTYPE3
 62
     2
 10
597.0
 20
1515.8
 11
597.0
 21
1494.0
  0
LINE
  8
0
  6
LTYPE3
 62
     2
 10
597.0
 20
1614.0
 11
597.0
 21
1591.8
  0
LINE
  8
0
  6
LTYPE3
 62
     2
 10
546.0
 20
1592.8
 11
546.0
 21
1614.0
  0
LINE
  8
0
  6
LTYPE3
 62
     2
 10
546.0
 20
1494.0
 11
546.0
 21
1514.8
  0
LINE
  8
0
  6
LTYPE3
 62
     2
 10
558.2
 20
1504.0
 11
533.2
 21
1504.0
  0
CIRCLE
  8
0
  6
CONTINUOUS
 62
     1
 10
610.0
 20
1779.0
 40
17.5
  0
LINE
  8
0
  6
CONTINUOUS
 62
     1
 10
610.0
 20
1749.0
 11
625.0
 21
1749.0
  0
LINE
  8
0
  6
CONTINUOUS
 62
     1
 10
610.0
 20
1760.0
 11
623.751706485
 21
1760.0
  0
LINE
  8
0
  6
CONTINUOUS
 62
     1
 10
623.751706485
 20
1760.0
 11
610.0
 21
1761.5
  0
LINE
  8
0
  6
CONTINUOUS
 62
     1
 10
624.689625645
 20
1751.735028154
 11
623.751706485
 21
1760.0
  0
LINE
  8
0
  6
CONTINUOUS
 62
     1
 10
625.0
 20
1749.0
 11
624.689625645
 21
1751.735028154
  0
ARC
  8
0
  6
CONTINUOUS
 62
     1
 10
626.297773229
 20
1751.927087564
 40
1.6
 50
120.593314844
 51
186.768821444
  0
ARC
  8
0
  6
CONTINUOUS
 62
     1
 10
610.0
 20
1779.0
 40
30.0
 50
301.047754584
 51
0.0
  0
LINE
  8
0
  6
CONTINUOUS
 62
     1
 10
610.0
 20
1749.0
 11
595.0
 21
1749.0
  0
LINE
  8
0
  6
CONTINUOUS
 62
     1
 10
610.0
 20
1760.0
 11
596.248293515
 21
1760.0
  0
LINE
  8
0
  6
CONTINUOUS
 62
     1
 10
596.248293515
 20
1760.0
 11
610.0
 21
1761.5
  0
LINE
  8
0
  6
CONTINUOUS
 62
     1
 10
595.310374355
 20
1751.735028154
 11
596.248293515
 21
1760.0
  0
LINE
  8
0
  6
CONTINUOUS
 62
     1
 10
595.0
 20
1749.0
 11
595.310374355
 21
1751.735028154
  0
ARC
  8
0
  6
CONTINUOUS
 62
     1
 10
593.702226771
 20
1751.927087564
 40
1.6
 50
353.231178556
 51
59.406685156
  0
ARC
  8
0
  6
CONTINUOUS
 62
     1
 10
610.0
 20
1779.0
 40
30.0
 50
0.0
 51
239.0231413
  0
LINE
  8
0
  6
LTYPE3
 62
     2
 10
610.0
 20
1700.8
 11
610.0
 21
1815.8
  0
LINE
  8
0
  6
LTYPE3
 62
     2
 10
648.0
 20
1779.0
 11
574.0
 21
1779.0
  0
LINE
  8
0
  6
CONTINUOUS
 62
     1
 10
617.0
 20
1680.0
 11
617.0
 21
1749.0
  0
ARC
  8
0
  6
CONTINUOUS
 62
     1
 10
611.0
 20
1680.0
 40
6.0
 50
270.0
 51
0.0
  0
LINE
  8
0
  6
CONTINUOUS
 62
     1
 10
611.0
 20
1674.0
 11
485.0
 21
1674.0
  0
ARC
  8
0
  6
CONTINUOUS
 62
     1
 10
584.0
 20
1680.0
 40
6.0
 50
270.0
 51
0.0
  0
LINE
  8
0
  6
CONTINUOUS
 62
     1
 10
590.0
 20
1680.0
 11
590.0
 21
1749.0
  0
LINE
  8
0
  6
CONTINUOUS
 62
     1
 10
640.0
 20
1490.0
 11
640.0
 21
1740.0
  0
LINE
  8
0
  6
CONTINUOUS
 62
     1
 10
435.0
 20
1595.0
 11
435.0
 21
1635.0
  0
LINE
  8
0
  6
CONTINUOUS
 62
     1
 10
477.0
 20
1576.0
 11
477.0
 21
1654.0
  0
LINE
  8
0
  6
CONTINUOUS
 62
     1
 10
477.0
 20
1635.0
 11
435.0
 21
1635.0
  0
LINE
  8
0
  6
CONTINUOUS
 62
     1
 10
477.0
 20
1595.0
 11
435.0
 21
1595.0
  0
LINE
  8
0
  6
CONTINUOUS
 62
     1
 10
485.0
 20
1654.0
 11
477.0
 21
1654.0
  0
LINE
  8
0
  6
CONTINUOUS
 62
     1
 10
485.0
 20
1576.0
 11
477.0
 21
1576.0
  0
LINE
  8
0
  6
CONTINUOUS
 62
     1
 10
485.0
 20
1574.0
 11
479.0
 21
1574.0
  0
LINE
  8
0
  6
CONTINUOUS
 62
     1
 10
479.0
 20
1508.0
 11
479.0
 21
1574.0
  0
LINE
  8
0
  6
CONTINUOUS
 62
     1
 10
485.0
 20
1508.0
 11
479.0
 21
1508.0
  0
LINE
  8
0
  6
LTYPE3
 62
     2
 10
511.0
 20
1545.0
 11
472.6
 21
1545.0
  0
LINE
  8
0
  6
CONTINUOUS
 62
     2
 10
640.0
 20
1761.0
 11
640.0
 21
1890.5
  0
LINE
  8
0
  6
CONTINUOUS
 62
     2
 10
640.0
 20
1878.5
 11
620.681483474
 21
1883.676380902
  0
LINE
  8
0
  6
CONTINUOUS
 62
     2
 10
640.0
 20
1878.5
 11
620.681483474
 21
1873.323619098
  0
LINE
  8
0
  6
CONTINUOUS
 62
     2
 10
640.0
 20
1878.5
 11
435.0
 21
1878.5
  0
LINE
  8
0
  6
CONTINUOUS
 62
     2
 10
435.0
 20
1878.5
 11
454.318516526
 21
1873.323619098
  0
LINE
  8
0
  6
CONTINUOUS
 62
     2
 10
435.0
 20
1878.5
 11
454.318516526
 21
1883.676380902
  0
LINE
  8
0
  6
CONTINUOUS
 62
     2
 10
435.0
 20
1647.0
 11
435.0
 21
1890.5
  0
TEXT
  8
0
  6
CONTINUOUS
 62
     2
 10
503.5
 20
1886.5
 30
1.6
 40
24.0
  1
２０５
 50
0.0
 41
0.9
 51
0.0
  7
KANJI56
  0
LINE
  8
0
  6
CONTINUOUS
 62
     2
 10
452.0
 20
1637.0
 11
444.660604836
 21
1655.604657444
  0
LINE
  8
0
  6
CONTINUOUS
 62
     2
 10
452.0
 20
1637.0
 11
436.341568617
 21
1649.442408394
  0
LINE
  8
0
  6
CONTINUOUS
 62
     2
 10
452.0
 20
1637.0
 11
352.0
 21
1772.0
  0
LINE
  8
0
  6
CONTINUOUS
 62
     2
 10
352.0
 20
1772.0
 11
210.4
 21
1772.0
  0
TEXT
  8
0
  6
CONTINUOUS
 62
     2
 10
210.4
 20
1780.0
 30
2.4
 40
24.0
  1
手動軸カバー
 50
0.0
 41
0.9
 51
0.0
  7
KANJI2
  0
LINE
  8
0
  6
CONTINUOUS
 62
     2
 10
573.5
 20
1602.0
 11
566.707359852
 21
1620.811167955
  0
LINE
  8
0
  6
CONTINUOUS
 62
     2
 10
573.5
 20
1602.0
 11
558.211817096
 21
1614.894629249
  0
LINE
  8
0
  6
CONTINUOUS
 62
     2
 10
573.5
 20
1602.0
 11
378.5
 21
1882.0
  0
LINE
  8
0
  6
CONTINUOUS
 62
     2
 10
378.5
 20
1882.0
 11
308.9
 21
1882.0
  0
TEXT
  8
0
  6
CONTINUOUS
 62
     2
 10
308.9
 20
1890.0
 30
2.4
 40
24.0
  1
点検口
 50
0.0
 41
0.9
 51
0.0
  7
KANJI2
  0
LINE
  8
0
  6
CONTINUOUS
 62
     1
 10
640.0
 20
1488.15
 11
640.0
 21
1740.0
  0
LINE
  8
0
  6
CONTINUOUS
 62
     1
 10
640.0
 20
1490.0
 11
640.0
 21
1740.0
  0
LINE
  8
0
  6
CONTINUOUS
 62
     1
 10
640.0
 20
1490.0
 11
651.0
 21
1490.0
  0
LINE
  8
0
  6
CONTINUOUS
 62
     1
 10
640.0
 20
1740.0
 11
656.0
 21
1740.0
  0
LINE
  8
0
  6
CONTINUOUS
 62
     1
 10
656.0
 20
1490.0
 11
656.0
 21
1740.0
  0
LINE
  8
0
  6
CONTINUOUS
 62
     1
 10
640.0
 20
1490.0
 11
656.0
 21
1490.0
  0
LINE
  8
0
  6
CONTINUOUS
 62
     1
 10
873.0
 20
1515.0
 11
873.0
 21
1515.0
  0
LINE
  8
0
  6
LTYPE2
 62
     2
 10
535.0
 20
1279.0
 11
450.0
 21
1279.0
  0
LINE
  8
0
  6
LTYPE2
 62
     2
 10
525.0
 20
1489.0
 11
449.0
 21
1489.0
  0
LINE
  8
0
  6
LTYPE3
 62
     2
 10
1079.0
 20
1615.0
 11
414.0
 21
1615.0
  0
LINE
  8
0
  6
CONTINUOUS
 62
     1
 10
1537.000380412
 20
1732.009
 11
1537.000380412
 21
1750.485376915
  0
LINE
  8
0
  6
CONTINUOUS
 62
     1
 10
1537.000380412
 20
1663.450623085
 11
1537.000380412
 21
1682.009
  0
LINE
  8
1
  6
CONTINUOUS
 62
     2
 10
1684.002380412
 20
1732.009
 11
1749.000380412
 21
1732.009
  0
LINE
  8
1
  6
CONTINUOUS
 62
     2
 10
1733.000380412
 20
1732.009
 11
1727.82399951
 21
1712.690483474
  0
LINE
  8
1
  6
CONTINUOUS
 62
     2
 10
1733.000380412
 20
1732.009
 11
1738.176761315
 21
1712.690483474
  0
LINE
  8
1
  6
CONTINUOUS
 62
     2
 10
1733.000380412
 20
1732.009
 11
1733.000380412
 21
1682.009
  0
LINE
  8
1
  6
CONTINUOUS
 62
     2
 10
1733.000380412
 20
1682.009
 11
1738.176761315
 21
1701.327516526
  0
LINE
  8
1
  6
CONTINUOUS
 62
     2
 10
1733.000380412
 20
1682.009
 11
1727.82399951
 21
1701.327516526
  0
LINE
  8
1
  6
CONTINUOUS
 62
     2
 10
1684.002380412
 20
1682.009
 11
1749.000380412
 21
1682.009
  0
TEXT
  8
1
  6
CONTINUOUS
 62
     3
 10
1725.000380412
 20
1680.209
 30
2.4
 40
28.0
  1
５０
 50
90.0
 41
0.914285714
 51
0.0
  7
KANJI53
  0
TEXT
  8
0
  6
CONTINUOUS
 62
     2
 10
964.5
 20
680.4
 30
2.4
 40
24.0
  1
　３００
 50
0.0
 41
0.9
 51
0.0
  7
KANJI2
  0
TEXT
  8
0
  6
CONTINUOUS
 62
     2
 10
964.5
 20
624.4
 30
2.4
 40
24.0
  1
　５００
 50
0.0
 41
0.9
 51
0.0
  7
KANJI2
  0
TEXT
  8
0
  6
CONTINUOUS
 62
     2
 10
962.1
 20
567.8
 30
2.4
 40
24.0
  1
　７００
 50
0.0
 41
0.9
 51
0.0
  7
KANJI2
  0
TEXT
  8
0
  6
CONTINUOUS
 62
     2
 10
1127.002380412
 20
516.009
 30
2.4
 40
24.0
  1
２０２６
 50
0.0
 41
0.9
 51
0.0
  7
KANJI2
  0
TEXT
  8
0
  6
CONTINUOUS
 62
     2
 10
1439.002380412
 20
514.009
 30
2.4
 40
24.0
  1
１４７０
 50
0.0
 41
0.9
 51
0.0
  7
KANJI2
  0
TEXT
  8
0
  6
CONTINUOUS
 62
     2
 10
957.002380412
 20
514.009
 30
2.4
 40
24.0
  1
１０００
 50
0.0
 41
0.9
 51
0.0
  7
KANJI2
  0
TEXT
  8
0
  6
CONTINUOUS
 62
     2
 10
1283.002380412
 20
511.009
 30
2.4
 40
24.0
  1
１８０１
 50
0.0
 41
0.9
 51
0.0
  7
KANJI2
  0
TEXT
  8
0
  6
CONTINUOUS
 62
     2
 10
1770.002380412
 20
511.009
 30
2.4
 40
24.0
  1
２４２
 50
0.0
 41
0.9
 51
0.0
  7
KANJI2
  0
TEXT
  8
0
  6
CONTINUOUS
 62
     2
 10
1771.002380412
 20
625.009
 30
2.4
 40
24.0
  1
２１２
 50
0.0
 41
0.9
 51
0.0
  7
KANJI2
  0
TEXT
  8
0
  6
CONTINUOUS
 62
     2
 10
1620.002380412
 20
509.009
 30
2.4
 40
24.0
  1
２３１
 50
0.0
 41
0.9
 51
0.0
  7
KANJI2
  0
TEXT
  8
0
  6
CONTINUOUS
 62
     2
 10
1442.1
 20
684.0
 30
2.4
 40
24.0
  1
　　７３０
 50
0.0
 41
0.9
 51
0.0
  7
KANJI2
  0
TEXT
  8
0
  6
CONTINUOUS
 62
     2
 10
1442.1
 20
628.0
 30
2.4
 40
24.0
  1
　　９３０
 50
0.0
 41
0.9
 51
0.0
  7
KANJI2
  0
TEXT
  8
0
  6
CONTINUOUS
 62
     2
 10
1282.5
 20
682.6
 30
2.4
 40
24.0
  1
　８８０
 50
0.0
 41
0.9
 51
0.0
  7
KANJI2
  0
TEXT
  8
0
  6
CONTINUOUS
 62
     2
 10
1591.4
 20
682.3
 30
2.4
 40
24.0
  1
　　　　５０
 50
0.0
 41
0.9
 51
0.0
  7
KANJI2
  0
TEXT
  8
0
  6
CONTINUOUS
 62
     2
 10
1616.8
 20
566.0
 30
2.4
 40
24.0
  1
１４８
 50
0.0
 41
0.9
 51
0.0
  7
KANJI2
  0
TEXT
  8
0
  6
CONTINUOUS
 62
     2
 10
1769.6
 20
569.4
 30
2.4
 40
24.0
  1
２２４
 50
0.0
 41
0.9
 51
0.0
  7
KANJI2
  0
TEXT
  8
0
  6
CONTINUOUS
 62
     2
 10
1278.002380412
 20
625.009
 30
2.4
 40
24.0
  1
１１４２
 50
0.0
 41
0.9
 51
0.0
  7
KANJI2
  0
TEXT
  8
0
  6
CONTINUOUS
 62
     2
 10
1121.7
 20
625.0
 30
2.4
 40
24.0
  1
１３６７
 50
0.0
 41
0.9
 51
0.0
  7
KANJI2
  0
TEXT
  8
0
  6
CONTINUOUS
 62
     2
 10
1437.3
 20
567.8
 30
2.4
 40
24.0
  1
１１７０
 50
0.0
 41
0.9
 51
0.0
  7
KANJI2
  0
CIRCLE
  8
0
  6
CONTINUOUS
 62
     1
 10
2090.802380412
 20
1379.009
 40
55.0
  0
LINE
  8
0
  6
LTYPE1
 62
     2
 10
2180.802380412
 20
1356.509
 11
2180.802380412
 21
1401.509
  0
LINE
  8
0
  6
LTYPE1
 62
     2
 10
2180.802380412
 20
1401.509
 11
2230.802380412
 21
1401.509
  0
LINE
  8
0
  6
LTYPE1
 62
     2
 10
2180.802380412
 20
1356.509
 11
2230.802380412
 21
1356.509
  0
LINE
  8
0
  6
CONTINUOUS
 62
     1
 10
2230.802380412
 20
1334.009
 11
2230.802380412
 21
1424.009
  0
LINE
  8
0
  6
LTYPE3
 62
     2
 10
1915.302380412
 20
1379.009
 11
2254.802380412
 21
1379.009
  0
LINE
  8
0
  6
CONTINUOUS
 62
     1
 10
2125.802380412
 20
1336.582593129
 11
2125.802380412
 21
1421.309
  0
LINE
  8
0
  6
CONTINUOUS
 62
     1
 10
2055.802380412
 20
1338.082593129
 11
2055.802380412
 21
1420.309
  0
ARC
  8
0
  6
CONTINUOUS
 62
     1
 10
2090.802380412
 20
1379.009
 40
45.0
 50
38.874498799
 51
141.540385828
  0
ARC
  8
0
  6
CONTINUOUS
 62
     1
 10
2090.802380412
 20
1379.009
 40
45.0
 50
218.942441269
 51
321.057558731
  0
LINE
  8
0
  6
LTYPE1
 62
     2
 10
2055.802380412
 20
1354.009
 11
2125.802380412
 21
1354.009
  0
LINE
  8
0
  6
LTYPE1
 62
     2
 10
2055.802380412
 20
1404.009
 11
2125.802380412
 21
1404.009
  0
ARC
  8
0
  6
CONTINUOUS
 62
     1
 10
1972.802380412
 20
1256.009
 40
12.0
 50
180.0
 51
270.0
  0
ARC
  8
0
  6
CONTINUOUS
 62
     1
 10
2208.802380412
 20
1256.009
 40
12.0
 50
270.0
 51
0.0
  0
LINE
  8
0
  6
LTYPE1
 62
     2
 10
2000.802380412
 20
1356.509
 11
2000.802380412
 21
1401.509
  0
LINE
  8
0
  6
LTYPE1
 62
     2
 10
2000.802380412
 20
1401.509
 11
1950.802380412
 21
1401.509
  0
LINE
  8
0
  6
LTYPE1
 62
     2
 10
2000.802380412
 20
1356.509
 11
1950.802380412
 21
1356.509
  0
LINE
  8
0
  6
CONTINUOUS
 62
     2
 10
1960.802380412
 20
1244.009
 11
1960.802380412
 21
1122.709
  0
LINE
  8
0
  6
CONTINUOUS
 62
     2
 10
1960.802380412
 20
1134.709
 11
1980.120896938
 21
1129.532619098
  0
LINE
  8
0
  6
CONTINUOUS
 62
     2
 10
1960.802380412
 20
1134.709
 11
1980.120896938
 21
1139.885380902
  0
LINE
  8
0
  6
CONTINUOUS
 62
     2
 10
1960.802380412
 20
1134.709
 11
2220.802380412
 21
1134.709
  0
LINE
  8
0
  6
CONTINUOUS
 62
     2
 10
2220.802380412
 20
1134.709
 11
2201.483863887
 21
1139.885380902
  0
LINE
  8
0
  6
CONTINUOUS
 62
     2
 10
2220.802380412
 20
1134.709
 11
2201.483863887
 21
1129.532619098
  0
LINE
  8
0
  6
CONTINUOUS
 62
     2
 10
2220.802380412
 20
1244.009
 11
2220.802380412
 21
1122.709
  0
TEXT
  8
0
  6
CONTINUOUS
 62
     2
 10
2056.802380412
 20
1142.709
 30
1.6
 40
24.0
  1
２６０
 50
0.0
 41
0.9
 51
0.0
  7
KANJI56
  0
LINE
  8
0
  6
CONTINUOUS
 62
     2
 10
1950.802380412
 20
1322.009
 11
1950.802380412
 21
1027.709
  0
LINE
  8
0
  6
CONTINUOUS
 62
     2
 10
1950.802380412
 20
1039.709
 11
1970.120896938
 21
1034.532619098
  0
LINE
  8
0
  6
CONTINUOUS
 62
     2
 10
1950.802380412
 20
1039.709
 11
1970.120896938
 21
1044.885380902
  0
LINE
  8
0
  6
CONTINUOUS
 62
     2
 10
1950.802380412
 20
1039.709
 11
2230.802380412
 21
1039.709
  0
LINE
  8
0
  6
CONTINUOUS
 62
     2
 10
2230.802380412
 20
1039.709
 11
2211.483863887
 21
1044.885380902
  0
LINE
  8
0
  6
CONTINUOUS
 62
     2
 10
2230.802380412
 20
1039.709
 11
2211.483863887
 21
1034.532619098
  0
LINE
  8
0
  6
CONTINUOUS
 62
     2
 10
2230.802380412
 20
1322.009
 11
2230.802380412
 21
1027.709
  0
TEXT
  8
0
  6
CONTINUOUS
 62
     2
 10
2056.802380412
 20
1047.709
 30
1.6
 40
24.0
  1
２８０
 50
0.0
 41
0.9
 51
0.0
  7
KANJI56
  0
LINE
  8
0
  6
CONTINUOUS
 62
     1
 10
1960.802380412
 20
1256.009
 11
1960.802380412
 21
1333.134113365
  0
LINE
  8
0
  6
CONTINUOUS
 62
     1
 10
2220.802380412
 20
1256.009
 11
2220.802380412
 21
1333.134113365
  0
ARC
  8
0
  6
CONTINUOUS
 62
     1
 10
2025.888814518
 20
1529.488995225
 40
1.0
 50
40.0
 51
130.0
  0
LINE
  8
0
  6
CONTINUOUS
 62
     2
 10
1938.802380412
 20
1401.509
 11
1870.309681395
 21
1401.509
  0
LINE
  8
0
  6
CONTINUOUS
 62
     2
 10
1882.309681395
 20
1401.509
 11
1887.486062297
 21
1420.827516526
  0
LINE
  8
0
  6
CONTINUOUS
 62
     2
 10
1882.309681395
 20
1401.509
 11
1877.133300493
 21
1420.827516526
  0
LINE
  8
0
  6
CONTINUOUS
 62
     2
 10
1882.309681395
 20
1499.509
 11
1882.309681395
 21
1326.509
  0
LINE
  8
0
  6
CONTINUOUS
 62
     2
 10
1882.309681395
 20
1356.509
 11
1877.133300493
 21
1337.190483474
  0
LINE
  8
0
  6
CONTINUOUS
 62
     2
 10
1882.309681395
 20
1356.509
 11
1887.486062297
 21
1337.190483474
  0
LINE
  8
0
  6
CONTINUOUS
 62
     2
 10
1938.802380412
 20
1356.509
 11
1870.309681395
 21
1356.509
  0
TEXT
  8
0
  6
CONTINUOUS
 62
     2
 10
1874.309681395
 20
1431.509
 30
1.6
 40
24.0
  1
φ４５Ｈ１０深さ５０
 50
90.0
 41
0.9
 51
0.0
  7
KANJI56
  0
CIRCLE
  8
0
  6
CONTINUOUS
 62
     1
 10
2090.802380412
 20
1379.009
 40
90.0
  0
LINE
  8
0
  6
CONTINUOUS
 62
     1
 10
2090.802380412
 20
1244.009
 11
2208.802380412
 21
1244.009
  0
LINE
  8
0
  6
CONTINUOUS
 62
     1
 10
1972.802380412
 20
1244.009
 11
2090.802380412
 21
1244.009
  0
LINE
  8
0
  6
CONTINUOUS
 62
     1
 10
2230.802380412
 20
1424.009
 11
2177.603598441
 21
1428.663290336
  0
LINE
  8
0
  6
CONTINUOUS
 62
     1
 10
2230.802380412
 20
1334.009
 11
2177.603598441
 21
1329.354709664
  0
LINE
  8
0
  6
CONTINUOUS
 62
     1
 10
1950.802380412
 20
1334.009
 11
2004.001162384
 21
1329.354709664
  0
LINE
  8
1
  6
CONTINUOUS
 62
     2
 10
1848.002380412
 20
1753.309
 11
1848.252380412
 21
1753.309
  0
LINE
  8
1
  6
CONTINUOUS
 62
     2
 10
1848.002380412
 20
1703.309
 11
1848.252380412
 21
1703.309
  0
LINE
  8
0
  6
LTYPE5
 62
     2
 10
2090.802380412
 20
1525.009
 11
2090.802380412
 21
1539.009
  0
LINE
  8
0
  6
LTYPE5
 62
     2
 10
2090.802380412
 20
1479.009
 11
2090.802380412
 21
1806.214692517
  0
LINE
  8
0
  6
LTYPE5
 62
     2
 10
1943.802380412
 20
1610.009
 11
2248.802380412
 21
1610.009
  0
LINE
  8
0
  6
CONTINUOUS
 62
     1
 10
2220.802380412
 20
1424.883886635
 11
2220.802380412
 21
1539.009
  0
LINE
  8
0
  6
CONTINUOUS
 62
     1
 10
2220.802380412
 20
1479.009
 11
2220.802380412
 21
1684.842147735
  0
LINE
  8
0
  6
CONTINUOUS
 62
     1
 10
1960.802380412
 20
1476.443666527
 11
1960.802380412
 21
1539.009
  0
LINE
  8
0
  6
CONTINUOUS
 62
     1
 10
1960.802380412
 20
1479.009
 11
1960.802380412
 21
1684.842147735
  0
LINE
  8
0
  6
LTYPE3
 62
     2
 10
2090.802380412
 20
1187.309
 11
2090.802380412
 21
1539.009
  0
LINE
  8
0
  6
LTYPE3
 62
     2
 10
2090.802380412
 20
1479.009
 11
2090.802380412
 21
1536.109
  0
ARC
  8
0
  6
CONTINUOUS
 62
     1
 10
2090.802380412
 20
1610.009
 40
125.0
 50
280.557968545
 51
0.0
  0
ARC
  8
0
  6
CONTINUOUS
 62
     1
 10
2127.802380412
 20
1793.714692517
 40
3.0
 50
0.0
 51
90.0
  0
ARC
  8
0
  6
CONTINUOUS
 62
     1
 10
2134.802380412
 20
1796.714692517
 40
6.0
 50
0.0
 51
90.0
  0
ARC
  8
0
  6
CONTINUOUS
 62
     1
 10
2134.802380412
 20
1801.009
 40
6.0
 50
0.0
 51
90.0
  0
LINE
  8
0
  6
CONTINUOUS
 62
     1
 10
2134.802380412
 20
1807.009
 11
2090.802380412
 21
1807.009
  0
LINE
  8
0
  6
CONTINUOUS
 62
     1
 10
2090.802380412
 20
1802.714692517
 11
2134.802380412
 21
1802.714692517
  0
LINE
  8
0
  6
CONTINUOUS
 62
     1
 10
2090.802380412
 20
1796.714692517
 11
2127.802380412
 21
1796.714692517
  0
ARC
  8
0
  6
CONTINUOUS
 62
     1
 10
2053.802380412
 20
1793.714692517
 40
3.0
 50
90.0
 51
180.0
  0
ARC
  8
0
  6
CONTINUOUS
 62
     1
 10
2046.802380412
 20
1796.714692517
 40
6.0
 50
90.0
 51
180.0
  0
ARC
  8
0
  6
CONTINUOUS
 62
     1
 10
2046.802380412
 20
1801.009
 40
6.0
 50
90.0
 51
180.0
  0
LINE
  8
0
  6
CONTINUOUS
 62
     1
 10
2046.802380412
 20
1807.009
 11
2090.802380412
 21
1807.009
  0
LINE
  8
0
  6
CONTINUOUS
 62
     1
 10
2090.802380412
 20
1802.714692517
 11
2046.802380412
 21
1802.714692517
  0
LINE
  8
0
  6
CONTINUOUS
 62
     1
 10
2090.802380412
 20
1796.714692517
 11
2053.802380412
 21
1796.714692517
  0
CIRCLE
  8
0
  6
CONTINUOUS
 62
     1
 10
2090.802380412
 20
1610.009
 40
20.0
  0
ARC
  8
0
  6
CONTINUOUS
 62
     1
 10
2005.802380412
 20
1610.009
 40
20.0
 50
90.0
 51
270.0
  0
ARC
  8
0
  6
CONTINUOUS
 62
     1
 10
2133.302380412
 20
1536.396840678
 40
20.0
 50
210.0
 51
30.0
  0
ARC
  8
0
  6
CONTINUOUS
 62
     1
 10
2133.302380412
 20
1683.621159322
 40
20.0
 50
330.0
 51
150.0
  0
LINE
  8
0
  6
CONTINUOUS
 62
     1
 10
2005.802380412
 20
1630.009
 11
2079.255375029
 21
1630.009
  0
LINE
  8
0
  6
CONTINUOUS
 62
     1
 10
2115.981872337
 20
1693.621159322
 11
2079.255375029
 21
1630.009
  0
LINE
  8
0
  6
CONTINUOUS
 62
     1
 10
2005.802380412
 20
1590.009
 11
2079.255375029
 21
1590.009
  0
LINE
  8
0
  6
CONTINUOUS
 62
     1
 10
2115.981872337
 20
1526.396840678
 11
2079.255375029
 21
1590.009
  0
CIRCLE
  8
0
  6
CONTINUOUS
 62
     1
 10
2150.802380412
 20
1610.009
 40
10.0
  0
LINE
  8
0
  6
CONTINUOUS
 62
     2
 10
2150.802380412
 20
1625.009
 11
2150.802380412
 21
1595.009
  0
LINE
  8
0
  6
CONTINUOUS
 62
     1
 10
2094.135713746
 20
1590.288734056
 11
2152.469047079
 21
1600.148867028
  0
LINE
  8
0
  6
CONTINUOUS
 62
     1
 10
2094.135713746
 20
1629.729265944
 11
2152.469047079
 21
1619.869132972
  0
LINE
  8
0
  6
CONTINUOUS
 62
     1
 10
2150.622888488
 20
1673.621159322
 11
2122.512592251
 21
1624.932698023
  0
LINE
  8
0
  6
CONTINUOUS
 62
     1
 10
2150.622888488
 20
1546.396840678
 11
2122.512592251
 21
1595.085301977
  0
ARC
  8
0
  6
CONTINUOUS
 62
     1
 10
2166.81635939
 20
1686.022978978
 40
7.75
 50
294.214141675
 51
155.785858325
  0
LINE
  8
0
  6
CONTINUOUS
 62
     2
 10
2160.802380412
 20
1680.009
 11
2173.748212824
 21
1692.954832412
  0
ARC
  8
0
  6
CONTINUOUS
 62
     2
 10
2090.802380412
 20
1610.009
 40
107.5
 50
38.280925788
 51
51.325228591
  0
ARC
  8
0
  6
CONTINUOUS
 62
     1
 10
2166.81635939
 20
1533.995021022
 40
7.75
 50
204.214141675
 51
65.785858325
  0
LINE
  8
0
  6
CONTINUOUS
 62
     2
 10
2160.802380412
 20
1540.009
 11
2173.748212824
 21
1527.063167588
  0
ARC
  8
0
  6
CONTINUOUS
 62
     2
 10
2090.802380412
 20
1610.009
 40
107.5
 50
308.674771409
 51
321.719074212
  0
ARC
  8
0
  6
CONTINUOUS
 62
     1
 10
2014.788401435
 20
1686.022978978
 40
7.75
 50
24.214141675
 51
245.785858325
  0
LINE
  8
0
  6
CONTINUOUS
 62
     2
 10
2020.802380412
 20
1680.009
 11
2007.856548
 21
1692.954832412
  0
ARC
  8
0
  6
CONTINUOUS
 62
     2
 10
2090.802380412
 20
1610.009
 40
107.5
 50
128.674771409
 51
141.719074212
  0
ARC
  8
0
  6
CONTINUOUS
 62
     1
 10
2014.788401435
 20
1533.995021022
 40
7.75
 50
114.214141675
 51
335.785858325
  0
LINE
  8
0
  6
CONTINUOUS
 62
     2
 10
2020.802380412
 20
1540.009
 11
2007.856548
 21
1527.063167588
  0
ARC
  8
0
  6
CONTINUOUS
 62
     2
 10
2090.802380412
 20
1610.009
 40
107.5
 50
218.280925788
 51
231.325228591
  0
ARC
  8
0
  6
CONTINUOUS
 62
     1
 10
2090.802380412
 20
1610.009
 40
105.0
 50
272.980462591
 51
0.0
  0
ARC
  8
0
  6
CONTINUOUS
 62
     1
 10
2090.802380412
 20
1610.009
 40
105.0
 50
0.0
 51
226.520053773
  0
ARC
  8
0
  6
CONTINUOUS
 62
     1
 10
2127.802380412
 20
1731.709
 40
3.0
 50
270.0
 51
0.0
  0
ARC
  8
0
  6
CONTINUOUS
 62
     1
 10
2134.802380412
 20
1737.709
 40
6.0
 50
270.0
 51
0.0
  0
LINE
  8
0
  6
CONTINUOUS
 62
     1
 10
2130.802380412
 20
1731.709
 11
2134.802380412
 21
1731.709
  0
LINE
  8
0
  6
CONTINUOUS
 62
     1
 10
2090.802380412
 20
1728.709
 11
2127.802380412
 21
1728.709
  0
ARC
  8
0
  6
CONTINUOUS
 62
     1
 10
2053.802380412
 20
1731.709
 40
3.0
 50
180.0
 51
270.0
  0
ARC
  8
0
  6
CONTINUOUS
 62
     1
 10
2046.802380412
 20
1737.709
 40
6.0
 50
180.0
 51
270.0
  0
LINE
  8
0
  6
CONTINUOUS
 62
     1
 10
2050.802380412
 20
1731.709
 11
2046.802380412
 21
1731.709
  0
LINE
  8
0
  6
CONTINUOUS
 62
     1
 10
2090.802380412
 20
1728.709
 11
2053.802380412
 21
1728.709
  0
LINE
  8
0
  6
CONTINUOUS
 62
     1
 10
2110.802380412
 20
1713.08664064
 11
2110.802380412
 21
1728.709
  0
LINE
  8
0
  6
CONTINUOUS
 62
     1
 10
2070.802380412
 20
1713.08664064
 11
2070.802380412
 21
1728.709
  0
LINE
  8
0
  6
CONTINUOUS
 62
     1
 10
2140.802380412
 20
1737.709
 11
2140.802380412
 21
1801.009
  0
LINE
  8
0
  6
CONTINUOUS
 62
     1
 10
2130.802380412
 20
1732.209
 11
2130.802380412
 21
1793.714692517
  0
LINE
  8
0
  6
CONTINUOUS
 62
     1
 10
2050.802380412
 20
1732.209
 11
2050.802380412
 21
1793.714692517
  0
LINE
  8
0
  6
CONTINUOUS
 62
     1
 10
2040.802380412
 20
1738.209
 11
2040.802380412
 21
1801.009
  0
CIRCLE
  8
0
  6
CONTINUOUS
 62
     1
 10
2090.802380412
 20
1760.009
 40
20.0
  0
CIRCLE
  8
0
  6
CONTINUOUS
 62
     2
 10
2090.802380412
 20
1760.009
 40
13.5
  0
CIRCLE
  8
0
  6
CONTINUOUS
 62
     2
 10
2090.802380412
 20
1760.009
 40
15.0
  0
LINE
  8
0
  6
LTYPE2
 62
     2
 10
2060.302380412
 20
1760.009
 11
2119.802380412
 21
1760.009
  0
CIRCLE
  8
0
  6
CONTINUOUS
 62
     1
 10
2090.802380412
 20
1625.009
 40
4.0
  0
CIRCLE
  8
0
  6
CONTINUOUS
 62
     1
 10
2090.802380412
 20
1610.009
 40
4.0
  0
CIRCLE
  8
0
  6
CONTINUOUS
 62
     1
 10
2075.802380412
 20
1610.009
 40
4.0
  0
CIRCLE
  8
0
  6
CONTINUOUS
 62
     1
 10
2090.802380412
 20
1595.009
 40
4.0
  0
CIRCLE
  8
0
  6
CONTINUOUS
 62
     1
 10
2105.802380412
 20
1610.009
 40
4.0
  0
ARC
  8
0
  6
CONTINUOUS
 62
     1
 10
2090.802380412
 20
1610.009
 40
125.0
 50
0.0
 51
72.687211164
  0
ARC
  8
0
  6
CONTINUOUS
 62
     1
 10
2090.802380412
 20
1610.009
 40
150.0
 50
109.471220634
 51
150.073565133
  0
ARC
  8
0
  6
CONTINUOUS
 62
     1
 10
2090.802380412
 20
1610.009
 40
150.0
 50
29.926434867
 51
70.528779366
  0
ARC
  8
0
  6
CONTINUOUS
 62
     1
 10
2090.802380412
 20
1610.009
 40
105.0
 50
226.520053773
 51
230.380400035
  0
LINE
  8
1
  6
CONTINUOUS
 62
     2
 10
2228.802380412
 20
1610.009
 11
2317.802380412
 21
1610.009
  0
LINE
  8
1
  6
CONTINUOUS
 62
     2
 10
2301.802380412
 20
1610.009
 11
2296.62599951
 21
1590.690483474
  0
LINE
  8
1
  6
CONTINUOUS
 62
     2
 10
2301.802380412
 20
1610.009
 11
2306.978761315
 21
1590.690483474
  0
LINE
  8
1
  6
CONTINUOUS
 62
     2
 10
2301.802380412
 20
1610.009
 11
2301.802380412
 21
1379.009
  0
LINE
  8
1
  6
CONTINUOUS
 62
     2
 10
2301.802380412
 20
1379.009
 11
2306.978761315
 21
1398.327516526
  0
LINE
  8
1
  6
CONTINUOUS
 62
     2
 10
2301.802380412
 20
1379.009
 11
2296.62599951
 21
1398.327516526
  0
LINE
  8
1
  6
CONTINUOUS
 62
     2
 10
2238.802380412
 20
1379.009
 11
2317.802380412
 21
1379.009
  0
TEXT
  8
1
  6
CONTINUOUS
 62
     3
 10
2293.802380412
 20
1453.709
 30
2.4
 40
28.0
  1
２３１
 50
90.0
 41
0.914285714
 51
0.0
  7
KANJI53
  0
LINE
  8
1
  6
CONTINUOUS
 62
     2
 10
2301.802380412
 20
1610.009
 11
2306.978761315
 21
1629.327516526
  0
LINE
  8
1
  6
CONTINUOUS
 62
     2
 10
2301.802380412
 20
1610.009
 11
2296.62599951
 21
1629.327516526
  0
LINE
  8
1
  6
CONTINUOUS
 62
     2
 10
2301.802380412
 20
1610.009
 11
2301.802380412
 21
1807.009
  0
LINE
  8
1
  6
CONTINUOUS
 62
     2
 10
2301.802380412
 20
1807.009
 11
2296.62599951
 21
1787.690483474
  0
LINE
  8
1
  6
CONTINUOUS
 62
     2
 10
2301.802380412
 20
1807.009
 11
2306.978761315
 21
1787.690483474
  0
LINE
  8
1
  6
CONTINUOUS
 62
     2
 10
2098.802380412
 20
1807.009
 11
2317.802380412
 21
1807.009
  0
TEXT
  8
1
  6
CONTINUOUS
 62
     3
 10
2293.802380412
 20
1667.709
 30
2.4
 40
28.0
  1
１９７
 50
90.0
 41
0.914285714
 51
0.0
  7
KANJI53
  0
LINE
  8
1
  6
CONTINUOUS
 62
     2
 10
2301.802380412
 20
1379.009
 11
2296.62599951
 21
1359.690483474
  0
LINE
  8
1
  6
CONTINUOUS
 62
     2
 10
2301.802380412
 20
1379.009
 11
2306.978761315
 21
1359.690483474
  0
LINE
  8
1
  6
CONTINUOUS
 62
     2
 10
2301.802380412
 20
1379.009
 11
2301.802380412
 21
1244.009
  0
LINE
  8
1
  6
CONTINUOUS
 62
     2
 10
2301.802380412
 20
1244.009
 11
2306.978761315
 21
1263.327516526
  0
LINE
  8
1
  6
CONTINUOUS
 62
     2
 10
2301.802380412
 20
1244.009
 11
2296.62599951
 21
1263.327516526
  0
TEXT
  8
1
  6
CONTINUOUS
 62
     3
 10
2293.802380412
 20
1270.709
 30
2.4
 40
28.0
  1
１３５
 50
90.0
 41
0.914285714
 51
0.0
  7
KANJI53
  0
LINE
  8
1
  6
CONTINUOUS
 62
     2
 10
2098.802380412
 20
1807.009
 11
2387.802380412
 21
1807.009
  0
LINE
  8
1
  6
CONTINUOUS
 62
     2
 10
2371.802380412
 20
1807.009
 11
2366.62599951
 21
1787.690483474
  0
LINE
  8
1
  6
CONTINUOUS
 62
     2
 10
2371.802380412
 20
1807.009
 11
2376.978761315
 21
1787.690483474
  0
LINE
  8
1
  6
CONTINUOUS
 62
     2
 10
2371.802380412
 20
1807.009
 11
2371.802380412
 21
1244.009
  0
LINE
  8
1
  6
CONTINUOUS
 62
     2
 10
2371.802380412
 20
1244.009
 11
2376.978761315
 21
1263.327516526
  0
LINE
  8
1
  6
CONTINUOUS
 62
     2
 10
2371.802380412
 20
1244.009
 11
2366.62599951
 21
1263.327516526
  0
TEXT
  8
1
  6
CONTINUOUS
 62
     3
 10
2363.802380412
 20
1484.709
 30
2.4
 40
28.0
  1
５６３
 50
90.0
 41
0.914285714
 51
0.0
  7
KANJI53
  0
TEXT
  8
0
  6
CONTINUOUS
 62
     2
 10
2960.802380412
 20
1962.009
 30
2.4
 40
24.0
  1
７８．４ＫＮ（８ｔｏｎ）
 50
0.0
 41
0.9
 51
0.0
  7
KANJI2
  0
TEXT
  8
0
  6
CONTINUOUS
 62
     2
 10
3003.2
 20
1736.2
 30
20.5
 40
28.0
  1
全閉屋外形
 50
0.0
 41
0.9
 51
0.0
  7
KANJI37
  0
TEXT
  8
0
  6
CONTINUOUS
 62
     2
 10
1278.002380412
 20
572.009
 30
2.4
 40
24.0
  1
１４１８
 50
0.0
 41
0.9
 51
0.0
  7
KANJI2
  0
TEXT
  8
0
  6
CONTINUOUS
 62
     2
 10
1123.002380412
 20
567.009
 30
2.4
 40
24.0
  1
１６４３
 50
0.0
 41
0.9
 51
0.0
  7
KANJI2
  0
LINE
  8
0
  6
CONTINUOUS
 62
     1
 10
2177.333416
 20
601.1999696
 11
3245.0666672
 21
601.1999696
  0
LINE
  8
0
  6
CONTINUOUS
 62
     6
 10
2177.333416
 20
162.9333328
 11
2177.333416
 21
601.1999696
  0
LINE
  8
0
  6
CONTINUOUS
 62
     1
 10
2377.333416
 20
495.7333072
 11
2377.333416
 21
601.1999696
  0
TEXT
  8
0
  6
CONTINUOUS
 62
     1
 10
2218.0
 20
561.0
 30
2.4
 40
28.0
  1
客　先　名
 50
0.0
 41
0.857142857
 51
0.0
  7
KANJI57
  0
TEXT
  8
0
  6
CONTINUOUS
 62
     1
 10
2218.0
 20
511.0
 30
2.4
 40
28.0
  1
御　用　途
 50
0.0
 41
0.857142857
 51
0.0
  7
KANJI57
  0
TEXT
  8
0
  6
CONTINUOUS
 62
     2
 10
3111.0
 20
1792.0
 30
0.1792
 40
22.4
  1
（２２　　ｋｇｍ）
 50
0.0
 41
0.8
 51
0.0
  7
KANJI52
  0
TEXT
  8
0
  6
CONTINUOUS
 62
     2
 10
2980.0
 20
1790.0
 30
2.4
 40
24.0
  1
２１６Ｎ　　
 50
0.0
 41
0.9
 51
0.0
  7
KANJI2
  0
LINE
  8
0
  6
CONTINUOUS
 62
     1
 10
823.0
 20
1513.985375069
 11
813.0
 21
1503.985375069
  0
ARC
  8
0
  6
CONTINUOUS
 62
     1
 10
811.0
 20
1514.507558854
 40
3.0
 50
90.0
 51
180.0
  0
ARC
  8
0
  6
CONTINUOUS
 62
     1
 10
933.0
 20
1514.507558854
 40
3.0
 50
0.0
 51
90.0
  0
LINE
  8
0
  6
CONTINUOUS
 62
     1
 10
931.0
 20
1503.985375069
 11
921.0
 21
1513.985375069
  0
LINE
  8
0
  6
CONTINUOUS
 62
     1
 10
823.0
 20
1513.985375069
 11
921.0
 21
1513.985375069
  0
LINE
  8
0
  6
CONTINUOUS
 62
     1
 10
811.0
 20
1517.507558854
 11
933.0
 21
1517.507558854
  0
LINE
  8
0
  6
CONTINUOUS
 62
     1
 10
640.0
 20
1474.0
 11
640.0
 21
1538.0
  0
LINE
  8
0
  6
CONTINUOUS
 62
     1
 10
640.0
 20
1478.0
 11
640.0
 21
1749.0
  0
LINE
  8
0
  6
CONTINUOUS
 62
     1
 10
640.0
 20
1490.0
 11
640.0
 21
1740.0
  0
LINE
  8
0
  6
CONTINUOUS
 62
     1
 10
640.0
 20
1488.15
 11
640.0
 21
1740.0
  0
LINE
  8
0
  6
CONTINUOUS
 62
     1
 10
640.0
 20
1490.0
 11
640.0
 21
1740.0
  0
LINE
  8
0
  6
CONTINUOUS
 62
     1
 10
640.0
 20
1490.0
 11
651.0
 21
1490.0
  0
LINE
  8
0
  6
CONTINUOUS
 62
     1
 10
640.0
 20
1740.0
 11
656.0
 21
1740.0
  0
LINE
  8
0
  6
CONTINUOUS
 62
     1
 10
656.0
 20
1490.0
 11
656.0
 21
1740.0
  0
LINE
  8
0
  6
CONTINUOUS
 62
     1
 10
640.0
 20
1490.0
 11
656.0
 21
1490.0
  0
LINE
  8
0
  6
CONTINUOUS
 62
     1
 10
873.0
 20
1515.0
 11
873.0
 21
1515.0
  0
LINE
  8
0
  6
CONTINUOUS
 62
     1
 10
673.0
 20
1510.0
 11
656.0
 21
1510.0
  0
LINE
  8
0
  6
CONTINUOUS
 62
     1
 10
673.0
 20
1720.0
 11
656.0
 21
1720.0
  0
LINE
  8
0
  6
CONTINUOUS
 62
     1
 10
804.0
 20
1515.0
 11
808.040692358
 21
1515.0
  0
LINE
  8
0
  6
CONTINUOUS
 62
     1
 10
823.0
 20
1513.944375069
 11
813.0
 21
1503.944375069
  0
LINE
  8
0
  6
CONTINUOUS
 62
     1
 10
813.0
 20
1489.0
 11
813.0
 21
1503.944375069
  0
ARC
  8
0
  6
CONTINUOUS
 62
     1
 10
811.0
 20
1514.466558854
 40
3.0
 50
90.0
 51
180.0
  0
ARC
  8
0
  6
CONTINUOUS
 62
     1
 10
933.0
 20
1514.466558854
 40
3.0
 50
0.0
 51
90.0
  0
LINE
  8
0
  6
CONTINUOUS
 62
     1
 10
931.0
 20
1503.944375069
 11
921.0
 21
1513.944375069
  0
LINE
  8
0
  6
CONTINUOUS
 62
     1
 10
823.0
 20
1513.944375069
 11
921.0
 21
1513.944375069
  0
LINE
  8
0
  6
CONTINUOUS
 62
     1
 10
811.0
 20
1517.466558854
 11
933.0
 21
1517.466558854
  0
LINE
  8
0
  6
CONTINUOUS
 62
     1
 10
808.0
 20
1489.0
 11
808.0
 21
1514.0
  0
LINE
  8
0
  6
CONTINUOUS
 62
     1
 10
640.0
 20
1489.0
 11
640.0
 21
1545.586051867
  0
LINE
  8
0
  6
CONTINUOUS
 62
     1
 10
640.0
 20
1489.0
 11
640.0
 21
1749.0
  0
LINE
  8
0
  6
CONTINUOUS
 62
     1
 10
640.0
 20
1490.0
 11
640.0
 21
1740.0
  0
LINE
  8
0
  6
CONTINUOUS
 62
     1
 10
640.0
 20
1489.0
 11
640.0
 21
1740.0
  0
LINE
  8
0
  6
CONTINUOUS
 62
     1
 10
640.0
 20
1490.0
 11
640.0
 21
1740.0
  0
LINE
  8
0
  6
CONTINUOUS
 62
     1
 10
640.0
 20
1490.0
 11
651.0
 21
1490.0
  0
LINE
  8
0
  6
CONTINUOUS
 62
     1
 10
640.0
 20
1740.0
 11
656.0
 21
1740.0
  0
LINE
  8
0
  6
CONTINUOUS
 62
     1
 10
656.0
 20
1490.0
 11
656.0
 21
1740.0
  0
LINE
  8
0
  6
CONTINUOUS
 62
     1
 10
640.0
 20
1490.0
 11
656.0
 21
1490.0
  0
LINE
  8
0
  6
CONTINUOUS
 62
     1
 10
823.0
 20
1513.944375069
 11
813.0
 21
1503.944375069
  0
LINE
  8
0
  6
CONTINUOUS
 62
     1
 10
813.0
 20
1489.0
 11
813.0
 21
1503.944375069
  0
ARC
  8
0
  6
CONTINUOUS
 62
     1
 10
811.0
 20
1514.466558854
 40
3.0
 50
90.0
 51
180.0
  0
ARC
  8
0
  6
CONTINUOUS
 62
     1
 10
933.0
 20
1514.466558854
 40
3.0
 50
0.0
 51
90.0
  0
LINE
  8
0
  6
CONTINUOUS
 62
     1
 10
931.0
 20
1503.944375069
 11
921.0
 21
1513.944375069
  0
LINE
  8
0
  6
CONTINUOUS
 62
     1
 10
823.0
 20
1513.944375069
 11
921.0
 21
1513.944375069
  0
LINE
  8
0
  6
CONTINUOUS
 62
     1
 10
811.0
 20
1517.466558854
 11
933.0
 21
1517.466558854
  0
LINE
  8
0
  6
CONTINUOUS
 62
     1
 10
808.0
 20
1489.0
 11
808.0
 21
1514.0
  0
LINE
  8
0
  6
CONTINUOUS
 62
     1
 10
650.720560018
 20
1490.0
 11
651.0
 21
1490.0
  0
LINE
  8
0
  6
CONTINUOUS
 62
     1
 10
656.0
 20
1490.0
 11
656.0
 21
1740.0
  0
LINE
  8
0
  6
CONTINUOUS
 62
     1
 10
650.720560018
 20
1490.0
 11
656.0
 21
1490.0
  0
LINE
  8
0
  6
CONTINUOUS
 62
     1
 10
706.0
 20
1510.0
 11
706.0
 21
1720.0
  0
LINE
  8
0
  6
CONTINUOUS
 62
     1
 10
706.0
 20
1510.0
 11
656.0
 21
1510.0
  0
LINE
  8
0
  6
CONTINUOUS
 62
     1
 10
706.0
 20
1720.0
 11
656.0
 21
1720.0
  0
LINE
  8
0
  6
CONTINUOUS
 62
     1
 10
706.0
 20
1510.0
 11
706.0
 21
1720.0
  0
LINE
  8
0
  6
CONTINUOUS
 62
     1
 10
890.0
 20
1763.0
 11
890.0
 21
1803.0
  0
LINE
  8
0
  6
CONTINUOUS
 62
     1
 10
890.0
 20
1803.0
 11
864.3
 21
1803.0
  0
LINE
  8
0
  6
CONTINUOUS
 62
     1
 10
890.0
 20
1763.0
 11
864.3
 21
1763.0
  0
ARC
  8
0
  6
CONTINUOUS
 62
     1
 10
858.3
 20
1757.7
 40
6.0
 50
270.0
 51
0.0
  0
ARC
  8
0
  6
CONTINUOUS
 62
     1
 10
744.819480257
 20
1757.7
 40
6.0
 50
190.033164511
 51
270.0
  0
LINE
  8
0
  6
CONTINUOUS
 62
     1
 10
858.661039485
 20
1751.7
 11
744.819480257
 21
1751.7
  0
ARC
  8
0
  6
CONTINUOUS
 62
     1
 10
744.819480257
 20
1820.0
 40
6.0
 50
90.0
 51
180.0
  0
LINE
  8
0
  6
CONTINUOUS
 62
     1
 10
863.108952959
 20
1826.0
 11
744.819480257
 21
1826.0
  0
LINE
  8
0
  6
CONTINUOUS
 62
     1
 10
874.377020398
 20
1825.498824355
 11
872.2
 21
1830.0
  0
LINE
  8
0
  6
CONTINUOUS
 62
     1
 10
872.2
 20
1830.0
 11
726.801684551
 21
1759.6772391
  0
LINE
  8
0
  6
CONTINUOUS
 62
     1
 10
874.377020398
 20
1825.498824355
 11
728.97870495
 21
1755.176063455
  0
LINE
  8
0
  6
CONTINUOUS
 62
     1
 10
726.801684551
 20
1759.6772391
 11
728.97870495
 21
1755.176063455
  0
LINE
  8
0
  6
CONTINUOUS
 62
     1
 10
738.819480257
 20
1766.676063455
 11
738.819480257
 21
1820.0
  0
LINE
  8
0
  6
CONTINUOUS
 62
     1
 10
739.47870495
 20
1759.676063455
 11
739.47870495
 21
1756.676063455
  0
LINE
  8
0
  6
CONTINUOUS
 62
     1
 10
864.3
 20
1757.7
 11
864.3
 21
1819.5
  0
LINE
  8
0
  6
CONTINUOUS
 62
     1
 10
1089.5
 20
1606.3
 11
1095.4
 21
1606.3
  0
LINE
  8
0
  6
CONTINUOUS
 62
     1
 10
1089.5
 20
1623.7
 11
1095.4
 21
1623.7
  0
LINE
  8
0
  6
CONTINUOUS
 62
     1
 10
1103.0
 20
1605.0
 11
1103.0
 21
1614.9
  0
LINE
  8
0
  6
CONTINUOUS
 62
     1
 10
1096.4
 20
1605.0
 11
1103.0
 21
1605.0
  0
LINE
  8
0
  6
CONTINUOUS
 62
     1
 10
1096.4
 20
1610.0
 11
1103.0
 21
1610.0
  0
LINE
  8
0
  6
CONTINUOUS
 62
     1
 10
1103.0
 20
1625.0
 11
1103.0
 21
1615.1
  0
LINE
  8
0
  6
CONTINUOUS
 62
     1
 10
1096.4
 20
1625.0
 11
1103.0
 21
1625.0
  0
LINE
  8
0
  6
CONTINUOUS
 62
     1
 10
1096.4
 20
1620.0
 11
1103.0
 21
1620.0
  0
LINE
  8
0
  6
CONTINUOUS
 62
     1
 10
1089.5
 20
1576.3
 11
1095.4
 21
1576.3
  0
LINE
  8
0
  6
CONTINUOUS
 62
     1
 10
1089.5
 20
1572.5
 11
1095.4
 21
1572.5
  0
LINE
  8
0
  6
CONTINUOUS
 62
     1
 10
1104.9
 20
1584.4
 11
1104.9
 21
1564.4
  0
LINE
  8
0
  6
CONTINUOUS
 62
     1
 10
1099.9
 20
1564.4
 11
1104.9
 21
1564.4
  0
LINE
  8
0
  6
CONTINUOUS
 62
     1
 10
1099.9
 20
1584.4
 11
1104.9
 21
1584.4
  0
LINE
  8
0
  6
CONTINUOUS
 62
     1
 10
1095.4
 20
1635.0
 11
1099.9
 21
1635.0
  0
LINE
  8
0
  6
CONTINUOUS
 62
     1
 10
1099.9
 20
1564.4
 11
1099.9
 21
1635.0
  0
LINE
  8
0
  6
LTYPE2
 62
     2
 10
1081.4
 20
1574.4
 11
1111.7
 21
1574.4
  0
LINE
  8
0
  6
CONTINUOUS
 62
     1
 10
1095.4
 20
1635.0
 11
1095.4
 21
1569.4
  0
LINE
  8
0
  6
CONTINUOUS
 62
     1
 10
1099.9
 20
1569.4
 11
1095.4
 21
1569.4
  0
LINE
  8
0
  6
CONTINUOUS
 62
     1
 10
1093.4
 20
1581.4
 11
1093.4
 21
1566.4
  0
LINE
  8
0
  6
CONTINUOUS
 62
     1
 10
1090.9
 20
1580.9
 11
1090.9
 21
1566.4
  0
LINE
  8
0
  6
CONTINUOUS
 62
     1
 10
706.0
 20
1720.0
 11
719.125
 21
1737.5
  0
ARC
  8
0
  6
CONTINUOUS
 62
     1
 10
1067.720549228
 20
1710.0
 40
20.0
 50
9.12031501
 51
90.0
  0
LINE
  8
0
  6
CONTINUOUS
 62
     1
 10
1067.720549228
 20
1730.0
 11
933.0
 21
1730.0
  0
ARC
  8
0
  6
CONTINUOUS
 62
     1
 10
1067.720549228
 20
1520.0
 40
20.0
 50
270.0
 51
350.87968499
  0
LINE
  8
0
  6
CONTINUOUS
 62
     1
 10
983.0
 20
1730.0
 11
983.0
 21
1500.0
  0
LINE
  8
0
  6
CONTINUOUS
 62
     1
 10
933.0
 20
1730.0
 11
925.5
 21
1737.5
  0
LINE
  8
0
  6
CONTINUOUS
 62
     1
 10
719.125
 20
1737.5
 11
925.5
 21
1737.5
  0
LINE
  8
0
  6
CONTINUOUS
 62
     1
 10
706.0
 20
1717.5
 11
933.0
 21
1717.5
  0
LINE
  8
0
  6
CONTINUOUS
 62
     1
 10
706.0
 20
1702.5
 11
933.0
 21
1702.5
  0
LINE
  8
0
  6
CONTINUOUS
 62
     1
 10
706.0
 20
1687.5
 11
933.0
 21
1687.5
  0
LINE
  8
0
  6
CONTINUOUS
 62
     1
 10
706.0
 20
1672.5
 11
933.0
 21
1672.5
  0
LINE
  8
0
  6
CONTINUOUS
 62
     1
 10
706.0
 20
1657.5
 11
933.0
 21
1657.5
  0
LINE
  8
0
  6
CONTINUOUS
 62
     1
 10
706.0
 20
1642.5
 11
933.0
 21
1642.5
  0
LINE
  8
0
  6
CONTINUOUS
 62
     1
 10
706.0
 20
1627.5
 11
933.0
 21
1627.5
  0
LINE
  8
0
  6
CONTINUOUS
 62
     1
 10
715.375
 20
1732.5
 11
930.5
 21
1732.5
  0
LINE
  8
0
  6
CONTINUOUS
 62
     1
 10
820.0
 20
1737.5
 11
820.0
 21
1751.7
  0
LINE
  8
0
  6
CONTINUOUS
 62
     1
 10
780.0
 20
1737.5
 11
780.0
 21
1751.7
  0
LINE
  8
0
  6
CONTINUOUS
 62
     1
 10
706.0
 20
1510.0
 11
719.125
 21
1492.5
  0
LINE
  8
0
  6
CONTINUOUS
 62
     1
 10
706.0
 20
1527.5
 11
933.0
 21
1527.5
  0
LINE
  8
0
  6
CONTINUOUS
 62
     1
 10
706.0
 20
1542.5
 11
933.0
 21
1542.5
  0
LINE
  8
0
  6
CONTINUOUS
 62
     1
 10
706.0
 20
1557.5
 11
933.0
 21
1557.5
  0
LINE
  8
0
  6
CONTINUOUS
 62
     1
 10
706.0
 20
1572.5
 11
933.0
 21
1572.5
  0
LINE
  8
0
  6
CONTINUOUS
 62
     1
 10
706.0
 20
1587.5
 11
933.0
 21
1587.5
  0
LINE
  8
0
  6
CONTINUOUS
 62
     1
 10
706.0
 20
1602.5
 11
933.0
 21
1602.5
  0
ARC
  8
0
  6
CONTINUOUS
 62
     1
 10
-1405.328453082
 20
1615.0
 40
2494.728453082
 50
357.744769101
 51
2.255230899
  0
LINE
  8
0
  6
CONTINUOUS
 62
     1
 10
650.720560018
 20
1740.0
 11
656.0
 21
1740.0
  0
LINE
  8
0
  6
CONTINUOUS
 62
     1
 10
719.125
 20
1492.5
 11
808.0
 21
1492.5
  0
LINE
  8
0
  6
CONTINUOUS
 62
     1
 10
715.375
 20
1497.5
 11
808.0
 21
1497.5
  0
LINE
  8
0
  6
CONTINUOUS
 62
     1
 10
706.0
 20
1512.5
 11
808.0
 21
1512.5
  0
LINE
  8
0
  6
CONTINUOUS
 62
     1
 10
933.0
 20
1730.0
 11
933.0
 21
1519.966558854
  0
LINE
  8
0
  6
CONTINUOUS
 62
     1
 10
1067.720549228
 20
1500.0
 11
938.0
 21
1500.0
  0
LINE
  8
0
  6
LTYPE2
 62
     2
 10
927.0
 20
1783.0
 11
854.756580424
 21
1783.0
  0
LINE
  8
1
  6
CONTINUOUS
 62
     2
 10
640.0
 20
1757.0
 11
640.0
 21
1761.0
  0
LINE
  8
0
  6
LTYPE3
 62
     2
 10
1110.0
 20
1615.0
 11
622.0
 21
1615.0
  0
LINE
  8
1
  6
CONTINUOUS
 62
     2
 10
640.0
 20
1757.0
 11
640.0
 21
1894.5
  0
LINE
  8
1
  6
CONTINUOUS
 62
     2
 10
640.0
 20
1878.5
 11
659.318516526
 21
1873.323619098
  0
LINE
  8
1
  6
CONTINUOUS
 62
     2
 10
640.0
 20
1878.5
 11
659.318516526
 21
1883.676380902
  0
LINE
  8
1
  6
CONTINUOUS
 62
     2
 10
640.0
 20
1878.5
 11
1103.0
 21
1878.5
  0
LINE
  8
1
  6
CONTINUOUS
 62
     2
 10
1103.0
 20
1878.5
 11
1083.681483474
 21
1883.676380902
  0
LINE
  8
1
  6
CONTINUOUS
 62
     2
 10
1103.0
 20
1878.5
 11
1083.681483474
 21
1873.323619098
  0
LINE
  8
1
  6
CONTINUOUS
 62
     2
 10
1103.0
 20
1633.0
 11
1103.0
 21
1894.5
  0
TEXT
  8
1
  6
CONTINUOUS
 62
     3
 10
830.7
 20
1886.5
 30
2.4
 40
28.0
  1
４６５
 50
0.0
 41
0.914285714
 51
0.0
  7
KANJI53
  0
LINE
  8
1
  6
CONTINUOUS
 62
     2
 10
897.0
 20
1784.0
 11
909.54718057
 21
1799.574603037
  0
LINE
  8
1
  6
CONTINUOUS
 62
     2
 10
897.0
 20
1784.0
 11
900.078875601
 21
1803.761592168
  0
LINE
  8
1
  6
CONTINUOUS
 62
     2
 10
897.0
 20
1784.0
 11
985.0
 21
1983.0
  0
LINE
  8
1
  6
CONTINUOUS
 62
     2
 10
985.0
 20
1983.0
 11
1109.0
 21
1983.0
  0
TEXT
  8
1
  6
CONTINUOUS
 62
     3
 10
985.0
 20
1991.0
 30
4.0
 40
24.0
  1
ＰＦ３／４
 50
0.0
 41
0.9
 51
0.0
  7
KANJI58
  0
LINE
  8
1
  6
CONTINUOUS
 62
     2
 10
1105.0
 20
1628.0
 11
1115.359188456
 21
1645.108103768
  0
LINE
  8
1
  6
CONTINUOUS
 62
     2
 10
1105.0
 20
1628.0
 11
1105.417268482
 21
1647.995646702
  0
LINE
  8
1
  6
CONTINUOUS
 62
     2
 10
1105.0
 20
1628.0
 11
1184.0
 21
1900.0
  0
LINE
  8
1
  6
CONTINUOUS
 62
     2
 10
1184.0
 20
1900.0
 11
1384.8
 21
1900.0
  0
TEXT
  8
1
  6
CONTINUOUS
 62
     3
 10
1184.0
 20
1908.0
 30
4.0
 40
24.0
  1
ブレーキ開放装置
 50
0.0
 41
0.9
 51
0.0
  7
KANJI58
  0
LINE
  8
0
  6
CONTINUOUS
 62
     1
 10
2050.49
 20
2253.5948
 11
2050.49
 21
2045.6
  0
LINE
  8
0
  6
CONTINUOUS
 62
     2
 10
1930.493
 20
2253.5948
 11
1930.493
 21
2045.6
  0
LINE
  8
0
  6
CONTINUOUS
 62
     2
 10
1810.496
 20
2253.5948
 11
1810.496
 21
2045.6
  0
LINE
  8
0
  6
CONTINUOUS
 62
     1
 10
1650.5
 20
2253.5948
 11
1650.5
 21
2045.6
  0
LINE
  8
0
  6
CONTINUOUS
 62
     1
 10
1650.5
 20
2253.5948
 11
2050.49
 21
2253.5948
  0
LINE
  8
0
  6
CONTINUOUS
 62
     1
 10
1650.5
 20
2189.5964
 11
2050.49
 21
2189.5964
  0
LINE
  8
0
  6
CONTINUOUS
 62
     2
 10
1650.5
 20
2141.5976
 11
2050.49
 21
2141.5976
  0
LINE
  8
0
  6
CONTINUOUS
 62
     2
 10
1650.5
 20
2093.5988
 11
2050.49
 21
2093.5988
  0
LINE
  8
0
  6
CONTINUOUS
 62
     1
 10
1650.5
 20
2045.6
 11
2050.49
 21
2045.6
  0
TEXT
  8
0
  6
CONTINUOUS
 62
     2
 10
1946.4926
 20
2225.5955
 30
2.39994
 40
23.9994
  1
起動電流
 50
0.0
 41
0.9
 51
0.0
  7
KANJI59
  0
TEXT
  8
0
  6
CONTINUOUS
 62
     2
 10
1946.4926
 20
2197.5962
 30
2.39994
 40
23.9994
  1
　　　Ａ
 50
0.0
 41
0.9
 51
0.0
  7
KANJI59
  0
TEXT
  8
0
  6
CONTINUOUS
 62
     2
 10
1826.4956
 20
2225.5955
 30
2.39994
 40
23.9994
  1
定格電流
 50
0.0
 41
0.9
 51
0.0
  7
KANJI59
  0
TEXT
  8
0
  6
CONTINUOUS
 62
     2
 10
1826.4956
 20
2197.5962
 30
2.39994
 40
23.9994
  1
　　　Ａ
 50
0.0
 41
0.9
 51
0.0
  7
KANJI59
  0
TEXT
  8
0
  6
CONTINUOUS
 62
     2
 10
1664.09966
 20
2225.5955
 30
2.39994
 40
23.9994
  1
電圧／周波数
 50
0.0
 41
0.9
 51
0.0
  7
KANJI59
  0
TEXT
  8
0
  6
CONTINUOUS
 62
     2
 10
1664.09966
 20
2197.5962
 30
2.39994
 40
23.9994
  1
　Ｖ／Ｈｚ
 50
0.0
 41
0.9
 51
0.0
  7
KANJI59
  0
TEXT
  8
0
  6
CONTINUOUS
 62
     2
 10
1664.09966
 20
2153.5973
 30
2.39994
 40
23.9994
  1
４００／５０
 50
0.0
 41
0.9
 51
0.0
  7
KANJI59
  0
TEXT
  8
0
  6
CONTINUOUS
 62
     2
 10
1664.09966
 20
2105.5985
 30
2.39994
 40
23.9994
  1
４００／６０
 50
0.0
 41
0.9
 51
0.0
  7
KANJI59
  0
TEXT
  8
0
  6
CONTINUOUS
 62
     2
 10
1664.09966
 20
2057.5997
 30
2.39994
 40
23.9994
  1
４４０／６０
 50
0.0
 41
0.9
 51
0.0
  7
KANJI59
  0
LINE
  8
0
  6
CONTINUOUS
 62
     1
 10
1570.5
 20
2253.5948
 11
1570.5
 21
2045.6
  0
LINE
  8
0
  6
CONTINUOUS
 62
     2
 10
1450.503
 20
2253.5948
 11
1450.503
 21
2045.6
  0
LINE
  8
0
  6
CONTINUOUS
 62
     2
 10
1330.506
 20
2253.5948
 11
1330.506
 21
2045.6
  0
LINE
  8
0
  6
CONTINUOUS
 62
     1
 10
1170.51
 20
2253.5948
 11
1170.51
 21
2045.6
  0
LINE
  8
0
  6
CONTINUOUS
 62
     1
 10
1170.51
 20
2253.5948
 11
1570.5
 21
2253.5948
  0
LINE
  8
0
  6
CONTINUOUS
 62
     1
 10
1170.51
 20
2189.5964
 11
1570.5
 21
2189.5964
  0
LINE
  8
0
  6
CONTINUOUS
 62
     2
 10
1170.51
 20
2141.5976
 11
1570.5
 21
2141.5976
  0
LINE
  8
0
  6
CONTINUOUS
 62
     2
 10
1170.51
 20
2093.5988
 11
1570.5
 21
2093.5988
  0
LINE
  8
0
  6
CONTINUOUS
 62
     1
 10
1170.51
 20
2045.6
 11
1570.5
 21
2045.6
  0
TEXT
  8
0
  6
CONTINUOUS
 62
     2
 10
1466.5026
 20
2225.5955
 30
2.39994
 40
23.9994
  1
起動電流
 50
0.0
 41
0.9
 51
0.0
  7
KANJI59
  0
TEXT
  8
0
  6
CONTINUOUS
 62
     2
 10
1466.5026
 20
2197.5962
 30
2.39994
 40
23.9994
  1
　　　Ａ
 50
0.0
 41
0.9
 51
0.0
  7
KANJI59
  0
TEXT
  8
0
  6
CONTINUOUS
 62
     2
 10
1346.5056
 20
2225.5955
 30
2.39994
 40
23.9994
  1
定格電流
 50
0.0
 41
0.9
 51
0.0
  7
KANJI59
  0
TEXT
  8
0
  6
CONTINUOUS
 62
     2
 10
1346.5056
 20
2197.5962
 30
2.39994
 40
23.9994
  1
　　　Ａ
 50
0.0
 41
0.9
 51
0.0
  7
KANJI59
  0
TEXT
  8
0
  6
CONTINUOUS
 62
     2
 10
1184.10966
 20
2105.5985
 30
2.39994
 40
23.9994
  1
２００／６０
 50
0.0
 41
0.9
 51
0.0
  7
KANJI59
  0
TEXT
  8
0
  6
CONTINUOUS
 62
     2
 10
1184.10966
 20
2225.5955
 30
2.39994
 40
23.9994
  1
電圧／周波数
 50
0.0
 41
0.9
 51
0.0
  7
KANJI59
  0
TEXT
  8
0
  6
CONTINUOUS
 62
     2
 10
1184.10966
 20
2197.5962
 30
2.39994
 40
23.9994
  1
　Ｖ／Ｈｚ
 50
0.0
 41
0.9
 51
0.0
  7
KANJI59
  0
TEXT
  8
0
  6
CONTINUOUS
 62
     2
 10
1184.10966
 20
2153.5973
 30
2.39994
 40
23.9994
  1
２００／５０
 50
0.0
 41
0.9
 51
0.0
  7
KANJI59
  0
TEXT
  8
0
  6
CONTINUOUS
 62
     2
 10
1184.10966
 20
2057.5997
 30
2.39994
 40
23.9994
  1
２２０／６０
 50
0.0
 41
0.9
 51
0.0
  7
KANJI59
  0
TEXT
  8
0
  6
CONTINUOUS
 62
     2
 10
1273.097220468
 20
1999.934483
 30
2.79993
 40
27.9993
  1
注意：サーマルリレー等の選定は、上記の値を参照下さい。
 50
0.0
 41
0.9
 51
0.0
  7
KANJI60
  0
LINE
  8
0
  6
CONTINUOUS
 62
     2
 10
1257.097620468
 20
1991.934683
 11
2009.078820468
 21
1991.934683
  0
TEXT
  8
0
  6
CONTINUOUS
 62
     2
 10
1346.5056
 20
2153.5973
 30
2.39994
 40
23.9994
  1
１５．０
 50
0.0
 41
0.9
 51
0.0
  7
KANJI59
  0
TEXT
  8
0
  6
CONTINUOUS
 62
     2
 10
1346.5056
 20
2105.5985
 30
2.39994
 40
23.9994
  1
１４．０
 50
0.0
 41
0.9
 51
0.0
  7
KANJI59
  0
TEXT
  8
0
  6
CONTINUOUS
 62
     2
 10
1346.5056
 20
2057.5997
 30
2.39994
 40
23.9994
  1
１３．０
 50
0.0
 41
0.9
 51
0.0
  7
KANJI59
  0
TEXT
  8
0
  6
CONTINUOUS
 62
     2
 10
1466.5026
 20
2153.5973
 30
2.39994
 40
23.9994
  1
９１．０
 50
0.0
 41
0.9
 51
0.0
  7
KANJI59
  0
TEXT
  8
0
  6
CONTINUOUS
 62
     2
 10
1465.635999532
 20
2101.931917
 30
2.39994
 40
23.9994
  1
８６．０
 50
0.0
 41
0.9
 51
0.0
  7
KANJI59
  0
TEXT
  8
0
  6
CONTINUOUS
 62
     2
 10
1467.635949532
 20
2056.599717
 30
2.39994
 40
23.9994
  1
９４．６
 50
0.0
 41
0.9
 51
0.0
  7
KANJI59
  0
TEXT
  8
0
  6
CONTINUOUS
 62
     2
 10
1826.4956
 20
2153.5973
 30
2.39994
 40
23.9994
  1
　７．５
 50
0.0
 41
0.9
 51
0.0
  7
KANJI59
  0
TEXT
  8
0
  6
CONTINUOUS
 62
     2
 10
1826.4956
 20
2105.5985
 30
2.39994
 40
23.9994
  1
　７．０
 50
0.0
 41
0.9
 51
0.0
  7
KANJI59
  0
TEXT
  8
0
  6
CONTINUOUS
 62
     2
 10
1826.4956
 20
2057.5997
 30
2.39994
 40
23.9994
  1
　６．６
 50
0.0
 41
0.9
 51
0.0
  7
KANJI59
  0
TEXT
  8
0
  6
CONTINUOUS
 62
     2
 10
1946.4926
 20
2153.5973
 30
2.39994
 40
23.9994
  1
４５．５
 50
0.0
 41
0.9
 51
0.0
  7
KANJI59
  0
TEXT
  8
0
  6
CONTINUOUS
 62
     2
 10
1946.4926
 20
2105.5985
 30
2.39994
 40
23.9994
  1
４３．０
 50
0.0
 41
0.9
 51
0.0
  7
KANJI59
  0
TEXT
  8
0
  6
CONTINUOUS
 62
     2
 10
1946.4926
 20
2057.5997
 30
2.39994
 40
23.9994
  1
４７．３
 50
0.0
 41
0.9
 51
0.0
  7
KANJI59
  0
TEXT
  8
0
  6
CONTINUOUS
 62
     2
 10
670.0
 20
680.8
 30
1.6
 40
24.0
  1
ＭＣＬＧ８ー　　　　　３Ｊ
 50
0.0
 41
0.833333333
 51
0.0
  7
KANJI61
  0
TEXT
  8
0
  6
CONTINUOUS
 62
     2
 10
670.0
 20
624.8
 30
1.6
 40
24.0
  1
ＭＣＬＧ８－　　　　　５Ｊ
 50
0.0
 41
0.833333333
 51
0.0
  7
KANJI61
  0
TEXT
  8
0
  6
CONTINUOUS
 62
     2
 10
670.0
 20
568.8
 30
1.6
 40
24.0
  1
ＭＣＬＧ８－　　　　　７Ｊ
 50
0.0
 41
0.833333333
 51
0.0
  7
KANJI61
  0
TEXT
  8
0
  6
CONTINUOUS
 62
     2
 10
670.0
 20
512.8
 30
1.6
 40
24.0
  1
ＭＣＬＧ８－　　　１０Ｊ
 50
0.0
 41
0.833333333
 51
0.0
  7
KANJI61
  0
TEXT
  8
0
  6
CONTINUOUS
 62
     2
 10
670.0
 20
456.8
 30
1.6
 40
24.0
  1
ＭＣＬＧ８－　　　　　　　Ｊ
 50
0.0
 41
0.833333333
 51
0.0
  7
KANJI61
  0
TEXT
  8
0
  6
CONTINUOUS
 62
     2
 10
670.0
 20
400.8
 30
1.6
 40
24.0
  1
ＭＣＬＧ８－　　　　　　　Ｊ
 50
0.0
 41
0.833333333
 51
0.0
  7
KANJI61
  0
TEXT
  8
0
  6
CONTINUOUS
 62
     2
 10
2548.0
 20
396.0
 30
0.0
 40
28.0
  1
ＭＣＬＧ８－　　　Ｊ
 50
0.0
 41
0.793650794
 51
0.0
  7
KANJI54
  0
TEXT
  8
0
  6
CONTINUOUS
 62
     3
 10
2632.5333816
 20
267.999992
 30
17.333333333
 40
40.0
  1
Ａ３００１２４６
 50
0.0
 41
0.8
 51
0.0
  7
KANJI62
  0
TEXT
  8
0
  6
CONTINUOUS
 62
     2
 10
2982.0
 20
2014.2
 30
1.6
 40
24.0
  1
ＭＣＬＧ８ー　　　　　Ｊ
 50
0.0
 41
0.833333333
 51
0.0
  7
KANJI61
  0
TEXT
  8
0
  6
CONTINUOUS
 62
     2
 10
2971.8
 20
1847.2
 30
2.4
 40
24.0
  1
３０／３６
 50
0.0
 41
0.9
 51
0.0
  7
KANJI2
  0
CIRCLE
  8
0
  6
CONTINUOUS
 62
     1
 10
2090.802380412
 20
1379.009
 40
55.0
  0
LINE
  8
0
  6
LTYPE1
 62
     2
 10
2000.802380412
 20
1356.509
 11
2000.802380412
 21
1401.509
  0
LINE
  8
0
  6
LTYPE1
 62
     2
 10
2000.802380412
 20
1401.509
 11
1950.802380412
 21
1401.509
  0
LINE
  8
0
  6
LTYPE2
 62
     2
 10
2021.335623867
 20
1531.803828888
 11
2033.355752168
 21
1517.478797802
  0
LINE
  8
0
  6
CONTINUOUS
 62
     2
 10
1938.802380412
 20
1401.509
 11
1870.309681395
 21
1401.509
  0
CIRCLE
  8
0
  6
CONTINUOUS
 62
     1
 10
2090.802380412
 20
1379.009
 40
90.0
  0
LINE
  8
0
  6
CONTINUOUS
 62
     1
 10
1960.802380412
 20
1476.443666527
 11
1960.802380412
 21
1539.009
  0
LINE
  8
0
  6
CONTINUOUS
 62
     1
 10
1960.802380412
 20
1479.009
 11
1960.802380412
 21
1684.842147735
  0
LINE
  8
0
  6
LTYPE1
 62
     2
 10
2000.802380412
 20
1401.509
 11
1950.802380412
 21
1401.509
  0
LINE
  8
0
  6
LTYPE1
 62
     2
 10
2000.802380412
 20
1356.509
 11
2000.802380412
 21
1401.509
  0
LINE
  8
0
  6
CONTINUOUS
 62
     1
 10
2028.308049653
 20
1472.819759633
 11
1978.40689969
 21
1401.55353178
  0
ARC
  8
0
  6
CONTINUOUS
 62
     1
 10
2028.636900508
 20
1481.134917906
 40
3.0
 50
325.0
 51
55.0
  0
LINE
  8
0
  6
CONTINUOUS
 62
     1
 10
1992.267059757
 20
1510.26367833
 11
2030.357629817
 21
1483.592374039
  0
ARC
  8
0
  6
CONTINUOUS
 62
     1
 10
1991.693483321
 20
1509.444526285
 40
1.0
 50
55.0
 51
145.0
  0
ARC
  8
0
  6
CONTINUOUS
 62
     1
 10
1989.153601968
 20
1507.560646589
 40
1.0
 50
55.0
 51
145.0
  0
ARC
  8
0
  6
CONTINUOUS
 62
     1
 10
1973.573562618
 20
1402.496321655
 40
3.0
 50
235.0
 51
325.0
  0
LINE
  8
0
  6
CONTINUOUS
 62
     1
 10
1933.762263249
 20
1426.710169812
 11
1971.852833309
 21
1400.038865522
  0
ARC
  8
0
  6
CONTINUOUS
 62
     1
 10
1934.335839686
 20
1427.529321856
 40
1.0
 50
145.0
 51
235.0
  0
ARC
  8
0
  6
CONTINUOUS
 62
     1
 10
1935.237416951
 20
1430.560354426
 40
1.0
 50
145.0
 51
235.0
  0
LINE
  8
0
  6
CONTINUOUS
 62
     1
 10
1937.858023471
 20
1423.84228763
 11
1996.362819979
 21
1507.395796148
  0
LINE
  8
0
  6
CONTINUOUS
 62
     1
 10
1939.086751537
 20
1422.981922976
 11
1997.591548045
 21
1506.535431493
  0
LINE
  8
0
  6
CONTINUOUS
 62
     1
 10
2031.094356641
 20
1479.414188597
 11
1976.031018751
 21
1400.775592346
  0
LINE
  8
0
  6
CONTINUOUS
 62
     1
 10
1934.418264906
 20
1431.133930862
 11
1988.334449923
 21
1508.134223025
  0
LINE
  8
0
  6
CONTINUOUS
 62
     1
 10
1933.516687642
 20
1428.102898293
 11
1990.874331277
 21
1510.018102722
  0
LINE
  8
0
  6
LTYPE2
 62
     2
 10
1932.534555215
 20
1434.894467765
 11
1947.852698443
 21
1424.168588405
  0
LINE
  8
0
  6
LTYPE2
 62
     2
 10
1984.156434487
 20
1508.618151751
 11
1999.474577715
 21
1497.892272391
  0
LINE
  8
0
  6
CONTINUOUS
 62
     1
 10
2050.412606075
 20
1462.225080952
 11
2030.602355398
 21
1476.09636781
  0
LINE
  8
0
  6
LTYPE3
 62
     2
 10
2097.460703407
 20
1374.346792048
 11
1954.460703407
 21
1474.476470012
  0
LINE
  8
0
  6
CONTINUOUS
 62
     1
 10
1999.790726804
 20
1387.801189428
 11
1978.980476126
 21
1402.372683824
  0
LINE
  8
6
  6
CONTINUOUS
 62
     2
 10
1938.802380412
 20
1401.509
 11
1882.802380412
 21
1401.509
  0
LINE
  8
0
  6
LTYPE3
 62
     2
 10
1970.850563461
 20
1438.706752135
 11
1994.19512442
 21
1472.046240338
  0
ARC
  8
0
  6
CONTINUOUS
 62
     1
 10
2090.802380412
 20
1610.009
 40
125.0
 50
69.402826706
 51
280.557968545
  0
CIRCLE
  8
0
  6
CONTINUOUS
 62
     2
 10
1982.264734544
 20
1455.007877817
 40
10.4775
  0
CIRCLE
  8
0
  6
CONTINUOUS
 62
     2
 10
1982.264734544
 20
1455.007877817
 40
9.3155
  0
LINE
  8
1
  6
CONTINUOUS
 62
     2
 10
1980.802380412
 20
1443.509
 11
1969.256865526
 21
1427.178014543
  0
LINE
  8
1
  6
CONTINUOUS
 62
     2
 10
1980.802380412
 20
1443.509
 11
1978.96916395
 21
1423.593194282
  0
LINE
  8
0
  6
CONTINUOUS
 62
     1
 10
1960.802380412
 20
1469.234525817
 11
1960.802380412
 21
1688.542147735
  0
LINE
  8
0
  6
CONTINUOUS
 62
     1
 10
1950.802380412
 20
1334.009
 11
1950.802380412
 21
1416.234525817
  0
ARC
  8
0
  6
CONTINUOUS
 62
     1
 10
2090.802380412
 20
1610.009
 40
105.0
 50
228.094058059
 51
272.980462591
  0
ARC
  8
0
  6
CONTINUOUS
 62
     1
 10
2090.802380412
 20
1379.009
 40
100.0
 50
170.727398223
 51
118.886581767
  0
LINE
  8
1
  6
CONTINUOUS
 62
     2
 10
2220.802380412
 20
1244.009
 11
2317.802380412
 21
1244.009
  0
LINE
  8
1
  6
CONTINUOUS
 62
     2
 10
2220.802380412
 20
1244.009
 11
2387.802380412
 21
1244.009
  0
TEXT
  8
1
  6
CONTINUOUS
 62
     3
 10
1725.0
 20
1163.0
 30
8.0
 40
24.0
  1
ＰＦ１／２
 50
0.0
 41
0.9
 51
0.0
  7
KANJI63
  0
LINE
  8
1
  6
CONTINUOUS
 62
     2
 10
1980.802380412
 20
1443.509
 11
1874.313384345
 21
1155.0
  0
LINE
  8
1
  6
CONTINUOUS
 62
     2
 10
1874.313384345
 20
1155.0
 11
1725.0
 21
1155.0
  0
TEXT
  8
0
  6
CONTINUOUS
 62
     2
 10
2266.802380412
 20
341.009
 30
24.0
 40
24.0
  1
岡田
 50
0.0
 41
0.9
 51
0.0
  7
KANJI64
  0
TEXT
  8
0
  6
CONTINUOUS
 62
     2
 10
2267.0
 20
289.0
 30
24.0
 40
24.0
  1
佐竹
 50
0.0
 41
0.9
 51
0.0
  7
KANJI64
  0
TEXT
  8
0
  6
CONTINUOUS
 62
     2
 10
2242.0
 20
229.0
 30
0.0
 40
24.0
  1
２０００．０８．０９
 50
0.0
 41
0.766666667
 51
0.0
  7
KANJI65
  0
TEXT
  8
0
  6
CONTINUOUS
 62
     2
 10
2989.8
 20
1569.2
 30
2.4
 40
24.0
  1
３．７
 50
0.0
 41
0.9
 51
0.0
  7
KANJI2
  0
ENDSEC
  0
EOF
