  0
SECTION
  2
HEADER
  9
$EXTMIN
 10
0.0
 20
0.0
 30
0.0
  9
$EXTMAX
 10
3360.0
 20
2376.0
 30
0.0
  9
$LIMMIN
 10
0.0
 20
0.0
  9
$LIMMAX
 10
3360.0
 20
2376.0
  9
$LTSCALE
 40
1.0
  9
$PDMODE
 70
     0
  0
ENDSEC
  0
SECTION
  2
TABLES
  0
TABLE
  2
LTYPE
 70
     6
  0
LTYPE
  2
CONTINUOUS
 70
    64
  3
Solid line
 72
    65
 73
     0
 40
0.0
  0
LTYPE
  2
LTYPE1
 70
    64
  3
HIDDEN
 72
    65
 73
     2
 40
24.0
 49
14.4
 49
-9.6
  0
LTYPE
  2
LTYPE2
 70
    64
  3
CENTER
 72
    65
 73
     4
 40
80.0
 49
56.0
 49
-8.0
 49
8.0
 49
-8.0
  0
LTYPE
  2
LTYPE3
 70
    64
  3
CENTER
 72
    65
 73
     4
 40
120.0
 49
84.0
 49
-12.0
 49
12.0
 49
-12.0
  0
LTYPE
  2
LTYPE4
 70
    64
  3
PHANTOM
 72
    65
 73
     6
 40
120.0
 49
90.0
 49
-6.0
 49
6.0
 49
-6.0
 49
6.0
 49
-6.0
  0
LTYPE
  2
LTYPE5
 70
    64
  3
CENTER
 72
    65
 73
     4
 40
160.0
 49
112.0
 49
-16.0
 49
16.0
 49
-16.0
  0
ENDTAB
  0
TABLE
  2
LAYER
 70
   128
  0
LAYER
  2
0
 70
     0
 62
     7
  6
CONTINUOUS
  0
LAYER
  2
2
 70
     0
 62
     7
  6
CONTINUOUS
  0
LAYER
  2
3
 70
     0
 62
     7
  6
CONTINUOUS
  0
LAYER
  2
4
 70
     0
 62
     7
  6
CONTINUOUS
  0
LAYER
  2
5
 70
     0
 62
     7
  6
CONTINUOUS
  0
LAYER
  2
6
 70
     0
 62
     7
  6
CONTINUOUS
  0
LAYER
  2
7
 70
     0
 62
     7
  6
CONTINUOUS
  0
LAYER
  2
8
 70
     0
 62
     7
  6
CONTINUOUS
  0
LAYER
  2
9
 70
     0
 62
     7
  6
CONTINUOUS
  0
LAYER
  2
10
 70
     0
 62
     7
  6
CONTINUOUS
  0
LAYER
  2
11
 70
     0
 62
     7
  6
CONTINUOUS
  0
LAYER
  2
12
 70
     0
 62
     7
  6
CONTINUOUS
  0
LAYER
  2
13
 70
     0
 62
     7
  6
CONTINUOUS
  0
LAYER
  2
14
 70
     0
 62
     7
  6
CONTINUOUS
  0
LAYER
  2
15
 70
     0
 62
     7
  6
CONTINUOUS
  0
LAYER
  2
16
 70
     0
 62
     7
  6
CONTINUOUS
  0
LAYER
  2
17
 70
     0
 62
     7
  6
CONTINUOUS
  0
LAYER
  2
18
 70
     0
 62
     7
  6
CONTINUOUS
  0
LAYER
  2
19
 70
     0
 62
     7
  6
CONTINUOUS
  0
LAYER
  2
20
 70
     0
 62
     7
  6
CONTINUOUS
  0
LAYER
  2
21
 70
     0
 62
     7
  6
CONTINUOUS
  0
LAYER
  2
22
 70
     0
 62
     7
  6
CONTINUOUS
  0
LAYER
  2
23
 70
     0
 62
     7
  6
CONTINUOUS
  0
LAYER
  2
24
 70
     0
 62
     7
  6
CONTINUOUS
  0
LAYER
  2
25
 70
     0
 62
     7
  6
CONTINUOUS
  0
LAYER
  2
26
 70
     0
 62
     7
  6
CONTINUOUS
  0
LAYER
  2
27
 70
     0
 62
     7
  6
CONTINUOUS
  0
LAYER
  2
28
 70
     0
 62
     7
  6
CONTINUOUS
  0
LAYER
  2
29
 70
     0
 62
     7
  6
CONTINUOUS
  0
LAYER
  2
30
 70
     0
 62
     7
  6
CONTINUOUS
  0
LAYER
  2
31
 70
     0
 62
     7
  6
CONTINUOUS
  0
LAYER
  2
32
 70
     0
 62
     7
  6
CONTINUOUS
  0
LAYER
  2
33
 70
     0
 62
     7
  6
CONTINUOUS
  0
LAYER
  2
34
 70
     0
 62
     7
  6
CONTINUOUS
  0
LAYER
  2
35
 70
     0
 62
     7
  6
CONTINUOUS
  0
LAYER
  2
36
 70
     0
 62
     7
  6
CONTINUOUS
  0
LAYER
  2
37
 70
     0
 62
     7
  6
CONTINUOUS
  0
LAYER
  2
38
 70
     0
 62
     7
  6
CONTINUOUS
  0
LAYER
  2
39
 70
     0
 62
     7
  6
CONTINUOUS
  0
LAYER
  2
40
 70
     0
 62
     7
  6
CONTINUOUS
  0
LAYER
  2
41
 70
     0
 62
     7
  6
CONTINUOUS
  0
LAYER
  2
42
 70
     0
 62
     7
  6
CONTINUOUS
  0
LAYER
  2
43
 70
     0
 62
     7
  6
CONTINUOUS
  0
LAYER
  2
44
 70
     0
 62
     7
  6
CONTINUOUS
  0
LAYER
  2
45
 70
     0
 62
     7
  6
CONTINUOUS
  0
LAYER
  2
46
 70
     0
 62
     7
  6
CONTINUOUS
  0
LAYER
  2
47
 70
     0
 62
     7
  6
CONTINUOUS
  0
LAYER
  2
48
 70
     0
 62
     7
  6
CONTINUOUS
  0
LAYER
  2
49
 70
     0
 62
     7
  6
CONTINUOUS
  0
LAYER
  2
50
 70
     0
 62
     7
  6
CONTINUOUS
  0
LAYER
  2
51
 70
     0
 62
     7
  6
CONTINUOUS
  0
LAYER
  2
52
 70
     0
 62
     7
  6
CONTINUOUS
  0
LAYER
  2
53
 70
     0
 62
     7
  6
CONTINUOUS
  0
LAYER
  2
54
 70
     0
 62
     7
  6
CONTINUOUS
  0
LAYER
  2
55
 70
     0
 62
     7
  6
CONTINUOUS
  0
LAYER
  2
56
 70
     0
 62
     7
  6
CONTINUOUS
  0
LAYER
  2
57
 70
     0
 62
     7
  6
CONTINUOUS
  0
LAYER
  2
58
 70
     0
 62
     7
  6
CONTINUOUS
  0
LAYER
  2
59
 70
     0
 62
     7
  6
CONTINUOUS
  0
LAYER
  2
60
 70
     0
 62
     7
  6
CONTINUOUS
  0
LAYER
  2
61
 70
     0
 62
     7
  6
CONTINUOUS
  0
LAYER
  2
62
 70
     0
 62
     7
  6
CONTINUOUS
  0
LAYER
  2
63
 70
     0
 62
     7
  6
CONTINUOUS
  0
LAYER
  2
64
 70
     0
 62
     7
  6
CONTINUOUS
  0
LAYER
  2
65
 70
     0
 62
     7
  6
CONTINUOUS
  0
LAYER
  2
66
 70
     0
 62
     7
  6
CONTINUOUS
  0
LAYER
  2
67
 70
     0
 62
     7
  6
CONTINUOUS
  0
LAYER
  2
68
 70
     0
 62
     7
  6
CONTINUOUS
  0
LAYER
  2
69
 70
     0
 62
     7
  6
CONTINUOUS
  0
LAYER
  2
70
 70
     0
 62
     7
  6
CONTINUOUS
  0
LAYER
  2
71
 70
     0
 62
     7
  6
CONTINUOUS
  0
LAYER
  2
72
 70
     0
 62
     7
  6
CONTINUOUS
  0
LAYER
  2
73
 70
     0
 62
     7
  6
CONTINUOUS
  0
LAYER
  2
74
 70
     0
 62
     7
  6
CONTINUOUS
  0
LAYER
  2
75
 70
     0
 62
     7
  6
CONTINUOUS
  0
LAYER
  2
76
 70
     0
 62
     7
  6
CONTINUOUS
  0
LAYER
  2
77
 70
     0
 62
     7
  6
CONTINUOUS
  0
LAYER
  2
78
 70
     0
 62
     7
  6
CONTINUOUS
  0
LAYER
  2
79
 70
     0
 62
     7
  6
CONTINUOUS
  0
LAYER
  2
80
 70
     0
 62
     7
  6
CONTINUOUS
  0
LAYER
  2
81
 70
     0
 62
     7
  6
CONTINUOUS
  0
LAYER
  2
82
 70
     0
 62
     7
  6
CONTINUOUS
  0
LAYER
  2
83
 70
     0
 62
     7
  6
CONTINUOUS
  0
LAYER
  2
84
 70
     0
 62
     7
  6
CONTINUOUS
  0
LAYER
  2
85
 70
     0
 62
     7
  6
CONTINUOUS
  0
LAYER
  2
86
 70
     0
 62
     7
  6
CONTINUOUS
  0
LAYER
  2
87
 70
     0
 62
     7
  6
CONTINUOUS
  0
LAYER
  2
88
 70
     0
 62
     7
  6
CONTINUOUS
  0
LAYER
  2
89
 70
     0
 62
     7
  6
CONTINUOUS
  0
LAYER
  2
90
 70
     0
 62
     7
  6
CONTINUOUS
  0
LAYER
  2
91
 70
     0
 62
     7
  6
CONTINUOUS
  0
LAYER
  2
92
 70
     0
 62
     7
  6
CONTINUOUS
  0
LAYER
  2
93
 70
     0
 62
     7
  6
CONTINUOUS
  0
LAYER
  2
94
 70
     0
 62
     7
  6
CONTINUOUS
  0
LAYER
  2
95
 70
     0
 62
     7
  6
CONTINUOUS
  0
LAYER
  2
96
 70
     0
 62
     7
  6
CONTINUOUS
  0
LAYER
  2
97
 70
     0
 62
     7
  6
CONTINUOUS
  0
LAYER
  2
98
 70
     0
 62
     7
  6
CONTINUOUS
  0
LAYER
  2
99
 70
     0
 62
     7
  6
CONTINUOUS
  0
LAYER
  2
100
 70
     0
 62
     7
  6
CONTINUOUS
  0
LAYER
  2
101
 70
     0
 62
     7
  6
CONTINUOUS
  0
LAYER
  2
102
 70
     0
 62
     7
  6
CONTINUOUS
  0
LAYER
  2
103
 70
     0
 62
     7
  6
CONTINUOUS
  0
LAYER
  2
104
 70
     0
 62
     7
  6
CONTINUOUS
  0
LAYER
  2
105
 70
     0
 62
     7
  6
CONTINUOUS
  0
LAYER
  2
106
 70
     0
 62
     7
  6
CONTINUOUS
  0
LAYER
  2
107
 70
     0
 62
     7
  6
CONTINUOUS
  0
LAYER
  2
108
 70
     0
 62
     7
  6
CONTINUOUS
  0
LAYER
  2
109
 70
     0
 62
     7
  6
CONTINUOUS
  0
LAYER
  2
110
 70
     0
 62
     7
  6
CONTINUOUS
  0
LAYER
  2
111
 70
     0
 62
     7
  6
CONTINUOUS
  0
LAYER
  2
112
 70
     0
 62
     7
  6
CONTINUOUS
  0
LAYER
  2
113
 70
     0
 62
     7
  6
CONTINUOUS
  0
LAYER
  2
114
 70
     0
 62
     7
  6
CONTINUOUS
  0
LAYER
  2
115
 70
     0
 62
     7
  6
CONTINUOUS
  0
LAYER
  2
116
 70
     0
 62
     7
  6
CONTINUOUS
  0
LAYER
  2
117
 70
     0
 62
     7
  6
CONTINUOUS
  0
LAYER
  2
118
 70
     0
 62
     7
  6
CONTINUOUS
  0
LAYER
  2
119
 70
     0
 62
     7
  6
CONTINUOUS
  0
LAYER
  2
120
 70
     0
 62
     7
  6
CONTINUOUS
  0
LAYER
  2
121
 70
     0
 62
     7
  6
CONTINUOUS
  0
LAYER
  2
122
 70
     0
 62
     7
  6
CONTINUOUS
  0
LAYER
  2
123
 70
     0
 62
     7
  6
CONTINUOUS
  0
LAYER
  2
124
 70
     0
 62
     7
  6
CONTINUOUS
  0
LAYER
  2
125
 70
     0
 62
     7
  6
CONTINUOUS
  0
LAYER
  2
126
 70
     0
 62
     7
  6
CONTINUOUS
  0
LAYER
  2
127
 70
     0
 62
     7
  6
CONTINUOUS
  0
LAYER
  2
128
 70
     0
 62
     7
  6
CONTINUOUS
  0
ENDTAB
  0
TABLE
  2
STYLE
 70
    67
  0
STYLE
  2
STANDARD
 70
     0
 40
0.0
 41
1.0
 50
0.0
 71
     0
 42
0.2
  3
txt
  4

  0
STYLE
  2
KANJI0
 70
     0
 40
40.0
 41
1.0
 50
0.0
 71
     0
 42
40.0
  3

  4
bigfont
  0
STYLE
  2
KANJI1
 70
     0
 40
40.0
 41
1.0
 50
0.0
 71
     0
 42
40.0
  3

  4
bigfont
  0
STYLE
  2
KANJI2
 70
     0
 40
24.0
 41
0.9
 50
0.0
 71
     0
 42
24.0
  3

  4
bigfont
  0
STYLE
  2
KANJI3
 70
     0
 40
24.0
 41
0.9
 50
0.0
 71
     0
 42
24.0
  3

  4
bigfont
  0
STYLE
  2
KANJI4
 70
     0
 40
19.2
 41
0.777777778
 50
0.0
 71
     0
 42
19.2
  3

  4
bigfont
  0
STYLE
  2
KANJI5
 70
     0
 40
25.6
 41
0.9
 50
0.0
 71
     0
 42
25.6
  3

  4
bigfont
  0
STYLE
  2
KANJI6
 70
     0
 40
32.0
 41
0.9
 50
0.0
 71
     0
 42
32.0
  3

  4
bigfont
  0
STYLE
  2
KANJI7
 70
     0
 40
28.8
 41
0.857142857
 50
0.0
 71
     0
 42
28.8
  3

  4
bigfont
  0
STYLE
  2
KANJI8
 70
     0
 40
28.0
 41
0.9
 50
0.0
 71
     0
 42
28.0
  3

  4
bigfont
  0
STYLE
  2
KANJI9
 70
     0
 40
15.999996636
 41
0.6
 50
0.0
 71
     0
 42
15.999996636
  3

  4
bigfont
  0
STYLE
  2
KANJI10
 70
     0
 40
19.199995963
 41
0.9
 50
0.0
 71
     0
 42
19.199995963
  3

  4
bigfont
  0
STYLE
  2
KANJI11
 70
     0
 40
13.8666656
 41
0.8
 50
0.0
 71
     0
 42
13.8666656
  3

  4
bigfont
  0
STYLE
  2
KANJI12
 70
     0
 40
13.8666656
 41
0.75
 50
0.0
 71
     0
 42
13.8666656
  3

  4
bigfont
  0
STYLE
  2
KANJI13
 70
     0
 40
16.63999872
 41
0.75
 50
0.0
 71
     0
 42
16.63999872
  3

  4
bigfont
  0
STYLE
  2
KANJI14
 70
     0
 40
16.63999872
 41
0.9
 50
0.0
 71
     0
 42
16.63999872
  3

  4
bigfont
  0
STYLE
  2
KANJI15
 70
     0
 40
16.63999872
 41
0.8
 50
0.0
 71
     0
 42
16.63999872
  3

  4
bigfont
  0
STYLE
  2
KANJI16
 70
     0
 40
20.7999984
 41
0.9
 50
0.0
 71
     0
 42
20.7999984
  3

  4
bigfont
  0
STYLE
  2
KANJI17
 70
     0
 40
13.8666656
 41
0.75
 50
0.0
 71
     0
 42
13.8666656
  3

  4
bigfont
  0
STYLE
  2
KANJI18
 70
     0
 40
20.7999984
 41
0.75
 50
0.0
 71
     0
 42
20.7999984
  3

  4
bigfont
  0
STYLE
  2
KANJI19
 70
     0
 40
12.47999904
 41
0.75
 50
0.0
 71
     0
 42
12.47999904
  3

  4
bigfont
  0
STYLE
  2
KANJI20
 70
     0
 40
13.8666656
 41
0.6
 50
0.0
 71
     0
 42
13.8666656
  3

  4
bigfont
  0
STYLE
  2
KANJI21
 70
     0
 40
16.63999872
 41
0.6
 50
0.0
 71
     0
 42
16.63999872
  3

  4
bigfont
  0
STYLE
  2
KANJI22
 70
     0
 40
13.8666656
 41
0.8
 50
0.0
 71
     0
 42
13.8666656
  3

  4
bigfont
  0
STYLE
  2
KANJI23
 70
     0
 40
16.63999872
 41
0.8
 50
0.0
 71
     0
 42
16.63999872
  3

  4
bigfont
  0
STYLE
  2
KANJI24
 70
     0
 40
20.7999984
 41
0.75
 50
0.0
 71
     0
 42
20.7999984
  3

  4
bigfont
  0
STYLE
  2
KANJI25
 70
     0
 40
69.333328
 41
0.9
 50
0.0
 71
     0
 42
69.333328
  3

  4
bigfont
  0
STYLE
  2
KANJI26
 70
     0
 40
23.999994954
 41
0.9
 50
0.0
 71
     0
 42
23.999994954
  3

  4
bigfont
  0
STYLE
  2
KANJI27
 70
     0
 40
24.2666648
 41
0.42031746
 50
0.0
 71
     0
 42
24.2666648
  3

  4
bigfont
  0
STYLE
  2
KANJI28
 70
     0
 40
41.5999968
 41
0.9
 50
0.0
 71
     0
 42
41.5999968
  3

  4
bigfont
  0
STYLE
  2
KANJI29
 70
     0
 40
36.0
 41
0.666666667
 50
0.0
 71
     0
 42
36.0
  3

  4
bigfont
  0
STYLE
  2
KANJI30
 70
     0
 40
36.0
 41
0.9
 50
0.0
 71
     0
 42
36.0
  3

  4
bigfont
  0
STYLE
  2
KANJI31
 70
     4
 40
28.0
 41
0.9
 50
0.0
 71
     0
 42
28.0
  3

  4
bigfont
  0
STYLE
  2
KANJI32
 70
     4
 40
24.0
 41
0.9
 50
0.0
 71
     0
 42
24.0
  3

  4
bigfont
  0
STYLE
  2
KANJI33
 70
     0
 40
28.0
 41
0.9
 50
0.0
 71
     0
 42
28.0
  3

  4
bigfont
  0
STYLE
  2
KANJI34
 70
     0
 40
24.0
 41
0.9
 50
0.0
 71
     0
 42
24.0
  3

  4
bigfont
  0
STYLE
  2
KANJI35
 70
     0
 40
24.0
 41
0.857142857
 50
0.0
 71
     0
 42
24.0
  3

  4
bigfont
  0
STYLE
  2
KANJI36
 70
     0
 40
28.0
 41
0.9
 50
0.0
 71
     0
 42
28.0
  3

  4
bigfont
  0
STYLE
  2
KANJI37
 70
     0
 40
22.4
 41
0.9
 50
0.0
 71
     0
 42
22.4
  3

  4
bigfont
  0
STYLE
  2
KANJI38
 70
     0
 40
22.4
 41
0.785714286
 50
0.0
 71
     0
 42
22.4
  3

  4
bigfont
  0
STYLE
  2
KANJI39
 70
     0
 40
22.4
 41
0.8
 50
0.0
 71
     0
 42
22.4
  3

  4
bigfont
  0
STYLE
  2
KANJI40
 70
     0
 40
24.0
 41
0.8
 50
0.0
 71
     0
 42
24.0
  3

  4
bigfont
  0
STYLE
  2
KANJI41
 70
     0
 40
30.4
 41
0.9
 50
0.0
 71
     0
 42
30.4
  3

  4
bigfont
  0
STYLE
  2
KANJI42
 70
     0
 40
30.4
 41
0.9
 50
0.0
 71
     0
 42
30.4
  3

  4
bigfont
  0
STYLE
  2
KANJI43
 70
     0
 40
30.4
 41
0.9
 50
0.0
 71
     0
 42
30.4
  3

  4
bigfont
  0
STYLE
  2
KANJI44
 70
     0
 40
30.4
 41
0.9
 50
0.0
 71
     0
 42
30.4
  3

  4
bigfont
  0
STYLE
  2
KANJI45
 70
     0
 40
30.4
 41
0.9
 50
0.0
 71
     0
 42
30.4
  3

  4
bigfont
  0
STYLE
  2
KANJI46
 70
     0
 40
30.4
 41
0.9
 50
0.0
 71
     0
 42
30.4
  3

  4
bigfont
  0
STYLE
  2
KANJI47
 70
     0
 40
30.4
 41
0.9
 50
0.0
 71
     0
 42
30.4
  3

  4
bigfont
  0
STYLE
  2
KANJI48
 70
     0
 40
30.4
 41
0.9
 50
0.0
 71
     0
 42
30.4
  3

  4
bigfont
  0
STYLE
  2
KANJI49
 70
     0
 40
30.4
 41
0.9
 50
0.0
 71
     0
 42
30.4
  3

  4
bigfont
  0
STYLE
  2
KANJI50
 70
     0
 40
30.4
 41
0.9
 50
0.0
 71
     0
 42
30.4
  3

  4
bigfont
  0
STYLE
  2
KANJI51
 70
     0
 40
22.4
 41
0.8
 50
0.0
 71
     0
 42
22.4
  3

  4
bigfont
  0
STYLE
  2
KANJI52
 70
     0
 40
28.0
 41
0.914285714
 50
0.0
 71
     0
 42
28.0
  3

  4
bigfont
  0
STYLE
  2
KANJI53
 70
     0
 40
28.0
 41
0.793650794
 50
0.0
 71
     0
 42
28.0
  3

  4
bigfont
  0
STYLE
  2
KANJI54
 70
     0
 40
24.0
 41
0.9
 50
0.0
 71
     0
 42
24.0
  3

  4
bigfont
  0
STYLE
  2
KANJI55
 70
     0
 40
24.0
 41
0.9
 50
0.0
 71
     0
 42
24.0
  3

  4
bigfont
  0
STYLE
  2
KANJI56
 70
     0
 40
32.0
 41
0.925
 50
0.0
 71
     0
 42
32.0
  3

  4
bigfont
  0
STYLE
  2
KANJI57
 70
     0
 40
28.8
 41
0.857222222
 50
0.0
 71
     0
 42
28.8
  3

  4
bigfont
  0
STYLE
  2
KANJI58
 70
     0
 40
28.0
 41
0.857142857
 50
0.0
 71
     0
 42
28.0
  3

  4
bigfont
  0
STYLE
  2
KANJI59
 70
     0
 40
24.0
 41
0.9
 50
0.0
 71
     0
 42
24.0
  3

  4
bigfont
  0
STYLE
  2
KANJI60
 70
     0
 40
23.9994
 41
0.9
 50
0.0
 71
     0
 42
23.9994
  3

  4
bigfont
  0
STYLE
  2
KANJI61
 70
     0
 40
27.9993
 41
0.9
 50
0.0
 71
     0
 42
27.9993
  3

  4
bigfont
  0
STYLE
  2
KANJI62
 70
     0
 40
24.0
 41
0.833333333
 50
0.0
 71
     0
 42
24.0
  3

  4
bigfont
  0
STYLE
  2
KANJI63
 70
     0
 40
24.0
 41
0.9
 50
0.0
 71
     0
 42
24.0
  3

  4
bigfont
  0
STYLE
  2
KANJI64
 70
     0
 40
40.0
 41
0.8
 50
0.0
 71
     0
 42
40.0
  3

  4
bigfont
  0
STYLE
  2
KANJI65
 70
     0
 40
24.0
 41
0.833333333
 50
0.0
 71
     0
 42
24.0
  3

  4
bigfont
  0
ENDTAB
  0
TABLE
  2
VIEW
 70
     0
  0
ENDTAB
  0
ENDSEC
  0
SECTION
  2
BLOCKS
  0
ENDSEC
  0
SECTION
  2
ENTITIES
  0
LINE
  8
0
  6
CONTINUOUS
 62
     4
 10
3248.0
 20
-56.0
 11
2456.0
 21
-56.0
  0
LINE
  8
0
  6
CONTINUOUS
 62
     4
 10
3248.0
 20
-136.0
 11
2456.0
 21
-136.0
  0
TEXT
  8
0
  6
CONTINUOUS
 62
     2
 10
2848.0
 20
324.0
 30
20.0
 40
40.0
  1
外形寸法図
 50
0.0
 41
1.0
 51
0.0
  7
KANJI0
  0
TEXT
  8
0
  6
CONTINUOUS
 62
     2
 10
2800.0
 20
372.0
 30
5.714285714
 40
40.0
  1
マイティシリンダ
 50
0.0
 41
1.0
 51
0.0
  7
KANJI1
  0
LINE
  8
0
  6
CONTINUOUS
 62
     1
 10
608.0
 20
764.0
 11
1848.0
 21
764.0
  0
LINE
  8
0
  6
CONTINUOUS
 62
     1
 10
608.0
 20
708.0
 11
1848.0
 21
708.0
  0
LINE
  8
0
  6
CONTINUOUS
 62
     1
 10
1848.0
 20
764.0
 11
1848.0
 21
372.0
  0
LINE
  8
0
  6
CONTINUOUS
 62
     1
 10
608.0
 20
372.0
 11
1848.0
 21
372.0
  0
LINE
  8
0
  6
CONTINUOUS
 62
     1
 10
608.0
 20
764.0
 11
608.0
 21
372.0
  0
LINE
  8
0
  6
CONTINUOUS
 62
     1
 10
888.0
 20
764.0
 11
888.0
 21
372.0
  0
LINE
  8
0
  6
CONTINUOUS
 62
     2
 10
1048.0
 20
764.0
 11
1048.0
 21
372.0
  0
LINE
  8
0
  6
CONTINUOUS
 62
     2
 10
1208.0
 20
764.0
 11
1208.0
 21
372.0
  0
LINE
  8
0
  6
CONTINUOUS
 62
     2
 10
1368.0
 20
764.0
 11
1368.0
 21
372.0
  0
LINE
  8
0
  6
CONTINUOUS
 62
     2
 10
1528.0
 20
764.0
 11
1528.0
 21
372.0
  0
LINE
  8
0
  6
CONTINUOUS
 62
     2
 10
1688.0
 20
764.0
 11
1688.0
 21
372.0
  0
LINE
  8
0
  6
CONTINUOUS
 62
     2
 10
608.0
 20
428.0
 11
1848.0
 21
428.0
  0
LINE
  8
0
  6
CONTINUOUS
 62
     2
 10
608.0
 20
652.0
 11
1848.0
 21
652.0
  0
LINE
  8
0
  6
CONTINUOUS
 62
     2
 10
608.0
 20
596.0
 11
1848.0
 21
596.0
  0
LINE
  8
0
  6
CONTINUOUS
 62
     2
 10
608.0
 20
540.0
 11
1848.0
 21
540.0
  0
LINE
  8
0
  6
CONTINUOUS
 62
     2
 10
608.0
 20
484.0
 11
1848.0
 21
484.0
  0
TEXT
  8
0
  6
CONTINUOUS
 62
     2
 10
908.8
 20
724.0
 30
2.4
 40
24.0
  1
ストローク
 50
0.0
 41
0.9
 51
0.0
  7
KANJI2
  0
TEXT
  8
0
  6
CONTINUOUS
 62
     2
 10
1062.4
 20
722.4
 30
0.0
 40
24.0
  1
ｍｉｎ　
 50
0.0
 41
0.9
 51
0.0
  7
KANJI3
  0
TEXT
  8
0
  6
CONTINUOUS
 62
     2
 10
1222.4
 20
722.4
 30
0.0
 40
24.0
  1
ｍｉｎ　
 50
0.0
 41
0.9
 51
0.0
  7
KANJI3
  0
TEXT
  8
0
  6
CONTINUOUS
 62
     2
 10
1542.4
 20
722.4
 30
0.0
 40
24.0
  1
ｍｉｎ　
 50
0.0
 41
0.9
 51
0.0
  7
KANJI3
  0
TEXT
  8
0
  6
CONTINUOUS
 62
     2
 10
1791.0
 20
725.8
 30
0.0
 40
19.2
  1
（ｋｇ）
 50
0.0
 41
0.777777778
 51
0.0
  7
KANJI4
  0
TEXT
  8
0
  6
CONTINUOUS
 62
     2
 10
1695.0
 20
723.0
 30
2.56
 40
25.6
  1
概算重量
 50
0.0
 41
0.9
 51
0.0
  7
KANJI5
  0
TEXT
  8
0
  6
CONTINUOUS
 62
     2
 10
664.0
 20
724.0
 30
2.56
 40
25.6
  1
形
 50
0.0
 41
0.9
 51
0.0
  7
KANJI5
  0
TEXT
  8
0
  6
CONTINUOUS
 62
     2
 10
820.0
 20
724.0
 30
2.56
 40
25.6
  1
式
 50
0.0
 41
0.9
 51
0.0
  7
KANJI5
  0
TEXT
  8
0
  6
CONTINUOUS
 62
     2
 10
2400.0
 20
945.6
 30
16.0
 40
32.0
  1
特記事項
 50
0.0
 41
0.9
 51
0.0
  7
KANJI6
  0
TEXT
  8
0
  6
CONTINUOUS
 62
     2
 10
2288.0
 20
881.6
 30
8.228571429
 40
28.8
  1
１。運転時は必ずピストンロッドの回転防止を行って下さい。
 50
0.0
 41
0.857142857
 51
0.0
  7
KANJI7
  0
TEXT
  8
0
  6
CONTINUOUS
 62
     2
 10
1144.0
 20
724.0
 30
2.8
 40
28.0
  1
ＡＬ
 50
0.0
 41
0.9
 51
0.0
  7
KANJI8
  0
TEXT
  8
0
  6
CONTINUOUS
 62
     2
 10
1304.0
 20
724.0
 30
2.8
 40
28.0
  1
Ｌ
 50
0.0
 41
0.9
 51
0.0
  7
KANJI8
  0
TEXT
  8
0
  6
CONTINUOUS
 62
     2
 10
1440.0
 20
724.0
 30
2.8
 40
28.0
  1
Ｃ
 50
0.0
 41
0.9
 51
0.0
  7
KANJI8
  0
TEXT
  8
0
  6
CONTINUOUS
 62
     2
 10
1624.0
 20
724.0
 30
2.8
 40
28.0
  1
Ｐ
 50
0.0
 41
0.9
 51
0.0
  7
KANJI8
  0
TEXT
  8
0
  6
CONTINUOUS
 62
     4
 10
143.999994954
 20
179.99999159
 30
1.599999664
 40
15.999996636
  1
ＰＡＲＴＳ　ＬＩＳＴ
 50
0.0
 41
0.6
 51
0.0
  7
KANJI9
  0
TEXT
  8
0
  6
CONTINUOUS
 62
     4
 10
503.999919262
 20
179.99999159
 30
1.599999664
 40
15.999996636
  1
Ｎ０．
 50
0.0
 41
0.6
 51
0.0
  7
KANJI9
  0
TEXT
  8
0
  6
CONTINUOUS
 62
     4
 10
143.999994954
 20
155.999996636
 30
1.919999596
 40
19.199995963
  1
部品表
 50
0.0
 41
0.9
 51
0.0
  7
KANJI10
  0
TEXT
  8
0
  6
CONTINUOUS
 62
     4
 10
503.999919262
 20
155.999996636
 30
1.919999596
 40
19.199995963
  1
項番
 50
0.0
 41
0.9
 51
0.0
  7
KANJI10
  0
LINE
  8
0
  6
CONTINUOUS
 62
     4
 10
2838.1333624
 20
2285.0666672
 11
2838.1333624
 21
2163.7333432
  0
LINE
  8
0
  6
CONTINUOUS
 62
     4
 10
2772.2667008
 20
2285.0666672
 11
2772.2667008
 21
2163.7333432
  0
LINE
  8
0
  6
CONTINUOUS
 62
     4
 10
2654.4000432
 20
2285.0666672
 11
2654.4000432
 21
2163.7333432
  0
LINE
  8
0
  6
CONTINUOUS
 62
     4
 10
2536.5333856
 20
2285.0666672
 11
2536.5333856
 21
2163.7333432
  0
LINE
  8
0
  6
CONTINUOUS
 62
     4
 10
2470.666724
 20
2285.0666672
 11
2470.666724
 21
2163.7333432
  0
LINE
  8
0
  6
CONTINUOUS
 62
     4
 10
2404.8000624
 20
2285.0666672
 11
2404.8000624
 21
2163.7333432
  0
TEXT
  8
0
  6
CONTINUOUS
 62
     4
 10
2286.9334048
 20
2260.8000024
 30
1.38666656
 40
13.8666656
  1
（μ）
 50
0.0
 41
0.8
 51
0.0
  7
KANJI11
  0
TEXT
  8
0
  6
CONTINUOUS
 62
     4
 10
2280.000072
 20
2233.0666712
 30
1.38666656
 40
13.8666656
  1
０．８－Ｓ
 50
0.0
 41
0.75
 51
0.0
  7
KANJI12
  0
TEXT
  8
0
  6
CONTINUOUS
 62
     4
 10
2345.8667336
 20
2233.0666712
 30
1.38666656
 40
13.8666656
  1
　６－Ｓ
 50
0.0
 41
0.75
 51
0.0
  7
KANJI12
  0
TEXT
  8
0
  6
CONTINUOUS
 62
     4
 10
2411.7333952
 20
2233.0666712
 30
1.38666656
 40
13.8666656
  1
２５－Ｓ
 50
0.0
 41
0.75
 51
0.0
  7
KANJI12
  0
TEXT
  8
0
  6
CONTINUOUS
 62
     4
 10
2477.6000568
 20
2233.0666712
 30
1.38666656
 40
13.8666656
  1
１００－Ｓ
 50
0.0
 41
0.75
 51
0.0
  7
KANJI12
  0
TEXT
  8
0
  6
CONTINUOUS
 62
     4
 10
2543.4667184
 20
2233.0666712
 30
1.38666656
 40
13.8666656
  1
ＭＡＣＨＩＮＩＮＧ
 50
0.0
 41
0.75
 51
0.0
  7
KANJI12
  0
TEXT
  8
0
  6
CONTINUOUS
 62
     4
 10
2543.4667184
 20
2257.333336
 30
1.38666656
 40
13.8666656
  1
ＷＩＴＨＯＵＴ
 50
0.0
 41
0.75
 51
0.0
  7
KANJI12
  0
TEXT
  8
0
  6
CONTINUOUS
 62
     4
 10
2661.333376
 20
2257.333336
 30
1.38666656
 40
13.8666656
  1
ＭＡＣＨＩＮＩＮＧ
 50
0.0
 41
0.75
 51
0.0
  7
KANJI12
  0
TEXT
  8
0
  6
CONTINUOUS
 62
     4
 10
2661.333376
 20
2233.0666712
 30
1.38666656
 40
13.8666656
  1
ＴＯＬＥＲＡＮＣＥ
 50
0.0
 41
0.75
 51
0.0
  7
KANJI12
  0
TEXT
  8
0
  6
CONTINUOUS
 62
     4
 10
2779.2000336
 20
2257.333336
 30
1.38666656
 40
13.8666656
  1
０．５≦
 50
0.0
 41
0.75
 51
0.0
  7
KANJI12
  0
TEXT
  8
0
  6
CONTINUOUS
 62
     4
 10
2779.2000336
 20
2208.8000064
 30
1.38666656
 40
13.8666656
  1
≦６
 50
0.0
 41
0.75
 51
0.0
  7
KANJI12
  0
TEXT
  8
0
  6
CONTINUOUS
 62
     4
 10
2845.0666952
 20
2208.8000064
 30
1.38666656
 40
13.8666656
  1
≦３０
 50
0.0
 41
0.75
 51
0.0
  7
KANJI12
  0
TEXT
  8
0
  6
CONTINUOUS
 62
     4
 10
2845.0666952
 20
2257.333336
 30
1.38666656
 40
13.8666656
  1
６＜
 50
0.0
 41
0.75
 51
0.0
  7
KANJI12
  0
TEXT
  8
0
  6
CONTINUOUS
 62
     4
 10
2782.6667
 20
2174.1333424
 30
1.38666656
 40
13.8666656
  1
±０．１
 50
0.0
 41
0.75
 51
0.0
  7
KANJI12
  0
TEXT
  8
0
  6
CONTINUOUS
 62
     4
 10
2848.5333616
 20
2174.1333424
 30
1.38666656
 40
13.8666656
  1
±０．２
 50
0.0
 41
0.75
 51
0.0
  7
KANJI12
  0
ARC
  8
0
  6
CONTINUOUS
 62
     4
 10
2585.85960666
 20
2175.52000896
 40
11.09333248
 50
30.0
 51
180.0
  0
ARC
  8
0
  6
CONTINUOUS
 62
     4
 10
2605.07382214
 20
2186.61334144
 40
11.09333248
 50
210.0
 51
0.0
  0
LINE
  8
0
  6
CONTINUOUS
 62
     4
 10
2497.5333886
 20
2188.000008
 11
2509.666721
 21
2188.000008
  0
LINE
  8
0
  6
CONTINUOUS
 62
     4
 10
2497.5333886
 20
2188.000008
 11
2503.6000548
 21
2174.1333424
  0
LINE
  8
0
  6
CONTINUOUS
 62
     4
 10
2503.6000548
 20
2174.1333424
 11
2509.666721
 21
2188.000008
  0
LINE
  8
0
  6
CONTINUOUS
 62
     4
 10
2425.6000608
 20
2188.000008
 11
2431.666727
 21
2174.1333424
  0
LINE
  8
0
  6
CONTINUOUS
 62
     4
 10
2431.666727
 20
2174.1333424
 11
2437.7333932
 21
2188.000008
  0
LINE
  8
0
  6
CONTINUOUS
 62
     4
 10
2437.7333932
 20
2188.000008
 11
2443.8000594
 21
2174.1333424
  0
LINE
  8
0
  6
CONTINUOUS
 62
     4
 10
2443.8000594
 20
2174.1333424
 11
2449.8667256
 21
2188.000008
  0
LINE
  8
0
  6
CONTINUOUS
 62
     4
 10
2425.6000608
 20
2188.000008
 11
2449.8667256
 21
2188.000008
  0
LINE
  8
0
  6
CONTINUOUS
 62
     4
 10
2338.9334008
 20
2285.0666672
 11
2338.9334008
 21
2163.7333432
  0
LINE
  8
0
  6
CONTINUOUS
 62
     4
 10
2281.7334052
 20
2188.000008
 11
2330.2667348
 21
2188.000008
  0
LINE
  8
0
  6
CONTINUOUS
 62
     4
 10
2281.7334052
 20
2188.000008
 11
2287.8000714
 21
2174.1333424
  0
LINE
  8
0
  6
CONTINUOUS
 62
     4
 10
2287.8000714
 20
2174.1333424
 11
2293.8667376
 21
2188.000008
  0
LINE
  8
0
  6
CONTINUOUS
 62
     4
 10
2293.8667376
 20
2188.000008
 11
2299.9334038
 21
2174.1333424
  0
LINE
  8
0
  6
CONTINUOUS
 62
     4
 10
2299.9334038
 20
2174.1333424
 11
2306.00007
 21
2188.000008
  0
LINE
  8
0
  6
CONTINUOUS
 62
     4
 10
2306.00007
 20
2188.000008
 11
2312.0667362
 21
2174.1333424
  0
LINE
  8
0
  6
CONTINUOUS
 62
     4
 10
2312.0667362
 20
2174.1333424
 11
2318.1334024
 21
2188.000008
  0
LINE
  8
0
  6
CONTINUOUS
 62
     4
 10
2318.1334024
 20
2188.000008
 11
2324.2000686
 21
2174.1333424
  0
LINE
  8
0
  6
CONTINUOUS
 62
     4
 10
2324.2000686
 20
2174.1333424
 11
2330.2667348
 21
2188.000008
  0
LINE
  8
0
  6
CONTINUOUS
 62
     4
 10
2353.666733
 20
2188.000008
 11
2359.7333992
 21
2174.1333424
  0
LINE
  8
0
  6
CONTINUOUS
 62
     4
 10
2359.7333992
 20
2174.1333424
 11
2365.8000654
 21
2188.000008
  0
LINE
  8
0
  6
CONTINUOUS
 62
     4
 10
2365.8000654
 20
2188.000008
 11
2371.8667316
 21
2174.1333424
  0
LINE
  8
0
  6
CONTINUOUS
 62
     4
 10
2371.8667316
 20
2174.1333424
 11
2377.9333978
 21
2188.000008
  0
LINE
  8
0
  6
CONTINUOUS
 62
     4
 10
2377.9333978
 20
2188.000008
 11
2384.000064
 21
2174.1333424
  0
LINE
  8
0
  6
CONTINUOUS
 62
     4
 10
2384.000064
 20
2174.1333424
 11
2390.0667302
 21
2188.000008
  0
LINE
  8
0
  6
CONTINUOUS
 62
     4
 10
2353.666733
 20
2188.000008
 11
2390.0667302
 21
2188.000008
  0
TEXT
  8
0
  6
CONTINUOUS
 62
     4
 10
2543.4667184
 20
2208.8000064
 30
1.663999872
 40
16.63999872
  1
加工なし
 50
0.0
 41
0.75
 51
0.0
  7
KANJI13
  0
TEXT
  8
0
  6
CONTINUOUS
 62
     4
 10
2661.333376
 20
2208.8000064
 30
1.663999872
 40
16.63999872
  1
普通加工交差
 50
0.0
 41
0.9
 51
0.0
  7
KANJI14
  0
TEXT
  8
0
  6
CONTINUOUS
 62
     4
 10
2689.0667072
 20
2174.1333424
 30
1.663999872
 40
16.63999872
  1
（ｍｍ）
 50
0.0
 41
0.75
 51
0.0
  7
KANJI13
  0
LINE
  8
0
  6
CONTINUOUS
 62
     4
 10
3035.7333472
 20
2285.0666672
 11
3035.7333472
 21
2163.7333432
  0
LINE
  8
0
  6
CONTINUOUS
 62
     4
 10
3122.4000072
 20
2285.0666672
 11
3122.4000072
 21
2163.7333432
  0
LINE
  8
0
  6
CONTINUOUS
 62
     4
 10
2969.8666856
 20
2285.0666672
 11
2969.8666856
 21
2163.7333432
  0
LINE
  8
0
  6
CONTINUOUS
 62
     4
 10
2904.000024
 20
2285.0666672
 11
2904.000024
 21
2163.7333432
  0
TEXT
  8
0
  6
CONTINUOUS
 62
     4
 10
2910.9333568
 20
2208.8000064
 30
1.38666656
 40
13.8666656
  1
≦１２０
 50
0.0
 41
0.75
 51
0.0
  7
KANJI12
  0
TEXT
  8
0
  6
CONTINUOUS
 62
     4
 10
2910.9333568
 20
2257.333336
 30
1.38666656
 40
13.8666656
  1
３０＜
 50
0.0
 41
0.75
 51
0.0
  7
KANJI12
  0
TEXT
  8
0
  6
CONTINUOUS
 62
     4
 10
2976.8000184
 20
2257.333336
 30
1.38666656
 40
13.8666656
  1
１２０＜
 50
0.0
 41
0.75
 51
0.0
  7
KANJI12
  0
TEXT
  8
0
  6
CONTINUOUS
 62
     4
 10
2976.8000184
 20
2208.8000064
 30
1.38666656
 40
13.8666656
  1
≦３１５
 50
0.0
 41
0.75
 51
0.0
  7
KANJI12
  0
TEXT
  8
0
  6
CONTINUOUS
 62
     4
 10
3042.66668
 20
2257.333336
 30
1.38666656
 40
13.8666656
  1
３１５＜
 50
0.0
 41
0.75
 51
0.0
  7
KANJI12
  0
TEXT
  8
0
  6
CONTINUOUS
 62
     4
 10
3042.66668
 20
2208.8000064
 30
1.38666656
 40
13.8666656
  1
≦１０００
 50
0.0
 41
0.75
 51
0.0
  7
KANJI12
  0
TEXT
  8
0
  6
CONTINUOUS
 62
     4
 10
3129.33334
 20
2257.333336
 30
1.38666656
 40
13.8666656
  1
１０００＜
 50
0.0
 41
0.75
 51
0.0
  7
KANJI12
  0
TEXT
  8
0
  6
CONTINUOUS
 62
     4
 10
3129.33334
 20
2208.8000064
 30
1.38666656
 40
13.8666656
  1
≦２０００
 50
0.0
 41
0.75
 51
0.0
  7
KANJI12
  0
TEXT
  8
0
  6
CONTINUOUS
 62
     4
 10
2914.4000232
 20
2174.1333424
 30
1.38666656
 40
13.8666656
  1
±０．３
 50
0.0
 41
0.75
 51
0.0
  7
KANJI12
  0
TEXT
  8
0
  6
CONTINUOUS
 62
     4
 10
2980.2666848
 20
2174.1333424
 30
1.38666656
 40
13.8666656
  1
±０．５
 50
0.0
 41
0.75
 51
0.0
  7
KANJI12
  0
TEXT
  8
0
  6
CONTINUOUS
 62
     4
 10
3056.5333456
 20
2174.1333424
 30
1.38666656
 40
13.8666656
  1
±０．８
 50
0.0
 41
0.75
 51
0.0
  7
KANJI12
  0
TEXT
  8
0
  6
CONTINUOUS
 62
     4
 10
3143.2000056
 20
2174.1333424
 30
1.38666656
 40
13.8666656
  1
±１．２
 50
0.0
 41
0.75
 51
0.0
  7
KANJI12
  0
LINE
  8
0
  6
CONTINUOUS
 62
     4
 10
2273.0667392
 20
2285.0666672
 11
2273.0667392
 21
2163.7333432
  0
TEXT
  8
0
  6
CONTINUOUS
 62
     4
 10
2162.1334144
 20
2233.0666712
 30
1.38666656
 40
13.8666656
  1
ＲＯＵＧＨＮＥＳＳ
 50
0.0
 41
0.8
 51
0.0
  7
KANJI11
  0
TEXT
  8
0
  6
CONTINUOUS
 62
     4
 10
2162.1334144
 20
2257.333336
 30
1.38666656
 40
13.8666656
  1
ＳＵＲＦＡＣＥ
 50
0.0
 41
0.8
 51
0.0
  7
KANJI11
  0
TEXT
  8
0
  6
CONTINUOUS
 62
     4
 10
2162.1334144
 20
2208.8000064
 30
1.663999872
 40
16.63999872
  1
仕上面粗さ
 50
0.0
 41
0.8
 51
0.0
  7
KANJI15
  0
TEXT
  8
0
  6
CONTINUOUS
 62
     4
 10
2172.5334136
 20
2174.1333424
 30
1.663999872
 40
16.63999872
  1
ＳＹＭ．記号
 50
0.0
 41
0.75
 51
0.0
  7
KANJI13
  0
LINE
  8
0
  6
CONTINUOUS
 62
     4
 10
3209.0666672
 20
2198.4000072
 11
2155.2000816
 21
2198.4000072
  0
TEXT
  8
0
  6
CONTINUOUS
 62
     4
 10
2338.9334008
 20
2298.9333328
 30
2.07999984
 40
20.7999984
  1
ＩＳＯ
 50
0.0
 41
0.9
 51
0.0
  7
KANJI16
  0
TEXT
  8
0
  6
CONTINUOUS
 62
     4
 10
2401.333396
 20
2298.9333328
 30
1.38666656
 40
13.8666656
  1
ＭＥＴＲＩＣ　ＳＣＲＥＷ　ＴＨＲＥＡＤ
 50
0.0
 41
0.75
 51
0.0
  7
KANJI17
  0
TEXT
  8
0
  6
CONTINUOUS
 62
     4
 10
2636.72004456
 20
2298.9333328
 30
1.38666656
 40
13.8666656
  1
ＩＳＯ
 50
0.0
 41
0.75
 51
0.0
  7
KANJI17
  0
TEXT
  8
0
  6
CONTINUOUS
 62
     4
 10
2834.32002936
 20
2298.9333328
 30
2.07999984
 40
20.7999984
  1
３
 50
0.0
 41
0.75
 51
0.0
  7
KANJI18
  0
TEXT
  8
0
  6
CONTINUOUS
 62
     4
 10
2851.65336136
 20
2298.9333328
 30
1.38666656
 40
13.8666656
  1
ＲＤ　ＡＮＧＬＥ　ＰＲＯＪＥＣＴＩＯＮ　第３角法
 50
0.0
 41
0.75
 51
0.0
  7
KANJI17
  0
TEXT
  8
0
  6
CONTINUOUS
 62
     4
 10
2674.85337496
 20
2298.9333328
 30
1.247999904
 40
12.47999904
  1
メートルネジ使用
 50
0.0
 41
0.75
 51
0.0
  7
KANJI19
  0
TEXT
  8
0
  6
CONTINUOUS
 62
     4
 10
2155.2000816
 20
289.0666552
 30
1.38666656
 40
13.8666656
  1
ＤＲＡＷＮ
 50
0.0
 41
0.6
 51
0.0
  7
KANJI20
  0
TEXT
  8
0
  6
CONTINUOUS
 62
     4
 10
2155.2000816
 20
344.5333176
 30
1.38666656
 40
13.8666656
  1
ＤＥＳＩＧＮ
 50
0.0
 41
0.6
 51
0.0
  7
KANJI20
  0
TEXT
  8
0
  6
CONTINUOUS
 62
     4
 10
2155.2000816
 20
399.99998
 30
1.38666656
 40
13.8666656
  1
ＣＨＥＣＫ
 50
0.0
 41
0.6
 51
0.0
  7
KANJI20
  0
TEXT
  8
0
  6
CONTINUOUS
 62
     4
 10
2155.2000816
 20
455.4666424
 30
1.38666656
 40
13.8666656
  1
ＣＯＤＥ
 50
0.0
 41
0.6
 51
0.0
  7
KANJI20
  0
LINE
  8
0
  6
CONTINUOUS
 62
     4
 10
2141.333416
 20
368.7999824
 11
2394.4000632
 21
368.7999824
  0
LINE
  8
0
  6
CONTINUOUS
 62
     4
 10
2141.333416
 20
313.33332
 11
2394.4000632
 21
313.33332
  0
LINE
  8
0
  6
CONTINUOUS
 62
     4
 10
2141.333416
 20
424.2666448
 11
2394.4000632
 21
424.2666448
  0
LINE
  8
0
  6
CONTINUOUS
 62
     4
 10
2141.333416
 20
479.7333072
 11
3209.0666672
 21
479.7333072
  0
TEXT
  8
0
  6
CONTINUOUS
 62
     4
 10
2155.2000816
 20
323.7333192
 30
1.663999872
 40
16.63999872
  1
設計
 50
0.0
 41
0.6
 51
0.0
  7
KANJI21
  0
TEXT
  8
0
  6
CONTINUOUS
 62
     4
 10
2155.2000816
 20
379.1999816
 30
1.663999872
 40
16.63999872
  1
検図
 50
0.0
 41
0.6
 51
0.0
  7
KANJI21
  0
TEXT
  8
0
  6
CONTINUOUS
 62
     4
 10
2155.2000816
 20
434.666644
 30
1.663999872
 40
16.63999872
  1
分類
 50
0.0
 41
0.6
 51
0.0
  7
KANJI21
  0
LINE
  8
0
  6
CONTINUOUS
 62
     4
 10
2414.85339496
 20
424.2666448
 11
3209.0666672
 21
424.2666448
  0
LINE
  8
0
  6
CONTINUOUS
 62
     4
 10
2394.4000632
 20
313.33332
 11
3209.0666672
 21
313.33332
  0
TEXT
  8
0
  6
CONTINUOUS
 62
     4
 10
2408.2667288
 20
289.0666552
 30
1.38666656
 40
13.8666656
  1
ＤＲＡＷＩＮＧ　ＮＯ．
 50
0.0
 41
0.8
 51
0.0
  7
KANJI22
  0
TEXT
  8
0
  6
CONTINUOUS
 62
     4
 10
2408.2667288
 20
344.5333176
 30
1.38666656
 40
13.8666656
  1
ＭＦＧ　ＮＯ．
 50
0.0
 41
0.8
 51
0.0
  7
KANJI22
  0
TEXT
  8
0
  6
CONTINUOUS
 62
     4
 10
2408.2667288
 20
399.99998
 30
1.38666656
 40
13.8666656
  1
ＴＹＰＥ
 50
0.0
 41
0.8
 51
0.0
  7
KANJI22
  0
LINE
  8
0
  6
CONTINUOUS
 62
     4
 10
2415.2000616
 20
368.7999824
 11
2734.1333704
 21
368.7999824
  0
TEXT
  8
0
  6
CONTINUOUS
 62
     4
 10
2408.2667288
 20
264.7999904
 30
1.663999872
 40
16.63999872
  1
図　面　番　号
 50
0.0
 41
0.8
 51
0.0
  7
KANJI23
  0
TEXT
  8
0
  6
CONTINUOUS
 62
     4
 10
2408.2667288
 20
320.2666528
 30
1.663999872
 40
16.63999872
  1
製番
 50
0.0
 41
0.8
 51
0.0
  7
KANJI23
  0
TEXT
  8
0
  6
CONTINUOUS
 62
     4
 10
2408.2667288
 20
375.7333152
 30
1.663999872
 40
16.63999872
  1
機種
 50
0.0
 41
0.8
 51
0.0
  7
KANJI23
  0
LINE
  8
0
  6
CONTINUOUS
 62
     4
 10
2141.333416
 20
202.3999952
 11
2394.4000632
 21
202.3999952
  0
LINE
  8
0
  6
CONTINUOUS
 62
     4
 10
2141.333416
 20
257.8666576
 11
2394.4000632
 21
257.8666576
  0
TEXT
  8
0
  6
CONTINUOUS
 62
     4
 10
2155.2000816
 20
178.1333304
 30
1.38666656
 40
13.8666656
  1
ＳＣＡＬＥ
 50
0.0
 41
0.6
 51
0.0
  7
KANJI20
  0
TEXT
  8
0
  6
CONTINUOUS
 62
     4
 10
2155.2000816
 20
233.5999928
 30
1.38666656
 40
13.8666656
  1
ＤＡＴＥ
 50
0.0
 41
0.6
 51
0.0
  7
KANJI20
  0
TEXT
  8
0
  6
CONTINUOUS
 62
     4
 10
2155.2000816
 20
157.333332
 30
1.663999872
 40
16.63999872
  1
尺度
 50
0.0
 41
0.6
 51
0.0
  7
KANJI21
  0
TEXT
  8
0
  6
CONTINUOUS
 62
     4
 10
2155.2000816
 20
212.7999944
 30
1.663999872
 40
16.63999872
  1
日付
 50
0.0
 41
0.6
 51
0.0
  7
KANJI21
  0
TEXT
  8
0
  6
CONTINUOUS
 62
     4
 10
2155.2000816
 20
268.2666568
 30
1.663999872
 40
16.63999872
  1
作図
 50
0.0
 41
0.6
 51
0.0
  7
KANJI21
  0
LINE
  8
0
  6
CONTINUOUS
 62
     4
 10
1749.6001128
 20
146.9333328
 11
1749.6001128
 21
202.3999952
  0
LINE
  8
0
  6
CONTINUOUS
 62
     4
 10
1812.000108
 20
146.9333328
 11
1812.000108
 21
202.3999952
  0
TEXT
  8
0
  6
CONTINUOUS
 62
     4
 10
1770.4001112
 20
178.1333304
 30
1.38666656
 40
13.8666656
  1
ＢＹ
 50
0.0
 41
0.6
 51
0.0
  7
KANJI20
  0
TEXT
  8
0
  6
CONTINUOUS
 62
     4
 10
1922.9334328
 20
178.1333304
 30
1.38666656
 40
13.8666656
  1
ＤＥＳＣＲＩＰＴＩＯＮ
 50
0.0
 41
0.6
 51
0.0
  7
KANJI20
  0
TEXT
  8
0
  6
CONTINUOUS
 62
     4
 10
1770.4001112
 20
157.333332
 30
1.663999872
 40
16.63999872
  1
担当
 50
0.0
 41
0.6
 51
0.0
  7
KANJI21
  0
TEXT
  8
0
  6
CONTINUOUS
 62
     4
 10
1943.7334312
 20
157.333332
 30
1.663999872
 40
16.63999872
  1
記　　　　事
 50
0.0
 41
0.6
 51
0.0
  7
KANJI21
  0
LINE
  8
0
  6
CONTINUOUS
 62
     4
 10
1623.0667892
 20
191.999996
 11
1600.5334576
 21
157.333332
  0
TEXT
  8
0
  6
CONTINUOUS
 62
     4
 10
1680.2667848
 20
178.1333304
 30
1.38666656
 40
13.8666656
  1
ＤＡＴＥ
 50
0.0
 41
0.6
 51
0.0
  7
KANJI20
  0
TEXT
  8
0
  6
CONTINUOUS
 62
     4
 10
1690.666784
 20
157.333332
 30
1.663999872
 40
16.63999872
  1
日付
 50
0.0
 41
0.6
 51
0.0
  7
KANJI21
  0
LINE
  8
0
  6
CONTINUOUS
 62
     4
 10
1600.5334576
 20
157.333332
 11
1645.6001208
 21
157.333332
  0
LINE
  8
0
  6
CONTINUOUS
 62
     4
 10
1652.5334536
 20
146.9333328
 11
1652.5334536
 21
202.3999952
  0
LINE
  8
0
  6
CONTINUOUS
 62
     4
 10
1623.0667892
 20
191.999996
 11
1645.6001208
 21
157.333332
  0
LINE
  8
0
  6
CONTINUOUS
 62
     4
 10
2394.4000632
 20
233.5999928
 11
3209.0666672
 21
233.5999928
  0
LINE
  8
0
  6
CONTINUOUS
 62
     4
 10
2394.4000632
 20
146.9333328
 11
2394.4000632
 21
479.7333072
  0
LINE
  8
0
  6
LTYPE1
 62
     4
 10
2976.8000184
 20
243.999992
 11
2976.8000184
 21
299.4666544
  0
LINE
  8
0
  6
LTYPE1
 62
     4
 10
2928.2666888
 20
243.999992
 11
2928.2666888
 21
299.4666544
  0
LINE
  8
0
  6
LTYPE1
 62
     4
 10
2879.7333592
 20
243.999992
 11
2879.7333592
 21
299.4666544
  0
LINE
  8
0
  6
LTYPE1
 62
     4
 10
2831.2000296
 20
243.999992
 11
2831.2000296
 21
299.4666544
  0
LINE
  8
0
  6
LTYPE1
 62
     4
 10
2782.6667
 20
243.999992
 11
2782.6667
 21
299.4666544
  0
LINE
  8
0
  6
LTYPE1
 62
     4
 10
2734.1333704
 20
243.999992
 11
2734.1333704
 21
299.4666544
  0
LINE
  8
0
  6
LTYPE1
 62
     4
 10
2685.6000408
 20
243.999992
 11
2685.6000408
 21
299.4666544
  0
LINE
  8
0
  6
LTYPE1
 62
     4
 10
2637.0667112
 20
243.999992
 11
2637.0667112
 21
299.4666544
  0
LINE
  8
0
  6
LTYPE1
 62
     4
 10
2637.0667112
 20
299.4666544
 11
2976.8000184
 21
299.4666544
  0
LINE
  8
0
  6
LTYPE1
 62
     4
 10
2637.0667112
 20
243.999992
 11
2976.8000184
 21
243.999992
  0
LINE
  8
0
  6
CONTINUOUS
 62
     4
 10
3004.5333496
 20
273.4666564
 11
3018.4000152
 21
273.4666564
  0
LINE
  8
0
  6
CONTINUOUS
 62
     4
 10
3091.2000096
 20
252.666658
 11
3042.66668
 21
252.666658
  0
LINE
  8
0
  6
CONTINUOUS
 62
     4
 10
3042.66668
 20
252.666658
 11
3066.9333448
 21
294.2666548
  0
LINE
  8
0
  6
CONTINUOUS
 62
     4
 10
3066.9333448
 20
294.2666548
 11
3091.2000096
 21
252.666658
  0
LINE
  8
0
  6
CONTINUOUS
 62
     4
 10
3222.9333328
 20
146.9333328
 11
3306.1333264
 21
146.9333328
  0
LINE
  8
0
  6
CONTINUOUS
 62
     4
 10
3222.9333328
 20
188.5333296
 11
3306.1333264
 21
188.5333296
  0
LINE
  8
0
  6
CONTINUOUS
 62
     4
 10
3222.9333328
 20
230.1333264
 11
3306.1333264
 21
230.1333264
  0
LINE
  8
0
  6
CONTINUOUS
 62
     4
 10
3222.9333328
 20
271.7333232
 11
3306.1333264
 21
271.7333232
  0
LINE
  8
0
  6
CONTINUOUS
 62
     4
 10
3222.9333328
 20
313.33332
 11
3306.1333264
 21
313.33332
  0
LINE
  8
0
  6
CONTINUOUS
 62
     4
 10
3222.9333328
 20
354.9333168
 11
3306.1333264
 21
354.9333168
  0
LINE
  8
0
  6
CONTINUOUS
 62
     4
 10
3222.9333328
 20
396.5333136
 11
3306.1333264
 21
396.5333136
  0
LINE
  8
0
  6
CONTINUOUS
 62
     4
 10
3222.9333328
 20
438.1333104
 11
3306.1333264
 21
438.1333104
  0
LINE
  8
0
  6
CONTINUOUS
 62
     4
 10
3222.9333328
 20
479.7333072
 11
3306.1333264
 21
479.7333072
  0
LINE
  8
0
  6
CONTINUOUS
 62
     4
 10
3222.9333328
 20
521.333304
 11
3306.1333264
 21
521.333304
  0
LINE
  8
0
  6
CONTINUOUS
 62
     4
 10
3306.1333264
 20
146.9333328
 11
3306.1333264
 21
521.333304
  0
LINE
  8
0
  6
CONTINUOUS
 62
     4
 10
3264.5333296
 20
146.9333328
 11
3264.5333296
 21
479.7333072
  0
TEXT
  8
0
  6
CONTINUOUS
 62
     4
 10
3237.14666504
 20
159.0666652
 30
2.07999984
 40
20.7999984
  1
計
 50
0.0
 41
0.75
 51
0.0
  7
KANJI24
  0
TEXT
  8
0
  6
CONTINUOUS
 62
     4
 10
3237.14666504
 20
242.95999208
 30
2.07999984
 40
20.7999984
  1
設
 50
0.0
 41
0.75
 51
0.0
  7
KANJI24
  0
TEXT
  8
0
  6
CONTINUOUS
 62
     4
 10
3237.14666504
 20
283.8666556
 30
2.07999984
 40
20.7999984
  1
管
 50
0.0
 41
0.75
 51
0.0
  7
KANJI24
  0
TEXT
  8
0
  6
CONTINUOUS
 62
     4
 10
3237.14666504
 20
325.4666524
 30
2.07999984
 40
20.7999984
  1
製
 50
0.0
 41
0.75
 51
0.0
  7
KANJI24
  0
TEXT
  8
0
  6
CONTINUOUS
 62
     4
 10
3237.14666504
 20
367.0666492
 30
2.07999984
 40
20.7999984
  1
資
 50
0.0
 41
0.75
 51
0.0
  7
KANJI24
  0
TEXT
  8
0
  6
CONTINUOUS
 62
     4
 10
3237.14666504
 20
408.666646
 30
2.07999984
 40
20.7999984
  1
営
 50
0.0
 41
0.75
 51
0.0
  7
KANJI24
  0
TEXT
  8
0
  6
CONTINUOUS
 62
     4
 10
3237.14666504
 20
450.2666428
 30
2.07999984
 40
20.7999984
  1
客
 50
0.0
 41
0.75
 51
0.0
  7
KANJI24
  0
TEXT
  8
0
  6
CONTINUOUS
 62
     4
 10
3236.7999984
 20
493.5999728
 30
2.07999984
 40
20.7999984
  1
出　図
 50
0.0
 41
0.75
 51
0.0
  7
KANJI24
  0
LINE
  8
0
  6
CONTINUOUS
 62
     4
 10
3222.9333328
 20
146.9333328
 11
3222.9333328
 21
521.333304
  0
TEXT
  8
0
  6
CONTINUOUS
 62
     4
 10
3098.1333424
 20
70.666672
 30
6.9333328
 40
69.333328
  1
／
 50
0.0
 41
0.9
 51
0.0
  7
KANJI25
  0
TEXT
  8
0
  6
CONTINUOUS
 62
     4
 10
2754.9333688
 20
399.99998
 30
1.38666656
 40
13.8666656
  1
ＴＩＴＬＥ
 50
0.0
 41
0.8
 51
0.0
  7
KANJI22
  0
TEXT
  8
0
  6
CONTINUOUS
 62
     4
 10
2754.9333688
 20
375.7333152
 30
1.663999872
 40
16.63999872
  1
名称
 50
0.0
 41
0.8
 51
0.0
  7
KANJI23
  0
LINE
  8
0
  6
CONTINUOUS
 62
     6
 10
120.0
 20
140.0
 11
120.0
 21
2292.0
  0
LINE
  8
0
  6
CONTINUOUS
 62
     6
 10
120.0
 20
2292.0
 11
3216.0
 21
2292.0
  0
LINE
  8
0
  6
CONTINUOUS
 62
     6
 10
3216.0
 20
2292.0
 11
3216.0
 21
140.0
  0
LINE
  8
0
  6
CONTINUOUS
 62
     6
 10
2155.2000816
 20
2285.0666672
 11
2155.2000816
 21
2163.7333432
  0
LINE
  8
0
  6
CONTINUOUS
 62
     6
 10
3209.0666672
 20
2285.0666672
 11
2155.2000816
 21
2285.0666672
  0
LINE
  8
0
  6
CONTINUOUS
 62
     6
 10
3209.0666672
 20
2163.7333432
 11
2155.2000816
 21
2163.7333432
  0
LINE
  8
0
  6
CONTINUOUS
 62
     6
 10
3209.0666672
 20
2285.0666672
 11
3209.0666672
 21
2163.7333432
  0
LINE
  8
0
  6
CONTINUOUS
 62
     6
 10
3216.0
 20
140.0
 11
120.0
 21
140.0
  0
LINE
  8
0
  6
CONTINUOUS
 62
     6
 10
647.999888985
 20
147.999998318
 11
647.999888985
 21
259.999974769
  0
LINE
  8
0
  6
CONTINUOUS
 62
     6
 10
127.999998318
 20
259.999974769
 11
647.999888985
 21
259.999974769
  0
LINE
  8
0
  6
CONTINUOUS
 62
     6
 10
127.999998318
 20
147.999998318
 11
647.999888985
 21
147.999998318
  0
LINE
  8
0
  6
CONTINUOUS
 62
     6
 10
127.999998318
 20
147.999998318
 11
127.999998318
 21
259.999974769
  0
LINE
  8
0
  6
CONTINUOUS
 62
     6
 10
487.999922626
 20
147.999998318
 11
487.999922626
 21
259.999974769
  0
LINE
  8
0
  6
CONTINUOUS
 62
     6
 10
127.999998318
 20
203.999986544
 11
647.999888985
 21
203.999986544
  0
TEXT
  8
0
  6
CONTINUOUS
 62
     3
 10
143.999994954
 20
219.999983179
 30
2.399999495
 40
23.999994954
  1
ＰＬ
 50
0.0
 41
0.9
 51
0.0
  7
KANJI26
  0
LINE
  8
0
  6
CONTINUOUS
 62
     6
 10
1593.6001248
 20
146.9333328
 11
1593.6001248
 21
202.3999952
  0
LINE
  8
0
  6
CONTINUOUS
 62
     6
 10
1593.6001248
 20
202.3999952
 11
2141.333416
 21
202.3999952
  0
LINE
  8
0
  6
CONTINUOUS
 62
     6
 10
1593.6001248
 20
146.9333328
 11
3209.0666672
 21
146.9333328
  0
LINE
  8
0
  6
CONTINUOUS
 62
     6
 10
2686.20670742
 20
183.67999664
 11
2663.32670918
 21
183.67999664
  0
LINE
  8
0
  6
CONTINUOUS
 62
     6
 10
2686.20670742
 20
187.83999632
 11
2663.32670918
 21
187.83999632
  0
LINE
  8
0
  6
CONTINUOUS
 62
     6
 10
2686.20670742
 20
183.67999664
 11
2709.08670566
 21
183.67999664
  0
LINE
  8
0
  6
CONTINUOUS
 62
     6
 10
2686.20670742
 20
187.83999632
 11
2709.08670566
 21
187.83999632
  0
LINE
  8
0
  6
CONTINUOUS
 62
     6
 10
2709.08670566
 20
187.83999632
 11
2709.08670566
 21
183.67999664
  0
ARC
  8
0
  6
CONTINUOUS
 62
     6
 10
2714.28670526
 20
185.75999648
 40
20.7999984
 50
185.739170477
 51
90.0
  0
ARC
  8
0
  6
CONTINUOUS
 62
     6
 10
2714.28670526
 20
185.75999648
 40
24.95999808
 50
184.780191847
 51
90.0
  0
LINE
  8
0
  6
CONTINUOUS
 62
     6
 10
2663.32670918
 20
183.67999664
 11
2663.32670918
 21
187.83999632
  0
TEXT
  8
0
  6
CONTINUOUS
 62
     6
 10
2401.333396
 20
178.1333304
 30
0.0
 40
24.2666648
  1
ＵＮＩＴＥＣ　ＩＮＤＵＳＴＲＹ　ＣＯ．，ＬＴＤ．
 50
0.0
 41
0.42031746
 51
0.0
  7
KANJI27
  0
LINE
  8
0
  6
CONTINUOUS
 62
     6
 10
2683.08670766
 20
210.71999456
 11
2658.12670958
 21
210.71999456
  0
LINE
  8
0
  6
CONTINUOUS
 62
     6
 10
2689.32670718
 20
210.71999456
 11
2714.28670526
 21
210.71999456
  0
ARC
  8
0
  6
CONTINUOUS
 62
     6
 10
2658.12670958
 20
185.75999648
 40
20.7999984
 50
90.0
 51
354.260829523
  0
ARC
  8
0
  6
CONTINUOUS
 62
     6
 10
2658.12670958
 20
185.75999648
 40
24.95999808
 50
90.0
 51
355.219808153
  0
LINE
  8
0
  6
CONTINUOUS
 62
     6
 10
2683.08670766
 20
210.71999456
 11
2683.08670766
 21
206.55999488
  0
LINE
  8
0
  6
CONTINUOUS
 62
     6
 10
2658.12670958
 20
206.55999488
 11
2683.08670766
 21
206.55999488
  0
LINE
  8
0
  6
CONTINUOUS
 62
     6
 10
2689.32670718
 20
210.71999456
 11
2689.32670718
 21
206.55999488
  0
LINE
  8
0
  6
CONTINUOUS
 62
     6
 10
2714.28670526
 20
206.55999488
 11
2689.32670718
 21
206.55999488
  0
TEXT
  8
0
  6
CONTINUOUS
 62
     6
 10
2741.67336982
 20
169.11999776
 30
4.15999968
 40
41.5999968
  1
ユニテック工業株式会社
 50
0.0
 41
0.9
 51
0.0
  7
KANJI28
  0
LINE
  8
0
  6
CONTINUOUS
 62
     6
 10
2141.333416
 20
535.1999696
 11
3209.0666672
 21
535.1999696
  0
TEXT
  8
0
  6
CONTINUOUS
 62
     3
 10
2288.0
 20
156.0
 30
2.4
 40
36.0
  1
１／８
 50
0.0
 41
0.666666667
 51
0.0
  7
KANJI29
  0
LINE
  8
0
  6
CONTINUOUS
 62
     1
 10
2508.0
 20
2121.0
 11
2508.0
 21
1033.0
  0
TEXT
  8
0
  6
CONTINUOUS
 62
     2
 10
2608.0
 20
2062.6
 30
22.79952
 40
36.0
  1
マイティシリンダ仕様
 50
0.0
 41
0.9
 51
0.0
  7
KANJI30
  0
TEXT
  8
0
  6
CONTINUOUS
 62
     2
 10
2540.6
 20
1557.0
 30
17.6
 40
28.0
  1
モ　トル仕様
 50
0.0
 41
0.9
 51
0.0
  7
KANJI31
  0
TEXT
  8
0
  6
CONTINUOUS
 62
     2
 10
2538.8
 20
1253.0
 30
1.371428571
 40
24.0
  1
ブレ　キ
 50
0.0
 41
0.9
 51
0.0
  7
KANJI32
  0
LINE
  8
0
  6
CONTINUOUS
 62
     2
 10
2538.4
 20
1197.8
 11
2538.4
 21
1181.0
  0
LINE
  8
0
  6
CONTINUOUS
 62
     2
 10
2538.4
 20
1512.2
 11
2538.4
 21
1493.8
  0
TEXT
  8
0
  6
CONTINUOUS
 62
     2
 10
2967.2
 20
1663.4
 30
11.36
 40
28.0
  1
推力リミッタ
 50
0.0
 41
0.9
 51
0.0
  7
KANJI33
  0
TEXT
  8
0
  6
CONTINUOUS
 62
     2
 10
3179.2
 20
1551.4
 30
17.571428571
 40
24.0
  1
Ｐ
 50
0.0
 41
0.9
 51
0.0
  7
KANJI34
  0
TEXT
  8
0
  6
CONTINUOUS
 62
     2
 10
3046.4
 20
1551.4
 30
1.6
 40
24.0
  1
ＫＷ
 50
0.0
 41
0.857142857
 51
0.0
  7
KANJI35
  0
TEXT
  8
0
  6
CONTINUOUS
 62
     2
 10
3139.2
 20
1551.4
 30
20.5
 40
28.0
  1
４
 50
0.0
 41
0.9
 51
0.0
  7
KANJI36
  0
TEXT
  8
0
  6
CONTINUOUS
 62
     2
 10
2922.4
 20
1609.8
 30
0.8
 40
22.4
  1
マンセル
 50
0.0
 41
0.9
 51
0.0
  7
KANJI37
  0
TEXT
  8
0
  6
CONTINUOUS
 62
     2
 10
3016.0
 20
1611.4
 30
0.32
 40
22.4
  1
７．５ＧＹ５／４．５
 50
0.0
 41
0.785714286
 51
0.0
  7
KANJI38
  0
TEXT
  8
0
  6
CONTINUOUS
 62
     2
 10
2916.0
 20
1216.2
 30
2.4
 40
22.4
  1
スプリング制動式電磁ブレーキ
 50
0.0
 41
0.8
 51
0.0
  7
KANJI39
  0
TEXT
  8
0
  6
CONTINUOUS
 62
     2
 10
3180.0
 20
1495.4
 30
0.288
 40
24.0
  1
Ｖ
 50
0.0
 41
0.8
 51
0.0
  7
KANJI40
  0
TEXT
  8
0
  6
CONTINUOUS
 62
     2
 10
3165.6
 20
1439.4
 30
0.288
 40
24.0
  1
Ｈｚ
 50
0.0
 41
0.8
 51
0.0
  7
KANJI40
  0
TEXT
  8
0
  6
CONTINUOUS
 62
     2
 10
3007.8
 20
1439.2
 30
2.4
 40
24.0
  1
５０／６０
 50
0.0
 41
0.9
 51
0.0
  7
KANJI2
  0
TEXT
  8
0
  6
CONTINUOUS
 62
     2
 10
3181.8
 20
1385.2
 30
2.4
 40
24.0
  1
Ａ
 50
0.0
 41
0.9
 51
0.0
  7
KANJI2
  0
TEXT
  8
0
  6
CONTINUOUS
 62
     2
 10
3055.8
 20
1331.2
 30
2.4
 40
24.0
  1
Ｅ
 50
0.0
 41
0.9
 51
0.0
  7
KANJI2
  0
LINE
  8
0
  6
CONTINUOUS
 62
     2
 10
2572.0
 20
1593.0
 11
2572.0
 21
1145.0
  0
LINE
  8
0
  6
CONTINUOUS
 62
     2
 10
2908.0
 20
2041.0
 11
2908.0
 21
1033.0
  0
TEXT
  8
0
  6
CONTINUOUS
 62
     2
 10
2568.0
 20
1999.4
 30
240.594285714
 40
30.4
  1
形式
 50
0.0
 41
0.9
 51
0.0
  7
KANJI41
  0
TEXT
  8
0
  6
CONTINUOUS
 62
     2
 10
2568.0
 20
1943.4
 30
240.594285714
 40
30.4
  1
推力
 50
0.0
 41
0.9
 51
0.0
  7
KANJI41
  0
TEXT
  8
0
  6
CONTINUOUS
 62
     2
 10
2568.0
 20
1887.4
 30
39.628571429
 40
30.4
  1
ストローク
 50
0.0
 41
0.9
 51
0.0
  7
KANJI42
  0
TEXT
  8
0
  6
CONTINUOUS
 62
     2
 10
2568.0
 20
1831.4
 30
61.957805714
 40
30.4
  1
公称速度
 50
0.0
 41
0.9
 51
0.0
  7
KANJI43
  0
TEXT
  8
0
  6
CONTINUOUS
 62
     2
 10
2544.0
 20
1775.4
 30
2.605714286
 40
30.4
  1
ピストンロッド回転トルク
 50
0.0
 41
0.9
 51
0.0
  7
KANJI44
  0
TEXT
  8
0
  6
CONTINUOUS
 62
     2
 10
2568.0
 20
1719.4
 30
240.594285714
 40
30.4
  1
構造
 50
0.0
 41
0.9
 51
0.0
  7
KANJI41
  0
TEXT
  8
0
  6
CONTINUOUS
 62
     2
 10
2568.0
 20
1663.4
 30
17.298468571
 40
30.4
  1
過負荷安全装置
 50
0.0
 41
0.9
 51
0.0
  7
KANJI45
  0
TEXT
  8
0
  6
CONTINUOUS
 62
     2
 10
2568.0
 20
1607.4
 30
106.617142857
 40
30.4
  1
塗装色
 50
0.0
 41
0.9
 51
0.0
  7
KANJI46
  0
TEXT
  8
0
  6
CONTINUOUS
 62
     2
 10
2608.0
 20
1551.4
 30
26.6
 40
30.4
  1
出力　極数
 50
0.0
 41
0.9
 51
0.0
  7
KANJI47
  0
TEXT
  8
0
  6
CONTINUOUS
 62
     2
 10
2608.0
 20
1495.4
 30
44.586377143
 40
30.4
  1
電源電圧
 50
0.0
 41
0.9
 51
0.0
  7
KANJI48
  0
TEXT
  8
0
  6
CONTINUOUS
 62
     2
 10
2608.0
 20
1439.4
 30
80.56
 40
30.4
  1
周波数
 50
0.0
 41
0.9
 51
0.0
  7
KANJI49
  0
TEXT
  8
0
  6
CONTINUOUS
 62
     2
 10
2608.0
 20
1383.4
 30
188.48
 40
30.4
  1
電流
 50
0.0
 41
0.9
 51
0.0
  7
KANJI50
  0
TEXT
  8
0
  6
CONTINUOUS
 62
     2
 10
2608.0
 20
1327.4
 30
80.56
 40
30.4
  1
絶縁級
 50
0.0
 41
0.9
 51
0.0
  7
KANJI49
  0
TEXT
  8
0
  6
CONTINUOUS
 62
     2
 10
2608.0
 20
1215.4
 30
188.48
 40
30.4
  1
形式
 50
0.0
 41
0.9
 51
0.0
  7
KANJI50
  0
TEXT
  8
0
  6
CONTINUOUS
 62
     2
 10
2608.0
 20
1159.4
 30
44.586377143
 40
30.4
  1
操作方式
 50
0.0
 41
0.9
 51
0.0
  7
KANJI48
  0
TEXT
  8
0
  6
CONTINUOUS
 62
     2
 10
2568.0
 20
1103.4
 30
106.617142857
 40
30.4
  1
付属品
 50
0.0
 41
0.9
 51
0.0
  7
KANJI46
  0
TEXT
  8
0
  6
CONTINUOUS
 62
     2
 10
2568.0
 20
1047.4
 30
240.594285714
 40
30.4
  1
台数
 50
0.0
 41
0.9
 51
0.0
  7
KANJI41
  0
TEXT
  8
0
  6
CONTINUOUS
 62
     2
 10
3158.8
 20
1890.6
 30
0.1792
 40
22.4
  1
ｍｍ
 50
0.0
 41
0.8
 51
0.0
  7
KANJI51
  0
TEXT
  8
0
  6
CONTINUOUS
 62
     2
 10
3098.8
 20
1837.0
 30
0.1792
 40
22.4
  1
ｍｍ／ｓｅｃ
 50
0.0
 41
0.8
 51
0.0
  7
KANJI51
  0
TEXT
  8
0
  6
CONTINUOUS
 62
     2
 10
3146.0
 20
1779.4
 30
0.1792
 40
22.4
  1
ｋｇｍ
 50
0.0
 41
0.8
 51
0.0
  7
KANJI51
  0
LINE
  8
0
  6
CONTINUOUS
 62
     1
 10
2508.0
 20
1033.0
 11
3216.0
 21
1033.0
  0
LINE
  8
0
  6
CONTINUOUS
 62
     2
 10
2508.0
 20
1089.0
 11
3216.0
 21
1089.0
  0
LINE
  8
0
  6
CONTINUOUS
 62
     2
 10
2508.0
 20
1145.0
 11
3216.0
 21
1145.0
  0
LINE
  8
0
  6
CONTINUOUS
 62
     2
 10
2572.0
 20
1201.0
 11
3216.0
 21
1201.0
  0
LINE
  8
0
  6
CONTINUOUS
 62
     2
 10
2508.0
 20
1257.0
 11
3216.0
 21
1257.0
  0
LINE
  8
0
  6
CONTINUOUS
 62
     2
 10
2572.0
 20
1313.0
 11
3216.0
 21
1313.0
  0
LINE
  8
0
  6
CONTINUOUS
 62
     2
 10
2572.0
 20
1369.0
 11
3216.0
 21
1369.0
  0
LINE
  8
0
  6
CONTINUOUS
 62
     2
 10
2572.0
 20
1425.0
 11
3216.0
 21
1425.0
  0
LINE
  8
0
  6
CONTINUOUS
 62
     2
 10
2572.0
 20
1481.0
 11
3216.0
 21
1481.0
  0
LINE
  8
0
  6
CONTINUOUS
 62
     2
 10
2572.0
 20
1537.0
 11
3216.0
 21
1537.0
  0
LINE
  8
0
  6
CONTINUOUS
 62
     2
 10
2508.0
 20
1593.0
 11
3216.0
 21
1593.0
  0
LINE
  8
0
  6
CONTINUOUS
 62
     2
 10
2508.0
 20
1649.0
 11
3216.0
 21
1649.0
  0
LINE
  8
0
  6
CONTINUOUS
 62
     2
 10
2508.0
 20
1705.0
 11
3216.0
 21
1705.0
  0
LINE
  8
0
  6
CONTINUOUS
 62
     1
 10
2508.0
 20
2121.0
 11
3216.0
 21
2121.0
  0
LINE
  8
0
  6
CONTINUOUS
 62
     2
 10
2508.0
 20
2041.0
 11
3216.0
 21
2041.0
  0
LINE
  8
0
  6
CONTINUOUS
 62
     2
 10
2508.0
 20
1985.0
 11
3216.0
 21
1985.0
  0
LINE
  8
0
  6
CONTINUOUS
 62
     2
 10
2508.0
 20
1929.0
 11
3216.0
 21
1929.0
  0
LINE
  8
0
  6
CONTINUOUS
 62
     2
 10
2508.0
 20
1873.0
 11
3216.0
 21
1873.0
  0
LINE
  8
0
  6
CONTINUOUS
 62
     2
 10
2508.0
 20
1817.0
 11
3216.0
 21
1817.0
  0
LINE
  8
0
  6
CONTINUOUS
 62
     2
 10
2508.0
 20
1761.0
 11
3216.0
 21
1761.0
  0
TEXT
  8
0
  6
CONTINUOUS
 62
     2
 10
2984.8
 20
1496.2
 30
2.4
 40
24.0
  1
　　　　　　／　
 50
0.0
 41
0.9
 51
0.0
  7
KANJI2
  0
TEXT
  8
0
  6
CONTINUOUS
 62
     2
 10
2984.8
 20
1384.2
 30
2.4
 40
24.0
  1
　　　　　　／　　
 50
0.0
 41
0.9
 51
0.0
  7
KANJI2
  0
LINE
  8
1
  6
CONTINUOUS
 62
     2
 10
674.0
 20
1058.0
 11
654.681483474
 21
1063.176380902
  0
LINE
  8
1
  6
CONTINUOUS
 62
     2
 10
674.0
 20
1058.0
 11
654.681483474
 21
1052.823619098
  0
LINE
  8
1
  6
CONTINUOUS
 62
     2
 10
674.0
 20
1058.0
 11
604.0
 21
1058.0
  0
LINE
  8
1
  6
CONTINUOUS
 62
     2
 10
604.0
 20
1058.0
 11
623.318516526
 21
1052.823619098
  0
LINE
  8
1
  6
CONTINUOUS
 62
     2
 10
604.0
 20
1058.0
 11
623.318516526
 21
1063.176380902
  0
LINE
  8
1
  6
CONTINUOUS
 62
     2
 10
604.0
 20
1225.0
 11
604.0
 21
1042.0
  0
LINE
  8
1
  6
CONTINUOUS
 62
     2
 10
604.0
 20
1058.0
 11
584.681483474
 21
1063.176380902
  0
LINE
  8
1
  6
CONTINUOUS
 62
     2
 10
604.0
 20
1058.0
 11
584.681483474
 21
1052.823619098
  0
LINE
  8
1
  6
CONTINUOUS
 62
     2
 10
604.0
 20
1058.0
 11
449.0
 21
1058.0
  0
LINE
  8
1
  6
CONTINUOUS
 62
     2
 10
449.0
 20
1058.0
 11
468.318516526
 21
1052.823619098
  0
LINE
  8
1
  6
CONTINUOUS
 62
     2
 10
449.0
 20
1058.0
 11
468.318516526
 21
1063.176380902
  0
LINE
  8
1
  6
CONTINUOUS
 62
     2
 10
449.0
 20
1225.0
 11
449.0
 21
1042.0
  0
LINE
  8
0
  6
CONTINUOUS
 62
     1
 10
604.0
 20
1233.0
 11
449.0
 21
1233.0
  0
LINE
  8
0
  6
CONTINUOUS
 62
     1
 10
449.0
 20
1483.8
 11
446.0
 21
1483.8
  0
LINE
  8
0
  6
CONTINUOUS
 62
     1
 10
446.0
 20
1483.8
 11
446.0
 21
1462.2
  0
LINE
  8
0
  6
CONTINUOUS
 62
     1
 10
446.0
 20
1462.2
 11
449.0
 21
1462.2
  0
LINE
  8
0
  6
CONTINUOUS
 62
     1
 10
449.0
 20
1462.2
 11
449.0
 21
1483.8
  0
LINE
  8
0
  6
CONTINUOUS
 62
     1
 10
446.0
 20
1464.0
 11
446.0
 21
1482.0
  0
LINE
  8
0
  6
CONTINUOUS
 62
     1
 10
438.5
 20
1464.0
 11
438.5
 21
1482.0
  0
LINE
  8
0
  6
LTYPE2
 62
     2
 10
453.0
 20
1473.0
 11
434.5
 21
1473.0
  0
LINE
  8
0
  6
CONTINUOUS
 62
     1
 10
438.5
 20
1482.0
 11
446.0
 21
1482.0
  0
LINE
  8
0
  6
CONTINUOUS
 62
     1
 10
438.5
 20
1464.0
 11
446.0
 21
1464.0
  0
LINE
  8
0
  6
CONTINUOUS
 62
     1
 10
446.0
 20
1473.0
 11
439.5
 21
1473.0
  0
ARC
  8
0
  6
CONTINUOUS
 62
     1
 10
449.1
 20
1468.5
 40
10.6
 50
154.9
 51
205.1
  0
ARC
  8
0
  6
CONTINUOUS
 62
     1
 10
449.1
 20
1477.5
 40
10.6
 50
154.9
 51
205.1
  0
LINE
  8
0
  6
CONTINUOUS
 62
     1
 10
446.0
 20
1473.0
 11
449.0
 21
1474.732050808
  0
LINE
  8
0
  6
CONTINUOUS
 62
     1
 10
449.0
 20
1473.0
 11
446.0
 21
1471.267949192
  0
LINE
  8
0
  6
CONTINUOUS
 62
     1
 10
449.0
 20
1273.8
 11
446.0
 21
1273.8
  0
LINE
  8
0
  6
CONTINUOUS
 62
     1
 10
446.0
 20
1273.8
 11
446.0
 21
1252.2
  0
LINE
  8
0
  6
CONTINUOUS
 62
     1
 10
446.0
 20
1252.2
 11
449.0
 21
1252.2
  0
LINE
  8
0
  6
CONTINUOUS
 62
     1
 10
449.0
 20
1252.2
 11
449.0
 21
1273.8
  0
LINE
  8
0
  6
CONTINUOUS
 62
     1
 10
446.0
 20
1254.0
 11
446.0
 21
1272.0
  0
LINE
  8
0
  6
CONTINUOUS
 62
     1
 10
438.5
 20
1254.0
 11
438.5
 21
1272.0
  0
LINE
  8
0
  6
LTYPE2
 62
     2
 10
453.0
 20
1263.0
 11
434.5
 21
1263.0
  0
LINE
  8
0
  6
CONTINUOUS
 62
     1
 10
438.5
 20
1272.0
 11
446.0
 21
1272.0
  0
LINE
  8
0
  6
CONTINUOUS
 62
     1
 10
438.5
 20
1254.0
 11
446.0
 21
1254.0
  0
LINE
  8
0
  6
CONTINUOUS
 62
     1
 10
446.0
 20
1263.0
 11
439.5
 21
1263.0
  0
ARC
  8
0
  6
CONTINUOUS
 62
     1
 10
449.1
 20
1258.5
 40
10.6
 50
154.9
 51
205.1
  0
ARC
  8
0
  6
CONTINUOUS
 62
     1
 10
449.1
 20
1267.5
 40
10.6
 50
154.9
 51
205.1
  0
LINE
  8
0
  6
CONTINUOUS
 62
     1
 10
446.0
 20
1263.0
 11
449.0
 21
1264.732050808
  0
LINE
  8
0
  6
CONTINUOUS
 62
     1
 10
449.0
 20
1263.0
 11
446.0
 21
1261.267949192
  0
LINE
  8
1
  6
CONTINUOUS
 62
     2
 10
674.0
 20
1050.0
 11
674.0
 21
975.0
  0
LINE
  8
1
  6
CONTINUOUS
 62
     2
 10
674.0
 20
991.0
 11
654.681483474
 21
996.176380902
  0
LINE
  8
1
  6
CONTINUOUS
 62
     2
 10
674.0
 20
991.0
 11
654.681483474
 21
985.823619098
  0
LINE
  8
1
  6
CONTINUOUS
 62
     2
 10
674.0
 20
991.0
 11
449.0
 21
991.0
  0
LINE
  8
1
  6
CONTINUOUS
 62
     2
 10
449.0
 20
991.0
 11
468.318516526
 21
985.823619098
  0
LINE
  8
1
  6
CONTINUOUS
 62
     2
 10
449.0
 20
991.0
 11
468.318516526
 21
996.176380902
  0
LINE
  8
1
  6
CONTINUOUS
 62
     2
 10
449.0
 20
1050.0
 11
449.0
 21
975.0
  0
TEXT
  8
1
  6
CONTINUOUS
 62
     2
 10
485.7
 20
1066.0
 30
2.4
 40
28.0
  1
１５５
 50
0.0
 41
0.914285714
 51
0.0
  7
KANJI52
  0
TEXT
  8
1
  6
CONTINUOUS
 62
     2
 10
612.2
 20
1066.0
 30
2.4
 40
28.0
  1
７０
 50
0.0
 41
0.914285714
 51
0.0
  7
KANJI52
  0
TEXT
  8
1
  6
CONTINUOUS
 62
     2
 10
520.7
 20
999.0
 30
2.4
 40
28.0
  1
２２５
 50
0.0
 41
0.914285714
 51
0.0
  7
KANJI52
  0
CIRCLE
  8
0
  6
CONTINUOUS
 62
     1
 10
2612.5
 20
340.9
 40
23.0
  0
TEXT
  8
0
  6
CONTINUOUS
 62
     2
 10
2601.8
 20
327.4
 30
0.0
 40
28.0
  1
Ｓ
 50
0.0
 41
0.793650794
 51
0.0
  7
KANJI53
  0
TEXT
  8
0
  6
CONTINUOUS
 62
     2
 10
1085.7
 20
665.0
 30
2.4
 40
24.0
  1
１１０５
 50
0.0
 41
0.9
 51
0.0
  7
KANJI2
  0
TEXT
  8
0
  6
CONTINUOUS
 62
     2
 10
1738.0
 20
668.0
 30
2.4
 40
24.0
  1
２０１
 50
0.0
 41
0.9
 51
0.0
  7
KANJI2
  0
CIRCLE
  8
0
  6
CONTINUOUS
 62
     1
 10
674.0
 20
1368.041
 40
22.5
  0
CIRCLE
  8
0
  6
CONTINUOUS
 62
     1
 10
674.0
 20
1368.041
 40
45.0
  0
CIRCLE
  8
0
  6
CONTINUOUS
 62
     1
 10
674.0
 20
1368.041
 40
55.0
  0
LINE
  8
0
  6
CONTINUOUS
 62
     1
 10
639.0
 20
1468.041
 11
662.0
 21
1449.541
  0
LINE
  8
0
  6
CONTINUOUS
 62
     1
 10
639.0
 20
1414.541
 11
639.0
 21
1468.041
  0
LINE
  8
0
  6
CONTINUOUS
 62
     1
 10
662.0
 20
1424.541
 11
662.0
 21
1449.541
  0
LINE
  8
0
  6
CONTINUOUS
 62
     1
 10
604.0
 20
1268.041
 11
639.0
 21
1268.041
  0
LINE
  8
0
  6
CONTINUOUS
 62
     1
 10
639.0
 20
1268.041
 11
662.0
 21
1286.541
  0
LINE
  8
0
  6
CONTINUOUS
 62
     1
 10
639.0
 20
1321.541
 11
639.0
 21
1268.041
  0
LINE
  8
0
  6
CONTINUOUS
 62
     1
 10
662.0
 20
1311.541
 11
662.0
 21
1286.541
  0
LINE
  8
0
  6
CONTINUOUS
 62
     1
 10
864.0
 20
1268.041
 11
834.0
 21
1286.541
  0
LINE
  8
0
  6
CONTINUOUS
 62
     1
 10
662.0
 20
1286.541
 11
834.0
 21
1286.541
  0
LINE
  8
0
  6
CONTINUOUS
 62
     1
 10
864.0
 20
1268.041
 11
904.0
 21
1268.041
  0
LINE
  8
0
  6
CONTINUOUS
 62
     1
 10
834.0
 20
1368.041
 11
834.0
 21
1286.541
  0
LINE
  8
0
  6
LTYPE3
 62
     2
 10
674.0
 20
1298.439877817
 11
674.0
 21
1435.407558854
  0
LINE
  8
0
  6
CONTINUOUS
 62
     1
 10
941.0
 20
1368.041
 11
941.0
 21
1468.041
  0
LINE
  8
0
  6
CONTINUOUS
 62
     1
 10
918.0
 20
1368.041
 11
918.0
 21
1468.041
  0
LINE
  8
0
  6
CONTINUOUS
 62
     1
 10
944.0
 20
1455.541
 11
944.0
 21
1466.49054
  0
LINE
  8
0
  6
CONTINUOUS
 62
     1
 10
944.0
 20
1455.541
 11
944.0
 21
1444.59146
  0
LINE
  8
0
  6
CONTINUOUS
 62
     1
 10
941.0
 20
1466.291
 11
944.0
 21
1466.291
  0
LINE
  8
0
  6
CONTINUOUS
 62
     1
 10
941.0
 20
1455.541
 11
944.000254073
 21
1458.541254073
  0
LINE
  8
0
  6
CONTINUOUS
 62
     1
 10
944.000254073
 20
1455.541
 11
941.0
 21
1452.540745927
  0
LINE
  8
0
  6
CONTINUOUS
 62
     1
 10
941.0
 20
1444.791
 11
944.0
 21
1444.791
  0
LINE
  8
0
  6
CONTINUOUS
 62
     1
 10
944.0
 20
1466.291
 11
955.3
 21
1466.291
  0
LINE
  8
0
  6
CONTINUOUS
 62
     1
 10
955.3
 20
1455.541
 11
955.3
 21
1466.291
  0
LINE
  8
0
  6
CONTINUOUS
 62
     1
 10
955.3
 20
1466.291
 11
956.0
 21
1465.078564435
  0
LINE
  8
0
  6
CONTINUOUS
 62
     1
 10
956.0
 20
1455.541
 11
956.0
 21
1465.078564435
  0
LINE
  8
0
  6
CONTINUOUS
 62
     1
 10
944.0
 20
1444.791
 11
955.3
 21
1444.791
  0
LINE
  8
0
  6
CONTINUOUS
 62
     1
 10
955.3
 20
1455.541
 11
955.3
 21
1444.791
  0
LINE
  8
0
  6
CONTINUOUS
 62
     1
 10
955.3
 20
1444.791
 11
956.0
 21
1446.003435565
  0
LINE
  8
0
  6
CONTINUOUS
 62
     1
 10
956.0
 20
1455.541
 11
956.0
 21
1446.003435565
  0
LINE
  8
0
  6
LTYPE3
 62
     2
 10
904.0
 20
1455.541
 11
967.7
 21
1455.541
  0
LINE
  8
0
  6
CONTINUOUS
 62
     1
 10
941.0
 20
1368.041
 11
941.0
 21
1268.041
  0
LINE
  8
0
  6
CONTINUOUS
 62
     1
 10
918.0
 20
1368.041
 11
918.0
 21
1268.041
  0
LINE
  8
0
  6
CONTINUOUS
 62
     1
 10
904.0
 20
1268.041
 11
941.0
 21
1268.041
  0
LINE
  8
0
  6
CONTINUOUS
 62
     1
 10
904.0
 20
1368.041
 11
904.0
 21
1268.041
  0
LINE
  8
0
  6
CONTINUOUS
 62
     1
 10
944.0
 20
1280.541
 11
944.0
 21
1269.59146
  0
LINE
  8
0
  6
CONTINUOUS
 62
     1
 10
944.0
 20
1280.541
 11
944.0
 21
1291.49054
  0
LINE
  8
0
  6
CONTINUOUS
 62
     1
 10
941.0
 20
1269.791
 11
944.0
 21
1269.791
  0
LINE
  8
0
  6
CONTINUOUS
 62
     1
 10
941.0
 20
1280.541
 11
944.000254073
 21
1277.540745927
  0
LINE
  8
0
  6
CONTINUOUS
 62
     1
 10
944.000254073
 20
1280.541
 11
941.0
 21
1283.541254073
  0
LINE
  8
0
  6
CONTINUOUS
 62
     1
 10
941.0
 20
1291.291
 11
944.0
 21
1291.291
  0
LINE
  8
0
  6
CONTINUOUS
 62
     1
 10
944.0
 20
1269.791
 11
955.3
 21
1269.791
  0
LINE
  8
0
  6
CONTINUOUS
 62
     1
 10
955.3
 20
1280.541
 11
955.3
 21
1269.791
  0
LINE
  8
0
  6
CONTINUOUS
 62
     1
 10
955.3
 20
1269.791
 11
956.0
 21
1271.003435565
  0
LINE
  8
0
  6
CONTINUOUS
 62
     1
 10
956.0
 20
1280.541
 11
956.0
 21
1271.003435565
  0
LINE
  8
0
  6
CONTINUOUS
 62
     1
 10
944.0
 20
1291.291
 11
955.3
 21
1291.291
  0
LINE
  8
0
  6
CONTINUOUS
 62
     1
 10
955.3
 20
1280.541
 11
955.3
 21
1291.291
  0
LINE
  8
0
  6
CONTINUOUS
 62
     1
 10
955.3
 20
1291.291
 11
956.0
 21
1290.078564435
  0
LINE
  8
0
  6
CONTINUOUS
 62
     1
 10
956.0
 20
1280.541
 11
956.0
 21
1290.078564435
  0
LINE
  8
0
  6
LTYPE3
 62
     2
 10
904.0
 20
1280.541
 11
967.7
 21
1280.541
  0
CIRCLE
  8
0
  6
CONTINUOUS
 62
     1
 10
1142.3
 20
1368.041
 40
19.5
  0
LINE
  8
0
  6
CONTINUOUS
 62
     1
 10
1122.3
 20
1388.041
 11
1162.3
 21
1388.041
  0
LINE
  8
0
  6
CONTINUOUS
 62
     1
 10
1162.3
 20
1348.041
 11
1162.3
 21
1388.041
  0
LINE
  8
0
  6
CONTINUOUS
 62
     1
 10
1122.3
 20
1348.041
 11
1162.3
 21
1348.041
  0
LINE
  8
0
  6
CONTINUOUS
 62
     1
 10
1122.3
 20
1348.041
 11
1122.3
 21
1388.041
  0
LINE
  8
0
  6
LTYPE2
 62
     2
 10
1142.3
 20
1342.941
 11
1142.3
 21
1392.841
  0
LINE
  8
6
  6
CONTINUOUS
 62
     2
 10
674.0
 20
1286.439877817
 11
674.0
 21
1094.041
  0
LINE
  8
6
  6
CONTINUOUS
 62
     2
 10
1089.0
 20
1298.041
 11
1094.176380902
 21
1317.359516526
  0
LINE
  8
6
  6
CONTINUOUS
 62
     2
 10
1089.0
 20
1298.041
 11
1083.823619098
 21
1317.359516526
  0
LINE
  8
6
  6
CONTINUOUS
 62
     2
 10
1089.0
 20
1298.041
 11
1089.0
 21
1438.041
  0
LINE
  8
6
  6
CONTINUOUS
 62
     2
 10
1089.0
 20
1438.041
 11
1083.823619098
 21
1418.722483474
  0
LINE
  8
6
  6
CONTINUOUS
 62
     2
 10
1089.0
 20
1438.041
 11
1094.176380902
 21
1418.722483474
  0
TEXT
  8
6
  6
CONTINUOUS
 62
     2
 10
1081.0
 20
1321.241
 30
2.4
 40
24.0
  1
φ１４０
 50
90.0
 41
0.9
 51
0.0
  7
KANJI54
  0
LINE
  8
0
  6
CONTINUOUS
 62
     1
 10
1632.000190206
 20
1415.541
 11
1642.000190206
 21
1405.541
  0
LINE
  8
0
  6
CONTINUOUS
 62
     1
 10
1642.000190206
 20
1330.541
 11
1642.000190206
 21
1405.541
  0
LINE
  8
0
  6
CONTINUOUS
 62
     1
 10
1632.000190206
 20
1320.541
 11
1642.000190206
 21
1330.541
  0
CIRCLE
  8
0
  6
CONTINUOUS
 62
     1
 10
1592.000190206
 20
1368.041
 40
22.5
  0
LINE
  8
0
  6
CONTINUOUS
 62
     1
 10
1632.000190206
 20
1415.541
 11
1632.000190206
 21
1408.429736054
  0
LINE
  8
0
  6
CONTINUOUS
 62
     1
 10
1632.000190206
 20
1408.429736054
 11
1642.000190206
 21
1395.788752752
  0
LINE
  8
0
  6
CONTINUOUS
 62
     1
 10
1632.000190206
 20
1408.429736054
 11
1502.0
 21
1408.429736054
  0
LINE
  8
0
  6
CONTINUOUS
 62
     1
 10
1632.000190206
 20
1320.541
 11
1632.000190206
 21
1327.652263946
  0
LINE
  8
0
  6
CONTINUOUS
 62
     1
 10
1632.000190206
 20
1327.652263946
 11
1642.000190206
 21
1340.293247248
  0
LINE
  8
0
  6
CONTINUOUS
 62
     1
 10
1632.000190206
 20
1327.652263946
 11
1502.0
 21
1327.652263946
  0
LINE
  8
0
  6
CONTINUOUS
 62
     1
 10
1502.0
 20
1408.429736054
 11
1502.0
 21
1327.652263946
  0
POINT
  8
0
  6
CONTINUOUS
 62
     1
 10
730.0
 20
1368.041
  0
LINE
  8
0
  6
CONTINUOUS
 62
     1
 10
787.0
 20
1497.985375069
 11
777.0
 21
1487.985375069
  0
LINE
  8
0
  6
CONTINUOUS
 62
     1
 10
777.0
 20
1429.346778818
 11
777.0
 21
1487.985375069
  0
LINE
  8
0
  6
CONTINUOUS
 62
     1
 10
787.0
 20
1419.346778818
 11
777.0
 21
1429.346778818
  0
ARC
  8
0
  6
CONTINUOUS
 62
     1
 10
775.0
 20
1498.507558854
 40
3.0
 50
90.0
 51
180.0
  0
ARC
  8
0
  6
CONTINUOUS
 62
     1
 10
775.0
 20
1417.67744216
 40
3.0
 50
180.0
 51
270.0
  0
ARC
  8
0
  6
CONTINUOUS
 62
     1
 10
775.0
 20
1414.235983542
 40
3.0
 50
180.0
 51
270.0
  0
ARC
  8
0
  6
CONTINUOUS
 62
     1
 10
775.0
 20
1413.375618887
 40
3.0
 50
180.0
 51
270.0
  0
LINE
  8
0
  6
CONTINUOUS
 62
     1
 10
895.0
 20
1429.346778818
 11
895.0
 21
1487.985375069
  0
LINE
  8
0
  6
CONTINUOUS
 62
     1
 10
900.0
 20
1386.698620342
 11
900.0
 21
1498.507558854
  0
ARC
  8
0
  6
CONTINUOUS
 62
     1
 10
897.0
 20
1498.507558854
 40
3.0
 50
0.0
 51
90.0
  0
LINE
  8
0
  6
CONTINUOUS
 62
     1
 10
895.0
 20
1487.985375069
 11
885.0
 21
1497.985375069
  0
LINE
  8
0
  6
CONTINUOUS
 62
     1
 10
787.0
 20
1497.985375069
 11
885.0
 21
1497.985375069
  0
LINE
  8
0
  6
CONTINUOUS
 62
     1
 10
895.0
 20
1429.346778818
 11
885.0
 21
1419.346778818
  0
LINE
  8
0
  6
CONTINUOUS
 62
     1
 10
787.0
 20
1419.346778818
 11
885.0
 21
1419.346778818
  0
LINE
  8
0
  6
CONTINUOUS
 62
     1
 10
775.0
 20
1501.507558854
 11
897.0
 21
1501.507558854
  0
ARC
  8
0
  6
CONTINUOUS
 62
     1
 10
897.0
 20
1417.67744216
 40
3.0
 50
270.0
 51
0.0
  0
ARC
  8
0
  6
CONTINUOUS
 62
     1
 10
897.0
 20
1414.235983542
 40
3.0
 50
270.0
 51
0.0
  0
ARC
  8
0
  6
CONTINUOUS
 62
     1
 10
897.0
 20
1413.375618887
 40
3.0
 50
270.0
 51
0.0
  0
LINE
  8
0
  6
CONTINUOUS
 62
     1
 10
774.507319827
 20
1414.67744216
 11
897.0
 21
1414.67744216
  0
LINE
  8
0
  6
CONTINUOUS
 62
     1
 10
774.607319827
 20
1411.235983542
 11
897.0
 21
1411.235983542
  0
LINE
  8
0
  6
CONTINUOUS
 62
     1
 10
774.607319827
 20
1410.375618887
 11
897.0
 21
1410.375618887
  0
LINE
  8
0
  6
CONTINUOUS
 62
     1
 10
905.0
 20
1413.307636349
 11
905.0
 21
1470.17371812
  0
LINE
  8
0
  6
CONTINUOUS
 62
     1
 10
900.0
 20
1413.307636349
 11
905.0
 21
1413.307636349
  0
LINE
  8
0
  6
CONTINUOUS
 62
     1
 10
900.0
 20
1470.17371812
 11
905.0
 21
1470.17371812
  0
LINE
  8
0
  6
CONTINUOUS
 62
     1
 10
900.0
 20
1437.407636349
 11
905.0
 21
1437.407636349
  0
LINE
  8
0
  6
CONTINUOUS
 62
     1
 10
862.0
 20
1386.698620342
 11
900.0
 21
1386.698620342
  0
LINE
  8
0
  6
CONTINUOUS
 62
     1
 10
905.0
 20
1457.889877817
 11
905.0
 21
1430.189877817
  0
LINE
  8
0
  6
LTYPE3
 62
     2
 10
878.737645868
 20
1444.039877817
 11
958.0
 21
1444.039877817
  0
LINE
  8
0
  6
CONTINUOUS
 62
     1
 10
772.0
 20
1368.041
 11
772.0
 21
1498.041
  0
LINE
  8
0
  6
CONTINUOUS
 62
     1
 10
662.0
 20
1449.541
 11
772.0
 21
1449.541
  0
LINE
  8
0
  6
CONTINUOUS
 62
     1
 10
772.0
 20
1385.998620342
 11
862.0
 21
1385.998620342
  0
LINE
  8
0
  6
CONTINUOUS
 62
     1
 10
864.0
 20
1386.698620342
 11
864.0
 21
1268.041
  0
LINE
  8
0
  6
CONTINUOUS
 62
     1
 10
904.0
 20
1413.307636349
 11
904.0
 21
1268.041
  0
LINE
  8
0
  6
CONTINUOUS
 62
     1
 10
905.0
 20
1468.041
 11
941.0
 21
1468.041
  0
LINE
  8
0
  6
CONTINUOUS
 62
     1
 10
1491.999190206
 20
1359.541
 11
1491.999190206
 21
1368.041
  0
LINE
  8
0
  6
CONTINUOUS
 62
     1
 10
941.0
 20
1438.041
 11
1271.149691586
 21
1438.041
  0
LINE
  8
0
  6
CONTINUOUS
 62
     1
 10
941.0
 20
1298.041
 11
1272.149691586
 21
1298.041
  0
LINE
  8
0
  6
CONTINUOUS
 62
     1
 10
604.0
 20
1468.041
 11
639.0
 21
1468.041
  0
LINE
  8
1
  6
CONTINUOUS
 62
     2
 10
828.0
 20
1427.507558854
 11
816.528561983
 21
1411.124454453
  0
LINE
  8
1
  6
CONTINUOUS
 62
     2
 10
828.0
 20
1427.507558854
 11
826.25699546
 21
1407.583655242
  0
TEXT
  8
0
  6
CONTINUOUS
 62
     2
 10
753.0
 20
1148.241
 30
0.0
 40
24.0
  1
推力リミッタ
 50
0.0
 41
0.9
 51
0.0
  7
KANJI3
  0
LINE
  8
6
  6
CONTINUOUS
 62
     2
 10
725.01036957
 20
1144.541
 11
890.5
 21
1144.541
  0
LINE
  8
1
  6
CONTINUOUS
 62
     2
 10
828.0
 20
1427.507558854
 11
725.01036957
 21
1144.541
  0
LINE
  8
0
  6
LTYPE4
 62
     2
 10
926.274192965
 20
1256.606
 11
926.274192965
 21
1257.541
  0
LINE
  8
6
  6
CONTINUOUS
 62
     2
 10
1492.000190206
 20
1318.841
 11
1492.000190206
 21
1309.776
  0
LINE
  8
6
  6
CONTINUOUS
 62
     2
 10
1425.07
 20
1460.5
 11
1424.57
 21
1460.5
  0
LINE
  8
0
  6
CONTINUOUS
 62
     1
 10
1367.615119794
 20
1438.0
 11
1367.615119794
 21
1298.0
  0
LINE
  8
0
  6
CONTINUOUS
 62
     1
 10
1491.999190206
 20
1320.541
 11
1491.999190206
 21
1368.041
  0
LINE
  8
0
  6
CONTINUOUS
 62
     1
 10
1364.219691586
 20
1298.0
 11
1442.0
 21
1298.0
  0
LINE
  8
0
  6
CONTINUOUS
 62
     1
 10
1267.85
 20
1298.0
 11
1364.219691586
 21
1298.0
  0
LINE
  8
0
  6
LTYPE3
 62
     2
 10
1592.000190206
 20
1202.041
 11
1592.000190206
 21
1438.909
  0
LINE
  8
1
  6
CONTINUOUS
 62
     2
 10
674.0
 20
1278.541
 11
674.0
 21
1087.541
  0
LINE
  8
1
  6
CONTINUOUS
 62
     2
 10
674.0
 20
1278.541
 11
674.0
 21
1088.3
  0
LINE
  8
1
  6
CONTINUOUS
 62
     2
 10
674.0
 20
1278.541
 11
674.0
 21
1042.0
  0
LINE
  8
1
  6
CONTINUOUS
 62
     2
 10
674.0
 20
1058.0
 11
693.318516526
 21
1052.823619098
  0
LINE
  8
1
  6
CONTINUOUS
 62
     2
 10
674.0
 20
1058.0
 11
693.318516526
 21
1063.176380902
  0
LINE
  8
1
  6
CONTINUOUS
 62
     2
 10
674.0
 20
1058.0
 11
1442.0
 21
1058.0
  0
LINE
  8
1
  6
CONTINUOUS
 62
     2
 10
1442.0
 20
1058.0
 11
1422.681483474
 21
1063.176380902
  0
LINE
  8
1
  6
CONTINUOUS
 62
     2
 10
1442.0
 20
1058.0
 11
1422.681483474
 21
1052.823619098
  0
LINE
  8
1
  6
CONTINUOUS
 62
     2
 10
1442.0
 20
1315.5
 11
1442.0
 21
1042.0
  0
TEXT
  8
1
  6
CONTINUOUS
 62
     3
 10
1045.2
 20
1066.0
 30
2.4
 40
28.0
  1
Ｃ
 50
0.0
 41
0.914285714
 51
0.0
  7
KANJI52
  0
LINE
  8
1
  6
CONTINUOUS
 62
     2
 10
1442.0
 20
1058.0
 11
1461.318516526
 21
1052.823619098
  0
LINE
  8
1
  6
CONTINUOUS
 62
     2
 10
1442.0
 20
1058.0
 11
1461.318516526
 21
1063.176380902
  0
LINE
  8
1
  6
CONTINUOUS
 62
     2
 10
1442.0
 20
1058.0
 11
1492.0
 21
1058.0
  0
LINE
  8
1
  6
CONTINUOUS
 62
     2
 10
1492.0
 20
1058.0
 11
1472.681483474
 21
1063.176380902
  0
LINE
  8
1
  6
CONTINUOUS
 62
     2
 10
1492.0
 20
1058.0
 11
1472.681483474
 21
1052.823619098
  0
LINE
  8
1
  6
CONTINUOUS
 62
     2
 10
1492.0
 20
1314.482623085
 11
1492.0
 21
1042.0
  0
LINE
  8
1
  6
CONTINUOUS
 62
     2
 10
1492.0
 20
1058.0
 11
1511.318516526
 21
1052.823619098
  0
LINE
  8
1
  6
CONTINUOUS
 62
     2
 10
1492.0
 20
1058.0
 11
1511.318516526
 21
1063.176380902
  0
LINE
  8
1
  6
CONTINUOUS
 62
     2
 10
1492.0
 20
1058.0
 11
1592.000190206
 21
1058.0
  0
LINE
  8
1
  6
CONTINUOUS
 62
     2
 10
1592.000190206
 20
1058.0
 11
1572.68167368
 21
1063.176380902
  0
LINE
  8
1
  6
CONTINUOUS
 62
     2
 10
1592.000190206
 20
1058.0
 11
1572.68167368
 21
1052.823619098
  0
LINE
  8
1
  6
CONTINUOUS
 62
     2
 10
1592.000190206
 20
1312.541
 11
1592.000190206
 21
1042.0
  0
TEXT
  8
1
  6
CONTINUOUS
 62
     3
 10
1501.200095103
 20
1066.0
 30
2.4
 40
28.0
  1
１００
 50
0.0
 41
0.914285714
 51
0.0
  7
KANJI52
  0
TEXT
  8
0
  6
CONTINUOUS
 62
     2
 10
1422.000190206
 20
1015.541
 30
2.4
 40
24.0
  1
ｍｉｎ、Ｐ
 50
0.0
 41
0.9
 51
0.0
  7
KANJI2
  0
LINE
  8
1
  6
CONTINUOUS
 62
     2
 10
674.0
 20
991.0
 11
693.318516526
 21
985.823619098
  0
LINE
  8
1
  6
CONTINUOUS
 62
     2
 10
674.0
 20
991.0
 11
693.318516526
 21
996.176380902
  0
LINE
  8
1
  6
CONTINUOUS
 62
     2
 10
674.0
 20
991.0
 11
1592.000190206
 21
991.0
  0
LINE
  8
1
  6
CONTINUOUS
 62
     2
 10
1592.000190206
 20
991.0
 11
1572.68167368
 21
996.176380902
  0
LINE
  8
1
  6
CONTINUOUS
 62
     2
 10
1592.000190206
 20
991.0
 11
1572.68167368
 21
985.823619098
  0
LINE
  8
1
  6
CONTINUOUS
 62
     2
 10
1592.000190206
 20
1050.0
 11
1592.000190206
 21
975.0
  0
TEXT
  8
1
  6
CONTINUOUS
 62
     3
 10
1064.200095103
 20
999.0
 30
2.4
 40
28.0
  1
ｍｉｎ，Ｌ
 50
0.0
 41
0.914285714
 51
0.0
  7
KANJI52
  0
LINE
  8
1
  6
CONTINUOUS
 62
     2
 10
449.0
 20
983.0
 11
449.0
 21
916.0
  0
LINE
  8
1
  6
CONTINUOUS
 62
     2
 10
449.0
 20
932.0
 11
468.318516526
 21
926.823619098
  0
LINE
  8
1
  6
CONTINUOUS
 62
     2
 10
449.0
 20
932.0
 11
468.318516526
 21
937.176380902
  0
LINE
  8
1
  6
CONTINUOUS
 62
     2
 10
449.0
 20
932.0
 11
1592.000190206
 21
932.0
  0
LINE
  8
1
  6
CONTINUOUS
 62
     2
 10
1592.000190206
 20
932.0
 11
1572.68167368
 21
937.176380902
  0
LINE
  8
1
  6
CONTINUOUS
 62
     2
 10
1592.000190206
 20
932.0
 11
1572.68167368
 21
926.823619098
  0
LINE
  8
1
  6
CONTINUOUS
 62
     2
 10
1592.000190206
 20
983.0
 11
1592.000190206
 21
916.0
  0
TEXT
  8
1
  6
CONTINUOUS
 62
     3
 10
937.700095103
 20
940.0
 30
2.4
 40
28.0
  1
ｍｉｎ，ＡＬ
 50
0.0
 41
0.914285714
 51
0.0
  7
KANJI52
  0
LINE
  8
1
  6
CONTINUOUS
 62
     2
 10
1592.000190206
 20
932.0
 11
1611.318706732
 21
926.823619098
  0
LINE
  8
1
  6
CONTINUOUS
 62
     2
 10
1592.000190206
 20
932.0
 11
1611.318706732
 21
937.176380902
  0
LINE
  8
1
  6
CONTINUOUS
 62
     2
 10
1592.000190206
 20
932.0
 11
1642.000190206
 21
932.0
  0
LINE
  8
1
  6
CONTINUOUS
 62
     2
 10
1642.000190206
 20
932.0
 11
1622.68167368
 21
937.176380902
  0
LINE
  8
1
  6
CONTINUOUS
 62
     2
 10
1642.000190206
 20
932.0
 11
1622.68167368
 21
926.823619098
  0
LINE
  8
1
  6
CONTINUOUS
 62
     2
 10
1642.000190206
 20
1322.541
 11
1642.000190206
 21
916.0
  0
TEXT
  8
1
  6
CONTINUOUS
 62
     3
 10
1590.200190206
 20
940.0
 30
2.4
 40
28.0
  1
５０
 50
0.0
 41
0.914285714
 51
0.0
  7
KANJI52
  0
LINE
  8
1
  6
CONTINUOUS
 62
     2
 10
1142.000190206
 20
1393.541
 11
1154.616691209
 21
1409.05950194
  0
LINE
  8
1
  6
CONTINUOUS
 62
     2
 10
1142.000190206
 20
1393.541
 11
1145.167149612
 21
1413.28866741
  0
LINE
  8
1
  6
CONTINUOUS
 62
     2
 10
1142.000190206
 20
1393.541
 11
1206.000190206
 21
1536.541
  0
LINE
  8
1
  6
CONTINUOUS
 62
     2
 10
1206.000190206
 20
1536.541
 11
1275.600190206
 21
1536.541
  0
TEXT
  8
1
  6
CONTINUOUS
 62
     3
 10
1206.000190206
 20
1544.541
 30
2.4
 40
24.0
  1
給脂口
 50
0.0
 41
0.9
 51
0.0
  7
KANJI2
  0
LINE
  8
0
  6
CONTINUOUS
 62
     1
 10
604.0
 20
1233.0
 11
604.0
 21
1522.0
  0
LINE
  8
0
  6
CONTINUOUS
 62
     1
 10
604.0
 20
1462.0
 11
604.0
 21
1733.0
  0
LINE
  8
0
  6
CONTINUOUS
 62
     1
 10
604.0
 20
1733.0
 11
554.0
 21
1733.0
  0
LINE
  8
0
  6
CONTINUOUS
 62
     1
 10
466.0
 20
1233.0
 11
466.0
 21
1522.0
  0
LINE
  8
0
  6
CONTINUOUS
 62
     1
 10
466.0
 20
1462.0
 11
466.0
 21
1658.0
  0
LINE
  8
0
  6
CONTINUOUS
 62
     1
 10
449.0
 20
1233.0
 11
449.0
 21
1522.0
  0
LINE
  8
0
  6
CONTINUOUS
 62
     1
 10
449.0
 20
1462.0
 11
449.0
 21
1658.0
  0
LINE
  8
0
  6
CONTINUOUS
 62
     1
 10
571.0
 20
1598.0
 11
500.0
 21
1598.0
  0
LINE
  8
0
  6
CONTINUOUS
 62
     1
 10
571.0
 20
1598.0
 11
571.0
 21
1478.0
  0
LINE
  8
0
  6
CONTINUOUS
 62
     1
 10
571.0
 20
1478.0
 11
500.0
 21
1478.0
  0
LINE
  8
0
  6
CONTINUOUS
 62
     1
 10
500.0
 20
1478.0
 11
500.0
 21
1598.0
  0
LINE
  8
0
  6
LTYPE3
 62
     2
 10
576.0
 20
1488.0
 11
552.2
 21
1488.0
  0
LINE
  8
0
  6
LTYPE3
 62
     2
 10
522.2
 20
1588.0
 11
495.2
 21
1588.0
  0
LINE
  8
0
  6
LTYPE3
 62
     2
 10
576.2
 20
1588.0
 11
548.2
 21
1588.0
  0
LINE
  8
0
  6
LTYPE3
 62
     2
 10
561.0
 20
1499.8
 11
561.0
 21
1478.0
  0
LINE
  8
0
  6
LTYPE3
 62
     2
 10
561.0
 20
1598.0
 11
561.0
 21
1575.8
  0
LINE
  8
0
  6
LTYPE3
 62
     2
 10
510.0
 20
1576.8
 11
510.0
 21
1598.0
  0
LINE
  8
0
  6
LTYPE3
 62
     2
 10
510.0
 20
1478.0
 11
510.0
 21
1498.8
  0
LINE
  8
0
  6
LTYPE3
 62
     2
 10
522.2
 20
1488.0
 11
497.2
 21
1488.0
  0
CIRCLE
  8
0
  6
CONTINUOUS
 62
     1
 10
574.0
 20
1763.0
 40
17.5
  0
LINE
  8
0
  6
CONTINUOUS
 62
     1
 10
574.0
 20
1733.0
 11
589.0
 21
1733.0
  0
LINE
  8
0
  6
CONTINUOUS
 62
     1
 10
574.0
 20
1744.0
 11
587.751706485
 21
1744.0
  0
LINE
  8
0
  6
CONTINUOUS
 62
     1
 10
587.751706485
 20
1744.0
 11
574.0
 21
1745.5
  0
LINE
  8
0
  6
CONTINUOUS
 62
     1
 10
588.689625645
 20
1735.735028154
 11
587.751706485
 21
1744.0
  0
LINE
  8
0
  6
CONTINUOUS
 62
     1
 10
589.0
 20
1733.0
 11
588.689625645
 21
1735.735028154
  0
ARC
  8
0
  6
CONTINUOUS
 62
     1
 10
590.297773229
 20
1735.927087564
 40
1.6
 50
120.593314844
 51
186.768821444
  0
ARC
  8
0
  6
CONTINUOUS
 62
     1
 10
574.0
 20
1763.0
 40
30.0
 50
301.047754584
 51
0.0
  0
LINE
  8
0
  6
CONTINUOUS
 62
     1
 10
574.0
 20
1733.0
 11
559.0
 21
1733.0
  0
LINE
  8
0
  6
CONTINUOUS
 62
     1
 10
574.0
 20
1744.0
 11
560.248293515
 21
1744.0
  0
LINE
  8
0
  6
CONTINUOUS
 62
     1
 10
560.248293515
 20
1744.0
 11
574.0
 21
1745.5
  0
LINE
  8
0
  6
CONTINUOUS
 62
     1
 10
559.310374355
 20
1735.735028154
 11
560.248293515
 21
1744.0
  0
LINE
  8
0
  6
CONTINUOUS
 62
     1
 10
559.0
 20
1733.0
 11
559.310374355
 21
1735.735028154
  0
ARC
  8
0
  6
CONTINUOUS
 62
     1
 10
557.702226771
 20
1735.927087564
 40
1.6
 50
353.231178556
 51
59.406685156
  0
ARC
  8
0
  6
CONTINUOUS
 62
     1
 10
574.0
 20
1763.0
 40
30.0
 50
0.0
 51
239.0231413
  0
LINE
  8
0
  6
LTYPE3
 62
     2
 10
574.0
 20
1684.8
 11
574.0
 21
1799.8
  0
LINE
  8
0
  6
LTYPE3
 62
     2
 10
612.0
 20
1763.0
 11
538.0
 21
1763.0
  0
LINE
  8
0
  6
CONTINUOUS
 62
     1
 10
581.0
 20
1664.0
 11
581.0
 21
1733.0
  0
ARC
  8
0
  6
CONTINUOUS
 62
     1
 10
575.0
 20
1664.0
 40
6.0
 50
270.0
 51
0.0
  0
LINE
  8
0
  6
CONTINUOUS
 62
     1
 10
575.0
 20
1658.0
 11
449.0
 21
1658.0
  0
ARC
  8
0
  6
CONTINUOUS
 62
     1
 10
548.0
 20
1664.0
 40
6.0
 50
270.0
 51
0.0
  0
LINE
  8
0
  6
CONTINUOUS
 62
     1
 10
554.0
 20
1664.0
 11
554.0
 21
1733.0
  0
LINE
  8
0
  6
CONTINUOUS
 62
     1
 10
604.0
 20
1474.0
 11
604.0
 21
1724.0
  0
LINE
  8
0
  6
CONTINUOUS
 62
     1
 10
399.0
 20
1579.0
 11
399.0
 21
1619.0
  0
LINE
  8
0
  6
CONTINUOUS
 62
     1
 10
441.0
 20
1560.0
 11
441.0
 21
1638.0
  0
LINE
  8
0
  6
CONTINUOUS
 62
     1
 10
441.0
 20
1619.0
 11
399.0
 21
1619.0
  0
LINE
  8
0
  6
CONTINUOUS
 62
     1
 10
441.0
 20
1579.0
 11
399.0
 21
1579.0
  0
LINE
  8
0
  6
CONTINUOUS
 62
     1
 10
449.0
 20
1638.0
 11
441.0
 21
1638.0
  0
LINE
  8
0
  6
CONTINUOUS
 62
     1
 10
449.0
 20
1560.0
 11
441.0
 21
1560.0
  0
LINE
  8
0
  6
CONTINUOUS
 62
     1
 10
449.0
 20
1558.0
 11
443.0
 21
1558.0
  0
LINE
  8
0
  6
CONTINUOUS
 62
     1
 10
443.0
 20
1492.0
 11
443.0
 21
1558.0
  0
LINE
  8
0
  6
CONTINUOUS
 62
     1
 10
449.0
 20
1492.0
 11
443.0
 21
1492.0
  0
LINE
  8
0
  6
LTYPE3
 62
     2
 10
475.0
 20
1529.0
 11
436.6
 21
1529.0
  0
LINE
  8
0
  6
CONTINUOUS
 62
     2
 10
416.0
 20
1621.0
 11
408.660604836
 21
1639.604657444
  0
LINE
  8
0
  6
CONTINUOUS
 62
     2
 10
416.0
 20
1621.0
 11
400.341568617
 21
1633.442408394
  0
LINE
  8
0
  6
CONTINUOUS
 62
     2
 10
416.0
 20
1621.0
 11
316.0
 21
1756.0
  0
LINE
  8
0
  6
CONTINUOUS
 62
     2
 10
316.0
 20
1756.0
 11
174.4
 21
1756.0
  0
TEXT
  8
0
  6
CONTINUOUS
 62
     2
 10
174.4
 20
1764.0
 30
2.4
 40
24.0
  1
手動軸カバー
 50
0.0
 41
0.9
 51
0.0
  7
KANJI2
  0
LINE
  8
0
  6
CONTINUOUS
 62
     2
 10
537.5
 20
1586.0
 11
530.707359852
 21
1604.811167955
  0
LINE
  8
0
  6
CONTINUOUS
 62
     2
 10
537.5
 20
1586.0
 11
522.211817096
 21
1598.894629249
  0
LINE
  8
0
  6
CONTINUOUS
 62
     2
 10
537.5
 20
1586.0
 11
342.5
 21
1866.0
  0
LINE
  8
0
  6
CONTINUOUS
 62
     2
 10
342.5
 20
1866.0
 11
272.9
 21
1866.0
  0
TEXT
  8
0
  6
CONTINUOUS
 62
     2
 10
272.9
 20
1874.0
 30
2.4
 40
24.0
  1
点検口
 50
0.0
 41
0.9
 51
0.0
  7
KANJI2
  0
LINE
  8
0
  6
CONTINUOUS
 62
     1
 10
604.0
 20
1472.15
 11
604.0
 21
1724.0
  0
LINE
  8
0
  6
CONTINUOUS
 62
     1
 10
604.0
 20
1474.0
 11
604.0
 21
1724.0
  0
LINE
  8
0
  6
CONTINUOUS
 62
     1
 10
604.0
 20
1474.0
 11
615.0
 21
1474.0
  0
LINE
  8
0
  6
CONTINUOUS
 62
     1
 10
604.0
 20
1724.0
 11
620.0
 21
1724.0
  0
LINE
  8
0
  6
CONTINUOUS
 62
     1
 10
620.0
 20
1474.0
 11
620.0
 21
1724.0
  0
LINE
  8
0
  6
CONTINUOUS
 62
     1
 10
604.0
 20
1474.0
 11
620.0
 21
1474.0
  0
LINE
  8
0
  6
CONTINUOUS
 62
     1
 10
837.0
 20
1499.0
 11
837.0
 21
1499.0
  0
TEXT
  8
0
  6
CONTINUOUS
 62
     2
 10
928.5
 20
664.4
 30
2.4
 40
24.0
  1
　３００
 50
0.0
 41
0.9
 51
0.0
  7
KANJI2
  0
TEXT
  8
0
  6
CONTINUOUS
 62
     2
 10
928.5
 20
608.4
 30
2.4
 40
24.0
  1
　５００
 50
0.0
 41
0.9
 51
0.0
  7
KANJI2
  0
TEXT
  8
0
  6
CONTINUOUS
 62
     2
 10
926.1
 20
551.8
 30
2.4
 40
24.0
  1
　７００
 50
0.0
 41
0.9
 51
0.0
  7
KANJI2
  0
TEXT
  8
0
  6
CONTINUOUS
 62
     2
 10
1403.002380412
 20
498.009
 30
2.4
 40
24.0
  1
１４７０
 50
0.0
 41
0.9
 51
0.0
  7
KANJI2
  0
TEXT
  8
0
  6
CONTINUOUS
 62
     2
 10
921.002380412
 20
498.009
 30
2.4
 40
24.0
  1
１０００
 50
0.0
 41
0.9
 51
0.0
  7
KANJI2
  0
TEXT
  8
0
  6
CONTINUOUS
 62
     2
 10
1406.1
 20
668.0
 30
2.4
 40
24.0
  1
　　７３０
 50
0.0
 41
0.9
 51
0.0
  7
KANJI2
  0
TEXT
  8
0
  6
CONTINUOUS
 62
     2
 10
1406.1
 20
612.0
 30
2.4
 40
24.0
  1
　　９３０
 50
0.0
 41
0.9
 51
0.0
  7
KANJI2
  0
TEXT
  8
0
  6
CONTINUOUS
 62
     2
 10
1246.5
 20
666.6
 30
2.4
 40
24.0
  1
　８８０
 50
0.0
 41
0.9
 51
0.0
  7
KANJI2
  0
TEXT
  8
0
  6
CONTINUOUS
 62
     2
 10
1555.4
 20
666.3
 30
2.4
 40
24.0
  1
　　　　５０
 50
0.0
 41
0.9
 51
0.0
  7
KANJI2
  0
TEXT
  8
0
  6
CONTINUOUS
 62
     2
 10
1401.3
 20
551.8
 30
2.4
 40
24.0
  1
１１７０
 50
0.0
 41
0.9
 51
0.0
  7
KANJI2
  0
CIRCLE
  8
0
  6
CONTINUOUS
 62
     1
 10
2054.802380412
 20
1363.009
 40
55.0
  0
LINE
  8
0
  6
LTYPE1
 62
     2
 10
2144.802380412
 20
1340.509
 11
2144.802380412
 21
1385.509
  0
LINE
  8
0
  6
LTYPE1
 62
     2
 10
2144.802380412
 20
1385.509
 11
2194.802380412
 21
1385.509
  0
LINE
  8
0
  6
LTYPE1
 62
     2
 10
2144.802380412
 20
1340.509
 11
2194.802380412
 21
1340.509
  0
LINE
  8
0
  6
CONTINUOUS
 62
     1
 10
2194.802380412
 20
1318.009
 11
2194.802380412
 21
1408.009
  0
LINE
  8
0
  6
LTYPE3
 62
     2
 10
1879.302380412
 20
1363.009
 11
2218.802380412
 21
1363.009
  0
LINE
  8
0
  6
CONTINUOUS
 62
     1
 10
2089.802380412
 20
1320.582593129
 11
2089.802380412
 21
1405.309
  0
LINE
  8
0
  6
CONTINUOUS
 62
     1
 10
2019.802380412
 20
1322.082593129
 11
2019.802380412
 21
1404.309
  0
ARC
  8
0
  6
CONTINUOUS
 62
     1
 10
2054.802380412
 20
1363.009
 40
45.0
 50
38.874498799
 51
141.540385828
  0
ARC
  8
0
  6
CONTINUOUS
 62
     1
 10
2054.802380412
 20
1363.009
 40
45.0
 50
218.942441269
 51
321.057558731
  0
LINE
  8
0
  6
LTYPE1
 62
     2
 10
2019.802380412
 20
1338.009
 11
2089.802380412
 21
1338.009
  0
LINE
  8
0
  6
LTYPE1
 62
     2
 10
2019.802380412
 20
1388.009
 11
2089.802380412
 21
1388.009
  0
ARC
  8
0
  6
CONTINUOUS
 62
     1
 10
1936.802380412
 20
1240.009
 40
12.0
 50
180.0
 51
270.0
  0
ARC
  8
0
  6
CONTINUOUS
 62
     1
 10
2172.802380412
 20
1240.009
 40
12.0
 50
270.0
 51
0.0
  0
LINE
  8
0
  6
LTYPE1
 62
     2
 10
1964.802380412
 20
1340.509
 11
1964.802380412
 21
1385.509
  0
LINE
  8
0
  6
LTYPE1
 62
     2
 10
1964.802380412
 20
1385.509
 11
1914.802380412
 21
1385.509
  0
LINE
  8
0
  6
LTYPE1
 62
     2
 10
1964.802380412
 20
1340.509
 11
1914.802380412
 21
1340.509
  0
LINE
  8
0
  6
CONTINUOUS
 62
     2
 10
1924.802380412
 20
1228.009
 11
1924.802380412
 21
1106.709
  0
LINE
  8
0
  6
CONTINUOUS
 62
     2
 10
1924.802380412
 20
1118.709
 11
1944.120896938
 21
1113.532619098
  0
LINE
  8
0
  6
CONTINUOUS
 62
     2
 10
1924.802380412
 20
1118.709
 11
1944.120896938
 21
1123.885380902
  0
LINE
  8
0
  6
CONTINUOUS
 62
     2
 10
1924.802380412
 20
1118.709
 11
2184.802380412
 21
1118.709
  0
LINE
  8
0
  6
CONTINUOUS
 62
     2
 10
2184.802380412
 20
1118.709
 11
2165.483863887
 21
1123.885380902
  0
LINE
  8
0
  6
CONTINUOUS
 62
     2
 10
2184.802380412
 20
1118.709
 11
2165.483863887
 21
1113.532619098
  0
LINE
  8
0
  6
CONTINUOUS
 62
     2
 10
2184.802380412
 20
1228.009
 11
2184.802380412
 21
1106.709
  0
TEXT
  8
0
  6
CONTINUOUS
 62
     2
 10
2020.802380412
 20
1126.709
 30
1.6
 40
24.0
  1
２６０
 50
0.0
 41
0.9
 51
0.0
  7
KANJI55
  0
LINE
  8
0
  6
CONTINUOUS
 62
     2
 10
1914.802380412
 20
1306.009
 11
1914.802380412
 21
1011.709
  0
LINE
  8
0
  6
CONTINUOUS
 62
     2
 10
1914.802380412
 20
1023.709
 11
1934.120896938
 21
1018.532619098
  0
LINE
  8
0
  6
CONTINUOUS
 62
     2
 10
1914.802380412
 20
1023.709
 11
1934.120896938
 21
1028.885380902
  0
LINE
  8
0
  6
CONTINUOUS
 62
     2
 10
1914.802380412
 20
1023.709
 11
2194.802380412
 21
1023.709
  0
LINE
  8
0
  6
CONTINUOUS
 62
     2
 10
2194.802380412
 20
1023.709
 11
2175.483863887
 21
1028.885380902
  0
LINE
  8
0
  6
CONTINUOUS
 62
     2
 10
2194.802380412
 20
1023.709
 11
2175.483863887
 21
1018.532619098
  0
LINE
  8
0
  6
CONTINUOUS
 62
     2
 10
2194.802380412
 20
1306.009
 11
2194.802380412
 21
1011.709
  0
TEXT
  8
0
  6
CONTINUOUS
 62
     2
 10
2020.802380412
 20
1031.709
 30
1.6
 40
24.0
  1
２８０
 50
0.0
 41
0.9
 51
0.0
  7
KANJI55
  0
LINE
  8
0
  6
CONTINUOUS
 62
     1
 10
1924.802380412
 20
1240.009
 11
1924.802380412
 21
1317.134113365
  0
LINE
  8
0
  6
CONTINUOUS
 62
     1
 10
2184.802380412
 20
1240.009
 11
2184.802380412
 21
1317.134113365
  0
ARC
  8
0
  6
CONTINUOUS
 62
     1
 10
1989.888814518
 20
1513.488995225
 40
1.0
 50
40.0
 51
130.0
  0
LINE
  8
0
  6
LTYPE2
 62
     2
 10
1985.335623867
 20
1515.803828888
 11
1997.355752168
 21
1501.478797802
  0
LINE
  8
0
  6
CONTINUOUS
 62
     2
 10
1902.802380412
 20
1385.509
 11
1834.309681395
 21
1385.509
  0
LINE
  8
0
  6
CONTINUOUS
 62
     2
 10
1846.309681395
 20
1385.509
 11
1851.486062297
 21
1404.827516526
  0
LINE
  8
0
  6
CONTINUOUS
 62
     2
 10
1846.309681395
 20
1385.509
 11
1841.133300493
 21
1404.827516526
  0
LINE
  8
0
  6
CONTINUOUS
 62
     2
 10
1846.309681395
 20
1483.509
 11
1846.309681395
 21
1310.509
  0
LINE
  8
0
  6
CONTINUOUS
 62
     2
 10
1846.309681395
 20
1340.509
 11
1841.133300493
 21
1321.190483474
  0
LINE
  8
0
  6
CONTINUOUS
 62
     2
 10
1846.309681395
 20
1340.509
 11
1851.486062297
 21
1321.190483474
  0
LINE
  8
0
  6
CONTINUOUS
 62
     2
 10
1902.802380412
 20
1340.509
 11
1834.309681395
 21
1340.509
  0
TEXT
  8
0
  6
CONTINUOUS
 62
     2
 10
1838.309681395
 20
1415.509
 30
1.6
 40
24.0
  1
φ４５Ｈ１０深さ５０
 50
90.0
 41
0.9
 51
0.0
  7
KANJI55
  0
CIRCLE
  8
0
  6
CONTINUOUS
 62
     1
 10
2054.802380412
 20
1363.009
 40
90.0
  0
LINE
  8
0
  6
CONTINUOUS
 62
     1
 10
2054.802380412
 20
1228.009
 11
2172.802380412
 21
1228.009
  0
LINE
  8
0
  6
CONTINUOUS
 62
     1
 10
1936.802380412
 20
1228.009
 11
2054.802380412
 21
1228.009
  0
LINE
  8
0
  6
CONTINUOUS
 62
     1
 10
2194.802380412
 20
1408.009
 11
2141.603598441
 21
1412.663290336
  0
LINE
  8
0
  6
CONTINUOUS
 62
     1
 10
2194.802380412
 20
1318.009
 11
2141.603598441
 21
1313.354709664
  0
LINE
  8
1
  6
CONTINUOUS
 62
     2
 10
1812.002380412
 20
1737.309
 11
1812.252380412
 21
1737.309
  0
LINE
  8
1
  6
CONTINUOUS
 62
     2
 10
1812.002380412
 20
1687.309
 11
1812.252380412
 21
1687.309
  0
LINE
  8
0
  6
LTYPE5
 62
     2
 10
2054.802380412
 20
1509.009
 11
2054.802380412
 21
1523.009
  0
LINE
  8
0
  6
LTYPE5
 62
     2
 10
2054.802380412
 20
1463.009
 11
2054.802380412
 21
1790.214692517
  0
LINE
  8
0
  6
LTYPE5
 62
     2
 10
1907.802380412
 20
1594.009
 11
2212.802380412
 21
1594.009
  0
LINE
  8
0
  6
CONTINUOUS
 62
     1
 10
2184.802380412
 20
1408.883886635
 11
2184.802380412
 21
1523.009
  0
LINE
  8
0
  6
CONTINUOUS
 62
     1
 10
2184.802380412
 20
1463.009
 11
2184.802380412
 21
1668.842147735
  0
LINE
  8
0
  6
CONTINUOUS
 62
     1
 10
1924.802380412
 20
1460.443666527
 11
1924.802380412
 21
1523.009
  0
LINE
  8
0
  6
CONTINUOUS
 62
     1
 10
1924.802380412
 20
1463.009
 11
1924.802380412
 21
1668.842147735
  0
LINE
  8
0
  6
LTYPE3
 62
     2
 10
2054.802380412
 20
1171.309
 11
2054.802380412
 21
1523.009
  0
LINE
  8
0
  6
LTYPE3
 62
     2
 10
2054.802380412
 20
1463.009
 11
2054.802380412
 21
1520.109
  0
ARC
  8
0
  6
CONTINUOUS
 62
     1
 10
2054.802380412
 20
1594.009
 40
125.0
 50
280.557968545
 51
0.0
  0
ARC
  8
0
  6
CONTINUOUS
 62
     1
 10
2091.802380412
 20
1777.714692517
 40
3.0
 50
0.0
 51
90.0
  0
ARC
  8
0
  6
CONTINUOUS
 62
     1
 10
2098.802380412
 20
1780.714692517
 40
6.0
 50
0.0
 51
90.0
  0
ARC
  8
0
  6
CONTINUOUS
 62
     1
 10
2098.802380412
 20
1785.009
 40
6.0
 50
0.0
 51
90.0
  0
LINE
  8
0
  6
CONTINUOUS
 62
     1
 10
2098.802380412
 20
1791.009
 11
2054.802380412
 21
1791.009
  0
LINE
  8
0
  6
CONTINUOUS
 62
     1
 10
2054.802380412
 20
1786.714692517
 11
2098.802380412
 21
1786.714692517
  0
LINE
  8
0
  6
CONTINUOUS
 62
     1
 10
2054.802380412
 20
1780.714692517
 11
2091.802380412
 21
1780.714692517
  0
ARC
  8
0
  6
CONTINUOUS
 62
     1
 10
2017.802380412
 20
1777.714692517
 40
3.0
 50
90.0
 51
180.0
  0
ARC
  8
0
  6
CONTINUOUS
 62
     1
 10
2010.802380412
 20
1780.714692517
 40
6.0
 50
90.0
 51
180.0
  0
ARC
  8
0
  6
CONTINUOUS
 62
     1
 10
2010.802380412
 20
1785.009
 40
6.0
 50
90.0
 51
180.0
  0
LINE
  8
0
  6
CONTINUOUS
 62
     1
 10
2010.802380412
 20
1791.009
 11
2054.802380412
 21
1791.009
  0
LINE
  8
0
  6
CONTINUOUS
 62
     1
 10
2054.802380412
 20
1786.714692517
 11
2010.802380412
 21
1786.714692517
  0
LINE
  8
0
  6
CONTINUOUS
 62
     1
 10
2054.802380412
 20
1780.714692517
 11
2017.802380412
 21
1780.714692517
  0
CIRCLE
  8
0
  6
CONTINUOUS
 62
     1
 10
2054.802380412
 20
1594.009
 40
20.0
  0
ARC
  8
0
  6
CONTINUOUS
 62
     1
 10
1969.802380412
 20
1594.009
 40
20.0
 50
90.0
 51
270.0
  0
ARC
  8
0
  6
CONTINUOUS
 62
     1
 10
2097.302380412
 20
1520.396840678
 40
20.0
 50
210.0
 51
30.0
  0
ARC
  8
0
  6
CONTINUOUS
 62
     1
 10
2097.302380412
 20
1667.621159322
 40
20.0
 50
330.0
 51
150.0
  0
LINE
  8
0
  6
CONTINUOUS
 62
     1
 10
1969.802380412
 20
1614.009
 11
2043.255375029
 21
1614.009
  0
LINE
  8
0
  6
CONTINUOUS
 62
     1
 10
2079.981872337
 20
1677.621159322
 11
2043.255375029
 21
1614.009
  0
LINE
  8
0
  6
CONTINUOUS
 62
     1
 10
1969.802380412
 20
1574.009
 11
2043.255375029
 21
1574.009
  0
LINE
  8
0
  6
CONTINUOUS
 62
     1
 10
2079.981872337
 20
1510.396840678
 11
2043.255375029
 21
1574.009
  0
CIRCLE
  8
0
  6
CONTINUOUS
 62
     1
 10
2114.802380412
 20
1594.009
 40
10.0
  0
LINE
  8
0
  6
CONTINUOUS
 62
     2
 10
2114.802380412
 20
1609.009
 11
2114.802380412
 21
1579.009
  0
LINE
  8
0
  6
CONTINUOUS
 62
     1
 10
2058.135713746
 20
1574.288734056
 11
2116.469047079
 21
1584.148867028
  0
LINE
  8
0
  6
CONTINUOUS
 62
     1
 10
2058.135713746
 20
1613.729265944
 11
2116.469047079
 21
1603.869132972
  0
LINE
  8
0
  6
CONTINUOUS
 62
     1
 10
2114.622888488
 20
1657.621159322
 11
2086.512592251
 21
1608.932698023
  0
LINE
  8
0
  6
CONTINUOUS
 62
     1
 10
2114.622888488
 20
1530.396840678
 11
2086.512592251
 21
1579.085301977
  0
ARC
  8
0
  6
CONTINUOUS
 62
     1
 10
2130.81635939
 20
1670.022978978
 40
7.75
 50
294.214141675
 51
155.785858325
  0
LINE
  8
0
  6
CONTINUOUS
 62
     2
 10
2124.802380412
 20
1664.009
 11
2137.748212824
 21
1676.954832412
  0
ARC
  8
0
  6
CONTINUOUS
 62
     2
 10
2054.802380412
 20
1594.009
 40
107.5
 50
38.280925788
 51
51.325228591
  0
ARC
  8
0
  6
CONTINUOUS
 62
     1
 10
2130.81635939
 20
1517.995021022
 40
7.75
 50
204.214141675
 51
65.785858325
  0
LINE
  8
0
  6
CONTINUOUS
 62
     2
 10
2124.802380412
 20
1524.009
 11
2137.748212824
 21
1511.063167588
  0
ARC
  8
0
  6
CONTINUOUS
 62
     2
 10
2054.802380412
 20
1594.009
 40
107.5
 50
308.674771409
 51
321.719074212
  0
ARC
  8
0
  6
CONTINUOUS
 62
     1
 10
1978.788401435
 20
1670.022978978
 40
7.75
 50
24.214141675
 51
245.785858325
  0
LINE
  8
0
  6
CONTINUOUS
 62
     2
 10
1984.802380412
 20
1664.009
 11
1971.856548
 21
1676.954832412
  0
ARC
  8
0
  6
CONTINUOUS
 62
     2
 10
2054.802380412
 20
1594.009
 40
107.5
 50
128.674771409
 51
141.719074212
  0
ARC
  8
0
  6
CONTINUOUS
 62
     1
 10
1978.788401435
 20
1517.995021022
 40
7.75
 50
114.214141675
 51
335.785858325
  0
LINE
  8
0
  6
CONTINUOUS
 62
     2
 10
1984.802380412
 20
1524.009
 11
1971.856548
 21
1511.063167588
  0
ARC
  8
0
  6
CONTINUOUS
 62
     2
 10
2054.802380412
 20
1594.009
 40
107.5
 50
218.280925788
 51
231.325228591
  0
ARC
  8
0
  6
CONTINUOUS
 62
     1
 10
2054.802380412
 20
1594.009
 40
105.0
 50
272.980462591
 51
0.0
  0
ARC
  8
0
  6
CONTINUOUS
 62
     1
 10
2054.802380412
 20
1594.009
 40
105.0
 50
0.0
 51
226.520053773
  0
ARC
  8
0
  6
CONTINUOUS
 62
     1
 10
2091.802380412
 20
1715.709
 40
3.0
 50
270.0
 51
0.0
  0
ARC
  8
0
  6
CONTINUOUS
 62
     1
 10
2098.802380412
 20
1721.709
 40
6.0
 50
270.0
 51
0.0
  0
LINE
  8
0
  6
CONTINUOUS
 62
     1
 10
2094.802380412
 20
1715.709
 11
2098.802380412
 21
1715.709
  0
LINE
  8
0
  6
CONTINUOUS
 62
     1
 10
2054.802380412
 20
1712.709
 11
2091.802380412
 21
1712.709
  0
ARC
  8
0
  6
CONTINUOUS
 62
     1
 10
2017.802380412
 20
1715.709
 40
3.0
 50
180.0
 51
270.0
  0
ARC
  8
0
  6
CONTINUOUS
 62
     1
 10
2010.802380412
 20
1721.709
 40
6.0
 50
180.0
 51
270.0
  0
LINE
  8
0
  6
CONTINUOUS
 62
     1
 10
2014.802380412
 20
1715.709
 11
2010.802380412
 21
1715.709
  0
LINE
  8
0
  6
CONTINUOUS
 62
     1
 10
2054.802380412
 20
1712.709
 11
2017.802380412
 21
1712.709
  0
LINE
  8
0
  6
CONTINUOUS
 62
     1
 10
2074.802380412
 20
1697.08664064
 11
2074.802380412
 21
1712.709
  0
LINE
  8
0
  6
CONTINUOUS
 62
     1
 10
2034.802380412
 20
1697.08664064
 11
2034.802380412
 21
1712.709
  0
LINE
  8
0
  6
CONTINUOUS
 62
     1
 10
2104.802380412
 20
1721.709
 11
2104.802380412
 21
1785.009
  0
LINE
  8
0
  6
CONTINUOUS
 62
     1
 10
2094.802380412
 20
1716.209
 11
2094.802380412
 21
1777.714692517
  0
LINE
  8
0
  6
CONTINUOUS
 62
     1
 10
2014.802380412
 20
1716.209
 11
2014.802380412
 21
1777.714692517
  0
LINE
  8
0
  6
CONTINUOUS
 62
     1
 10
2004.802380412
 20
1722.209
 11
2004.802380412
 21
1785.009
  0
CIRCLE
  8
0
  6
CONTINUOUS
 62
     1
 10
2054.802380412
 20
1744.009
 40
20.0
  0
CIRCLE
  8
0
  6
CONTINUOUS
 62
     2
 10
2054.802380412
 20
1744.009
 40
13.5
  0
CIRCLE
  8
0
  6
CONTINUOUS
 62
     2
 10
2054.802380412
 20
1744.009
 40
15.0
  0
LINE
  8
0
  6
LTYPE2
 62
     2
 10
2024.302380412
 20
1744.009
 11
2083.802380412
 21
1744.009
  0
CIRCLE
  8
0
  6
CONTINUOUS
 62
     1
 10
2054.802380412
 20
1609.009
 40
4.0
  0
CIRCLE
  8
0
  6
CONTINUOUS
 62
     1
 10
2054.802380412
 20
1594.009
 40
4.0
  0
CIRCLE
  8
0
  6
CONTINUOUS
 62
     1
 10
2039.802380412
 20
1594.009
 40
4.0
  0
CIRCLE
  8
0
  6
CONTINUOUS
 62
     1
 10
2054.802380412
 20
1579.009
 40
4.0
  0
CIRCLE
  8
0
  6
CONTINUOUS
 62
     1
 10
2069.802380412
 20
1594.009
 40
4.0
  0
ARC
  8
0
  6
CONTINUOUS
 62
     1
 10
2054.802380412
 20
1594.009
 40
125.0
 50
0.0
 51
72.687211164
  0
ARC
  8
0
  6
CONTINUOUS
 62
     1
 10
2054.802380412
 20
1594.009
 40
150.0
 50
109.471220634
 51
150.073565133
  0
ARC
  8
0
  6
CONTINUOUS
 62
     1
 10
2054.802380412
 20
1594.009
 40
150.0
 50
29.926434867
 51
70.528779366
  0
ARC
  8
0
  6
CONTINUOUS
 62
     1
 10
2054.802380412
 20
1594.009
 40
105.0
 50
226.520053773
 51
230.380400035
  0
LINE
  8
1
  6
CONTINUOUS
 62
     2
 10
2192.802380412
 20
1594.009
 11
2281.802380412
 21
1594.009
  0
LINE
  8
1
  6
CONTINUOUS
 62
     2
 10
2265.802380412
 20
1594.009
 11
2260.62599951
 21
1574.690483474
  0
LINE
  8
1
  6
CONTINUOUS
 62
     2
 10
2265.802380412
 20
1594.009
 11
2270.978761315
 21
1574.690483474
  0
LINE
  8
1
  6
CONTINUOUS
 62
     2
 10
2265.802380412
 20
1594.009
 11
2265.802380412
 21
1363.009
  0
LINE
  8
1
  6
CONTINUOUS
 62
     2
 10
2265.802380412
 20
1363.009
 11
2270.978761315
 21
1382.327516526
  0
LINE
  8
1
  6
CONTINUOUS
 62
     2
 10
2265.802380412
 20
1363.009
 11
2260.62599951
 21
1382.327516526
  0
LINE
  8
1
  6
CONTINUOUS
 62
     2
 10
2202.802380412
 20
1363.009
 11
2281.802380412
 21
1363.009
  0
TEXT
  8
1
  6
CONTINUOUS
 62
     3
 10
2257.802380412
 20
1437.709
 30
2.4
 40
28.0
  1
２３１
 50
90.0
 41
0.914285714
 51
0.0
  7
KANJI52
  0
LINE
  8
1
  6
CONTINUOUS
 62
     2
 10
2265.802380412
 20
1594.009
 11
2270.978761315
 21
1613.327516526
  0
LINE
  8
1
  6
CONTINUOUS
 62
     2
 10
2265.802380412
 20
1594.009
 11
2260.62599951
 21
1613.327516526
  0
LINE
  8
1
  6
CONTINUOUS
 62
     2
 10
2265.802380412
 20
1594.009
 11
2265.802380412
 21
1791.009
  0
LINE
  8
1
  6
CONTINUOUS
 62
     2
 10
2265.802380412
 20
1791.009
 11
2260.62599951
 21
1771.690483474
  0
LINE
  8
1
  6
CONTINUOUS
 62
     2
 10
2265.802380412
 20
1791.009
 11
2270.978761315
 21
1771.690483474
  0
LINE
  8
1
  6
CONTINUOUS
 62
     2
 10
2062.802380412
 20
1791.009
 11
2281.802380412
 21
1791.009
  0
TEXT
  8
1
  6
CONTINUOUS
 62
     3
 10
2257.802380412
 20
1651.709
 30
2.4
 40
28.0
  1
１９７
 50
90.0
 41
0.914285714
 51
0.0
  7
KANJI52
  0
LINE
  8
1
  6
CONTINUOUS
 62
     2
 10
2265.802380412
 20
1363.009
 11
2260.62599951
 21
1343.690483474
  0
LINE
  8
1
  6
CONTINUOUS
 62
     2
 10
2265.802380412
 20
1363.009
 11
2270.978761315
 21
1343.690483474
  0
LINE
  8
1
  6
CONTINUOUS
 62
     2
 10
2265.802380412
 20
1363.009
 11
2265.802380412
 21
1228.009
  0
LINE
  8
1
  6
CONTINUOUS
 62
     2
 10
2265.802380412
 20
1228.009
 11
2270.978761315
 21
1247.327516526
  0
LINE
  8
1
  6
CONTINUOUS
 62
     2
 10
2265.802380412
 20
1228.009
 11
2260.62599951
 21
1247.327516526
  0
TEXT
  8
1
  6
CONTINUOUS
 62
     3
 10
2257.802380412
 20
1254.709
 30
2.4
 40
28.0
  1
１３５
 50
90.0
 41
0.914285714
 51
0.0
  7
KANJI52
  0
LINE
  8
1
  6
CONTINUOUS
 62
     2
 10
2062.802380412
 20
1791.009
 11
2351.802380412
 21
1791.009
  0
LINE
  8
1
  6
CONTINUOUS
 62
     2
 10
2335.802380412
 20
1791.009
 11
2330.62599951
 21
1771.690483474
  0
LINE
  8
1
  6
CONTINUOUS
 62
     2
 10
2335.802380412
 20
1791.009
 11
2340.978761315
 21
1771.690483474
  0
LINE
  8
1
  6
CONTINUOUS
 62
     2
 10
2335.802380412
 20
1791.009
 11
2335.802380412
 21
1228.009
  0
LINE
  8
1
  6
CONTINUOUS
 62
     2
 10
2335.802380412
 20
1228.009
 11
2340.978761315
 21
1247.327516526
  0
LINE
  8
1
  6
CONTINUOUS
 62
     2
 10
2335.802380412
 20
1228.009
 11
2330.62599951
 21
1247.327516526
  0
TEXT
  8
1
  6
CONTINUOUS
 62
     3
 10
2327.802380412
 20
1468.709
 30
2.4
 40
28.0
  1
５６３
 50
90.0
 41
0.914285714
 51
0.0
  7
KANJI52
  0
TEXT
  8
0
  6
CONTINUOUS
 62
     2
 10
2924.802380412
 20
1946.009
 30
2.4
 40
24.0
  1
７８．４ＫＮ（８ｔｏｎ）
 50
0.0
 41
0.9
 51
0.0
  7
KANJI2
  0
LINE
  8
0
  6
CONTINUOUS
 62
     1
 10
1257.05
 20
1438.0
 11
1442.0
 21
1438.0
  0
LINE
  8
0
  6
CONTINUOUS
 62
     1
 10
1442.0
 20
1438.0
 11
1442.0
 21
1298.0
  0
LINE
  8
0
  6
CONTINUOUS
 62
     1
 10
1442.0
 20
1415.541
 11
1632.000190206
 21
1415.541
  0
LINE
  8
0
  6
CONTINUOUS
 62
     1
 10
1442.0
 20
1320.541
 11
1632.000190206
 21
1320.541
  0
LINE
  8
0
  6
CONTINUOUS
 62
     1
 10
1492.0
 20
1415.541
 11
1492.0
 21
1320.541
  0
LINE
  8
0
  6
LTYPE3
 62
     2
 10
1338.102380412
 20
1667.309
 11
1668.402380412
 21
1667.309
  0
TEXT
  8
0
  6
CONTINUOUS
 62
     2
 10
1617.152380412
 20
1818.009
 30
10.4
 40
32.0
  1
φ
 50
0.0
 41
0.925
 51
0.0
  7
KANJI56
  0
LINE
  8
0
  6
CONTINUOUS
 62
     1
 10
1494.352380412
 20
1692.309
 11
1634.352380412
 21
1692.309
  0
LINE
  8
0
  6
CONTINUOUS
 62
     1
 10
1385.802380412
 20
1723.009
 11
1494.352380412
 21
1723.009
  0
LINE
  8
0
  6
CONTINUOUS
 62
     1
 10
1494.352380412
 20
1723.009
 11
1494.352380412
 21
1692.309
  0
LINE
  8
0
  6
CONTINUOUS
 62
     1
 10
1634.352380412
 20
1692.309
 11
1634.352380412
 21
1642.309
  0
LINE
  8
0
  6
CONTINUOUS
 62
     1
 10
1496.602380412
 20
1642.309
 11
1634.352380412
 21
1642.309
  0
LINE
  8
0
  6
CONTINUOUS
 62
     1
 10
1494.352380412
 20
1642.309
 11
1634.352380412
 21
1642.309
  0
LINE
  8
0
  6
CONTINUOUS
 62
     1
 10
1494.352380412
 20
1642.309
 11
1494.352380412
 21
1611.609
  0
LINE
  8
0
  6
CONTINUOUS
 62
     1
 10
1385.802380412
 20
1611.609
 11
1494.352380412
 21
1611.609
  0
LINE
  8
0
  6
CONTINUOUS
 62
     1
 10
1479.352380412
 20
1723.009
 11
1479.352380412
 21
1611.609
  0
LINE
  8
0
  6
LTYPE1
 62
     2
 10
1561.852380412
 20
1692.309
 11
1561.852380412
 21
1642.309
  0
LINE
  8
0
  6
LTYPE1
 62
     2
 10
1606.852380412
 20
1692.309
 11
1606.852380412
 21
1642.309
  0
LINE
  8
0
  6
LTYPE3
 62
     2
 10
1584.352380412
 20
1723.009
 11
1584.352380412
 21
1593.709
  0
LINE
  8
1
  6
CONTINUOUS
 62
     2
 10
1561.852380412
 20
1700.309
 11
1561.852380412
 21
1829.809
  0
LINE
  8
1
  6
CONTINUOUS
 62
     2
 10
1561.852380412
 20
1813.809
 11
1542.533863887
 21
1818.985380902
  0
LINE
  8
1
  6
CONTINUOUS
 62
     2
 10
1561.852380412
 20
1813.809
 11
1542.533863887
 21
1808.632619098
  0
LINE
  8
1
  6
CONTINUOUS
 62
     2
 10
1531.852380412
 20
1813.809
 11
1561.852380412
 21
1813.809
  0
LINE
  8
1
  6
CONTINUOUS
 62
     2
 10
1561.852380412
 20
1813.809
 11
1606.852380412
 21
1813.809
  0
LINE
  8
1
  6
CONTINUOUS
 62
     2
 10
1606.852380412
 20
1813.809
 11
1774.452380412
 21
1813.809
  0
LINE
  8
1
  6
CONTINUOUS
 62
     2
 10
1606.852380412
 20
1813.809
 11
1626.170896938
 21
1808.632619098
  0
LINE
  8
1
  6
CONTINUOUS
 62
     2
 10
1606.852380412
 20
1813.809
 11
1626.170896938
 21
1818.985380902
  0
LINE
  8
1
  6
CONTINUOUS
 62
     2
 10
1606.852380412
 20
1700.309
 11
1606.852380412
 21
1829.809
  0
TEXT
  8
1
  6
CONTINUOUS
 62
     3
 10
1636.852380412
 20
1821.809
 30
2.4
 40
28.0
  1
４５Ｈ１０
 50
0.0
 41
0.914285714
 51
0.0
  7
KANJI52
  0
LINE
  8
1
  6
CONTINUOUS
 62
     2
 10
1642.352380412
 20
1692.309
 11
1747.802380412
 21
1692.309
  0
LINE
  8
1
  6
CONTINUOUS
 62
     2
 10
1731.802380412
 20
1692.309
 11
1726.62599951
 21
1672.990483474
  0
LINE
  8
1
  6
CONTINUOUS
 62
     2
 10
1731.802380412
 20
1692.309
 11
1736.978761315
 21
1672.990483474
  0
LINE
  8
1
  6
CONTINUOUS
 62
     2
 10
1731.802380412
 20
1692.309
 11
1731.802380412
 21
1642.309
  0
LINE
  8
1
  6
CONTINUOUS
 62
     2
 10
1731.802380412
 20
1642.309
 11
1736.978761315
 21
1661.627516526
  0
LINE
  8
1
  6
CONTINUOUS
 62
     2
 10
1731.802380412
 20
1642.309
 11
1726.62599951
 21
1661.627516526
  0
LINE
  8
1
  6
CONTINUOUS
 62
     2
 10
1642.352380412
 20
1642.309
 11
1747.802380412
 21
1642.309
  0
TEXT
  8
1
  6
CONTINUOUS
 62
     3
 10
1723.802380412
 20
1640.509
 30
2.4
 40
28.0
  1
５０
 50
90.0
 41
0.914285714
 51
0.0
  7
KANJI52
  0
LINE
  8
1
  6
CONTINUOUS
 62
     2
 10
1494.352380412
 20
1603.609
 11
1494.352380412
 21
1484.309
  0
LINE
  8
1
  6
CONTINUOUS
 62
     2
 10
1494.352380412
 20
1500.309
 11
1513.670896938
 21
1495.132619098
  0
LINE
  8
1
  6
CONTINUOUS
 62
     2
 10
1494.352380412
 20
1500.309
 11
1513.670896938
 21
1505.485380902
  0
LINE
  8
1
  6
CONTINUOUS
 62
     2
 10
1494.352380412
 20
1500.309
 11
1584.352380412
 21
1500.309
  0
LINE
  8
1
  6
CONTINUOUS
 62
     2
 10
1584.352380412
 20
1500.309
 11
1565.033863887
 21
1505.485380902
  0
LINE
  8
1
  6
CONTINUOUS
 62
     2
 10
1584.352380412
 20
1500.309
 11
1565.033863887
 21
1495.132619098
  0
LINE
  8
1
  6
CONTINUOUS
 62
     2
 10
1584.352380412
 20
1634.309
 11
1584.352380412
 21
1484.309
  0
TEXT
  8
1
  6
CONTINUOUS
 62
     3
 10
1512.552380412
 20
1508.309
 30
2.4
 40
28.0
  1
９０
 50
0.0
 41
0.914285714
 51
0.0
  7
KANJI52
  0
TEXT
  8
0
  6
CONTINUOUS
 62
     2
 10
1085.7
 20
609.0
 30
2.4
 40
24.0
  1
１３０５
 50
0.0
 41
0.9
 51
0.0
  7
KANJI2
  0
TEXT
  8
0
  6
CONTINUOUS
 62
     2
 10
1091.002380412
 20
500.009
 30
2.4
 40
24.0
  1
１８４５
 50
0.0
 41
0.9
 51
0.0
  7
KANJI2
  0
TEXT
  8
0
  6
CONTINUOUS
 62
     2
 10
1247.002380412
 20
495.009
 30
2.4
 40
24.0
  1
１６２０
 50
0.0
 41
0.9
 51
0.0
  7
KANJI2
  0
TEXT
  8
0
  6
CONTINUOUS
 62
     2
 10
1579.0
 20
610.0
 30
2.4
 40
24.0
  1
　　５０
 50
0.0
 41
0.9
 51
0.0
  7
KANJI2
  0
TEXT
  8
0
  6
CONTINUOUS
 62
     2
 10
1580.8
 20
550.0
 30
2.4
 40
24.0
  1
　　５０
 50
0.0
 41
0.9
 51
0.0
  7
KANJI2
  0
TEXT
  8
0
  6
CONTINUOUS
 62
     2
 10
1584.002380412
 20
493.009
 30
2.4
 40
24.0
  1
　　５０
 50
0.0
 41
0.9
 51
0.0
  7
KANJI2
  0
TEXT
  8
0
  6
CONTINUOUS
 62
     2
 10
1735.002380412
 20
609.009
 30
2.4
 40
24.0
  1
２１１
 50
0.0
 41
0.9
 51
0.0
  7
KANJI2
  0
TEXT
  8
0
  6
CONTINUOUS
 62
     2
 10
1734.002380412
 20
495.009
 30
2.4
 40
24.0
  1
２３９
 50
0.0
 41
0.9
 51
0.0
  7
KANJI2
  0
TEXT
  8
0
  6
CONTINUOUS
 62
     2
 10
1733.6
 20
553.4
 30
2.4
 40
24.0
  1
２２１
 50
0.0
 41
0.9
 51
0.0
  7
KANJI2
  0
TEXT
  8
0
  6
CONTINUOUS
 62
     2
 10
1087.002380412
 20
551.009
 30
2.4
 40
24.0
  1
１５４５
 50
0.0
 41
0.9
 51
0.0
  7
KANJI2
  0
TEXT
  8
0
  6
CONTINUOUS
 62
     2
 10
1242.002380412
 20
556.009
 30
2.4
 40
24.0
  1
１３２０
 50
0.0
 41
0.9
 51
0.0
  7
KANJI2
  0
TEXT
  8
0
  6
CONTINUOUS
 62
     2
 10
2967.2
 20
1720.2
 30
20.5
 40
28.0
  1
全閉屋内形
 50
0.0
 41
0.9
 51
0.0
  7
KANJI36
  0
LINE
  8
0
  6
CONTINUOUS
 62
     6
 10
2141.333416
 20
146.9333328
 11
2141.333416
 21
585.1999696
  0
LINE
  8
0
  6
CONTINUOUS
 62
     6
 10
3209.0666672
 20
146.9333328
 11
3209.0666672
 21
585.1999696
  0
TEXT
  8
0
  6
CONTINUOUS
 62
     2
 10
2288.0
 20
819.2
 30
8.208
 40
28.8
  1
２。モートル：全閉自冷かご形３０分定格
 50
0.0
 41
0.857222222
 51
0.0
  7
KANJI57
  0
TEXT
  8
0
  6
CONTINUOUS
 62
     2
 10
2185.0
 20
546.0
 30
2.4
 40
28.0
  1
客　先　名
 50
0.0
 41
0.857142857
 51
0.0
  7
KANJI58
  0
TEXT
  8
0
  6
CONTINUOUS
 62
     2
 10
2185.0
 20
496.0
 30
2.4
 40
28.0
  1
御　用　途
 50
0.0
 41
0.857142857
 51
0.0
  7
KANJI58
  0
TEXT
  8
1
  6
CONTINUOUS
 62
     3
 10
1692.0
 20
1151.0
 30
4.0
 40
24.0
  1
ＰＦ１／２
 50
0.0
 41
0.9
 51
0.0
  7
KANJI59
  0
TEXT
  8
0
  6
CONTINUOUS
 62
     2
 10
1242.002380412
 20
609.009
 30
2.4
 40
24.0
  1
１０８０
 50
0.0
 41
0.9
 51
0.0
  7
KANJI2
  0
TEXT
  8
0
  6
CONTINUOUS
 62
     2
 10
3203.0
 20
1774.0
 30
2.4
 40
24.0
  1
）
 50
0.0
 41
0.9
 51
0.0
  7
KANJI2
  0
TEXT
  8
0
  6
CONTINUOUS
 62
     2
 10
2923.802380412
 20
1774.009
 30
2.4
 40
24.0
  1
２１６Ｎ　　（　２２
 50
0.0
 41
0.9
 51
0.0
  7
KANJI2
  0
LINE
  8
0
  6
CONTINUOUS
 62
     1
 10
637.0
 20
1494.0
 11
620.0
 21
1494.0
  0
LINE
  8
0
  6
CONTINUOUS
 62
     1
 10
637.0
 20
1704.0
 11
620.0
 21
1704.0
  0
LINE
  8
0
  6
CONTINUOUS
 62
     1
 10
768.0
 20
1499.0
 11
772.040692358
 21
1499.0
  0
LINE
  8
0
  6
CONTINUOUS
 62
     1
 10
787.0
 20
1497.944375069
 11
777.0
 21
1487.944375069
  0
LINE
  8
0
  6
CONTINUOUS
 62
     1
 10
777.0
 20
1473.0
 11
777.0
 21
1487.944375069
  0
ARC
  8
0
  6
CONTINUOUS
 62
     1
 10
775.0
 20
1498.466558854
 40
3.0
 50
90.0
 51
180.0
  0
LINE
  8
0
  6
CONTINUOUS
 62
     1
 10
895.0
 20
1473.0
 11
895.0
 21
1487.944375069
  0
LINE
  8
0
  6
CONTINUOUS
 62
     1
 10
900.0
 20
1473.0
 11
900.0
 21
1498.466558854
  0
ARC
  8
0
  6
CONTINUOUS
 62
     1
 10
897.0
 20
1498.466558854
 40
3.0
 50
0.0
 51
90.0
  0
LINE
  8
0
  6
CONTINUOUS
 62
     1
 10
895.0
 20
1487.944375069
 11
885.0
 21
1497.944375069
  0
LINE
  8
0
  6
CONTINUOUS
 62
     1
 10
787.0
 20
1497.944375069
 11
885.0
 21
1497.944375069
  0
LINE
  8
0
  6
CONTINUOUS
 62
     1
 10
775.0
 20
1501.466558854
 11
897.0
 21
1501.466558854
  0
LINE
  8
0
  6
CONTINUOUS
 62
     1
 10
772.0
 20
1473.0
 11
772.0
 21
1498.0
  0
LINE
  8
0
  6
CONTINUOUS
 62
     1
 10
604.0
 20
1473.0
 11
604.0
 21
1529.586051867
  0
LINE
  8
0
  6
CONTINUOUS
 62
     1
 10
604.0
 20
1473.0
 11
604.0
 21
1733.0
  0
LINE
  8
0
  6
CONTINUOUS
 62
     1
 10
571.0
 20
1478.0
 11
561.0
 21
1478.0
  0
LINE
  8
0
  6
LTYPE3
 62
     2
 10
561.0
 20
1499.8
 11
561.0
 21
1478.0
  0
LINE
  8
0
  6
CONTINUOUS
 62
     1
 10
604.0
 20
1474.0
 11
604.0
 21
1724.0
  0
LINE
  8
0
  6
CONTINUOUS
 62
     1
 10
604.0
 20
1473.0
 11
604.0
 21
1724.0
  0
LINE
  8
0
  6
CONTINUOUS
 62
     1
 10
604.0
 20
1474.0
 11
604.0
 21
1724.0
  0
LINE
  8
0
  6
CONTINUOUS
 62
     1
 10
604.0
 20
1474.0
 11
615.0
 21
1474.0
  0
LINE
  8
0
  6
CONTINUOUS
 62
     1
 10
604.0
 20
1724.0
 11
620.0
 21
1724.0
  0
LINE
  8
0
  6
CONTINUOUS
 62
     1
 10
620.0
 20
1474.0
 11
620.0
 21
1724.0
  0
LINE
  8
0
  6
CONTINUOUS
 62
     1
 10
604.0
 20
1474.0
 11
620.0
 21
1474.0
  0
LINE
  8
0
  6
CONTINUOUS
 62
     1
 10
787.0
 20
1497.944375069
 11
777.0
 21
1487.944375069
  0
LINE
  8
0
  6
CONTINUOUS
 62
     1
 10
777.0
 20
1473.0
 11
777.0
 21
1487.944375069
  0
ARC
  8
0
  6
CONTINUOUS
 62
     1
 10
775.0
 20
1498.466558854
 40
3.0
 50
90.0
 51
180.0
  0
LINE
  8
0
  6
CONTINUOUS
 62
     1
 10
895.0
 20
1473.0
 11
895.0
 21
1487.944375069
  0
LINE
  8
0
  6
CONTINUOUS
 62
     1
 10
900.0
 20
1473.0
 11
900.0
 21
1498.466558854
  0
ARC
  8
0
  6
CONTINUOUS
 62
     1
 10
897.0
 20
1498.466558854
 40
3.0
 50
0.0
 51
90.0
  0
LINE
  8
0
  6
CONTINUOUS
 62
     1
 10
895.0
 20
1487.944375069
 11
885.0
 21
1497.944375069
  0
LINE
  8
0
  6
CONTINUOUS
 62
     1
 10
787.0
 20
1497.944375069
 11
885.0
 21
1497.944375069
  0
LINE
  8
0
  6
CONTINUOUS
 62
     1
 10
775.0
 20
1501.466558854
 11
897.0
 21
1501.466558854
  0
LINE
  8
0
  6
CONTINUOUS
 62
     1
 10
772.0
 20
1473.0
 11
772.0
 21
1498.0
  0
LINE
  8
0
  6
CONTINUOUS
 62
     1
 10
614.720560018
 20
1474.0
 11
615.0
 21
1474.0
  0
LINE
  8
0
  6
CONTINUOUS
 62
     1
 10
620.0
 20
1474.0
 11
620.0
 21
1724.0
  0
LINE
  8
0
  6
CONTINUOUS
 62
     1
 10
614.720560018
 20
1474.0
 11
620.0
 21
1474.0
  0
LINE
  8
0
  6
CONTINUOUS
 62
     1
 10
670.0
 20
1494.0
 11
670.0
 21
1704.0
  0
LINE
  8
0
  6
CONTINUOUS
 62
     1
 10
670.0
 20
1494.0
 11
620.0
 21
1494.0
  0
LINE
  8
0
  6
CONTINUOUS
 62
     1
 10
670.0
 20
1704.0
 11
620.0
 21
1704.0
  0
LINE
  8
0
  6
CONTINUOUS
 62
     1
 10
670.0
 20
1494.0
 11
670.0
 21
1704.0
  0
LINE
  8
0
  6
CONTINUOUS
 62
     1
 10
854.0
 20
1747.0
 11
854.0
 21
1787.0
  0
LINE
  8
0
  6
CONTINUOUS
 62
     1
 10
854.0
 20
1787.0
 11
828.3
 21
1787.0
  0
LINE
  8
0
  6
CONTINUOUS
 62
     1
 10
854.0
 20
1747.0
 11
828.3
 21
1747.0
  0
ARC
  8
0
  6
CONTINUOUS
 62
     1
 10
822.3
 20
1741.7
 40
6.0
 50
270.0
 51
0.0
  0
ARC
  8
0
  6
CONTINUOUS
 62
     1
 10
708.819480257
 20
1741.7
 40
6.0
 50
190.033164511
 51
270.0
  0
LINE
  8
0
  6
CONTINUOUS
 62
     1
 10
822.661039485
 20
1735.7
 11
708.819480257
 21
1735.7
  0
ARC
  8
0
  6
CONTINUOUS
 62
     1
 10
708.819480257
 20
1804.0
 40
6.0
 50
90.0
 51
180.0
  0
LINE
  8
0
  6
CONTINUOUS
 62
     1
 10
827.108952959
 20
1810.0
 11
708.819480257
 21
1810.0
  0
LINE
  8
0
  6
CONTINUOUS
 62
     1
 10
838.377020398
 20
1809.498824355
 11
836.2
 21
1814.0
  0
LINE
  8
0
  6
CONTINUOUS
 62
     1
 10
836.2
 20
1814.0
 11
690.801684551
 21
1743.6772391
  0
LINE
  8
0
  6
CONTINUOUS
 62
     1
 10
838.377020398
 20
1809.498824355
 11
692.97870495
 21
1739.176063455
  0
LINE
  8
0
  6
CONTINUOUS
 62
     1
 10
690.801684551
 20
1743.6772391
 11
692.97870495
 21
1739.176063455
  0
LINE
  8
0
  6
CONTINUOUS
 62
     1
 10
702.819480257
 20
1750.676063455
 11
702.819480257
 21
1804.0
  0
LINE
  8
0
  6
CONTINUOUS
 62
     1
 10
703.47870495
 20
1743.676063455
 11
703.47870495
 21
1740.676063455
  0
LINE
  8
0
  6
CONTINUOUS
 62
     1
 10
828.3
 20
1741.7
 11
828.3
 21
1803.5
  0
LINE
  8
0
  6
CONTINUOUS
 62
     1
 10
1053.5
 20
1590.3
 11
1059.4
 21
1590.3
  0
LINE
  8
0
  6
CONTINUOUS
 62
     1
 10
1053.5
 20
1607.7
 11
1059.4
 21
1607.7
  0
LINE
  8
0
  6
CONTINUOUS
 62
     1
 10
1067.0
 20
1589.0
 11
1067.0
 21
1598.9
  0
LINE
  8
0
  6
CONTINUOUS
 62
     1
 10
1060.4
 20
1589.0
 11
1067.0
 21
1589.0
  0
LINE
  8
0
  6
CONTINUOUS
 62
     1
 10
1060.4
 20
1594.0
 11
1067.0
 21
1594.0
  0
LINE
  8
0
  6
CONTINUOUS
 62
     1
 10
1067.0
 20
1609.0
 11
1067.0
 21
1599.1
  0
LINE
  8
0
  6
CONTINUOUS
 62
     1
 10
1060.4
 20
1609.0
 11
1067.0
 21
1609.0
  0
LINE
  8
0
  6
CONTINUOUS
 62
     1
 10
1060.4
 20
1604.0
 11
1067.0
 21
1604.0
  0
LINE
  8
0
  6
CONTINUOUS
 62
     1
 10
1053.5
 20
1560.3
 11
1059.4
 21
1560.3
  0
LINE
  8
0
  6
CONTINUOUS
 62
     1
 10
1053.5
 20
1556.5
 11
1059.4
 21
1556.5
  0
LINE
  8
0
  6
CONTINUOUS
 62
     1
 10
1068.9
 20
1568.4
 11
1068.9
 21
1548.4
  0
LINE
  8
0
  6
CONTINUOUS
 62
     1
 10
1063.9
 20
1548.4
 11
1068.9
 21
1548.4
  0
LINE
  8
0
  6
CONTINUOUS
 62
     1
 10
1063.9
 20
1568.4
 11
1068.9
 21
1568.4
  0
LINE
  8
0
  6
CONTINUOUS
 62
     1
 10
1059.4
 20
1619.0
 11
1063.9
 21
1619.0
  0
LINE
  8
0
  6
CONTINUOUS
 62
     1
 10
1063.9
 20
1548.4
 11
1063.9
 21
1619.0
  0
LINE
  8
0
  6
LTYPE2
 62
     2
 10
1045.4
 20
1558.4
 11
1075.7
 21
1558.4
  0
LINE
  8
0
  6
CONTINUOUS
 62
     1
 10
1059.4
 20
1619.0
 11
1059.4
 21
1553.4
  0
LINE
  8
0
  6
CONTINUOUS
 62
     1
 10
1063.9
 20
1553.4
 11
1059.4
 21
1553.4
  0
LINE
  8
0
  6
CONTINUOUS
 62
     1
 10
1057.4
 20
1565.4
 11
1057.4
 21
1550.4
  0
LINE
  8
0
  6
CONTINUOUS
 62
     1
 10
1054.9
 20
1564.9
 11
1054.9
 21
1550.4
  0
LINE
  8
0
  6
CONTINUOUS
 62
     1
 10
670.0
 20
1704.0
 11
683.125
 21
1721.5
  0
ARC
  8
0
  6
CONTINUOUS
 62
     1
 10
1031.720549228
 20
1694.0
 40
20.0
 50
9.12031501
 51
90.0
  0
LINE
  8
0
  6
CONTINUOUS
 62
     1
 10
1031.720549228
 20
1714.0
 11
897.0
 21
1714.0
  0
ARC
  8
0
  6
CONTINUOUS
 62
     1
 10
1031.720549228
 20
1504.0
 40
20.0
 50
270.0
 51
350.87968499
  0
LINE
  8
0
  6
CONTINUOUS
 62
     1
 10
947.0
 20
1714.0
 11
947.0
 21
1484.0
  0
LINE
  8
0
  6
CONTINUOUS
 62
     1
 10
897.0
 20
1714.0
 11
889.5
 21
1721.5
  0
LINE
  8
0
  6
CONTINUOUS
 62
     1
 10
683.125
 20
1721.5
 11
889.5
 21
1721.5
  0
LINE
  8
0
  6
CONTINUOUS
 62
     1
 10
670.0
 20
1701.5
 11
897.0
 21
1701.5
  0
LINE
  8
0
  6
CONTINUOUS
 62
     1
 10
670.0
 20
1686.5
 11
897.0
 21
1686.5
  0
LINE
  8
0
  6
CONTINUOUS
 62
     1
 10
670.0
 20
1671.5
 11
897.0
 21
1671.5
  0
LINE
  8
0
  6
CONTINUOUS
 62
     1
 10
670.0
 20
1656.5
 11
897.0
 21
1656.5
  0
LINE
  8
0
  6
CONTINUOUS
 62
     1
 10
670.0
 20
1641.5
 11
897.0
 21
1641.5
  0
LINE
  8
0
  6
CONTINUOUS
 62
     1
 10
670.0
 20
1626.5
 11
897.0
 21
1626.5
  0
LINE
  8
0
  6
CONTINUOUS
 62
     1
 10
670.0
 20
1611.5
 11
897.0
 21
1611.5
  0
LINE
  8
0
  6
CONTINUOUS
 62
     1
 10
679.375
 20
1716.5
 11
894.5
 21
1716.5
  0
LINE
  8
0
  6
CONTINUOUS
 62
     1
 10
784.0
 20
1721.5
 11
784.0
 21
1735.7
  0
LINE
  8
0
  6
CONTINUOUS
 62
     1
 10
744.0
 20
1721.5
 11
744.0
 21
1735.7
  0
LINE
  8
0
  6
CONTINUOUS
 62
     1
 10
670.0
 20
1494.0
 11
683.125
 21
1476.5
  0
LINE
  8
0
  6
CONTINUOUS
 62
     1
 10
670.0
 20
1511.5
 11
897.0
 21
1511.5
  0
LINE
  8
0
  6
CONTINUOUS
 62
     1
 10
670.0
 20
1526.5
 11
897.0
 21
1526.5
  0
LINE
  8
0
  6
CONTINUOUS
 62
     1
 10
670.0
 20
1541.5
 11
897.0
 21
1541.5
  0
LINE
  8
0
  6
CONTINUOUS
 62
     1
 10
670.0
 20
1556.5
 11
897.0
 21
1556.5
  0
LINE
  8
0
  6
CONTINUOUS
 62
     1
 10
670.0
 20
1571.5
 11
897.0
 21
1571.5
  0
LINE
  8
0
  6
CONTINUOUS
 62
     1
 10
670.0
 20
1586.5
 11
897.0
 21
1586.5
  0
ARC
  8
0
  6
CONTINUOUS
 62
     1
 10
-1441.328453082
 20
1599.0
 40
2494.728453082
 50
357.744769101
 51
2.255230899
  0
LINE
  8
0
  6
CONTINUOUS
 62
     1
 10
614.720560018
 20
1724.0
 11
620.0
 21
1724.0
  0
LINE
  8
0
  6
CONTINUOUS
 62
     1
 10
683.125
 20
1476.5
 11
772.0
 21
1476.5
  0
LINE
  8
0
  6
CONTINUOUS
 62
     1
 10
679.375
 20
1481.5
 11
772.0
 21
1481.5
  0
LINE
  8
0
  6
CONTINUOUS
 62
     1
 10
670.0
 20
1496.5
 11
772.0
 21
1496.5
  0
LINE
  8
0
  6
CONTINUOUS
 62
     1
 10
897.0
 20
1714.0
 11
897.0
 21
1503.966558854
  0
LINE
  8
0
  6
CONTINUOUS
 62
     1
 10
1031.720549228
 20
1484.0
 11
902.0
 21
1484.0
  0
LINE
  8
0
  6
LTYPE2
 62
     2
 10
891.0
 20
1767.0
 11
818.756580424
 21
1767.0
  0
LINE
  8
0
  6
CONTINUOUS
 62
     1
 10
604.0
 20
1733.0
 11
591.0
 21
1733.0
  0
ARC
  8
0
  6
CONTINUOUS
 62
     1
 10
574.0
 20
1763.0
 40
30.0
 50
304.518107841
 51
323.130102354
  0
LINE
  8
1
  6
CONTINUOUS
 62
     2
 10
604.0
 20
1741.0
 11
604.0
 21
1745.0
  0
LINE
  8
0
  6
CONTINUOUS
 62
     1
 10
571.0
 20
1525.0
 11
571.0
 21
1478.0
  0
LINE
  8
0
  6
LTYPE3
 62
     2
 10
1074.0
 20
1599.0
 11
384.0
 21
1599.0
  0
LINE
  8
0
  6
LTYPE2
 62
     2
 10
499.0
 20
1263.0
 11
430.0
 21
1263.0
  0
LINE
  8
0
  6
LTYPE2
 62
     2
 10
489.0
 20
1473.0
 11
424.0
 21
1473.0
  0
LINE
  8
0
  6
LTYPE3
 62
     2
 10
1661.07
 20
1368.0
 11
503.0
 21
1368.0
  0
LINE
  8
0
  6
LTYPE3
 62
     2
 10
502.0
 20
1368.0
 11
441.07
 21
1368.0
  0
LINE
  8
1
  6
CONTINUOUS
 62
     2
 10
399.0
 20
1627.0
 11
399.0
 21
1924.0
  0
LINE
  8
1
  6
CONTINUOUS
 62
     2
 10
399.0
 20
1908.0
 11
418.318516526
 21
1902.823619098
  0
LINE
  8
1
  6
CONTINUOUS
 62
     2
 10
399.0
 20
1908.0
 11
418.318516526
 21
1913.176380902
  0
LINE
  8
1
  6
CONTINUOUS
 62
     2
 10
399.0
 20
1908.0
 11
604.0
 21
1908.0
  0
LINE
  8
1
  6
CONTINUOUS
 62
     2
 10
604.0
 20
1908.0
 11
584.681483474
 21
1913.176380902
  0
LINE
  8
1
  6
CONTINUOUS
 62
     2
 10
604.0
 20
1908.0
 11
584.681483474
 21
1902.823619098
  0
LINE
  8
1
  6
CONTINUOUS
 62
     2
 10
604.0
 20
1741.0
 11
604.0
 21
1924.0
  0
TEXT
  8
1
  6
CONTINUOUS
 62
     3
 10
460.7
 20
1916.0
 30
2.4
 40
28.0
  1
２０５
 50
0.0
 41
0.914285714
 51
0.0
  7
KANJI52
  0
LINE
  8
1
  6
CONTINUOUS
 62
     2
 10
604.0
 20
1908.0
 11
623.318516526
 21
1902.823619098
  0
LINE
  8
1
  6
CONTINUOUS
 62
     2
 10
604.0
 20
1908.0
 11
623.318516526
 21
1913.176380902
  0
LINE
  8
1
  6
CONTINUOUS
 62
     2
 10
604.0
 20
1908.0
 11
1067.0
 21
1908.0
  0
LINE
  8
1
  6
CONTINUOUS
 62
     2
 10
1067.0
 20
1908.0
 11
1047.681483474
 21
1913.176380902
  0
LINE
  8
1
  6
CONTINUOUS
 62
     2
 10
1067.0
 20
1908.0
 11
1047.681483474
 21
1902.823619098
  0
LINE
  8
1
  6
CONTINUOUS
 62
     2
 10
1067.0
 20
1617.0
 11
1067.0
 21
1924.0
  0
TEXT
  8
1
  6
CONTINUOUS
 62
     3
 10
794.7
 20
1916.0
 30
2.4
 40
28.0
  1
４６５
 50
0.0
 41
0.914285714
 51
0.0
  7
KANJI52
  0
LINE
  8
1
  6
CONTINUOUS
 62
     2
 10
1067.0
 20
1603.0
 11
1077.951952497
 21
1619.734836017
  0
LINE
  8
1
  6
CONTINUOUS
 62
     2
 10
1067.0
 20
1603.0
 11
1068.117251075
 21
1622.968769367
  0
LINE
  8
1
  6
CONTINUOUS
 62
     2
 10
1067.0
 20
1603.0
 11
1140.0
 21
1825.0
  0
LINE
  8
1
  6
CONTINUOUS
 62
     2
 10
1140.0
 20
1825.0
 11
1340.8
 21
1825.0
  0
TEXT
  8
1
  6
CONTINUOUS
 62
     3
 10
1140.0
 20
1833.0
 30
4.0
 40
24.0
  1
ブレーキ開放装置
 50
0.0
 41
0.9
 51
0.0
  7
KANJI59
  0
LINE
  8
1
  6
CONTINUOUS
 62
     2
 10
856.0
 20
1771.0
 11
868.553656403
 21
1786.569383768
  0
LINE
  8
1
  6
CONTINUOUS
 62
     2
 10
856.0
 20
1771.0
 11
859.087093471
 21
1790.760310066
  0
LINE
  8
1
  6
CONTINUOUS
 62
     2
 10
856.0
 20
1771.0
 11
941.0
 21
1963.0
  0
LINE
  8
1
  6
CONTINUOUS
 62
     2
 10
941.0
 20
1963.0
 11
1065.0
 21
1963.0
  0
TEXT
  8
1
  6
CONTINUOUS
 62
     3
 10
941.0
 20
1971.0
 30
4.0
 40
24.0
  1
ＰＦ３／４
 50
0.0
 41
0.9
 51
0.0
  7
KANJI59
  0
LINE
  8
0
  6
CONTINUOUS
 62
     1
 10
2063.49
 20
2244.5948
 11
2063.49
 21
2036.6
  0
LINE
  8
0
  6
CONTINUOUS
 62
     2
 10
1943.493
 20
2244.5948
 11
1943.493
 21
2036.6
  0
LINE
  8
0
  6
CONTINUOUS
 62
     2
 10
1823.496
 20
2244.5948
 11
1823.496
 21
2036.6
  0
LINE
  8
0
  6
CONTINUOUS
 62
     1
 10
1663.5
 20
2244.5948
 11
1663.5
 21
2036.6
  0
LINE
  8
0
  6
CONTINUOUS
 62
     1
 10
1663.5
 20
2244.5948
 11
2063.49
 21
2244.5948
  0
LINE
  8
0
  6
CONTINUOUS
 62
     1
 10
1663.5
 20
2180.5964
 11
2063.49
 21
2180.5964
  0
LINE
  8
0
  6
CONTINUOUS
 62
     2
 10
1663.5
 20
2132.5976
 11
2063.49
 21
2132.5976
  0
LINE
  8
0
  6
CONTINUOUS
 62
     2
 10
1663.5
 20
2084.5988
 11
2063.49
 21
2084.5988
  0
LINE
  8
0
  6
CONTINUOUS
 62
     1
 10
1663.5
 20
2036.6
 11
2063.49
 21
2036.6
  0
TEXT
  8
0
  6
CONTINUOUS
 62
     2
 10
1959.4926
 20
2216.5955
 30
2.39994
 40
23.9994
  1
起動電流
 50
0.0
 41
0.9
 51
0.0
  7
KANJI60
  0
TEXT
  8
0
  6
CONTINUOUS
 62
     2
 10
1959.4926
 20
2188.5962
 30
2.39994
 40
23.9994
  1
　　　Ａ
 50
0.0
 41
0.9
 51
0.0
  7
KANJI60
  0
TEXT
  8
0
  6
CONTINUOUS
 62
     2
 10
1839.4956
 20
2216.5955
 30
2.39994
 40
23.9994
  1
定格電流
 50
0.0
 41
0.9
 51
0.0
  7
KANJI60
  0
TEXT
  8
0
  6
CONTINUOUS
 62
     2
 10
1839.4956
 20
2188.5962
 30
2.39994
 40
23.9994
  1
　　　Ａ
 50
0.0
 41
0.9
 51
0.0
  7
KANJI60
  0
TEXT
  8
0
  6
CONTINUOUS
 62
     2
 10
1677.09966
 20
2216.5955
 30
2.39994
 40
23.9994
  1
電圧／周波数
 50
0.0
 41
0.9
 51
0.0
  7
KANJI60
  0
TEXT
  8
0
  6
CONTINUOUS
 62
     2
 10
1677.09966
 20
2188.5962
 30
2.39994
 40
23.9994
  1
　Ｖ／Ｈｚ
 50
0.0
 41
0.9
 51
0.0
  7
KANJI60
  0
TEXT
  8
0
  6
CONTINUOUS
 62
     2
 10
1677.09966
 20
2144.5973
 30
2.39994
 40
23.9994
  1
４００／５０
 50
0.0
 41
0.9
 51
0.0
  7
KANJI60
  0
TEXT
  8
0
  6
CONTINUOUS
 62
     2
 10
1677.09966
 20
2096.5985
 30
2.39994
 40
23.9994
  1
４００／６０
 50
0.0
 41
0.9
 51
0.0
  7
KANJI60
  0
TEXT
  8
0
  6
CONTINUOUS
 62
     2
 10
1677.09966
 20
2048.5997
 30
2.39994
 40
23.9994
  1
４４０／６０
 50
0.0
 41
0.9
 51
0.0
  7
KANJI60
  0
LINE
  8
0
  6
CONTINUOUS
 62
     1
 10
1583.5
 20
2244.5948
 11
1583.5
 21
2036.6
  0
LINE
  8
0
  6
CONTINUOUS
 62
     2
 10
1463.503
 20
2244.5948
 11
1463.503
 21
2036.6
  0
LINE
  8
0
  6
CONTINUOUS
 62
     2
 10
1343.506
 20
2244.5948
 11
1343.506
 21
2036.6
  0
LINE
  8
0
  6
CONTINUOUS
 62
     1
 10
1183.51
 20
2244.5948
 11
1183.51
 21
2036.6
  0
LINE
  8
0
  6
CONTINUOUS
 62
     1
 10
1183.51
 20
2244.5948
 11
1583.5
 21
2244.5948
  0
LINE
  8
0
  6
CONTINUOUS
 62
     1
 10
1183.51
 20
2180.5964
 11
1583.5
 21
2180.5964
  0
LINE
  8
0
  6
CONTINUOUS
 62
     2
 10
1183.51
 20
2132.5976
 11
1583.5
 21
2132.5976
  0
LINE
  8
0
  6
CONTINUOUS
 62
     2
 10
1183.51
 20
2084.5988
 11
1583.5
 21
2084.5988
  0
LINE
  8
0
  6
CONTINUOUS
 62
     1
 10
1183.51
 20
2036.6
 11
1583.5
 21
2036.6
  0
TEXT
  8
0
  6
CONTINUOUS
 62
     2
 10
1479.5026
 20
2216.5955
 30
2.39994
 40
23.9994
  1
起動電流
 50
0.0
 41
0.9
 51
0.0
  7
KANJI60
  0
TEXT
  8
0
  6
CONTINUOUS
 62
     2
 10
1479.5026
 20
2188.5962
 30
2.39994
 40
23.9994
  1
　　　Ａ
 50
0.0
 41
0.9
 51
0.0
  7
KANJI60
  0
TEXT
  8
0
  6
CONTINUOUS
 62
     2
 10
1359.5056
 20
2216.5955
 30
2.39994
 40
23.9994
  1
定格電流
 50
0.0
 41
0.9
 51
0.0
  7
KANJI60
  0
TEXT
  8
0
  6
CONTINUOUS
 62
     2
 10
1359.5056
 20
2188.5962
 30
2.39994
 40
23.9994
  1
　　　Ａ
 50
0.0
 41
0.9
 51
0.0
  7
KANJI60
  0
TEXT
  8
0
  6
CONTINUOUS
 62
     2
 10
1197.10966
 20
2096.5985
 30
2.39994
 40
23.9994
  1
２００／６０
 50
0.0
 41
0.9
 51
0.0
  7
KANJI60
  0
TEXT
  8
0
  6
CONTINUOUS
 62
     2
 10
1197.10966
 20
2216.5955
 30
2.39994
 40
23.9994
  1
電圧／周波数
 50
0.0
 41
0.9
 51
0.0
  7
KANJI60
  0
TEXT
  8
0
  6
CONTINUOUS
 62
     2
 10
1197.10966
 20
2188.5962
 30
2.39994
 40
23.9994
  1
　Ｖ／Ｈｚ
 50
0.0
 41
0.9
 51
0.0
  7
KANJI60
  0
TEXT
  8
0
  6
CONTINUOUS
 62
     2
 10
1197.10966
 20
2144.5973
 30
2.39994
 40
23.9994
  1
２００／５０
 50
0.0
 41
0.9
 51
0.0
  7
KANJI60
  0
TEXT
  8
0
  6
CONTINUOUS
 62
     2
 10
1197.10966
 20
2048.5997
 30
2.39994
 40
23.9994
  1
２２０／６０
 50
0.0
 41
0.9
 51
0.0
  7
KANJI60
  0
TEXT
  8
0
  6
CONTINUOUS
 62
     2
 10
1286.097220468
 20
1990.934483
 30
2.79993
 40
27.9993
  1
注意：サーマルリレー等の選定は、上記の値を参照下さい。
 50
0.0
 41
0.9
 51
0.0
  7
KANJI61
  0
LINE
  8
0
  6
CONTINUOUS
 62
     2
 10
1270.097620468
 20
1982.934683
 11
2022.078820468
 21
1982.934683
  0
TEXT
  8
0
  6
CONTINUOUS
 62
     2
 10
1359.5056
 20
2144.5973
 30
2.39994
 40
23.9994
  1
１５．０
 50
0.0
 41
0.9
 51
0.0
  7
KANJI60
  0
TEXT
  8
0
  6
CONTINUOUS
 62
     2
 10
1359.5056
 20
2096.5985
 30
2.39994
 40
23.9994
  1
１４．０
 50
0.0
 41
0.9
 51
0.0
  7
KANJI60
  0
TEXT
  8
0
  6
CONTINUOUS
 62
     2
 10
1359.5056
 20
2048.5997
 30
2.39994
 40
23.9994
  1
１３．０
 50
0.0
 41
0.9
 51
0.0
  7
KANJI60
  0
TEXT
  8
0
  6
CONTINUOUS
 62
     2
 10
1479.5026
 20
2144.5973
 30
2.39994
 40
23.9994
  1
９１．０
 50
0.0
 41
0.9
 51
0.0
  7
KANJI60
  0
TEXT
  8
0
  6
CONTINUOUS
 62
     2
 10
1478.635999532
 20
2092.931917
 30
2.39994
 40
23.9994
  1
８６．０
 50
0.0
 41
0.9
 51
0.0
  7
KANJI60
  0
TEXT
  8
0
  6
CONTINUOUS
 62
     2
 10
1480.635949532
 20
2047.599717
 30
2.39994
 40
23.9994
  1
９４．６
 50
0.0
 41
0.9
 51
0.0
  7
KANJI60
  0
TEXT
  8
0
  6
CONTINUOUS
 62
     2
 10
1839.4956
 20
2144.5973
 30
2.39994
 40
23.9994
  1
　７．５
 50
0.0
 41
0.9
 51
0.0
  7
KANJI60
  0
TEXT
  8
0
  6
CONTINUOUS
 62
     2
 10
1839.4956
 20
2096.5985
 30
2.39994
 40
23.9994
  1
　７．０
 50
0.0
 41
0.9
 51
0.0
  7
KANJI60
  0
TEXT
  8
0
  6
CONTINUOUS
 62
     2
 10
1839.4956
 20
2048.5997
 30
2.39994
 40
23.9994
  1
　６．６
 50
0.0
 41
0.9
 51
0.0
  7
KANJI60
  0
TEXT
  8
0
  6
CONTINUOUS
 62
     2
 10
1959.4926
 20
2144.5973
 30
2.39994
 40
23.9994
  1
４５．５
 50
0.0
 41
0.9
 51
0.0
  7
KANJI60
  0
TEXT
  8
0
  6
CONTINUOUS
 62
     2
 10
1959.4926
 20
2096.5985
 30
2.39994
 40
23.9994
  1
４３．０
 50
0.0
 41
0.9
 51
0.0
  7
KANJI60
  0
TEXT
  8
0
  6
CONTINUOUS
 62
     2
 10
1959.4926
 20
2048.5997
 30
2.39994
 40
23.9994
  1
４７．３
 50
0.0
 41
0.9
 51
0.0
  7
KANJI60
  0
LINE
  8
0
  6
CONTINUOUS
 62
     6
 10
2141.333416
 20
585.1999696
 11
3209.0666672
 21
585.1999696
  0
LINE
  8
0
  6
CONTINUOUS
 62
     6
 10
2341.333416
 20
479.7333072
 11
2341.333416
 21
585.1999696
  0
TEXT
  8
0
  6
CONTINUOUS
 62
     2
 10
2953.8
 20
1553.2
 30
2.4
 40
24.0
  1
３．７
 50
0.0
 41
0.9
 51
0.0
  7
KANJI2
  0
LINE
  8
0
  6
LTYPE1
 62
     2
 10
1964.802380412
 20
1385.509
 11
1914.802380412
 21
1385.509
  0
LINE
  8
0
  6
LTYPE1
 62
     2
 10
1964.802380412
 20
1340.509
 11
1964.802380412
 21
1385.509
  0
LINE
  8
0
  6
CONTINUOUS
 62
     1
 10
1992.308049653
 20
1456.819759633
 11
1942.40689969
 21
1385.55353178
  0
ARC
  8
0
  6
CONTINUOUS
 62
     1
 10
1992.636900508
 20
1465.134917906
 40
3.0
 50
325.0
 51
55.0
  0
LINE
  8
0
  6
CONTINUOUS
 62
     1
 10
1956.267059757
 20
1494.26367833
 11
1994.357629817
 21
1467.592374039
  0
ARC
  8
0
  6
CONTINUOUS
 62
     1
 10
1955.693483321
 20
1493.444526285
 40
1.0
 50
55.0
 51
145.0
  0
ARC
  8
0
  6
CONTINUOUS
 62
     1
 10
1953.153601968
 20
1491.560646589
 40
1.0
 50
55.0
 51
145.0
  0
ARC
  8
0
  6
CONTINUOUS
 62
     1
 10
1937.573562618
 20
1386.496321655
 40
3.0
 50
235.0
 51
325.0
  0
LINE
  8
0
  6
CONTINUOUS
 62
     1
 10
1897.762263249
 20
1410.710169812
 11
1935.852833309
 21
1384.038865522
  0
ARC
  8
0
  6
CONTINUOUS
 62
     1
 10
1898.335839686
 20
1411.529321856
 40
1.0
 50
145.0
 51
235.0
  0
ARC
  8
0
  6
CONTINUOUS
 62
     1
 10
1899.237416951
 20
1414.560354426
 40
1.0
 50
145.0
 51
235.0
  0
LINE
  8
0
  6
CONTINUOUS
 62
     1
 10
1901.858023471
 20
1407.84228763
 11
1960.362819979
 21
1491.395796148
  0
LINE
  8
0
  6
CONTINUOUS
 62
     1
 10
1903.086751537
 20
1406.981922976
 11
1961.591548045
 21
1490.535431493
  0
LINE
  8
0
  6
CONTINUOUS
 62
     1
 10
1995.094356641
 20
1463.414188597
 11
1940.031018751
 21
1384.775592346
  0
LINE
  8
0
  6
CONTINUOUS
 62
     1
 10
1898.418264906
 20
1415.133930862
 11
1952.334449923
 21
1492.134223025
  0
LINE
  8
0
  6
CONTINUOUS
 62
     1
 10
1897.516687642
 20
1412.102898293
 11
1954.874331277
 21
1494.018102722
  0
LINE
  8
0
  6
LTYPE2
 62
     2
 10
1896.534555215
 20
1418.894467765
 11
1911.852698443
 21
1408.168588405
  0
LINE
  8
0
  6
LTYPE2
 62
     2
 10
1948.156434487
 20
1492.618151751
 11
1963.474577715
 21
1481.892272391
  0
LINE
  8
0
  6
CONTINUOUS
 62
     1
 10
2014.412606075
 20
1446.225080952
 11
1994.602355398
 21
1460.09636781
  0
LINE
  8
0
  6
LTYPE3
 62
     2
 10
2061.460703407
 20
1358.346792048
 11
1918.460703407
 21
1458.476470012
  0
LINE
  8
0
  6
CONTINUOUS
 62
     1
 10
1963.790726804
 20
1371.801189428
 11
1942.980476126
 21
1386.372683824
  0
LINE
  8
6
  6
CONTINUOUS
 62
     2
 10
1902.802380412
 20
1385.509
 11
1846.802380412
 21
1385.509
  0
LINE
  8
0
  6
LTYPE3
 62
     2
 10
1934.850563461
 20
1422.706752135
 11
1958.19512442
 21
1456.046240338
  0
ARC
  8
0
  6
CONTINUOUS
 62
     1
 10
2054.802380412
 20
1594.009
 40
125.0
 50
69.402826706
 51
280.557968545
  0
CIRCLE
  8
0
  6
CONTINUOUS
 62
     2
 10
1946.264734544
 20
1439.007877817
 40
10.4775
  0
CIRCLE
  8
0
  6
CONTINUOUS
 62
     2
 10
1946.264734544
 20
1439.007877817
 40
9.3155
  0
LINE
  8
1
  6
CONTINUOUS
 62
     2
 10
1944.802380412
 20
1427.509
 11
1933.256865526
 21
1411.178014543
  0
LINE
  8
1
  6
CONTINUOUS
 62
     2
 10
1944.802380412
 20
1427.509
 11
1942.96916395
 21
1407.593194282
  0
LINE
  8
0
  6
CONTINUOUS
 62
     1
 10
1924.802380412
 20
1453.234525817
 11
1924.802380412
 21
1672.542147735
  0
LINE
  8
0
  6
CONTINUOUS
 62
     1
 10
1914.802380412
 20
1318.009
 11
1968.001162384
 21
1313.354709664
  0
LINE
  8
0
  6
CONTINUOUS
 62
     1
 10
1914.802380412
 20
1318.009
 11
1914.802380412
 21
1400.234525817
  0
ARC
  8
0
  6
CONTINUOUS
 62
     1
 10
2054.802380412
 20
1594.009
 40
105.0
 50
228.094058059
 51
272.980462591
  0
ARC
  8
0
  6
CONTINUOUS
 62
     1
 10
2054.802380412
 20
1363.009
 40
100.0
 50
170.727398223
 51
118.886581767
  0
LINE
  8
1
  6
CONTINUOUS
 62
     2
 10
2184.802380412
 20
1228.009
 11
2281.802380412
 21
1228.009
  0
LINE
  8
1
  6
CONTINUOUS
 62
     2
 10
2184.802380412
 20
1228.009
 11
2351.802380412
 21
1228.009
  0
LINE
  8
1
  6
CONTINUOUS
 62
     2
 10
1944.802380412
 20
1427.509
 11
1839.789788839
 21
1143.0
  0
LINE
  8
1
  6
CONTINUOUS
 62
     2
 10
1839.789788839
 20
1143.0
 11
1692.0
 21
1143.0
  0
TEXT
  8
0
  6
CONTINUOUS
 62
     2
 10
634.0
 20
664.8
 30
1.6
 40
24.0
  1
ＭＣＬＧ８ー　　　　　３
 50
0.0
 41
0.833333333
 51
0.0
  7
KANJI62
  0
TEXT
  8
0
  6
CONTINUOUS
 62
     2
 10
634.0
 20
608.8
 30
1.6
 40
24.0
  1
ＭＣＬＧ８－　　　　　５
 50
0.0
 41
0.833333333
 51
0.0
  7
KANJI62
  0
TEXT
  8
0
  6
CONTINUOUS
 62
     2
 10
634.0
 20
552.8
 30
1.6
 40
24.0
  1
ＭＣＬＧ８－　　　　　７
 50
0.0
 41
0.833333333
 51
0.0
  7
KANJI62
  0
TEXT
  8
0
  6
CONTINUOUS
 62
     2
 10
634.0
 20
496.8
 30
1.6
 40
24.0
  1
ＭＣＬＧ８－　　　１０
 50
0.0
 41
0.833333333
 51
0.0
  7
KANJI62
  0
TEXT
  8
0
  6
CONTINUOUS
 62
     2
 10
634.0
 20
440.8
 30
1.6
 40
24.0
  1
ＭＣＬＧ８－　　　　　　　
 50
0.0
 41
0.833333333
 51
0.0
  7
KANJI62
  0
TEXT
  8
0
  6
CONTINUOUS
 62
     2
 10
634.0
 20
384.8
 30
1.6
 40
24.0
  1
ＭＣＬＧ８－　　　　　　　
 50
0.0
 41
0.833333333
 51
0.0
  7
KANJI62
  0
TEXT
  8
0
  6
CONTINUOUS
 62
     2
 10
2512.0
 20
380.0
 30
0.0
 40
28.0
  1
ＭＣＬＧ８－　　　
 50
0.0
 41
0.793650794
 51
0.0
  7
KANJI53
  0
TEXT
  8
0
  6
CONTINUOUS
 62
     2
 10
2225.802380412
 20
324.009
 30
24.0
 40
24.0
  1
岡田
 50
0.0
 41
0.9
 51
0.0
  7
KANJI63
  0
TEXT
  8
0
  6
CONTINUOUS
 62
     3
 10
2596.5333816
 20
251.999992
 30
17.333333333
 40
40.0
  1
Ａ３００１２４２
 50
0.0
 41
0.8
 51
0.0
  7
KANJI64
  0
TEXT
  8
0
  6
CONTINUOUS
 62
     2
 10
2196.0
 20
213.0
 30
0.0
 40
24.0
  1
２０００．０８．０９
 50
0.0
 41
0.833333333
 51
0.0
  7
KANJI65
  0
TEXT
  8
0
  6
CONTINUOUS
 62
     2
 10
2231.0
 20
273.0
 30
24.0
 40
24.0
  1
佐竹
 50
0.0
 41
0.9
 51
0.0
  7
KANJI63
  0
TEXT
  8
0
  6
CONTINUOUS
 62
     2
 10
2946.0
 20
1998.2
 30
1.6
 40
24.0
  1
ＭＣＬＧ８ー　　　　　
 50
0.0
 41
0.833333333
 51
0.0
  7
KANJI62
  0
TEXT
  8
0
  6
CONTINUOUS
 62
     2
 10
2935.8
 20
1831.2
 30
2.4
 40
24.0
  1
３０／３６
 50
0.0
 41
0.9
 51
0.0
  7
KANJI2
  0
ENDSEC
  0
EOF
