  0
SECTION
  2
HEADER
  9
$EXTMIN
 10
0.0
 20
0.0
 30
0.0
  9
$EXTMAX
 10
3360.0
 20
2376.0
 30
0.0
  9
$LIMMIN
 10
0.0
 20
0.0
  9
$LIMMAX
 10
3360.0
 20
2376.0
  9
$LTSCALE
 40
1.0
  9
$PDMODE
 70
     0
  0
ENDSEC
  0
SECTION
  2
TABLES
  0
TABLE
  2
LTYPE
 70
     6
  0
LTYPE
  2
CONTINUOUS
 70
    64
  3
Solid line
 72
    65
 73
     0
 40
0.0
  0
LTYPE
  2
LTYPE1
 70
    64
  3
HIDDEN
 72
    65
 73
     2
 40
24.0
 49
14.4
 49
-9.6
  0
LTYPE
  2
LTYPE2
 70
    64
  3
CENTER
 72
    65
 73
     4
 40
80.0
 49
56.0
 49
-8.0
 49
8.0
 49
-8.0
  0
LTYPE
  2
LTYPE3
 70
    64
  3
CENTER
 72
    65
 73
     4
 40
120.0
 49
84.0
 49
-12.0
 49
12.0
 49
-12.0
  0
LTYPE
  2
LTYPE4
 70
    64
  3
PHANTOM
 72
    65
 73
     6
 40
120.0
 49
90.0
 49
-6.0
 49
6.0
 49
-6.0
 49
6.0
 49
-6.0
  0
LTYPE
  2
LTYPE5
 70
    64
  3
CENTER
 72
    65
 73
     4
 40
160.0
 49
112.0
 49
-16.0
 49
16.0
 49
-16.0
  0
ENDTAB
  0
TABLE
  2
LAYER
 70
   128
  0
LAYER
  2
0
 70
     0
 62
     7
  6
CONTINUOUS
  0
LAYER
  2
2
 70
     0
 62
     7
  6
CONTINUOUS
  0
LAYER
  2
3
 70
     0
 62
     7
  6
CONTINUOUS
  0
LAYER
  2
4
 70
     0
 62
     7
  6
CONTINUOUS
  0
LAYER
  2
5
 70
     0
 62
     7
  6
CONTINUOUS
  0
LAYER
  2
6
 70
     0
 62
     7
  6
CONTINUOUS
  0
LAYER
  2
7
 70
     0
 62
     7
  6
CONTINUOUS
  0
LAYER
  2
8
 70
     0
 62
     7
  6
CONTINUOUS
  0
LAYER
  2
9
 70
     0
 62
     7
  6
CONTINUOUS
  0
LAYER
  2
10
 70
     0
 62
     7
  6
CONTINUOUS
  0
LAYER
  2
11
 70
     0
 62
     7
  6
CONTINUOUS
  0
LAYER
  2
12
 70
     0
 62
     7
  6
CONTINUOUS
  0
LAYER
  2
13
 70
     0
 62
     7
  6
CONTINUOUS
  0
LAYER
  2
14
 70
     0
 62
     7
  6
CONTINUOUS
  0
LAYER
  2
15
 70
     0
 62
     7
  6
CONTINUOUS
  0
LAYER
  2
16
 70
     0
 62
     7
  6
CONTINUOUS
  0
LAYER
  2
17
 70
     0
 62
     7
  6
CONTINUOUS
  0
LAYER
  2
18
 70
     0
 62
     7
  6
CONTINUOUS
  0
LAYER
  2
19
 70
     0
 62
     7
  6
CONTINUOUS
  0
LAYER
  2
20
 70
     0
 62
     7
  6
CONTINUOUS
  0
LAYER
  2
21
 70
     0
 62
     7
  6
CONTINUOUS
  0
LAYER
  2
22
 70
     0
 62
     7
  6
CONTINUOUS
  0
LAYER
  2
23
 70
     0
 62
     7
  6
CONTINUOUS
  0
LAYER
  2
24
 70
     0
 62
     7
  6
CONTINUOUS
  0
LAYER
  2
25
 70
     0
 62
     7
  6
CONTINUOUS
  0
LAYER
  2
26
 70
     0
 62
     7
  6
CONTINUOUS
  0
LAYER
  2
27
 70
     0
 62
     7
  6
CONTINUOUS
  0
LAYER
  2
28
 70
     0
 62
     7
  6
CONTINUOUS
  0
LAYER
  2
29
 70
     0
 62
     7
  6
CONTINUOUS
  0
LAYER
  2
30
 70
     0
 62
     7
  6
CONTINUOUS
  0
LAYER
  2
31
 70
     0
 62
     7
  6
CONTINUOUS
  0
LAYER
  2
32
 70
     0
 62
     7
  6
CONTINUOUS
  0
LAYER
  2
33
 70
     0
 62
     7
  6
CONTINUOUS
  0
LAYER
  2
34
 70
     0
 62
     7
  6
CONTINUOUS
  0
LAYER
  2
35
 70
     0
 62
     7
  6
CONTINUOUS
  0
LAYER
  2
36
 70
     0
 62
     7
  6
CONTINUOUS
  0
LAYER
  2
37
 70
     0
 62
     7
  6
CONTINUOUS
  0
LAYER
  2
38
 70
     0
 62
     7
  6
CONTINUOUS
  0
LAYER
  2
39
 70
     0
 62
     7
  6
CONTINUOUS
  0
LAYER
  2
40
 70
     0
 62
     7
  6
CONTINUOUS
  0
LAYER
  2
41
 70
     0
 62
     7
  6
CONTINUOUS
  0
LAYER
  2
42
 70
     0
 62
     7
  6
CONTINUOUS
  0
LAYER
  2
43
 70
     0
 62
     7
  6
CONTINUOUS
  0
LAYER
  2
44
 70
     0
 62
     7
  6
CONTINUOUS
  0
LAYER
  2
45
 70
     0
 62
     7
  6
CONTINUOUS
  0
LAYER
  2
46
 70
     0
 62
     7
  6
CONTINUOUS
  0
LAYER
  2
47
 70
     0
 62
     7
  6
CONTINUOUS
  0
LAYER
  2
48
 70
     0
 62
     7
  6
CONTINUOUS
  0
LAYER
  2
49
 70
     0
 62
     7
  6
CONTINUOUS
  0
LAYER
  2
50
 70
     0
 62
     7
  6
CONTINUOUS
  0
LAYER
  2
51
 70
     0
 62
     7
  6
CONTINUOUS
  0
LAYER
  2
52
 70
     0
 62
     7
  6
CONTINUOUS
  0
LAYER
  2
53
 70
     0
 62
     7
  6
CONTINUOUS
  0
LAYER
  2
54
 70
     0
 62
     7
  6
CONTINUOUS
  0
LAYER
  2
55
 70
     0
 62
     7
  6
CONTINUOUS
  0
LAYER
  2
56
 70
     0
 62
     7
  6
CONTINUOUS
  0
LAYER
  2
57
 70
     0
 62
     7
  6
CONTINUOUS
  0
LAYER
  2
58
 70
     0
 62
     7
  6
CONTINUOUS
  0
LAYER
  2
59
 70
     0
 62
     7
  6
CONTINUOUS
  0
LAYER
  2
60
 70
     0
 62
     7
  6
CONTINUOUS
  0
LAYER
  2
61
 70
     0
 62
     7
  6
CONTINUOUS
  0
LAYER
  2
62
 70
     0
 62
     7
  6
CONTINUOUS
  0
LAYER
  2
63
 70
     0
 62
     7
  6
CONTINUOUS
  0
LAYER
  2
64
 70
     0
 62
     7
  6
CONTINUOUS
  0
LAYER
  2
65
 70
     0
 62
     7
  6
CONTINUOUS
  0
LAYER
  2
66
 70
     0
 62
     7
  6
CONTINUOUS
  0
LAYER
  2
67
 70
     0
 62
     7
  6
CONTINUOUS
  0
LAYER
  2
68
 70
     0
 62
     7
  6
CONTINUOUS
  0
LAYER
  2
69
 70
     0
 62
     7
  6
CONTINUOUS
  0
LAYER
  2
70
 70
     0
 62
     7
  6
CONTINUOUS
  0
LAYER
  2
71
 70
     0
 62
     7
  6
CONTINUOUS
  0
LAYER
  2
72
 70
     0
 62
     7
  6
CONTINUOUS
  0
LAYER
  2
73
 70
     0
 62
     7
  6
CONTINUOUS
  0
LAYER
  2
74
 70
     0
 62
     7
  6
CONTINUOUS
  0
LAYER
  2
75
 70
     0
 62
     7
  6
CONTINUOUS
  0
LAYER
  2
76
 70
     0
 62
     7
  6
CONTINUOUS
  0
LAYER
  2
77
 70
     0
 62
     7
  6
CONTINUOUS
  0
LAYER
  2
78
 70
     0
 62
     7
  6
CONTINUOUS
  0
LAYER
  2
79
 70
     0
 62
     7
  6
CONTINUOUS
  0
LAYER
  2
80
 70
     0
 62
     7
  6
CONTINUOUS
  0
LAYER
  2
81
 70
     0
 62
     7
  6
CONTINUOUS
  0
LAYER
  2
82
 70
     0
 62
     7
  6
CONTINUOUS
  0
LAYER
  2
83
 70
     0
 62
     7
  6
CONTINUOUS
  0
LAYER
  2
84
 70
     0
 62
     7
  6
CONTINUOUS
  0
LAYER
  2
85
 70
     0
 62
     7
  6
CONTINUOUS
  0
LAYER
  2
86
 70
     0
 62
     7
  6
CONTINUOUS
  0
LAYER
  2
87
 70
     0
 62
     7
  6
CONTINUOUS
  0
LAYER
  2
88
 70
     0
 62
     7
  6
CONTINUOUS
  0
LAYER
  2
89
 70
     0
 62
     7
  6
CONTINUOUS
  0
LAYER
  2
90
 70
     0
 62
     7
  6
CONTINUOUS
  0
LAYER
  2
91
 70
     0
 62
     7
  6
CONTINUOUS
  0
LAYER
  2
92
 70
     0
 62
     7
  6
CONTINUOUS
  0
LAYER
  2
93
 70
     0
 62
     7
  6
CONTINUOUS
  0
LAYER
  2
94
 70
     0
 62
     7
  6
CONTINUOUS
  0
LAYER
  2
95
 70
     0
 62
     7
  6
CONTINUOUS
  0
LAYER
  2
96
 70
     0
 62
     7
  6
CONTINUOUS
  0
LAYER
  2
97
 70
     0
 62
     7
  6
CONTINUOUS
  0
LAYER
  2
98
 70
     0
 62
     7
  6
CONTINUOUS
  0
LAYER
  2
99
 70
     0
 62
     7
  6
CONTINUOUS
  0
LAYER
  2
100
 70
     0
 62
     7
  6
CONTINUOUS
  0
LAYER
  2
101
 70
     0
 62
     7
  6
CONTINUOUS
  0
LAYER
  2
102
 70
     0
 62
     7
  6
CONTINUOUS
  0
LAYER
  2
103
 70
     0
 62
     7
  6
CONTINUOUS
  0
LAYER
  2
104
 70
     0
 62
     7
  6
CONTINUOUS
  0
LAYER
  2
105
 70
     0
 62
     7
  6
CONTINUOUS
  0
LAYER
  2
106
 70
     0
 62
     7
  6
CONTINUOUS
  0
LAYER
  2
107
 70
     0
 62
     7
  6
CONTINUOUS
  0
LAYER
  2
108
 70
     0
 62
     7
  6
CONTINUOUS
  0
LAYER
  2
109
 70
     0
 62
     7
  6
CONTINUOUS
  0
LAYER
  2
110
 70
     0
 62
     7
  6
CONTINUOUS
  0
LAYER
  2
111
 70
     0
 62
     7
  6
CONTINUOUS
  0
LAYER
  2
112
 70
     0
 62
     7
  6
CONTINUOUS
  0
LAYER
  2
113
 70
     0
 62
     7
  6
CONTINUOUS
  0
LAYER
  2
114
 70
     0
 62
     7
  6
CONTINUOUS
  0
LAYER
  2
115
 70
     0
 62
     7
  6
CONTINUOUS
  0
LAYER
  2
116
 70
     0
 62
     7
  6
CONTINUOUS
  0
LAYER
  2
117
 70
     0
 62
     7
  6
CONTINUOUS
  0
LAYER
  2
118
 70
     0
 62
     7
  6
CONTINUOUS
  0
LAYER
  2
119
 70
     0
 62
     7
  6
CONTINUOUS
  0
LAYER
  2
120
 70
     0
 62
     7
  6
CONTINUOUS
  0
LAYER
  2
121
 70
     0
 62
     7
  6
CONTINUOUS
  0
LAYER
  2
122
 70
     0
 62
     7
  6
CONTINUOUS
  0
LAYER
  2
123
 70
     0
 62
     7
  6
CONTINUOUS
  0
LAYER
  2
124
 70
     0
 62
     7
  6
CONTINUOUS
  0
LAYER
  2
125
 70
     0
 62
     7
  6
CONTINUOUS
  0
LAYER
  2
126
 70
     0
 62
     7
  6
CONTINUOUS
  0
LAYER
  2
127
 70
     0
 62
     7
  6
CONTINUOUS
  0
LAYER
  2
128
 70
     0
 62
     7
  6
CONTINUOUS
  0
ENDTAB
  0
TABLE
  2
STYLE
 70
    65
  0
STYLE
  2
STANDARD
 70
     0
 40
0.0
 41
1.0
 50
0.0
 71
     0
 42
0.2
  3
txt
  4

  0
STYLE
  2
KANJI0
 70
     0
 40
40.0
 41
1.0
 50
0.0
 71
     0
 42
40.0
  3

  4
bigfont
  0
STYLE
  2
KANJI1
 70
     0
 40
40.0
 41
1.0
 50
0.0
 71
     0
 42
40.0
  3

  4
bigfont
  0
STYLE
  2
KANJI2
 70
     0
 40
24.0
 41
0.9
 50
0.0
 71
     0
 42
24.0
  3

  4
bigfont
  0
STYLE
  2
KANJI3
 70
     0
 40
24.0
 41
0.9
 50
0.0
 71
     0
 42
24.0
  3

  4
bigfont
  0
STYLE
  2
KANJI4
 70
     0
 40
19.2
 41
0.777777778
 50
0.0
 71
     0
 42
19.2
  3

  4
bigfont
  0
STYLE
  2
KANJI5
 70
     0
 40
25.6
 41
0.9
 50
0.0
 71
     0
 42
25.6
  3

  4
bigfont
  0
STYLE
  2
KANJI6
 70
     0
 40
32.0
 41
0.9
 50
0.0
 71
     0
 42
32.0
  3

  4
bigfont
  0
STYLE
  2
KANJI7
 70
     0
 40
28.8
 41
0.857142857
 50
0.0
 71
     0
 42
28.8
  3

  4
bigfont
  0
STYLE
  2
KANJI8
 70
     0
 40
28.8
 41
0.857222222
 50
0.0
 71
     0
 42
28.8
  3

  4
bigfont
  0
STYLE
  2
KANJI9
 70
     0
 40
28.0
 41
0.9
 50
0.0
 71
     0
 42
28.0
  3

  4
bigfont
  0
STYLE
  2
KANJI10
 70
     0
 40
15.999996636
 41
0.6
 50
0.0
 71
     0
 42
15.999996636
  3

  4
bigfont
  0
STYLE
  2
KANJI11
 70
     0
 40
19.199995963
 41
0.9
 50
0.0
 71
     0
 42
19.199995963
  3

  4
bigfont
  0
STYLE
  2
KANJI12
 70
     0
 40
13.8666656
 41
0.8
 50
0.0
 71
     0
 42
13.8666656
  3

  4
bigfont
  0
STYLE
  2
KANJI13
 70
     0
 40
13.8666656
 41
0.75
 50
0.0
 71
     0
 42
13.8666656
  3

  4
bigfont
  0
STYLE
  2
KANJI14
 70
     0
 40
16.63999872
 41
0.75
 50
0.0
 71
     0
 42
16.63999872
  3

  4
bigfont
  0
STYLE
  2
KANJI15
 70
     0
 40
16.63999872
 41
0.9
 50
0.0
 71
     0
 42
16.63999872
  3

  4
bigfont
  0
STYLE
  2
KANJI16
 70
     0
 40
16.63999872
 41
0.8
 50
0.0
 71
     0
 42
16.63999872
  3

  4
bigfont
  0
STYLE
  2
KANJI17
 70
     0
 40
20.7999984
 41
0.9
 50
0.0
 71
     0
 42
20.7999984
  3

  4
bigfont
  0
STYLE
  2
KANJI18
 70
     0
 40
13.8666656
 41
0.75
 50
0.0
 71
     0
 42
13.8666656
  3

  4
bigfont
  0
STYLE
  2
KANJI19
 70
     0
 40
20.7999984
 41
0.75
 50
0.0
 71
     0
 42
20.7999984
  3

  4
bigfont
  0
STYLE
  2
KANJI20
 70
     0
 40
12.47999904
 41
0.75
 50
0.0
 71
     0
 42
12.47999904
  3

  4
bigfont
  0
STYLE
  2
KANJI21
 70
     0
 40
13.8666656
 41
0.6
 50
0.0
 71
     0
 42
13.8666656
  3

  4
bigfont
  0
STYLE
  2
KANJI22
 70
     0
 40
16.63999872
 41
0.6
 50
0.0
 71
     0
 42
16.63999872
  3

  4
bigfont
  0
STYLE
  2
KANJI23
 70
     0
 40
13.8666656
 41
0.8
 50
0.0
 71
     0
 42
13.8666656
  3

  4
bigfont
  0
STYLE
  2
KANJI24
 70
     0
 40
16.63999872
 41
0.8
 50
0.0
 71
     0
 42
16.63999872
  3

  4
bigfont
  0
STYLE
  2
KANJI25
 70
     0
 40
20.7999984
 41
0.75
 50
0.0
 71
     0
 42
20.7999984
  3

  4
bigfont
  0
STYLE
  2
KANJI26
 70
     0
 40
69.333328
 41
0.9
 50
0.0
 71
     0
 42
69.333328
  3

  4
bigfont
  0
STYLE
  2
KANJI27
 70
     0
 40
23.999994954
 41
0.9
 50
0.0
 71
     0
 42
23.999994954
  3

  4
bigfont
  0
STYLE
  2
KANJI28
 70
     0
 40
24.2666648
 41
0.42031746
 50
0.0
 71
     0
 42
24.2666648
  3

  4
bigfont
  0
STYLE
  2
KANJI29
 70
     0
 40
41.5999968
 41
0.9
 50
0.0
 71
     0
 42
41.5999968
  3

  4
bigfont
  0
STYLE
  2
KANJI30
 70
     0
 40
36.0
 41
0.666666667
 50
0.0
 71
     0
 42
36.0
  3

  4
bigfont
  0
STYLE
  2
KANJI31
 70
     0
 40
36.0
 41
0.9
 50
0.0
 71
     0
 42
36.0
  3

  4
bigfont
  0
STYLE
  2
KANJI32
 70
     4
 40
28.0
 41
0.9
 50
0.0
 71
     0
 42
28.0
  3

  4
bigfont
  0
STYLE
  2
KANJI33
 70
     4
 40
24.0
 41
0.9
 50
0.0
 71
     0
 42
24.0
  3

  4
bigfont
  0
STYLE
  2
KANJI34
 70
     0
 40
28.0
 41
0.9
 50
0.0
 71
     0
 42
28.0
  3

  4
bigfont
  0
STYLE
  2
KANJI35
 70
     0
 40
24.0
 41
0.9
 50
0.0
 71
     0
 42
24.0
  3

  4
bigfont
  0
STYLE
  2
KANJI36
 70
     0
 40
24.0
 41
0.857142857
 50
0.0
 71
     0
 42
24.0
  3

  4
bigfont
  0
STYLE
  2
KANJI37
 70
     0
 40
28.0
 41
0.9
 50
0.0
 71
     0
 42
28.0
  3

  4
bigfont
  0
STYLE
  2
KANJI38
 70
     0
 40
22.4
 41
0.9
 50
0.0
 71
     0
 42
22.4
  3

  4
bigfont
  0
STYLE
  2
KANJI39
 70
     0
 40
22.4
 41
0.785714286
 50
0.0
 71
     0
 42
22.4
  3

  4
bigfont
  0
STYLE
  2
KANJI40
 70
     0
 40
22.4
 41
0.8
 50
0.0
 71
     0
 42
22.4
  3

  4
bigfont
  0
STYLE
  2
KANJI41
 70
     0
 40
24.0
 41
0.8
 50
0.0
 71
     0
 42
24.0
  3

  4
bigfont
  0
STYLE
  2
KANJI42
 70
     0
 40
30.4
 41
0.9
 50
0.0
 71
     0
 42
30.4
  3

  4
bigfont
  0
STYLE
  2
KANJI43
 70
     0
 40
30.4
 41
0.9
 50
0.0
 71
     0
 42
30.4
  3

  4
bigfont
  0
STYLE
  2
KANJI44
 70
     0
 40
30.4
 41
0.9
 50
0.0
 71
     0
 42
30.4
  3

  4
bigfont
  0
STYLE
  2
KANJI45
 70
     0
 40
30.4
 41
0.9
 50
0.0
 71
     0
 42
30.4
  3

  4
bigfont
  0
STYLE
  2
KANJI46
 70
     0
 40
30.4
 41
0.9
 50
0.0
 71
     0
 42
30.4
  3

  4
bigfont
  0
STYLE
  2
KANJI47
 70
     0
 40
30.4
 41
0.9
 50
0.0
 71
     0
 42
30.4
  3

  4
bigfont
  0
STYLE
  2
KANJI48
 70
     0
 40
30.4
 41
0.9
 50
0.0
 71
     0
 42
30.4
  3

  4
bigfont
  0
STYLE
  2
KANJI49
 70
     0
 40
30.4
 41
0.9
 50
0.0
 71
     0
 42
30.4
  3

  4
bigfont
  0
STYLE
  2
KANJI50
 70
     0
 40
30.4
 41
0.9
 50
0.0
 71
     0
 42
30.4
  3

  4
bigfont
  0
STYLE
  2
KANJI51
 70
     0
 40
30.4
 41
0.9
 50
0.0
 71
     0
 42
30.4
  3

  4
bigfont
  0
STYLE
  2
KANJI52
 70
     0
 40
22.4
 41
0.8
 50
0.0
 71
     0
 42
22.4
  3

  4
bigfont
  0
STYLE
  2
KANJI53
 70
     0
 40
28.0
 41
0.914285714
 50
0.0
 71
     0
 42
28.0
  3

  4
bigfont
  0
STYLE
  2
KANJI54
 70
     0
 40
23.9994
 41
0.9
 50
0.0
 71
     0
 42
23.9994
  3

  4
bigfont
  0
STYLE
  2
KANJI55
 70
     0
 40
27.9993
 41
0.9
 50
0.0
 71
     0
 42
27.9993
  3

  4
bigfont
  0
STYLE
  2
KANJI56
 70
     0
 40
28.0
 41
0.793650794
 50
0.0
 71
     0
 42
28.0
  3

  4
bigfont
  0
STYLE
  2
KANJI57
 70
     0
 40
24.0
 41
0.9
 50
0.0
 71
     0
 42
24.0
  3

  4
bigfont
  0
STYLE
  2
KANJI58
 70
     0
 40
40.0
 41
0.8
 50
0.0
 71
     0
 42
40.0
  3

  4
bigfont
  0
STYLE
  2
KANJI59
 70
     0
 40
24.0
 41
0.833333333
 50
0.0
 71
     0
 42
24.0
  3

  4
bigfont
  0
STYLE
  2
KANJI60
 70
     0
 40
24.0
 41
0.9
 50
0.0
 71
     0
 42
24.0
  3

  4
bigfont
  0
STYLE
  2
KANJI61
 70
     0
 40
24.0
 41
0.9
 50
0.0
 71
     0
 42
24.0
  3

  4
bigfont
  0
STYLE
  2
KANJI62
 70
     0
 40
28.0
 41
0.857142857
 50
0.0
 71
     0
 42
28.0
  3

  4
bigfont
  0
STYLE
  2
KANJI63
 70
     0
 40
24.0
 41
0.9
 50
0.0
 71
     0
 42
24.0
  3

  4
bigfont
  0
ENDTAB
  0
TABLE
  2
VIEW
 70
     0
  0
ENDTAB
  0
ENDSEC
  0
SECTION
  2
BLOCKS
  0
ENDSEC
  0
SECTION
  2
ENTITIES
  0
LINE
  8
0
 62
    99
 10
144.0
 20
0.0
 11
144.0
 21
2376.0
  0
LINE
  8
0
 62
    99
 10
0.0
 20
108.0
 11
3360.0
 21
108.0
  0
TEXT
  8
0
  6
CONTINUOUS
 62
     2
 10
2880.0
 20
280.0
 30
20.0
 40
40.0
  1
外形寸法図
 50
0.0
 41
1.0
 51
0.0
  7
KANJI0
  0
TEXT
  8
0
  6
CONTINUOUS
 62
     2
 10
2832.0
 20
328.0
 30
5.714285714
 40
40.0
  1
マイティシリンダ
 50
0.0
 41
1.0
 51
0.0
  7
KANJI1
  0
LINE
  8
0
  6
CONTINUOUS
 62
     1
 10
640.0
 20
720.0
 11
1880.0
 21
720.0
  0
LINE
  8
0
  6
CONTINUOUS
 62
     1
 10
640.0
 20
664.0
 11
1880.0
 21
664.0
  0
LINE
  8
0
  6
CONTINUOUS
 62
     1
 10
1880.0
 20
720.0
 11
1880.0
 21
328.0
  0
LINE
  8
0
  6
CONTINUOUS
 62
     1
 10
640.0
 20
328.0
 11
1880.0
 21
328.0
  0
LINE
  8
0
  6
CONTINUOUS
 62
     1
 10
640.0
 20
720.0
 11
640.0
 21
328.0
  0
LINE
  8
0
  6
CONTINUOUS
 62
     1
 10
920.0
 20
720.0
 11
920.0
 21
328.0
  0
LINE
  8
0
  6
CONTINUOUS
 62
     2
 10
1080.0
 20
720.0
 11
1080.0
 21
328.0
  0
LINE
  8
0
  6
CONTINUOUS
 62
     2
 10
1240.0
 20
720.0
 11
1240.0
 21
328.0
  0
LINE
  8
0
  6
CONTINUOUS
 62
     2
 10
1400.0
 20
720.0
 11
1400.0
 21
328.0
  0
LINE
  8
0
  6
CONTINUOUS
 62
     2
 10
1560.0
 20
720.0
 11
1560.0
 21
328.0
  0
LINE
  8
0
  6
CONTINUOUS
 62
     2
 10
1720.0
 20
720.0
 11
1720.0
 21
328.0
  0
LINE
  8
0
  6
CONTINUOUS
 62
     2
 10
640.0
 20
384.0
 11
1880.0
 21
384.0
  0
LINE
  8
0
  6
CONTINUOUS
 62
     2
 10
640.0
 20
608.0
 11
1880.0
 21
608.0
  0
LINE
  8
0
  6
CONTINUOUS
 62
     2
 10
640.0
 20
552.0
 11
1880.0
 21
552.0
  0
LINE
  8
0
  6
CONTINUOUS
 62
     2
 10
640.0
 20
496.0
 11
1880.0
 21
496.0
  0
LINE
  8
0
  6
CONTINUOUS
 62
     2
 10
640.0
 20
440.0
 11
1880.0
 21
440.0
  0
TEXT
  8
0
  6
CONTINUOUS
 62
     2
 10
940.8
 20
680.0
 30
2.4
 40
24.0
  1
ストローク
 50
0.0
 41
0.9
 51
0.0
  7
KANJI2
  0
TEXT
  8
0
  6
CONTINUOUS
 62
     2
 10
1094.4
 20
678.4
 30
0.0
 40
24.0
  1
ｍｉｎ　
 50
0.0
 41
0.9
 51
0.0
  7
KANJI3
  0
TEXT
  8
0
  6
CONTINUOUS
 62
     2
 10
1254.4
 20
678.4
 30
0.0
 40
24.0
  1
ｍｉｎ　
 50
0.0
 41
0.9
 51
0.0
  7
KANJI3
  0
TEXT
  8
0
  6
CONTINUOUS
 62
     2
 10
1574.4
 20
678.4
 30
0.0
 40
24.0
  1
ｍｉｎ　
 50
0.0
 41
0.9
 51
0.0
  7
KANJI3
  0
TEXT
  8
0
  6
CONTINUOUS
 62
     2
 10
1823.0
 20
681.8
 30
0.0
 40
19.2
  1
（ｋｇ）
 50
0.0
 41
0.777777778
 51
0.0
  7
KANJI4
  0
TEXT
  8
0
  6
CONTINUOUS
 62
     2
 10
1727.0
 20
679.0
 30
2.56
 40
25.6
  1
概算重量
 50
0.0
 41
0.9
 51
0.0
  7
KANJI5
  0
TEXT
  8
0
  6
CONTINUOUS
 62
     2
 10
696.0
 20
680.0
 30
2.56
 40
25.6
  1
形
 50
0.0
 41
0.9
 51
0.0
  7
KANJI5
  0
TEXT
  8
0
  6
CONTINUOUS
 62
     2
 10
852.0
 20
680.0
 30
2.56
 40
25.6
  1
式
 50
0.0
 41
0.9
 51
0.0
  7
KANJI5
  0
TEXT
  8
0
  6
CONTINUOUS
 62
     2
 10
2432.0
 20
901.6
 30
16.0
 40
32.0
  1
特記事項
 50
0.0
 41
0.9
 51
0.0
  7
KANJI6
  0
TEXT
  8
0
  6
CONTINUOUS
 62
     2
 10
2320.0
 20
837.6
 30
8.228571429
 40
28.8
  1
１。運転時は必ずピストンロッドの回転防止を行って下さい。
 50
0.0
 41
0.857142857
 51
0.0
  7
KANJI7
  0
TEXT
  8
0
  6
CONTINUOUS
 62
     2
 10
2320.0
 20
775.2
 30
8.208
 40
28.8
  1
２。モートル：全閉自冷かご形３０分定格
 50
0.0
 41
0.857222222
 51
0.0
  7
KANJI8
  0
TEXT
  8
0
  6
CONTINUOUS
 62
     2
 10
1176.0
 20
680.0
 30
2.8
 40
28.0
  1
ＡＬ
 50
0.0
 41
0.9
 51
0.0
  7
KANJI9
  0
TEXT
  8
0
  6
CONTINUOUS
 62
     2
 10
1336.0
 20
680.0
 30
2.8
 40
28.0
  1
Ｌ
 50
0.0
 41
0.9
 51
0.0
  7
KANJI9
  0
TEXT
  8
0
  6
CONTINUOUS
 62
     2
 10
1472.0
 20
680.0
 30
2.8
 40
28.0
  1
Ｃ
 50
0.0
 41
0.9
 51
0.0
  7
KANJI9
  0
TEXT
  8
0
  6
CONTINUOUS
 62
     2
 10
1656.0
 20
680.0
 30
2.8
 40
28.0
  1
Ｐ
 50
0.0
 41
0.9
 51
0.0
  7
KANJI9
  0
LINE
  8
0
  6
CONTINUOUS
 62
     4
 10
3248.0
 20
-56.0
 11
2456.0
 21
-56.0
  0
LINE
  8
0
  6
CONTINUOUS
 62
     4
 10
3248.0
 20
-136.0
 11
2456.0
 21
-136.0
  0
TEXT
  8
0
  6
CONTINUOUS
 62
     4
 10
175.999994954
 20
135.99999159
 30
1.599999664
 40
15.999996636
  1
ＰＡＲＴＳ　ＬＩＳＴ
 50
0.0
 41
0.6
 51
0.0
  7
KANJI10
  0
TEXT
  8
0
  6
CONTINUOUS
 62
     4
 10
535.999919262
 20
135.99999159
 30
1.599999664
 40
15.999996636
  1
Ｎ０．
 50
0.0
 41
0.6
 51
0.0
  7
KANJI10
  0
TEXT
  8
0
  6
CONTINUOUS
 62
     4
 10
175.999994954
 20
111.999996636
 30
1.919999596
 40
19.199995963
  1
部品表
 50
0.0
 41
0.9
 51
0.0
  7
KANJI11
  0
TEXT
  8
0
  6
CONTINUOUS
 62
     4
 10
535.999919262
 20
111.999996636
 30
1.919999596
 40
19.199995963
  1
項番
 50
0.0
 41
0.9
 51
0.0
  7
KANJI11
  0
LINE
  8
0
  6
CONTINUOUS
 62
     4
 10
2870.1333624
 20
2241.0666672
 11
2870.1333624
 21
2119.7333432
  0
LINE
  8
0
  6
CONTINUOUS
 62
     4
 10
2804.2667008
 20
2241.0666672
 11
2804.2667008
 21
2119.7333432
  0
LINE
  8
0
  6
CONTINUOUS
 62
     4
 10
2686.4000432
 20
2241.0666672
 11
2686.4000432
 21
2119.7333432
  0
LINE
  8
0
  6
CONTINUOUS
 62
     4
 10
2568.5333856
 20
2241.0666672
 11
2568.5333856
 21
2119.7333432
  0
LINE
  8
0
  6
CONTINUOUS
 62
     4
 10
2502.666724
 20
2241.0666672
 11
2502.666724
 21
2119.7333432
  0
LINE
  8
0
  6
CONTINUOUS
 62
     4
 10
2436.8000624
 20
2241.0666672
 11
2436.8000624
 21
2119.7333432
  0
TEXT
  8
0
  6
CONTINUOUS
 62
     4
 10
2318.9334048
 20
2216.8000024
 30
1.38666656
 40
13.8666656
  1
（μ）
 50
0.0
 41
0.8
 51
0.0
  7
KANJI12
  0
TEXT
  8
0
  6
CONTINUOUS
 62
     4
 10
2312.000072
 20
2189.0666712
 30
1.38666656
 40
13.8666656
  1
０．８－Ｓ
 50
0.0
 41
0.75
 51
0.0
  7
KANJI13
  0
TEXT
  8
0
  6
CONTINUOUS
 62
     4
 10
2377.8667336
 20
2189.0666712
 30
1.38666656
 40
13.8666656
  1
　６－Ｓ
 50
0.0
 41
0.75
 51
0.0
  7
KANJI13
  0
TEXT
  8
0
  6
CONTINUOUS
 62
     4
 10
2443.7333952
 20
2189.0666712
 30
1.38666656
 40
13.8666656
  1
２５－Ｓ
 50
0.0
 41
0.75
 51
0.0
  7
KANJI13
  0
TEXT
  8
0
  6
CONTINUOUS
 62
     4
 10
2509.6000568
 20
2189.0666712
 30
1.38666656
 40
13.8666656
  1
１００－Ｓ
 50
0.0
 41
0.75
 51
0.0
  7
KANJI13
  0
TEXT
  8
0
  6
CONTINUOUS
 62
     4
 10
2575.4667184
 20
2189.0666712
 30
1.38666656
 40
13.8666656
  1
ＭＡＣＨＩＮＩＮＧ
 50
0.0
 41
0.75
 51
0.0
  7
KANJI13
  0
TEXT
  8
0
  6
CONTINUOUS
 62
     4
 10
2575.4667184
 20
2213.333336
 30
1.38666656
 40
13.8666656
  1
ＷＩＴＨＯＵＴ
 50
0.0
 41
0.75
 51
0.0
  7
KANJI13
  0
TEXT
  8
0
  6
CONTINUOUS
 62
     4
 10
2693.333376
 20
2213.333336
 30
1.38666656
 40
13.8666656
  1
ＭＡＣＨＩＮＩＮＧ
 50
0.0
 41
0.75
 51
0.0
  7
KANJI13
  0
TEXT
  8
0
  6
CONTINUOUS
 62
     4
 10
2693.333376
 20
2189.0666712
 30
1.38666656
 40
13.8666656
  1
ＴＯＬＥＲＡＮＣＥ
 50
0.0
 41
0.75
 51
0.0
  7
KANJI13
  0
TEXT
  8
0
  6
CONTINUOUS
 62
     4
 10
2811.2000336
 20
2213.333336
 30
1.38666656
 40
13.8666656
  1
０．５≦
 50
0.0
 41
0.75
 51
0.0
  7
KANJI13
  0
TEXT
  8
0
  6
CONTINUOUS
 62
     4
 10
2811.2000336
 20
2164.8000064
 30
1.38666656
 40
13.8666656
  1
≦６
 50
0.0
 41
0.75
 51
0.0
  7
KANJI13
  0
TEXT
  8
0
  6
CONTINUOUS
 62
     4
 10
2877.0666952
 20
2164.8000064
 30
1.38666656
 40
13.8666656
  1
≦３０
 50
0.0
 41
0.75
 51
0.0
  7
KANJI13
  0
TEXT
  8
0
  6
CONTINUOUS
 62
     4
 10
2877.0666952
 20
2213.333336
 30
1.38666656
 40
13.8666656
  1
６＜
 50
0.0
 41
0.75
 51
0.0
  7
KANJI13
  0
TEXT
  8
0
  6
CONTINUOUS
 62
     4
 10
2814.6667
 20
2130.1333424
 30
1.38666656
 40
13.8666656
  1
±０．１
 50
0.0
 41
0.75
 51
0.0
  7
KANJI13
  0
TEXT
  8
0
  6
CONTINUOUS
 62
     4
 10
2880.5333616
 20
2130.1333424
 30
1.38666656
 40
13.8666656
  1
±０．２
 50
0.0
 41
0.75
 51
0.0
  7
KANJI13
  0
ARC
  8
0
  6
CONTINUOUS
 62
     4
 10
2617.85960666
 20
2131.52000896
 40
11.09333248
 50
30.0
 51
180.0
  0
ARC
  8
0
  6
CONTINUOUS
 62
     4
 10
2637.07382214
 20
2142.61334144
 40
11.09333248
 50
210.0
 51
0.0
  0
LINE
  8
0
  6
CONTINUOUS
 62
     4
 10
2529.5333886
 20
2144.000008
 11
2541.666721
 21
2144.000008
  0
LINE
  8
0
  6
CONTINUOUS
 62
     4
 10
2529.5333886
 20
2144.000008
 11
2535.6000548
 21
2130.1333424
  0
LINE
  8
0
  6
CONTINUOUS
 62
     4
 10
2535.6000548
 20
2130.1333424
 11
2541.666721
 21
2144.000008
  0
LINE
  8
0
  6
CONTINUOUS
 62
     4
 10
2457.6000608
 20
2144.000008
 11
2463.666727
 21
2130.1333424
  0
LINE
  8
0
  6
CONTINUOUS
 62
     4
 10
2463.666727
 20
2130.1333424
 11
2469.7333932
 21
2144.000008
  0
LINE
  8
0
  6
CONTINUOUS
 62
     4
 10
2469.7333932
 20
2144.000008
 11
2475.8000594
 21
2130.1333424
  0
LINE
  8
0
  6
CONTINUOUS
 62
     4
 10
2475.8000594
 20
2130.1333424
 11
2481.8667256
 21
2144.000008
  0
LINE
  8
0
  6
CONTINUOUS
 62
     4
 10
2457.6000608
 20
2144.000008
 11
2481.8667256
 21
2144.000008
  0
LINE
  8
0
  6
CONTINUOUS
 62
     4
 10
2370.9334008
 20
2241.0666672
 11
2370.9334008
 21
2119.7333432
  0
LINE
  8
0
  6
CONTINUOUS
 62
     4
 10
2313.7334052
 20
2144.000008
 11
2362.2667348
 21
2144.000008
  0
LINE
  8
0
  6
CONTINUOUS
 62
     4
 10
2313.7334052
 20
2144.000008
 11
2319.8000714
 21
2130.1333424
  0
LINE
  8
0
  6
CONTINUOUS
 62
     4
 10
2319.8000714
 20
2130.1333424
 11
2325.8667376
 21
2144.000008
  0
LINE
  8
0
  6
CONTINUOUS
 62
     4
 10
2325.8667376
 20
2144.000008
 11
2331.9334038
 21
2130.1333424
  0
LINE
  8
0
  6
CONTINUOUS
 62
     4
 10
2331.9334038
 20
2130.1333424
 11
2338.00007
 21
2144.000008
  0
LINE
  8
0
  6
CONTINUOUS
 62
     4
 10
2338.00007
 20
2144.000008
 11
2344.0667362
 21
2130.1333424
  0
LINE
  8
0
  6
CONTINUOUS
 62
     4
 10
2344.0667362
 20
2130.1333424
 11
2350.1334024
 21
2144.000008
  0
LINE
  8
0
  6
CONTINUOUS
 62
     4
 10
2350.1334024
 20
2144.000008
 11
2356.2000686
 21
2130.1333424
  0
LINE
  8
0
  6
CONTINUOUS
 62
     4
 10
2356.2000686
 20
2130.1333424
 11
2362.2667348
 21
2144.000008
  0
LINE
  8
0
  6
CONTINUOUS
 62
     4
 10
2385.666733
 20
2144.000008
 11
2391.7333992
 21
2130.1333424
  0
LINE
  8
0
  6
CONTINUOUS
 62
     4
 10
2391.7333992
 20
2130.1333424
 11
2397.8000654
 21
2144.000008
  0
LINE
  8
0
  6
CONTINUOUS
 62
     4
 10
2397.8000654
 20
2144.000008
 11
2403.8667316
 21
2130.1333424
  0
LINE
  8
0
  6
CONTINUOUS
 62
     4
 10
2403.8667316
 20
2130.1333424
 11
2409.9333978
 21
2144.000008
  0
LINE
  8
0
  6
CONTINUOUS
 62
     4
 10
2409.9333978
 20
2144.000008
 11
2416.000064
 21
2130.1333424
  0
LINE
  8
0
  6
CONTINUOUS
 62
     4
 10
2416.000064
 20
2130.1333424
 11
2422.0667302
 21
2144.000008
  0
LINE
  8
0
  6
CONTINUOUS
 62
     4
 10
2385.666733
 20
2144.000008
 11
2422.0667302
 21
2144.000008
  0
TEXT
  8
0
  6
CONTINUOUS
 62
     4
 10
2575.4667184
 20
2164.8000064
 30
1.663999872
 40
16.63999872
  1
加工なし
 50
0.0
 41
0.75
 51
0.0
  7
KANJI14
  0
TEXT
  8
0
  6
CONTINUOUS
 62
     4
 10
2693.333376
 20
2164.8000064
 30
1.663999872
 40
16.63999872
  1
普通加工交差
 50
0.0
 41
0.9
 51
0.0
  7
KANJI15
  0
TEXT
  8
0
  6
CONTINUOUS
 62
     4
 10
2721.0667072
 20
2130.1333424
 30
1.663999872
 40
16.63999872
  1
（ｍｍ）
 50
0.0
 41
0.75
 51
0.0
  7
KANJI14
  0
LINE
  8
0
  6
CONTINUOUS
 62
     4
 10
3067.7333472
 20
2241.0666672
 11
3067.7333472
 21
2119.7333432
  0
LINE
  8
0
  6
CONTINUOUS
 62
     4
 10
3154.4000072
 20
2241.0666672
 11
3154.4000072
 21
2119.7333432
  0
LINE
  8
0
  6
CONTINUOUS
 62
     4
 10
3001.8666856
 20
2241.0666672
 11
3001.8666856
 21
2119.7333432
  0
LINE
  8
0
  6
CONTINUOUS
 62
     4
 10
2936.000024
 20
2241.0666672
 11
2936.000024
 21
2119.7333432
  0
TEXT
  8
0
  6
CONTINUOUS
 62
     4
 10
2942.9333568
 20
2164.8000064
 30
1.38666656
 40
13.8666656
  1
≦１２０
 50
0.0
 41
0.75
 51
0.0
  7
KANJI13
  0
TEXT
  8
0
  6
CONTINUOUS
 62
     4
 10
2942.9333568
 20
2213.333336
 30
1.38666656
 40
13.8666656
  1
３０＜
 50
0.0
 41
0.75
 51
0.0
  7
KANJI13
  0
TEXT
  8
0
  6
CONTINUOUS
 62
     4
 10
3008.8000184
 20
2213.333336
 30
1.38666656
 40
13.8666656
  1
１２０＜
 50
0.0
 41
0.75
 51
0.0
  7
KANJI13
  0
TEXT
  8
0
  6
CONTINUOUS
 62
     4
 10
3008.8000184
 20
2164.8000064
 30
1.38666656
 40
13.8666656
  1
≦３１５
 50
0.0
 41
0.75
 51
0.0
  7
KANJI13
  0
TEXT
  8
0
  6
CONTINUOUS
 62
     4
 10
3074.66668
 20
2213.333336
 30
1.38666656
 40
13.8666656
  1
３１５＜
 50
0.0
 41
0.75
 51
0.0
  7
KANJI13
  0
TEXT
  8
0
  6
CONTINUOUS
 62
     4
 10
3074.66668
 20
2164.8000064
 30
1.38666656
 40
13.8666656
  1
≦１０００
 50
0.0
 41
0.75
 51
0.0
  7
KANJI13
  0
TEXT
  8
0
  6
CONTINUOUS
 62
     4
 10
3161.33334
 20
2213.333336
 30
1.38666656
 40
13.8666656
  1
１０００＜
 50
0.0
 41
0.75
 51
0.0
  7
KANJI13
  0
TEXT
  8
0
  6
CONTINUOUS
 62
     4
 10
3161.33334
 20
2164.8000064
 30
1.38666656
 40
13.8666656
  1
≦２０００
 50
0.0
 41
0.75
 51
0.0
  7
KANJI13
  0
TEXT
  8
0
  6
CONTINUOUS
 62
     4
 10
2946.4000232
 20
2130.1333424
 30
1.38666656
 40
13.8666656
  1
±０．３
 50
0.0
 41
0.75
 51
0.0
  7
KANJI13
  0
TEXT
  8
0
  6
CONTINUOUS
 62
     4
 10
3012.2666848
 20
2130.1333424
 30
1.38666656
 40
13.8666656
  1
±０．５
 50
0.0
 41
0.75
 51
0.0
  7
KANJI13
  0
TEXT
  8
0
  6
CONTINUOUS
 62
     4
 10
3088.5333456
 20
2130.1333424
 30
1.38666656
 40
13.8666656
  1
±０．８
 50
0.0
 41
0.75
 51
0.0
  7
KANJI13
  0
TEXT
  8
0
  6
CONTINUOUS
 62
     4
 10
3175.2000056
 20
2130.1333424
 30
1.38666656
 40
13.8666656
  1
±１．２
 50
0.0
 41
0.75
 51
0.0
  7
KANJI13
  0
LINE
  8
0
  6
CONTINUOUS
 62
     4
 10
2305.0667392
 20
2241.0666672
 11
2305.0667392
 21
2119.7333432
  0
TEXT
  8
0
  6
CONTINUOUS
 62
     4
 10
2194.1334144
 20
2189.0666712
 30
1.38666656
 40
13.8666656
  1
ＲＯＵＧＨＮＥＳＳ
 50
0.0
 41
0.8
 51
0.0
  7
KANJI12
  0
TEXT
  8
0
  6
CONTINUOUS
 62
     4
 10
2194.1334144
 20
2213.333336
 30
1.38666656
 40
13.8666656
  1
ＳＵＲＦＡＣＥ
 50
0.0
 41
0.8
 51
0.0
  7
KANJI12
  0
TEXT
  8
0
  6
CONTINUOUS
 62
     4
 10
2194.1334144
 20
2164.8000064
 30
1.663999872
 40
16.63999872
  1
仕上面粗さ
 50
0.0
 41
0.8
 51
0.0
  7
KANJI16
  0
TEXT
  8
0
  6
CONTINUOUS
 62
     4
 10
2204.5334136
 20
2130.1333424
 30
1.663999872
 40
16.63999872
  1
ＳＹＭ．記号
 50
0.0
 41
0.75
 51
0.0
  7
KANJI14
  0
LINE
  8
0
  6
CONTINUOUS
 62
     4
 10
3241.0666672
 20
2154.4000072
 11
2187.2000816
 21
2154.4000072
  0
TEXT
  8
0
  6
CONTINUOUS
 62
     4
 10
2370.9334008
 20
2254.9333328
 30
2.07999984
 40
20.7999984
  1
ＩＳＯ
 50
0.0
 41
0.9
 51
0.0
  7
KANJI17
  0
TEXT
  8
0
  6
CONTINUOUS
 62
     4
 10
2433.333396
 20
2254.9333328
 30
1.38666656
 40
13.8666656
  1
ＭＥＴＲＩＣ　ＳＣＲＥＷ　ＴＨＲＥＡＤ
 50
0.0
 41
0.75
 51
0.0
  7
KANJI18
  0
TEXT
  8
0
  6
CONTINUOUS
 62
     4
 10
2668.72004456
 20
2254.9333328
 30
1.38666656
 40
13.8666656
  1
ＩＳＯ
 50
0.0
 41
0.75
 51
0.0
  7
KANJI18
  0
TEXT
  8
0
  6
CONTINUOUS
 62
     4
 10
2866.32002936
 20
2254.9333328
 30
2.07999984
 40
20.7999984
  1
３
 50
0.0
 41
0.75
 51
0.0
  7
KANJI19
  0
TEXT
  8
0
  6
CONTINUOUS
 62
     4
 10
2883.65336136
 20
2254.9333328
 30
1.38666656
 40
13.8666656
  1
ＲＤ　ＡＮＧＬＥ　ＰＲＯＪＥＣＴＩＯＮ　第３角法
 50
0.0
 41
0.75
 51
0.0
  7
KANJI18
  0
TEXT
  8
0
  6
CONTINUOUS
 62
     4
 10
2706.85337496
 20
2254.9333328
 30
1.247999904
 40
12.47999904
  1
メートルネジ使用
 50
0.0
 41
0.75
 51
0.0
  7
KANJI20
  0
TEXT
  8
0
  6
CONTINUOUS
 62
     4
 10
2187.2000816
 20
245.0666552
 30
1.38666656
 40
13.8666656
  1
ＤＲＡＷＮ
 50
0.0
 41
0.6
 51
0.0
  7
KANJI21
  0
TEXT
  8
0
  6
CONTINUOUS
 62
     4
 10
2187.2000816
 20
300.5333176
 30
1.38666656
 40
13.8666656
  1
ＤＥＳＩＧＮ
 50
0.0
 41
0.6
 51
0.0
  7
KANJI21
  0
TEXT
  8
0
  6
CONTINUOUS
 62
     4
 10
2187.2000816
 20
355.99998
 30
1.38666656
 40
13.8666656
  1
ＣＨＥＣＫ
 50
0.0
 41
0.6
 51
0.0
  7
KANJI21
  0
TEXT
  8
0
  6
CONTINUOUS
 62
     4
 10
2187.2000816
 20
411.4666424
 30
1.38666656
 40
13.8666656
  1
ＣＯＤＥ
 50
0.0
 41
0.6
 51
0.0
  7
KANJI21
  0
LINE
  8
0
  6
CONTINUOUS
 62
     4
 10
2173.333416
 20
324.7999824
 11
2426.4000632
 21
324.7999824
  0
LINE
  8
0
  6
CONTINUOUS
 62
     4
 10
2173.333416
 20
269.33332
 11
2426.4000632
 21
269.33332
  0
LINE
  8
0
  6
CONTINUOUS
 62
     4
 10
2173.333416
 20
380.2666448
 11
2426.4000632
 21
380.2666448
  0
LINE
  8
0
  6
CONTINUOUS
 62
     4
 10
2173.333416
 20
435.7333072
 11
3241.0666672
 21
435.7333072
  0
TEXT
  8
0
  6
CONTINUOUS
 62
     4
 10
2187.2000816
 20
279.7333192
 30
1.663999872
 40
16.63999872
  1
設計
 50
0.0
 41
0.6
 51
0.0
  7
KANJI22
  0
TEXT
  8
0
  6
CONTINUOUS
 62
     4
 10
2187.2000816
 20
335.1999816
 30
1.663999872
 40
16.63999872
  1
検図
 50
0.0
 41
0.6
 51
0.0
  7
KANJI22
  0
TEXT
  8
0
  6
CONTINUOUS
 62
     4
 10
2187.2000816
 20
390.666644
 30
1.663999872
 40
16.63999872
  1
分類
 50
0.0
 41
0.6
 51
0.0
  7
KANJI22
  0
LINE
  8
0
  6
CONTINUOUS
 62
     4
 10
2446.85339496
 20
380.2666448
 11
3241.0666672
 21
380.2666448
  0
LINE
  8
0
  6
CONTINUOUS
 62
     4
 10
2426.4000632
 20
269.33332
 11
3241.0666672
 21
269.33332
  0
TEXT
  8
0
  6
CONTINUOUS
 62
     4
 10
2440.2667288
 20
245.0666552
 30
1.38666656
 40
13.8666656
  1
ＤＲＡＷＩＮＧ　ＮＯ．
 50
0.0
 41
0.8
 51
0.0
  7
KANJI23
  0
TEXT
  8
0
  6
CONTINUOUS
 62
     4
 10
2440.2667288
 20
300.5333176
 30
1.38666656
 40
13.8666656
  1
ＭＦＧ　ＮＯ．
 50
0.0
 41
0.8
 51
0.0
  7
KANJI23
  0
TEXT
  8
0
  6
CONTINUOUS
 62
     4
 10
2440.2667288
 20
355.99998
 30
1.38666656
 40
13.8666656
  1
ＴＹＰＥ
 50
0.0
 41
0.8
 51
0.0
  7
KANJI23
  0
LINE
  8
0
  6
CONTINUOUS
 62
     4
 10
2447.2000616
 20
324.7999824
 11
2766.1333704
 21
324.7999824
  0
TEXT
  8
0
  6
CONTINUOUS
 62
     4
 10
2440.2667288
 20
220.7999904
 30
1.663999872
 40
16.63999872
  1
図　面　番　号
 50
0.0
 41
0.8
 51
0.0
  7
KANJI24
  0
TEXT
  8
0
  6
CONTINUOUS
 62
     4
 10
2440.2667288
 20
276.2666528
 30
1.663999872
 40
16.63999872
  1
製番
 50
0.0
 41
0.8
 51
0.0
  7
KANJI24
  0
TEXT
  8
0
  6
CONTINUOUS
 62
     4
 10
2440.2667288
 20
331.7333152
 30
1.663999872
 40
16.63999872
  1
機種
 50
0.0
 41
0.8
 51
0.0
  7
KANJI24
  0
LINE
  8
0
  6
CONTINUOUS
 62
     4
 10
2173.333416
 20
158.3999952
 11
2426.4000632
 21
158.3999952
  0
LINE
  8
0
  6
CONTINUOUS
 62
     4
 10
2173.333416
 20
213.8666576
 11
2426.4000632
 21
213.8666576
  0
TEXT
  8
0
  6
CONTINUOUS
 62
     4
 10
2187.2000816
 20
134.1333304
 30
1.38666656
 40
13.8666656
  1
ＳＣＡＬＥ
 50
0.0
 41
0.6
 51
0.0
  7
KANJI21
  0
TEXT
  8
0
  6
CONTINUOUS
 62
     4
 10
2187.2000816
 20
189.5999928
 30
1.38666656
 40
13.8666656
  1
ＤＡＴＥ
 50
0.0
 41
0.6
 51
0.0
  7
KANJI21
  0
TEXT
  8
0
  6
CONTINUOUS
 62
     4
 10
2187.2000816
 20
113.333332
 30
1.663999872
 40
16.63999872
  1
尺度
 50
0.0
 41
0.6
 51
0.0
  7
KANJI22
  0
TEXT
  8
0
  6
CONTINUOUS
 62
     4
 10
2187.2000816
 20
168.7999944
 30
1.663999872
 40
16.63999872
  1
日付
 50
0.0
 41
0.6
 51
0.0
  7
KANJI22
  0
TEXT
  8
0
  6
CONTINUOUS
 62
     4
 10
2187.2000816
 20
224.2666568
 30
1.663999872
 40
16.63999872
  1
作図
 50
0.0
 41
0.6
 51
0.0
  7
KANJI22
  0
LINE
  8
0
  6
CONTINUOUS
 62
     4
 10
1781.6001128
 20
102.9333328
 11
1781.6001128
 21
158.3999952
  0
LINE
  8
0
  6
CONTINUOUS
 62
     4
 10
1844.000108
 20
102.9333328
 11
1844.000108
 21
158.3999952
  0
TEXT
  8
0
  6
CONTINUOUS
 62
     4
 10
1802.4001112
 20
134.1333304
 30
1.38666656
 40
13.8666656
  1
ＢＹ
 50
0.0
 41
0.6
 51
0.0
  7
KANJI21
  0
TEXT
  8
0
  6
CONTINUOUS
 62
     4
 10
1954.9334328
 20
134.1333304
 30
1.38666656
 40
13.8666656
  1
ＤＥＳＣＲＩＰＴＩＯＮ
 50
0.0
 41
0.6
 51
0.0
  7
KANJI21
  0
TEXT
  8
0
  6
CONTINUOUS
 62
     4
 10
1802.4001112
 20
113.333332
 30
1.663999872
 40
16.63999872
  1
担当
 50
0.0
 41
0.6
 51
0.0
  7
KANJI22
  0
TEXT
  8
0
  6
CONTINUOUS
 62
     4
 10
1975.7334312
 20
113.333332
 30
1.663999872
 40
16.63999872
  1
記　　　　事
 50
0.0
 41
0.6
 51
0.0
  7
KANJI22
  0
LINE
  8
0
  6
CONTINUOUS
 62
     4
 10
1655.0667892
 20
147.999996
 11
1632.5334576
 21
113.333332
  0
TEXT
  8
0
  6
CONTINUOUS
 62
     4
 10
1712.2667848
 20
134.1333304
 30
1.38666656
 40
13.8666656
  1
ＤＡＴＥ
 50
0.0
 41
0.6
 51
0.0
  7
KANJI21
  0
TEXT
  8
0
  6
CONTINUOUS
 62
     4
 10
1722.666784
 20
113.333332
 30
1.663999872
 40
16.63999872
  1
日付
 50
0.0
 41
0.6
 51
0.0
  7
KANJI22
  0
LINE
  8
0
  6
CONTINUOUS
 62
     4
 10
1632.5334576
 20
113.333332
 11
1677.6001208
 21
113.333332
  0
LINE
  8
0
  6
CONTINUOUS
 62
     4
 10
1684.5334536
 20
102.9333328
 11
1684.5334536
 21
158.3999952
  0
LINE
  8
0
  6
CONTINUOUS
 62
     4
 10
1655.0667892
 20
147.999996
 11
1677.6001208
 21
113.333332
  0
LINE
  8
0
  6
CONTINUOUS
 62
     4
 10
2426.4000632
 20
189.5999928
 11
3241.0666672
 21
189.5999928
  0
LINE
  8
0
  6
CONTINUOUS
 62
     4
 10
2426.4000632
 20
102.9333328
 11
2426.4000632
 21
435.7333072
  0
LINE
  8
0
  6
LTYPE1
 62
     4
 10
3008.8000184
 20
199.999992
 11
3008.8000184
 21
255.4666544
  0
LINE
  8
0
  6
LTYPE1
 62
     4
 10
2960.2666888
 20
199.999992
 11
2960.2666888
 21
255.4666544
  0
LINE
  8
0
  6
LTYPE1
 62
     4
 10
2911.7333592
 20
199.999992
 11
2911.7333592
 21
255.4666544
  0
LINE
  8
0
  6
LTYPE1
 62
     4
 10
2863.2000296
 20
199.999992
 11
2863.2000296
 21
255.4666544
  0
LINE
  8
0
  6
LTYPE1
 62
     4
 10
2814.6667
 20
199.999992
 11
2814.6667
 21
255.4666544
  0
LINE
  8
0
  6
LTYPE1
 62
     4
 10
2766.1333704
 20
199.999992
 11
2766.1333704
 21
255.4666544
  0
LINE
  8
0
  6
LTYPE1
 62
     4
 10
2717.6000408
 20
199.999992
 11
2717.6000408
 21
255.4666544
  0
LINE
  8
0
  6
LTYPE1
 62
     4
 10
2669.0667112
 20
199.999992
 11
2669.0667112
 21
255.4666544
  0
LINE
  8
0
  6
LTYPE1
 62
     4
 10
2669.0667112
 20
255.4666544
 11
3008.8000184
 21
255.4666544
  0
LINE
  8
0
  6
LTYPE1
 62
     4
 10
2669.0667112
 20
199.999992
 11
3008.8000184
 21
199.999992
  0
LINE
  8
0
  6
CONTINUOUS
 62
     4
 10
3036.5333496
 20
229.4666564
 11
3050.4000152
 21
229.4666564
  0
LINE
  8
0
  6
CONTINUOUS
 62
     4
 10
3123.2000096
 20
208.666658
 11
3074.66668
 21
208.666658
  0
LINE
  8
0
  6
CONTINUOUS
 62
     4
 10
3074.66668
 20
208.666658
 11
3098.9333448
 21
250.2666548
  0
LINE
  8
0
  6
CONTINUOUS
 62
     4
 10
3098.9333448
 20
250.2666548
 11
3123.2000096
 21
208.666658
  0
LINE
  8
0
  6
CONTINUOUS
 62
     4
 10
3254.9333328
 20
102.9333328
 11
3338.1333264
 21
102.9333328
  0
LINE
  8
0
  6
CONTINUOUS
 62
     4
 10
3254.9333328
 20
144.5333296
 11
3338.1333264
 21
144.5333296
  0
LINE
  8
0
  6
CONTINUOUS
 62
     4
 10
3254.9333328
 20
186.1333264
 11
3338.1333264
 21
186.1333264
  0
LINE
  8
0
  6
CONTINUOUS
 62
     4
 10
3254.9333328
 20
227.7333232
 11
3338.1333264
 21
227.7333232
  0
LINE
  8
0
  6
CONTINUOUS
 62
     4
 10
3254.9333328
 20
269.33332
 11
3338.1333264
 21
269.33332
  0
LINE
  8
0
  6
CONTINUOUS
 62
     4
 10
3254.9333328
 20
310.9333168
 11
3338.1333264
 21
310.9333168
  0
LINE
  8
0
  6
CONTINUOUS
 62
     4
 10
3254.9333328
 20
352.5333136
 11
3338.1333264
 21
352.5333136
  0
LINE
  8
0
  6
CONTINUOUS
 62
     4
 10
3254.9333328
 20
394.1333104
 11
3338.1333264
 21
394.1333104
  0
LINE
  8
0
  6
CONTINUOUS
 62
     4
 10
3254.9333328
 20
435.7333072
 11
3338.1333264
 21
435.7333072
  0
LINE
  8
0
  6
CONTINUOUS
 62
     4
 10
3254.9333328
 20
477.333304
 11
3338.1333264
 21
477.333304
  0
LINE
  8
0
  6
CONTINUOUS
 62
     4
 10
3338.1333264
 20
102.9333328
 11
3338.1333264
 21
477.333304
  0
LINE
  8
0
  6
CONTINUOUS
 62
     4
 10
3296.5333296
 20
102.9333328
 11
3296.5333296
 21
435.7333072
  0
TEXT
  8
0
  6
CONTINUOUS
 62
     4
 10
3269.14666504
 20
115.0666652
 30
2.07999984
 40
20.7999984
  1
計
 50
0.0
 41
0.75
 51
0.0
  7
KANJI25
  0
TEXT
  8
0
  6
CONTINUOUS
 62
     4
 10
3269.14666504
 20
198.95999208
 30
2.07999984
 40
20.7999984
  1
設
 50
0.0
 41
0.75
 51
0.0
  7
KANJI25
  0
TEXT
  8
0
  6
CONTINUOUS
 62
     4
 10
3269.14666504
 20
239.8666556
 30
2.07999984
 40
20.7999984
  1
管
 50
0.0
 41
0.75
 51
0.0
  7
KANJI25
  0
TEXT
  8
0
  6
CONTINUOUS
 62
     4
 10
3269.14666504
 20
281.4666524
 30
2.07999984
 40
20.7999984
  1
製
 50
0.0
 41
0.75
 51
0.0
  7
KANJI25
  0
TEXT
  8
0
  6
CONTINUOUS
 62
     4
 10
3269.14666504
 20
323.0666492
 30
2.07999984
 40
20.7999984
  1
資
 50
0.0
 41
0.75
 51
0.0
  7
KANJI25
  0
TEXT
  8
0
  6
CONTINUOUS
 62
     4
 10
3269.14666504
 20
364.666646
 30
2.07999984
 40
20.7999984
  1
営
 50
0.0
 41
0.75
 51
0.0
  7
KANJI25
  0
TEXT
  8
0
  6
CONTINUOUS
 62
     4
 10
3269.14666504
 20
406.2666428
 30
2.07999984
 40
20.7999984
  1
客
 50
0.0
 41
0.75
 51
0.0
  7
KANJI25
  0
TEXT
  8
0
  6
CONTINUOUS
 62
     4
 10
3268.7999984
 20
449.5999728
 30
2.07999984
 40
20.7999984
  1
出　図
 50
0.0
 41
0.75
 51
0.0
  7
KANJI25
  0
LINE
  8
0
  6
CONTINUOUS
 62
     4
 10
3254.9333328
 20
102.9333328
 11
3254.9333328
 21
477.333304
  0
TEXT
  8
0
  6
CONTINUOUS
 62
     4
 10
3130.1333424
 20
26.666672
 30
6.9333328
 40
69.333328
  1
／
 50
0.0
 41
0.9
 51
0.0
  7
KANJI26
  0
TEXT
  8
0
  6
CONTINUOUS
 62
     4
 10
2786.9333688
 20
355.99998
 30
1.38666656
 40
13.8666656
  1
ＴＩＴＬＥ
 50
0.0
 41
0.8
 51
0.0
  7
KANJI23
  0
TEXT
  8
0
  6
CONTINUOUS
 62
     4
 10
2786.9333688
 20
331.7333152
 30
1.663999872
 40
16.63999872
  1
名称
 50
0.0
 41
0.8
 51
0.0
  7
KANJI24
  0
LINE
  8
0
  6
CONTINUOUS
 62
     6
 10
152.0
 20
96.0
 11
152.0
 21
2248.0
  0
LINE
  8
0
  6
CONTINUOUS
 62
     6
 10
152.0
 20
2248.0
 11
3248.0
 21
2248.0
  0
LINE
  8
0
  6
CONTINUOUS
 62
     6
 10
3248.0
 20
2248.0
 11
3248.0
 21
96.0
  0
LINE
  8
0
  6
CONTINUOUS
 62
     6
 10
2187.2000816
 20
2241.0666672
 11
2187.2000816
 21
2119.7333432
  0
LINE
  8
0
  6
CONTINUOUS
 62
     6
 10
3241.0666672
 20
2241.0666672
 11
2187.2000816
 21
2241.0666672
  0
LINE
  8
0
  6
CONTINUOUS
 62
     6
 10
3241.0666672
 20
2119.7333432
 11
2187.2000816
 21
2119.7333432
  0
LINE
  8
0
  6
CONTINUOUS
 62
     6
 10
3241.0666672
 20
2241.0666672
 11
3241.0666672
 21
2119.7333432
  0
LINE
  8
0
  6
CONTINUOUS
 62
     6
 10
3248.0
 20
96.0
 11
152.0
 21
96.0
  0
LINE
  8
0
  6
CONTINUOUS
 62
     6
 10
679.999888985
 20
103.999998318
 11
679.999888985
 21
215.999974769
  0
LINE
  8
0
  6
CONTINUOUS
 62
     6
 10
159.999998318
 20
215.999974769
 11
679.999888985
 21
215.999974769
  0
LINE
  8
0
  6
CONTINUOUS
 62
     6
 10
159.999998318
 20
103.999998318
 11
679.999888985
 21
103.999998318
  0
LINE
  8
0
  6
CONTINUOUS
 62
     6
 10
159.999998318
 20
103.999998318
 11
159.999998318
 21
215.999974769
  0
LINE
  8
0
  6
CONTINUOUS
 62
     6
 10
519.999922626
 20
103.999998318
 11
519.999922626
 21
215.999974769
  0
LINE
  8
0
  6
CONTINUOUS
 62
     6
 10
159.999998318
 20
159.999986544
 11
679.999888985
 21
159.999986544
  0
TEXT
  8
0
  6
CONTINUOUS
 62
     3
 10
175.999994954
 20
175.999983179
 30
2.399999495
 40
23.999994954
  1
ＰＬ
 50
0.0
 41
0.9
 51
0.0
  7
KANJI27
  0
LINE
  8
0
  6
CONTINUOUS
 62
     6
 10
1625.6001248
 20
102.9333328
 11
1625.6001248
 21
158.3999952
  0
LINE
  8
0
  6
CONTINUOUS
 62
     6
 10
1625.6001248
 20
158.3999952
 11
2173.333416
 21
158.3999952
  0
LINE
  8
0
  6
CONTINUOUS
 62
     6
 10
1625.6001248
 20
102.9333328
 11
3241.0666672
 21
102.9333328
  0
LINE
  8
0
  6
CONTINUOUS
 62
     6
 10
2718.20670742
 20
139.67999664
 11
2695.32670918
 21
139.67999664
  0
LINE
  8
0
  6
CONTINUOUS
 62
     6
 10
2718.20670742
 20
143.83999632
 11
2695.32670918
 21
143.83999632
  0
LINE
  8
0
  6
CONTINUOUS
 62
     6
 10
2718.20670742
 20
139.67999664
 11
2741.08670566
 21
139.67999664
  0
LINE
  8
0
  6
CONTINUOUS
 62
     6
 10
2718.20670742
 20
143.83999632
 11
2741.08670566
 21
143.83999632
  0
LINE
  8
0
  6
CONTINUOUS
 62
     6
 10
2741.08670566
 20
143.83999632
 11
2741.08670566
 21
139.67999664
  0
ARC
  8
0
  6
CONTINUOUS
 62
     6
 10
2746.28670526
 20
141.75999648
 40
20.7999984
 50
185.739170477
 51
90.0
  0
ARC
  8
0
  6
CONTINUOUS
 62
     6
 10
2746.28670526
 20
141.75999648
 40
24.95999808
 50
184.780191847
 51
90.0
  0
LINE
  8
0
  6
CONTINUOUS
 62
     6
 10
2695.32670918
 20
139.67999664
 11
2695.32670918
 21
143.83999632
  0
TEXT
  8
0
  6
CONTINUOUS
 62
     6
 10
2433.333396
 20
134.1333304
 30
0.0
 40
24.2666648
  1
ＵＮＩＴＥＣ　ＩＮＤＵＳＴＲＹ　ＣＯ．，ＬＴＤ．
 50
0.0
 41
0.42031746
 51
0.0
  7
KANJI28
  0
LINE
  8
0
  6
CONTINUOUS
 62
     6
 10
2715.08670766
 20
166.71999456
 11
2690.12670958
 21
166.71999456
  0
LINE
  8
0
  6
CONTINUOUS
 62
     6
 10
2721.32670718
 20
166.71999456
 11
2746.28670526
 21
166.71999456
  0
ARC
  8
0
  6
CONTINUOUS
 62
     6
 10
2690.12670958
 20
141.75999648
 40
20.7999984
 50
90.0
 51
354.260829523
  0
ARC
  8
0
  6
CONTINUOUS
 62
     6
 10
2690.12670958
 20
141.75999648
 40
24.95999808
 50
90.0
 51
355.219808153
  0
LINE
  8
0
  6
CONTINUOUS
 62
     6
 10
2715.08670766
 20
166.71999456
 11
2715.08670766
 21
162.55999488
  0
LINE
  8
0
  6
CONTINUOUS
 62
     6
 10
2690.12670958
 20
162.55999488
 11
2715.08670766
 21
162.55999488
  0
LINE
  8
0
  6
CONTINUOUS
 62
     6
 10
2721.32670718
 20
166.71999456
 11
2721.32670718
 21
162.55999488
  0
LINE
  8
0
  6
CONTINUOUS
 62
     6
 10
2746.28670526
 20
162.55999488
 11
2721.32670718
 21
162.55999488
  0
TEXT
  8
0
  6
CONTINUOUS
 62
     6
 10
2773.67336982
 20
125.11999776
 30
4.15999968
 40
41.5999968
  1
ユニテック工業株式会社
 50
0.0
 41
0.9
 51
0.0
  7
KANJI29
  0
LINE
  8
0
  6
CONTINUOUS
 62
     6
 10
2173.333416
 20
491.1999696
 11
3241.0666672
 21
491.1999696
  0
LINE
  8
0
  6
CONTINUOUS
 62
     6
 10
3241.0666672
 20
102.9333328
 11
3241.0666672
 21
491.1999696
  0
TEXT
  8
0
  6
CONTINUOUS
 62
     3
 10
2320.0
 20
112.0
 30
2.4
 40
36.0
  1
１／８
 50
0.0
 41
0.666666667
 51
0.0
  7
KANJI30
  0
LINE
  8
0
  6
CONTINUOUS
 62
     1
 10
2540.0
 20
2077.0
 11
2540.0
 21
989.0
  0
TEXT
  8
0
  6
CONTINUOUS
 62
     2
 10
2640.0
 20
2018.6
 30
22.79952
 40
36.0
  1
マイティシリンダ仕様
 50
0.0
 41
0.9
 51
0.0
  7
KANJI31
  0
TEXT
  8
0
  6
CONTINUOUS
 62
     2
 10
2572.6
 20
1513.0
 30
17.6
 40
28.0
  1
モ　トル仕様
 50
0.0
 41
0.9
 51
0.0
  7
KANJI32
  0
TEXT
  8
0
  6
CONTINUOUS
 62
     2
 10
2570.8
 20
1209.0
 30
1.371428571
 40
24.0
  1
ブレ　キ
 50
0.0
 41
0.9
 51
0.0
  7
KANJI33
  0
LINE
  8
0
  6
CONTINUOUS
 62
     2
 10
2570.4
 20
1153.8
 11
2570.4
 21
1137.0
  0
LINE
  8
0
  6
CONTINUOUS
 62
     2
 10
2570.4
 20
1468.2
 11
2570.4
 21
1449.8
  0
TEXT
  8
0
  6
CONTINUOUS
 62
     2
 10
2999.2
 20
1619.4
 30
11.36
 40
28.0
  1
推力リミッタ
 50
0.0
 41
0.9
 51
0.0
  7
KANJI34
  0
TEXT
  8
0
  6
CONTINUOUS
 62
     2
 10
3211.2
 20
1507.4
 30
17.571428571
 40
24.0
  1
Ｐ
 50
0.0
 41
0.9
 51
0.0
  7
KANJI35
  0
TEXT
  8
0
  6
CONTINUOUS
 62
     2
 10
3078.4
 20
1507.4
 30
1.6
 40
24.0
  1
ＫＷ
 50
0.0
 41
0.857142857
 51
0.0
  7
KANJI36
  0
TEXT
  8
0
  6
CONTINUOUS
 62
     2
 10
3171.2
 20
1507.4
 30
20.5
 40
28.0
  1
４
 50
0.0
 41
0.9
 51
0.0
  7
KANJI37
  0
TEXT
  8
0
  6
CONTINUOUS
 62
     2
 10
2954.4
 20
1565.8
 30
0.8
 40
22.4
  1
マンセル
 50
0.0
 41
0.9
 51
0.0
  7
KANJI38
  0
TEXT
  8
0
  6
CONTINUOUS
 62
     2
 10
3048.0
 20
1567.4
 30
0.32
 40
22.4
  1
７．５ＧＹ５／４．５
 50
0.0
 41
0.785714286
 51
0.0
  7
KANJI39
  0
TEXT
  8
0
  6
CONTINUOUS
 62
     2
 10
2948.0
 20
1172.2
 30
2.4
 40
22.4
  1
スプリング制動式電磁ブレーキ
 50
0.0
 41
0.8
 51
0.0
  7
KANJI40
  0
TEXT
  8
0
  6
CONTINUOUS
 62
     2
 10
3212.0
 20
1451.4
 30
0.288
 40
24.0
  1
Ｖ
 50
0.0
 41
0.8
 51
0.0
  7
KANJI41
  0
TEXT
  8
0
  6
CONTINUOUS
 62
     2
 10
3197.6
 20
1395.4
 30
0.288
 40
24.0
  1
Ｈｚ
 50
0.0
 41
0.8
 51
0.0
  7
KANJI41
  0
TEXT
  8
0
  6
CONTINUOUS
 62
     2
 10
3039.8
 20
1395.2
 30
2.4
 40
24.0
  1
５０／６０
 50
0.0
 41
0.9
 51
0.0
  7
KANJI2
  0
TEXT
  8
0
  6
CONTINUOUS
 62
     2
 10
3213.8
 20
1341.2
 30
2.4
 40
24.0
  1
Ａ
 50
0.0
 41
0.9
 51
0.0
  7
KANJI2
  0
TEXT
  8
0
  6
CONTINUOUS
 62
     2
 10
3087.8
 20
1287.2
 30
2.4
 40
24.0
  1
Ｅ
 50
0.0
 41
0.9
 51
0.0
  7
KANJI2
  0
LINE
  8
0
  6
CONTINUOUS
 62
     2
 10
2604.0
 20
1549.0
 11
2604.0
 21
1101.0
  0
LINE
  8
0
  6
CONTINUOUS
 62
     2
 10
2940.0
 20
1997.0
 11
2940.0
 21
989.0
  0
TEXT
  8
0
  6
CONTINUOUS
 62
     2
 10
2600.0
 20
1955.4
 30
240.594285714
 40
30.4
  1
形式
 50
0.0
 41
0.9
 51
0.0
  7
KANJI42
  0
TEXT
  8
0
  6
CONTINUOUS
 62
     2
 10
2600.0
 20
1899.4
 30
240.594285714
 40
30.4
  1
推力
 50
0.0
 41
0.9
 51
0.0
  7
KANJI42
  0
TEXT
  8
0
  6
CONTINUOUS
 62
     2
 10
2600.0
 20
1843.4
 30
39.628571429
 40
30.4
  1
ストローク
 50
0.0
 41
0.9
 51
0.0
  7
KANJI43
  0
TEXT
  8
0
  6
CONTINUOUS
 62
     2
 10
2600.0
 20
1787.4
 30
61.957805714
 40
30.4
  1
公称速度
 50
0.0
 41
0.9
 51
0.0
  7
KANJI44
  0
TEXT
  8
0
  6
CONTINUOUS
 62
     2
 10
2576.0
 20
1731.4
 30
2.605714286
 40
30.4
  1
ピストンロッド回転トルク
 50
0.0
 41
0.9
 51
0.0
  7
KANJI45
  0
TEXT
  8
0
  6
CONTINUOUS
 62
     2
 10
2600.0
 20
1675.4
 30
240.594285714
 40
30.4
  1
構造
 50
0.0
 41
0.9
 51
0.0
  7
KANJI42
  0
TEXT
  8
0
  6
CONTINUOUS
 62
     2
 10
2600.0
 20
1619.4
 30
17.298468571
 40
30.4
  1
過負荷安全装置
 50
0.0
 41
0.9
 51
0.0
  7
KANJI46
  0
TEXT
  8
0
  6
CONTINUOUS
 62
     2
 10
2600.0
 20
1563.4
 30
106.617142857
 40
30.4
  1
塗装色
 50
0.0
 41
0.9
 51
0.0
  7
KANJI47
  0
TEXT
  8
0
  6
CONTINUOUS
 62
     2
 10
2640.0
 20
1507.4
 30
26.6
 40
30.4
  1
出力　極数
 50
0.0
 41
0.9
 51
0.0
  7
KANJI48
  0
TEXT
  8
0
  6
CONTINUOUS
 62
     2
 10
2640.0
 20
1451.4
 30
44.586377143
 40
30.4
  1
電源電圧
 50
0.0
 41
0.9
 51
0.0
  7
KANJI49
  0
TEXT
  8
0
  6
CONTINUOUS
 62
     2
 10
2640.0
 20
1395.4
 30
80.56
 40
30.4
  1
周波数
 50
0.0
 41
0.9
 51
0.0
  7
KANJI50
  0
TEXT
  8
0
  6
CONTINUOUS
 62
     2
 10
2640.0
 20
1339.4
 30
188.48
 40
30.4
  1
電流
 50
0.0
 41
0.9
 51
0.0
  7
KANJI51
  0
TEXT
  8
0
  6
CONTINUOUS
 62
     2
 10
2640.0
 20
1283.4
 30
80.56
 40
30.4
  1
絶縁級
 50
0.0
 41
0.9
 51
0.0
  7
KANJI50
  0
TEXT
  8
0
  6
CONTINUOUS
 62
     2
 10
2640.0
 20
1171.4
 30
188.48
 40
30.4
  1
形式
 50
0.0
 41
0.9
 51
0.0
  7
KANJI51
  0
TEXT
  8
0
  6
CONTINUOUS
 62
     2
 10
2640.0
 20
1115.4
 30
44.586377143
 40
30.4
  1
操作方式
 50
0.0
 41
0.9
 51
0.0
  7
KANJI49
  0
TEXT
  8
0
  6
CONTINUOUS
 62
     2
 10
2600.0
 20
1059.4
 30
106.617142857
 40
30.4
  1
付属品
 50
0.0
 41
0.9
 51
0.0
  7
KANJI47
  0
TEXT
  8
0
  6
CONTINUOUS
 62
     2
 10
2600.0
 20
1003.4
 30
240.594285714
 40
30.4
  1
台数
 50
0.0
 41
0.9
 51
0.0
  7
KANJI42
  0
TEXT
  8
0
  6
CONTINUOUS
 62
     2
 10
3190.8
 20
1846.6
 30
0.1792
 40
22.4
  1
ｍｍ
 50
0.0
 41
0.8
 51
0.0
  7
KANJI52
  0
TEXT
  8
0
  6
CONTINUOUS
 62
     2
 10
3130.8
 20
1793.0
 30
0.1792
 40
22.4
  1
ｍｍ／ｓｅｃ
 50
0.0
 41
0.8
 51
0.0
  7
KANJI52
  0
LINE
  8
0
  6
CONTINUOUS
 62
     1
 10
2540.0
 20
989.0
 11
3248.0
 21
989.0
  0
LINE
  8
0
  6
CONTINUOUS
 62
     2
 10
2540.0
 20
1045.0
 11
3248.0
 21
1045.0
  0
LINE
  8
0
  6
CONTINUOUS
 62
     2
 10
2540.0
 20
1101.0
 11
3248.0
 21
1101.0
  0
LINE
  8
0
  6
CONTINUOUS
 62
     2
 10
2604.0
 20
1157.0
 11
3248.0
 21
1157.0
  0
LINE
  8
0
  6
CONTINUOUS
 62
     2
 10
2540.0
 20
1213.0
 11
3248.0
 21
1213.0
  0
LINE
  8
0
  6
CONTINUOUS
 62
     2
 10
2604.0
 20
1269.0
 11
3248.0
 21
1269.0
  0
LINE
  8
0
  6
CONTINUOUS
 62
     2
 10
2604.0
 20
1325.0
 11
3248.0
 21
1325.0
  0
LINE
  8
0
  6
CONTINUOUS
 62
     2
 10
2604.0
 20
1381.0
 11
3248.0
 21
1381.0
  0
LINE
  8
0
  6
CONTINUOUS
 62
     2
 10
2604.0
 20
1437.0
 11
3248.0
 21
1437.0
  0
LINE
  8
0
  6
CONTINUOUS
 62
     2
 10
2604.0
 20
1493.0
 11
3248.0
 21
1493.0
  0
LINE
  8
0
  6
CONTINUOUS
 62
     2
 10
2540.0
 20
1549.0
 11
3248.0
 21
1549.0
  0
LINE
  8
0
  6
CONTINUOUS
 62
     2
 10
2540.0
 20
1605.0
 11
3248.0
 21
1605.0
  0
LINE
  8
0
  6
CONTINUOUS
 62
     2
 10
2540.0
 20
1661.0
 11
3248.0
 21
1661.0
  0
LINE
  8
0
  6
CONTINUOUS
 62
     1
 10
2540.0
 20
2077.0
 11
3248.0
 21
2077.0
  0
LINE
  8
0
  6
CONTINUOUS
 62
     2
 10
2540.0
 20
1997.0
 11
3248.0
 21
1997.0
  0
LINE
  8
0
  6
CONTINUOUS
 62
     2
 10
2540.0
 20
1941.0
 11
3248.0
 21
1941.0
  0
LINE
  8
0
  6
CONTINUOUS
 62
     2
 10
2540.0
 20
1885.0
 11
3248.0
 21
1885.0
  0
LINE
  8
0
  6
CONTINUOUS
 62
     2
 10
2540.0
 20
1829.0
 11
3248.0
 21
1829.0
  0
LINE
  8
0
  6
CONTINUOUS
 62
     2
 10
2540.0
 20
1773.0
 11
3248.0
 21
1773.0
  0
LINE
  8
0
  6
CONTINUOUS
 62
     2
 10
2540.0
 20
1717.0
 11
3248.0
 21
1717.0
  0
TEXT
  8
0
  6
CONTINUOUS
 62
     2
 10
2967.8
 20
1787.2
 30
2.4
 40
24.0
  1
２０／２４
 50
0.0
 41
0.9
 51
0.0
  7
KANJI2
  0
TEXT
  8
0
  6
CONTINUOUS
 62
     2
 10
2985.8
 20
1509.2
 30
2.4
 40
24.0
  1
２．２
 50
0.0
 41
0.9
 51
0.0
  7
KANJI2
  0
TEXT
  8
0
  6
CONTINUOUS
 62
     2
 10
3016.8
 20
1452.2
 30
2.4
 40
24.0
  1
　　　　　　／　
 50
0.0
 41
0.9
 51
0.0
  7
KANJI2
  0
TEXT
  8
0
  6
CONTINUOUS
 62
     2
 10
3016.8
 20
1340.2
 30
2.4
 40
24.0
  1
　　　　　　／　　
 50
0.0
 41
0.9
 51
0.0
  7
KANJI2
  0
LINE
  8
1
  6
CONTINUOUS
 62
     2
 10
706.0
 20
1014.0
 11
686.681483474
 21
1019.176380902
  0
LINE
  8
1
  6
CONTINUOUS
 62
     2
 10
706.0
 20
1014.0
 11
686.681483474
 21
1008.823619098
  0
LINE
  8
1
  6
CONTINUOUS
 62
     2
 10
706.0
 20
1014.0
 11
636.0
 21
1014.0
  0
LINE
  8
1
  6
CONTINUOUS
 62
     2
 10
636.0
 20
1014.0
 11
655.318516526
 21
1008.823619098
  0
LINE
  8
1
  6
CONTINUOUS
 62
     2
 10
636.0
 20
1014.0
 11
655.318516526
 21
1019.176380902
  0
LINE
  8
1
  6
CONTINUOUS
 62
     2
 10
636.0
 20
1181.0
 11
636.0
 21
998.0
  0
LINE
  8
1
  6
CONTINUOUS
 62
     2
 10
636.0
 20
1014.0
 11
616.681483474
 21
1019.176380902
  0
LINE
  8
1
  6
CONTINUOUS
 62
     2
 10
636.0
 20
1014.0
 11
616.681483474
 21
1008.823619098
  0
LINE
  8
1
  6
CONTINUOUS
 62
     2
 10
636.0
 20
1014.0
 11
481.0
 21
1014.0
  0
LINE
  8
1
  6
CONTINUOUS
 62
     2
 10
481.0
 20
1014.0
 11
500.318516526
 21
1008.823619098
  0
LINE
  8
1
  6
CONTINUOUS
 62
     2
 10
481.0
 20
1014.0
 11
500.318516526
 21
1019.176380902
  0
LINE
  8
1
  6
CONTINUOUS
 62
     2
 10
481.0
 20
1181.0
 11
481.0
 21
998.0
  0
LINE
  8
0
  6
CONTINUOUS
 62
     1
 10
636.0
 20
1189.0
 11
481.0
 21
1189.0
  0
LINE
  8
0
  6
CONTINUOUS
 62
     1
 10
481.0
 20
1439.8
 11
478.0
 21
1439.8
  0
LINE
  8
0
  6
CONTINUOUS
 62
     1
 10
478.0
 20
1439.8
 11
478.0
 21
1418.2
  0
LINE
  8
0
  6
CONTINUOUS
 62
     1
 10
478.0
 20
1418.2
 11
481.0
 21
1418.2
  0
LINE
  8
0
  6
CONTINUOUS
 62
     1
 10
481.0
 20
1418.2
 11
481.0
 21
1439.8
  0
LINE
  8
0
  6
CONTINUOUS
 62
     1
 10
478.0
 20
1420.0
 11
478.0
 21
1438.0
  0
LINE
  8
0
  6
CONTINUOUS
 62
     1
 10
470.5
 20
1420.0
 11
470.5
 21
1438.0
  0
LINE
  8
0
  6
LTYPE2
 62
     2
 10
485.0
 20
1429.0
 11
466.5
 21
1429.0
  0
LINE
  8
0
  6
CONTINUOUS
 62
     1
 10
470.5
 20
1438.0
 11
478.0
 21
1438.0
  0
LINE
  8
0
  6
CONTINUOUS
 62
     1
 10
470.5
 20
1420.0
 11
478.0
 21
1420.0
  0
LINE
  8
0
  6
CONTINUOUS
 62
     1
 10
478.0
 20
1429.0
 11
471.5
 21
1429.0
  0
ARC
  8
0
  6
CONTINUOUS
 62
     1
 10
481.1
 20
1424.5
 40
10.6
 50
154.9
 51
205.1
  0
ARC
  8
0
  6
CONTINUOUS
 62
     1
 10
481.1
 20
1433.5
 40
10.6
 50
154.9
 51
205.1
  0
LINE
  8
0
  6
CONTINUOUS
 62
     1
 10
478.0
 20
1429.0
 11
481.0
 21
1430.732050808
  0
LINE
  8
0
  6
CONTINUOUS
 62
     1
 10
481.0
 20
1429.0
 11
478.0
 21
1427.267949192
  0
LINE
  8
0
  6
CONTINUOUS
 62
     1
 10
481.0
 20
1229.8
 11
478.0
 21
1229.8
  0
LINE
  8
0
  6
CONTINUOUS
 62
     1
 10
478.0
 20
1229.8
 11
478.0
 21
1208.2
  0
LINE
  8
0
  6
CONTINUOUS
 62
     1
 10
478.0
 20
1208.2
 11
481.0
 21
1208.2
  0
LINE
  8
0
  6
CONTINUOUS
 62
     1
 10
481.0
 20
1208.2
 11
481.0
 21
1229.8
  0
LINE
  8
0
  6
CONTINUOUS
 62
     1
 10
478.0
 20
1210.0
 11
478.0
 21
1228.0
  0
LINE
  8
0
  6
CONTINUOUS
 62
     1
 10
470.5
 20
1210.0
 11
470.5
 21
1228.0
  0
LINE
  8
0
  6
LTYPE2
 62
     2
 10
485.0
 20
1219.0
 11
466.5
 21
1219.0
  0
LINE
  8
0
  6
CONTINUOUS
 62
     1
 10
470.5
 20
1228.0
 11
478.0
 21
1228.0
  0
LINE
  8
0
  6
CONTINUOUS
 62
     1
 10
470.5
 20
1210.0
 11
478.0
 21
1210.0
  0
LINE
  8
0
  6
CONTINUOUS
 62
     1
 10
478.0
 20
1219.0
 11
471.5
 21
1219.0
  0
ARC
  8
0
  6
CONTINUOUS
 62
     1
 10
481.1
 20
1214.5
 40
10.6
 50
154.9
 51
205.1
  0
ARC
  8
0
  6
CONTINUOUS
 62
     1
 10
481.1
 20
1223.5
 40
10.6
 50
154.9
 51
205.1
  0
LINE
  8
0
  6
CONTINUOUS
 62
     1
 10
478.0
 20
1219.0
 11
481.0
 21
1220.732050808
  0
LINE
  8
0
  6
CONTINUOUS
 62
     1
 10
481.0
 20
1219.0
 11
478.0
 21
1217.267949192
  0
LINE
  8
1
  6
CONTINUOUS
 62
     2
 10
706.0
 20
1006.0
 11
706.0
 21
931.0
  0
LINE
  8
1
  6
CONTINUOUS
 62
     2
 10
706.0
 20
947.0
 11
686.681483474
 21
952.176380902
  0
LINE
  8
1
  6
CONTINUOUS
 62
     2
 10
706.0
 20
947.0
 11
686.681483474
 21
941.823619098
  0
LINE
  8
1
  6
CONTINUOUS
 62
     2
 10
706.0
 20
947.0
 11
481.0
 21
947.0
  0
LINE
  8
1
  6
CONTINUOUS
 62
     2
 10
481.0
 20
947.0
 11
500.318516526
 21
941.823619098
  0
LINE
  8
1
  6
CONTINUOUS
 62
     2
 10
481.0
 20
947.0
 11
500.318516526
 21
952.176380902
  0
LINE
  8
1
  6
CONTINUOUS
 62
     2
 10
481.0
 20
1006.0
 11
481.0
 21
931.0
  0
TEXT
  8
1
  6
CONTINUOUS
 62
     2
 10
517.7
 20
1022.0
 30
2.4
 40
28.0
  1
１５５
 50
0.0
 41
0.914285714
 51
0.0
  7
KANJI53
  0
TEXT
  8
1
  6
CONTINUOUS
 62
     2
 10
644.2
 20
1022.0
 30
2.4
 40
28.0
  1
７０
 50
0.0
 41
0.914285714
 51
0.0
  7
KANJI53
  0
TEXT
  8
1
  6
CONTINUOUS
 62
     2
 10
552.7
 20
955.0
 30
2.4
 40
28.0
  1
２２５
 50
0.0
 41
0.914285714
 51
0.0
  7
KANJI53
  0
LINE
  8
0
  6
CONTINUOUS
 62
     1
 10
2096.49
 20
2196.5948
 11
2096.49
 21
1988.6
  0
LINE
  8
0
  6
CONTINUOUS
 62
     2
 10
1976.493
 20
2196.5948
 11
1976.493
 21
1988.6
  0
LINE
  8
0
  6
CONTINUOUS
 62
     2
 10
1856.496
 20
2196.5948
 11
1856.496
 21
1988.6
  0
LINE
  8
0
  6
CONTINUOUS
 62
     1
 10
1696.5
 20
2196.5948
 11
1696.5
 21
1988.6
  0
LINE
  8
0
  6
CONTINUOUS
 62
     1
 10
1696.5
 20
2196.5948
 11
2096.49
 21
2196.5948
  0
LINE
  8
0
  6
CONTINUOUS
 62
     1
 10
1696.5
 20
2132.5964
 11
2096.49
 21
2132.5964
  0
LINE
  8
0
  6
CONTINUOUS
 62
     2
 10
1696.5
 20
2084.5976
 11
2096.49
 21
2084.5976
  0
LINE
  8
0
  6
CONTINUOUS
 62
     2
 10
1696.5
 20
2036.5988
 11
2096.49
 21
2036.5988
  0
LINE
  8
0
  6
CONTINUOUS
 62
     1
 10
1696.5
 20
1988.6
 11
2096.49
 21
1988.6
  0
TEXT
  8
0
  6
CONTINUOUS
 62
     2
 10
1992.4926
 20
2168.5955
 30
2.39994
 40
23.9994
  1
起動電流
 50
0.0
 41
0.9
 51
0.0
  7
KANJI54
  0
TEXT
  8
0
  6
CONTINUOUS
 62
     2
 10
1992.4926
 20
2140.5962
 30
2.39994
 40
23.9994
  1
　　　Ａ
 50
0.0
 41
0.9
 51
0.0
  7
KANJI54
  0
TEXT
  8
0
  6
CONTINUOUS
 62
     2
 10
1872.4956
 20
2168.5955
 30
2.39994
 40
23.9994
  1
定格電流
 50
0.0
 41
0.9
 51
0.0
  7
KANJI54
  0
TEXT
  8
0
  6
CONTINUOUS
 62
     2
 10
1872.4956
 20
2140.5962
 30
2.39994
 40
23.9994
  1
　　　Ａ
 50
0.0
 41
0.9
 51
0.0
  7
KANJI54
  0
TEXT
  8
0
  6
CONTINUOUS
 62
     2
 10
1710.09966
 20
2168.5955
 30
2.39994
 40
23.9994
  1
電圧／周波数
 50
0.0
 41
0.9
 51
0.0
  7
KANJI54
  0
TEXT
  8
0
  6
CONTINUOUS
 62
     2
 10
1710.09966
 20
2140.5962
 30
2.39994
 40
23.9994
  1
　Ｖ／Ｈｚ
 50
0.0
 41
0.9
 51
0.0
  7
KANJI54
  0
TEXT
  8
0
  6
CONTINUOUS
 62
     2
 10
1710.09966
 20
2096.5973
 30
2.39994
 40
23.9994
  1
４００／５０
 50
0.0
 41
0.9
 51
0.0
  7
KANJI54
  0
TEXT
  8
0
  6
CONTINUOUS
 62
     2
 10
1710.09966
 20
2048.5985
 30
2.39994
 40
23.9994
  1
４００／６０
 50
0.0
 41
0.9
 51
0.0
  7
KANJI54
  0
TEXT
  8
0
  6
CONTINUOUS
 62
     2
 10
1710.09966
 20
2000.5997
 30
2.39994
 40
23.9994
  1
４４０／６０
 50
0.0
 41
0.9
 51
0.0
  7
KANJI54
  0
LINE
  8
0
  6
CONTINUOUS
 62
     1
 10
1616.5
 20
2196.5948
 11
1616.5
 21
1988.6
  0
LINE
  8
0
  6
CONTINUOUS
 62
     2
 10
1496.503
 20
2196.5948
 11
1496.503
 21
1988.6
  0
LINE
  8
0
  6
CONTINUOUS
 62
     2
 10
1376.506
 20
2196.5948
 11
1376.506
 21
1988.6
  0
LINE
  8
0
  6
CONTINUOUS
 62
     1
 10
1216.51
 20
2196.5948
 11
1216.51
 21
1988.6
  0
LINE
  8
0
  6
CONTINUOUS
 62
     1
 10
1216.51
 20
2196.5948
 11
1616.5
 21
2196.5948
  0
LINE
  8
0
  6
CONTINUOUS
 62
     1
 10
1216.51
 20
2132.5964
 11
1616.5
 21
2132.5964
  0
LINE
  8
0
  6
CONTINUOUS
 62
     2
 10
1216.51
 20
2084.5976
 11
1616.5
 21
2084.5976
  0
LINE
  8
0
  6
CONTINUOUS
 62
     2
 10
1216.51
 20
2036.5988
 11
1616.5
 21
2036.5988
  0
LINE
  8
0
  6
CONTINUOUS
 62
     1
 10
1216.51
 20
1988.6
 11
1616.5
 21
1988.6
  0
TEXT
  8
0
  6
CONTINUOUS
 62
     2
 10
1512.5026
 20
2168.5955
 30
2.39994
 40
23.9994
  1
起動電流
 50
0.0
 41
0.9
 51
0.0
  7
KANJI54
  0
TEXT
  8
0
  6
CONTINUOUS
 62
     2
 10
1512.5026
 20
2140.5962
 30
2.39994
 40
23.9994
  1
　　　Ａ
 50
0.0
 41
0.9
 51
0.0
  7
KANJI54
  0
TEXT
  8
0
  6
CONTINUOUS
 62
     2
 10
1392.5056
 20
2168.5955
 30
2.39994
 40
23.9994
  1
定格電流
 50
0.0
 41
0.9
 51
0.0
  7
KANJI54
  0
TEXT
  8
0
  6
CONTINUOUS
 62
     2
 10
1392.5056
 20
2140.5962
 30
2.39994
 40
23.9994
  1
　　　Ａ
 50
0.0
 41
0.9
 51
0.0
  7
KANJI54
  0
TEXT
  8
0
  6
CONTINUOUS
 62
     2
 10
1230.10966
 20
2048.5985
 30
2.39994
 40
23.9994
  1
２００／６０
 50
0.0
 41
0.9
 51
0.0
  7
KANJI54
  0
TEXT
  8
0
  6
CONTINUOUS
 62
     2
 10
1230.10966
 20
2168.5955
 30
2.39994
 40
23.9994
  1
電圧／周波数
 50
0.0
 41
0.9
 51
0.0
  7
KANJI54
  0
TEXT
  8
0
  6
CONTINUOUS
 62
     2
 10
1230.10966
 20
2140.5962
 30
2.39994
 40
23.9994
  1
　Ｖ／Ｈｚ
 50
0.0
 41
0.9
 51
0.0
  7
KANJI54
  0
TEXT
  8
0
  6
CONTINUOUS
 62
     2
 10
1230.10966
 20
2096.5973
 30
2.39994
 40
23.9994
  1
２００／５０
 50
0.0
 41
0.9
 51
0.0
  7
KANJI54
  0
TEXT
  8
0
  6
CONTINUOUS
 62
     2
 10
1230.10966
 20
2000.5997
 30
2.39994
 40
23.9994
  1
２２０／６０
 50
0.0
 41
0.9
 51
0.0
  7
KANJI54
  0
TEXT
  8
0
  6
CONTINUOUS
 62
     2
 10
1319.097220468
 20
1942.934483
 30
2.79993
 40
27.9993
  1
注意：サーマルリレー等の選定は、上記の値を参照下さい。
 50
0.0
 41
0.9
 51
0.0
  7
KANJI55
  0
LINE
  8
0
  6
CONTINUOUS
 62
     2
 10
1303.097620468
 20
1934.934683
 11
2055.078820468
 21
1934.934683
  0
TEXT
  8
0
  6
CONTINUOUS
 62
     2
 10
1392.5056
 20
2096.5973
 30
2.39994
 40
23.9994
  1
　　９．４
 50
0.0
 41
0.9
 51
0.0
  7
KANJI54
  0
TEXT
  8
0
  6
CONTINUOUS
 62
     2
 10
1392.5056
 20
2048.5985
 30
2.39994
 40
23.9994
  1
　　８．８
 50
0.0
 41
0.9
 51
0.0
  7
KANJI54
  0
TEXT
  8
0
  6
CONTINUOUS
 62
     2
 10
1392.5056
 20
2000.5997
 30
2.39994
 40
23.9994
  1
　　８．３
 50
0.0
 41
0.9
 51
0.0
  7
KANJI54
  0
TEXT
  8
0
  6
CONTINUOUS
 62
     2
 10
1512.5026
 20
2096.5973
 30
2.39994
 40
23.9994
  1
６０．４
 50
0.0
 41
0.9
 51
0.0
  7
KANJI54
  0
TEXT
  8
0
  6
CONTINUOUS
 62
     2
 10
1511.635999532
 20
2044.931917
 30
2.39994
 40
23.9994
  1
５２．４
 50
0.0
 41
0.9
 51
0.0
  7
KANJI54
  0
TEXT
  8
0
  6
CONTINUOUS
 62
     2
 10
1513.635949532
 20
1999.599717
 30
2.39994
 40
23.9994
  1
５７．６
 50
0.0
 41
0.9
 51
0.0
  7
KANJI54
  0
TEXT
  8
0
  6
CONTINUOUS
 62
     2
 10
1872.4956
 20
2096.5973
 30
2.39994
 40
23.9994
  1
　　４．７
 50
0.0
 41
0.9
 51
0.0
  7
KANJI54
  0
TEXT
  8
0
  6
CONTINUOUS
 62
     2
 10
1872.4956
 20
2048.5985
 30
2.39994
 40
23.9994
  1
　　４．４
 50
0.0
 41
0.9
 51
0.0
  7
KANJI54
  0
TEXT
  8
0
  6
CONTINUOUS
 62
     2
 10
1872.4956
 20
2000.5997
 30
2.39994
 40
23.9994
  1
　　４．２
 50
0.0
 41
0.9
 51
0.0
  7
KANJI54
  0
TEXT
  8
0
  6
CONTINUOUS
 62
     2
 10
1992.4926
 20
2096.5973
 30
2.39994
 40
23.9994
  1
３０．２
 50
0.0
 41
0.9
 51
0.0
  7
KANJI54
  0
TEXT
  8
0
  6
CONTINUOUS
 62
     2
 10
1992.4926
 20
2048.5985
 30
2.39994
 40
23.9994
  1
２６．２
 50
0.0
 41
0.9
 51
0.0
  7
KANJI54
  0
TEXT
  8
0
  6
CONTINUOUS
 62
     2
 10
1992.4926
 20
2000.5997
 30
2.39994
 40
23.9994
  1
２８．８
 50
0.0
 41
0.9
 51
0.0
  7
KANJI54
  0
CIRCLE
  8
0
  6
CONTINUOUS
 62
     1
 10
2644.5
 20
296.9
 40
23.0
  0
TEXT
  8
0
  6
CONTINUOUS
 62
     2
 10
2633.8
 20
283.4
 30
0.0
 40
28.0
  1
Ｓ
 50
0.0
 41
0.793650794
 51
0.0
  7
KANJI56
  0
TEXT
  8
0
  6
CONTINUOUS
 62
     2
 10
2263.0
 20
229.0
 30
2.4
 40
24.0
  1
佐竹
 50
0.0
 41
0.9
 51
0.0
  7
KANJI2
  0
TEXT
  8
0
  6
CONTINUOUS
 62
     2
 10
1117.7
 20
621.0
 30
2.4
 40
24.0
  1
１１０５
 50
0.0
 41
0.9
 51
0.0
  7
KANJI2
  0
TEXT
  8
0
  6
CONTINUOUS
 62
     2
 10
1770.0
 20
624.0
 30
2.4
 40
24.0
  1
２０１
 50
0.0
 41
0.9
 51
0.0
  7
KANJI2
  0
TEXT
  8
0
  6
CONTINUOUS
 62
     2
 10
2251.0
 20
169.0
 30
2.4
 40
24.0
  1
００．３．２２
 50
0.0
 41
0.9
 51
0.0
  7
KANJI2
  0
LINE
  8
0
  6
LTYPE3
 62
     2
 10
636.0
 20
1324.0
 11
481.0
 21
1324.0
  0
CIRCLE
  8
0
  6
CONTINUOUS
 62
     1
 10
706.0
 20
1324.041
 40
22.5
  0
CIRCLE
  8
0
  6
CONTINUOUS
 62
     1
 10
706.0
 20
1324.041
 40
45.0
  0
CIRCLE
  8
0
  6
CONTINUOUS
 62
     1
 10
706.0
 20
1324.041
 40
55.0
  0
LINE
  8
0
  6
CONTINUOUS
 62
     1
 10
671.0
 20
1424.041
 11
694.0
 21
1405.541
  0
LINE
  8
0
  6
CONTINUOUS
 62
     1
 10
671.0
 20
1370.541
 11
671.0
 21
1424.041
  0
LINE
  8
0
  6
CONTINUOUS
 62
     1
 10
694.0
 20
1380.541
 11
694.0
 21
1405.541
  0
LINE
  8
0
  6
CONTINUOUS
 62
     1
 10
636.0
 20
1224.041
 11
671.0
 21
1224.041
  0
LINE
  8
0
  6
CONTINUOUS
 62
     1
 10
671.0
 20
1224.041
 11
694.0
 21
1242.541
  0
LINE
  8
0
  6
CONTINUOUS
 62
     1
 10
671.0
 20
1277.541
 11
671.0
 21
1224.041
  0
LINE
  8
0
  6
CONTINUOUS
 62
     1
 10
694.0
 20
1267.541
 11
694.0
 21
1242.541
  0
LINE
  8
0
  6
CONTINUOUS
 62
     1
 10
896.0
 20
1224.041
 11
866.0
 21
1242.541
  0
LINE
  8
0
  6
CONTINUOUS
 62
     1
 10
694.0
 20
1242.541
 11
866.0
 21
1242.541
  0
LINE
  8
0
  6
CONTINUOUS
 62
     1
 10
896.0
 20
1224.041
 11
936.0
 21
1224.041
  0
LINE
  8
0
  6
CONTINUOUS
 62
     1
 10
866.0
 20
1324.041
 11
866.0
 21
1242.541
  0
LINE
  8
0
  6
LTYPE3
 62
     2
 10
706.0
 20
1254.439877817
 11
706.0
 21
1391.407558854
  0
LINE
  8
0
  6
CONTINUOUS
 62
     1
 10
973.0
 20
1324.041
 11
973.0
 21
1424.041
  0
LINE
  8
0
  6
CONTINUOUS
 62
     1
 10
950.0
 20
1324.041
 11
950.0
 21
1424.041
  0
LINE
  8
0
  6
CONTINUOUS
 62
     1
 10
976.0
 20
1411.541
 11
976.0
 21
1422.49054
  0
LINE
  8
0
  6
CONTINUOUS
 62
     1
 10
976.0
 20
1411.541
 11
976.0
 21
1400.59146
  0
LINE
  8
0
  6
CONTINUOUS
 62
     1
 10
973.0
 20
1422.291
 11
976.0
 21
1422.291
  0
LINE
  8
0
  6
CONTINUOUS
 62
     1
 10
973.0
 20
1411.541
 11
976.000254073
 21
1414.541254073
  0
LINE
  8
0
  6
CONTINUOUS
 62
     1
 10
976.000254073
 20
1411.541
 11
973.0
 21
1408.540745927
  0
LINE
  8
0
  6
CONTINUOUS
 62
     1
 10
973.0
 20
1400.791
 11
976.0
 21
1400.791
  0
LINE
  8
0
  6
CONTINUOUS
 62
     1
 10
976.0
 20
1422.291
 11
987.3
 21
1422.291
  0
LINE
  8
0
  6
CONTINUOUS
 62
     1
 10
987.3
 20
1411.541
 11
987.3
 21
1422.291
  0
LINE
  8
0
  6
CONTINUOUS
 62
     1
 10
987.3
 20
1422.291
 11
988.0
 21
1421.078564435
  0
LINE
  8
0
  6
CONTINUOUS
 62
     1
 10
988.0
 20
1411.541
 11
988.0
 21
1421.078564435
  0
LINE
  8
0
  6
CONTINUOUS
 62
     1
 10
976.0
 20
1400.791
 11
987.3
 21
1400.791
  0
LINE
  8
0
  6
CONTINUOUS
 62
     1
 10
987.3
 20
1411.541
 11
987.3
 21
1400.791
  0
LINE
  8
0
  6
CONTINUOUS
 62
     1
 10
987.3
 20
1400.791
 11
988.0
 21
1402.003435565
  0
LINE
  8
0
  6
CONTINUOUS
 62
     1
 10
988.0
 20
1411.541
 11
988.0
 21
1402.003435565
  0
LINE
  8
0
  6
LTYPE3
 62
     2
 10
936.0
 20
1411.541
 11
999.7
 21
1411.541
  0
LINE
  8
0
  6
CONTINUOUS
 62
     1
 10
973.0
 20
1324.041
 11
973.0
 21
1224.041
  0
LINE
  8
0
  6
CONTINUOUS
 62
     1
 10
950.0
 20
1324.041
 11
950.0
 21
1224.041
  0
LINE
  8
0
  6
CONTINUOUS
 62
     1
 10
936.0
 20
1224.041
 11
973.0
 21
1224.041
  0
LINE
  8
0
  6
CONTINUOUS
 62
     1
 10
936.0
 20
1324.041
 11
936.0
 21
1224.041
  0
LINE
  8
0
  6
CONTINUOUS
 62
     1
 10
976.0
 20
1236.541
 11
976.0
 21
1225.59146
  0
LINE
  8
0
  6
CONTINUOUS
 62
     1
 10
976.0
 20
1236.541
 11
976.0
 21
1247.49054
  0
LINE
  8
0
  6
CONTINUOUS
 62
     1
 10
973.0
 20
1225.791
 11
976.0
 21
1225.791
  0
LINE
  8
0
  6
CONTINUOUS
 62
     1
 10
973.0
 20
1236.541
 11
976.000254073
 21
1233.540745927
  0
LINE
  8
0
  6
CONTINUOUS
 62
     1
 10
976.000254073
 20
1236.541
 11
973.0
 21
1239.541254073
  0
LINE
  8
0
  6
CONTINUOUS
 62
     1
 10
973.0
 20
1247.291
 11
976.0
 21
1247.291
  0
LINE
  8
0
  6
CONTINUOUS
 62
     1
 10
976.0
 20
1225.791
 11
987.3
 21
1225.791
  0
LINE
  8
0
  6
CONTINUOUS
 62
     1
 10
987.3
 20
1236.541
 11
987.3
 21
1225.791
  0
LINE
  8
0
  6
CONTINUOUS
 62
     1
 10
987.3
 20
1225.791
 11
988.0
 21
1227.003435565
  0
LINE
  8
0
  6
CONTINUOUS
 62
     1
 10
988.0
 20
1236.541
 11
988.0
 21
1227.003435565
  0
LINE
  8
0
  6
CONTINUOUS
 62
     1
 10
976.0
 20
1247.291
 11
987.3
 21
1247.291
  0
LINE
  8
0
  6
CONTINUOUS
 62
     1
 10
987.3
 20
1236.541
 11
987.3
 21
1247.291
  0
LINE
  8
0
  6
CONTINUOUS
 62
     1
 10
987.3
 20
1247.291
 11
988.0
 21
1246.078564435
  0
LINE
  8
0
  6
CONTINUOUS
 62
     1
 10
988.0
 20
1236.541
 11
988.0
 21
1246.078564435
  0
LINE
  8
0
  6
LTYPE3
 62
     2
 10
936.0
 20
1236.541
 11
999.7
 21
1236.541
  0
CIRCLE
  8
0
  6
CONTINUOUS
 62
     1
 10
1174.3
 20
1324.041
 40
19.5
  0
LINE
  8
0
  6
CONTINUOUS
 62
     1
 10
1154.3
 20
1344.041
 11
1194.3
 21
1344.041
  0
LINE
  8
0
  6
CONTINUOUS
 62
     1
 10
1194.3
 20
1304.041
 11
1194.3
 21
1344.041
  0
LINE
  8
0
  6
CONTINUOUS
 62
     1
 10
1154.3
 20
1304.041
 11
1194.3
 21
1304.041
  0
LINE
  8
0
  6
CONTINUOUS
 62
     1
 10
1154.3
 20
1304.041
 11
1154.3
 21
1344.041
  0
LINE
  8
0
  6
LTYPE2
 62
     2
 10
1174.3
 20
1298.941
 11
1174.3
 21
1348.841
  0
LINE
  8
6
  6
CONTINUOUS
 62
     2
 10
706.0
 20
1242.439877817
 11
706.0
 21
1050.041
  0
LINE
  8
6
  6
CONTINUOUS
 62
     2
 10
1121.0
 20
1254.041
 11
1126.176380902
 21
1273.359516526
  0
LINE
  8
6
  6
CONTINUOUS
 62
     2
 10
1121.0
 20
1254.041
 11
1115.823619098
 21
1273.359516526
  0
LINE
  8
6
  6
CONTINUOUS
 62
     2
 10
1121.0
 20
1254.041
 11
1121.0
 21
1394.041
  0
LINE
  8
6
  6
CONTINUOUS
 62
     2
 10
1121.0
 20
1394.041
 11
1115.823619098
 21
1374.722483474
  0
LINE
  8
6
  6
CONTINUOUS
 62
     2
 10
1121.0
 20
1394.041
 11
1126.176380902
 21
1374.722483474
  0
TEXT
  8
6
  6
CONTINUOUS
 62
     2
 10
1113.0
 20
1277.241
 30
2.4
 40
24.0
  1
φ１４０
 50
90.0
 41
0.9
 51
0.0
  7
KANJI57
  0
LINE
  8
0
  6
CONTINUOUS
 62
     1
 10
1524.0
 20
1371.541
 11
1664.000190206
 21
1371.541
  0
LINE
  8
0
  6
CONTINUOUS
 62
     1
 10
1664.000190206
 20
1371.541
 11
1674.000190206
 21
1361.541
  0
LINE
  8
0
  6
CONTINUOUS
 62
     1
 10
1674.000190206
 20
1286.541
 11
1674.000190206
 21
1361.541
  0
LINE
  8
0
  6
CONTINUOUS
 62
     1
 10
1664.000190206
 20
1276.541
 11
1674.000190206
 21
1286.541
  0
CIRCLE
  8
0
  6
CONTINUOUS
 62
     1
 10
1624.000190206
 20
1324.041
 40
22.5
  0
LINE
  8
0
  6
CONTINUOUS
 62
     1
 10
1664.000190206
 20
1371.541
 11
1664.000190206
 21
1364.429736054
  0
LINE
  8
0
  6
CONTINUOUS
 62
     1
 10
1664.000190206
 20
1364.429736054
 11
1674.000190206
 21
1351.788752752
  0
LINE
  8
0
  6
CONTINUOUS
 62
     1
 10
1664.000190206
 20
1364.429736054
 11
1534.0
 21
1364.429736054
  0
LINE
  8
0
  6
CONTINUOUS
 62
     1
 10
1664.000190206
 20
1276.541
 11
1664.000190206
 21
1283.652263946
  0
LINE
  8
0
  6
CONTINUOUS
 62
     1
 10
1664.000190206
 20
1283.652263946
 11
1674.000190206
 21
1296.293247248
  0
LINE
  8
0
  6
CONTINUOUS
 62
     1
 10
1664.000190206
 20
1283.652263946
 11
1534.0
 21
1283.652263946
  0
LINE
  8
0
  6
CONTINUOUS
 62
     1
 10
1534.0
 20
1364.429736054
 11
1534.0
 21
1283.652263946
  0
LINE
  8
6
  6
CONTINUOUS
 62
     2
 10
1268.0
 20
1416.541
 11
1262.823619098
 21
1397.222483474
  0
LINE
  8
6
  6
CONTINUOUS
 62
     2
 10
1268.0
 20
1416.541
 11
1273.176380902
 21
1397.222483474
  0
LINE
  8
6
  6
CONTINUOUS
 62
     2
 10
1268.0
 20
1416.541
 11
1268.0
 21
1231.541
  0
LINE
  8
6
  6
CONTINUOUS
 62
     2
 10
1268.0
 20
1231.541
 11
1273.176380902
 21
1250.859516526
  0
LINE
  8
6
  6
CONTINUOUS
 62
     2
 10
1268.0
 20
1231.541
 11
1262.823619098
 21
1250.859516526
  0
TEXT
  8
6
  6
CONTINUOUS
 62
     2
 10
1260.0
 20
1277.241
 30
2.4
 40
24.0
  1
φ１８５
 50
90.0
 41
0.9
 51
0.0
  7
KANJI57
  0
POINT
  8
0
  6
CONTINUOUS
 62
     1
 10
762.0
 20
1324.041
  0
LINE
  8
0
  6
CONTINUOUS
 62
     1
 10
819.0
 20
1453.985375069
 11
809.0
 21
1443.985375069
  0
LINE
  8
0
  6
CONTINUOUS
 62
     1
 10
809.0
 20
1385.346778818
 11
809.0
 21
1443.985375069
  0
LINE
  8
0
  6
CONTINUOUS
 62
     1
 10
819.0
 20
1375.346778818
 11
809.0
 21
1385.346778818
  0
ARC
  8
0
  6
CONTINUOUS
 62
     1
 10
807.0
 20
1454.507558854
 40
3.0
 50
90.0
 51
180.0
  0
ARC
  8
0
  6
CONTINUOUS
 62
     1
 10
807.0
 20
1373.67744216
 40
3.0
 50
180.0
 51
270.0
  0
ARC
  8
0
  6
CONTINUOUS
 62
     1
 10
807.0
 20
1370.235983542
 40
3.0
 50
180.0
 51
270.0
  0
ARC
  8
0
  6
CONTINUOUS
 62
     1
 10
807.0
 20
1369.375618887
 40
3.0
 50
180.0
 51
270.0
  0
LINE
  8
0
  6
CONTINUOUS
 62
     1
 10
927.0
 20
1385.346778818
 11
927.0
 21
1443.985375069
  0
LINE
  8
0
  6
CONTINUOUS
 62
     1
 10
932.0
 20
1342.698620342
 11
932.0
 21
1454.507558854
  0
ARC
  8
0
  6
CONTINUOUS
 62
     1
 10
929.0
 20
1454.507558854
 40
3.0
 50
0.0
 51
90.0
  0
LINE
  8
0
  6
CONTINUOUS
 62
     1
 10
927.0
 20
1443.985375069
 11
917.0
 21
1453.985375069
  0
LINE
  8
0
  6
CONTINUOUS
 62
     1
 10
819.0
 20
1453.985375069
 11
917.0
 21
1453.985375069
  0
LINE
  8
0
  6
CONTINUOUS
 62
     1
 10
927.0
 20
1385.346778818
 11
917.0
 21
1375.346778818
  0
LINE
  8
0
  6
CONTINUOUS
 62
     1
 10
819.0
 20
1375.346778818
 11
917.0
 21
1375.346778818
  0
LINE
  8
0
  6
CONTINUOUS
 62
     1
 10
807.0
 20
1457.507558854
 11
929.0
 21
1457.507558854
  0
ARC
  8
0
  6
CONTINUOUS
 62
     1
 10
929.0
 20
1373.67744216
 40
3.0
 50
270.0
 51
0.0
  0
ARC
  8
0
  6
CONTINUOUS
 62
     1
 10
929.0
 20
1370.235983542
 40
3.0
 50
270.0
 51
0.0
  0
ARC
  8
0
  6
CONTINUOUS
 62
     1
 10
929.0
 20
1369.375618887
 40
3.0
 50
270.0
 51
0.0
  0
LINE
  8
0
  6
CONTINUOUS
 62
     1
 10
806.507319827
 20
1370.67744216
 11
929.0
 21
1370.67744216
  0
LINE
  8
0
  6
CONTINUOUS
 62
     1
 10
806.607319827
 20
1367.235983542
 11
929.0
 21
1367.235983542
  0
LINE
  8
0
  6
CONTINUOUS
 62
     1
 10
806.607319827
 20
1366.375618887
 11
929.0
 21
1366.375618887
  0
LINE
  8
0
  6
CONTINUOUS
 62
     1
 10
937.0
 20
1369.307636349
 11
937.0
 21
1426.17371812
  0
LINE
  8
0
  6
CONTINUOUS
 62
     1
 10
932.0
 20
1369.307636349
 11
937.0
 21
1369.307636349
  0
LINE
  8
0
  6
CONTINUOUS
 62
     1
 10
932.0
 20
1426.17371812
 11
937.0
 21
1426.17371812
  0
LINE
  8
0
  6
CONTINUOUS
 62
     1
 10
932.0
 20
1393.407636349
 11
937.0
 21
1393.407636349
  0
LINE
  8
0
  6
CONTINUOUS
 62
     1
 10
894.0
 20
1342.698620342
 11
932.0
 21
1342.698620342
  0
LINE
  8
0
  6
CONTINUOUS
 62
     1
 10
937.0
 20
1413.889877817
 11
937.0
 21
1386.189877817
  0
LINE
  8
0
  6
LTYPE3
 62
     2
 10
910.737645868
 20
1400.039877817
 11
990.0
 21
1400.039877817
  0
LINE
  8
0
  6
CONTINUOUS
 62
     1
 10
804.0
 20
1324.041
 11
804.0
 21
1454.041
  0
LINE
  8
0
  6
CONTINUOUS
 62
     1
 10
694.0
 20
1405.541
 11
804.0
 21
1405.541
  0
LINE
  8
0
  6
CONTINUOUS
 62
     1
 10
804.0
 20
1341.998620342
 11
894.0
 21
1341.998620342
  0
LINE
  8
0
  6
CONTINUOUS
 62
     1
 10
896.0
 20
1342.698620342
 11
896.0
 21
1224.041
  0
LINE
  8
0
  6
CONTINUOUS
 62
     1
 10
936.0
 20
1369.307636349
 11
936.0
 21
1224.041
  0
LINE
  8
0
  6
CONTINUOUS
 62
     1
 10
937.0
 20
1424.041
 11
973.0
 21
1424.041
  0
LINE
  8
0
  6
CONTINUOUS
 62
     1
 10
1523.999190206
 20
1315.541
 11
1523.999190206
 21
1324.041
  0
LINE
  8
0
  6
CONTINUOUS
 62
     1
 10
973.0
 20
1394.041
 11
1303.149691586
 21
1394.041
  0
LINE
  8
0
  6
CONTINUOUS
 62
     1
 10
973.0
 20
1254.041
 11
1304.149691586
 21
1254.041
  0
LINE
  8
0
  6
CONTINUOUS
 62
     1
 10
636.0
 20
1424.041
 11
671.0
 21
1424.041
  0
LINE
  8
1
  6
CONTINUOUS
 62
     2
 10
860.0
 20
1383.507558854
 11
848.528561983
 21
1367.124454453
  0
LINE
  8
1
  6
CONTINUOUS
 62
     2
 10
860.0
 20
1383.507558854
 11
858.25699546
 21
1363.583655242
  0
TEXT
  8
0
  6
CONTINUOUS
 62
     2
 10
785.0
 20
1104.241
 30
0.0
 40
24.0
  1
推力リミッタ
 50
0.0
 41
0.9
 51
0.0
  7
KANJI3
  0
LINE
  8
6
  6
CONTINUOUS
 62
     2
 10
757.01036957
 20
1100.541
 11
922.5
 21
1100.541
  0
LINE
  8
1
  6
CONTINUOUS
 62
     2
 10
860.0
 20
1383.507558854
 11
757.01036957
 21
1100.541
  0
LINE
  8
0
  6
LTYPE4
 62
     2
 10
958.274192965
 20
1212.606
 11
958.274192965
 21
1213.541
  0
LINE
  8
6
  6
CONTINUOUS
 62
     2
 10
1524.000190206
 20
1274.841
 11
1524.000190206
 21
1265.776
  0
LINE
  8
0
  6
CONTINUOUS
 62
     1
 10
1411.219691586
 20
1395.691148475
 11
1416.795406547
 21
1416.5
  0
LINE
  8
0
  6
CONTINUOUS
 62
     1
 10
1416.795406547
 20
1416.5
 11
1422.154390396
 21
1396.5
  0
LINE
  8
0
  6
CONTINUOUS
 62
     1
 10
1416.795406547
 20
1231.5
 11
1422.154390396
 21
1251.5
  0
LINE
  8
0
  6
CONTINUOUS
 62
     1
 10
1411.219691586
 20
1395.691148475
 11
1411.219691586
 21
1324.0
  0
LINE
  8
0
  6
CONTINUOUS
 62
     1
 10
1416.795406547
 20
1416.5
 11
1416.795406547
 21
1324.0
  0
LINE
  8
6
  6
CONTINUOUS
 62
     2
 10
1457.07
 20
1416.5
 11
1456.57
 21
1416.5
  0
LINE
  8
0
  6
LTYPE3
 62
     2
 10
1693.07
 20
1324.0
 11
473.07
 21
1324.0
  0
LINE
  8
6
  6
CONTINUOUS
 62
     2
 10
1404.795406547
 20
1416.5
 11
1272.07
 21
1416.5
  0
LINE
  8
6
  6
CONTINUOUS
 62
     2
 10
1404.795406547
 20
1231.5
 11
1272.07
 21
1231.5
  0
LINE
  8
0
  6
CONTINUOUS
 62
     1
 10
1494.405399739
 20
1416.5
 11
1489.04641589
 21
1396.5
  0
LINE
  8
0
  6
CONTINUOUS
 62
     1
 10
1494.405399739
 20
1416.5
 11
1494.405399739
 21
1324.0
  0
LINE
  8
0
  6
CONTINUOUS
 62
     1
 10
1512.127868375
 20
1372.379113682
 11
1512.127868375
 21
1374.279113682
  0
POINT
  8
0
  6
CONTINUOUS
 62
     1
 10
1512.127868375
 20
1374.279113682
  0
LINE
  8
0
  6
CONTINUOUS
 62
     1
 10
1512.127868375
 20
1374.279113682
 11
1520.327868375
 21
1374.279113682
  0
POINT
  8
0
  6
CONTINUOUS
 62
     1
 10
1520.327868375
 20
1374.279113682
  0
LINE
  8
0
  6
CONTINUOUS
 62
     1
 10
1520.327868375
 20
1374.279113682
 11
1520.327868375
 21
1372.579113682
  0
LINE
  8
0
  6
CONTINUOUS
 62
     1
 10
1508.87
 20
1372.517376915
 11
1494.405399739
 21
1416.5
  0
LINE
  8
0
  6
CONTINUOUS
 62
     1
 10
1508.87
 20
1372.517376915
 11
1508.87
 21
1324.0
  0
LINE
  8
0
  6
CONTINUOUS
 62
     1
 10
1520.327868375
 20
1374.279113682
 11
1520.327868375
 21
1324.0
  0
LINE
  8
0
  6
CONTINUOUS
 62
     1
 10
1512.127868375
 20
1372.517376915
 11
1512.127868375
 21
1324.0
  0
LINE
  8
0
  6
CONTINUOUS
 62
     1
 10
1494.405399739
 20
1231.5
 11
1489.04641589
 21
1251.5
  0
LINE
  8
0
  6
CONTINUOUS
 62
     1
 10
1523.97
 20
1278.482623085
 11
1508.97
 21
1278.482623085
  0
LINE
  8
0
  6
CONTINUOUS
 62
     1
 10
1508.87
 20
1278.482623085
 11
1494.405399739
 21
1231.5
  0
LINE
  8
0
  6
LTYPE4
 62
     2
 10
1416.795406547
 20
1416.5
 11
1494.405399739
 21
1416.5
  0
LINE
  8
0
  6
LTYPE4
 62
     2
 10
1416.795406547
 20
1231.5
 11
1494.405399739
 21
1231.5
  0
LINE
  8
0
  6
CONTINUOUS
 62
     1
 10
1411.219691586
 20
1395.691148475
 11
1405.643976624
 21
1416.5
  0
LINE
  8
0
  6
CONTINUOUS
 62
     1
 10
1405.643976624
 20
1416.5
 11
1400.284992776
 21
1396.5
  0
LINE
  8
0
  6
CONTINUOUS
 62
     1
 10
1411.219691586
 20
1395.691148475
 11
1411.219691586
 21
1324.0
  0
LINE
  8
0
  6
CONTINUOUS
 62
     1
 10
1405.643976624
 20
1416.5
 11
1405.643976624
 21
1324.0
  0
LINE
  8
0
  6
CONTINUOUS
 62
     1
 10
1399.615119794
 20
1394.0
 11
1399.615119794
 21
1254.0
  0
LINE
  8
0
  6
CONTINUOUS
 62
     1
 10
1400.389691586
 20
1252.211851525
 11
1405.965406547
 21
1231.403
  0
LINE
  8
0
  6
CONTINUOUS
 62
     1
 10
1386.089390396
 20
1252.408851525
 11
1400.336905595
 21
1252.408851525
  0
LINE
  8
0
  6
CONTINUOUS
 62
     1
 10
1411.393402083
 20
1251.660555123
 11
1416.795406547
 21
1231.5
  0
LINE
  8
0
  6
CONTINUOUS
 62
     1
 10
1405.965406547
 20
1231.403
 11
1411.393521287
 21
1251.661
  0
LINE
  8
0
  6
CONTINUOUS
 62
     1
 10
1524.0
 20
1372.517376915
 11
1524.0
 21
1276.541
  0
LINE
  8
0
  6
CONTINUOUS
 62
     1
 10
1523.999190206
 20
1276.541
 11
1664.000190206
 21
1276.541
  0
LINE
  8
0
  6
CONTINUOUS
 62
     1
 10
1523.999190206
 20
1276.541
 11
1523.999190206
 21
1324.041
  0
LINE
  8
0
  6
CONTINUOUS
 62
     1
 10
1474.0
 20
1279.5
 11
1524.0
 21
1279.5
  0
LINE
  8
0
  6
CONTINUOUS
 62
     1
 10
1396.219691586
 20
1254.0
 11
1474.0
 21
1254.0
  0
LINE
  8
0
  6
CONTINUOUS
 62
     1
 10
1474.0
 20
1324.0
 11
1474.0
 21
1254.0
  0
LINE
  8
0
  6
CONTINUOUS
 62
     1
 10
1289.05
 20
1394.0
 11
1399.615119794
 21
1394.0
  0
LINE
  8
0
  6
CONTINUOUS
 62
     1
 10
1299.85
 20
1254.0
 11
1396.219691586
 21
1254.0
  0
LINE
  8
0
  6
CONTINUOUS
 62
     1
 10
1400.284992776
 20
1396.5
 11
1384.6
 21
1396.5
  0
LINE
  8
0
  6
CONTINUOUS
 62
     1
 10
1422.174263377
 20
1396.5
 11
1422.174263377
 21
1323.5
  0
LINE
  8
0
  6
CONTINUOUS
 62
     1
 10
1478.11171708
 20
1395.691148475
 11
1483.687432042
 21
1416.5
  0
LINE
  8
0
  6
CONTINUOUS
 62
     1
 10
1483.687432042
 20
1416.5
 11
1489.04641589
 21
1396.5
  0
LINE
  8
0
  6
CONTINUOUS
 62
     1
 10
1478.11171708
 20
1395.691148475
 11
1478.11171708
 21
1324.0
  0
LINE
  8
0
  6
CONTINUOUS
 62
     1
 10
1483.687432042
 20
1416.5
 11
1483.687432042
 21
1324.0
  0
LINE
  8
0
  6
CONTINUOUS
 62
     1
 10
1478.11171708
 20
1395.691148475
 11
1478.11171708
 21
1324.0
  0
LINE
  8
0
  6
CONTINUOUS
 62
     1
 10
1489.066288871
 20
1396.5
 11
1489.066288871
 21
1323.5
  0
LINE
  8
0
  6
CONTINUOUS
 62
     1
 10
1483.645406547
 20
1231.7
 11
1489.004390396
 21
1251.7
  0
LINE
  8
0
  6
CONTINUOUS
 62
     1
 10
1478.243402083
 20
1251.860555123
 11
1483.645406547
 21
1231.7
  0
LINE
  8
0
  6
LTYPE4
 62
     2
 10
1422.154390396
 20
1251.5
 11
1478.204390396
 21
1251.5
  0
LINE
  8
0
  6
CONTINUOUS
 62
     1
 10
1524.0
 20
1372.517376915
 11
1520.327868375
 21
1372.517376915
  0
LINE
  8
0
  6
CONTINUOUS
 62
     1
 10
1512.127868375
 20
1372.517376915
 11
1508.87
 21
1372.517376915
  0
LINE
  8
0
  6
LTYPE3
 62
     2
 10
1624.000190206
 20
1158.041
 11
1624.000190206
 21
1394.909
  0
LINE
  8
1
  6
CONTINUOUS
 62
     2
 10
706.0
 20
1234.541
 11
706.0
 21
1043.541
  0
LINE
  8
1
  6
CONTINUOUS
 62
     2
 10
706.0
 20
1234.541
 11
706.0
 21
1044.3
  0
LINE
  8
1
  6
CONTINUOUS
 62
     2
 10
706.0
 20
1234.541
 11
706.0
 21
998.0
  0
LINE
  8
1
  6
CONTINUOUS
 62
     2
 10
706.0
 20
1014.0
 11
725.318516526
 21
1008.823619098
  0
LINE
  8
1
  6
CONTINUOUS
 62
     2
 10
706.0
 20
1014.0
 11
725.318516526
 21
1019.176380902
  0
LINE
  8
1
  6
CONTINUOUS
 62
     2
 10
706.0
 20
1014.0
 11
1474.0
 21
1014.0
  0
LINE
  8
1
  6
CONTINUOUS
 62
     2
 10
1474.0
 20
1014.0
 11
1454.681483474
 21
1019.176380902
  0
LINE
  8
1
  6
CONTINUOUS
 62
     2
 10
1474.0
 20
1014.0
 11
1454.681483474
 21
1008.823619098
  0
LINE
  8
1
  6
CONTINUOUS
 62
     2
 10
1474.0
 20
1271.5
 11
1474.0
 21
998.0
  0
TEXT
  8
1
  6
CONTINUOUS
 62
     3
 10
1077.2
 20
1022.0
 30
2.4
 40
28.0
  1
Ｃ
 50
0.0
 41
0.914285714
 51
0.0
  7
KANJI53
  0
LINE
  8
1
  6
CONTINUOUS
 62
     2
 10
1474.0
 20
1014.0
 11
1493.318516526
 21
1008.823619098
  0
LINE
  8
1
  6
CONTINUOUS
 62
     2
 10
1474.0
 20
1014.0
 11
1493.318516526
 21
1019.176380902
  0
LINE
  8
1
  6
CONTINUOUS
 62
     2
 10
1474.0
 20
1014.0
 11
1524.0
 21
1014.0
  0
LINE
  8
1
  6
CONTINUOUS
 62
     2
 10
1524.0
 20
1014.0
 11
1504.681483474
 21
1019.176380902
  0
LINE
  8
1
  6
CONTINUOUS
 62
     2
 10
1524.0
 20
1014.0
 11
1504.681483474
 21
1008.823619098
  0
LINE
  8
1
  6
CONTINUOUS
 62
     2
 10
1524.0
 20
1270.482623085
 11
1524.0
 21
998.0
  0
LINE
  8
1
  6
CONTINUOUS
 62
     2
 10
1524.0
 20
1014.0
 11
1543.318516526
 21
1008.823619098
  0
LINE
  8
1
  6
CONTINUOUS
 62
     2
 10
1524.0
 20
1014.0
 11
1543.318516526
 21
1019.176380902
  0
LINE
  8
1
  6
CONTINUOUS
 62
     2
 10
1524.0
 20
1014.0
 11
1624.000190206
 21
1014.0
  0
LINE
  8
1
  6
CONTINUOUS
 62
     2
 10
1624.000190206
 20
1014.0
 11
1604.68167368
 21
1019.176380902
  0
LINE
  8
1
  6
CONTINUOUS
 62
     2
 10
1624.000190206
 20
1014.0
 11
1604.68167368
 21
1008.823619098
  0
LINE
  8
1
  6
CONTINUOUS
 62
     2
 10
1624.000190206
 20
1268.541
 11
1624.000190206
 21
998.0
  0
TEXT
  8
1
  6
CONTINUOUS
 62
     3
 10
1533.200095103
 20
1022.0
 30
2.4
 40
28.0
  1
１００
 50
0.0
 41
0.914285714
 51
0.0
  7
KANJI53
  0
TEXT
  8
0
  6
CONTINUOUS
 62
     2
 10
1454.000190206
 20
971.541
 30
2.4
 40
24.0
  1
ｍｉｎ、Ｐ
 50
0.0
 41
0.9
 51
0.0
  7
KANJI2
  0
LINE
  8
1
  6
CONTINUOUS
 62
     2
 10
706.0
 20
947.0
 11
725.318516526
 21
941.823619098
  0
LINE
  8
1
  6
CONTINUOUS
 62
     2
 10
706.0
 20
947.0
 11
725.318516526
 21
952.176380902
  0
LINE
  8
1
  6
CONTINUOUS
 62
     2
 10
706.0
 20
947.0
 11
1624.000190206
 21
947.0
  0
LINE
  8
1
  6
CONTINUOUS
 62
     2
 10
1624.000190206
 20
947.0
 11
1604.68167368
 21
952.176380902
  0
LINE
  8
1
  6
CONTINUOUS
 62
     2
 10
1624.000190206
 20
947.0
 11
1604.68167368
 21
941.823619098
  0
LINE
  8
1
  6
CONTINUOUS
 62
     2
 10
1624.000190206
 20
1006.0
 11
1624.000190206
 21
931.0
  0
TEXT
  8
1
  6
CONTINUOUS
 62
     3
 10
1096.200095103
 20
955.0
 30
2.4
 40
28.0
  1
ｍｉｎ，Ｌ
 50
0.0
 41
0.914285714
 51
0.0
  7
KANJI53
  0
LINE
  8
1
  6
CONTINUOUS
 62
     2
 10
481.0
 20
939.0
 11
481.0
 21
872.0
  0
LINE
  8
1
  6
CONTINUOUS
 62
     2
 10
481.0
 20
888.0
 11
500.318516526
 21
882.823619098
  0
LINE
  8
1
  6
CONTINUOUS
 62
     2
 10
481.0
 20
888.0
 11
500.318516526
 21
893.176380902
  0
LINE
  8
1
  6
CONTINUOUS
 62
     2
 10
481.0
 20
888.0
 11
1624.000190206
 21
888.0
  0
LINE
  8
1
  6
CONTINUOUS
 62
     2
 10
1624.000190206
 20
888.0
 11
1604.68167368
 21
893.176380902
  0
LINE
  8
1
  6
CONTINUOUS
 62
     2
 10
1624.000190206
 20
888.0
 11
1604.68167368
 21
882.823619098
  0
LINE
  8
1
  6
CONTINUOUS
 62
     2
 10
1624.000190206
 20
939.0
 11
1624.000190206
 21
872.0
  0
TEXT
  8
1
  6
CONTINUOUS
 62
     3
 10
969.700095103
 20
896.0
 30
2.4
 40
28.0
  1
ｍｉｎ，ＡＬ
 50
0.0
 41
0.914285714
 51
0.0
  7
KANJI53
  0
LINE
  8
1
  6
CONTINUOUS
 62
     2
 10
1624.000190206
 20
888.0
 11
1643.318706732
 21
882.823619098
  0
LINE
  8
1
  6
CONTINUOUS
 62
     2
 10
1624.000190206
 20
888.0
 11
1643.318706732
 21
893.176380902
  0
LINE
  8
1
  6
CONTINUOUS
 62
     2
 10
1624.000190206
 20
888.0
 11
1674.000190206
 21
888.0
  0
LINE
  8
1
  6
CONTINUOUS
 62
     2
 10
1674.000190206
 20
888.0
 11
1654.68167368
 21
893.176380902
  0
LINE
  8
1
  6
CONTINUOUS
 62
     2
 10
1674.000190206
 20
888.0
 11
1654.68167368
 21
882.823619098
  0
LINE
  8
1
  6
CONTINUOUS
 62
     2
 10
1674.000190206
 20
1278.541
 11
1674.000190206
 21
872.0
  0
TEXT
  8
1
  6
CONTINUOUS
 62
     3
 10
1622.200190206
 20
896.0
 30
2.4
 40
28.0
  1
５０
 50
0.0
 41
0.914285714
 51
0.0
  7
KANJI53
  0
LINE
  8
0
  6
CONTINUOUS
 62
     1
 10
1522.001380412
 20
1638.509
 11
1522.001380412
 21
1647.009
  0
LINE
  8
0
  6
CONTINUOUS
 62
     1
 10
1492.407589945
 20
1739.468
 11
1487.048606097
 21
1719.468
  0
LINE
  8
0
  6
CONTINUOUS
 62
     1
 10
1492.407589945
 20
1739.468
 11
1492.407589945
 21
1646.968
  0
LINE
  8
0
  6
CONTINUOUS
 62
     1
 10
1510.130058582
 20
1695.347113682
 11
1510.130058582
 21
1697.247113682
  0
POINT
  8
0
  6
CONTINUOUS
 62
     1
 10
1510.130058582
 20
1697.247113682
  0
LINE
  8
0
  6
CONTINUOUS
 62
     1
 10
1510.130058582
 20
1697.247113682
 11
1518.330058582
 21
1697.247113682
  0
POINT
  8
0
  6
CONTINUOUS
 62
     1
 10
1518.330058582
 20
1697.247113682
  0
LINE
  8
0
  6
CONTINUOUS
 62
     1
 10
1518.330058582
 20
1697.247113682
 11
1518.330058582
 21
1695.547113682
  0
LINE
  8
0
  6
CONTINUOUS
 62
     1
 10
1506.872190206
 20
1695.485376915
 11
1492.407589945
 21
1739.468
  0
LINE
  8
0
  6
CONTINUOUS
 62
     1
 10
1506.872190206
 20
1695.485376915
 11
1506.872190206
 21
1646.968
  0
LINE
  8
0
  6
CONTINUOUS
 62
     1
 10
1518.330058582
 20
1697.247113682
 11
1518.330058582
 21
1646.968
  0
LINE
  8
0
  6
CONTINUOUS
 62
     1
 10
1510.130058582
 20
1695.485376915
 11
1510.130058582
 21
1646.968
  0
LINE
  8
0
  6
CONTINUOUS
 62
     1
 10
1476.113907287
 20
1718.659148475
 11
1481.689622248
 21
1739.468
  0
LINE
  8
0
  6
CONTINUOUS
 62
     1
 10
1481.689622248
 20
1739.468
 11
1487.048606097
 21
1719.468
  0
LINE
  8
0
  6
CONTINUOUS
 62
     1
 10
1476.113907287
 20
1718.659148475
 11
1476.113907287
 21
1646.968
  0
LINE
  8
0
  6
CONTINUOUS
 62
     1
 10
1481.689622248
 20
1739.468
 11
1481.689622248
 21
1646.968
  0
LINE
  8
0
  6
CONTINUOUS
 62
     1
 10
1476.113907287
 20
1718.659148475
 11
1476.113907287
 21
1646.968
  0
LINE
  8
0
  6
CONTINUOUS
 62
     1
 10
1487.068479078
 20
1719.468
 11
1487.068479078
 21
1646.468
  0
LINE
  8
0
  6
CONTINUOUS
 62
     1
 10
1522.002190206
 20
1695.485376915
 11
1518.330058582
 21
1695.485376915
  0
LINE
  8
0
  6
CONTINUOUS
 62
     1
 10
1510.130058582
 20
1695.485376915
 11
1506.872190206
 21
1695.485376915
  0
LINE
  8
0
  6
LTYPE3
 62
     2
 10
1623.000380412
 20
1548.309
 11
1623.000380412
 21
1803.209
  0
LINE
  8
0
  6
CONTINUOUS
 62
     1
 10
1672.002380412
 20
1622.009
 11
1672.002380412
 21
1672.009
  0
LINE
  8
0
  6
CONTINUOUS
 62
     1
 10
1662.002380412
 20
1672.009
 11
1662.002380412
 21
1622.009
  0
LINE
  8
0
  6
CONTINUOUS
 62
     1
 10
1533.000380412
 20
1690.485376915
 11
1522.002190206
 21
1690.485376915
  0
LINE
  8
0
  6
CONTINUOUS
 62
     1
 10
1533.000380412
 20
1672.009
 11
1672.002380412
 21
1672.009
  0
LINE
  8
0
  6
CONTINUOUS
 62
     1
 10
1522.002190206
 20
1695.485376915
 11
1522.002190206
 21
1620.909
  0
LINE
  8
0
  6
CONTINUOUS
 62
     1
 10
1522.001380412
 20
1620.909
 11
1522.001380412
 21
1647.009
  0
LINE
  8
6
  6
CONTINUOUS
 62
     2
 10
1455.072190206
 20
1554.468
 11
1454.572190206
 21
1554.468
  0
LINE
  8
0
  6
CONTINUOUS
 62
     1
 10
1492.407589945
 20
1554.468
 11
1487.048606097
 21
1574.468
  0
LINE
  8
0
  6
CONTINUOUS
 62
     1
 10
1492.407589945
 20
1554.468
 11
1492.407589945
 21
1646.968
  0
LINE
  8
0
  6
CONTINUOUS
 62
     1
 10
1510.130058582
 20
1598.588886318
 11
1510.130058582
 21
1596.688886318
  0
POINT
  8
0
  6
CONTINUOUS
 62
     1
 10
1510.130058582
 20
1596.688886318
  0
LINE
  8
0
  6
CONTINUOUS
 62
     1
 10
1510.130058582
 20
1596.688886318
 11
1518.330058582
 21
1596.688886318
  0
POINT
  8
0
  6
CONTINUOUS
 62
     1
 10
1518.330058582
 20
1596.688886318
  0
LINE
  8
0
  6
CONTINUOUS
 62
     1
 10
1518.330058582
 20
1596.688886318
 11
1518.330058582
 21
1598.388886318
  0
LINE
  8
0
  6
CONTINUOUS
 62
     1
 10
1506.872190206
 20
1598.450623085
 11
1492.407589945
 21
1554.468
  0
LINE
  8
0
  6
CONTINUOUS
 62
     1
 10
1506.872190206
 20
1598.450623085
 11
1506.872190206
 21
1646.968
  0
LINE
  8
0
  6
CONTINUOUS
 62
     1
 10
1518.330058582
 20
1596.688886318
 11
1518.330058582
 21
1646.968
  0
LINE
  8
0
  6
CONTINUOUS
 62
     1
 10
1510.130058582
 20
1598.450623085
 11
1510.130058582
 21
1646.968
  0
LINE
  8
0
  6
CONTINUOUS
 62
     1
 10
1476.113907287
 20
1575.276851525
 11
1481.689622248
 21
1554.468
  0
LINE
  8
0
  6
CONTINUOUS
 62
     1
 10
1481.689622248
 20
1554.468
 11
1487.048606097
 21
1574.468
  0
LINE
  8
0
  6
CONTINUOUS
 62
     1
 10
1476.113907287
 20
1575.276851525
 11
1476.113907287
 21
1646.968
  0
LINE
  8
0
  6
CONTINUOUS
 62
     1
 10
1481.689622248
 20
1554.468
 11
1481.689622248
 21
1646.968
  0
LINE
  8
0
  6
CONTINUOUS
 62
     1
 10
1476.113907287
 20
1575.276851525
 11
1476.113907287
 21
1646.968
  0
LINE
  8
0
  6
CONTINUOUS
 62
     1
 10
1487.068479078
 20
1574.468
 11
1487.068479078
 21
1647.468
  0
LINE
  8
0
  6
CONTINUOUS
 62
     1
 10
1522.002190206
 20
1598.450623085
 11
1518.330058582
 21
1598.450623085
  0
LINE
  8
0
  6
CONTINUOUS
 62
     1
 10
1510.130058582
 20
1598.450623085
 11
1506.872190206
 21
1598.450623085
  0
LINE
  8
0
  6
CONTINUOUS
 62
     1
 10
1533.000380412
 20
1603.450623085
 11
1522.002190206
 21
1603.450623085
  0
LINE
  8
0
  6
CONTINUOUS
 62
     1
 10
1522.002190206
 20
1598.450623085
 11
1522.002190206
 21
1673.027
  0
LINE
  8
0
  6
CONTINUOUS
 62
     1
 10
1533.000380412
 20
1622.009
 11
1672.002380412
 21
1622.009
  0
LINE
  8
6
  6
CONTINUOUS
 62
     2
 10
1455.072190206
 20
1739.468
 11
1454.572190206
 21
1739.468
  0
LINE
  8
0
  6
CONTINUOUS
 62
     2
 10
1414.797596753
 20
1739.468
 11
1492.407589945
 21
1739.468
  0
LINE
  8
0
  6
CONTINUOUS
 62
     2
 10
1476.113907287
 20
1718.659148475
 11
1423.113907287
 21
1718.859148475
  0
LINE
  8
0
  6
CONTINUOUS
 62
     2
 10
1414.797596753
 20
1554.468
 11
1492.407589945
 21
1554.468
  0
LINE
  8
0
  6
CONTINUOUS
 62
     2
 10
1420.156580602
 20
1574.468
 11
1476.113907287
 21
1574.468
  0
LINE
  8
0
  6
LTYPE1
 62
     2
 10
1600.500380412
 20
1622.009
 11
1600.500380412
 21
1672.009
  0
LINE
  8
0
  6
LTYPE1
 62
     2
 10
1645.500380412
 20
1622.009
 11
1645.500380412
 21
1672.009
  0
LINE
  8
1
  6
CONTINUOUS
 62
     2
 10
1623.000380412
 20
1614.009
 11
1623.000380412
 21
1455.359148475
  0
LINE
  8
1
  6
CONTINUOUS
 62
     2
 10
1623.000380412
 20
1471.359148475
 11
1603.681863887
 21
1476.535529377
  0
LINE
  8
1
  6
CONTINUOUS
 62
     2
 10
1623.000380412
 20
1471.359148475
 11
1603.681863887
 21
1466.182767573
  0
LINE
  8
1
  6
CONTINUOUS
 62
     2
 10
1623.000380412
 20
1471.359148475
 11
1533.000380412
 21
1471.359148475
  0
LINE
  8
1
  6
CONTINUOUS
 62
     2
 10
1533.000380412
 20
1471.359148475
 11
1552.318896938
 21
1466.182767573
  0
LINE
  8
1
  6
CONTINUOUS
 62
     2
 10
1533.000380412
 20
1471.359148475
 11
1552.318896938
 21
1476.535529377
  0
LINE
  8
1
  6
CONTINUOUS
 62
     2
 10
1533.000380412
 20
1595.450623085
 11
1533.000380412
 21
1455.359148475
  0
TEXT
  8
1
  6
CONTINUOUS
 62
     3
 10
1551.200380412
 20
1479.359148475
 30
2.4
 40
28.0
  1
９０
 50
0.0
 41
0.914285714
 51
0.0
  7
KANJI53
  0
LINE
  8
1
  6
CONTINUOUS
 62
     2
 10
1645.500380412
 20
1680.009
 11
1645.500380412
 21
1796.209
  0
LINE
  8
1
  6
CONTINUOUS
 62
     2
 10
1645.500380412
 20
1780.209
 11
1664.818896938
 21
1775.032619098
  0
LINE
  8
1
  6
CONTINUOUS
 62
     2
 10
1645.500380412
 20
1780.209
 11
1664.818896938
 21
1785.385380902
  0
LINE
  8
1
  6
CONTINUOUS
 62
     2
 10
1675.500380412
 20
1780.209
 11
1645.500380412
 21
1780.209
  0
LINE
  8
1
  6
CONTINUOUS
 62
     2
 10
1645.500380412
 20
1780.209
 11
1600.500380412
 21
1780.209
  0
LINE
  8
1
  6
CONTINUOUS
 62
     2
 10
1600.500380412
 20
1780.209
 11
1404.900380412
 21
1780.209
  0
LINE
  8
1
  6
CONTINUOUS
 62
     2
 10
1600.500380412
 20
1780.209
 11
1581.181863887
 21
1785.385380902
  0
LINE
  8
1
  6
CONTINUOUS
 62
     2
 10
1600.500380412
 20
1780.209
 11
1581.181863887
 21
1775.032619098
  0
LINE
  8
1
  6
CONTINUOUS
 62
     2
 10
1600.500380412
 20
1680.009
 11
1600.500380412
 21
1796.209
  0
TEXT
  8
1
  6
CONTINUOUS
 62
     3
 10
1404.900380412
 20
1788.209
 30
2.4
 40
28.0
  1
φ４５Ｈ１０
 50
0.0
 41
0.914285714
 51
0.0
  7
KANJI53
  0
LINE
  8
0
  6
LTYPE3
 62
     2
 10
1691.072190206
 20
1646.968
 11
1409.000190206
 21
1646.968
  0
LINE
  8
1
  6
CONTINUOUS
 62
     2
 10
1174.000190206
 20
1349.541
 11
1186.616691209
 21
1365.05950194
  0
LINE
  8
1
  6
CONTINUOUS
 62
     2
 10
1174.000190206
 20
1349.541
 11
1177.167149612
 21
1369.28866741
  0
LINE
  8
1
  6
CONTINUOUS
 62
     2
 10
1174.000190206
 20
1349.541
 11
1238.000190206
 21
1492.541
  0
LINE
  8
1
  6
CONTINUOUS
 62
     2
 10
1238.000190206
 20
1492.541
 11
1307.600190206
 21
1492.541
  0
TEXT
  8
1
  6
CONTINUOUS
 62
     3
 10
1238.000190206
 20
1500.541
 30
2.4
 40
24.0
  1
給脂口
 50
0.0
 41
0.9
 51
0.0
  7
KANJI2
  0
TEXT
  8
0
  6
CONTINUOUS
 62
     3
 10
2628.5333816
 20
207.999992
 30
17.333333333
 40
40.0
  1
Ａ３００１２４０
 50
0.0
 41
0.8
 51
0.0
  7
KANJI58
  0
TEXT
  8
0
  6
CONTINUOUS
 62
     2
 10
2978.0
 20
1954.2
 30
1.6
 40
24.0
  1
ＭＣＬＦ８ー　　　　　Ｊ
 50
0.0
 41
0.833333333
 51
0.0
  7
KANJI59
  0
TEXT
  8
0
  6
CONTINUOUS
 62
     2
 10
2544.0
 20
336.0
 30
0.0
 40
28.0
  1
ＭＣＬＦ８－　　　Ｊ
 50
0.0
 41
0.793650794
 51
0.0
  7
KANJI56
  0
TEXT
  8
0
  6
CONTINUOUS
 62
     2
 10
1611.0
 20
566.0
 30
2.4
 40
24.0
  1
１１２
 50
0.0
 41
0.9
 51
0.0
  7
KANJI2
  0
LINE
  8
0
  6
CONTINUOUS
 62
     1
 10
636.0
 20
1189.0
 11
636.0
 21
1478.0
  0
LINE
  8
0
  6
CONTINUOUS
 62
     1
 10
636.0
 20
1418.0
 11
636.0
 21
1689.0
  0
LINE
  8
0
  6
CONTINUOUS
 62
     1
 10
636.0
 20
1689.0
 11
586.0
 21
1689.0
  0
LINE
  8
0
  6
CONTINUOUS
 62
     1
 10
498.0
 20
1189.0
 11
498.0
 21
1478.0
  0
LINE
  8
0
  6
CONTINUOUS
 62
     1
 10
498.0
 20
1418.0
 11
498.0
 21
1614.0
  0
LINE
  8
0
  6
CONTINUOUS
 62
     1
 10
481.0
 20
1189.0
 11
481.0
 21
1478.0
  0
LINE
  8
0
  6
CONTINUOUS
 62
     1
 10
481.0
 20
1418.0
 11
481.0
 21
1614.0
  0
LINE
  8
0
  6
CONTINUOUS
 62
     1
 10
603.0
 20
1554.0
 11
532.0
 21
1554.0
  0
LINE
  8
0
  6
CONTINUOUS
 62
     1
 10
603.0
 20
1554.0
 11
603.0
 21
1434.0
  0
LINE
  8
0
  6
CONTINUOUS
 62
     1
 10
603.0
 20
1434.0
 11
532.0
 21
1434.0
  0
LINE
  8
0
  6
CONTINUOUS
 62
     1
 10
532.0
 20
1434.0
 11
532.0
 21
1554.0
  0
LINE
  8
0
  6
LTYPE3
 62
     2
 10
608.0
 20
1444.0
 11
584.2
 21
1444.0
  0
LINE
  8
0
  6
LTYPE3
 62
     2
 10
554.2
 20
1544.0
 11
527.2
 21
1544.0
  0
LINE
  8
0
  6
LTYPE3
 62
     2
 10
608.2
 20
1544.0
 11
580.2
 21
1544.0
  0
LINE
  8
0
  6
LTYPE3
 62
     2
 10
593.0
 20
1455.8
 11
593.0
 21
1434.0
  0
LINE
  8
0
  6
LTYPE3
 62
     2
 10
593.0
 20
1554.0
 11
593.0
 21
1531.8
  0
LINE
  8
0
  6
LTYPE3
 62
     2
 10
542.0
 20
1532.8
 11
542.0
 21
1554.0
  0
LINE
  8
0
  6
LTYPE3
 62
     2
 10
542.0
 20
1434.0
 11
542.0
 21
1454.8
  0
LINE
  8
0
  6
LTYPE3
 62
     2
 10
554.2
 20
1444.0
 11
529.2
 21
1444.0
  0
CIRCLE
  8
0
  6
CONTINUOUS
 62
     1
 10
606.0
 20
1719.0
 40
17.5
  0
LINE
  8
0
  6
CONTINUOUS
 62
     1
 10
606.0
 20
1689.0
 11
621.0
 21
1689.0
  0
LINE
  8
0
  6
CONTINUOUS
 62
     1
 10
606.0
 20
1700.0
 11
619.751706485
 21
1700.0
  0
LINE
  8
0
  6
CONTINUOUS
 62
     1
 10
619.751706485
 20
1700.0
 11
606.0
 21
1701.5
  0
LINE
  8
0
  6
CONTINUOUS
 62
     1
 10
620.689625645
 20
1691.735028154
 11
619.751706485
 21
1700.0
  0
LINE
  8
0
  6
CONTINUOUS
 62
     1
 10
621.0
 20
1689.0
 11
620.689625645
 21
1691.735028154
  0
ARC
  8
0
  6
CONTINUOUS
 62
     1
 10
622.297773229
 20
1691.927087564
 40
1.6
 50
120.593314844
 51
186.768821444
  0
ARC
  8
0
  6
CONTINUOUS
 62
     1
 10
606.0
 20
1719.0
 40
30.0
 50
301.047754584
 51
0.0
  0
LINE
  8
0
  6
CONTINUOUS
 62
     1
 10
606.0
 20
1689.0
 11
591.0
 21
1689.0
  0
LINE
  8
0
  6
CONTINUOUS
 62
     1
 10
606.0
 20
1700.0
 11
592.248293515
 21
1700.0
  0
LINE
  8
0
  6
CONTINUOUS
 62
     1
 10
592.248293515
 20
1700.0
 11
606.0
 21
1701.5
  0
LINE
  8
0
  6
CONTINUOUS
 62
     1
 10
591.310374355
 20
1691.735028154
 11
592.248293515
 21
1700.0
  0
LINE
  8
0
  6
CONTINUOUS
 62
     1
 10
591.0
 20
1689.0
 11
591.310374355
 21
1691.735028154
  0
ARC
  8
0
  6
CONTINUOUS
 62
     1
 10
589.702226771
 20
1691.927087564
 40
1.6
 50
353.231178556
 51
59.406685156
  0
ARC
  8
0
  6
CONTINUOUS
 62
     1
 10
606.0
 20
1719.0
 40
30.0
 50
0.0
 51
239.0231413
  0
LINE
  8
0
  6
LTYPE3
 62
     2
 10
606.0
 20
1640.8
 11
606.0
 21
1755.8
  0
LINE
  8
0
  6
LTYPE3
 62
     2
 10
644.0
 20
1719.0
 11
570.0
 21
1719.0
  0
LINE
  8
0
  6
CONTINUOUS
 62
     1
 10
613.0
 20
1620.0
 11
613.0
 21
1689.0
  0
ARC
  8
0
  6
CONTINUOUS
 62
     1
 10
607.0
 20
1620.0
 40
6.0
 50
270.0
 51
0.0
  0
LINE
  8
0
  6
CONTINUOUS
 62
     1
 10
607.0
 20
1614.0
 11
481.0
 21
1614.0
  0
ARC
  8
0
  6
CONTINUOUS
 62
     1
 10
580.0
 20
1620.0
 40
6.0
 50
270.0
 51
0.0
  0
LINE
  8
0
  6
CONTINUOUS
 62
     1
 10
586.0
 20
1620.0
 11
586.0
 21
1689.0
  0
LINE
  8
0
  6
CONTINUOUS
 62
     1
 10
636.0
 20
1430.0
 11
636.0
 21
1680.0
  0
LINE
  8
0
  6
CONTINUOUS
 62
     1
 10
431.0
 20
1535.0
 11
431.0
 21
1575.0
  0
LINE
  8
0
  6
CONTINUOUS
 62
     1
 10
473.0
 20
1516.0
 11
473.0
 21
1594.0
  0
LINE
  8
0
  6
CONTINUOUS
 62
     1
 10
473.0
 20
1575.0
 11
431.0
 21
1575.0
  0
LINE
  8
0
  6
CONTINUOUS
 62
     1
 10
473.0
 20
1535.0
 11
431.0
 21
1535.0
  0
LINE
  8
0
  6
CONTINUOUS
 62
     1
 10
481.0
 20
1594.0
 11
473.0
 21
1594.0
  0
LINE
  8
0
  6
CONTINUOUS
 62
     1
 10
481.0
 20
1516.0
 11
473.0
 21
1516.0
  0
LINE
  8
0
  6
CONTINUOUS
 62
     1
 10
481.0
 20
1514.0
 11
475.0
 21
1514.0
  0
LINE
  8
0
  6
CONTINUOUS
 62
     1
 10
475.0
 20
1448.0
 11
475.0
 21
1514.0
  0
LINE
  8
0
  6
CONTINUOUS
 62
     1
 10
481.0
 20
1448.0
 11
475.0
 21
1448.0
  0
LINE
  8
0
  6
LTYPE3
 62
     2
 10
507.0
 20
1485.0
 11
468.6
 21
1485.0
  0
LINE
  8
0
  6
CONTINUOUS
 62
     2
 10
636.0
 20
1701.0
 11
636.0
 21
1830.5
  0
LINE
  8
0
  6
CONTINUOUS
 62
     2
 10
636.0
 20
1818.5
 11
616.681483474
 21
1823.676380902
  0
LINE
  8
0
  6
CONTINUOUS
 62
     2
 10
636.0
 20
1818.5
 11
616.681483474
 21
1813.323619098
  0
LINE
  8
0
  6
CONTINUOUS
 62
     2
 10
636.0
 20
1818.5
 11
431.0
 21
1818.5
  0
LINE
  8
0
  6
CONTINUOUS
 62
     2
 10
431.0
 20
1818.5
 11
450.318516526
 21
1813.323619098
  0
LINE
  8
0
  6
CONTINUOUS
 62
     2
 10
431.0
 20
1818.5
 11
450.318516526
 21
1823.676380902
  0
LINE
  8
0
  6
CONTINUOUS
 62
     2
 10
431.0
 20
1587.0
 11
431.0
 21
1830.5
  0
TEXT
  8
0
  6
CONTINUOUS
 62
     2
 10
499.5
 20
1826.5
 30
1.6
 40
24.0
  1
２０５
 50
0.0
 41
0.9
 51
0.0
  7
KANJI60
  0
LINE
  8
0
  6
CONTINUOUS
 62
     2
 10
448.0
 20
1577.0
 11
440.660604836
 21
1595.604657444
  0
LINE
  8
0
  6
CONTINUOUS
 62
     2
 10
448.0
 20
1577.0
 11
432.341568617
 21
1589.442408394
  0
LINE
  8
0
  6
CONTINUOUS
 62
     2
 10
448.0
 20
1577.0
 11
348.0
 21
1712.0
  0
LINE
  8
0
  6
CONTINUOUS
 62
     2
 10
348.0
 20
1712.0
 11
206.4
 21
1712.0
  0
TEXT
  8
0
  6
CONTINUOUS
 62
     2
 10
206.4
 20
1720.0
 30
2.4
 40
24.0
  1
手動軸カバー
 50
0.0
 41
0.9
 51
0.0
  7
KANJI2
  0
LINE
  8
0
  6
CONTINUOUS
 62
     2
 10
569.5
 20
1542.0
 11
562.707359852
 21
1560.811167955
  0
LINE
  8
0
  6
CONTINUOUS
 62
     2
 10
569.5
 20
1542.0
 11
554.211817096
 21
1554.894629249
  0
LINE
  8
0
  6
CONTINUOUS
 62
     2
 10
569.5
 20
1542.0
 11
374.5
 21
1822.0
  0
LINE
  8
0
  6
CONTINUOUS
 62
     2
 10
374.5
 20
1822.0
 11
304.9
 21
1822.0
  0
TEXT
  8
0
  6
CONTINUOUS
 62
     2
 10
304.9
 20
1830.0
 30
2.4
 40
24.0
  1
点検口
 50
0.0
 41
0.9
 51
0.0
  7
KANJI2
  0
LINE
  8
0
  6
CONTINUOUS
 62
     1
 10
636.0
 20
1428.15
 11
636.0
 21
1680.0
  0
LINE
  8
0
  6
CONTINUOUS
 62
     1
 10
636.0
 20
1430.0
 11
636.0
 21
1680.0
  0
LINE
  8
0
  6
CONTINUOUS
 62
     1
 10
636.0
 20
1430.0
 11
647.0
 21
1430.0
  0
LINE
  8
0
  6
CONTINUOUS
 62
     1
 10
1025.5
 20
1546.3
 11
1031.4
 21
1546.3
  0
LINE
  8
0
  6
CONTINUOUS
 62
     1
 10
1025.5
 20
1563.7
 11
1031.4
 21
1563.7
  0
LINE
  8
0
  6
CONTINUOUS
 62
     1
 10
1039.0
 20
1545.0
 11
1039.0
 21
1554.9
  0
LINE
  8
0
  6
CONTINUOUS
 62
     1
 10
1032.4
 20
1545.0
 11
1039.0
 21
1545.0
  0
LINE
  8
0
  6
CONTINUOUS
 62
     1
 10
1032.4
 20
1550.0
 11
1039.0
 21
1550.0
  0
LINE
  8
0
  6
CONTINUOUS
 62
     1
 10
1039.0
 20
1565.0
 11
1039.0
 21
1555.1
  0
LINE
  8
0
  6
CONTINUOUS
 62
     1
 10
1032.4
 20
1565.0
 11
1039.0
 21
1565.0
  0
LINE
  8
0
  6
CONTINUOUS
 62
     1
 10
1032.4
 20
1560.0
 11
1039.0
 21
1560.0
  0
LINE
  8
0
  6
LTYPE2
 62
     2
 10
833.5
 20
1636.843067336
 11
833.5
 21
1677.143067336
  0
LINE
  8
0
  6
CONTINUOUS
 62
     1
 10
923.5
 20
1685.0
 11
923.5
 21
1725.0
  0
LINE
  8
0
  6
CONTINUOUS
 62
     1
 10
923.5
 20
1725.0
 11
897.8
 21
1725.0
  0
LINE
  8
0
  6
CONTINUOUS
 62
     1
 10
923.5
 20
1685.0
 11
897.8
 21
1685.0
  0
ARC
  8
0
  6
CONTINUOUS
 62
     1
 10
891.8
 20
1679.7
 40
6.0
 50
270.0
 51
0.0
  0
ARC
  8
0
  6
CONTINUOUS
 62
     1
 10
778.319480257
 20
1679.7
 40
6.0
 50
190.033164511
 51
270.0
  0
LINE
  8
0
  6
CONTINUOUS
 62
     1
 10
636.0
 20
1680.0
 11
652.0
 21
1680.0
  0
LINE
  8
0
  6
CONTINUOUS
 62
     1
 10
652.0
 20
1430.0
 11
652.0
 21
1680.0
  0
LINE
  8
0
  6
CONTINUOUS
 62
     1
 10
636.0
 20
1430.0
 11
652.0
 21
1430.0
  0
LINE
  8
0
  6
CONTINUOUS
 62
     1
 10
702.0
 20
1450.0
 11
702.0
 21
1660.0
  0
LINE
  8
0
  6
CONTINUOUS
 62
     1
 10
702.0
 20
1450.0
 11
652.0
 21
1450.0
  0
LINE
  8
0
  6
CONTINUOUS
 62
     1
 10
702.0
 20
1660.0
 11
652.0
 21
1660.0
  0
ARC
  8
0
  6
CONTINUOUS
 62
     1
 10
998.720549228
 20
1640.0
 40
20.0
 50
9.12031501
 51
90.0
  0
ARC
  8
0
  6
CONTINUOUS
 62
     1
 10
998.720549228
 20
1470.0
 40
20.0
 50
270.0
 51
350.87968499
  0
ARC
  8
0
  6
CONTINUOUS
 62
     1
 10
469.25
 20
1555.0
 40
556.25
 50
350.879686542
 51
9.120316562
  0
LINE
  8
0
  6
CONTINUOUS
 62
     1
 10
702.0
 20
1655.0
 11
869.0
 21
1655.0
  0
LINE
  8
0
  6
CONTINUOUS
 62
     1
 10
702.0
 20
1650.0
 11
869.0
 21
1650.0
  0
LINE
  8
0
  6
CONTINUOUS
 62
     1
 10
702.0
 20
1635.0
 11
869.0
 21
1635.0
  0
LINE
  8
0
  6
CONTINUOUS
 62
     1
 10
702.0
 20
1620.0
 11
869.0
 21
1620.0
  0
LINE
  8
0
  6
CONTINUOUS
 62
     1
 10
998.720560018
 20
1660.0
 11
869.0
 21
1660.0
  0
LINE
  8
0
  6
CONTINUOUS
 62
     1
 10
702.0
 20
1605.0
 11
869.0
 21
1605.0
  0
LINE
  8
0
  6
CONTINUOUS
 62
     1
 10
702.0
 20
1590.0
 11
869.0
 21
1590.0
  0
LINE
  8
0
  6
CONTINUOUS
 62
     1
 10
702.0
 20
1575.0
 11
869.0
 21
1575.0
  0
LINE
  8
0
  6
CONTINUOUS
 62
     1
 10
702.0
 20
1560.0
 11
869.0
 21
1560.0
  0
LINE
  8
0
  6
CONTINUOUS
 62
     1
 10
702.0
 20
1545.0
 11
869.0
 21
1545.0
  0
LINE
  8
0
  6
CONTINUOUS
 62
     1
 10
702.0
 20
1530.0
 11
869.0
 21
1530.0
  0
LINE
  8
0
  6
CONTINUOUS
 62
     1
 10
702.0
 20
1515.0
 11
869.0
 21
1515.0
  0
LINE
  8
0
  6
CONTINUOUS
 62
     1
 10
702.0
 20
1500.0
 11
869.0
 21
1500.0
  0
LINE
  8
0
  6
CONTINUOUS
 62
     1
 10
702.0
 20
1485.0
 11
869.0
 21
1485.0
  0
LINE
  8
0
  6
CONTINUOUS
 62
     1
 10
702.0
 20
1470.0
 11
869.0
 21
1470.0
  0
LINE
  8
0
  6
CONTINUOUS
 62
     1
 10
892.161039485
 20
1673.7
 11
778.319480257
 21
1673.7
  0
ARC
  8
0
  6
CONTINUOUS
 62
     1
 10
778.319480257
 20
1742.0
 40
6.0
 50
90.0
 51
180.0
  0
LINE
  8
0
  6
CONTINUOUS
 62
     1
 10
896.608952959
 20
1748.0
 11
778.319480257
 21
1748.0
  0
LINE
  8
0
  6
CONTINUOUS
 62
     1
 10
897.8
 20
1679.7
 11
897.8
 21
1739.372990042
  0
LINE
  8
0
  6
CONTINUOUS
 62
     1
 10
853.5
 20
1655.0
 11
853.5
 21
1673.7
  0
LINE
  8
0
  6
CONTINUOUS
 62
     1
 10
813.5
 20
1655.0
 11
813.5
 21
1673.7
  0
LINE
  8
0
  6
CONTINUOUS
 62
     1
 10
907.877020398
 20
1747.498824355
 11
905.7
 21
1752.0
  0
LINE
  8
0
  6
CONTINUOUS
 62
     1
 10
905.7
 20
1752.0
 11
760.301684551
 21
1681.6772391
  0
LINE
  8
0
  6
CONTINUOUS
 62
     1
 10
907.877020398
 20
1747.498824355
 11
762.47870495
 21
1677.176063455
  0
LINE
  8
0
  6
CONTINUOUS
 62
     1
 10
760.301684551
 20
1681.6772391
 11
762.47870495
 21
1677.176063455
  0
LINE
  8
0
  6
CONTINUOUS
 62
     1
 10
772.319480257
 20
1688.676063455
 11
772.319480257
 21
1742.0
  0
LINE
  8
0
  6
CONTINUOUS
 62
     1
 10
772.97870495
 20
1681.676063455
 11
772.97870495
 21
1678.676063455
  0
LINE
  8
0
  6
CONTINUOUS
 62
     1
 10
1025.5
 20
1516.3
 11
1031.4
 21
1516.3
  0
LINE
  8
0
  6
CONTINUOUS
 62
     1
 10
1025.5
 20
1512.5
 11
1031.4
 21
1512.5
  0
LINE
  8
0
  6
CONTINUOUS
 62
     1
 10
1040.9
 20
1524.4
 11
1040.9
 21
1504.4
  0
LINE
  8
0
  6
CONTINUOUS
 62
     1
 10
1035.9
 20
1504.4
 11
1040.9
 21
1504.4
  0
LINE
  8
0
  6
CONTINUOUS
 62
     1
 10
1035.9
 20
1524.4
 11
1040.9
 21
1524.4
  0
LINE
  8
0
  6
CONTINUOUS
 62
     1
 10
1031.4
 20
1575.0
 11
1035.9
 21
1575.0
  0
LINE
  8
0
  6
CONTINUOUS
 62
     1
 10
1035.9
 20
1504.4
 11
1035.9
 21
1575.0
  0
LINE
  8
0
  6
LTYPE2
 62
     2
 10
1017.4
 20
1514.4
 11
1047.7
 21
1514.4
  0
LINE
  8
0
  6
CONTINUOUS
 62
     1
 10
1031.4
 20
1575.0
 11
1031.4
 21
1509.4
  0
LINE
  8
0
  6
CONTINUOUS
 62
     1
 10
1035.9
 20
1509.4
 11
1031.4
 21
1509.4
  0
LINE
  8
0
  6
CONTINUOUS
 62
     1
 10
1029.4
 20
1521.4
 11
1029.4
 21
1506.4
  0
LINE
  8
0
  6
CONTINUOUS
 62
     1
 10
1026.9
 20
1520.9
 11
1026.9
 21
1506.4
  0
LINE
  8
1
  6
CONTINUOUS
 62
     2
 10
636.0
 20
1818.5
 11
655.318516526
 21
1813.323619098
  0
LINE
  8
1
  6
CONTINUOUS
 62
     2
 10
636.0
 20
1818.5
 11
655.318516526
 21
1823.676380902
  0
LINE
  8
1
  6
CONTINUOUS
 62
     2
 10
636.0
 20
1818.5
 11
1039.0
 21
1818.5
  0
LINE
  8
1
  6
CONTINUOUS
 62
     2
 10
1039.0
 20
1818.5
 11
1019.681483474
 21
1823.676380902
  0
LINE
  8
1
  6
CONTINUOUS
 62
     2
 10
1039.0
 20
1818.5
 11
1019.681483474
 21
1813.323619098
  0
LINE
  8
1
  6
CONTINUOUS
 62
     2
 10
1039.0
 20
1573.0
 11
1039.0
 21
1834.5
  0
LINE
  8
1
  6
CONTINUOUS
 62
     2
 10
1006.720560018
 20
1660.0
 11
1168.4
 21
1660.0
  0
LINE
  8
1
  6
CONTINUOUS
 62
     2
 10
1152.4
 20
1660.0
 11
1147.223619098
 21
1640.681483474
  0
LINE
  8
1
  6
CONTINUOUS
 62
     2
 10
1152.4
 20
1660.0
 11
1157.576380902
 21
1640.681483474
  0
LINE
  8
1
  6
CONTINUOUS
 62
     2
 10
1152.4
 20
1660.0
 11
1152.4
 21
1450.0
  0
LINE
  8
1
  6
CONTINUOUS
 62
     2
 10
1152.4
 20
1450.0
 11
1157.576380902
 21
1469.318516526
  0
LINE
  8
1
  6
CONTINUOUS
 62
     2
 10
1152.4
 20
1450.0
 11
1147.223619098
 21
1469.318516526
  0
LINE
  8
1
  6
CONTINUOUS
 62
     2
 10
1006.720577775
 20
1450.0
 11
1168.4
 21
1450.0
  0
TEXT
  8
1
  6
CONTINUOUS
 62
     2
 10
796.7
 20
1826.5
 30
2.4
 40
28.0
  1
４０５
 50
0.0
 41
0.914285714
 51
0.0
  7
KANJI53
  0
TEXT
  8
1
  6
CONTINUOUS
 62
     2
 10
1144.4
 20
1514.2
 30
2.4
 40
28.0
  1
２１０
 50
90.0
 41
0.914285714
 51
0.0
  7
KANJI53
  0
LINE
  8
0
  6
CONTINUOUS
 62
     1
 10
869.0
 20
1455.0
 11
869.0
 21
1455.0
  0
LINE
  8
0
  6
CONTINUOUS
 62
     1
 10
702.0
 20
1455.0
 11
804.040692358
 21
1455.0
  0
LINE
  8
0
  6
CONTINUOUS
 62
     1
 10
998.720560018
 20
1450.0
 11
932.0
 21
1450.0
  0
LINE
  8
0
  6
CONTINUOUS
 62
     1
 10
919.0
 20
1660.0
 11
919.0
 21
1457.507558854
  0
LINE
  8
0
  6
CONTINUOUS
 62
     1
 10
869.0
 20
1660.0
 11
869.0
 21
1457.507558854
  0
LINE
  8
1
  6
CONTINUOUS
 62
     2
 10
1041.0
 20
1565.271490877
 11
1053.289237177
 21
1581.050421436
  0
LINE
  8
1
  6
CONTINUOUS
 62
     2
 10
1041.0
 20
1565.271490877
 11
1043.753326309
 21
1585.081064175
  0
LINE
  8
1
  6
CONTINUOUS
 62
     2
 10
1041.0
 20
1565.271490877
 11
1123.0
 21
1759.271490877
  0
LINE
  8
1
  6
CONTINUOUS
 62
     2
 10
1123.0
 20
1759.271490877
 11
1349.4
 21
1759.271490877
  0
TEXT
  8
1
  6
CONTINUOUS
 62
     3
 10
1123.0
 20
1767.271490877
 30
4.0
 40
24.0
  1
ブレーキ開放レバー
 50
0.0
 41
0.9
 51
0.0
  7
KANJI61
  0
LINE
  8
0
  6
LTYPE2
 62
     2
 10
531.0
 20
1219.0
 11
446.0
 21
1219.0
  0
LINE
  8
0
  6
LTYPE2
 62
     2
 10
521.0
 20
1429.0
 11
445.0
 21
1429.0
  0
LINE
  8
0
  6
LTYPE3
 62
     2
 10
1075.0
 20
1555.0
 11
410.0
 21
1555.0
  0
LINE
  8
0
  6
CONTINUOUS
 62
     1
 10
1533.000380412
 20
1672.009
 11
1533.000380412
 21
1690.485376915
  0
LINE
  8
0
  6
CONTINUOUS
 62
     1
 10
1533.000380412
 20
1603.450623085
 11
1533.000380412
 21
1622.009
  0
LINE
  8
1
  6
CONTINUOUS
 62
     2
 10
1680.002380412
 20
1672.009
 11
1745.000380412
 21
1672.009
  0
LINE
  8
1
  6
CONTINUOUS
 62
     2
 10
1729.000380412
 20
1672.009
 11
1723.82399951
 21
1652.690483474
  0
LINE
  8
1
  6
CONTINUOUS
 62
     2
 10
1729.000380412
 20
1672.009
 11
1734.176761315
 21
1652.690483474
  0
LINE
  8
1
  6
CONTINUOUS
 62
     2
 10
1729.000380412
 20
1672.009
 11
1729.000380412
 21
1622.009
  0
LINE
  8
1
  6
CONTINUOUS
 62
     2
 10
1729.000380412
 20
1622.009
 11
1734.176761315
 21
1641.327516526
  0
LINE
  8
1
  6
CONTINUOUS
 62
     2
 10
1729.000380412
 20
1622.009
 11
1723.82399951
 21
1641.327516526
  0
LINE
  8
1
  6
CONTINUOUS
 62
     2
 10
1680.002380412
 20
1622.009
 11
1745.000380412
 21
1622.009
  0
TEXT
  8
1
  6
CONTINUOUS
 62
     3
 10
1721.000380412
 20
1620.209
 30
2.4
 40
28.0
  1
５０
 50
90.0
 41
0.914285714
 51
0.0
  7
KANJI53
  0
TEXT
  8
0
  6
CONTINUOUS
 62
     2
 10
666.0
 20
564.8
 30
1.6
 40
24.0
  1
ＭＣＬＦ８－　　　　　５Ｊ
 50
0.0
 41
0.833333333
 51
0.0
  7
KANJI59
  0
TEXT
  8
0
  6
CONTINUOUS
 62
     2
 10
666.0
 20
620.8
 30
1.6
 40
24.0
  1
ＭＣＬＦ８ー　　　　　３Ｊ
 50
0.0
 41
0.833333333
 51
0.0
  7
KANJI59
  0
TEXT
  8
0
  6
CONTINUOUS
 62
     2
 10
666.0
 20
508.8
 30
1.6
 40
24.0
  1
ＭＣＬＦ８－　　　　　７Ｊ
 50
0.0
 41
0.833333333
 51
0.0
  7
KANJI59
  0
TEXT
  8
0
  6
CONTINUOUS
 62
     2
 10
666.0
 20
452.8
 30
1.6
 40
24.0
  1
ＭＣＬＦ８－　　　１０Ｊ
 50
0.0
 41
0.833333333
 51
0.0
  7
KANJI59
  0
TEXT
  8
0
  6
CONTINUOUS
 62
     2
 10
666.0
 20
396.8
 30
1.6
 40
24.0
  1
ＭＣＬＦ８－　　　　　　　Ｊ
 50
0.0
 41
0.833333333
 51
0.0
  7
KANJI59
  0
TEXT
  8
0
  6
CONTINUOUS
 62
     2
 10
666.0
 20
340.8
 30
1.6
 40
24.0
  1
ＭＣＬＦ８－　　　　　　　Ｊ
 50
0.0
 41
0.833333333
 51
0.0
  7
KANJI59
  0
TEXT
  8
0
  6
CONTINUOUS
 62
     2
 10
960.5
 20
620.4
 30
2.4
 40
24.0
  1
　３００
 50
0.0
 41
0.9
 51
0.0
  7
KANJI2
  0
TEXT
  8
0
  6
CONTINUOUS
 62
     2
 10
960.5
 20
564.4
 30
2.4
 40
24.0
  1
　５００
 50
0.0
 41
0.9
 51
0.0
  7
KANJI2
  0
TEXT
  8
0
  6
CONTINUOUS
 62
     2
 10
958.1
 20
507.8
 30
2.4
 40
24.0
  1
　７００
 50
0.0
 41
0.9
 51
0.0
  7
KANJI2
  0
TEXT
  8
0
  6
CONTINUOUS
 62
     2
 10
1123.002380412
 20
456.009
 30
2.4
 40
24.0
  1
２０２６
 50
0.0
 41
0.9
 51
0.0
  7
KANJI2
  0
TEXT
  8
0
  6
CONTINUOUS
 62
     2
 10
1435.002380412
 20
454.009
 30
2.4
 40
24.0
  1
１４７０
 50
0.0
 41
0.9
 51
0.0
  7
KANJI2
  0
LINE
  8
0
 62
    99
 10
956.002380412
 20
0.0
 11
956.002380412
 21
2376.0
  0
TEXT
  8
0
  6
CONTINUOUS
 62
     2
 10
953.002380412
 20
454.009
 30
2.4
 40
24.0
  1
１０００
 50
0.0
 41
0.9
 51
0.0
  7
KANJI2
  0
LINE
  8
0
 62
    99
 10
1118.002380412
 20
0.0
 11
1118.002380412
 21
2376.0
  0
LINE
  8
0
 62
    99
 10
1274.002380412
 20
0.0
 11
1274.002380412
 21
2376.0
  0
TEXT
  8
0
  6
CONTINUOUS
 62
     2
 10
1279.002380412
 20
451.009
 30
2.4
 40
24.0
  1
１８０１
 50
0.0
 41
0.9
 51
0.0
  7
KANJI2
  0
LINE
  8
0
 62
    99
 10
1613.002380412
 20
0.0
 11
1613.002380412
 21
2376.0
  0
LINE
  8
0
 62
    99
 10
1761.002380412
 20
0.0
 11
1761.002380412
 21
2376.0
  0
TEXT
  8
0
  6
CONTINUOUS
 62
     2
 10
1766.002380412
 20
451.009
 30
2.4
 40
24.0
  1
２４２
 50
0.0
 41
0.9
 51
0.0
  7
KANJI2
  0
TEXT
  8
0
  6
CONTINUOUS
 62
     2
 10
1767.002380412
 20
565.009
 30
2.4
 40
24.0
  1
２１２
 50
0.0
 41
0.9
 51
0.0
  7
KANJI2
  0
TEXT
  8
0
  6
CONTINUOUS
 62
     2
 10
1616.002380412
 20
449.009
 30
2.4
 40
24.0
  1
２３１
 50
0.0
 41
0.9
 51
0.0
  7
KANJI2
  0
TEXT
  8
0
  6
CONTINUOUS
 62
     2
 10
1438.1
 20
624.0
 30
2.4
 40
24.0
  1
　　７３０
 50
0.0
 41
0.9
 51
0.0
  7
KANJI2
  0
TEXT
  8
0
  6
CONTINUOUS
 62
     2
 10
1438.1
 20
568.0
 30
2.4
 40
24.0
  1
　　９３０
 50
0.0
 41
0.9
 51
0.0
  7
KANJI2
  0
TEXT
  8
0
  6
CONTINUOUS
 62
     2
 10
1278.5
 20
622.6
 30
2.4
 40
24.0
  1
　８８０
 50
0.0
 41
0.9
 51
0.0
  7
KANJI2
  0
TEXT
  8
0
  6
CONTINUOUS
 62
     2
 10
1587.4
 20
622.3
 30
2.4
 40
24.0
  1
　　　　５０
 50
0.0
 41
0.9
 51
0.0
  7
KANJI2
  0
TEXT
  8
0
  6
CONTINUOUS
 62
     2
 10
1612.8
 20
506.0
 30
2.4
 40
24.0
  1
１４８
 50
0.0
 41
0.9
 51
0.0
  7
KANJI2
  0
TEXT
  8
0
  6
CONTINUOUS
 62
     2
 10
1765.6
 20
509.4
 30
2.4
 40
24.0
  1
２２４
 50
0.0
 41
0.9
 51
0.0
  7
KANJI2
  0
TEXT
  8
0
  6
CONTINUOUS
 62
     2
 10
1274.002380412
 20
565.009
 30
2.4
 40
24.0
  1
１１４２
 50
0.0
 41
0.9
 51
0.0
  7
KANJI2
  0
TEXT
  8
0
  6
CONTINUOUS
 62
     2
 10
1117.7
 20
565.0
 30
2.4
 40
24.0
  1
１３６７
 50
0.0
 41
0.9
 51
0.0
  7
KANJI2
  0
TEXT
  8
0
  6
CONTINUOUS
 62
     2
 10
1433.3
 20
507.8
 30
2.4
 40
24.0
  1
１１７０
 50
0.0
 41
0.9
 51
0.0
  7
KANJI2
  0
CIRCLE
  8
0
  6
CONTINUOUS
 62
     1
 10
2086.802380412
 20
1319.009
 40
55.0
  0
LINE
  8
0
  6
LTYPE1
 62
     2
 10
2176.802380412
 20
1296.509
 11
2176.802380412
 21
1341.509
  0
LINE
  8
0
  6
LTYPE1
 62
     2
 10
2176.802380412
 20
1341.509
 11
2226.802380412
 21
1341.509
  0
LINE
  8
0
  6
LTYPE1
 62
     2
 10
2176.802380412
 20
1296.509
 11
2226.802380412
 21
1296.509
  0
LINE
  8
0
  6
CONTINUOUS
 62
     1
 10
2226.802380412
 20
1274.009
 11
2226.802380412
 21
1364.009
  0
LINE
  8
0
  6
LTYPE3
 62
     2
 10
1911.302380412
 20
1319.009
 11
2250.802380412
 21
1319.009
  0
LINE
  8
0
  6
CONTINUOUS
 62
     1
 10
2121.802380412
 20
1276.582593129
 11
2121.802380412
 21
1361.309
  0
LINE
  8
0
  6
CONTINUOUS
 62
     1
 10
2051.802380412
 20
1278.082593129
 11
2051.802380412
 21
1360.309
  0
ARC
  8
0
  6
CONTINUOUS
 62
     1
 10
2086.802380412
 20
1319.009
 40
45.0
 50
38.874498799
 51
141.540385828
  0
ARC
  8
0
  6
CONTINUOUS
 62
     1
 10
2086.802380412
 20
1319.009
 40
45.0
 50
218.942441269
 51
321.057558731
  0
LINE
  8
0
  6
LTYPE1
 62
     2
 10
2051.802380412
 20
1294.009
 11
2121.802380412
 21
1294.009
  0
LINE
  8
0
  6
LTYPE1
 62
     2
 10
2051.802380412
 20
1344.009
 11
2121.802380412
 21
1344.009
  0
LINE
  8
0
  6
CONTINUOUS
 62
     1
 10
1946.802380412
 20
1274.009
 11
1946.802380412
 21
1364.009
  0
ARC
  8
0
  6
CONTINUOUS
 62
     1
 10
1968.802380412
 20
1196.009
 40
12.0
 50
180.0
 51
270.0
  0
ARC
  8
0
  6
CONTINUOUS
 62
     1
 10
2204.802380412
 20
1196.009
 40
12.0
 50
270.0
 51
0.0
  0
LINE
  8
0
  6
LTYPE1
 62
     2
 10
1996.802380412
 20
1296.509
 11
1996.802380412
 21
1341.509
  0
LINE
  8
0
  6
LTYPE1
 62
     2
 10
1996.802380412
 20
1341.509
 11
1946.802380412
 21
1341.509
  0
LINE
  8
0
  6
LTYPE1
 62
     2
 10
1996.802380412
 20
1296.509
 11
1946.802380412
 21
1296.509
  0
LINE
  8
0
  6
CONTINUOUS
 62
     2
 10
1956.802380412
 20
1184.009
 11
1956.802380412
 21
1062.709
  0
LINE
  8
0
  6
CONTINUOUS
 62
     2
 10
1956.802380412
 20
1074.709
 11
1976.120896938
 21
1069.532619098
  0
LINE
  8
0
  6
CONTINUOUS
 62
     2
 10
1956.802380412
 20
1074.709
 11
1976.120896938
 21
1079.885380902
  0
LINE
  8
0
  6
CONTINUOUS
 62
     2
 10
1956.802380412
 20
1074.709
 11
2216.802380412
 21
1074.709
  0
LINE
  8
0
  6
CONTINUOUS
 62
     2
 10
2216.802380412
 20
1074.709
 11
2197.483863887
 21
1079.885380902
  0
LINE
  8
0
  6
CONTINUOUS
 62
     2
 10
2216.802380412
 20
1074.709
 11
2197.483863887
 21
1069.532619098
  0
LINE
  8
0
  6
CONTINUOUS
 62
     2
 10
2216.802380412
 20
1184.009
 11
2216.802380412
 21
1062.709
  0
TEXT
  8
0
  6
CONTINUOUS
 62
     2
 10
2052.802380412
 20
1082.709
 30
1.6
 40
24.0
  1
２６０
 50
0.0
 41
0.9
 51
0.0
  7
KANJI60
  0
LINE
  8
0
  6
CONTINUOUS
 62
     2
 10
1946.802380412
 20
1262.009
 11
1946.802380412
 21
967.709
  0
LINE
  8
0
  6
CONTINUOUS
 62
     2
 10
1946.802380412
 20
979.709
 11
1966.120896938
 21
974.532619098
  0
LINE
  8
0
  6
CONTINUOUS
 62
     2
 10
1946.802380412
 20
979.709
 11
1966.120896938
 21
984.885380902
  0
LINE
  8
0
  6
CONTINUOUS
 62
     2
 10
1946.802380412
 20
979.709
 11
2226.802380412
 21
979.709
  0
LINE
  8
0
  6
CONTINUOUS
 62
     2
 10
2226.802380412
 20
979.709
 11
2207.483863887
 21
984.885380902
  0
LINE
  8
0
  6
CONTINUOUS
 62
     2
 10
2226.802380412
 20
979.709
 11
2207.483863887
 21
974.532619098
  0
LINE
  8
0
  6
CONTINUOUS
 62
     2
 10
2226.802380412
 20
1262.009
 11
2226.802380412
 21
967.709
  0
TEXT
  8
0
  6
CONTINUOUS
 62
     2
 10
2052.802380412
 20
987.709
 30
1.6
 40
24.0
  1
２８０
 50
0.0
 41
0.9
 51
0.0
  7
KANJI60
  0
LINE
  8
0
  6
CONTINUOUS
 62
     1
 10
1956.802380412
 20
1196.009
 11
1956.802380412
 21
1273.134113365
  0
LINE
  8
0
  6
CONTINUOUS
 62
     1
 10
2216.802380412
 20
1196.009
 11
2216.802380412
 21
1273.134113365
  0
LINE
  8
0
  6
CONTINUOUS
 62
     1
 10
2050.717503563
 20
1425.797958525
 11
1984.071637012
 21
1369.875436482
  0
ARC
  8
0
  6
CONTINUOUS
 62
     1
 10
2053.187270422
 20
1433.744671786
 40
3.0
 50
310.0
 51
40.0
  0
LINE
  8
0
  6
CONTINUOUS
 62
     1
 10
2025.5957799
 20
1471.294101221
 11
2055.485403751
 21
1435.673034616
  0
ARC
  8
0
  6
CONTINUOUS
 62
     1
 10
2024.829735457
 20
1470.651313611
 40
1.0
 50
40.0
 51
130.0
  0
ARC
  8
0
  6
CONTINUOUS
 62
     1
 10
2021.888814518
 20
1469.488995225
 40
1.0
 50
40.0
 51
130.0
  0
ARC
  8
0
  6
CONTINUOUS
 62
     1
 10
1979.647003882
 20
1372.037061257
 40
3.0
 50
220.0
 51
310.0
  0
LINE
  8
0
  6
CONTINUOUS
 62
     1
 10
1947.459246702
 20
1405.729765033
 11
1977.348870553
 21
1370.108698428
  0
ARC
  8
0
  6
CONTINUOUS
 62
     1
 10
1948.225291145
 20
1406.372552642
 40
1.0
 50
130.0
 51
220.0
  0
ARC
  8
0
  6
CONTINUOUS
 62
     1
 10
1949.880636865
 20
1409.066959914
 40
1.0
 50
130.0
 51
220.0
  0
LINE
  8
0
  6
CONTINUOUS
 62
     1
 10
1950.673184751
 20
1401.899542817
 11
2028.809717949
 21
1467.463879005
  0
LINE
  8
0
  6
CONTINUOUS
 62
     1
 10
1951.637366165
 20
1400.750476152
 11
2029.773899363
 21
1466.31481234
  0
LINE
  8
0
  6
CONTINUOUS
 62
     1
 10
2055.115633251
 20
1431.446538457
 11
1981.575366711
 21
1369.738927927
  0
LINE
  8
0
  6
CONTINUOUS
 62
     1
 10
1949.237849255
 20
1409.833004358
 11
2021.246026909
 21
1470.255039668
  0
LINE
  8
0
  6
CONTINUOUS
 62
     1
 10
1947.582503536
 20
1407.138597085
 11
2024.186947848
 21
1471.417358054
  0
LINE
  8
0
  6
LTYPE2
 62
     2
 10
1948.391623986
 20
1413.952944016
 11
1960.411752287
 21
1399.62791293
  0
LINE
  8
0
  6
LTYPE2
 62
     2
 10
2017.335623867
 20
1471.803828888
 11
2029.355752168
 21
1457.478797802
  0
LINE
  8
0
  6
CONTINUOUS
 62
     1
 10
1956.802380412
 20
1364.883886635
 11
1956.802380412
 21
1394.943666527
  0
LINE
  8
0
  6
LTYPE3
 62
     2
 10
1986.388737711
 20
1407.718415281
 11
2017.566746546
 21
1433.879870995
  0
LINE
  8
0
  6
LTYPE3
 62
     2
 10
1991.340385529
 20
1432.776175359
 11
2020.370280951
 21
1398.179693196
  0
CIRCLE
  8
0
  6
CONTINUOUS
 62
     2
 10
2001.633022129
 20
1420.509888713
 40
10.4775
  0
CIRCLE
  8
0
  6
CONTINUOUS
 62
     2
 10
2001.633022129
 20
1420.509888713
 40
9.3155
  0
LINE
  8
0
  6
CONTINUOUS
 62
     2
 10
1934.802380412
 20
1341.509
 11
1866.309681395
 21
1341.509
  0
LINE
  8
0
  6
CONTINUOUS
 62
     2
 10
1878.309681395
 20
1341.509
 11
1883.486062297
 21
1360.827516526
  0
LINE
  8
0
  6
CONTINUOUS
 62
     2
 10
1878.309681395
 20
1341.509
 11
1873.133300493
 21
1360.827516526
  0
LINE
  8
0
  6
CONTINUOUS
 62
     2
 10
1878.309681395
 20
1439.509
 11
1878.309681395
 21
1266.509
  0
LINE
  8
0
  6
CONTINUOUS
 62
     2
 10
1878.309681395
 20
1296.509
 11
1873.133300493
 21
1277.190483474
  0
LINE
  8
0
  6
CONTINUOUS
 62
     2
 10
1878.309681395
 20
1296.509
 11
1883.486062297
 21
1277.190483474
  0
LINE
  8
0
  6
CONTINUOUS
 62
     2
 10
1934.802380412
 20
1296.509
 11
1866.309681395
 21
1296.509
  0
TEXT
  8
0
  6
CONTINUOUS
 62
     2
 10
1870.309681395
 20
1371.509
 30
1.6
 40
24.0
  1
φ４５Ｈ１０深さ５０
 50
90.0
 41
0.9
 51
0.0
  7
KANJI60
  0
LINE
  8
0
  6
CONTINUOUS
 62
     1
 10
2050.717503563
 20
1425.797958525
 11
2062.717503563
 21
1413.797958525
  0
CIRCLE
  8
0
  6
CONTINUOUS
 62
     1
 10
2086.802380412
 20
1319.009
 40
90.0
  0
LINE
  8
0
  6
CONTINUOUS
 62
     1
 10
2086.802380412
 20
1184.009
 11
2204.802380412
 21
1184.009
  0
LINE
  8
0
  6
CONTINUOUS
 62
     1
 10
1968.802380412
 20
1184.009
 11
2086.802380412
 21
1184.009
  0
CIRCLE
  8
0
  6
CONTINUOUS
 62
     1
 10
2086.802380412
 20
1319.009
 40
100.0
  0
LINE
  8
0
  6
CONTINUOUS
 62
     1
 10
2226.802380412
 20
1364.009
 11
2173.603598441
 21
1368.663290336
  0
LINE
  8
0
  6
CONTINUOUS
 62
     1
 10
2226.802380412
 20
1274.009
 11
2173.603598441
 21
1269.354709664
  0
LINE
  8
0
  6
CONTINUOUS
 62
     1
 10
1946.802380412
 20
1364.009
 11
2000.001162384
 21
1368.663290336
  0
LINE
  8
0
  6
CONTINUOUS
 62
     1
 10
1946.802380412
 20
1274.009
 11
2000.001162384
 21
1269.354709664
  0
LINE
  8
1
  6
CONTINUOUS
 62
     2
 10
1844.002380412
 20
1693.309
 11
1844.252380412
 21
1693.309
  0
LINE
  8
1
  6
CONTINUOUS
 62
     2
 10
1844.002380412
 20
1643.309
 11
1844.252380412
 21
1643.309
  0
LINE
  8
0
  6
LTYPE5
 62
     2
 10
2086.802380412
 20
1465.009
 11
2086.802380412
 21
1479.009
  0
LINE
  8
0
  6
LTYPE5
 62
     2
 10
2086.802380412
 20
1419.009
 11
2086.802380412
 21
1746.214692517
  0
LINE
  8
0
  6
LTYPE5
 62
     2
 10
1939.802380412
 20
1550.009
 11
2244.802380412
 21
1550.009
  0
LINE
  8
0
  6
CONTINUOUS
 62
     1
 10
2216.802380412
 20
1364.883886635
 11
2216.802380412
 21
1479.009
  0
LINE
  8
0
  6
CONTINUOUS
 62
     1
 10
2216.802380412
 20
1419.009
 11
2216.802380412
 21
1624.842147735
  0
LINE
  8
0
  6
CONTINUOUS
 62
     1
 10
1956.802380412
 20
1416.443666527
 11
1956.802380412
 21
1479.009
  0
LINE
  8
0
  6
CONTINUOUS
 62
     1
 10
1956.802380412
 20
1419.009
 11
1956.802380412
 21
1624.842147735
  0
LINE
  8
0
  6
LTYPE3
 62
     2
 10
2086.802380412
 20
1127.309
 11
2086.802380412
 21
1479.009
  0
LINE
  8
0
  6
LTYPE3
 62
     2
 10
2086.802380412
 20
1419.009
 11
2086.802380412
 21
1476.109
  0
ARC
  8
0
  6
CONTINUOUS
 62
     1
 10
2086.802380412
 20
1550.009
 40
125.0
 50
280.557968545
 51
0.0
  0
ARC
  8
0
  6
CONTINUOUS
 62
     1
 10
2123.802380412
 20
1733.714692517
 40
3.0
 50
0.0
 51
90.0
  0
ARC
  8
0
  6
CONTINUOUS
 62
     1
 10
2130.802380412
 20
1736.714692517
 40
6.0
 50
0.0
 51
90.0
  0
ARC
  8
0
  6
CONTINUOUS
 62
     1
 10
2130.802380412
 20
1741.009
 40
6.0
 50
0.0
 51
90.0
  0
LINE
  8
0
  6
CONTINUOUS
 62
     1
 10
2130.802380412
 20
1747.009
 11
2086.802380412
 21
1747.009
  0
LINE
  8
0
  6
CONTINUOUS
 62
     1
 10
2086.802380412
 20
1742.714692517
 11
2130.802380412
 21
1742.714692517
  0
LINE
  8
0
  6
CONTINUOUS
 62
     1
 10
2086.802380412
 20
1736.714692517
 11
2123.802380412
 21
1736.714692517
  0
ARC
  8
0
  6
CONTINUOUS
 62
     1
 10
2049.802380412
 20
1733.714692517
 40
3.0
 50
90.0
 51
180.0
  0
ARC
  8
0
  6
CONTINUOUS
 62
     1
 10
2042.802380412
 20
1736.714692517
 40
6.0
 50
90.0
 51
180.0
  0
ARC
  8
0
  6
CONTINUOUS
 62
     1
 10
2042.802380412
 20
1741.009
 40
6.0
 50
90.0
 51
180.0
  0
LINE
  8
0
  6
CONTINUOUS
 62
     1
 10
2042.802380412
 20
1747.009
 11
2086.802380412
 21
1747.009
  0
LINE
  8
0
  6
CONTINUOUS
 62
     1
 10
2086.802380412
 20
1742.714692517
 11
2042.802380412
 21
1742.714692517
  0
LINE
  8
0
  6
CONTINUOUS
 62
     1
 10
2086.802380412
 20
1736.714692517
 11
2049.802380412
 21
1736.714692517
  0
CIRCLE
  8
0
  6
CONTINUOUS
 62
     1
 10
2086.802380412
 20
1550.009
 40
20.0
  0
ARC
  8
0
  6
CONTINUOUS
 62
     1
 10
2001.802380412
 20
1550.009
 40
20.0
 50
90.0
 51
270.0
  0
ARC
  8
0
  6
CONTINUOUS
 62
     1
 10
2129.302380412
 20
1476.396840678
 40
20.0
 50
210.0
 51
30.0
  0
ARC
  8
0
  6
CONTINUOUS
 62
     1
 10
2129.302380412
 20
1623.621159322
 40
20.0
 50
330.0
 51
150.0
  0
LINE
  8
0
  6
CONTINUOUS
 62
     1
 10
2001.802380412
 20
1570.009
 11
2075.255375029
 21
1570.009
  0
LINE
  8
0
  6
CONTINUOUS
 62
     1
 10
2111.981872337
 20
1633.621159322
 11
2075.255375029
 21
1570.009
  0
LINE
  8
0
  6
CONTINUOUS
 62
     1
 10
2001.802380412
 20
1530.009
 11
2075.255375029
 21
1530.009
  0
LINE
  8
0
  6
CONTINUOUS
 62
     1
 10
2111.981872337
 20
1466.396840678
 11
2075.255375029
 21
1530.009
  0
CIRCLE
  8
0
  6
CONTINUOUS
 62
     1
 10
2146.802380412
 20
1550.009
 40
10.0
  0
LINE
  8
0
  6
CONTINUOUS
 62
     2
 10
2146.802380412
 20
1565.009
 11
2146.802380412
 21
1535.009
  0
LINE
  8
0
  6
CONTINUOUS
 62
     1
 10
2090.135713746
 20
1530.288734056
 11
2148.469047079
 21
1540.148867028
  0
LINE
  8
0
  6
CONTINUOUS
 62
     1
 10
2090.135713746
 20
1569.729265944
 11
2148.469047079
 21
1559.869132972
  0
LINE
  8
0
  6
CONTINUOUS
 62
     1
 10
2146.622888488
 20
1613.621159322
 11
2118.512592251
 21
1564.932698023
  0
LINE
  8
0
  6
CONTINUOUS
 62
     1
 10
2146.622888488
 20
1486.396840678
 11
2118.512592251
 21
1535.085301977
  0
ARC
  8
0
  6
CONTINUOUS
 62
     1
 10
2162.81635939
 20
1626.022978978
 40
7.75
 50
294.214141675
 51
155.785858325
  0
LINE
  8
0
  6
CONTINUOUS
 62
     2
 10
2156.802380412
 20
1620.009
 11
2169.748212824
 21
1632.954832412
  0
ARC
  8
0
  6
CONTINUOUS
 62
     2
 10
2086.802380412
 20
1550.009
 40
107.5
 50
38.280925788
 51
51.325228591
  0
ARC
  8
0
  6
CONTINUOUS
 62
     1
 10
2162.81635939
 20
1473.995021022
 40
7.75
 50
204.214141675
 51
65.785858325
  0
LINE
  8
0
  6
CONTINUOUS
 62
     2
 10
2156.802380412
 20
1480.009
 11
2169.748212824
 21
1467.063167588
  0
ARC
  8
0
  6
CONTINUOUS
 62
     2
 10
2086.802380412
 20
1550.009
 40
107.5
 50
308.674771409
 51
321.719074212
  0
ARC
  8
0
  6
CONTINUOUS
 62
     1
 10
2010.788401435
 20
1626.022978978
 40
7.75
 50
24.214141675
 51
245.785858325
  0
LINE
  8
0
  6
CONTINUOUS
 62
     2
 10
2016.802380412
 20
1620.009
 11
2003.856548
 21
1632.954832412
  0
ARC
  8
0
  6
CONTINUOUS
 62
     2
 10
2086.802380412
 20
1550.009
 40
107.5
 50
128.674771409
 51
141.719074212
  0
ARC
  8
0
  6
CONTINUOUS
 62
     1
 10
2010.788401435
 20
1473.995021022
 40
7.75
 50
114.214141675
 51
335.785858325
  0
LINE
  8
0
  6
CONTINUOUS
 62
     2
 10
2016.802380412
 20
1480.009
 11
2003.856548
 21
1467.063167588
  0
ARC
  8
0
  6
CONTINUOUS
 62
     2
 10
2086.802380412
 20
1550.009
 40
107.5
 50
218.280925788
 51
231.325228591
  0
ARC
  8
0
  6
CONTINUOUS
 62
     1
 10
2086.802380412
 20
1550.009
 40
105.0
 50
272.980462591
 51
0.0
  0
ARC
  8
0
  6
CONTINUOUS
 62
     1
 10
2086.802380412
 20
1550.009
 40
105.0
 50
0.0
 51
226.520053773
  0
ARC
  8
0
  6
CONTINUOUS
 62
     1
 10
2123.802380412
 20
1671.709
 40
3.0
 50
270.0
 51
0.0
  0
ARC
  8
0
  6
CONTINUOUS
 62
     1
 10
2130.802380412
 20
1677.709
 40
6.0
 50
270.0
 51
0.0
  0
LINE
  8
0
  6
CONTINUOUS
 62
     1
 10
2126.802380412
 20
1671.709
 11
2130.802380412
 21
1671.709
  0
LINE
  8
0
  6
CONTINUOUS
 62
     1
 10
2086.802380412
 20
1668.709
 11
2123.802380412
 21
1668.709
  0
ARC
  8
0
  6
CONTINUOUS
 62
     1
 10
2049.802380412
 20
1671.709
 40
3.0
 50
180.0
 51
270.0
  0
ARC
  8
0
  6
CONTINUOUS
 62
     1
 10
2042.802380412
 20
1677.709
 40
6.0
 50
180.0
 51
270.0
  0
LINE
  8
0
  6
CONTINUOUS
 62
     1
 10
2046.802380412
 20
1671.709
 11
2042.802380412
 21
1671.709
  0
LINE
  8
0
  6
CONTINUOUS
 62
     1
 10
2086.802380412
 20
1668.709
 11
2049.802380412
 21
1668.709
  0
LINE
  8
0
  6
CONTINUOUS
 62
     1
 10
2106.802380412
 20
1653.08664064
 11
2106.802380412
 21
1668.709
  0
LINE
  8
0
  6
CONTINUOUS
 62
     1
 10
2066.802380412
 20
1653.08664064
 11
2066.802380412
 21
1668.709
  0
LINE
  8
0
  6
CONTINUOUS
 62
     1
 10
2136.802380412
 20
1677.709
 11
2136.802380412
 21
1741.009
  0
LINE
  8
0
  6
CONTINUOUS
 62
     1
 10
2126.802380412
 20
1672.209
 11
2126.802380412
 21
1733.714692517
  0
LINE
  8
0
  6
CONTINUOUS
 62
     1
 10
2046.802380412
 20
1672.209
 11
2046.802380412
 21
1733.714692517
  0
LINE
  8
0
  6
CONTINUOUS
 62
     1
 10
2036.802380412
 20
1678.209
 11
2036.802380412
 21
1741.009
  0
CIRCLE
  8
0
  6
CONTINUOUS
 62
     1
 10
2086.802380412
 20
1700.009
 40
20.0
  0
CIRCLE
  8
0
  6
CONTINUOUS
 62
     2
 10
2086.802380412
 20
1700.009
 40
13.5
  0
CIRCLE
  8
0
  6
CONTINUOUS
 62
     2
 10
2086.802380412
 20
1700.009
 40
15.0
  0
LINE
  8
0
  6
LTYPE2
 62
     2
 10
2056.302380412
 20
1700.009
 11
2115.802380412
 21
1700.009
  0
CIRCLE
  8
0
  6
CONTINUOUS
 62
     1
 10
2086.802380412
 20
1565.009
 40
4.0
  0
CIRCLE
  8
0
  6
CONTINUOUS
 62
     1
 10
2086.802380412
 20
1550.009
 40
4.0
  0
CIRCLE
  8
0
  6
CONTINUOUS
 62
     1
 10
2071.802380412
 20
1550.009
 40
4.0
  0
CIRCLE
  8
0
  6
CONTINUOUS
 62
     1
 10
2086.802380412
 20
1535.009
 40
4.0
  0
CIRCLE
  8
0
  6
CONTINUOUS
 62
     1
 10
2101.802380412
 20
1550.009
 40
4.0
  0
ARC
  8
0
  6
CONTINUOUS
 62
     1
 10
2086.802380412
 20
1550.009
 40
125.0
 50
0.0
 51
72.687211164
  0
ARC
  8
0
  6
CONTINUOUS
 62
     1
 10
2086.802380412
 20
1550.009
 40
150.0
 50
109.471220634
 51
150.073565133
  0
ARC
  8
0
  6
CONTINUOUS
 62
     1
 10
2086.802380412
 20
1550.009
 40
150.0
 50
29.926434867
 51
70.528779366
  0
ARC
  8
0
  6
CONTINUOUS
 62
     1
 10
2086.802380412
 20
1550.009
 40
125.0
 50
255.145173981
 51
280.557968545
  0
ARC
  8
0
  6
CONTINUOUS
 62
     1
 10
2086.802380412
 20
1550.009
 40
125.0
 50
107.31277541
 51
228.722566178
  0
ARC
  8
0
  6
CONTINUOUS
 62
     1
 10
2086.802380412
 20
1550.009
 40
105.0
 50
241.810391894
 51
272.980462591
  0
ARC
  8
0
  6
CONTINUOUS
 62
     1
 10
2086.802380412
 20
1550.009
 40
105.0
 50
226.520053773
 51
230.380400035
  0
LINE
  8
1
  6
CONTINUOUS
 62
     2
 10
2224.802380412
 20
1550.009
 11
2313.802380412
 21
1550.009
  0
LINE
  8
1
  6
CONTINUOUS
 62
     2
 10
2297.802380412
 20
1550.009
 11
2292.62599951
 21
1530.690483474
  0
LINE
  8
1
  6
CONTINUOUS
 62
     2
 10
2297.802380412
 20
1550.009
 11
2302.978761315
 21
1530.690483474
  0
LINE
  8
1
  6
CONTINUOUS
 62
     2
 10
2297.802380412
 20
1550.009
 11
2297.802380412
 21
1319.009
  0
LINE
  8
1
  6
CONTINUOUS
 62
     2
 10
2297.802380412
 20
1319.009
 11
2302.978761315
 21
1338.327516526
  0
LINE
  8
1
  6
CONTINUOUS
 62
     2
 10
2297.802380412
 20
1319.009
 11
2292.62599951
 21
1338.327516526
  0
LINE
  8
1
  6
CONTINUOUS
 62
     2
 10
2234.802380412
 20
1319.009
 11
2313.802380412
 21
1319.009
  0
TEXT
  8
1
  6
CONTINUOUS
 62
     3
 10
2289.802380412
 20
1393.709
 30
2.4
 40
28.0
  1
２３１
 50
90.0
 41
0.914285714
 51
0.0
  7
KANJI53
  0
LINE
  8
1
  6
CONTINUOUS
 62
     2
 10
2297.802380412
 20
1550.009
 11
2302.978761315
 21
1569.327516526
  0
LINE
  8
1
  6
CONTINUOUS
 62
     2
 10
2297.802380412
 20
1550.009
 11
2292.62599951
 21
1569.327516526
  0
LINE
  8
1
  6
CONTINUOUS
 62
     2
 10
2297.802380412
 20
1550.009
 11
2297.802380412
 21
1747.009
  0
LINE
  8
1
  6
CONTINUOUS
 62
     2
 10
2297.802380412
 20
1747.009
 11
2292.62599951
 21
1727.690483474
  0
LINE
  8
1
  6
CONTINUOUS
 62
     2
 10
2297.802380412
 20
1747.009
 11
2302.978761315
 21
1727.690483474
  0
LINE
  8
1
  6
CONTINUOUS
 62
     2
 10
2094.802380412
 20
1747.009
 11
2313.802380412
 21
1747.009
  0
TEXT
  8
1
  6
CONTINUOUS
 62
     3
 10
2289.802380412
 20
1607.709
 30
2.4
 40
28.0
  1
１９７
 50
90.0
 41
0.914285714
 51
0.0
  7
KANJI53
  0
LINE
  8
1
  6
CONTINUOUS
 62
     2
 10
2297.802380412
 20
1319.009
 11
2292.62599951
 21
1299.690483474
  0
LINE
  8
1
  6
CONTINUOUS
 62
     2
 10
2297.802380412
 20
1319.009
 11
2302.978761315
 21
1299.690483474
  0
LINE
  8
1
  6
CONTINUOUS
 62
     2
 10
2297.802380412
 20
1319.009
 11
2297.802380412
 21
1184.009
  0
LINE
  8
1
  6
CONTINUOUS
 62
     2
 10
2297.802380412
 20
1184.009
 11
2302.978761315
 21
1203.327516526
  0
LINE
  8
1
  6
CONTINUOUS
 62
     2
 10
2297.802380412
 20
1184.009
 11
2292.62599951
 21
1203.327516526
  0
LINE
  8
1
  6
CONTINUOUS
 62
     2
 10
2187.802380412
 20
1184.009
 11
2313.802380412
 21
1184.009
  0
TEXT
  8
1
  6
CONTINUOUS
 62
     3
 10
2289.802380412
 20
1210.709
 30
2.4
 40
28.0
  1
１３５
 50
90.0
 41
0.914285714
 51
0.0
  7
KANJI53
  0
LINE
  8
1
  6
CONTINUOUS
 62
     2
 10
2094.802380412
 20
1747.009
 11
2383.802380412
 21
1747.009
  0
LINE
  8
1
  6
CONTINUOUS
 62
     2
 10
2367.802380412
 20
1747.009
 11
2362.62599951
 21
1727.690483474
  0
LINE
  8
1
  6
CONTINUOUS
 62
     2
 10
2367.802380412
 20
1747.009
 11
2372.978761315
 21
1727.690483474
  0
LINE
  8
1
  6
CONTINUOUS
 62
     2
 10
2367.802380412
 20
1747.009
 11
2367.802380412
 21
1184.009
  0
LINE
  8
1
  6
CONTINUOUS
 62
     2
 10
2367.802380412
 20
1184.009
 11
2372.978761315
 21
1203.327516526
  0
LINE
  8
1
  6
CONTINUOUS
 62
     2
 10
2367.802380412
 20
1184.009
 11
2362.62599951
 21
1203.327516526
  0
LINE
  8
1
  6
CONTINUOUS
 62
     2
 10
2112.802380412
 20
1184.009
 11
2383.802380412
 21
1184.009
  0
TEXT
  8
1
  6
CONTINUOUS
 62
     3
 10
2359.802380412
 20
1424.709
 30
2.4
 40
28.0
  1
５６３
 50
90.0
 41
0.914285714
 51
0.0
  7
KANJI53
  0
TEXT
  8
0
  6
CONTINUOUS
 62
     2
 10
2956.802380412
 20
1902.009
 30
2.4
 40
24.0
  1
７８．４ＫＮ（８ｔｏｎ）
 50
0.0
 41
0.9
 51
0.0
  7
KANJI2
  0
TEXT
  8
0
  6
CONTINUOUS
 62
     2
 10
2999.2
 20
1676.2
 30
20.5
 40
28.0
  1
全閉屋外形
 50
0.0
 41
0.9
 51
0.0
  7
KANJI37
  0
TEXT
  8
0
  6
CONTINUOUS
 62
     2
 10
1274.002380412
 20
512.009
 30
2.4
 40
24.0
  1
１４１８
 50
0.0
 41
0.9
 51
0.0
  7
KANJI2
  0
TEXT
  8
0
  6
CONTINUOUS
 62
     2
 10
1119.002380412
 20
507.009
 30
2.4
 40
24.0
  1
１６４３
 50
0.0
 41
0.9
 51
0.0
  7
KANJI2
  0
LINE
  8
0
  6
CONTINUOUS
 62
     1
 10
2173.333416
 20
541.1999696
 11
3241.0666672
 21
541.1999696
  0
LINE
  8
0
  6
CONTINUOUS
 62
     6
 10
2173.333416
 20
102.9333328
 11
2173.333416
 21
541.1999696
  0
LINE
  8
0
  6
CONTINUOUS
 62
     1
 10
2373.333416
 20
435.7333072
 11
2373.333416
 21
541.1999696
  0
TEXT
  8
0
  6
CONTINUOUS
 62
     1
 10
2214.0
 20
501.0
 30
2.4
 40
28.0
  1
客　先　名
 50
0.0
 41
0.857142857
 51
0.0
  7
KANJI62
  0
TEXT
  8
0
  6
CONTINUOUS
 62
     1
 10
2214.0
 20
451.0
 30
2.4
 40
28.0
  1
御　用　途
 50
0.0
 41
0.857142857
 51
0.0
  7
KANJI62
  0
LINE
  8
1
  6
CONTINUOUS
 62
     2
 10
1978.0
 20
1392.0
 11
1967.081761624
 21
1375.243148543
  0
LINE
  8
1
  6
CONTINUOUS
 62
     2
 10
1978.0
 20
1392.0
 11
1976.92295393
 21
1372.029021762
  0
LINE
  8
1
  6
CONTINUOUS
 62
     2
 10
1978.0
 20
1392.0
 11
1881.0
 21
1095.0
  0
LINE
  8
1
  6
CONTINUOUS
 62
     2
 10
1881.0
 20
1095.0
 11
1741.0
 21
1095.0
  0
TEXT
  8
1
  6
CONTINUOUS
 62
     3
 10
1741.0
 20
1103.0
 30
8.0
 40
24.0
  1
ＰＦ１／２
 50
0.0
 41
0.9
 51
0.0
  7
KANJI63
  0
TEXT
  8
0
  6
CONTINUOUS
 62
     2
 10
3107.0
 20
1732.0
 30
0.1792
 40
22.4
  1
（２２　　ｋｇｍ）
 50
0.0
 41
0.8
 51
0.0
  7
KANJI52
  0
TEXT
  8
0
  6
CONTINUOUS
 62
     2
 10
2976.0
 20
1730.0
 30
2.4
 40
24.0
  1
２１６Ｎ　　
 50
0.0
 41
0.9
 51
0.0
  7
KANJI2
  0
LINE
  8
1
  6
CONTINUOUS
 62
     2
 10
925.0
 20
1705.0
 11
937.672832398
 21
1720.472534343
  0
LINE
  8
1
  6
CONTINUOUS
 62
     2
 10
925.0
 20
1705.0
 11
928.238727623
 21
1724.736024001
  0
LINE
  8
1
  6
CONTINUOUS
 62
     2
 10
925.0
 20
1705.0
 11
1019.0
 21
1913.0
  0
LINE
  8
1
  6
CONTINUOUS
 62
     2
 10
1019.0
 20
1913.0
 11
1159.0
 21
1913.0
  0
TEXT
  8
1
  6
CONTINUOUS
 62
     3
 10
1019.0
 20
1921.0
 30
8.0
 40
24.0
  1
ＰＦ３／４
 50
0.0
 41
0.9
 51
0.0
  7
KANJI63
  0
LINE
  8
0
  6
LTYPE2
 62
     2
 10
958.0
 20
1705.0
 11
888.256580424
 21
1705.0
  0
ENDSEC
  0
EOF
