  0
SECTION
  2
HEADER
  9
$EXTMIN
 10
0.0
 20
0.0
 30
0.0
  9
$EXTMAX
 10
3360.0
 20
2376.0
 30
0.0
  9
$LIMMIN
 10
0.0
 20
0.0
  9
$LIMMAX
 10
3360.0
 20
2376.0
  9
$LTSCALE
 40
1.0
  9
$PDMODE
 70
     0
  0
ENDSEC
  0
SECTION
  2
TABLES
  0
TABLE
  2
LTYPE
 70
     6
  0
LTYPE
  2
CONTINUOUS
 70
    64
  3
Solid line
 72
    65
 73
     0
 40
0.0
  0
LTYPE
  2
LTYPE1
 70
    64
  3
HIDDEN
 72
    65
 73
     2
 40
24.0
 49
14.4
 49
-9.6
  0
LTYPE
  2
LTYPE2
 70
    64
  3
CENTER
 72
    65
 73
     4
 40
80.0
 49
56.0
 49
-8.0
 49
8.0
 49
-8.0
  0
LTYPE
  2
LTYPE3
 70
    64
  3
CENTER
 72
    65
 73
     4
 40
120.0
 49
84.0
 49
-12.0
 49
12.0
 49
-12.0
  0
LTYPE
  2
LTYPE4
 70
    64
  3
PHANTOM
 72
    65
 73
     6
 40
120.0
 49
90.0
 49
-6.0
 49
6.0
 49
-6.0
 49
6.0
 49
-6.0
  0
LTYPE
  2
LTYPE5
 70
    64
  3
CENTER
 72
    65
 73
     4
 40
160.0
 49
112.0
 49
-16.0
 49
16.0
 49
-16.0
  0
ENDTAB
  0
TABLE
  2
LAYER
 70
   128
  0
LAYER
  2
0
 70
     0
 62
     7
  6
CONTINUOUS
  0
LAYER
  2
2
 70
     0
 62
     7
  6
CONTINUOUS
  0
LAYER
  2
3
 70
     0
 62
     7
  6
CONTINUOUS
  0
LAYER
  2
4
 70
     0
 62
     7
  6
CONTINUOUS
  0
LAYER
  2
5
 70
     0
 62
     7
  6
CONTINUOUS
  0
LAYER
  2
6
 70
     0
 62
     7
  6
CONTINUOUS
  0
LAYER
  2
7
 70
     0
 62
     7
  6
CONTINUOUS
  0
LAYER
  2
8
 70
     0
 62
     7
  6
CONTINUOUS
  0
LAYER
  2
9
 70
     0
 62
     7
  6
CONTINUOUS
  0
LAYER
  2
10
 70
     0
 62
     7
  6
CONTINUOUS
  0
LAYER
  2
11
 70
     0
 62
     7
  6
CONTINUOUS
  0
LAYER
  2
12
 70
     0
 62
     7
  6
CONTINUOUS
  0
LAYER
  2
13
 70
     0
 62
     7
  6
CONTINUOUS
  0
LAYER
  2
14
 70
     0
 62
     7
  6
CONTINUOUS
  0
LAYER
  2
15
 70
     0
 62
     7
  6
CONTINUOUS
  0
LAYER
  2
16
 70
     0
 62
     7
  6
CONTINUOUS
  0
LAYER
  2
17
 70
     0
 62
     7
  6
CONTINUOUS
  0
LAYER
  2
18
 70
     0
 62
     7
  6
CONTINUOUS
  0
LAYER
  2
19
 70
     0
 62
     7
  6
CONTINUOUS
  0
LAYER
  2
20
 70
     0
 62
     7
  6
CONTINUOUS
  0
LAYER
  2
21
 70
     0
 62
     7
  6
CONTINUOUS
  0
LAYER
  2
22
 70
     0
 62
     7
  6
CONTINUOUS
  0
LAYER
  2
23
 70
     0
 62
     7
  6
CONTINUOUS
  0
LAYER
  2
24
 70
     0
 62
     7
  6
CONTINUOUS
  0
LAYER
  2
25
 70
     0
 62
     7
  6
CONTINUOUS
  0
LAYER
  2
26
 70
     0
 62
     7
  6
CONTINUOUS
  0
LAYER
  2
27
 70
     0
 62
     7
  6
CONTINUOUS
  0
LAYER
  2
28
 70
     0
 62
     7
  6
CONTINUOUS
  0
LAYER
  2
29
 70
     0
 62
     7
  6
CONTINUOUS
  0
LAYER
  2
30
 70
     0
 62
     7
  6
CONTINUOUS
  0
LAYER
  2
31
 70
     0
 62
     7
  6
CONTINUOUS
  0
LAYER
  2
32
 70
     0
 62
     7
  6
CONTINUOUS
  0
LAYER
  2
33
 70
     0
 62
     7
  6
CONTINUOUS
  0
LAYER
  2
34
 70
     0
 62
     7
  6
CONTINUOUS
  0
LAYER
  2
35
 70
     0
 62
     7
  6
CONTINUOUS
  0
LAYER
  2
36
 70
     0
 62
     7
  6
CONTINUOUS
  0
LAYER
  2
37
 70
     0
 62
     7
  6
CONTINUOUS
  0
LAYER
  2
38
 70
     0
 62
     7
  6
CONTINUOUS
  0
LAYER
  2
39
 70
     0
 62
     7
  6
CONTINUOUS
  0
LAYER
  2
40
 70
     0
 62
     7
  6
CONTINUOUS
  0
LAYER
  2
41
 70
     0
 62
     7
  6
CONTINUOUS
  0
LAYER
  2
42
 70
     0
 62
     7
  6
CONTINUOUS
  0
LAYER
  2
43
 70
     0
 62
     7
  6
CONTINUOUS
  0
LAYER
  2
44
 70
     0
 62
     7
  6
CONTINUOUS
  0
LAYER
  2
45
 70
     0
 62
     7
  6
CONTINUOUS
  0
LAYER
  2
46
 70
     0
 62
     7
  6
CONTINUOUS
  0
LAYER
  2
47
 70
     0
 62
     7
  6
CONTINUOUS
  0
LAYER
  2
48
 70
     0
 62
     7
  6
CONTINUOUS
  0
LAYER
  2
49
 70
     0
 62
     7
  6
CONTINUOUS
  0
LAYER
  2
50
 70
     0
 62
     7
  6
CONTINUOUS
  0
LAYER
  2
51
 70
     0
 62
     7
  6
CONTINUOUS
  0
LAYER
  2
52
 70
     0
 62
     7
  6
CONTINUOUS
  0
LAYER
  2
53
 70
     0
 62
     7
  6
CONTINUOUS
  0
LAYER
  2
54
 70
     0
 62
     7
  6
CONTINUOUS
  0
LAYER
  2
55
 70
     0
 62
     7
  6
CONTINUOUS
  0
LAYER
  2
56
 70
     0
 62
     7
  6
CONTINUOUS
  0
LAYER
  2
57
 70
     0
 62
     7
  6
CONTINUOUS
  0
LAYER
  2
58
 70
     0
 62
     7
  6
CONTINUOUS
  0
LAYER
  2
59
 70
     0
 62
     7
  6
CONTINUOUS
  0
LAYER
  2
60
 70
     0
 62
     7
  6
CONTINUOUS
  0
LAYER
  2
61
 70
     0
 62
     7
  6
CONTINUOUS
  0
LAYER
  2
62
 70
     0
 62
     7
  6
CONTINUOUS
  0
LAYER
  2
63
 70
     0
 62
     7
  6
CONTINUOUS
  0
LAYER
  2
64
 70
     0
 62
     7
  6
CONTINUOUS
  0
LAYER
  2
65
 70
     0
 62
     7
  6
CONTINUOUS
  0
LAYER
  2
66
 70
     0
 62
     7
  6
CONTINUOUS
  0
LAYER
  2
67
 70
     0
 62
     7
  6
CONTINUOUS
  0
LAYER
  2
68
 70
     0
 62
     7
  6
CONTINUOUS
  0
LAYER
  2
69
 70
     0
 62
     7
  6
CONTINUOUS
  0
LAYER
  2
70
 70
     0
 62
     7
  6
CONTINUOUS
  0
LAYER
  2
71
 70
     0
 62
     7
  6
CONTINUOUS
  0
LAYER
  2
72
 70
     0
 62
     7
  6
CONTINUOUS
  0
LAYER
  2
73
 70
     0
 62
     7
  6
CONTINUOUS
  0
LAYER
  2
74
 70
     0
 62
     7
  6
CONTINUOUS
  0
LAYER
  2
75
 70
     0
 62
     7
  6
CONTINUOUS
  0
LAYER
  2
76
 70
     0
 62
     7
  6
CONTINUOUS
  0
LAYER
  2
77
 70
     0
 62
     7
  6
CONTINUOUS
  0
LAYER
  2
78
 70
     0
 62
     7
  6
CONTINUOUS
  0
LAYER
  2
79
 70
     0
 62
     7
  6
CONTINUOUS
  0
LAYER
  2
80
 70
     0
 62
     7
  6
CONTINUOUS
  0
LAYER
  2
81
 70
     0
 62
     7
  6
CONTINUOUS
  0
LAYER
  2
82
 70
     0
 62
     7
  6
CONTINUOUS
  0
LAYER
  2
83
 70
     0
 62
     7
  6
CONTINUOUS
  0
LAYER
  2
84
 70
     0
 62
     7
  6
CONTINUOUS
  0
LAYER
  2
85
 70
     0
 62
     7
  6
CONTINUOUS
  0
LAYER
  2
86
 70
     0
 62
     7
  6
CONTINUOUS
  0
LAYER
  2
87
 70
     0
 62
     7
  6
CONTINUOUS
  0
LAYER
  2
88
 70
     0
 62
     7
  6
CONTINUOUS
  0
LAYER
  2
89
 70
     0
 62
     7
  6
CONTINUOUS
  0
LAYER
  2
90
 70
     0
 62
     7
  6
CONTINUOUS
  0
LAYER
  2
91
 70
     0
 62
     7
  6
CONTINUOUS
  0
LAYER
  2
92
 70
     0
 62
     7
  6
CONTINUOUS
  0
LAYER
  2
93
 70
     0
 62
     7
  6
CONTINUOUS
  0
LAYER
  2
94
 70
     0
 62
     7
  6
CONTINUOUS
  0
LAYER
  2
95
 70
     0
 62
     7
  6
CONTINUOUS
  0
LAYER
  2
96
 70
     0
 62
     7
  6
CONTINUOUS
  0
LAYER
  2
97
 70
     0
 62
     7
  6
CONTINUOUS
  0
LAYER
  2
98
 70
     0
 62
     7
  6
CONTINUOUS
  0
LAYER
  2
99
 70
     0
 62
     7
  6
CONTINUOUS
  0
LAYER
  2
100
 70
     0
 62
     7
  6
CONTINUOUS
  0
LAYER
  2
101
 70
     0
 62
     7
  6
CONTINUOUS
  0
LAYER
  2
102
 70
     0
 62
     7
  6
CONTINUOUS
  0
LAYER
  2
103
 70
     0
 62
     7
  6
CONTINUOUS
  0
LAYER
  2
104
 70
     0
 62
     7
  6
CONTINUOUS
  0
LAYER
  2
105
 70
     0
 62
     7
  6
CONTINUOUS
  0
LAYER
  2
106
 70
     0
 62
     7
  6
CONTINUOUS
  0
LAYER
  2
107
 70
     0
 62
     7
  6
CONTINUOUS
  0
LAYER
  2
108
 70
     0
 62
     7
  6
CONTINUOUS
  0
LAYER
  2
109
 70
     0
 62
     7
  6
CONTINUOUS
  0
LAYER
  2
110
 70
     0
 62
     7
  6
CONTINUOUS
  0
LAYER
  2
111
 70
     0
 62
     7
  6
CONTINUOUS
  0
LAYER
  2
112
 70
     0
 62
     7
  6
CONTINUOUS
  0
LAYER
  2
113
 70
     0
 62
     7
  6
CONTINUOUS
  0
LAYER
  2
114
 70
     0
 62
     7
  6
CONTINUOUS
  0
LAYER
  2
115
 70
     0
 62
     7
  6
CONTINUOUS
  0
LAYER
  2
116
 70
     0
 62
     7
  6
CONTINUOUS
  0
LAYER
  2
117
 70
     0
 62
     7
  6
CONTINUOUS
  0
LAYER
  2
118
 70
     0
 62
     7
  6
CONTINUOUS
  0
LAYER
  2
119
 70
     0
 62
     7
  6
CONTINUOUS
  0
LAYER
  2
120
 70
     0
 62
     7
  6
CONTINUOUS
  0
LAYER
  2
121
 70
     0
 62
     7
  6
CONTINUOUS
  0
LAYER
  2
122
 70
     0
 62
     7
  6
CONTINUOUS
  0
LAYER
  2
123
 70
     0
 62
     7
  6
CONTINUOUS
  0
LAYER
  2
124
 70
     0
 62
     7
  6
CONTINUOUS
  0
LAYER
  2
125
 70
     0
 62
     7
  6
CONTINUOUS
  0
LAYER
  2
126
 70
     0
 62
     7
  6
CONTINUOUS
  0
LAYER
  2
127
 70
     0
 62
     7
  6
CONTINUOUS
  0
LAYER
  2
128
 70
     0
 62
     7
  6
CONTINUOUS
  0
ENDTAB
  0
TABLE
  2
STYLE
 70
    65
  0
STYLE
  2
STANDARD
 70
     0
 40
0.0
 41
1.0
 50
0.0
 71
     0
 42
0.2
  3
txt
  4

  0
STYLE
  2
KANJI0
 70
     0
 40
40.0
 41
1.0
 50
0.0
 71
     0
 42
40.0
  3

  4
bigfont
  0
STYLE
  2
KANJI1
 70
     0
 40
40.0
 41
1.0
 50
0.0
 71
     0
 42
40.0
  3

  4
bigfont
  0
STYLE
  2
KANJI2
 70
     0
 40
24.0
 41
0.9
 50
0.0
 71
     0
 42
24.0
  3

  4
bigfont
  0
STYLE
  2
KANJI3
 70
     0
 40
24.0
 41
0.9
 50
0.0
 71
     0
 42
24.0
  3

  4
bigfont
  0
STYLE
  2
KANJI4
 70
     0
 40
19.2
 41
0.777777778
 50
0.0
 71
     0
 42
19.2
  3

  4
bigfont
  0
STYLE
  2
KANJI5
 70
     0
 40
25.6
 41
0.9
 50
0.0
 71
     0
 42
25.6
  3

  4
bigfont
  0
STYLE
  2
KANJI6
 70
     0
 40
32.0
 41
0.9
 50
0.0
 71
     0
 42
32.0
  3

  4
bigfont
  0
STYLE
  2
KANJI7
 70
     0
 40
28.8
 41
0.857142857
 50
0.0
 71
     0
 42
28.8
  3

  4
bigfont
  0
STYLE
  2
KANJI8
 70
     0
 40
28.8
 41
0.857222222
 50
0.0
 71
     0
 42
28.8
  3

  4
bigfont
  0
STYLE
  2
KANJI9
 70
     0
 40
28.0
 41
0.9
 50
0.0
 71
     0
 42
28.0
  3

  4
bigfont
  0
STYLE
  2
KANJI10
 70
     0
 40
15.999996636
 41
0.6
 50
0.0
 71
     0
 42
15.999996636
  3

  4
bigfont
  0
STYLE
  2
KANJI11
 70
     0
 40
19.199995963
 41
0.9
 50
0.0
 71
     0
 42
19.199995963
  3

  4
bigfont
  0
STYLE
  2
KANJI12
 70
     0
 40
13.8666656
 41
0.8
 50
0.0
 71
     0
 42
13.8666656
  3

  4
bigfont
  0
STYLE
  2
KANJI13
 70
     0
 40
13.8666656
 41
0.75
 50
0.0
 71
     0
 42
13.8666656
  3

  4
bigfont
  0
STYLE
  2
KANJI14
 70
     0
 40
16.63999872
 41
0.75
 50
0.0
 71
     0
 42
16.63999872
  3

  4
bigfont
  0
STYLE
  2
KANJI15
 70
     0
 40
16.63999872
 41
0.9
 50
0.0
 71
     0
 42
16.63999872
  3

  4
bigfont
  0
STYLE
  2
KANJI16
 70
     0
 40
16.63999872
 41
0.8
 50
0.0
 71
     0
 42
16.63999872
  3

  4
bigfont
  0
STYLE
  2
KANJI17
 70
     0
 40
20.7999984
 41
0.9
 50
0.0
 71
     0
 42
20.7999984
  3

  4
bigfont
  0
STYLE
  2
KANJI18
 70
     0
 40
13.8666656
 41
0.75
 50
0.0
 71
     0
 42
13.8666656
  3

  4
bigfont
  0
STYLE
  2
KANJI19
 70
     0
 40
20.7999984
 41
0.75
 50
0.0
 71
     0
 42
20.7999984
  3

  4
bigfont
  0
STYLE
  2
KANJI20
 70
     0
 40
12.47999904
 41
0.75
 50
0.0
 71
     0
 42
12.47999904
  3

  4
bigfont
  0
STYLE
  2
KANJI21
 70
     0
 40
13.8666656
 41
0.6
 50
0.0
 71
     0
 42
13.8666656
  3

  4
bigfont
  0
STYLE
  2
KANJI22
 70
     0
 40
16.63999872
 41
0.6
 50
0.0
 71
     0
 42
16.63999872
  3

  4
bigfont
  0
STYLE
  2
KANJI23
 70
     0
 40
13.8666656
 41
0.8
 50
0.0
 71
     0
 42
13.8666656
  3

  4
bigfont
  0
STYLE
  2
KANJI24
 70
     0
 40
16.63999872
 41
0.8
 50
0.0
 71
     0
 42
16.63999872
  3

  4
bigfont
  0
STYLE
  2
KANJI25
 70
     0
 40
20.7999984
 41
0.75
 50
0.0
 71
     0
 42
20.7999984
  3

  4
bigfont
  0
STYLE
  2
KANJI26
 70
     0
 40
69.333328
 41
0.9
 50
0.0
 71
     0
 42
69.333328
  3

  4
bigfont
  0
STYLE
  2
KANJI27
 70
     0
 40
23.999994954
 41
0.9
 50
0.0
 71
     0
 42
23.999994954
  3

  4
bigfont
  0
STYLE
  2
KANJI28
 70
     0
 40
24.2666648
 41
0.42031746
 50
0.0
 71
     0
 42
24.2666648
  3

  4
bigfont
  0
STYLE
  2
KANJI29
 70
     0
 40
41.5999968
 41
0.9
 50
0.0
 71
     0
 42
41.5999968
  3

  4
bigfont
  0
STYLE
  2
KANJI30
 70
     0
 40
36.0
 41
0.666666667
 50
0.0
 71
     0
 42
36.0
  3

  4
bigfont
  0
STYLE
  2
KANJI31
 70
     0
 40
36.0
 41
0.9
 50
0.0
 71
     0
 42
36.0
  3

  4
bigfont
  0
STYLE
  2
KANJI32
 70
     4
 40
28.0
 41
0.9
 50
0.0
 71
     0
 42
28.0
  3

  4
bigfont
  0
STYLE
  2
KANJI33
 70
     4
 40
24.0
 41
0.9
 50
0.0
 71
     0
 42
24.0
  3

  4
bigfont
  0
STYLE
  2
KANJI34
 70
     0
 40
28.0
 41
0.9
 50
0.0
 71
     0
 42
28.0
  3

  4
bigfont
  0
STYLE
  2
KANJI35
 70
     0
 40
24.0
 41
0.9
 50
0.0
 71
     0
 42
24.0
  3

  4
bigfont
  0
STYLE
  2
KANJI36
 70
     0
 40
24.0
 41
0.857142857
 50
0.0
 71
     0
 42
24.0
  3

  4
bigfont
  0
STYLE
  2
KANJI37
 70
     0
 40
28.0
 41
0.9
 50
0.0
 71
     0
 42
28.0
  3

  4
bigfont
  0
STYLE
  2
KANJI38
 70
     0
 40
22.4
 41
0.9
 50
0.0
 71
     0
 42
22.4
  3

  4
bigfont
  0
STYLE
  2
KANJI39
 70
     0
 40
22.4
 41
0.785714286
 50
0.0
 71
     0
 42
22.4
  3

  4
bigfont
  0
STYLE
  2
KANJI40
 70
     0
 40
22.4
 41
0.8
 50
0.0
 71
     0
 42
22.4
  3

  4
bigfont
  0
STYLE
  2
KANJI41
 70
     0
 40
24.0
 41
0.8
 50
0.0
 71
     0
 42
24.0
  3

  4
bigfont
  0
STYLE
  2
KANJI42
 70
     0
 40
30.4
 41
0.9
 50
0.0
 71
     0
 42
30.4
  3

  4
bigfont
  0
STYLE
  2
KANJI43
 70
     0
 40
30.4
 41
0.9
 50
0.0
 71
     0
 42
30.4
  3

  4
bigfont
  0
STYLE
  2
KANJI44
 70
     0
 40
30.4
 41
0.9
 50
0.0
 71
     0
 42
30.4
  3

  4
bigfont
  0
STYLE
  2
KANJI45
 70
     0
 40
30.4
 41
0.9
 50
0.0
 71
     0
 42
30.4
  3

  4
bigfont
  0
STYLE
  2
KANJI46
 70
     0
 40
30.4
 41
0.9
 50
0.0
 71
     0
 42
30.4
  3

  4
bigfont
  0
STYLE
  2
KANJI47
 70
     0
 40
30.4
 41
0.9
 50
0.0
 71
     0
 42
30.4
  3

  4
bigfont
  0
STYLE
  2
KANJI48
 70
     0
 40
30.4
 41
0.9
 50
0.0
 71
     0
 42
30.4
  3

  4
bigfont
  0
STYLE
  2
KANJI49
 70
     0
 40
30.4
 41
0.9
 50
0.0
 71
     0
 42
30.4
  3

  4
bigfont
  0
STYLE
  2
KANJI50
 70
     0
 40
30.4
 41
0.9
 50
0.0
 71
     0
 42
30.4
  3

  4
bigfont
  0
STYLE
  2
KANJI51
 70
     0
 40
30.4
 41
0.9
 50
0.0
 71
     0
 42
30.4
  3

  4
bigfont
  0
STYLE
  2
KANJI52
 70
     0
 40
22.4
 41
0.8
 50
0.0
 71
     0
 42
22.4
  3

  4
bigfont
  0
STYLE
  2
KANJI53
 70
     0
 40
28.0
 41
0.914285714
 50
0.0
 71
     0
 42
28.0
  3

  4
bigfont
  0
STYLE
  2
KANJI54
 70
     0
 40
23.9994
 41
0.9
 50
0.0
 71
     0
 42
23.9994
  3

  4
bigfont
  0
STYLE
  2
KANJI55
 70
     0
 40
27.9993
 41
0.9
 50
0.0
 71
     0
 42
27.9993
  3

  4
bigfont
  0
STYLE
  2
KANJI56
 70
     0
 40
28.0
 41
0.793650794
 50
0.0
 71
     0
 42
28.0
  3

  4
bigfont
  0
STYLE
  2
KANJI57
 70
     0
 40
24.0
 41
0.9
 50
0.0
 71
     0
 42
24.0
  3

  4
bigfont
  0
STYLE
  2
KANJI58
 70
     0
 40
24.0
 41
0.9
 50
0.0
 71
     0
 42
24.0
  3

  4
bigfont
  0
STYLE
  2
KANJI59
 70
     0
 40
24.0
 41
1.0
 50
0.0
 71
     0
 42
24.0
  3

  4
bigfont
  0
STYLE
  2
KANJI60
 70
     0
 40
24.0
 41
0.833333333
 50
0.0
 71
     0
 42
24.0
  3

  4
bigfont
  0
STYLE
  2
KANJI61
 70
     0
 40
40.0
 41
0.8
 50
0.0
 71
     0
 42
40.0
  3

  4
bigfont
  0
STYLE
  2
KANJI62
 70
     0
 40
28.0
 41
0.857142857
 50
0.0
 71
     0
 42
28.0
  3

  4
bigfont
  0
STYLE
  2
KANJI63
 70
     0
 40
24.0
 41
0.9
 50
0.0
 71
     0
 42
24.0
  3

  4
bigfont
  0
ENDTAB
  0
TABLE
  2
VIEW
 70
     0
  0
ENDTAB
  0
ENDSEC
  0
SECTION
  2
BLOCKS
  0
ENDSEC
  0
SECTION
  2
ENTITIES
  0
TEXT
  8
0
  6
CONTINUOUS
 62
     2
 10
2880.0
 20
280.0
 30
20.0
 40
40.0
  1
外形寸法図
 50
0.0
 41
1.0
 51
0.0
  7
KANJI0
  0
TEXT
  8
0
  6
CONTINUOUS
 62
     2
 10
2832.0
 20
328.0
 30
5.714285714
 40
40.0
  1
マイティシリンダ
 50
0.0
 41
1.0
 51
0.0
  7
KANJI1
  0
LINE
  8
0
  6
CONTINUOUS
 62
     1
 10
640.0
 20
720.0
 11
1880.0
 21
720.0
  0
LINE
  8
0
  6
CONTINUOUS
 62
     1
 10
640.0
 20
664.0
 11
1880.0
 21
664.0
  0
LINE
  8
0
  6
CONTINUOUS
 62
     1
 10
1880.0
 20
720.0
 11
1880.0
 21
328.0
  0
LINE
  8
0
  6
CONTINUOUS
 62
     1
 10
640.0
 20
328.0
 11
1880.0
 21
328.0
  0
LINE
  8
0
  6
CONTINUOUS
 62
     1
 10
640.0
 20
720.0
 11
640.0
 21
328.0
  0
LINE
  8
0
  6
CONTINUOUS
 62
     1
 10
920.0
 20
720.0
 11
920.0
 21
328.0
  0
LINE
  8
0
  6
CONTINUOUS
 62
     2
 10
1080.0
 20
720.0
 11
1080.0
 21
328.0
  0
LINE
  8
0
  6
CONTINUOUS
 62
     2
 10
1240.0
 20
720.0
 11
1240.0
 21
328.0
  0
LINE
  8
0
  6
CONTINUOUS
 62
     2
 10
1400.0
 20
720.0
 11
1400.0
 21
328.0
  0
LINE
  8
0
  6
CONTINUOUS
 62
     2
 10
1560.0
 20
720.0
 11
1560.0
 21
328.0
  0
LINE
  8
0
  6
CONTINUOUS
 62
     2
 10
1720.0
 20
720.0
 11
1720.0
 21
328.0
  0
LINE
  8
0
  6
CONTINUOUS
 62
     2
 10
640.0
 20
384.0
 11
1880.0
 21
384.0
  0
LINE
  8
0
  6
CONTINUOUS
 62
     2
 10
640.0
 20
608.0
 11
1880.0
 21
608.0
  0
LINE
  8
0
  6
CONTINUOUS
 62
     2
 10
640.0
 20
552.0
 11
1880.0
 21
552.0
  0
LINE
  8
0
  6
CONTINUOUS
 62
     2
 10
640.0
 20
496.0
 11
1880.0
 21
496.0
  0
LINE
  8
0
  6
CONTINUOUS
 62
     2
 10
640.0
 20
440.0
 11
1880.0
 21
440.0
  0
TEXT
  8
0
  6
CONTINUOUS
 62
     2
 10
940.8
 20
680.0
 30
2.4
 40
24.0
  1
ストローク
 50
0.0
 41
0.9
 51
0.0
  7
KANJI2
  0
TEXT
  8
0
  6
CONTINUOUS
 62
     2
 10
1094.4
 20
678.4
 30
0.0
 40
24.0
  1
ｍｉｎ　
 50
0.0
 41
0.9
 51
0.0
  7
KANJI3
  0
TEXT
  8
0
  6
CONTINUOUS
 62
     2
 10
1254.4
 20
678.4
 30
0.0
 40
24.0
  1
ｍｉｎ　
 50
0.0
 41
0.9
 51
0.0
  7
KANJI3
  0
TEXT
  8
0
  6
CONTINUOUS
 62
     2
 10
1574.4
 20
678.4
 30
0.0
 40
24.0
  1
ｍｉｎ　
 50
0.0
 41
0.9
 51
0.0
  7
KANJI3
  0
TEXT
  8
0
  6
CONTINUOUS
 62
     2
 10
1823.0
 20
681.8
 30
0.0
 40
19.2
  1
（ｋｇ）
 50
0.0
 41
0.777777778
 51
0.0
  7
KANJI4
  0
TEXT
  8
0
  6
CONTINUOUS
 62
     2
 10
1727.0
 20
679.0
 30
2.56
 40
25.6
  1
概算重量
 50
0.0
 41
0.9
 51
0.0
  7
KANJI5
  0
TEXT
  8
0
  6
CONTINUOUS
 62
     2
 10
696.0
 20
680.0
 30
2.56
 40
25.6
  1
形
 50
0.0
 41
0.9
 51
0.0
  7
KANJI5
  0
TEXT
  8
0
  6
CONTINUOUS
 62
     2
 10
852.0
 20
680.0
 30
2.56
 40
25.6
  1
式
 50
0.0
 41
0.9
 51
0.0
  7
KANJI5
  0
TEXT
  8
0
  6
CONTINUOUS
 62
     2
 10
2432.0
 20
901.6
 30
16.0
 40
32.0
  1
特記事項
 50
0.0
 41
0.9
 51
0.0
  7
KANJI6
  0
TEXT
  8
0
  6
CONTINUOUS
 62
     2
 10
2320.0
 20
837.6
 30
8.228571429
 40
28.8
  1
１。運転時は必ずピストンロッドの回転防止を行って下さい。
 50
0.0
 41
0.857142857
 51
0.0
  7
KANJI7
  0
TEXT
  8
0
  6
CONTINUOUS
 62
     2
 10
2320.0
 20
775.2
 30
8.208
 40
28.8
  1
２。モートル：全閉自冷かご形３０分定格
 50
0.0
 41
0.857222222
 51
0.0
  7
KANJI8
  0
TEXT
  8
0
  6
CONTINUOUS
 62
     2
 10
1176.0
 20
680.0
 30
2.8
 40
28.0
  1
ＡＬ
 50
0.0
 41
0.9
 51
0.0
  7
KANJI9
  0
TEXT
  8
0
  6
CONTINUOUS
 62
     2
 10
1336.0
 20
680.0
 30
2.8
 40
28.0
  1
Ｌ
 50
0.0
 41
0.9
 51
0.0
  7
KANJI9
  0
TEXT
  8
0
  6
CONTINUOUS
 62
     2
 10
1472.0
 20
680.0
 30
2.8
 40
28.0
  1
Ｃ
 50
0.0
 41
0.9
 51
0.0
  7
KANJI9
  0
TEXT
  8
0
  6
CONTINUOUS
 62
     2
 10
1656.0
 20
680.0
 30
2.8
 40
28.0
  1
Ｐ
 50
0.0
 41
0.9
 51
0.0
  7
KANJI9
  0
LINE
  8
0
  6
CONTINUOUS
 62
     4
 10
3248.0
 20
-56.0
 11
2456.0
 21
-56.0
  0
LINE
  8
0
  6
CONTINUOUS
 62
     4
 10
3248.0
 20
-136.0
 11
2456.0
 21
-136.0
  0
TEXT
  8
0
  6
CONTINUOUS
 62
     4
 10
175.999994954
 20
135.99999159
 30
1.599999664
 40
15.999996636
  1
ＰＡＲＴＳ　ＬＩＳＴ
 50
0.0
 41
0.6
 51
0.0
  7
KANJI10
  0
TEXT
  8
0
  6
CONTINUOUS
 62
     4
 10
535.999919262
 20
135.99999159
 30
1.599999664
 40
15.999996636
  1
Ｎ０．
 50
0.0
 41
0.6
 51
0.0
  7
KANJI10
  0
TEXT
  8
0
  6
CONTINUOUS
 62
     4
 10
175.999994954
 20
111.999996636
 30
1.919999596
 40
19.199995963
  1
部品表
 50
0.0
 41
0.9
 51
0.0
  7
KANJI11
  0
TEXT
  8
0
  6
CONTINUOUS
 62
     4
 10
535.999919262
 20
111.999996636
 30
1.919999596
 40
19.199995963
  1
項番
 50
0.0
 41
0.9
 51
0.0
  7
KANJI11
  0
LINE
  8
0
  6
CONTINUOUS
 62
     4
 10
2870.1333624
 20
2241.0666672
 11
2870.1333624
 21
2119.7333432
  0
LINE
  8
0
  6
CONTINUOUS
 62
     4
 10
2804.2667008
 20
2241.0666672
 11
2804.2667008
 21
2119.7333432
  0
LINE
  8
0
  6
CONTINUOUS
 62
     4
 10
2686.4000432
 20
2241.0666672
 11
2686.4000432
 21
2119.7333432
  0
LINE
  8
0
  6
CONTINUOUS
 62
     4
 10
2568.5333856
 20
2241.0666672
 11
2568.5333856
 21
2119.7333432
  0
LINE
  8
0
  6
CONTINUOUS
 62
     4
 10
2502.666724
 20
2241.0666672
 11
2502.666724
 21
2119.7333432
  0
LINE
  8
0
  6
CONTINUOUS
 62
     4
 10
2436.8000624
 20
2241.0666672
 11
2436.8000624
 21
2119.7333432
  0
TEXT
  8
0
  6
CONTINUOUS
 62
     4
 10
2318.9334048
 20
2216.8000024
 30
1.38666656
 40
13.8666656
  1
（μ）
 50
0.0
 41
0.8
 51
0.0
  7
KANJI12
  0
TEXT
  8
0
  6
CONTINUOUS
 62
     4
 10
2312.000072
 20
2189.0666712
 30
1.38666656
 40
13.8666656
  1
０．８－Ｓ
 50
0.0
 41
0.75
 51
0.0
  7
KANJI13
  0
TEXT
  8
0
  6
CONTINUOUS
 62
     4
 10
2377.8667336
 20
2189.0666712
 30
1.38666656
 40
13.8666656
  1
　６－Ｓ
 50
0.0
 41
0.75
 51
0.0
  7
KANJI13
  0
TEXT
  8
0
  6
CONTINUOUS
 62
     4
 10
2443.7333952
 20
2189.0666712
 30
1.38666656
 40
13.8666656
  1
２５－Ｓ
 50
0.0
 41
0.75
 51
0.0
  7
KANJI13
  0
TEXT
  8
0
  6
CONTINUOUS
 62
     4
 10
2509.6000568
 20
2189.0666712
 30
1.38666656
 40
13.8666656
  1
１００－Ｓ
 50
0.0
 41
0.75
 51
0.0
  7
KANJI13
  0
TEXT
  8
0
  6
CONTINUOUS
 62
     4
 10
2575.4667184
 20
2189.0666712
 30
1.38666656
 40
13.8666656
  1
ＭＡＣＨＩＮＩＮＧ
 50
0.0
 41
0.75
 51
0.0
  7
KANJI13
  0
TEXT
  8
0
  6
CONTINUOUS
 62
     4
 10
2575.4667184
 20
2213.333336
 30
1.38666656
 40
13.8666656
  1
ＷＩＴＨＯＵＴ
 50
0.0
 41
0.75
 51
0.0
  7
KANJI13
  0
TEXT
  8
0
  6
CONTINUOUS
 62
     4
 10
2693.333376
 20
2213.333336
 30
1.38666656
 40
13.8666656
  1
ＭＡＣＨＩＮＩＮＧ
 50
0.0
 41
0.75
 51
0.0
  7
KANJI13
  0
TEXT
  8
0
  6
CONTINUOUS
 62
     4
 10
2693.333376
 20
2189.0666712
 30
1.38666656
 40
13.8666656
  1
ＴＯＬＥＲＡＮＣＥ
 50
0.0
 41
0.75
 51
0.0
  7
KANJI13
  0
TEXT
  8
0
  6
CONTINUOUS
 62
     4
 10
2811.2000336
 20
2213.333336
 30
1.38666656
 40
13.8666656
  1
０．５≦
 50
0.0
 41
0.75
 51
0.0
  7
KANJI13
  0
TEXT
  8
0
  6
CONTINUOUS
 62
     4
 10
2811.2000336
 20
2164.8000064
 30
1.38666656
 40
13.8666656
  1
≦６
 50
0.0
 41
0.75
 51
0.0
  7
KANJI13
  0
TEXT
  8
0
  6
CONTINUOUS
 62
     4
 10
2877.0666952
 20
2164.8000064
 30
1.38666656
 40
13.8666656
  1
≦３０
 50
0.0
 41
0.75
 51
0.0
  7
KANJI13
  0
TEXT
  8
0
  6
CONTINUOUS
 62
     4
 10
2877.0666952
 20
2213.333336
 30
1.38666656
 40
13.8666656
  1
６＜
 50
0.0
 41
0.75
 51
0.0
  7
KANJI13
  0
TEXT
  8
0
  6
CONTINUOUS
 62
     4
 10
2814.6667
 20
2130.1333424
 30
1.38666656
 40
13.8666656
  1
±０．１
 50
0.0
 41
0.75
 51
0.0
  7
KANJI13
  0
TEXT
  8
0
  6
CONTINUOUS
 62
     4
 10
2880.5333616
 20
2130.1333424
 30
1.38666656
 40
13.8666656
  1
±０．２
 50
0.0
 41
0.75
 51
0.0
  7
KANJI13
  0
ARC
  8
0
  6
CONTINUOUS
 62
     4
 10
2617.85960666
 20
2131.52000896
 40
11.09333248
 50
30.0
 51
180.0
  0
ARC
  8
0
  6
CONTINUOUS
 62
     4
 10
2637.07382214
 20
2142.61334144
 40
11.09333248
 50
210.0
 51
0.0
  0
LINE
  8
0
  6
CONTINUOUS
 62
     4
 10
2529.5333886
 20
2144.000008
 11
2541.666721
 21
2144.000008
  0
LINE
  8
0
  6
CONTINUOUS
 62
     4
 10
2529.5333886
 20
2144.000008
 11
2535.6000548
 21
2130.1333424
  0
LINE
  8
0
  6
CONTINUOUS
 62
     4
 10
2535.6000548
 20
2130.1333424
 11
2541.666721
 21
2144.000008
  0
LINE
  8
0
  6
CONTINUOUS
 62
     4
 10
2457.6000608
 20
2144.000008
 11
2463.666727
 21
2130.1333424
  0
LINE
  8
0
  6
CONTINUOUS
 62
     4
 10
2463.666727
 20
2130.1333424
 11
2469.7333932
 21
2144.000008
  0
LINE
  8
0
  6
CONTINUOUS
 62
     4
 10
2469.7333932
 20
2144.000008
 11
2475.8000594
 21
2130.1333424
  0
LINE
  8
0
  6
CONTINUOUS
 62
     4
 10
2475.8000594
 20
2130.1333424
 11
2481.8667256
 21
2144.000008
  0
LINE
  8
0
  6
CONTINUOUS
 62
     4
 10
2457.6000608
 20
2144.000008
 11
2481.8667256
 21
2144.000008
  0
LINE
  8
0
  6
CONTINUOUS
 62
     4
 10
2370.9334008
 20
2241.0666672
 11
2370.9334008
 21
2119.7333432
  0
LINE
  8
0
  6
CONTINUOUS
 62
     4
 10
2313.7334052
 20
2144.000008
 11
2362.2667348
 21
2144.000008
  0
LINE
  8
0
  6
CONTINUOUS
 62
     4
 10
2313.7334052
 20
2144.000008
 11
2319.8000714
 21
2130.1333424
  0
LINE
  8
0
  6
CONTINUOUS
 62
     4
 10
2319.8000714
 20
2130.1333424
 11
2325.8667376
 21
2144.000008
  0
LINE
  8
0
  6
CONTINUOUS
 62
     4
 10
2325.8667376
 20
2144.000008
 11
2331.9334038
 21
2130.1333424
  0
LINE
  8
0
  6
CONTINUOUS
 62
     4
 10
2331.9334038
 20
2130.1333424
 11
2338.00007
 21
2144.000008
  0
LINE
  8
0
  6
CONTINUOUS
 62
     4
 10
2338.00007
 20
2144.000008
 11
2344.0667362
 21
2130.1333424
  0
LINE
  8
0
  6
CONTINUOUS
 62
     4
 10
2344.0667362
 20
2130.1333424
 11
2350.1334024
 21
2144.000008
  0
LINE
  8
0
  6
CONTINUOUS
 62
     4
 10
2350.1334024
 20
2144.000008
 11
2356.2000686
 21
2130.1333424
  0
LINE
  8
0
  6
CONTINUOUS
 62
     4
 10
2356.2000686
 20
2130.1333424
 11
2362.2667348
 21
2144.000008
  0
LINE
  8
0
  6
CONTINUOUS
 62
     4
 10
2385.666733
 20
2144.000008
 11
2391.7333992
 21
2130.1333424
  0
LINE
  8
0
  6
CONTINUOUS
 62
     4
 10
2391.7333992
 20
2130.1333424
 11
2397.8000654
 21
2144.000008
  0
LINE
  8
0
  6
CONTINUOUS
 62
     4
 10
2397.8000654
 20
2144.000008
 11
2403.8667316
 21
2130.1333424
  0
LINE
  8
0
  6
CONTINUOUS
 62
     4
 10
2403.8667316
 20
2130.1333424
 11
2409.9333978
 21
2144.000008
  0
LINE
  8
0
  6
CONTINUOUS
 62
     4
 10
2409.9333978
 20
2144.000008
 11
2416.000064
 21
2130.1333424
  0
LINE
  8
0
  6
CONTINUOUS
 62
     4
 10
2416.000064
 20
2130.1333424
 11
2422.0667302
 21
2144.000008
  0
LINE
  8
0
  6
CONTINUOUS
 62
     4
 10
2385.666733
 20
2144.000008
 11
2422.0667302
 21
2144.000008
  0
TEXT
  8
0
  6
CONTINUOUS
 62
     4
 10
2575.4667184
 20
2164.8000064
 30
1.663999872
 40
16.63999872
  1
加工なし
 50
0.0
 41
0.75
 51
0.0
  7
KANJI14
  0
TEXT
  8
0
  6
CONTINUOUS
 62
     4
 10
2693.333376
 20
2164.8000064
 30
1.663999872
 40
16.63999872
  1
普通加工交差
 50
0.0
 41
0.9
 51
0.0
  7
KANJI15
  0
TEXT
  8
0
  6
CONTINUOUS
 62
     4
 10
2721.0667072
 20
2130.1333424
 30
1.663999872
 40
16.63999872
  1
（ｍｍ）
 50
0.0
 41
0.75
 51
0.0
  7
KANJI14
  0
LINE
  8
0
  6
CONTINUOUS
 62
     4
 10
3067.7333472
 20
2241.0666672
 11
3067.7333472
 21
2119.7333432
  0
LINE
  8
0
  6
CONTINUOUS
 62
     4
 10
3154.4000072
 20
2241.0666672
 11
3154.4000072
 21
2119.7333432
  0
LINE
  8
0
  6
CONTINUOUS
 62
     4
 10
3001.8666856
 20
2241.0666672
 11
3001.8666856
 21
2119.7333432
  0
LINE
  8
0
  6
CONTINUOUS
 62
     4
 10
2936.000024
 20
2241.0666672
 11
2936.000024
 21
2119.7333432
  0
TEXT
  8
0
  6
CONTINUOUS
 62
     4
 10
2942.9333568
 20
2164.8000064
 30
1.38666656
 40
13.8666656
  1
≦１２０
 50
0.0
 41
0.75
 51
0.0
  7
KANJI13
  0
TEXT
  8
0
  6
CONTINUOUS
 62
     4
 10
2942.9333568
 20
2213.333336
 30
1.38666656
 40
13.8666656
  1
３０＜
 50
0.0
 41
0.75
 51
0.0
  7
KANJI13
  0
TEXT
  8
0
  6
CONTINUOUS
 62
     4
 10
3008.8000184
 20
2213.333336
 30
1.38666656
 40
13.8666656
  1
１２０＜
 50
0.0
 41
0.75
 51
0.0
  7
KANJI13
  0
TEXT
  8
0
  6
CONTINUOUS
 62
     4
 10
3008.8000184
 20
2164.8000064
 30
1.38666656
 40
13.8666656
  1
≦３１５
 50
0.0
 41
0.75
 51
0.0
  7
KANJI13
  0
TEXT
  8
0
  6
CONTINUOUS
 62
     4
 10
3074.66668
 20
2213.333336
 30
1.38666656
 40
13.8666656
  1
３１５＜
 50
0.0
 41
0.75
 51
0.0
  7
KANJI13
  0
TEXT
  8
0
  6
CONTINUOUS
 62
     4
 10
3074.66668
 20
2164.8000064
 30
1.38666656
 40
13.8666656
  1
≦１０００
 50
0.0
 41
0.75
 51
0.0
  7
KANJI13
  0
TEXT
  8
0
  6
CONTINUOUS
 62
     4
 10
3161.33334
 20
2213.333336
 30
1.38666656
 40
13.8666656
  1
１０００＜
 50
0.0
 41
0.75
 51
0.0
  7
KANJI13
  0
TEXT
  8
0
  6
CONTINUOUS
 62
     4
 10
3161.33334
 20
2164.8000064
 30
1.38666656
 40
13.8666656
  1
≦２０００
 50
0.0
 41
0.75
 51
0.0
  7
KANJI13
  0
TEXT
  8
0
  6
CONTINUOUS
 62
     4
 10
2946.4000232
 20
2130.1333424
 30
1.38666656
 40
13.8666656
  1
±０．３
 50
0.0
 41
0.75
 51
0.0
  7
KANJI13
  0
TEXT
  8
0
  6
CONTINUOUS
 62
     4
 10
3012.2666848
 20
2130.1333424
 30
1.38666656
 40
13.8666656
  1
±０．５
 50
0.0
 41
0.75
 51
0.0
  7
KANJI13
  0
TEXT
  8
0
  6
CONTINUOUS
 62
     4
 10
3088.5333456
 20
2130.1333424
 30
1.38666656
 40
13.8666656
  1
±０．８
 50
0.0
 41
0.75
 51
0.0
  7
KANJI13
  0
TEXT
  8
0
  6
CONTINUOUS
 62
     4
 10
3175.2000056
 20
2130.1333424
 30
1.38666656
 40
13.8666656
  1
±１．２
 50
0.0
 41
0.75
 51
0.0
  7
KANJI13
  0
LINE
  8
0
  6
CONTINUOUS
 62
     4
 10
2305.0667392
 20
2241.0666672
 11
2305.0667392
 21
2119.7333432
  0
TEXT
  8
0
  6
CONTINUOUS
 62
     4
 10
2194.1334144
 20
2189.0666712
 30
1.38666656
 40
13.8666656
  1
ＲＯＵＧＨＮＥＳＳ
 50
0.0
 41
0.8
 51
0.0
  7
KANJI12
  0
TEXT
  8
0
  6
CONTINUOUS
 62
     4
 10
2194.1334144
 20
2213.333336
 30
1.38666656
 40
13.8666656
  1
ＳＵＲＦＡＣＥ
 50
0.0
 41
0.8
 51
0.0
  7
KANJI12
  0
TEXT
  8
0
  6
CONTINUOUS
 62
     4
 10
2194.1334144
 20
2164.8000064
 30
1.663999872
 40
16.63999872
  1
仕上面粗さ
 50
0.0
 41
0.8
 51
0.0
  7
KANJI16
  0
TEXT
  8
0
  6
CONTINUOUS
 62
     4
 10
2204.5334136
 20
2130.1333424
 30
1.663999872
 40
16.63999872
  1
ＳＹＭ．記号
 50
0.0
 41
0.75
 51
0.0
  7
KANJI14
  0
LINE
  8
0
  6
CONTINUOUS
 62
     4
 10
3241.0666672
 20
2154.4000072
 11
2187.2000816
 21
2154.4000072
  0
TEXT
  8
0
  6
CONTINUOUS
 62
     4
 10
2370.9334008
 20
2254.9333328
 30
2.07999984
 40
20.7999984
  1
ＩＳＯ
 50
0.0
 41
0.9
 51
0.0
  7
KANJI17
  0
TEXT
  8
0
  6
CONTINUOUS
 62
     4
 10
2433.333396
 20
2254.9333328
 30
1.38666656
 40
13.8666656
  1
ＭＥＴＲＩＣ　ＳＣＲＥＷ　ＴＨＲＥＡＤ
 50
0.0
 41
0.75
 51
0.0
  7
KANJI18
  0
TEXT
  8
0
  6
CONTINUOUS
 62
     4
 10
2668.72004456
 20
2254.9333328
 30
1.38666656
 40
13.8666656
  1
ＩＳＯ
 50
0.0
 41
0.75
 51
0.0
  7
KANJI18
  0
TEXT
  8
0
  6
CONTINUOUS
 62
     4
 10
2866.32002936
 20
2254.9333328
 30
2.07999984
 40
20.7999984
  1
３
 50
0.0
 41
0.75
 51
0.0
  7
KANJI19
  0
TEXT
  8
0
  6
CONTINUOUS
 62
     4
 10
2883.65336136
 20
2254.9333328
 30
1.38666656
 40
13.8666656
  1
ＲＤ　ＡＮＧＬＥ　ＰＲＯＪＥＣＴＩＯＮ　第３角法
 50
0.0
 41
0.75
 51
0.0
  7
KANJI18
  0
TEXT
  8
0
  6
CONTINUOUS
 62
     4
 10
2706.85337496
 20
2254.9333328
 30
1.247999904
 40
12.47999904
  1
メートルネジ使用
 50
0.0
 41
0.75
 51
0.0
  7
KANJI20
  0
TEXT
  8
0
  6
CONTINUOUS
 62
     4
 10
2187.2000816
 20
245.0666552
 30
1.38666656
 40
13.8666656
  1
ＤＲＡＷＮ
 50
0.0
 41
0.6
 51
0.0
  7
KANJI21
  0
TEXT
  8
0
  6
CONTINUOUS
 62
     4
 10
2187.2000816
 20
300.5333176
 30
1.38666656
 40
13.8666656
  1
ＤＥＳＩＧＮ
 50
0.0
 41
0.6
 51
0.0
  7
KANJI21
  0
TEXT
  8
0
  6
CONTINUOUS
 62
     4
 10
2187.2000816
 20
355.99998
 30
1.38666656
 40
13.8666656
  1
ＣＨＥＣＫ
 50
0.0
 41
0.6
 51
0.0
  7
KANJI21
  0
TEXT
  8
0
  6
CONTINUOUS
 62
     4
 10
2187.2000816
 20
411.4666424
 30
1.38666656
 40
13.8666656
  1
ＣＯＤＥ
 50
0.0
 41
0.6
 51
0.0
  7
KANJI21
  0
LINE
  8
0
  6
CONTINUOUS
 62
     4
 10
2173.333416
 20
324.7999824
 11
2426.4000632
 21
324.7999824
  0
LINE
  8
0
  6
CONTINUOUS
 62
     4
 10
2173.333416
 20
269.33332
 11
2426.4000632
 21
269.33332
  0
LINE
  8
0
  6
CONTINUOUS
 62
     4
 10
2173.333416
 20
380.2666448
 11
2426.4000632
 21
380.2666448
  0
LINE
  8
0
  6
CONTINUOUS
 62
     4
 10
2173.333416
 20
435.7333072
 11
3241.0666672
 21
435.7333072
  0
TEXT
  8
0
  6
CONTINUOUS
 62
     4
 10
2187.2000816
 20
279.7333192
 30
1.663999872
 40
16.63999872
  1
設計
 50
0.0
 41
0.6
 51
0.0
  7
KANJI22
  0
TEXT
  8
0
  6
CONTINUOUS
 62
     4
 10
2187.2000816
 20
335.1999816
 30
1.663999872
 40
16.63999872
  1
検図
 50
0.0
 41
0.6
 51
0.0
  7
KANJI22
  0
TEXT
  8
0
  6
CONTINUOUS
 62
     4
 10
2187.2000816
 20
390.666644
 30
1.663999872
 40
16.63999872
  1
分類
 50
0.0
 41
0.6
 51
0.0
  7
KANJI22
  0
LINE
  8
0
  6
CONTINUOUS
 62
     4
 10
2446.85339496
 20
380.2666448
 11
3241.0666672
 21
380.2666448
  0
LINE
  8
0
  6
CONTINUOUS
 62
     4
 10
2426.4000632
 20
269.33332
 11
3241.0666672
 21
269.33332
  0
TEXT
  8
0
  6
CONTINUOUS
 62
     4
 10
2440.2667288
 20
245.0666552
 30
1.38666656
 40
13.8666656
  1
ＤＲＡＷＩＮＧ　ＮＯ．
 50
0.0
 41
0.8
 51
0.0
  7
KANJI23
  0
TEXT
  8
0
  6
CONTINUOUS
 62
     4
 10
2440.2667288
 20
300.5333176
 30
1.38666656
 40
13.8666656
  1
ＭＦＧ　ＮＯ．
 50
0.0
 41
0.8
 51
0.0
  7
KANJI23
  0
TEXT
  8
0
  6
CONTINUOUS
 62
     4
 10
2440.2667288
 20
355.99998
 30
1.38666656
 40
13.8666656
  1
ＴＹＰＥ
 50
0.0
 41
0.8
 51
0.0
  7
KANJI23
  0
LINE
  8
0
  6
CONTINUOUS
 62
     4
 10
2447.2000616
 20
324.7999824
 11
2766.1333704
 21
324.7999824
  0
TEXT
  8
0
  6
CONTINUOUS
 62
     4
 10
2440.2667288
 20
220.7999904
 30
1.663999872
 40
16.63999872
  1
図　面　番　号
 50
0.0
 41
0.8
 51
0.0
  7
KANJI24
  0
TEXT
  8
0
  6
CONTINUOUS
 62
     4
 10
2440.2667288
 20
276.2666528
 30
1.663999872
 40
16.63999872
  1
製番
 50
0.0
 41
0.8
 51
0.0
  7
KANJI24
  0
TEXT
  8
0
  6
CONTINUOUS
 62
     4
 10
2440.2667288
 20
331.7333152
 30
1.663999872
 40
16.63999872
  1
機種
 50
0.0
 41
0.8
 51
0.0
  7
KANJI24
  0
LINE
  8
0
  6
CONTINUOUS
 62
     4
 10
2173.333416
 20
158.3999952
 11
2426.4000632
 21
158.3999952
  0
LINE
  8
0
  6
CONTINUOUS
 62
     4
 10
2173.333416
 20
213.8666576
 11
2426.4000632
 21
213.8666576
  0
TEXT
  8
0
  6
CONTINUOUS
 62
     4
 10
2187.2000816
 20
134.1333304
 30
1.38666656
 40
13.8666656
  1
ＳＣＡＬＥ
 50
0.0
 41
0.6
 51
0.0
  7
KANJI21
  0
TEXT
  8
0
  6
CONTINUOUS
 62
     4
 10
2187.2000816
 20
189.5999928
 30
1.38666656
 40
13.8666656
  1
ＤＡＴＥ
 50
0.0
 41
0.6
 51
0.0
  7
KANJI21
  0
TEXT
  8
0
  6
CONTINUOUS
 62
     4
 10
2187.2000816
 20
113.333332
 30
1.663999872
 40
16.63999872
  1
尺度
 50
0.0
 41
0.6
 51
0.0
  7
KANJI22
  0
TEXT
  8
0
  6
CONTINUOUS
 62
     4
 10
2187.2000816
 20
168.7999944
 30
1.663999872
 40
16.63999872
  1
日付
 50
0.0
 41
0.6
 51
0.0
  7
KANJI22
  0
TEXT
  8
0
  6
CONTINUOUS
 62
     4
 10
2187.2000816
 20
224.2666568
 30
1.663999872
 40
16.63999872
  1
作図
 50
0.0
 41
0.6
 51
0.0
  7
KANJI22
  0
LINE
  8
0
  6
CONTINUOUS
 62
     4
 10
1781.6001128
 20
102.9333328
 11
1781.6001128
 21
158.3999952
  0
LINE
  8
0
  6
CONTINUOUS
 62
     4
 10
1844.000108
 20
102.9333328
 11
1844.000108
 21
158.3999952
  0
TEXT
  8
0
  6
CONTINUOUS
 62
     4
 10
1802.4001112
 20
134.1333304
 30
1.38666656
 40
13.8666656
  1
ＢＹ
 50
0.0
 41
0.6
 51
0.0
  7
KANJI21
  0
TEXT
  8
0
  6
CONTINUOUS
 62
     4
 10
1954.9334328
 20
134.1333304
 30
1.38666656
 40
13.8666656
  1
ＤＥＳＣＲＩＰＴＩＯＮ
 50
0.0
 41
0.6
 51
0.0
  7
KANJI21
  0
TEXT
  8
0
  6
CONTINUOUS
 62
     4
 10
1802.4001112
 20
113.333332
 30
1.663999872
 40
16.63999872
  1
担当
 50
0.0
 41
0.6
 51
0.0
  7
KANJI22
  0
TEXT
  8
0
  6
CONTINUOUS
 62
     4
 10
1975.7334312
 20
113.333332
 30
1.663999872
 40
16.63999872
  1
記　　　　事
 50
0.0
 41
0.6
 51
0.0
  7
KANJI22
  0
LINE
  8
0
  6
CONTINUOUS
 62
     4
 10
1655.0667892
 20
147.999996
 11
1632.5334576
 21
113.333332
  0
TEXT
  8
0
  6
CONTINUOUS
 62
     4
 10
1712.2667848
 20
134.1333304
 30
1.38666656
 40
13.8666656
  1
ＤＡＴＥ
 50
0.0
 41
0.6
 51
0.0
  7
KANJI21
  0
TEXT
  8
0
  6
CONTINUOUS
 62
     4
 10
1722.666784
 20
113.333332
 30
1.663999872
 40
16.63999872
  1
日付
 50
0.0
 41
0.6
 51
0.0
  7
KANJI22
  0
LINE
  8
0
  6
CONTINUOUS
 62
     4
 10
1632.5334576
 20
113.333332
 11
1677.6001208
 21
113.333332
  0
LINE
  8
0
  6
CONTINUOUS
 62
     4
 10
1684.5334536
 20
102.9333328
 11
1684.5334536
 21
158.3999952
  0
LINE
  8
0
  6
CONTINUOUS
 62
     4
 10
1655.0667892
 20
147.999996
 11
1677.6001208
 21
113.333332
  0
LINE
  8
0
  6
CONTINUOUS
 62
     4
 10
2426.4000632
 20
189.5999928
 11
3241.0666672
 21
189.5999928
  0
LINE
  8
0
  6
CONTINUOUS
 62
     4
 10
2426.4000632
 20
102.9333328
 11
2426.4000632
 21
435.7333072
  0
LINE
  8
0
  6
LTYPE1
 62
     4
 10
3008.8000184
 20
199.999992
 11
3008.8000184
 21
255.4666544
  0
LINE
  8
0
  6
LTYPE1
 62
     4
 10
2960.2666888
 20
199.999992
 11
2960.2666888
 21
255.4666544
  0
LINE
  8
0
  6
LTYPE1
 62
     4
 10
2911.7333592
 20
199.999992
 11
2911.7333592
 21
255.4666544
  0
LINE
  8
0
  6
LTYPE1
 62
     4
 10
2863.2000296
 20
199.999992
 11
2863.2000296
 21
255.4666544
  0
LINE
  8
0
  6
LTYPE1
 62
     4
 10
2814.6667
 20
199.999992
 11
2814.6667
 21
255.4666544
  0
LINE
  8
0
  6
LTYPE1
 62
     4
 10
2766.1333704
 20
199.999992
 11
2766.1333704
 21
255.4666544
  0
LINE
  8
0
  6
LTYPE1
 62
     4
 10
2717.6000408
 20
199.999992
 11
2717.6000408
 21
255.4666544
  0
LINE
  8
0
  6
LTYPE1
 62
     4
 10
2669.0667112
 20
199.999992
 11
2669.0667112
 21
255.4666544
  0
LINE
  8
0
  6
LTYPE1
 62
     4
 10
2669.0667112
 20
255.4666544
 11
3008.8000184
 21
255.4666544
  0
LINE
  8
0
  6
LTYPE1
 62
     4
 10
2669.0667112
 20
199.999992
 11
3008.8000184
 21
199.999992
  0
LINE
  8
0
  6
CONTINUOUS
 62
     4
 10
3036.5333496
 20
229.4666564
 11
3050.4000152
 21
229.4666564
  0
LINE
  8
0
  6
CONTINUOUS
 62
     4
 10
3123.2000096
 20
208.666658
 11
3074.66668
 21
208.666658
  0
LINE
  8
0
  6
CONTINUOUS
 62
     4
 10
3074.66668
 20
208.666658
 11
3098.9333448
 21
250.2666548
  0
LINE
  8
0
  6
CONTINUOUS
 62
     4
 10
3098.9333448
 20
250.2666548
 11
3123.2000096
 21
208.666658
  0
LINE
  8
0
  6
CONTINUOUS
 62
     4
 10
3254.9333328
 20
102.9333328
 11
3338.1333264
 21
102.9333328
  0
LINE
  8
0
  6
CONTINUOUS
 62
     4
 10
3254.9333328
 20
144.5333296
 11
3338.1333264
 21
144.5333296
  0
LINE
  8
0
  6
CONTINUOUS
 62
     4
 10
3254.9333328
 20
186.1333264
 11
3338.1333264
 21
186.1333264
  0
LINE
  8
0
  6
CONTINUOUS
 62
     4
 10
3254.9333328
 20
227.7333232
 11
3338.1333264
 21
227.7333232
  0
LINE
  8
0
  6
CONTINUOUS
 62
     4
 10
3254.9333328
 20
269.33332
 11
3338.1333264
 21
269.33332
  0
LINE
  8
0
  6
CONTINUOUS
 62
     4
 10
3254.9333328
 20
310.9333168
 11
3338.1333264
 21
310.9333168
  0
LINE
  8
0
  6
CONTINUOUS
 62
     4
 10
3254.9333328
 20
352.5333136
 11
3338.1333264
 21
352.5333136
  0
LINE
  8
0
  6
CONTINUOUS
 62
     4
 10
3254.9333328
 20
394.1333104
 11
3338.1333264
 21
394.1333104
  0
LINE
  8
0
  6
CONTINUOUS
 62
     4
 10
3254.9333328
 20
435.7333072
 11
3338.1333264
 21
435.7333072
  0
LINE
  8
0
  6
CONTINUOUS
 62
     4
 10
3254.9333328
 20
477.333304
 11
3338.1333264
 21
477.333304
  0
LINE
  8
0
  6
CONTINUOUS
 62
     4
 10
3338.1333264
 20
102.9333328
 11
3338.1333264
 21
477.333304
  0
LINE
  8
0
  6
CONTINUOUS
 62
     4
 10
3296.5333296
 20
102.9333328
 11
3296.5333296
 21
435.7333072
  0
TEXT
  8
0
  6
CONTINUOUS
 62
     4
 10
3269.14666504
 20
115.0666652
 30
2.07999984
 40
20.7999984
  1
計
 50
0.0
 41
0.75
 51
0.0
  7
KANJI25
  0
TEXT
  8
0
  6
CONTINUOUS
 62
     4
 10
3269.14666504
 20
198.95999208
 30
2.07999984
 40
20.7999984
  1
設
 50
0.0
 41
0.75
 51
0.0
  7
KANJI25
  0
TEXT
  8
0
  6
CONTINUOUS
 62
     4
 10
3269.14666504
 20
239.8666556
 30
2.07999984
 40
20.7999984
  1
管
 50
0.0
 41
0.75
 51
0.0
  7
KANJI25
  0
TEXT
  8
0
  6
CONTINUOUS
 62
     4
 10
3269.14666504
 20
281.4666524
 30
2.07999984
 40
20.7999984
  1
製
 50
0.0
 41
0.75
 51
0.0
  7
KANJI25
  0
TEXT
  8
0
  6
CONTINUOUS
 62
     4
 10
3269.14666504
 20
323.0666492
 30
2.07999984
 40
20.7999984
  1
資
 50
0.0
 41
0.75
 51
0.0
  7
KANJI25
  0
TEXT
  8
0
  6
CONTINUOUS
 62
     4
 10
3269.14666504
 20
364.666646
 30
2.07999984
 40
20.7999984
  1
営
 50
0.0
 41
0.75
 51
0.0
  7
KANJI25
  0
TEXT
  8
0
  6
CONTINUOUS
 62
     4
 10
3269.14666504
 20
406.2666428
 30
2.07999984
 40
20.7999984
  1
客
 50
0.0
 41
0.75
 51
0.0
  7
KANJI25
  0
TEXT
  8
0
  6
CONTINUOUS
 62
     4
 10
3268.7999984
 20
449.5999728
 30
2.07999984
 40
20.7999984
  1
出　図
 50
0.0
 41
0.75
 51
0.0
  7
KANJI25
  0
LINE
  8
0
  6
CONTINUOUS
 62
     4
 10
3254.9333328
 20
102.9333328
 11
3254.9333328
 21
477.333304
  0
TEXT
  8
0
  6
CONTINUOUS
 62
     4
 10
3130.1333424
 20
26.666672
 30
6.9333328
 40
69.333328
  1
／
 50
0.0
 41
0.9
 51
0.0
  7
KANJI26
  0
TEXT
  8
0
  6
CONTINUOUS
 62
     4
 10
2786.9333688
 20
355.99998
 30
1.38666656
 40
13.8666656
  1
ＴＩＴＬＥ
 50
0.0
 41
0.8
 51
0.0
  7
KANJI23
  0
TEXT
  8
0
  6
CONTINUOUS
 62
     4
 10
2786.9333688
 20
331.7333152
 30
1.663999872
 40
16.63999872
  1
名称
 50
0.0
 41
0.8
 51
0.0
  7
KANJI24
  0
LINE
  8
0
  6
CONTINUOUS
 62
     6
 10
152.0
 20
96.0
 11
152.0
 21
2248.0
  0
LINE
  8
0
  6
CONTINUOUS
 62
     6
 10
152.0
 20
2248.0
 11
3248.0
 21
2248.0
  0
LINE
  8
0
  6
CONTINUOUS
 62
     6
 10
3248.0
 20
2248.0
 11
3248.0
 21
96.0
  0
LINE
  8
0
  6
CONTINUOUS
 62
     6
 10
2187.2000816
 20
2241.0666672
 11
2187.2000816
 21
2119.7333432
  0
LINE
  8
0
  6
CONTINUOUS
 62
     6
 10
3241.0666672
 20
2241.0666672
 11
2187.2000816
 21
2241.0666672
  0
LINE
  8
0
  6
CONTINUOUS
 62
     6
 10
3241.0666672
 20
2119.7333432
 11
2187.2000816
 21
2119.7333432
  0
LINE
  8
0
  6
CONTINUOUS
 62
     6
 10
3241.0666672
 20
2241.0666672
 11
3241.0666672
 21
2119.7333432
  0
LINE
  8
0
  6
CONTINUOUS
 62
     6
 10
3248.0
 20
96.0
 11
152.0
 21
96.0
  0
LINE
  8
0
  6
CONTINUOUS
 62
     6
 10
679.999888985
 20
103.999998318
 11
679.999888985
 21
215.999974769
  0
LINE
  8
0
  6
CONTINUOUS
 62
     6
 10
159.999998318
 20
215.999974769
 11
679.999888985
 21
215.999974769
  0
LINE
  8
0
  6
CONTINUOUS
 62
     6
 10
159.999998318
 20
103.999998318
 11
679.999888985
 21
103.999998318
  0
LINE
  8
0
  6
CONTINUOUS
 62
     6
 10
159.999998318
 20
103.999998318
 11
159.999998318
 21
215.999974769
  0
LINE
  8
0
  6
CONTINUOUS
 62
     6
 10
519.999922626
 20
103.999998318
 11
519.999922626
 21
215.999974769
  0
LINE
  8
0
  6
CONTINUOUS
 62
     6
 10
159.999998318
 20
159.999986544
 11
679.999888985
 21
159.999986544
  0
TEXT
  8
0
  6
CONTINUOUS
 62
     3
 10
175.999994954
 20
175.999983179
 30
2.399999495
 40
23.999994954
  1
ＰＬ
 50
0.0
 41
0.9
 51
0.0
  7
KANJI27
  0
LINE
  8
0
  6
CONTINUOUS
 62
     6
 10
1625.6001248
 20
102.9333328
 11
1625.6001248
 21
158.3999952
  0
LINE
  8
0
  6
CONTINUOUS
 62
     6
 10
1625.6001248
 20
158.3999952
 11
2173.333416
 21
158.3999952
  0
LINE
  8
0
  6
CONTINUOUS
 62
     6
 10
1625.6001248
 20
102.9333328
 11
3241.0666672
 21
102.9333328
  0
LINE
  8
0
  6
CONTINUOUS
 62
     6
 10
2718.20670742
 20
139.67999664
 11
2695.32670918
 21
139.67999664
  0
LINE
  8
0
  6
CONTINUOUS
 62
     6
 10
2718.20670742
 20
143.83999632
 11
2695.32670918
 21
143.83999632
  0
LINE
  8
0
  6
CONTINUOUS
 62
     6
 10
2718.20670742
 20
139.67999664
 11
2741.08670566
 21
139.67999664
  0
LINE
  8
0
  6
CONTINUOUS
 62
     6
 10
2718.20670742
 20
143.83999632
 11
2741.08670566
 21
143.83999632
  0
LINE
  8
0
  6
CONTINUOUS
 62
     6
 10
2741.08670566
 20
143.83999632
 11
2741.08670566
 21
139.67999664
  0
ARC
  8
0
  6
CONTINUOUS
 62
     6
 10
2746.28670526
 20
141.75999648
 40
20.7999984
 50
185.739170477
 51
90.0
  0
ARC
  8
0
  6
CONTINUOUS
 62
     6
 10
2746.28670526
 20
141.75999648
 40
24.95999808
 50
184.780191847
 51
90.0
  0
LINE
  8
0
  6
CONTINUOUS
 62
     6
 10
2695.32670918
 20
139.67999664
 11
2695.32670918
 21
143.83999632
  0
TEXT
  8
0
  6
CONTINUOUS
 62
     6
 10
2433.333396
 20
134.1333304
 30
0.0
 40
24.2666648
  1
ＵＮＩＴＥＣ　ＩＮＤＵＳＴＲＹ　ＣＯ．，ＬＴＤ．
 50
0.0
 41
0.42031746
 51
0.0
  7
KANJI28
  0
LINE
  8
0
  6
CONTINUOUS
 62
     6
 10
2715.08670766
 20
166.71999456
 11
2690.12670958
 21
166.71999456
  0
LINE
  8
0
  6
CONTINUOUS
 62
     6
 10
2721.32670718
 20
166.71999456
 11
2746.28670526
 21
166.71999456
  0
ARC
  8
0
  6
CONTINUOUS
 62
     6
 10
2690.12670958
 20
141.75999648
 40
20.7999984
 50
90.0
 51
354.260829523
  0
ARC
  8
0
  6
CONTINUOUS
 62
     6
 10
2690.12670958
 20
141.75999648
 40
24.95999808
 50
90.0
 51
355.219808153
  0
LINE
  8
0
  6
CONTINUOUS
 62
     6
 10
2715.08670766
 20
166.71999456
 11
2715.08670766
 21
162.55999488
  0
LINE
  8
0
  6
CONTINUOUS
 62
     6
 10
2690.12670958
 20
162.55999488
 11
2715.08670766
 21
162.55999488
  0
LINE
  8
0
  6
CONTINUOUS
 62
     6
 10
2721.32670718
 20
166.71999456
 11
2721.32670718
 21
162.55999488
  0
LINE
  8
0
  6
CONTINUOUS
 62
     6
 10
2746.28670526
 20
162.55999488
 11
2721.32670718
 21
162.55999488
  0
TEXT
  8
0
  6
CONTINUOUS
 62
     6
 10
2773.67336982
 20
125.11999776
 30
4.15999968
 40
41.5999968
  1
ユニテック工業株式会社
 50
0.0
 41
0.9
 51
0.0
  7
KANJI29
  0
LINE
  8
0
  6
CONTINUOUS
 62
     6
 10
2173.333416
 20
491.1999696
 11
3241.0666672
 21
491.1999696
  0
TEXT
  8
0
  6
CONTINUOUS
 62
     3
 10
2320.0
 20
112.0
 30
2.4
 40
36.0
  1
１／８
 50
0.0
 41
0.666666667
 51
0.0
  7
KANJI30
  0
LINE
  8
0
  6
CONTINUOUS
 62
     1
 10
2540.0
 20
2077.0
 11
2540.0
 21
989.0
  0
TEXT
  8
0
  6
CONTINUOUS
 62
     2
 10
2640.0
 20
2018.6
 30
22.79952
 40
36.0
  1
マイティシリンダ仕様
 50
0.0
 41
0.9
 51
0.0
  7
KANJI31
  0
TEXT
  8
0
  6
CONTINUOUS
 62
     2
 10
2572.6
 20
1513.0
 30
17.6
 40
28.0
  1
モ　トル仕様
 50
0.0
 41
0.9
 51
0.0
  7
KANJI32
  0
TEXT
  8
0
  6
CONTINUOUS
 62
     2
 10
2570.8
 20
1209.0
 30
1.371428571
 40
24.0
  1
ブレ　キ
 50
0.0
 41
0.9
 51
0.0
  7
KANJI33
  0
LINE
  8
0
  6
CONTINUOUS
 62
     2
 10
2570.4
 20
1153.8
 11
2570.4
 21
1137.0
  0
LINE
  8
0
  6
CONTINUOUS
 62
     2
 10
2570.4
 20
1468.2
 11
2570.4
 21
1449.8
  0
TEXT
  8
0
  6
CONTINUOUS
 62
     2
 10
2999.2
 20
1619.4
 30
11.36
 40
28.0
  1
推力リミッタ
 50
0.0
 41
0.9
 51
0.0
  7
KANJI34
  0
TEXT
  8
0
  6
CONTINUOUS
 62
     2
 10
3211.2
 20
1507.4
 30
17.571428571
 40
24.0
  1
Ｐ
 50
0.0
 41
0.9
 51
0.0
  7
KANJI35
  0
TEXT
  8
0
  6
CONTINUOUS
 62
     2
 10
3078.4
 20
1507.4
 30
1.6
 40
24.0
  1
ＫＷ
 50
0.0
 41
0.857142857
 51
0.0
  7
KANJI36
  0
TEXT
  8
0
  6
CONTINUOUS
 62
     2
 10
3171.2
 20
1507.4
 30
20.5
 40
28.0
  1
４
 50
0.0
 41
0.9
 51
0.0
  7
KANJI37
  0
TEXT
  8
0
  6
CONTINUOUS
 62
     2
 10
2954.4
 20
1565.8
 30
0.8
 40
22.4
  1
マンセル
 50
0.0
 41
0.9
 51
0.0
  7
KANJI38
  0
TEXT
  8
0
  6
CONTINUOUS
 62
     2
 10
3048.0
 20
1567.4
 30
0.32
 40
22.4
  1
７．５ＧＹ５／４．５
 50
0.0
 41
0.785714286
 51
0.0
  7
KANJI39
  0
TEXT
  8
0
  6
CONTINUOUS
 62
     2
 10
2948.0
 20
1172.2
 30
2.4
 40
22.4
  1
スプリング制動式電磁ブレーキ
 50
0.0
 41
0.8
 51
0.0
  7
KANJI40
  0
TEXT
  8
0
  6
CONTINUOUS
 62
     2
 10
3212.0
 20
1451.4
 30
0.288
 40
24.0
  1
Ｖ
 50
0.0
 41
0.8
 51
0.0
  7
KANJI41
  0
TEXT
  8
0
  6
CONTINUOUS
 62
     2
 10
3197.6
 20
1395.4
 30
0.288
 40
24.0
  1
Ｈｚ
 50
0.0
 41
0.8
 51
0.0
  7
KANJI41
  0
TEXT
  8
0
  6
CONTINUOUS
 62
     2
 10
3039.8
 20
1395.2
 30
2.4
 40
24.0
  1
５０／６０
 50
0.0
 41
0.9
 51
0.0
  7
KANJI2
  0
TEXT
  8
0
  6
CONTINUOUS
 62
     2
 10
3213.8
 20
1341.2
 30
2.4
 40
24.0
  1
Ａ
 50
0.0
 41
0.9
 51
0.0
  7
KANJI2
  0
TEXT
  8
0
  6
CONTINUOUS
 62
     2
 10
3087.8
 20
1287.2
 30
2.4
 40
24.0
  1
Ｅ
 50
0.0
 41
0.9
 51
0.0
  7
KANJI2
  0
LINE
  8
0
  6
CONTINUOUS
 62
     2
 10
2604.0
 20
1549.0
 11
2604.0
 21
1101.0
  0
LINE
  8
0
  6
CONTINUOUS
 62
     2
 10
2940.0
 20
1997.0
 11
2940.0
 21
989.0
  0
TEXT
  8
0
  6
CONTINUOUS
 62
     2
 10
2600.0
 20
1955.4
 30
240.594285714
 40
30.4
  1
形式
 50
0.0
 41
0.9
 51
0.0
  7
KANJI42
  0
TEXT
  8
0
  6
CONTINUOUS
 62
     2
 10
2600.0
 20
1899.4
 30
240.594285714
 40
30.4
  1
推力
 50
0.0
 41
0.9
 51
0.0
  7
KANJI42
  0
TEXT
  8
0
  6
CONTINUOUS
 62
     2
 10
2600.0
 20
1843.4
 30
39.628571429
 40
30.4
  1
ストローク
 50
0.0
 41
0.9
 51
0.0
  7
KANJI43
  0
TEXT
  8
0
  6
CONTINUOUS
 62
     2
 10
2600.0
 20
1787.4
 30
61.957805714
 40
30.4
  1
公称速度
 50
0.0
 41
0.9
 51
0.0
  7
KANJI44
  0
TEXT
  8
0
  6
CONTINUOUS
 62
     2
 10
2576.0
 20
1731.4
 30
2.605714286
 40
30.4
  1
ピストンロッド回転トルク
 50
0.0
 41
0.9
 51
0.0
  7
KANJI45
  0
TEXT
  8
0
  6
CONTINUOUS
 62
     2
 10
2600.0
 20
1675.4
 30
240.594285714
 40
30.4
  1
構造
 50
0.0
 41
0.9
 51
0.0
  7
KANJI42
  0
TEXT
  8
0
  6
CONTINUOUS
 62
     2
 10
2600.0
 20
1619.4
 30
17.298468571
 40
30.4
  1
過負荷安全装置
 50
0.0
 41
0.9
 51
0.0
  7
KANJI46
  0
TEXT
  8
0
  6
CONTINUOUS
 62
     2
 10
2600.0
 20
1563.4
 30
106.617142857
 40
30.4
  1
塗装色
 50
0.0
 41
0.9
 51
0.0
  7
KANJI47
  0
TEXT
  8
0
  6
CONTINUOUS
 62
     2
 10
2640.0
 20
1507.4
 30
26.6
 40
30.4
  1
出力　極数
 50
0.0
 41
0.9
 51
0.0
  7
KANJI48
  0
TEXT
  8
0
  6
CONTINUOUS
 62
     2
 10
2640.0
 20
1451.4
 30
44.586377143
 40
30.4
  1
電源電圧
 50
0.0
 41
0.9
 51
0.0
  7
KANJI49
  0
TEXT
  8
0
  6
CONTINUOUS
 62
     2
 10
2640.0
 20
1395.4
 30
80.56
 40
30.4
  1
周波数
 50
0.0
 41
0.9
 51
0.0
  7
KANJI50
  0
TEXT
  8
0
  6
CONTINUOUS
 62
     2
 10
2640.0
 20
1339.4
 30
188.48
 40
30.4
  1
電流
 50
0.0
 41
0.9
 51
0.0
  7
KANJI51
  0
TEXT
  8
0
  6
CONTINUOUS
 62
     2
 10
2640.0
 20
1283.4
 30
80.56
 40
30.4
  1
絶縁級
 50
0.0
 41
0.9
 51
0.0
  7
KANJI50
  0
TEXT
  8
0
  6
CONTINUOUS
 62
     2
 10
2640.0
 20
1171.4
 30
188.48
 40
30.4
  1
形式
 50
0.0
 41
0.9
 51
0.0
  7
KANJI51
  0
TEXT
  8
0
  6
CONTINUOUS
 62
     2
 10
2640.0
 20
1115.4
 30
44.586377143
 40
30.4
  1
操作方式
 50
0.0
 41
0.9
 51
0.0
  7
KANJI49
  0
TEXT
  8
0
  6
CONTINUOUS
 62
     2
 10
2600.0
 20
1059.4
 30
106.617142857
 40
30.4
  1
付属品
 50
0.0
 41
0.9
 51
0.0
  7
KANJI47
  0
TEXT
  8
0
  6
CONTINUOUS
 62
     2
 10
2600.0
 20
1003.4
 30
240.594285714
 40
30.4
  1
台数
 50
0.0
 41
0.9
 51
0.0
  7
KANJI42
  0
TEXT
  8
0
  6
CONTINUOUS
 62
     2
 10
3190.8
 20
1846.6
 30
0.1792
 40
22.4
  1
ｍｍ
 50
0.0
 41
0.8
 51
0.0
  7
KANJI52
  0
TEXT
  8
0
  6
CONTINUOUS
 62
     2
 10
3130.8
 20
1793.0
 30
0.1792
 40
22.4
  1
ｍｍ／ｓｅｃ
 50
0.0
 41
0.8
 51
0.0
  7
KANJI52
  0
LINE
  8
0
  6
CONTINUOUS
 62
     1
 10
2540.0
 20
989.0
 11
3248.0
 21
989.0
  0
LINE
  8
0
  6
CONTINUOUS
 62
     2
 10
2540.0
 20
1045.0
 11
3248.0
 21
1045.0
  0
LINE
  8
0
  6
CONTINUOUS
 62
     2
 10
2540.0
 20
1101.0
 11
3248.0
 21
1101.0
  0
LINE
  8
0
  6
CONTINUOUS
 62
     2
 10
2604.0
 20
1157.0
 11
3248.0
 21
1157.0
  0
LINE
  8
0
  6
CONTINUOUS
 62
     2
 10
2540.0
 20
1213.0
 11
3248.0
 21
1213.0
  0
LINE
  8
0
  6
CONTINUOUS
 62
     2
 10
2604.0
 20
1269.0
 11
3248.0
 21
1269.0
  0
LINE
  8
0
  6
CONTINUOUS
 62
     2
 10
2604.0
 20
1325.0
 11
3248.0
 21
1325.0
  0
LINE
  8
0
  6
CONTINUOUS
 62
     2
 10
2604.0
 20
1381.0
 11
3248.0
 21
1381.0
  0
LINE
  8
0
  6
CONTINUOUS
 62
     2
 10
2604.0
 20
1437.0
 11
3248.0
 21
1437.0
  0
LINE
  8
0
  6
CONTINUOUS
 62
     2
 10
2604.0
 20
1493.0
 11
3248.0
 21
1493.0
  0
LINE
  8
0
  6
CONTINUOUS
 62
     2
 10
2540.0
 20
1549.0
 11
3248.0
 21
1549.0
  0
LINE
  8
0
  6
CONTINUOUS
 62
     2
 10
2540.0
 20
1605.0
 11
3248.0
 21
1605.0
  0
LINE
  8
0
  6
CONTINUOUS
 62
     2
 10
2540.0
 20
1661.0
 11
3248.0
 21
1661.0
  0
LINE
  8
0
  6
CONTINUOUS
 62
     1
 10
2540.0
 20
2077.0
 11
3248.0
 21
2077.0
  0
LINE
  8
0
  6
CONTINUOUS
 62
     2
 10
2540.0
 20
1997.0
 11
3248.0
 21
1997.0
  0
LINE
  8
0
  6
CONTINUOUS
 62
     2
 10
2540.0
 20
1941.0
 11
3248.0
 21
1941.0
  0
LINE
  8
0
  6
CONTINUOUS
 62
     2
 10
2540.0
 20
1885.0
 11
3248.0
 21
1885.0
  0
LINE
  8
0
  6
CONTINUOUS
 62
     2
 10
2540.0
 20
1829.0
 11
3248.0
 21
1829.0
  0
LINE
  8
0
  6
CONTINUOUS
 62
     2
 10
2540.0
 20
1773.0
 11
3248.0
 21
1773.0
  0
LINE
  8
0
  6
CONTINUOUS
 62
     2
 10
2540.0
 20
1717.0
 11
3248.0
 21
1717.0
  0
TEXT
  8
0
  6
CONTINUOUS
 62
     2
 10
2967.8
 20
1787.2
 30
2.4
 40
24.0
  1
２０／２４
 50
0.0
 41
0.9
 51
0.0
  7
KANJI2
  0
TEXT
  8
0
  6
CONTINUOUS
 62
     2
 10
2985.8
 20
1509.2
 30
2.4
 40
24.0
  1
２．２
 50
0.0
 41
0.9
 51
0.0
  7
KANJI2
  0
TEXT
  8
0
  6
CONTINUOUS
 62
     2
 10
3016.8
 20
1452.2
 30
2.4
 40
24.0
  1
　　　　　　／　
 50
0.0
 41
0.9
 51
0.0
  7
KANJI2
  0
TEXT
  8
0
  6
CONTINUOUS
 62
     2
 10
3016.8
 20
1340.2
 30
2.4
 40
24.0
  1
　　　　　　／　　
 50
0.0
 41
0.9
 51
0.0
  7
KANJI2
  0
LINE
  8
1
  6
CONTINUOUS
 62
     2
 10
706.0
 20
1014.0
 11
686.681483474
 21
1019.176380902
  0
LINE
  8
1
  6
CONTINUOUS
 62
     2
 10
706.0
 20
1014.0
 11
686.681483474
 21
1008.823619098
  0
LINE
  8
1
  6
CONTINUOUS
 62
     2
 10
706.0
 20
1014.0
 11
636.0
 21
1014.0
  0
LINE
  8
1
  6
CONTINUOUS
 62
     2
 10
636.0
 20
1014.0
 11
655.318516526
 21
1008.823619098
  0
LINE
  8
1
  6
CONTINUOUS
 62
     2
 10
636.0
 20
1014.0
 11
655.318516526
 21
1019.176380902
  0
LINE
  8
1
  6
CONTINUOUS
 62
     2
 10
636.0
 20
1181.0
 11
636.0
 21
998.0
  0
LINE
  8
1
  6
CONTINUOUS
 62
     2
 10
636.0
 20
1014.0
 11
616.681483474
 21
1019.176380902
  0
LINE
  8
1
  6
CONTINUOUS
 62
     2
 10
636.0
 20
1014.0
 11
616.681483474
 21
1008.823619098
  0
LINE
  8
1
  6
CONTINUOUS
 62
     2
 10
636.0
 20
1014.0
 11
481.0
 21
1014.0
  0
LINE
  8
1
  6
CONTINUOUS
 62
     2
 10
481.0
 20
1014.0
 11
500.318516526
 21
1008.823619098
  0
LINE
  8
1
  6
CONTINUOUS
 62
     2
 10
481.0
 20
1014.0
 11
500.318516526
 21
1019.176380902
  0
LINE
  8
1
  6
CONTINUOUS
 62
     2
 10
481.0
 20
1181.0
 11
481.0
 21
998.0
  0
LINE
  8
0
  6
CONTINUOUS
 62
     1
 10
636.0
 20
1189.0
 11
481.0
 21
1189.0
  0
LINE
  8
0
  6
CONTINUOUS
 62
     1
 10
481.0
 20
1439.8
 11
478.0
 21
1439.8
  0
LINE
  8
0
  6
CONTINUOUS
 62
     1
 10
478.0
 20
1439.8
 11
478.0
 21
1418.2
  0
LINE
  8
0
  6
CONTINUOUS
 62
     1
 10
478.0
 20
1418.2
 11
481.0
 21
1418.2
  0
LINE
  8
0
  6
CONTINUOUS
 62
     1
 10
481.0
 20
1418.2
 11
481.0
 21
1439.8
  0
LINE
  8
0
  6
CONTINUOUS
 62
     1
 10
478.0
 20
1420.0
 11
478.0
 21
1438.0
  0
LINE
  8
0
  6
CONTINUOUS
 62
     1
 10
470.5
 20
1420.0
 11
470.5
 21
1438.0
  0
LINE
  8
0
  6
LTYPE2
 62
     2
 10
485.0
 20
1429.0
 11
466.5
 21
1429.0
  0
LINE
  8
0
  6
CONTINUOUS
 62
     1
 10
470.5
 20
1438.0
 11
478.0
 21
1438.0
  0
LINE
  8
0
  6
CONTINUOUS
 62
     1
 10
470.5
 20
1420.0
 11
478.0
 21
1420.0
  0
LINE
  8
0
  6
CONTINUOUS
 62
     1
 10
478.0
 20
1429.0
 11
471.5
 21
1429.0
  0
ARC
  8
0
  6
CONTINUOUS
 62
     1
 10
481.1
 20
1424.5
 40
10.6
 50
154.9
 51
205.1
  0
ARC
  8
0
  6
CONTINUOUS
 62
     1
 10
481.1
 20
1433.5
 40
10.6
 50
154.9
 51
205.1
  0
LINE
  8
0
  6
CONTINUOUS
 62
     1
 10
478.0
 20
1429.0
 11
481.0
 21
1430.732050808
  0
LINE
  8
0
  6
CONTINUOUS
 62
     1
 10
481.0
 20
1429.0
 11
478.0
 21
1427.267949192
  0
LINE
  8
0
  6
CONTINUOUS
 62
     1
 10
481.0
 20
1229.8
 11
478.0
 21
1229.8
  0
LINE
  8
0
  6
CONTINUOUS
 62
     1
 10
478.0
 20
1229.8
 11
478.0
 21
1208.2
  0
LINE
  8
0
  6
CONTINUOUS
 62
     1
 10
478.0
 20
1208.2
 11
481.0
 21
1208.2
  0
LINE
  8
0
  6
CONTINUOUS
 62
     1
 10
481.0
 20
1208.2
 11
481.0
 21
1229.8
  0
LINE
  8
0
  6
CONTINUOUS
 62
     1
 10
478.0
 20
1210.0
 11
478.0
 21
1228.0
  0
LINE
  8
0
  6
CONTINUOUS
 62
     1
 10
470.5
 20
1210.0
 11
470.5
 21
1228.0
  0
LINE
  8
0
  6
LTYPE2
 62
     2
 10
485.0
 20
1219.0
 11
466.5
 21
1219.0
  0
LINE
  8
0
  6
CONTINUOUS
 62
     1
 10
470.5
 20
1228.0
 11
478.0
 21
1228.0
  0
LINE
  8
0
  6
CONTINUOUS
 62
     1
 10
470.5
 20
1210.0
 11
478.0
 21
1210.0
  0
LINE
  8
0
  6
CONTINUOUS
 62
     1
 10
478.0
 20
1219.0
 11
471.5
 21
1219.0
  0
ARC
  8
0
  6
CONTINUOUS
 62
     1
 10
481.1
 20
1214.5
 40
10.6
 50
154.9
 51
205.1
  0
ARC
  8
0
  6
CONTINUOUS
 62
     1
 10
481.1
 20
1223.5
 40
10.6
 50
154.9
 51
205.1
  0
LINE
  8
0
  6
CONTINUOUS
 62
     1
 10
478.0
 20
1219.0
 11
481.0
 21
1220.732050808
  0
LINE
  8
0
  6
CONTINUOUS
 62
     1
 10
481.0
 20
1219.0
 11
478.0
 21
1217.267949192
  0
LINE
  8
1
  6
CONTINUOUS
 62
     2
 10
706.0
 20
1006.0
 11
706.0
 21
931.0
  0
LINE
  8
1
  6
CONTINUOUS
 62
     2
 10
706.0
 20
947.0
 11
686.681483474
 21
952.176380902
  0
LINE
  8
1
  6
CONTINUOUS
 62
     2
 10
706.0
 20
947.0
 11
686.681483474
 21
941.823619098
  0
LINE
  8
1
  6
CONTINUOUS
 62
     2
 10
706.0
 20
947.0
 11
481.0
 21
947.0
  0
LINE
  8
1
  6
CONTINUOUS
 62
     2
 10
481.0
 20
947.0
 11
500.318516526
 21
941.823619098
  0
LINE
  8
1
  6
CONTINUOUS
 62
     2
 10
481.0
 20
947.0
 11
500.318516526
 21
952.176380902
  0
LINE
  8
1
  6
CONTINUOUS
 62
     2
 10
481.0
 20
1006.0
 11
481.0
 21
931.0
  0
TEXT
  8
1
  6
CONTINUOUS
 62
     2
 10
517.7
 20
1022.0
 30
2.4
 40
28.0
  1
１５５
 50
0.0
 41
0.914285714
 51
0.0
  7
KANJI53
  0
TEXT
  8
1
  6
CONTINUOUS
 62
     2
 10
644.2
 20
1022.0
 30
2.4
 40
28.0
  1
７０
 50
0.0
 41
0.914285714
 51
0.0
  7
KANJI53
  0
TEXT
  8
1
  6
CONTINUOUS
 62
     2
 10
552.7
 20
955.0
 30
2.4
 40
28.0
  1
２２５
 50
0.0
 41
0.914285714
 51
0.0
  7
KANJI53
  0
LINE
  8
0
  6
CONTINUOUS
 62
     1
 10
2096.49
 20
2196.5948
 11
2096.49
 21
1988.6
  0
LINE
  8
0
  6
CONTINUOUS
 62
     2
 10
1976.493
 20
2196.5948
 11
1976.493
 21
1988.6
  0
LINE
  8
0
  6
CONTINUOUS
 62
     2
 10
1856.496
 20
2196.5948
 11
1856.496
 21
1988.6
  0
LINE
  8
0
  6
CONTINUOUS
 62
     1
 10
1696.5
 20
2196.5948
 11
1696.5
 21
1988.6
  0
LINE
  8
0
  6
CONTINUOUS
 62
     1
 10
1696.5
 20
2196.5948
 11
2096.49
 21
2196.5948
  0
LINE
  8
0
  6
CONTINUOUS
 62
     1
 10
1696.5
 20
2132.5964
 11
2096.49
 21
2132.5964
  0
LINE
  8
0
  6
CONTINUOUS
 62
     2
 10
1696.5
 20
2084.5976
 11
2096.49
 21
2084.5976
  0
LINE
  8
0
  6
CONTINUOUS
 62
     2
 10
1696.5
 20
2036.5988
 11
2096.49
 21
2036.5988
  0
LINE
  8
0
  6
CONTINUOUS
 62
     1
 10
1696.5
 20
1988.6
 11
2096.49
 21
1988.6
  0
TEXT
  8
0
  6
CONTINUOUS
 62
     2
 10
1992.4926
 20
2168.5955
 30
2.39994
 40
23.9994
  1
起動電流
 50
0.0
 41
0.9
 51
0.0
  7
KANJI54
  0
TEXT
  8
0
  6
CONTINUOUS
 62
     2
 10
1992.4926
 20
2140.5962
 30
2.39994
 40
23.9994
  1
　　　Ａ
 50
0.0
 41
0.9
 51
0.0
  7
KANJI54
  0
TEXT
  8
0
  6
CONTINUOUS
 62
     2
 10
1872.4956
 20
2168.5955
 30
2.39994
 40
23.9994
  1
定格電流
 50
0.0
 41
0.9
 51
0.0
  7
KANJI54
  0
TEXT
  8
0
  6
CONTINUOUS
 62
     2
 10
1872.4956
 20
2140.5962
 30
2.39994
 40
23.9994
  1
　　　Ａ
 50
0.0
 41
0.9
 51
0.0
  7
KANJI54
  0
TEXT
  8
0
  6
CONTINUOUS
 62
     2
 10
1710.09966
 20
2168.5955
 30
2.39994
 40
23.9994
  1
電圧／周波数
 50
0.0
 41
0.9
 51
0.0
  7
KANJI54
  0
TEXT
  8
0
  6
CONTINUOUS
 62
     2
 10
1710.09966
 20
2140.5962
 30
2.39994
 40
23.9994
  1
　Ｖ／Ｈｚ
 50
0.0
 41
0.9
 51
0.0
  7
KANJI54
  0
TEXT
  8
0
  6
CONTINUOUS
 62
     2
 10
1710.09966
 20
2096.5973
 30
2.39994
 40
23.9994
  1
４００／５０
 50
0.0
 41
0.9
 51
0.0
  7
KANJI54
  0
TEXT
  8
0
  6
CONTINUOUS
 62
     2
 10
1710.09966
 20
2048.5985
 30
2.39994
 40
23.9994
  1
４００／６０
 50
0.0
 41
0.9
 51
0.0
  7
KANJI54
  0
TEXT
  8
0
  6
CONTINUOUS
 62
     2
 10
1710.09966
 20
2000.5997
 30
2.39994
 40
23.9994
  1
４４０／６０
 50
0.0
 41
0.9
 51
0.0
  7
KANJI54
  0
LINE
  8
0
  6
CONTINUOUS
 62
     1
 10
1616.5
 20
2196.5948
 11
1616.5
 21
1988.6
  0
LINE
  8
0
  6
CONTINUOUS
 62
     2
 10
1496.503
 20
2196.5948
 11
1496.503
 21
1988.6
  0
LINE
  8
0
  6
CONTINUOUS
 62
     2
 10
1376.506
 20
2196.5948
 11
1376.506
 21
1988.6
  0
LINE
  8
0
  6
CONTINUOUS
 62
     1
 10
1216.51
 20
2196.5948
 11
1216.51
 21
1988.6
  0
LINE
  8
0
  6
CONTINUOUS
 62
     1
 10
1216.51
 20
2196.5948
 11
1616.5
 21
2196.5948
  0
LINE
  8
0
  6
CONTINUOUS
 62
     1
 10
1216.51
 20
2132.5964
 11
1616.5
 21
2132.5964
  0
LINE
  8
0
  6
CONTINUOUS
 62
     2
 10
1216.51
 20
2084.5976
 11
1616.5
 21
2084.5976
  0
LINE
  8
0
  6
CONTINUOUS
 62
     2
 10
1216.51
 20
2036.5988
 11
1616.5
 21
2036.5988
  0
LINE
  8
0
  6
CONTINUOUS
 62
     1
 10
1216.51
 20
1988.6
 11
1616.5
 21
1988.6
  0
TEXT
  8
0
  6
CONTINUOUS
 62
     2
 10
1512.5026
 20
2168.5955
 30
2.39994
 40
23.9994
  1
起動電流
 50
0.0
 41
0.9
 51
0.0
  7
KANJI54
  0
TEXT
  8
0
  6
CONTINUOUS
 62
     2
 10
1512.5026
 20
2140.5962
 30
2.39994
 40
23.9994
  1
　　　Ａ
 50
0.0
 41
0.9
 51
0.0
  7
KANJI54
  0
TEXT
  8
0
  6
CONTINUOUS
 62
     2
 10
1392.5056
 20
2168.5955
 30
2.39994
 40
23.9994
  1
定格電流
 50
0.0
 41
0.9
 51
0.0
  7
KANJI54
  0
TEXT
  8
0
  6
CONTINUOUS
 62
     2
 10
1392.5056
 20
2140.5962
 30
2.39994
 40
23.9994
  1
　　　Ａ
 50
0.0
 41
0.9
 51
0.0
  7
KANJI54
  0
TEXT
  8
0
  6
CONTINUOUS
 62
     2
 10
1230.10966
 20
2048.5985
 30
2.39994
 40
23.9994
  1
２００／６０
 50
0.0
 41
0.9
 51
0.0
  7
KANJI54
  0
TEXT
  8
0
  6
CONTINUOUS
 62
     2
 10
1230.10966
 20
2168.5955
 30
2.39994
 40
23.9994
  1
電圧／周波数
 50
0.0
 41
0.9
 51
0.0
  7
KANJI54
  0
TEXT
  8
0
  6
CONTINUOUS
 62
     2
 10
1230.10966
 20
2140.5962
 30
2.39994
 40
23.9994
  1
　Ｖ／Ｈｚ
 50
0.0
 41
0.9
 51
0.0
  7
KANJI54
  0
TEXT
  8
0
  6
CONTINUOUS
 62
     2
 10
1230.10966
 20
2096.5973
 30
2.39994
 40
23.9994
  1
２００／５０
 50
0.0
 41
0.9
 51
0.0
  7
KANJI54
  0
TEXT
  8
0
  6
CONTINUOUS
 62
     2
 10
1230.10966
 20
2000.5997
 30
2.39994
 40
23.9994
  1
２２０／６０
 50
0.0
 41
0.9
 51
0.0
  7
KANJI54
  0
TEXT
  8
0
  6
CONTINUOUS
 62
     2
 10
1319.097220468
 20
1942.934483
 30
2.79993
 40
27.9993
  1
注意：サーマルリレー等の選定は、上記の値を参照下さい。
 50
0.0
 41
0.9
 51
0.0
  7
KANJI55
  0
LINE
  8
0
  6
CONTINUOUS
 62
     2
 10
1303.097620468
 20
1934.934683
 11
2055.078820468
 21
1934.934683
  0
TEXT
  8
0
  6
CONTINUOUS
 62
     2
 10
1392.5056
 20
2096.5973
 30
2.39994
 40
23.9994
  1
　　９．４
 50
0.0
 41
0.9
 51
0.0
  7
KANJI54
  0
TEXT
  8
0
  6
CONTINUOUS
 62
     2
 10
1392.5056
 20
2048.5985
 30
2.39994
 40
23.9994
  1
　　８．８
 50
0.0
 41
0.9
 51
0.0
  7
KANJI54
  0
TEXT
  8
0
  6
CONTINUOUS
 62
     2
 10
1392.5056
 20
2000.5997
 30
2.39994
 40
23.9994
  1
　　８．３
 50
0.0
 41
0.9
 51
0.0
  7
KANJI54
  0
TEXT
  8
0
  6
CONTINUOUS
 62
     2
 10
1512.5026
 20
2096.5973
 30
2.39994
 40
23.9994
  1
６０．４
 50
0.0
 41
0.9
 51
0.0
  7
KANJI54
  0
TEXT
  8
0
  6
CONTINUOUS
 62
     2
 10
1511.635999532
 20
2044.931917
 30
2.39994
 40
23.9994
  1
５２．４
 50
0.0
 41
0.9
 51
0.0
  7
KANJI54
  0
TEXT
  8
0
  6
CONTINUOUS
 62
     2
 10
1513.635949532
 20
1999.599717
 30
2.39994
 40
23.9994
  1
５７．６
 50
0.0
 41
0.9
 51
0.0
  7
KANJI54
  0
TEXT
  8
0
  6
CONTINUOUS
 62
     2
 10
1872.4956
 20
2096.5973
 30
2.39994
 40
23.9994
  1
　　４．７
 50
0.0
 41
0.9
 51
0.0
  7
KANJI54
  0
TEXT
  8
0
  6
CONTINUOUS
 62
     2
 10
1872.4956
 20
2048.5985
 30
2.39994
 40
23.9994
  1
　　４．４
 50
0.0
 41
0.9
 51
0.0
  7
KANJI54
  0
TEXT
  8
0
  6
CONTINUOUS
 62
     2
 10
1872.4956
 20
2000.5997
 30
2.39994
 40
23.9994
  1
　　４．２
 50
0.0
 41
0.9
 51
0.0
  7
KANJI54
  0
TEXT
  8
0
  6
CONTINUOUS
 62
     2
 10
1992.4926
 20
2096.5973
 30
2.39994
 40
23.9994
  1
３０．２
 50
0.0
 41
0.9
 51
0.0
  7
KANJI54
  0
TEXT
  8
0
  6
CONTINUOUS
 62
     2
 10
1992.4926
 20
2048.5985
 30
2.39994
 40
23.9994
  1
２６．２
 50
0.0
 41
0.9
 51
0.0
  7
KANJI54
  0
TEXT
  8
0
  6
CONTINUOUS
 62
     2
 10
1992.4926
 20
2000.5997
 30
2.39994
 40
23.9994
  1
２８．８
 50
0.0
 41
0.9
 51
0.0
  7
KANJI54
  0
CIRCLE
  8
0
  6
CONTINUOUS
 62
     1
 10
2644.5
 20
296.9
 40
23.0
  0
TEXT
  8
0
  6
CONTINUOUS
 62
     2
 10
2633.8
 20
283.4
 30
0.0
 40
28.0
  1
Ｓ
 50
0.0
 41
0.793650794
 51
0.0
  7
KANJI56
  0
TEXT
  8
0
  6
CONTINUOUS
 62
     2
 10
2263.0
 20
229.0
 30
2.4
 40
24.0
  1
佐竹
 50
0.0
 41
0.9
 51
0.0
  7
KANJI2
  0
TEXT
  8
0
  6
CONTINUOUS
 62
     2
 10
1117.7
 20
621.0
 30
2.4
 40
24.0
  1
１１０５
 50
0.0
 41
0.9
 51
0.0
  7
KANJI2
  0
TEXT
  8
0
  6
CONTINUOUS
 62
     2
 10
2251.0
 20
169.0
 30
2.4
 40
24.0
  1
００．３．２２
 50
0.0
 41
0.9
 51
0.0
  7
KANJI2
  0
LINE
  8
0
  6
LTYPE3
 62
     2
 10
636.0
 20
1324.0
 11
481.0
 21
1324.0
  0
LINE
  8
6
  6
CONTINUOUS
 62
     2
 10
757.01036957
 20
1100.541
 11
922.5
 21
1100.541
  0
LINE
  8
6
  6
CONTINUOUS
 62
     2
 10
706.0
 20
1161.0
 11
706.0
 21
1050.041
  0
LINE
  8
0
  6
LTYPE3
 62
     2
 10
659.0
 20
1324.0
 11
473.07
 21
1324.0
  0
LINE
  8
1
  6
CONTINUOUS
 62
     2
 10
706.0
 20
1161.0
 11
706.0
 21
1043.541
  0
LINE
  8
1
  6
CONTINUOUS
 62
     2
 10
706.0
 20
1161.0
 11
706.0
 21
1044.3
  0
LINE
  8
1
  6
CONTINUOUS
 62
     2
 10
706.0
 20
1161.0
 11
706.0
 21
998.0
  0
CIRCLE
  8
0
  6
CONTINUOUS
 62
     1
 10
706.0
 20
1324.0
 40
22.5
  0
CIRCLE
  8
0
  6
CONTINUOUS
 62
     1
 10
706.0
 20
1324.0
 40
45.0
  0
CIRCLE
  8
0
  6
CONTINUOUS
 62
     1
 10
706.0
 20
1324.0
 40
55.0
  0
LINE
  8
0
  6
CONTINUOUS
 62
     1
 10
671.0
 20
1424.0
 11
694.0
 21
1405.5
  0
LINE
  8
0
  6
CONTINUOUS
 62
     1
 10
671.0
 20
1370.5
 11
671.0
 21
1424.0
  0
LINE
  8
0
  6
CONTINUOUS
 62
     1
 10
694.0
 20
1380.5
 11
694.0
 21
1405.5
  0
LINE
  8
0
  6
CONTINUOUS
 62
     1
 10
636.0
 20
1224.0
 11
671.0
 21
1224.0
  0
LINE
  8
0
  6
CONTINUOUS
 62
     1
 10
671.0
 20
1224.0
 11
694.0
 21
1242.5
  0
LINE
  8
0
  6
CONTINUOUS
 62
     1
 10
671.0
 20
1277.5
 11
671.0
 21
1224.0
  0
LINE
  8
0
  6
CONTINUOUS
 62
     1
 10
694.0
 20
1267.5
 11
694.0
 21
1242.5
  0
LINE
  8
0
  6
CONTINUOUS
 62
     1
 10
896.0
 20
1224.0
 11
866.0
 21
1242.5
  0
LINE
  8
0
  6
CONTINUOUS
 62
     1
 10
694.0
 20
1242.5
 11
866.0
 21
1242.5
  0
LINE
  8
0
  6
CONTINUOUS
 62
     1
 10
896.0
 20
1224.0
 11
936.0
 21
1224.0
  0
LINE
  8
0
  6
CONTINUOUS
 62
     1
 10
866.0
 20
1324.0
 11
866.0
 21
1242.5
  0
LINE
  8
0
  6
LTYPE3
 62
     2
 10
706.0
 20
1254.398877817
 11
706.0
 21
1391.366558854
  0
LINE
  8
0
  6
CONTINUOUS
 62
     1
 10
973.0
 20
1324.0
 11
973.0
 21
1424.0
  0
LINE
  8
0
  6
CONTINUOUS
 62
     1
 10
950.0
 20
1324.0
 11
950.0
 21
1424.0
  0
LINE
  8
0
  6
CONTINUOUS
 62
     1
 10
976.0
 20
1411.5
 11
976.0
 21
1422.44954
  0
LINE
  8
0
  6
CONTINUOUS
 62
     1
 10
976.0
 20
1411.5
 11
976.0
 21
1400.55046
  0
LINE
  8
0
  6
CONTINUOUS
 62
     1
 10
973.0
 20
1422.25
 11
976.0
 21
1422.25
  0
LINE
  8
0
  6
CONTINUOUS
 62
     1
 10
973.0
 20
1411.5
 11
976.000254073
 21
1414.500254073
  0
LINE
  8
0
  6
CONTINUOUS
 62
     1
 10
976.000254073
 20
1411.5
 11
973.0
 21
1408.499745927
  0
LINE
  8
0
  6
CONTINUOUS
 62
     1
 10
973.0
 20
1400.75
 11
976.0
 21
1400.75
  0
LINE
  8
0
  6
CONTINUOUS
 62
     1
 10
976.0
 20
1422.25
 11
987.3
 21
1422.25
  0
LINE
  8
0
  6
CONTINUOUS
 62
     1
 10
987.3
 20
1411.5
 11
987.3
 21
1422.25
  0
LINE
  8
0
  6
CONTINUOUS
 62
     1
 10
987.3
 20
1422.25
 11
988.0
 21
1421.037564435
  0
LINE
  8
0
  6
CONTINUOUS
 62
     1
 10
988.0
 20
1411.5
 11
988.0
 21
1421.037564435
  0
LINE
  8
0
  6
CONTINUOUS
 62
     1
 10
976.0
 20
1400.75
 11
987.3
 21
1400.75
  0
LINE
  8
0
  6
CONTINUOUS
 62
     1
 10
987.3
 20
1411.5
 11
987.3
 21
1400.75
  0
LINE
  8
0
  6
CONTINUOUS
 62
     1
 10
987.3
 20
1400.75
 11
988.0
 21
1401.962435565
  0
LINE
  8
0
  6
CONTINUOUS
 62
     1
 10
988.0
 20
1411.5
 11
988.0
 21
1401.962435565
  0
LINE
  8
0
  6
LTYPE3
 62
     2
 10
936.0
 20
1411.5
 11
999.7
 21
1411.5
  0
LINE
  8
0
  6
CONTINUOUS
 62
     1
 10
973.0
 20
1324.0
 11
973.0
 21
1224.0
  0
LINE
  8
0
  6
CONTINUOUS
 62
     1
 10
950.0
 20
1324.0
 11
950.0
 21
1224.0
  0
LINE
  8
0
  6
CONTINUOUS
 62
     1
 10
936.0
 20
1224.0
 11
973.0
 21
1224.0
  0
LINE
  8
0
  6
CONTINUOUS
 62
     1
 10
936.0
 20
1324.0
 11
936.0
 21
1224.0
  0
LINE
  8
0
  6
CONTINUOUS
 62
     1
 10
976.0
 20
1236.5
 11
976.0
 21
1225.55046
  0
LINE
  8
0
  6
CONTINUOUS
 62
     1
 10
976.0
 20
1236.5
 11
976.0
 21
1247.44954
  0
LINE
  8
0
  6
CONTINUOUS
 62
     1
 10
973.0
 20
1225.75
 11
976.0
 21
1225.75
  0
LINE
  8
0
  6
CONTINUOUS
 62
     1
 10
973.0
 20
1236.5
 11
976.000254073
 21
1233.499745927
  0
LINE
  8
0
  6
CONTINUOUS
 62
     1
 10
976.000254073
 20
1236.5
 11
973.0
 21
1239.500254073
  0
LINE
  8
0
  6
CONTINUOUS
 62
     1
 10
973.0
 20
1247.25
 11
976.0
 21
1247.25
  0
LINE
  8
0
  6
CONTINUOUS
 62
     1
 10
976.0
 20
1225.75
 11
987.3
 21
1225.75
  0
LINE
  8
0
  6
CONTINUOUS
 62
     1
 10
987.3
 20
1236.5
 11
987.3
 21
1225.75
  0
LINE
  8
0
  6
CONTINUOUS
 62
     1
 10
987.3
 20
1225.75
 11
988.0
 21
1226.962435565
  0
LINE
  8
0
  6
CONTINUOUS
 62
     1
 10
988.0
 20
1236.5
 11
988.0
 21
1226.962435565
  0
LINE
  8
0
  6
CONTINUOUS
 62
     1
 10
976.0
 20
1247.25
 11
987.3
 21
1247.25
  0
LINE
  8
0
  6
CONTINUOUS
 62
     1
 10
987.3
 20
1236.5
 11
987.3
 21
1247.25
  0
LINE
  8
0
  6
CONTINUOUS
 62
     1
 10
987.3
 20
1247.25
 11
988.0
 21
1246.037564435
  0
LINE
  8
0
  6
CONTINUOUS
 62
     1
 10
988.0
 20
1236.5
 11
988.0
 21
1246.037564435
  0
LINE
  8
0
  6
LTYPE3
 62
     2
 10
936.0
 20
1236.5
 11
999.7
 21
1236.5
  0
CIRCLE
  8
0
  6
CONTINUOUS
 62
     1
 10
1174.3
 20
1324.0
 40
19.5
  0
LINE
  8
0
  6
CONTINUOUS
 62
     1
 10
1154.3
 20
1344.0
 11
1194.3
 21
1344.0
  0
LINE
  8
0
  6
CONTINUOUS
 62
     1
 10
1194.3
 20
1304.0
 11
1194.3
 21
1344.0
  0
LINE
  8
0
  6
CONTINUOUS
 62
     1
 10
1154.3
 20
1304.0
 11
1194.3
 21
1304.0
  0
LINE
  8
0
  6
CONTINUOUS
 62
     1
 10
1154.3
 20
1304.0
 11
1154.3
 21
1344.0
  0
LINE
  8
0
  6
LTYPE2
 62
     2
 10
1174.3
 20
1298.9
 11
1174.3
 21
1348.8
  0
LINE
  8
6
  6
CONTINUOUS
 62
     2
 10
706.0
 20
1242.398877817
 11
706.0
 21
1050.0
  0
LINE
  8
6
  6
CONTINUOUS
 62
     2
 10
1121.0
 20
1254.0
 11
1126.176380902
 21
1273.318516526
  0
LINE
  8
6
  6
CONTINUOUS
 62
     2
 10
1121.0
 20
1254.0
 11
1115.823619098
 21
1273.318516526
  0
LINE
  8
6
  6
CONTINUOUS
 62
     2
 10
1121.0
 20
1254.0
 11
1121.0
 21
1394.0
  0
LINE
  8
6
  6
CONTINUOUS
 62
     2
 10
1121.0
 20
1394.0
 11
1115.823619098
 21
1374.681483474
  0
LINE
  8
6
  6
CONTINUOUS
 62
     2
 10
1121.0
 20
1394.0
 11
1126.176380902
 21
1374.681483474
  0
TEXT
  8
6
  6
CONTINUOUS
 62
     2
 10
1113.0
 20
1277.2
 30
2.4
 40
24.0
  1
φ１４０
 50
90.0
 41
0.9
 51
0.0
  7
KANJI57
  0
LINE
  8
6
  6
CONTINUOUS
 62
     2
 10
1441.0
 20
1416.5
 11
1440.5
 21
1416.5
  0
LINE
  8
0
  6
LTYPE3
 62
     2
 10
1624.000190206
 20
1158.0
 11
1624.000190206
 21
1378.5
  0
LINE
  8
0
  6
LTYPE3
 62
     2
 10
1677.0
 20
1324.0
 11
457.0
 21
1324.0
  0
LINE
  8
0
  6
CONTINUOUS
 62
     1
 10
1524.0
 20
1371.5
 11
1664.000190206
 21
1371.5
  0
LINE
  8
0
  6
CONTINUOUS
 62
     1
 10
1664.000190206
 20
1371.5
 11
1674.000190206
 21
1361.5
  0
LINE
  8
0
  6
CONTINUOUS
 62
     1
 10
1524.0
 20
1276.5
 11
1664.000190206
 21
1276.5
  0
LINE
  8
0
  6
CONTINUOUS
 62
     1
 10
1674.000190206
 20
1286.5
 11
1674.000190206
 21
1361.5
  0
LINE
  8
0
  6
CONTINUOUS
 62
     1
 10
1664.000190206
 20
1276.5
 11
1674.000190206
 21
1286.5
  0
CIRCLE
  8
0
  6
CONTINUOUS
 62
     1
 10
1624.000190206
 20
1324.0
 40
22.5
  0
LINE
  8
0
  6
CONTINUOUS
 62
     1
 10
1664.000190206
 20
1371.5
 11
1664.000190206
 21
1364.388736054
  0
LINE
  8
0
  6
CONTINUOUS
 62
     1
 10
1664.000190206
 20
1364.388736054
 11
1674.000190206
 21
1351.747752752
  0
LINE
  8
0
  6
CONTINUOUS
 62
     1
 10
1664.000190206
 20
1364.388736054
 11
1534.0
 21
1364.388736054
  0
LINE
  8
0
  6
CONTINUOUS
 62
     1
 10
1664.000190206
 20
1276.5
 11
1664.000190206
 21
1283.611263946
  0
LINE
  8
0
  6
CONTINUOUS
 62
     1
 10
1664.000190206
 20
1283.611263946
 11
1674.000190206
 21
1296.252247248
  0
LINE
  8
0
  6
CONTINUOUS
 62
     1
 10
1664.000190206
 20
1283.611263946
 11
1534.0
 21
1283.611263946
  0
LINE
  8
0
  6
CONTINUOUS
 62
     1
 10
1534.0
 20
1364.388736054
 11
1534.0
 21
1283.611263946
  0
LINE
  8
0
  6
CONTINUOUS
 62
     1
 10
1380.149691586
 20
1336.0
 11
1380.149691586
 21
1324.0
  0
LINE
  8
0
  6
CONTINUOUS
 62
     1
 10
1380.149691586
 20
1395.591148475
 11
1380.149691586
 21
1324.0
  0
POINT
  8
0
  6
CONTINUOUS
 62
     1
 10
762.0
 20
1324.0
  0
LINE
  8
0
  6
CONTINUOUS
 62
     1
 10
819.0
 20
1453.944375069
 11
809.0
 21
1443.944375069
  0
LINE
  8
0
  6
CONTINUOUS
 62
     1
 10
809.0
 20
1385.305778818
 11
809.0
 21
1443.944375069
  0
LINE
  8
0
  6
CONTINUOUS
 62
     1
 10
819.0
 20
1375.305778818
 11
809.0
 21
1385.305778818
  0
ARC
  8
0
  6
CONTINUOUS
 62
     1
 10
807.0
 20
1454.466558854
 40
3.0
 50
90.0
 51
180.0
  0
ARC
  8
0
  6
CONTINUOUS
 62
     1
 10
807.0
 20
1373.63644216
 40
3.0
 50
180.0
 51
270.0
  0
ARC
  8
0
  6
CONTINUOUS
 62
     1
 10
807.0
 20
1370.194983542
 40
3.0
 50
180.0
 51
270.0
  0
ARC
  8
0
  6
CONTINUOUS
 62
     1
 10
807.0
 20
1369.334618887
 40
3.0
 50
180.0
 51
270.0
  0
LINE
  8
0
  6
CONTINUOUS
 62
     1
 10
927.0
 20
1385.305778818
 11
927.0
 21
1443.944375069
  0
LINE
  8
0
  6
CONTINUOUS
 62
     1
 10
932.0
 20
1342.657620342
 11
932.0
 21
1454.466558854
  0
ARC
  8
0
  6
CONTINUOUS
 62
     1
 10
929.0
 20
1454.466558854
 40
3.0
 50
0.0
 51
90.0
  0
LINE
  8
0
  6
CONTINUOUS
 62
     1
 10
927.0
 20
1443.944375069
 11
917.0
 21
1453.944375069
  0
LINE
  8
0
  6
CONTINUOUS
 62
     1
 10
819.0
 20
1453.944375069
 11
917.0
 21
1453.944375069
  0
LINE
  8
0
  6
CONTINUOUS
 62
     1
 10
927.0
 20
1385.305778818
 11
917.0
 21
1375.305778818
  0
LINE
  8
0
  6
CONTINUOUS
 62
     1
 10
819.0
 20
1375.305778818
 11
917.0
 21
1375.305778818
  0
LINE
  8
0
  6
CONTINUOUS
 62
     1
 10
807.0
 20
1457.466558854
 11
929.0
 21
1457.466558854
  0
ARC
  8
0
  6
CONTINUOUS
 62
     1
 10
929.0
 20
1373.63644216
 40
3.0
 50
270.0
 51
0.0
  0
ARC
  8
0
  6
CONTINUOUS
 62
     1
 10
929.0
 20
1370.194983542
 40
3.0
 50
270.0
 51
0.0
  0
ARC
  8
0
  6
CONTINUOUS
 62
     1
 10
929.0
 20
1369.334618887
 40
3.0
 50
270.0
 51
0.0
  0
LINE
  8
0
  6
CONTINUOUS
 62
     1
 10
806.507319827
 20
1370.63644216
 11
929.0
 21
1370.63644216
  0
LINE
  8
0
  6
CONTINUOUS
 62
     1
 10
806.607319827
 20
1367.194983542
 11
929.0
 21
1367.194983542
  0
LINE
  8
0
  6
CONTINUOUS
 62
     1
 10
806.607319827
 20
1366.334618887
 11
929.0
 21
1366.334618887
  0
LINE
  8
0
  6
CONTINUOUS
 62
     1
 10
937.0
 20
1369.266636349
 11
937.0
 21
1426.13271812
  0
LINE
  8
0
  6
CONTINUOUS
 62
     1
 10
932.0
 20
1369.266636349
 11
937.0
 21
1369.266636349
  0
LINE
  8
0
  6
CONTINUOUS
 62
     1
 10
932.0
 20
1426.13271812
 11
937.0
 21
1426.13271812
  0
LINE
  8
0
  6
CONTINUOUS
 62
     1
 10
932.0
 20
1393.366636349
 11
937.0
 21
1393.366636349
  0
LINE
  8
0
  6
CONTINUOUS
 62
     1
 10
894.0
 20
1342.657620342
 11
932.0
 21
1342.657620342
  0
LINE
  8
0
  6
CONTINUOUS
 62
     1
 10
937.0
 20
1413.848877817
 11
937.0
 21
1386.148877817
  0
LINE
  8
0
  6
LTYPE3
 62
     2
 10
910.737645868
 20
1399.998877817
 11
990.0
 21
1399.998877817
  0
LINE
  8
0
  6
CONTINUOUS
 62
     1
 10
804.0
 20
1324.0
 11
804.0
 21
1454.0
  0
LINE
  8
0
  6
CONTINUOUS
 62
     1
 10
694.0
 20
1405.5
 11
804.0
 21
1405.5
  0
LINE
  8
0
  6
CONTINUOUS
 62
     1
 10
804.0
 20
1341.957620342
 11
894.0
 21
1341.957620342
  0
LINE
  8
0
  6
CONTINUOUS
 62
     1
 10
896.0
 20
1342.657620342
 11
896.0
 21
1224.0
  0
LINE
  8
0
  6
CONTINUOUS
 62
     1
 10
936.0
 20
1369.266636349
 11
936.0
 21
1224.0
  0
LINE
  8
0
  6
CONTINUOUS
 62
     1
 10
937.0
 20
1424.0
 11
973.0
 21
1424.0
  0
LINE
  8
0
  6
CONTINUOUS
 62
     2
 10
1179.0
 20
1341.4
 11
1250.0
 21
1472.9
  0
LINE
  8
0
  6
CONTINUOUS
 62
     2
 10
1250.0
 20
1472.9
 11
1325.0
 21
1472.9
  0
LINE
  8
0
  6
CONTINUOUS
 62
     2
 10
1179.0
 20
1341.4
 11
1192.733041598
 21
1355.93972381
  0
LINE
  8
0
  6
CONTINUOUS
 62
     2
 10
1179.0
 20
1341.4
 11
1183.62330099
 21
1360.858290982
  0
TEXT
  8
0
  6
CONTINUOUS
 62
     2
 10
1251.5
 20
1484.1
 30
0.0
 40
24.0
  1
給脂口
 50
0.0
 41
0.9
 51
0.0
  7
KANJI3
  0
LINE
  8
0
  6
LTYPE2
 62
     2
 10
1342.149691586
 20
1164.5
 11
1342.149691586
 21
1229.8
  0
LINE
  8
0
  6
CONTINUOUS
 62
     1
 10
1523.999190206
 20
1315.5
 11
1523.999190206
 21
1324.0
  0
LINE
  8
0
  6
CONTINUOUS
 62
     1
 10
1507.999190206
 20
1324.0
 11
1523.999190206
 21
1324.0
  0
LINE
  8
6
  6
CONTINUOUS
 62
     2
 10
1689.0
 20
1324.0
 11
1728.5
 21
1324.0
  0
LINE
  8
6
  6
CONTINUOUS
 62
     2
 10
1716.5
 20
1324.0
 11
1711.323619098
 21
1304.681483474
  0
LINE
  8
6
  6
CONTINUOUS
 62
     2
 10
1716.5
 20
1324.0
 11
1721.676380902
 21
1304.681483474
  0
LINE
  8
0
  6
CONTINUOUS
 62
     1
 10
1524.0
 20
1384.0
 11
1524.0
 21
1276.5
  0
LINE
  8
0
  6
CONTINUOUS
 62
     1
 10
1524.0
 20
1384.0
 11
1508.0
 21
1384.0
  0
LINE
  8
0
  6
CONTINUOUS
 62
     1
 10
1508.0
 20
1324.0
 11
1508.0
 21
1384.0
  0
LINE
  8
0
  6
CONTINUOUS
 62
     1
 10
1380.149691586
 20
1404.0
 11
1380.149691586
 21
1283.5
  0
LINE
  8
0
  6
CONTINUOUS
 62
     1
 10
1364.149691586
 20
1404.0
 11
1380.149691586
 21
1404.0
  0
LINE
  8
0
  6
CONTINUOUS
 62
     1
 10
1304.149691586
 20
1404.0
 11
1320.149691586
 21
1404.0
  0
LINE
  8
0
  6
CONTINUOUS
 62
     1
 10
1380.149691586
 20
1254.0
 11
1474.0
 21
1254.0
  0
LINE
  8
0
  6
CONTINUOUS
 62
     1
 10
973.0
 20
1394.0
 11
1303.149691586
 21
1394.0
  0
LINE
  8
0
  6
LTYPE4
 62
     2
 10
1008.149691586
 20
1404.0
 11
992.149691586
 21
1404.0
  0
LINE
  8
0
  6
LTYPE3
 62
     2
 10
868.649691586
 20
1201.5
 11
1323.849691586
 21
1201.5
  0
LINE
  8
0
  6
CONTINUOUS
 62
     1
 10
965.274192965
 20
1165.5
 11
979.130599426
 21
1157.5
  0
LINE
  8
0
  6
LTYPE1
 62
     2
 10
965.274192965
 20
1167.5
 11
1015.274192965
 21
1167.5
  0
LINE
  8
0
  6
CONTINUOUS
 62
     1
 10
979.130599426
 20
1157.5
 11
1001.417786504
 21
1157.5
  0
LINE
  8
0
  6
LTYPE1
 62
     2
 10
965.274192965
 20
1179.5
 11
1015.274192965
 21
1179.5
  0
LINE
  8
0
  6
CONTINUOUS
 62
     1
 10
965.274192965
 20
1181.5
 11
979.130599426
 21
1189.5
  0
LINE
  8
0
  6
CONTINUOUS
 62
     1
 10
979.130599426
 20
1189.5
 11
1001.417786504
 21
1189.5
  0
LINE
  8
0
  6
CONTINUOUS
 62
     1
 10
1015.274192965
 20
1181.5
 11
1001.417786504
 21
1189.5
  0
LINE
  8
0
  6
CONTINUOUS
 62
     1
 10
1015.274192965
 20
1165.5
 11
1015.274192965
 21
1181.5
  0
LINE
  8
0
  6
CONTINUOUS
 62
     1
 10
1015.274192965
 20
1165.5
 11
1001.417786504
 21
1157.5
  0
LINE
  8
0
  6
CONTINUOUS
 62
     1
 10
1001.417786504
 20
1157.5
 11
1001.417786504
 21
1189.5
  0
LINE
  8
0
  6
CONTINUOUS
 62
     1
 10
979.130599426
 20
1157.5
 11
1001.417786504
 21
1157.5
  0
LINE
  8
0
  6
CONTINUOUS
 62
     1
 10
979.130599426
 20
1157.5
 11
979.130599426
 21
1189.5
  0
LINE
  8
0
  6
CONTINUOUS
 62
     1
 10
965.274192965
 20
1165.5
 11
965.274192965
 21
1181.5
  0
CIRCLE
  8
0
  6
CONTINUOUS
 62
     2
 10
990.274192965
 20
1173.5
 40
5.0
  0
CIRCLE
  8
0
  6
CONTINUOUS
 62
     2
 10
990.274192965
 20
1173.5
 40
4.0
  0
LINE
  8
0
  6
LTYPE2
 62
     2
 10
990.274192965
 20
1163.5
 11
990.274192965
 21
1183.5
  0
POINT
  8
0
  6
CONTINUOUS
 62
     1
 10
958.274192965
 20
1167.5
  0
LINE
  8
0
  6
LTYPE4
 62
     2
 10
958.274192965
 20
1213.5
 11
926.274192965
 21
1213.5
  0
LINE
  8
0
  6
LTYPE4
 62
     2
 10
958.274192965
 20
1160.5
 11
958.274192965
 21
1213.5
  0
LINE
  8
0
  6
LTYPE4
 62
     2
 10
916.274192965
 20
1195.5
 11
926.274192965
 21
1195.5
  0
LINE
  8
0
  6
LTYPE4
 62
     2
 10
900.274192965
 20
1188.5
 11
916.274192965
 21
1188.5
  0
LINE
  8
0
  6
LTYPE4
 62
     2
 10
897.774192965
 20
1201.5
 11
897.774192965
 21
1191.7
  0
LINE
  8
0
  6
LTYPE4
 62
     2
 10
897.774192965
 20
1191.7
 11
892.159833611
 21
1191.7
  0
LINE
  8
0
  6
LTYPE4
 62
     2
 10
890.774192965
 20
1194.1
 11
892.159833611
 21
1191.7
  0
LINE
  8
0
  6
LTYPE4
 62
     2
 10
890.774192965
 20
1201.5
 11
890.774192965
 21
1194.1
  0
LINE
  8
0
  6
LTYPE4
 62
     2
 10
897.774192965
 20
1196.6
 11
892.159833611
 21
1196.6
  0
ARC
  8
0
  6
LTYPE4
 62
     2
 10
893.632076797
 20
1194.15
 40
2.858321186
 50
121.002313915
 51
182.989498403
  0
LINE
  8
0
  6
LTYPE4
 62
     2
 10
900.274192965
 20
1192.3
 11
897.774192965
 21
1192.3
  0
LINE
  8
0
  6
LTYPE4
 62
     2
 10
900.274192965
 20
1201.5
 11
897.774192969
 21
1199.000000004
  0
LINE
  8
0
  6
LTYPE4
 62
     2
 10
916.274192965
 20
1207.5
 11
926.274192965
 21
1207.5
  0
LINE
  8
0
  6
LTYPE4
 62
     2
 10
897.774192969
 20
1201.5
 11
900.274192965
 21
1203.999999996
  0
LINE
  8
0
  6
LTYPE4
 62
     2
 10
900.274192965
 20
1188.5
 11
900.274192965
 21
1221.5
  0
LINE
  8
0
  6
LTYPE4
 62
     2
 10
916.274192965
 20
1188.5
 11
916.274192965
 21
1215.5
  0
LINE
  8
0
  6
LTYPE4
 62
     2
 10
890.774192965
 20
1201.5
 11
890.774192965
 21
1208.9
  0
LINE
  8
0
  6
LTYPE4
 62
     2
 10
897.774192965
 20
1201.5
 11
897.774192965
 21
1211.3
  0
LINE
  8
0
  6
LTYPE4
 62
     2
 10
897.774192965
 20
1211.3
 11
892.159833611
 21
1211.3
  0
LINE
  8
0
  6
LTYPE4
 62
     2
 10
890.774192965
 20
1208.9
 11
892.159833611
 21
1211.3
  0
LINE
  8
0
  6
LTYPE4
 62
     2
 10
897.774192965
 20
1206.4
 11
892.159833611
 21
1206.4
  0
LINE
  8
0
  6
LTYPE4
 62
     2
 10
890.774192965
 20
1208.9
 11
892.159833611
 21
1211.3
  0
ARC
  8
0
  6
LTYPE4
 62
     2
 10
893.632076797
 20
1208.85
 40
2.858321186
 50
177.010501597
 51
238.997686085
  0
LINE
  8
0
  6
LTYPE4
 62
     2
 10
900.274192965
 20
1210.7
 11
897.774192965
 21
1210.7
  0
ARC
  8
0
  6
LTYPE4
 62
     2
 10
900.130875765
 20
1201.5
 40
9.3566828
 50
148.419912243
 51
211.580087757
  0
LINE
  8
0
  6
LTYPE4
 62
     2
 10
926.274192965
 20
1160.5
 11
958.274192965
 21
1160.5
  0
LINE
  8
0
  6
LTYPE4
 62
     2
 10
923.774192965
 20
1173.5
 11
923.774192965
 21
1163.7
  0
LINE
  8
0
  6
LTYPE4
 62
     2
 10
923.774192965
 20
1163.7
 11
918.159833611
 21
1163.7
  0
LINE
  8
0
  6
LTYPE4
 62
     2
 10
916.774192965
 20
1166.1
 11
918.159833611
 21
1163.7
  0
LINE
  8
0
  6
LTYPE4
 62
     2
 10
916.774192965
 20
1173.5
 11
916.774192965
 21
1166.1
  0
LINE
  8
0
  6
LTYPE4
 62
     2
 10
923.774192965
 20
1168.6
 11
918.159833611
 21
1168.6
  0
ARC
  8
0
  6
LTYPE4
 62
     2
 10
919.632076797
 20
1166.15
 40
2.858321186
 50
121.002313915
 51
182.989498403
  0
LINE
  8
0
  6
LTYPE4
 62
     2
 10
926.274192965
 20
1164.3
 11
923.774192965
 21
1164.3
  0
LINE
  8
0
  6
LTYPE4
 62
     2
 10
923.774192965
 20
1173.5
 11
923.774192965
 21
1183.3
  0
LINE
  8
0
  6
LTYPE4
 62
     2
 10
923.774192965
 20
1183.3
 11
918.159833611
 21
1183.3
  0
LINE
  8
0
  6
LTYPE4
 62
     2
 10
916.774192965
 20
1180.9
 11
918.159833611
 21
1183.3
  0
LINE
  8
0
  6
LTYPE4
 62
     2
 10
916.774192965
 20
1173.5
 11
916.774192965
 21
1180.9
  0
LINE
  8
0
  6
LTYPE4
 62
     2
 10
923.774192965
 20
1178.4
 11
918.159833611
 21
1178.4
  0
LINE
  8
0
  6
LTYPE4
 62
     2
 10
916.774192965
 20
1180.9
 11
918.159833611
 21
1183.3
  0
ARC
  8
0
  6
LTYPE4
 62
     2
 10
919.632076797
 20
1180.85
 40
2.858321186
 50
177.010501597
 51
238.997686085
  0
LINE
  8
0
  6
LTYPE4
 62
     2
 10
923.774192969
 20
1173.5
 11
926.274192965
 21
1175.999999996
  0
LINE
  8
0
  6
LTYPE4
 62
     2
 10
926.274192965
 20
1182.7
 11
923.774192965
 21
1182.7
  0
ARC
  8
0
  6
LTYPE4
 62
     2
 10
926.130875765
 20
1173.5
 40
9.3566828
 50
148.419912243
 51
211.580087757
  0
LINE
  8
0
  6
LTYPE4
 62
     2
 10
926.274192965
 20
1173.5
 11
923.774192969
 21
1171.000000004
  0
LINE
  8
0
  6
LTYPE4
 62
     2
 10
926.274192965
 20
1160.5
 11
926.274192965
 21
1213.5
  0
LINE
  8
0
  6
CONTINUOUS
 62
     1
 10
958.274192965
 20
1179.5
 11
965.274192965
 21
1179.5
  0
LINE
  8
0
  6
CONTINUOUS
 62
     1
 10
965.274192965
 20
1167.5
 11
958.274192965
 21
1167.5
  0
LINE
  8
0
  6
CONTINUOUS
 62
     1
 10
1015.274192965
 20
1179.5
 11
1294.849691586
 21
1179.5
  0
LINE
  8
0
  6
CONTINUOUS
 62
     1
 10
1015.274192965
 20
1167.5
 11
1326.149691586
 21
1167.5
  0
LINE
  8
0
  6
LTYPE4
 62
     2
 10
958.274192965
 20
1195.5
 11
1279.449691586
 21
1195.5
  0
LINE
  8
0
  6
LTYPE4
 62
     2
 10
958.274192965
 20
1207.5
 11
1279.449691586
 21
1207.5
  0
LINE
  8
0
  6
LTYPE5
 62
     2
 10
896.149691586
 20
1173.5
 11
1539.649691586
 21
1173.5
  0
LINE
  8
0
  6
LTYPE4
 62
     2
 10
1008.149691586
 20
1221.5
 11
900.274192965
 21
1221.5
  0
LINE
  8
0
  6
LTYPE4
 62
     2
 10
1008.149691586
 20
1215.5
 11
900.274192965
 21
1215.5
  0
LINE
  8
0
  6
LTYPE4
 62
     2
 10
992.149691586
 20
1221.5
 11
992.149691586
 21
1404.0
  0
LINE
  8
0
  6
LTYPE4
 62
     2
 10
1008.149691586
 20
1215.5
 11
1008.149691586
 21
1404.0
  0
LINE
  8
0
  6
CONTINUOUS
 62
     1
 10
1277.149691586
 20
1221.5
 11
1407.149691586
 21
1221.5
  0
LINE
  8
0
  6
CONTINUOUS
 62
     1
 10
1414.849691586
 20
1214.5
 11
1414.849691586
 21
1189.1
  0
LINE
  8
0
  6
CONTINUOUS
 62
     1
 10
1389.449691586
 20
1214.5
 11
1414.849691586
 21
1214.5
  0
LINE
  8
0
  6
CONTINUOUS
 62
     1
 10
1277.149691586
 20
1215.5
 11
1277.149691586
 21
1221.5
  0
LINE
  8
0
  6
CONTINUOUS
 62
     1
 10
1277.149691586
 20
1215.5
 11
1407.149691586
 21
1215.5
  0
LINE
  8
0
  6
CONTINUOUS
 62
     1
 10
1407.149691586
 20
1215.5
 11
1407.149691586
 21
1221.5
  0
LINE
  8
0
  6
CONTINUOUS
 62
     1
 10
1389.449691586
 20
1189.1
 11
1414.849691586
 21
1189.1
  0
LINE
  8
0
  6
CONTINUOUS
 62
     1
 10
1320.749691586
 20
1215.5
 11
1320.749691586
 21
1175.5
  0
LINE
  8
0
  6
CONTINUOUS
 62
     1
 10
1389.449691586
 20
1215.5
 11
1389.449691586
 21
1175.5
  0
LINE
  8
0
  6
LTYPE1
 62
     2
 10
1325.849691586
 20
1184.73
 11
1320.849691586
 21
1184.73
  0
LINE
  8
0
  6
LTYPE1
 62
     2
 10
1325.849691586
 20
1185.885
 11
1320.849691586
 21
1185.885
  0
LINE
  8
0
  6
LTYPE1
 62
     2
 10
1325.849691586
 20
1205.67
 11
1320.849691586
 21
1205.67
  0
LINE
  8
0
  6
LTYPE1
 62
     2
 10
1325.849691586
 20
1204.515
 11
1320.849691586
 21
1204.515
  0
LINE
  8
0
  6
LTYPE1
 62
     2
 10
1325.849691586
 20
1205.67
 11
1320.849691586
 21
1205.67
  0
LINE
  8
0
  6
LTYPE2
 62
     2
 10
1399.149691586
 20
1200.6875
 11
1399.149691586
 21
1160.7
  0
LINE
  8
0
  6
CONTINUOUS
 62
     1
 10
1269.449691586
 20
1214.5
 11
1269.449691586
 21
1189.1
  0
LINE
  8
0
  6
CONTINUOUS
 62
     1
 10
1294.849691586
 20
1214.5
 11
1269.449691586
 21
1214.5
  0
LINE
  8
0
  6
CONTINUOUS
 62
     1
 10
1294.849691586
 20
1189.1
 11
1269.449691586
 21
1189.1
  0
LINE
  8
0
  6
CONTINUOUS
 62
     1
 10
1294.849691586
 20
1215.5
 11
1294.849691586
 21
1175.5
  0
LINE
  8
0
  6
CONTINUOUS
 62
     1
 10
1326.149691586
 20
1160.5
 11
1326.149691586
 21
1175.5
  0
LINE
  8
0
  6
CONTINUOUS
 62
     1
 10
1326.149691586
 20
1160.5
 11
1358.149691586
 21
1160.5
  0
LINE
  8
0
  6
CONTINUOUS
 62
     1
 10
1358.149691586
 20
1160.5
 11
1358.149691586
 21
1175.5
  0
LINE
  8
0
  6
LTYPE5
 62
     2
 10
1325.849691586
 20
1194.2
 11
1316.749691586
 21
1194.2
  0
LINE
  8
0
  6
CONTINUOUS
 62
     1
 10
1430.149691586
 20
1165.5
 11
1444.006098046
 21
1157.5
  0
LINE
  8
0
  6
LTYPE1
 62
     2
 10
1430.149691586
 20
1167.5
 11
1480.149691586
 21
1167.5
  0
LINE
  8
0
  6
CONTINUOUS
 62
     1
 10
1444.006098046
 20
1157.5
 11
1466.293285125
 21
1157.5
  0
LINE
  8
0
  6
LTYPE1
 62
     2
 10
1430.149691586
 20
1179.5
 11
1480.149691586
 21
1179.5
  0
LINE
  8
0
  6
CONTINUOUS
 62
     1
 10
1430.149691586
 20
1181.5
 11
1444.006098046
 21
1189.5
  0
LINE
  8
0
  6
CONTINUOUS
 62
     1
 10
1444.006098046
 20
1189.5
 11
1466.293285125
 21
1189.5
  0
LINE
  8
0
  6
CONTINUOUS
 62
     1
 10
1480.149691586
 20
1181.5
 11
1466.293285125
 21
1189.5
  0
LINE
  8
0
  6
CONTINUOUS
 62
     1
 10
1480.149691586
 20
1165.5
 11
1480.149691586
 21
1181.5
  0
LINE
  8
0
  6
CONTINUOUS
 62
     1
 10
1480.149691586
 20
1165.5
 11
1466.293285125
 21
1157.5
  0
LINE
  8
0
  6
CONTINUOUS
 62
     1
 10
1466.293285125
 20
1157.5
 11
1466.293285125
 21
1189.5
  0
LINE
  8
0
  6
CONTINUOUS
 62
     1
 10
1444.006098046
 20
1157.5
 11
1466.293285125
 21
1157.5
  0
LINE
  8
0
  6
CONTINUOUS
 62
     1
 10
1444.006098046
 20
1157.5
 11
1444.006098046
 21
1189.5
  0
LINE
  8
0
  6
CONTINUOUS
 62
     1
 10
1430.149691586
 20
1165.5
 11
1430.149691586
 21
1181.5
  0
CIRCLE
  8
0
  6
CONTINUOUS
 62
     2
 10
1455.149691586
 20
1173.5
 40
5.0
  0
CIRCLE
  8
0
  6
CONTINUOUS
 62
     2
 10
1455.149691586
 20
1173.5
 40
4.0
  0
LINE
  8
0
  6
LTYPE2
 62
     2
 10
1455.149691586
 20
1163.5
 11
1455.149691586
 21
1183.5
  0
LINE
  8
0
  6
CONTINUOUS
 62
     1
 10
1389.449691586
 20
1179.5
 11
1430.149691586
 21
1179.5
  0
LINE
  8
0
  6
CONTINUOUS
 62
     1
 10
1358.149691586
 20
1167.5
 11
1430.149691586
 21
1167.5
  0
LINE
  8
0
  6
CONTINUOUS
 62
     1
 10
1294.849691586
 20
1181.5
 11
1389.449691586
 21
1181.5
  0
LINE
  8
0
  6
CONTINUOUS
 62
     1
 10
1294.849691586
 20
1175.5
 11
1389.449691586
 21
1175.5
  0
LINE
  8
0
  6
CONTINUOUS
 62
     1
 10
1480.149691586
 20
1179.5
 11
1507.925190206
 21
1179.5
  0
LINE
  8
0
  6
CONTINUOUS
 62
     1
 10
1480.149691586
 20
1167.5
 11
1507.925190206
 21
1167.5
  0
LINE
  8
0
  6
CONTINUOUS
 62
     1
 10
1523.999190206
 20
1173.5
 11
1523.999190206
 21
1180.99406
  0
LINE
  8
0
  6
CONTINUOUS
 62
     1
 10
1523.999190206
 20
1173.5
 11
1523.999190206
 21
1166.00594
  0
LINE
  8
0
  6
CONTINUOUS
 62
     1
 10
1529.499090206
 20
1179.15878
 11
1528.439490804
 21
1180.99406
  0
LINE
  8
0
  6
CONTINUOUS
 62
     1
 10
1529.499090206
 20
1173.5
 11
1529.499090206
 21
1179.15878
  0
LINE
  8
0
  6
CONTINUOUS
 62
     1
 10
1529.499090206
 20
1167.84122
 11
1528.439490804
 21
1166.00594
  0
LINE
  8
0
  6
CONTINUOUS
 62
     1
 10
1529.499090206
 20
1173.5
 11
1529.499090206
 21
1167.84122
  0
ARC
  8
0
  6
CONTINUOUS
 62
     1
 10
1522.344034869
 20
1173.5
 40
7.155055337
 50
328.419912243
 51
31.580087757
  0
ARC
  8
0
  6
CONTINUOUS
 62
     1
 10
1527.31366644
 20
1179.120545
 40
2.185758211
 50
301.002313915
 51
2.989498403
  0
LINE
  8
0
  6
CONTINUOUS
 62
     1
 10
1529.499090206
 20
1167.84122
 11
1528.439490804
 21
1166.00594
  0
ARC
  8
0
  6
CONTINUOUS
 62
     1
 10
1527.31366644
 20
1167.879455
 40
2.185758211
 50
357.010501597
 51
58.997686085
  0
LINE
  8
0
  6
CONTINUOUS
 62
     1
 10
1523.999190206
 20
1180.99406
 11
1528.439490804
 21
1180.99406
  0
LINE
  8
0
  6
CONTINUOUS
 62
     1
 10
1523.999190206
 20
1177.24703
 11
1528.439490804
 21
1177.24703
  0
LINE
  8
0
  6
CONTINUOUS
 62
     1
 10
1523.999190206
 20
1169.75297
 11
1528.439490804
 21
1169.75297
  0
LINE
  8
0
  6
CONTINUOUS
 62
     1
 10
1523.999190206
 20
1166.00594
 11
1528.439490804
 21
1166.00594
  0
LINE
  8
0
  6
CONTINUOUS
 62
     1
 10
1529.499090206
 20
1169.5
 11
1534.499090206
 21
1169.5
  0
LINE
  8
0
  6
CONTINUOUS
 62
     1
 10
1529.499090206
 20
1177.5
 11
1534.499090206
 21
1177.5
  0
LINE
  8
0
  6
CONTINUOUS
 62
     1
 10
1534.499090206
 20
1169.5
 11
1534.499090206
 21
1177.5
  0
LINE
  8
0
  6
CONTINUOUS
 62
     2
 10
1529.499090206
 20
1176.7
 11
1534.499090206
 21
1176.7
  0
LINE
  8
0
  6
CONTINUOUS
 62
     2
 10
1529.499090206
 20
1170.3
 11
1534.499090206
 21
1170.3
  0
LINE
  8
0
  6
CONTINUOUS
 62
     1
 10
1304.149691586
 20
1221.5
 11
1304.149691586
 21
1404.0
  0
LINE
  8
0
  6
CONTINUOUS
 62
     1
 10
1320.149691586
 20
1221.5
 11
1320.149691586
 21
1404.0
  0
LINE
  8
0
  6
CONTINUOUS
 62
     1
 10
1364.149691586
 20
1221.5
 11
1364.149691586
 21
1404.0
  0
LINE
  8
0
  6
CONTINUOUS
 62
     1
 10
1380.149691586
 20
1221.5
 11
1380.149691586
 21
1404.0
  0
LINE
  8
6
  6
CONTINUOUS
 62
     2
 10
1716.5
 20
1319.0
 11
1716.5
 21
1157.5
  0
LINE
  8
6
  6
CONTINUOUS
 62
     2
 10
1716.5
 20
1157.5
 11
1721.676380902
 21
1176.818516526
  0
LINE
  8
6
  6
CONTINUOUS
 62
     2
 10
1716.5
 20
1157.5
 11
1711.323619098
 21
1176.818516526
  0
LINE
  8
6
  6
CONTINUOUS
 62
     2
 10
1474.6
 20
1157.5
 11
1728.5
 21
1157.5
  0
TEXT
  8
6
  6
CONTINUOUS
 62
     2
 10
1708.5
 20
1204.25
 30
1.6
 40
24.0
  1
１６８
 50
90.0
 41
0.9
 51
0.0
  7
KANJI58
  0
LINE
  8
0
  6
CONTINUOUS
 62
     1
 10
1320.149691586
 20
1254.0
 11
1364.149691586
 21
1254.0
  0
LINE
  8
0
  6
CONTINUOUS
 62
     1
 10
973.0
 20
1254.0
 11
1304.149691586
 21
1254.0
  0
LINE
  8
0
  6
CONTINUOUS
 62
     1
 10
636.0
 20
1424.0
 11
671.0
 21
1424.0
  0
LINE
  8
1
  6
CONTINUOUS
 62
     2
 10
860.0
 20
1383.466558854
 11
848.528561983
 21
1367.083454453
  0
LINE
  8
1
  6
CONTINUOUS
 62
     2
 10
860.0
 20
1383.466558854
 11
858.25699546
 21
1363.542655242
  0
TEXT
  8
0
  6
CONTINUOUS
 62
     2
 10
785.0
 20
1104.2
 30
0.0
 40
24.0
  1
推力リミッタ
 50
0.0
 41
0.9
 51
0.0
  7
KANJI3
  0
LINE
  8
6
  6
CONTINUOUS
 62
     2
 10
757.01036957
 20
1100.5
 11
922.5
 21
1100.5
  0
LINE
  8
1
  6
CONTINUOUS
 62
     2
 10
860.0
 20
1383.466558854
 11
757.01036957
 21
1100.5
  0
LINE
  8
1
  6
CONTINUOUS
 62
     2
 10
706.0
 20
1014.0
 11
725.318516526
 21
1008.823619098
  0
LINE
  8
1
  6
CONTINUOUS
 62
     2
 10
706.0
 20
1014.0
 11
725.318516526
 21
1019.176380902
  0
LINE
  8
1
  6
CONTINUOUS
 62
     2
 10
706.0
 20
1014.0
 11
1474.0
 21
1014.0
  0
LINE
  8
1
  6
CONTINUOUS
 62
     2
 10
1474.0
 20
1014.0
 11
1454.681483474
 21
1019.176380902
  0
LINE
  8
1
  6
CONTINUOUS
 62
     2
 10
1474.0
 20
1014.0
 11
1454.681483474
 21
1008.823619098
  0
LINE
  8
1
  6
CONTINUOUS
 62
     2
 10
1474.0
 20
1246.0
 11
1474.0
 21
998.0
  0
TEXT
  8
1
  6
CONTINUOUS
 62
     3
 10
1077.2
 20
1022.0
 30
2.4
 40
28.0
  1
Ｃ
 50
0.0
 41
0.914285714
 51
0.0
  7
KANJI53
  0
LINE
  8
0
  6
CONTINUOUS
 62
     1
 10
1507.999190206
 20
1160.5
 11
1507.999190206
 21
1324.0
  0
LINE
  8
0
  6
CONTINUOUS
 62
     1
 10
1523.999190206
 20
1160.5
 11
1523.999190206
 21
1324.0
  0
LINE
  8
0
  6
CONTINUOUS
 62
     1
 10
1507.999190206
 20
1160.5
 11
1523.999190206
 21
1160.5
  0
LINE
  8
1
  6
CONTINUOUS
 62
     2
 10
1474.0
 20
1014.0
 11
1493.318516526
 21
1008.823619098
  0
LINE
  8
1
  6
CONTINUOUS
 62
     2
 10
1474.0
 20
1014.0
 11
1493.318516526
 21
1019.176380902
  0
LINE
  8
1
  6
CONTINUOUS
 62
     2
 10
1474.0
 20
1014.0
 11
1523.999190206
 21
1014.0
  0
LINE
  8
1
  6
CONTINUOUS
 62
     2
 10
1523.999190206
 20
1014.0
 11
1504.68067368
 21
1019.176380902
  0
LINE
  8
1
  6
CONTINUOUS
 62
     2
 10
1523.999190206
 20
1014.0
 11
1504.68067368
 21
1008.823619098
  0
LINE
  8
1
  6
CONTINUOUS
 62
     2
 10
1523.999190206
 20
1150.315113763
 11
1523.999190206
 21
998.0
  0
LINE
  8
1
  6
CONTINUOUS
 62
     2
 10
1523.999190206
 20
1014.0
 11
1543.317706732
 21
1008.823619098
  0
LINE
  8
1
  6
CONTINUOUS
 62
     2
 10
1523.999190206
 20
1014.0
 11
1543.317706732
 21
1019.176380902
  0
LINE
  8
1
  6
CONTINUOUS
 62
     2
 10
1523.999190206
 20
1014.0
 11
1624.000190206
 21
1014.0
  0
LINE
  8
1
  6
CONTINUOUS
 62
     2
 10
1624.000190206
 20
1014.0
 11
1604.68167368
 21
1019.176380902
  0
LINE
  8
1
  6
CONTINUOUS
 62
     2
 10
1624.000190206
 20
1014.0
 11
1604.68167368
 21
1008.823619098
  0
LINE
  8
1
  6
CONTINUOUS
 62
     2
 10
1624.000190206
 20
1268.5
 11
1624.000190206
 21
998.0
  0
TEXT
  8
1
  6
CONTINUOUS
 62
     3
 10
1533.199690206
 20
1022.0
 30
2.4
 40
28.0
  1
１００
 50
0.0
 41
0.914285714
 51
0.0
  7
KANJI53
  0
LINE
  8
1
  6
CONTINUOUS
 62
     2
 10
706.0
 20
955.0
 11
706.0
 21
963.0
  0
LINE
  8
1
  6
CONTINUOUS
 62
     2
 10
706.0
 20
947.0
 11
725.318516526
 21
941.823619098
  0
LINE
  8
1
  6
CONTINUOUS
 62
     2
 10
706.0
 20
947.0
 11
725.318516526
 21
952.176380902
  0
LINE
  8
1
  6
CONTINUOUS
 62
     2
 10
706.0
 20
947.0
 11
1624.000190206
 21
947.0
  0
LINE
  8
1
  6
CONTINUOUS
 62
     2
 10
1624.000190206
 20
947.0
 11
1604.68167368
 21
952.176380902
  0
LINE
  8
1
  6
CONTINUOUS
 62
     2
 10
1624.000190206
 20
947.0
 11
1604.68167368
 21
941.823619098
  0
LINE
  8
1
  6
CONTINUOUS
 62
     2
 10
1624.000190206
 20
1006.0
 11
1624.000190206
 21
931.0
  0
TEXT
  8
1
  6
CONTINUOUS
 62
     3
 10
1096.200095103
 20
955.0
 30
2.4
 40
28.0
  1
ｍｉｎ，Ｌ
 50
0.0
 41
0.914285714
 51
0.0
  7
KANJI53
  0
LINE
  8
1
  6
CONTINUOUS
 62
     2
 10
481.0
 20
939.0
 11
481.0
 21
870.0
  0
LINE
  8
1
  6
CONTINUOUS
 62
     2
 10
481.0
 20
886.0
 11
500.318516526
 21
880.823619098
  0
LINE
  8
1
  6
CONTINUOUS
 62
     2
 10
481.0
 20
886.0
 11
500.318516526
 21
891.176380902
  0
LINE
  8
1
  6
CONTINUOUS
 62
     2
 10
481.0
 20
886.0
 11
1624.000190206
 21
886.0
  0
LINE
  8
1
  6
CONTINUOUS
 62
     2
 10
1624.000190206
 20
886.0
 11
1604.68167368
 21
891.176380902
  0
LINE
  8
1
  6
CONTINUOUS
 62
     2
 10
1624.000190206
 20
886.0
 11
1604.68167368
 21
880.823619098
  0
LINE
  8
1
  6
CONTINUOUS
 62
     2
 10
1624.000190206
 20
939.0
 11
1624.000190206
 21
870.0
  0
TEXT
  8
1
  6
CONTINUOUS
 62
     3
 10
969.700095103
 20
894.0
 30
2.4
 40
28.0
  1
ｍｉｎ．ＡＬ
 50
0.0
 41
0.914285714
 51
0.0
  7
KANJI53
  0
LINE
  8
1
  6
CONTINUOUS
 62
     2
 10
1624.000190206
 20
886.0
 11
1643.318706732
 21
880.823619098
  0
LINE
  8
1
  6
CONTINUOUS
 62
     2
 10
1624.000190206
 20
886.0
 11
1643.318706732
 21
891.176380902
  0
LINE
  8
1
  6
CONTINUOUS
 62
     2
 10
1624.000190206
 20
886.0
 11
1674.000190206
 21
886.0
  0
LINE
  8
1
  6
CONTINUOUS
 62
     2
 10
1674.000190206
 20
886.0
 11
1654.68167368
 21
891.176380902
  0
LINE
  8
1
  6
CONTINUOUS
 62
     2
 10
1674.000190206
 20
886.0
 11
1654.68167368
 21
880.823619098
  0
LINE
  8
1
  6
CONTINUOUS
 62
     2
 10
1674.000190206
 20
1278.5
 11
1674.000190206
 21
870.0
  0
TEXT
  8
1
  6
CONTINUOUS
 62
     3
 10
1622.200190206
 20
894.0
 30
2.4
 40
28.0
  1
５０
 50
0.0
 41
0.914285714
 51
0.0
  7
KANJI53
  0
TEXT
  8
0
  6
CONTINUOUS
 62
     2
 10
1770.0
 20
624.0
 30
2.4
 40
24.0
  1
２２１
 50
0.0
 41
0.9
 51
0.0
  7
KANJI2
  0
LINE
  8
0
  6
CONTINUOUS
 62
     1
 10
636.0
 20
1189.0
 11
636.0
 21
1485.586051867
  0
LINE
  8
0
  6
CONTINUOUS
 62
     1
 10
636.0
 20
1425.586051867
 11
636.0
 21
1689.0
  0
LINE
  8
0
  6
CONTINUOUS
 62
     1
 10
636.0
 20
1689.0
 11
586.0
 21
1689.0
  0
LINE
  8
0
  6
CONTINUOUS
 62
     1
 10
498.0
 20
1189.0
 11
498.0
 21
1485.586051867
  0
LINE
  8
0
  6
CONTINUOUS
 62
     1
 10
498.0
 20
1425.586051867
 11
498.0
 21
1614.0
  0
LINE
  8
0
  6
CONTINUOUS
 62
     1
 10
481.0
 20
1189.0
 11
481.0
 21
1485.586051867
  0
LINE
  8
0
  6
CONTINUOUS
 62
     1
 10
481.0
 20
1425.586051867
 11
481.0
 21
1614.0
  0
LINE
  8
0
  6
CONTINUOUS
 62
     1
 10
603.0
 20
1554.0
 11
532.0
 21
1554.0
  0
LINE
  8
0
  6
CONTINUOUS
 62
     1
 10
603.0
 20
1554.0
 11
603.0
 21
1434.0
  0
LINE
  8
0
  6
CONTINUOUS
 62
     1
 10
603.0
 20
1434.0
 11
532.0
 21
1434.0
  0
LINE
  8
0
  6
CONTINUOUS
 62
     1
 10
532.0
 20
1434.0
 11
532.0
 21
1554.0
  0
LINE
  8
0
  6
LTYPE3
 62
     2
 10
608.0
 20
1444.0
 11
584.2
 21
1444.0
  0
LINE
  8
0
  6
LTYPE3
 62
     2
 10
554.2
 20
1544.0
 11
527.2
 21
1544.0
  0
LINE
  8
0
  6
LTYPE3
 62
     2
 10
608.2
 20
1544.0
 11
580.2
 21
1544.0
  0
LINE
  8
0
  6
LTYPE3
 62
     2
 10
593.0
 20
1455.8
 11
593.0
 21
1434.0
  0
LINE
  8
0
  6
LTYPE3
 62
     2
 10
593.0
 20
1554.0
 11
593.0
 21
1531.8
  0
LINE
  8
0
  6
LTYPE3
 62
     2
 10
542.0
 20
1532.8
 11
542.0
 21
1554.0
  0
LINE
  8
0
  6
LTYPE3
 62
     2
 10
542.0
 20
1434.0
 11
542.0
 21
1454.8
  0
LINE
  8
0
  6
LTYPE3
 62
     2
 10
554.2
 20
1444.0
 11
529.2
 21
1444.0
  0
CIRCLE
  8
0
  6
CONTINUOUS
 62
     1
 10
606.0
 20
1719.0
 40
17.5
  0
LINE
  8
0
  6
CONTINUOUS
 62
     1
 10
606.0
 20
1689.0
 11
621.0
 21
1689.0
  0
LINE
  8
0
  6
CONTINUOUS
 62
     1
 10
606.0
 20
1700.0
 11
619.751706485
 21
1700.0
  0
LINE
  8
0
  6
CONTINUOUS
 62
     1
 10
619.751706485
 20
1700.0
 11
606.0
 21
1701.5
  0
LINE
  8
0
  6
CONTINUOUS
 62
     1
 10
620.689625645
 20
1691.735028154
 11
619.751706485
 21
1700.0
  0
LINE
  8
0
  6
CONTINUOUS
 62
     1
 10
621.0
 20
1689.0
 11
620.689625645
 21
1691.735028154
  0
ARC
  8
0
  6
CONTINUOUS
 62
     1
 10
622.297773229
 20
1691.927087564
 40
1.6
 50
120.593314844
 51
186.768821444
  0
ARC
  8
0
  6
CONTINUOUS
 62
     1
 10
606.0
 20
1719.0
 40
30.0
 50
301.047754584
 51
0.0
  0
LINE
  8
0
  6
CONTINUOUS
 62
     1
 10
606.0
 20
1689.0
 11
591.0
 21
1689.0
  0
LINE
  8
0
  6
CONTINUOUS
 62
     1
 10
606.0
 20
1700.0
 11
592.248293515
 21
1700.0
  0
LINE
  8
0
  6
CONTINUOUS
 62
     1
 10
592.248293515
 20
1700.0
 11
606.0
 21
1701.5
  0
LINE
  8
0
  6
CONTINUOUS
 62
     1
 10
591.310374355
 20
1691.735028154
 11
592.248293515
 21
1700.0
  0
LINE
  8
0
  6
CONTINUOUS
 62
     1
 10
591.0
 20
1689.0
 11
591.310374355
 21
1691.735028154
  0
ARC
  8
0
  6
CONTINUOUS
 62
     1
 10
589.702226771
 20
1691.927087564
 40
1.6
 50
353.231178556
 51
59.406685156
  0
ARC
  8
0
  6
CONTINUOUS
 62
     1
 10
606.0
 20
1719.0
 40
30.0
 50
0.0
 51
239.0231413
  0
LINE
  8
0
  6
LTYPE3
 62
     2
 10
606.0
 20
1640.8
 11
606.0
 21
1755.8
  0
LINE
  8
0
  6
LTYPE3
 62
     2
 10
644.0
 20
1719.0
 11
570.0
 21
1719.0
  0
LINE
  8
0
  6
CONTINUOUS
 62
     1
 10
613.0
 20
1620.0
 11
613.0
 21
1689.0
  0
ARC
  8
0
  6
CONTINUOUS
 62
     1
 10
607.0
 20
1620.0
 40
6.0
 50
270.0
 51
0.0
  0
LINE
  8
0
  6
CONTINUOUS
 62
     1
 10
607.0
 20
1614.0
 11
481.0
 21
1614.0
  0
ARC
  8
0
  6
CONTINUOUS
 62
     1
 10
580.0
 20
1620.0
 40
6.0
 50
270.0
 51
0.0
  0
LINE
  8
0
  6
CONTINUOUS
 62
     1
 10
586.0
 20
1620.0
 11
586.0
 21
1689.0
  0
LINE
  8
0
  6
CONTINUOUS
 62
     1
 10
636.0
 20
1430.0
 11
636.0
 21
1680.0
  0
LINE
  8
0
  6
CONTINUOUS
 62
     1
 10
431.0
 20
1535.0
 11
431.0
 21
1575.0
  0
LINE
  8
0
  6
CONTINUOUS
 62
     1
 10
473.0
 20
1516.0
 11
473.0
 21
1594.0
  0
LINE
  8
0
  6
CONTINUOUS
 62
     1
 10
473.0
 20
1575.0
 11
431.0
 21
1575.0
  0
LINE
  8
0
  6
CONTINUOUS
 62
     1
 10
473.0
 20
1535.0
 11
431.0
 21
1535.0
  0
LINE
  8
0
  6
CONTINUOUS
 62
     1
 10
481.0
 20
1594.0
 11
473.0
 21
1594.0
  0
LINE
  8
0
  6
CONTINUOUS
 62
     1
 10
481.0
 20
1516.0
 11
473.0
 21
1516.0
  0
LINE
  8
0
  6
CONTINUOUS
 62
     1
 10
481.0
 20
1514.0
 11
475.0
 21
1514.0
  0
LINE
  8
0
  6
CONTINUOUS
 62
     1
 10
475.0
 20
1448.0
 11
475.0
 21
1514.0
  0
LINE
  8
0
  6
CONTINUOUS
 62
     1
 10
481.0
 20
1448.0
 11
475.0
 21
1448.0
  0
LINE
  8
0
  6
LTYPE3
 62
     2
 10
507.0
 20
1485.0
 11
468.6
 21
1485.0
  0
LINE
  8
0
  6
CONTINUOUS
 62
     2
 10
636.0
 20
1701.0
 11
636.0
 21
1830.5
  0
LINE
  8
0
  6
CONTINUOUS
 62
     2
 10
636.0
 20
1818.5
 11
616.681483474
 21
1823.676380902
  0
LINE
  8
0
  6
CONTINUOUS
 62
     2
 10
636.0
 20
1818.5
 11
616.681483474
 21
1813.323619098
  0
LINE
  8
0
  6
CONTINUOUS
 62
     2
 10
636.0
 20
1818.5
 11
431.0
 21
1818.5
  0
LINE
  8
0
  6
CONTINUOUS
 62
     2
 10
431.0
 20
1818.5
 11
450.318516526
 21
1813.323619098
  0
LINE
  8
0
  6
CONTINUOUS
 62
     2
 10
431.0
 20
1818.5
 11
450.318516526
 21
1823.676380902
  0
LINE
  8
0
  6
CONTINUOUS
 62
     2
 10
431.0
 20
1587.0
 11
431.0
 21
1830.5
  0
TEXT
  8
0
  6
CONTINUOUS
 62
     2
 10
499.5
 20
1826.5
 30
1.6
 40
24.0
  1
２０５
 50
0.0
 41
0.9
 51
0.0
  7
KANJI58
  0
LINE
  8
0
  6
CONTINUOUS
 62
     2
 10
569.5
 20
1542.0
 11
562.707359852
 21
1560.811167955
  0
LINE
  8
0
  6
CONTINUOUS
 62
     2
 10
569.5
 20
1542.0
 11
554.211817096
 21
1554.894629249
  0
LINE
  8
0
  6
CONTINUOUS
 62
     2
 10
569.5
 20
1542.0
 11
374.5
 21
1822.0
  0
LINE
  8
0
  6
CONTINUOUS
 62
     2
 10
374.5
 20
1822.0
 11
304.9
 21
1822.0
  0
TEXT
  8
0
  6
CONTINUOUS
 62
     2
 10
304.9
 20
1830.0
 30
2.4
 40
24.0
  1
点検口
 50
0.0
 41
0.9
 51
0.0
  7
KANJI2
  0
LINE
  8
0
  6
CONTINUOUS
 62
     1
 10
636.0
 20
1428.15
 11
636.0
 21
1680.0
  0
LINE
  8
0
  6
CONTINUOUS
 62
     1
 10
636.0
 20
1430.0
 11
636.0
 21
1680.0
  0
LINE
  8
0
  6
CONTINUOUS
 62
     1
 10
636.0
 20
1430.0
 11
647.0
 21
1430.0
  0
LINE
  8
0
  6
CONTINUOUS
 62
     1
 10
1025.5
 20
1546.3
 11
1031.4
 21
1546.3
  0
LINE
  8
0
  6
CONTINUOUS
 62
     1
 10
1025.5
 20
1563.7
 11
1031.4
 21
1563.7
  0
LINE
  8
0
  6
CONTINUOUS
 62
     1
 10
1039.0
 20
1545.0
 11
1039.0
 21
1554.9
  0
LINE
  8
0
  6
CONTINUOUS
 62
     1
 10
1032.4
 20
1545.0
 11
1039.0
 21
1545.0
  0
LINE
  8
0
  6
CONTINUOUS
 62
     1
 10
1032.4
 20
1550.0
 11
1039.0
 21
1550.0
  0
LINE
  8
0
  6
CONTINUOUS
 62
     1
 10
1039.0
 20
1565.0
 11
1039.0
 21
1555.1
  0
LINE
  8
0
  6
CONTINUOUS
 62
     1
 10
1032.4
 20
1565.0
 11
1039.0
 21
1565.0
  0
LINE
  8
0
  6
CONTINUOUS
 62
     1
 10
1032.4
 20
1560.0
 11
1039.0
 21
1560.0
  0
LINE
  8
0
  6
LTYPE2
 62
     2
 10
833.5
 20
1636.843067336
 11
833.5
 21
1677.143067336
  0
LINE
  8
0
  6
CONTINUOUS
 62
     1
 10
923.5
 20
1685.0
 11
923.5
 21
1725.0
  0
LINE
  8
0
  6
CONTINUOUS
 62
     1
 10
923.5
 20
1725.0
 11
897.8
 21
1725.0
  0
LINE
  8
0
  6
CONTINUOUS
 62
     1
 10
923.5
 20
1685.0
 11
897.8
 21
1685.0
  0
ARC
  8
0
  6
CONTINUOUS
 62
     1
 10
891.8
 20
1679.7
 40
6.0
 50
270.0
 51
0.0
  0
LINE
  8
0
  6
LTYPE2
 62
     2
 10
927.756580424
 20
1705.0
 11
888.256580424
 21
1705.0
  0
ARC
  8
0
  6
CONTINUOUS
 62
     1
 10
778.319480257
 20
1679.7
 40
6.0
 50
190.033164511
 51
270.0
  0
LINE
  8
0
  6
CONTINUOUS
 62
     1
 10
636.0
 20
1680.0
 11
652.0
 21
1680.0
  0
LINE
  8
0
  6
CONTINUOUS
 62
     1
 10
652.0
 20
1430.0
 11
652.0
 21
1680.0
  0
LINE
  8
0
  6
CONTINUOUS
 62
     1
 10
636.0
 20
1430.0
 11
652.0
 21
1430.0
  0
LINE
  8
0
  6
CONTINUOUS
 62
     1
 10
702.0
 20
1450.0
 11
702.0
 21
1660.0
  0
LINE
  8
0
  6
CONTINUOUS
 62
     1
 10
702.0
 20
1450.0
 11
652.0
 21
1450.0
  0
LINE
  8
0
  6
CONTINUOUS
 62
     1
 10
702.0
 20
1660.0
 11
652.0
 21
1660.0
  0
ARC
  8
0
  6
CONTINUOUS
 62
     1
 10
998.720549228
 20
1640.0
 40
20.0
 50
9.12031501
 51
90.0
  0
ARC
  8
0
  6
CONTINUOUS
 62
     1
 10
998.720549228
 20
1470.0
 40
20.0
 50
270.0
 51
350.87968499
  0
ARC
  8
0
  6
CONTINUOUS
 62
     1
 10
469.25
 20
1555.0
 40
556.25
 50
350.879686542
 51
9.120316562
  0
LINE
  8
0
  6
CONTINUOUS
 62
     1
 10
702.0
 20
1655.0
 11
869.0
 21
1655.0
  0
LINE
  8
0
  6
CONTINUOUS
 62
     1
 10
702.0
 20
1650.0
 11
869.0
 21
1650.0
  0
LINE
  8
0
  6
CONTINUOUS
 62
     1
 10
702.0
 20
1635.0
 11
869.0
 21
1635.0
  0
LINE
  8
0
  6
CONTINUOUS
 62
     1
 10
702.0
 20
1620.0
 11
869.0
 21
1620.0
  0
LINE
  8
0
  6
CONTINUOUS
 62
     1
 10
998.720560018
 20
1660.0
 11
869.0
 21
1660.0
  0
LINE
  8
0
  6
CONTINUOUS
 62
     1
 10
702.0
 20
1605.0
 11
869.0
 21
1605.0
  0
LINE
  8
0
  6
CONTINUOUS
 62
     1
 10
702.0
 20
1590.0
 11
869.0
 21
1590.0
  0
LINE
  8
0
  6
CONTINUOUS
 62
     1
 10
702.0
 20
1575.0
 11
869.0
 21
1575.0
  0
LINE
  8
0
  6
CONTINUOUS
 62
     1
 10
702.0
 20
1560.0
 11
869.0
 21
1560.0
  0
LINE
  8
0
  6
CONTINUOUS
 62
     1
 10
702.0
 20
1545.0
 11
869.0
 21
1545.0
  0
LINE
  8
0
  6
CONTINUOUS
 62
     1
 10
702.0
 20
1530.0
 11
869.0
 21
1530.0
  0
LINE
  8
0
  6
CONTINUOUS
 62
     1
 10
702.0
 20
1515.0
 11
869.0
 21
1515.0
  0
LINE
  8
0
  6
CONTINUOUS
 62
     1
 10
702.0
 20
1500.0
 11
869.0
 21
1500.0
  0
LINE
  8
0
  6
CONTINUOUS
 62
     1
 10
702.0
 20
1485.0
 11
869.0
 21
1485.0
  0
LINE
  8
0
  6
CONTINUOUS
 62
     1
 10
702.0
 20
1470.0
 11
869.0
 21
1470.0
  0
LINE
  8
0
  6
CONTINUOUS
 62
     1
 10
892.161039485
 20
1673.7
 11
778.319480257
 21
1673.7
  0
ARC
  8
0
  6
CONTINUOUS
 62
     1
 10
778.319480257
 20
1742.0
 40
6.0
 50
90.0
 51
180.0
  0
LINE
  8
0
  6
CONTINUOUS
 62
     1
 10
896.608952959
 20
1748.0
 11
778.319480257
 21
1748.0
  0
LINE
  8
0
  6
CONTINUOUS
 62
     1
 10
897.8
 20
1679.7
 11
897.8
 21
1739.372990042
  0
LINE
  8
0
  6
CONTINUOUS
 62
     1
 10
853.5
 20
1655.0
 11
853.5
 21
1673.7
  0
LINE
  8
0
  6
CONTINUOUS
 62
     1
 10
813.5
 20
1655.0
 11
813.5
 21
1673.7
  0
LINE
  8
0
  6
CONTINUOUS
 62
     1
 10
907.877020398
 20
1747.498824355
 11
905.7
 21
1752.0
  0
LINE
  8
0
  6
CONTINUOUS
 62
     1
 10
905.7
 20
1752.0
 11
760.301684551
 21
1681.6772391
  0
LINE
  8
0
  6
CONTINUOUS
 62
     1
 10
907.877020398
 20
1747.498824355
 11
762.47870495
 21
1677.176063455
  0
LINE
  8
0
  6
CONTINUOUS
 62
     1
 10
760.301684551
 20
1681.6772391
 11
762.47870495
 21
1677.176063455
  0
LINE
  8
0
  6
CONTINUOUS
 62
     1
 10
772.319480257
 20
1688.676063455
 11
772.319480257
 21
1742.0
  0
LINE
  8
0
  6
CONTINUOUS
 62
     1
 10
772.97870495
 20
1681.676063455
 11
772.97870495
 21
1678.676063455
  0
LINE
  8
0
  6
CONTINUOUS
 62
     1
 10
1025.5
 20
1516.3
 11
1031.4
 21
1516.3
  0
LINE
  8
0
  6
CONTINUOUS
 62
     1
 10
1025.5
 20
1512.5
 11
1031.4
 21
1512.5
  0
LINE
  8
0
  6
CONTINUOUS
 62
     1
 10
1040.9
 20
1524.4
 11
1040.9
 21
1504.4
  0
LINE
  8
0
  6
CONTINUOUS
 62
     1
 10
1035.9
 20
1504.4
 11
1040.9
 21
1504.4
  0
LINE
  8
0
  6
CONTINUOUS
 62
     1
 10
1035.9
 20
1524.4
 11
1040.9
 21
1524.4
  0
LINE
  8
0
  6
CONTINUOUS
 62
     1
 10
1031.4
 20
1575.0
 11
1035.9
 21
1575.0
  0
LINE
  8
0
  6
CONTINUOUS
 62
     1
 10
1035.9
 20
1504.4
 11
1035.9
 21
1575.0
  0
LINE
  8
0
  6
LTYPE2
 62
     2
 10
1017.4
 20
1514.4
 11
1047.7
 21
1514.4
  0
LINE
  8
0
  6
CONTINUOUS
 62
     1
 10
1031.4
 20
1575.0
 11
1031.4
 21
1509.4
  0
LINE
  8
0
  6
CONTINUOUS
 62
     1
 10
1035.9
 20
1509.4
 11
1031.4
 21
1509.4
  0
LINE
  8
0
  6
CONTINUOUS
 62
     1
 10
1029.4
 20
1521.4
 11
1029.4
 21
1506.4
  0
LINE
  8
0
  6
CONTINUOUS
 62
     1
 10
1026.9
 20
1520.9
 11
1026.9
 21
1506.4
  0
LINE
  8
1
  6
CONTINUOUS
 62
     2
 10
636.0
 20
1818.5
 11
655.318516526
 21
1813.323619098
  0
LINE
  8
1
  6
CONTINUOUS
 62
     2
 10
636.0
 20
1818.5
 11
655.318516526
 21
1823.676380902
  0
LINE
  8
1
  6
CONTINUOUS
 62
     2
 10
636.0
 20
1818.5
 11
1039.0
 21
1818.5
  0
LINE
  8
1
  6
CONTINUOUS
 62
     2
 10
1039.0
 20
1818.5
 11
1019.681483474
 21
1823.676380902
  0
LINE
  8
1
  6
CONTINUOUS
 62
     2
 10
1039.0
 20
1818.5
 11
1019.681483474
 21
1813.323619098
  0
LINE
  8
1
  6
CONTINUOUS
 62
     2
 10
1039.0
 20
1573.0
 11
1039.0
 21
1834.5
  0
LINE
  8
1
  6
CONTINUOUS
 62
     2
 10
1006.720560018
 20
1660.0
 11
1168.4
 21
1660.0
  0
LINE
  8
1
  6
CONTINUOUS
 62
     2
 10
1152.4
 20
1660.0
 11
1147.223619098
 21
1640.681483474
  0
LINE
  8
1
  6
CONTINUOUS
 62
     2
 10
1152.4
 20
1660.0
 11
1157.576380902
 21
1640.681483474
  0
LINE
  8
1
  6
CONTINUOUS
 62
     2
 10
1152.4
 20
1660.0
 11
1152.4
 21
1450.0
  0
LINE
  8
1
  6
CONTINUOUS
 62
     2
 10
1152.4
 20
1450.0
 11
1157.576380902
 21
1469.318516526
  0
LINE
  8
1
  6
CONTINUOUS
 62
     2
 10
1152.4
 20
1450.0
 11
1147.223619098
 21
1469.318516526
  0
LINE
  8
1
  6
CONTINUOUS
 62
     2
 10
1006.720577775
 20
1450.0
 11
1168.4
 21
1450.0
  0
TEXT
  8
1
  6
CONTINUOUS
 62
     2
 10
796.7
 20
1826.5
 30
2.4
 40
28.0
  1
４０５
 50
0.0
 41
0.914285714
 51
0.0
  7
KANJI53
  0
TEXT
  8
1
  6
CONTINUOUS
 62
     2
 10
1144.4
 20
1514.2
 30
2.4
 40
28.0
  1
２１０
 50
90.0
 41
0.914285714
 51
0.0
  7
KANJI53
  0
LINE
  8
0
  6
CONTINUOUS
 62
     1
 10
919.0
 20
1660.0
 11
919.0
 21
1457.466558854
  0
LINE
  8
0
  6
CONTINUOUS
 62
     1
 10
869.0
 20
1660.0
 11
869.0
 21
1457.466558854
  0
LINE
  8
0
  6
CONTINUOUS
 62
     1
 10
702.0
 20
1455.0
 11
804.0
 21
1455.0
  0
LINE
  8
0
  6
CONTINUOUS
 62
     1
 10
998.720560018
 20
1450.0
 11
932.0
 21
1450.0
  0
LINE
  8
1
  6
CONTINUOUS
 62
     2
 10
1041.0
 20
1562.0
 11
1052.165137897
 21
1578.593363003
  0
LINE
  8
1
  6
CONTINUOUS
 62
     2
 10
1041.0
 20
1562.0
 11
1042.372611554
 21
1581.952842843
  0
LINE
  8
1
  6
CONTINUOUS
 62
     2
 10
1041.0
 20
1562.0
 11
1135.0
 21
1836.0
  0
LINE
  8
1
  6
CONTINUOUS
 62
     2
 10
1135.0
 20
1836.0
 11
1371.0
 21
1836.0
  0
TEXT
  8
1
  6
CONTINUOUS
 62
     3
 10
1135.0
 20
1844.0
 30
8.0
 40
24.0
  1
フ゛レーキ開放レハ゛ー
 50
0.0
 41
1.0
 51
0.0
  7
KANJI59
  0
LINE
  8
1
  6
CONTINUOUS
 62
     2
 10
431.0
 20
1556.0
 11
426.790673423
 21
1575.55202214
  0
LINE
  8
1
  6
CONTINUOUS
 62
     2
 10
431.0
 20
1556.0
 11
417.578605182
 21
1570.82788458
  0
LINE
  8
1
  6
CONTINUOUS
 62
     2
 10
431.0
 20
1556.0
 11
351.0
 21
1712.0
  0
LINE
  8
1
  6
CONTINUOUS
 62
     2
 10
351.0
 20
1712.0
 11
167.0
 21
1712.0
  0
TEXT
  8
1
  6
CONTINUOUS
 62
     3
 10
167.0
 20
1720.0
 30
8.0
 40
24.0
  1
手動軸レバー
 50
0.0
 41
1.0
 51
0.0
  7
KANJI59
  0
TEXT
  8
1
  6
CONTINUOUS
 62
     3
 10
1383.0
 20
969.0
 30
2.4
 40
28.0
  1
ｍｉｎ．Ｐ
 50
0.0
 41
0.914285714
 51
0.0
  7
KANJI53
  0
TEXT
  8
0
  6
CONTINUOUS
 62
     2
 10
958.1
 20
451.8
 30
2.4
 40
24.0
  1
１０００
 50
0.0
 41
0.9
 51
0.0
  7
KANJI2
  0
TEXT
  8
0
  6
CONTINUOUS
 62
     2
 10
1433.3
 20
451.8
 30
2.4
 40
24.0
  1
１４７０
 50
0.0
 41
0.9
 51
0.0
  7
KANJI2
  0
TEXT
  8
0
  6
CONTINUOUS
 62
     2
 10
947.3
 20
620.4
 30
2.4
 40
24.0
  1
　　３００
 50
0.0
 41
0.9
 51
0.0
  7
KANJI2
  0
TEXT
  8
0
  6
CONTINUOUS
 62
     2
 10
947.3
 20
564.4
 30
2.4
 40
24.0
  1
　　５００
 50
0.0
 41
0.9
 51
0.0
  7
KANJI2
  0
TEXT
  8
0
  6
CONTINUOUS
 62
     2
 10
1265.3
 20
622.6
 30
2.4
 40
24.0
  1
　　８８０
 50
0.0
 41
0.9
 51
0.0
  7
KANJI2
  0
TEXT
  8
0
  6
CONTINUOUS
 62
     2
 10
1424.9
 20
624.0
 30
2.4
 40
24.0
  1
　　７３０
 50
0.0
 41
0.9
 51
0.0
  7
KANJI2
  0
TEXT
  8
0
  6
CONTINUOUS
 62
     2
 10
1424.9
 20
568.0
 30
2.4
 40
24.0
  1
　　９３０
 50
0.0
 41
0.9
 51
0.0
  7
KANJI2
  0
TEXT
  8
0
  6
CONTINUOUS
 62
     2
 10
972.0
 20
511.0
 30
2.4
 40
24.0
  1
７００
 50
0.0
 41
0.9
 51
0.0
  7
KANJI2
  0
TEXT
  8
0
  6
CONTINUOUS
 62
     2
 10
1436.0
 20
508.0
 30
2.4
 40
24.0
  1
１１７０
 50
0.0
 41
0.9
 51
0.0
  7
KANJI2
  0
TEXT
  8
0
  6
CONTINUOUS
 62
     2
 10
2964.0
 20
1896.0
 30
2.4
 40
24.0
  1
７８．４ＫＮ（８ｔｏｎ）
 50
0.0
 41
0.9
 51
0.0
  7
KANJI2
  0
CIRCLE
  8
0
  6
CONTINUOUS
 62
     1
 10
2195.5
 20
1322.0
 40
47.5
  0
LINE
  8
0
  6
LTYPE3
 62
     2
 10
2362.3
 20
1322.0
 11
2024.3
 21
1322.0
  0
LINE
  8
0
  6
LTYPE1
 62
     2
 10
2105.5
 20
1344.5
 11
2055.5
 21
1344.5
  0
LINE
  8
0
  6
LTYPE1
 62
     2
 10
2105.5
 20
1299.5
 11
2055.5
 21
1299.5
  0
LINE
  8
0
  6
LTYPE1
 62
     2
 10
2105.5
 20
1299.5
 11
2105.5
 21
1344.5
  0
LINE
  8
0
  6
CONTINUOUS
 62
     1
 10
2055.5
 20
1272.0
 11
2121.127626097
 21
1267.0
  0
LINE
  8
0
  6
CONTINUOUS
 62
     1
 10
2170.5
 20
1281.5
 11
2170.5
 21
1362.5
  0
LINE
  8
0
  6
CONTINUOUS
 62
     1
 10
2220.5
 20
1283.0
 11
2220.5
 21
1362.0
  0
ARC
  8
0
  6
CONTINUOUS
 62
     1
 10
2195.5
 20
1322.0
 40
37.5
 50
47.202598162
 51
132.273689006
  0
ARC
  8
0
  6
CONTINUOUS
 62
     1
 10
2195.5
 20
1322.0
 40
37.5
 50
227.202598162
 51
312.220833136
  0
LINE
  8
0
  6
LTYPE1
 62
     2
 10
2220.5
 20
1299.5
 11
2170.5
 21
1299.5
  0
LINE
  8
0
  6
LTYPE1
 62
     2
 10
2220.5
 20
1344.5
 11
2170.5
 21
1344.5
  0
LINE
  8
0
  6
CONTINUOUS
 62
     1
 10
2065.5
 20
1202.0
 11
2065.5
 21
1271.0
  0
ARC
  8
0
  6
CONTINUOUS
 62
     1
 10
2080.5
 20
1202.0
 40
15.0
 50
180.0
 51
270.0
  0
LINE
  8
0
  6
CONTINUOUS
 62
     1
 10
2133.00566924
 20
1415.810759633
 11
2083.104519278
 21
1344.54453178
  0
ARC
  8
0
  6
CONTINUOUS
 62
     1
 10
2133.334520095
 20
1424.125917906
 40
3.0
 50
325.0
 51
55.0
  0
LINE
  8
0
  6
CONTINUOUS
 62
     1
 10
2096.964679345
 20
1453.254678329
 11
2135.055249404
 21
1426.583374039
  0
ARC
  8
0
  6
CONTINUOUS
 62
     1
 10
2096.391102908
 20
1452.435526285
 40
1.0
 50
55.0
 51
145.0
  0
ARC
  8
0
  6
CONTINUOUS
 62
     1
 10
2093.851221555
 20
1450.551646589
 40
1.0
 50
55.0
 51
145.0
  0
ARC
  8
0
  6
CONTINUOUS
 62
     1
 10
2078.271182206
 20
1345.487321655
 40
3.0
 50
235.0
 51
325.0
  0
LINE
  8
0
  6
CONTINUOUS
 62
     1
 10
2038.459882837
 20
1369.701169812
 11
2076.550452896
 21
1343.029865522
  0
ARC
  8
0
  6
CONTINUOUS
 62
     1
 10
2039.033459273
 20
1370.520321856
 40
1.0
 50
145.0
 51
235.0
  0
ARC
  8
0
  6
CONTINUOUS
 62
     1
 10
2039.935036538
 20
1373.551354426
 40
1.0
 50
145.0
 51
235.0
  0
LINE
  8
0
  6
CONTINUOUS
 62
     1
 10
2042.555643058
 20
1366.83328763
 11
2101.060439566
 21
1450.386796148
  0
LINE
  8
0
  6
CONTINUOUS
 62
     1
 10
2043.784371125
 20
1365.972922976
 11
2102.289167633
 21
1449.526431493
  0
LINE
  8
0
  6
CONTINUOUS
 62
     1
 10
2135.791976228
 20
1422.405188597
 11
2080.728638338
 21
1343.766592346
  0
LINE
  8
0
  6
CONTINUOUS
 62
     1
 10
2039.115884494
 20
1374.124930862
 11
2093.032069511
 21
1451.125223025
  0
LINE
  8
0
  6
CONTINUOUS
 62
     1
 10
2038.214307229
 20
1371.093898293
 11
2095.571950864
 21
1453.009102722
  0
LINE
  8
0
  6
LTYPE2
 62
     2
 10
2037.232174803
 20
1377.885467765
 11
2052.550318031
 21
1367.159588405
  0
LINE
  8
0
  6
LTYPE2
 62
     2
 10
2088.854054074
 20
1451.609151751
 11
2104.172197302
 21
1440.883272391
  0
LINE
  8
0
  6
CONTINUOUS
 62
     1
 10
2055.5
 20
1272.0
 11
2055.5
 21
1359.225525817
  0
LINE
  8
0
  6
CONTINUOUS
 62
     1
 10
2155.110225663
 20
1405.216080952
 11
2135.299974985
 21
1419.08736781
  0
LINE
  8
0
  6
LTYPE3
 62
     2
 10
2202.158322994
 20
1317.337792048
 11
2059.158322994
 21
1417.467470012
  0
LINE
  8
0
  6
CONTINUOUS
 62
     1
 10
2104.488346391
 20
1330.792189428
 11
2083.678095714
 21
1345.363683824
  0
LINE
  8
0
  6
LTYPE1
 62
     2
 10
2285.5
 20
1299.5
 11
2335.5
 21
1299.5
  0
LINE
  8
0
  6
CONTINUOUS
 62
     1
 10
2335.5
 20
1272.0
 11
2269.872373903
 21
1267.0
  0
LINE
  8
0
  6
CONTINUOUS
 62
     1
 10
2325.5
 20
1202.0
 11
2325.5
 21
1271.0
  0
ARC
  8
0
  6
CONTINUOUS
 62
     1
 10
2310.5
 20
1202.0
 40
15.0
 50
270.0
 51
0.0
  0
LINE
  8
0
  6
LTYPE1
 62
     2
 10
2285.5
 20
1344.5
 11
2335.5
 21
1344.5
  0
LINE
  8
0
  6
LTYPE1
 62
     2
 10
2285.5
 20
1299.5
 11
2285.5
 21
1344.5
  0
LINE
  8
0
  6
CONTINUOUS
 62
     1
 10
2335.5
 20
1372.0
 11
2269.872373903
 21
1377.0
  0
LINE
  8
0
  6
CONTINUOUS
 62
     1
 10
2335.5
 20
1272.0
 11
2335.5
 21
1372.0
  0
LINE
  8
0
  6
LTYPE3
 62
     2
 10
2256.5
 20
1451.0
 11
2126.5
 21
1451.0
  0
LINE
  8
6
  6
CONTINUOUS
 62
     2
 10
2043.5
 20
1299.5
 11
1987.5
 21
1299.5
  0
LINE
  8
6
  6
CONTINUOUS
 62
     2
 10
1999.5
 20
1299.5
 11
1994.323619098
 21
1280.181483474
  0
LINE
  8
6
  6
CONTINUOUS
 62
     2
 10
1999.5
 20
1299.5
 11
2004.676380902
 21
1280.181483474
  0
LINE
  8
6
  6
CONTINUOUS
 62
     2
 10
1999.5
 20
1269.5
 11
1999.5
 21
1516.1
  0
LINE
  8
6
  6
CONTINUOUS
 62
     2
 10
1999.5
 20
1344.5
 11
2004.676380902
 21
1363.818516526
  0
LINE
  8
6
  6
CONTINUOUS
 62
     2
 10
1999.5
 20
1344.5
 11
1994.323619098
 21
1363.818516526
  0
LINE
  8
6
  6
CONTINUOUS
 62
     2
 10
2043.5
 20
1344.5
 11
1987.5
 21
1344.5
  0
LINE
  8
6
  6
CONTINUOUS
 62
     2
 10
1933.5
 20
1322.0
 11
1938.676380902
 21
1341.318516526
  0
LINE
  8
6
  6
CONTINUOUS
 62
     2
 10
1933.5
 20
1322.0
 11
1928.323619098
 21
1341.318516526
  0
LINE
  8
6
  6
CONTINUOUS
 62
     2
 10
2012.3
 20
1322.0
 11
1921.5
 21
1322.0
  0
LINE
  8
0
  6
LTYPE3
 62
     2
 10
2075.548183048
 20
1381.697752135
 11
2098.892744008
 21
1415.037240338
  0
LINE
  8
0
  6
CONTINUOUS
 62
     2
 10
1933.5
 20
1322.0
 11
1928.323619098
 21
1302.681483474
  0
LINE
  8
0
  6
CONTINUOUS
 62
     2
 10
1933.5
 20
1322.0
 11
1938.676380902
 21
1302.681483474
  0
LINE
  8
0
  6
CONTINUOUS
 62
     2
 10
1933.5
 20
1322.0
 11
1933.5
 21
1187.0
  0
LINE
  8
0
  6
CONTINUOUS
 62
     2
 10
1933.5
 20
1187.0
 11
1938.676380902
 21
1206.318516526
  0
LINE
  8
0
  6
CONTINUOUS
 62
     2
 10
1933.5
 20
1187.0
 11
1928.323619098
 21
1206.318516526
  0
LINE
  8
0
  6
CONTINUOUS
 62
     2
 10
2068.5
 20
1187.0
 11
1921.5
 21
1187.0
  0
TEXT
  8
0
  6
CONTINUOUS
 62
     2
 10
1925.5
 20
1220.5
 30
1.6
 40
24.0
  1
１３５
 50
90.0
 41
0.9
 51
0.0
  7
KANJI58
  0
LINE
  8
0
  6
CONTINUOUS
 62
     2
 10
1921.5
 20
1187.0
 11
1847.0
 21
1187.0
  0
LINE
  8
0
  6
CONTINUOUS
 62
     2
 10
1859.0
 20
1187.0
 11
1864.176380902
 21
1206.318516526
  0
LINE
  8
0
  6
CONTINUOUS
 62
     2
 10
1859.0
 20
1187.0
 11
1853.823619098
 21
1206.318516526
  0
LINE
  8
0
  6
CONTINUOUS
 62
     1
 10
2180.5
 20
1163.5
 11
2210.5
 21
1163.5
  0
LINE
  8
0
  6
LTYPE5
 62
     2
 10
2164.6
 20
1176.5
 11
2226.6
 21
1176.5
  0
CIRCLE
  8
0
  6
CONTINUOUS
 62
     1
 10
2195.5
 20
1176.5
 40
6.49995
  0
LINE
  8
0
  6
CONTINUOUS
 62
     1
 10
2201.99995
 20
1180.24703
 11
2201.99995
 21
1172.75297
  0
LINE
  8
0
  6
CONTINUOUS
 62
     1
 10
2201.99995
 20
1172.75297
 11
2195.5
 21
1169.00594
  0
LINE
  8
0
  6
CONTINUOUS
 62
     1
 10
2189.00005
 20
1180.24703
 11
2189.00005
 21
1172.75297
  0
LINE
  8
0
  6
CONTINUOUS
 62
     1
 10
2189.00005
 20
1172.75297
 11
2195.5
 21
1169.00594
  0
LINE
  8
0
  6
CONTINUOUS
 62
     1
 10
2201.99995
 20
1180.24703
 11
2195.5
 21
1183.99406
  0
LINE
  8
0
  6
CONTINUOUS
 62
     1
 10
2189.00005
 20
1180.24703
 11
2195.5
 21
1183.99406
  0
LINE
  8
0
  6
CONTINUOUS
 62
     1
 10
2278.0
 20
1217.5
 11
2278.0
 21
1223.5
  0
LINE
  8
0
  6
CONTINUOUS
 62
     1
 10
2113.0
 20
1217.5
 11
2113.0
 21
1223.5
  0
LINE
  8
0
  6
CONTINUOUS
 62
     1
 10
2157.5
 20
1217.5
 11
2117.5
 21
1217.5
  0
LINE
  8
0
  6
CONTINUOUS
 62
     1
 10
2117.5
 20
1217.5
 11
2117.5
 21
1217.6
  0
LINE
  8
0
  6
CONTINUOUS
 62
     1
 10
2117.5
 20
1177.5
 11
2117.5
 21
1178.5
  0
LINE
  8
0
  6
CONTINUOUS
 62
     1
 10
2117.5
 20
1177.5
 11
2117.5
 21
1217.5
  0
LINE
  8
0
  6
CONTINUOUS
 62
     1
 10
2157.5
 20
1217.5
 11
2157.5
 21
1177.5
  0
LINE
  8
0
  6
CONTINUOUS
 62
     1
 10
2166.75
 20
1173.0
 11
2166.75
 21
1180.0
  0
LINE
  8
0
  6
LTYPE2
 62
     2
 10
2137.5
 20
1160.9
 11
2137.5
 21
1218.9
  0
LINE
  8
0
  6
LTYPE2
 62
     2
 10
2152.6
 20
1220.9
 11
2152.6
 21
1173.9
  0
LINE
  8
0
  6
LTYPE2
 62
     2
 10
2122.4
 20
1174.9
 11
2122.4
 21
1221.9
  0
LINE
  8
0
  6
CONTINUOUS
 62
     1
 10
2180.5
 20
1164.5
 11
2180.5
 21
1172.5
  0
LINE
  8
0
  6
CONTINUOUS
 62
     1
 10
2180.5
 20
1172.5
 11
2166.75
 21
1172.5
  0
LINE
  8
0
  6
CONTINUOUS
 62
     1
 10
2157.5
 20
1174.5
 11
2145.0
 21
1174.5
  0
LINE
  8
0
  6
CONTINUOUS
 62
     1
 10
2166.75
 20
1172.4
 11
2157.5
 21
1174.5
  0
LINE
  8
0
  6
LTYPE2
 62
     2
 10
2175.5
 20
1163.3
 11
2175.5
 21
1182.5
  0
LINE
  8
0
  6
CONTINUOUS
 62
     1
 10
2145.0
 20
1174.5
 11
2130.0
 21
1174.5
  0
ARC
  8
0
  6
CONTINUOUS
 62
     1
 10
2126.8
 20
1193.7
 40
2.0
 50
180.0
 51
270.0
  0
LINE
  8
0
  6
CONTINUOUS
 62
     1
 10
2148.2
 20
1191.7
 11
2126.8
 21
1191.7
  0
ARC
  8
0
  6
CONTINUOUS
 62
     1
 10
2148.2
 20
1193.7
 40
2.0
 50
270.0
 51
360.0
  0
LINE
  8
0
  6
CONTINUOUS
 62
     1
 10
2150.2
 20
1193.7
 11
2150.2
 21
1215.1
  0
ARC
  8
0
  6
CONTINUOUS
 62
     1
 10
2148.2
 20
1215.1
 40
2.0
 50
0.0
 51
90.0
  0
LINE
  8
0
  6
CONTINUOUS
 62
     1
 10
2124.8
 20
1193.7
 11
2124.8
 21
1215.1
  0
LINE
  8
0
  6
CONTINUOUS
 62
     1
 10
2148.2
 20
1217.1
 11
2126.8
 21
1217.1
  0
ARC
  8
0
  6
CONTINUOUS
 62
     1
 10
2126.8
 20
1215.1
 40
2.0
 50
90.0
 51
180.0
  0
LINE
  8
0
  6
LTYPE2
 62
     2
 10
2123.4
 20
1204.4
 11
2151.8
 21
1204.4
  0
LINE
  8
0
  6
CONTINUOUS
 62
     1
 10
2145.0
 20
1164.5
 11
2145.0
 21
1191.7
  0
LINE
  8
0
  6
CONTINUOUS
 62
     1
 10
2130.0
 20
1182.5
 11
2117.5
 21
1182.5
  0
LINE
  8
0
  6
CONTINUOUS
 62
     1
 10
2157.5
 20
1182.5
 11
2144.9
 21
1182.5
  0
LINE
  8
0
  6
CONTINUOUS
 62
     1
 10
2129.9
 20
1177.5
 11
2117.5
 21
1177.5
  0
LINE
  8
0
  6
CONTINUOUS
 62
     1
 10
2157.5
 20
1177.5
 11
2145.0
 21
1177.5
  0
LINE
  8
0
  6
CONTINUOUS
 62
     1
 10
2273.5
 20
1217.5
 11
2233.5
 21
1217.5
  0
LINE
  8
0
  6
CONTINUOUS
 62
     1
 10
2233.5
 20
1217.5
 11
2233.5
 21
1217.6
  0
LINE
  8
0
  6
CONTINUOUS
 62
     1
 10
2233.5
 20
1177.5
 11
2233.5
 21
1178.5
  0
LINE
  8
0
  6
CONTINUOUS
 62
     1
 10
2233.5
 20
1177.5
 11
2233.5
 21
1217.5
  0
LINE
  8
0
  6
CONTINUOUS
 62
     1
 10
2273.5
 20
1217.5
 11
2273.5
 21
1177.5
  0
LINE
  8
0
  6
CONTINUOUS
 62
     1
 10
2273.5
 20
1177.5
 11
2233.5
 21
1177.5
  0
LINE
  8
0
  6
CONTINUOUS
 62
     1
 10
2273.5
 20
1182.5
 11
2233.5
 21
1182.5
  0
LINE
  8
0
  6
CONTINUOUS
 62
     1
 10
2261.0
 20
1164.5
 11
2261.0
 21
1177.5
  0
LINE
  8
0
  6
CONTINUOUS
 62
     1
 10
2246.0
 20
1164.5
 11
2246.0
 21
1177.5
  0
CIRCLE
  8
0
  6
CONTINUOUS
 62
     1
 10
2253.5
 20
1195.9
 40
9.36
  0
LINE
  8
0
  6
CONTINUOUS
 62
     1
 10
2224.25
 20
1173.0
 11
2224.25
 21
1180.0
  0
LINE
  8
0
  6
LTYPE2
 62
     2
 10
2253.5
 20
1160.9
 11
2253.5
 21
1218.9
  0
LINE
  8
0
  6
LTYPE2
 62
     2
 10
2266.5
 20
1195.9
 11
2240.5
 21
1195.9
  0
LINE
  8
0
  6
LTYPE2
 62
     2
 10
2268.6
 20
1220.9
 11
2268.6
 21
1173.9
  0
LINE
  8
0
  6
LTYPE2
 62
     2
 10
2238.4
 20
1174.9
 11
2238.4
 21
1221.9
  0
LINE
  8
0
  6
LTYPE2
 62
     2
 10
2215.5
 20
1160.9
 11
2215.5
 21
1182.5
  0
CIRCLE
  8
0
  6
CONTINUOUS
 62
     2
 10
2253.5
 20
1195.9
 40
10.47
  0
LINE
  8
0
  6
CONTINUOUS
 62
     1
 10
2210.5
 20
1164.5
 11
2210.5
 21
1173.0
  0
LINE
  8
0
  6
CONTINUOUS
 62
     1
 10
2210.5
 20
1172.5
 11
2224.25
 21
1172.5
  0
LINE
  8
0
  6
CONTINUOUS
 62
     1
 10
2233.5
 20
1174.5
 11
2246.0
 21
1174.5
  0
LINE
  8
0
  6
CONTINUOUS
 62
     1
 10
2224.25
 20
1172.4
 11
2233.5
 21
1174.5
  0
LINE
  8
0
  6
CONTINUOUS
 62
     1
 10
2210.5
 20
1164.5
 11
2261.0
 21
1164.5
  0
LINE
  8
0
  6
CONTINUOUS
 62
     1
 10
2130.0
 20
1164.5
 11
2130.0
 21
1191.7
  0
LINE
  8
0
  6
CONTINUOUS
 62
     1
 10
2180.5
 20
1164.5
 11
2130.0
 21
1164.5
  0
LINE
  8
0
  6
CONTINUOUS
 62
     1
 10
2179.5
 20
1163.5
 11
2211.5
 21
1163.5
  0
LINE
  8
0
  6
LTYPE5
 62
     2
 10
2107.5
 20
1176.5
 11
2284.5
 21
1176.5
  0
LINE
  8
0
  6
CONTINUOUS
 62
     1
 10
2175.34375
 20
1180.0
 11
2166.75
 21
1180.0
  0
LINE
  8
0
  6
CONTINUOUS
 62
     1
 10
2177.53125
 20
1173.0
 11
2166.75
 21
1173.0
  0
LINE
  8
0
  6
CONTINUOUS
 62
     1
 10
2224.25
 20
1173.0
 11
2213.46875
 21
1173.0
  0
LINE
  8
0
  6
CONTINUOUS
 62
     1
 10
2224.25
 20
1180.0
 11
2215.5
 21
1180.0
  0
LINE
  8
0
  6
LTYPE1
 62
     2
 10
2206.75
 20
1173.0
 11
2206.75
 21
1180.0
  0
LINE
  8
0
  6
LTYPE1
 62
     2
 10
2215.5
 20
1180.0
 11
2206.75
 21
1180.0
  0
LINE
  8
0
  6
LTYPE1
 62
     2
 10
2213.43125
 20
1173.0
 11
2206.75
 21
1173.0
  0
LINE
  8
0
  6
LTYPE1
 62
     2
 10
2184.25
 20
1173.0
 11
2184.25
 21
1180.0
  0
LINE
  8
0
  6
LTYPE1
 62
     2
 10
2184.25
 20
1180.0
 11
2175.34375
 21
1180.0
  0
LINE
  8
0
  6
LTYPE1
 62
     2
 10
2184.25
 20
1173.0
 11
2177.53125
 21
1173.0
  0
CIRCLE
  8
0
  6
CONTINUOUS
 62
     1
 10
2195.5
 20
1176.5
 40
4.0
  0
CIRCLE
  8
0
  6
CONTINUOUS
 62
     2
 10
2195.5
 20
1176.5
 40
3.2
  0
LINE
  8
0
  6
CONTINUOUS
 62
     1
 10
2117.5
 20
1187.0
 11
2080.5
 21
1187.0
  0
LINE
  8
0
  6
CONTINUOUS
 62
     1
 10
2273.5
 20
1187.0
 11
2310.5
 21
1187.0
  0
LINE
  8
0
  6
CONTINUOUS
 62
     1
 10
2260.5
 20
1382.0
 11
2130.5
 21
1382.0
  0
LINE
  8
0
  6
CONTINUOUS
 62
     1
 10
2130.5
 20
1287.0
 11
2130.5
 21
1382.0
  0
LINE
  8
0
  6
CONTINUOUS
 62
     1
 10
2260.5
 20
1287.0
 11
2260.5
 21
1382.0
  0
LINE
  8
0
  6
CONTINUOUS
 62
     1
 10
2179.5
 20
1163.5
 11
2130.5
 21
1287.0
  0
LINE
  8
0
  6
CONTINUOUS
 62
     1
 10
2211.5
 20
1163.5
 11
2260.5
 21
1287.0
  0
ARC
  8
0
  6
CONTINUOUS
 62
     1
 10
2195.5
 20
1322.0
 40
92.5
 50
300.640663456
 51
239.359336544
  0
ARC
  8
0
  6
CONTINUOUS
 62
     1
 10
2195.5
 20
1322.0
 40
100.0
 50
295.414174699
 51
118.25631605
  0
ARC
  8
0
  6
CONTINUOUS
 62
     1
 10
2195.5
 20
1322.0
 40
100.0
 50
168.690067526
 51
244.071542399
  0
LINE
  8
0
  6
CONTINUOUS
 62
     1
 10
2113.0
 20
1223.5
 11
2155.694331984
 21
1223.5
  0
LINE
  8
0
  6
CONTINUOUS
 62
     1
 10
2113.0
 20
1217.5
 11
2158.074898785
 21
1217.5
  0
LINE
  8
0
  6
CONTINUOUS
 62
     1
 10
2235.305668016
 20
1223.5
 11
2278.0
 21
1223.5
  0
LINE
  8
0
  6
CONTINUOUS
 62
     1
 10
2232.925101215
 20
1217.5
 11
2278.0
 21
1217.5
  0
LINE
  8
0
  6
LTYPE5
 62
     2
 10
2195.5
 20
1148.0
 11
2195.5
 21
1793.0
  0
LINE
  8
0
  6
LTYPE3
 62
     2
 10
2349.5
 20
1553.0
 11
2038.5
 21
1553.0
  0
LINE
  8
6
  6
CONTINUOUS
 62
     2
 10
2026.5
 20
1553.0
 11
1921.5
 21
1553.0
  0
LINE
  8
6
  6
CONTINUOUS
 62
     2
 10
1933.5
 20
1553.0
 11
1928.323619098
 21
1533.681483474
  0
LINE
  8
6
  6
CONTINUOUS
 62
     2
 10
1933.5
 20
1553.0
 11
1938.676380902
 21
1533.681483474
  0
LINE
  8
6
  6
CONTINUOUS
 62
     2
 10
1933.5
 20
1553.0
 11
1933.5
 21
1262.0
  0
LINE
  8
6
  6
CONTINUOUS
 62
     2
 10
1933.5
 20
1553.0
 11
1938.676380902
 21
1572.318516526
  0
LINE
  8
6
  6
CONTINUOUS
 62
     2
 10
1933.5
 20
1553.0
 11
1928.323619098
 21
1572.318516526
  0
TEXT
  8
6
  6
CONTINUOUS
 62
     2
 10
1925.5
 20
1412.7
 30
2.4
 40
24.0
  1
２３１
 50
90.0
 41
0.9
 51
0.0
  7
KANJI57
  0
ARC
  8
0
  6
CONTINUOUS
 62
     1
 10
2195.5
 20
1553.0
 40
125.0
 50
280.557968545
 51
0.0
  0
CIRCLE
  8
0
  6
CONTINUOUS
 62
     1
 10
2195.5
 20
1553.0
 40
20.0
  0
CIRCLE
  8
0
  6
CONTINUOUS
 62
     1
 10
2255.5
 20
1553.0
 40
10.0
  0
LINE
  8
0
  6
CONTINUOUS
 62
     2
 10
2255.5
 20
1568.0
 11
2255.5
 21
1538.0
  0
LINE
  8
0
  6
CONTINUOUS
 62
     1
 10
2198.833333333
 20
1533.279734056
 11
2257.166666667
 21
1543.139867028
  0
LINE
  8
0
  6
CONTINUOUS
 62
     1
 10
2198.833333333
 20
1572.720265944
 11
2257.166666667
 21
1562.860132972
  0
LINE
  8
0
  6
CONTINUOUS
 62
     2
 10
2265.5
 20
1623.0
 11
2278.445832412
 21
1635.945832412
  0
ARC
  8
0
  6
CONTINUOUS
 62
     2
 10
2195.5
 20
1553.0
 40
107.5
 50
38.280925788
 51
51.325228591
  0
LINE
  8
0
  6
CONTINUOUS
 62
     2
 10
2265.5
 20
1483.0
 11
2278.445832412
 21
1470.054167588
  0
ARC
  8
0
  6
CONTINUOUS
 62
     2
 10
2195.5
 20
1553.0
 40
107.5
 50
308.674771409
 51
321.719074212
  0
LINE
  8
0
  6
CONTINUOUS
 62
     2
 10
2125.5
 20
1623.0
 11
2112.554167588
 21
1635.945832412
  0
ARC
  8
0
  6
CONTINUOUS
 62
     2
 10
2195.5
 20
1553.0
 40
107.5
 50
128.674771409
 51
141.719074212
  0
LINE
  8
0
  6
CONTINUOUS
 62
     2
 10
2125.5
 20
1483.0
 11
2112.554167588
 21
1470.054167588
  0
ARC
  8
0
  6
CONTINUOUS
 62
     2
 10
2195.5
 20
1553.0
 40
107.5
 50
218.280925788
 51
231.325228591
  0
ARC
  8
0
  6
CONTINUOUS
 62
     1
 10
2195.5
 20
1553.0
 40
125.0
 50
0.0
 51
69.402826706
  0
CIRCLE
  8
0
  6
CONTINUOUS
 62
     1
 10
2195.5
 20
1568.0
 40
4.0
  0
CIRCLE
  8
0
  6
CONTINUOUS
 62
     1
 10
2195.5
 20
1553.0
 40
4.0
  0
CIRCLE
  8
0
  6
CONTINUOUS
 62
     1
 10
2180.5
 20
1553.0
 40
4.0
  0
CIRCLE
  8
0
  6
CONTINUOUS
 62
     1
 10
2195.5
 20
1538.0
 40
4.0
  0
CIRCLE
  8
0
  6
CONTINUOUS
 62
     1
 10
2210.5
 20
1553.0
 40
4.0
  0
ARC
  8
0
  6
CONTINUOUS
 62
     1
 10
2232.5
 20
1754.705692517
 40
3.0
 50
0.0
 51
90.0
  0
ARC
  8
0
  6
CONTINUOUS
 62
     1
 10
2239.5
 20
1757.705692517
 40
6.0
 50
0.0
 51
90.0
  0
ARC
  8
0
  6
CONTINUOUS
 62
     1
 10
2239.5
 20
1762.0
 40
6.0
 50
0.0
 51
90.0
  0
LINE
  8
0
  6
CONTINUOUS
 62
     1
 10
2239.5
 20
1768.0
 11
2195.5
 21
1768.0
  0
LINE
  8
0
  6
CONTINUOUS
 62
     1
 10
2195.5
 20
1763.705692517
 11
2239.5
 21
1763.705692517
  0
LINE
  8
0
  6
CONTINUOUS
 62
     1
 10
2195.5
 20
1757.705692517
 11
2232.5
 21
1757.705692517
  0
ARC
  8
0
  6
CONTINUOUS
 62
     1
 10
2158.5
 20
1754.705692517
 40
3.0
 50
90.0
 51
180.0
  0
ARC
  8
0
  6
CONTINUOUS
 62
     1
 10
2151.5
 20
1757.705692517
 40
6.0
 50
90.0
 51
180.0
  0
ARC
  8
0
  6
CONTINUOUS
 62
     1
 10
2151.5
 20
1762.0
 40
6.0
 50
90.0
 51
180.0
  0
LINE
  8
0
  6
CONTINUOUS
 62
     1
 10
2151.5
 20
1768.0
 11
2195.5
 21
1768.0
  0
LINE
  8
0
  6
CONTINUOUS
 62
     1
 10
2195.5
 20
1763.705692517
 11
2151.5
 21
1763.705692517
  0
LINE
  8
0
  6
CONTINUOUS
 62
     1
 10
2195.5
 20
1757.705692517
 11
2158.5
 21
1757.705692517
  0
ARC
  8
0
  6
CONTINUOUS
 62
     1
 10
2232.5
 20
1692.7
 40
3.0
 50
270.0
 51
0.0
  0
ARC
  8
0
  6
CONTINUOUS
 62
     1
 10
2239.5
 20
1698.7
 40
6.0
 50
270.0
 51
0.0
  0
LINE
  8
0
  6
CONTINUOUS
 62
     1
 10
2235.5
 20
1692.7
 11
2239.5
 21
1692.7
  0
LINE
  8
0
  6
CONTINUOUS
 62
     1
 10
2195.5
 20
1689.7
 11
2232.5
 21
1689.7
  0
ARC
  8
0
  6
CONTINUOUS
 62
     1
 10
2158.5
 20
1692.7
 40
3.0
 50
180.0
 51
270.0
  0
ARC
  8
0
  6
CONTINUOUS
 62
     1
 10
2151.5
 20
1698.7
 40
6.0
 50
180.0
 51
270.0
  0
LINE
  8
0
  6
CONTINUOUS
 62
     1
 10
2155.5
 20
1692.7
 11
2151.5
 21
1692.7
  0
LINE
  8
0
  6
CONTINUOUS
 62
     1
 10
2195.5
 20
1689.7
 11
2158.5
 21
1689.7
  0
LINE
  8
0
  6
CONTINUOUS
 62
     1
 10
2215.5
 20
1674.07764064
 11
2215.5
 21
1689.7
  0
LINE
  8
0
  6
CONTINUOUS
 62
     1
 10
2175.5
 20
1674.07764064
 11
2175.5
 21
1689.7
  0
LINE
  8
0
  6
CONTINUOUS
 62
     1
 10
2245.5
 20
1698.7
 11
2245.5
 21
1762.0
  0
LINE
  8
0
  6
CONTINUOUS
 62
     1
 10
2235.5
 20
1693.2
 11
2235.5
 21
1754.705692517
  0
LINE
  8
0
  6
CONTINUOUS
 62
     1
 10
2155.5
 20
1693.2
 11
2155.5
 21
1754.705692517
  0
LINE
  8
0
  6
CONTINUOUS
 62
     1
 10
2145.5
 20
1699.2
 11
2145.5
 21
1762.0
  0
CIRCLE
  8
0
  6
CONTINUOUS
 62
     1
 10
2195.5
 20
1721.0
 40
20.0
  0
CIRCLE
  8
0
  6
CONTINUOUS
 62
     2
 10
2195.5
 20
1721.0
 40
13.5
  0
CIRCLE
  8
0
  6
CONTINUOUS
 62
     2
 10
2195.5
 20
1721.0
 40
15.0
  0
LINE
  8
0
  6
LTYPE2
 62
     2
 10
2165.0
 20
1721.0
 11
2224.5
 21
1721.0
  0
ARC
  8
0
  6
CONTINUOUS
 62
     1
 10
2195.5
 20
1553.0
 40
125.0
 50
69.402826706
 51
280.557968545
  0
CIRCLE
  8
0
  6
CONTINUOUS
 62
     1
 10
2195.5
 20
1553.0
 40
115.0
  0
ARC
  8
0
  6
CONTINUOUS
 62
     1
 10
2100.5
 20
1553.0
 40
20.0
 50
90.0
 51
270.0
  0
ARC
  8
0
  6
CONTINUOUS
 62
     1
 10
2243.0
 20
1470.72758664
 40
20.0
 50
210.0
 51
30.0
  0
ARC
  8
0
  6
CONTINUOUS
 62
     1
 10
2243.0
 20
1635.27241336
 40
20.0
 50
330.0
 51
150.0
  0
LINE
  8
0
  6
CONTINUOUS
 62
     1
 10
2100.5
 20
1573.0
 11
2183.952994616
 21
1573.0
  0
LINE
  8
0
  6
CONTINUOUS
 62
     1
 10
2225.679491924
 20
1645.27241336
 11
2183.952994616
 21
1573.0
  0
LINE
  8
0
  6
CONTINUOUS
 62
     1
 10
2100.5
 20
1533.0
 11
2183.952994616
 21
1533.0
  0
LINE
  8
0
  6
CONTINUOUS
 62
     1
 10
2225.679491924
 20
1460.72758664
 11
2183.952994616
 21
1533.0
  0
LINE
  8
0
  6
CONTINUOUS
 62
     1
 10
2260.320508076
 20
1625.27241336
 11
2227.210211838
 21
1567.923698023
  0
LINE
  8
0
  6
CONTINUOUS
 62
     1
 10
2260.320508076
 20
1480.72758664
 11
2227.210211838
 21
1538.076301977
  0
CIRCLE
  8
0
  6
LTYPE1
 62
     1
 10
2119.486021022
 20
1476.986021022
 40
7.25
  0
CIRCLE
  8
0
  6
LTYPE1
 62
     1
 10
2271.513978978
 20
1476.986021022
 40
7.25
  0
CIRCLE
  8
0
  6
LTYPE1
 62
     1
 10
2271.513978978
 20
1629.013978978
 40
7.25
  0
CIRCLE
  8
0
  6
LTYPE1
 62
     1
 10
2119.486021022
 20
1629.013978978
 40
7.25
  0
ARC
  8
0
  6
CONTINUOUS
 62
     1
 10
2195.5
 20
1451.0
 40
31.0
 50
222.347409209
 51
317.652590791
  0
LINE
  8
0
  6
CONTINUOUS
 62
     2
 10
1836.5
 20
1030.5
 11
1954.1
 21
1030.5
  0
TEXT
  8
0
  6
CONTINUOUS
 62
     2
 10
1836.5
 20
1038.5
 30
2.4
 40
24.0
  1
ＰＦ１／２
 50
0.0
 41
0.9
 51
0.0
  7
KANJI2
  0
CIRCLE
  8
0
  6
CONTINUOUS
 62
     2
 10
2086.962354132
 20
1397.998877817
 40
10.4775
  0
CIRCLE
  8
0
  6
CONTINUOUS
 62
     2
 10
2086.962354132
 20
1397.998877817
 40
9.3155
  0
LINE
  8
1
  6
CONTINUOUS
 62
     2
 10
2085.5
 20
1386.5
 11
2073.954485113
 21
1370.169014543
  0
LINE
  8
1
  6
CONTINUOUS
 62
     2
 10
2085.5
 20
1386.5
 11
2083.666783537
 21
1366.584194282
  0
LINE
  8
1
  6
CONTINUOUS
 62
     2
 10
2085.5
 20
1386.5
 11
1954.1
 21
1030.5
  0
ARC
  8
0
  6
CONTINUOUS
 62
     1
 10
2195.5
 20
1556.7
 40
150.0
 50
116.704852248
 51
150.427488945
  0
LINE
  8
0
  6
CONTINUOUS
 62
     1
 10
2128.090801815
 20
1690.7
 11
2145.5
 21
1690.7
  0
LINE
  8
0
  6
CONTINUOUS
 62
     1
 10
2065.5
 20
1412.225525817
 11
2065.5
 21
1631.533147735
  0
ARC
  8
0
  6
CONTINUOUS
 62
     1
 10
2195.5
 20
1556.7
 40
150.0
 50
29.572511055
 51
63.295147752
  0
LINE
  8
0
  6
CONTINUOUS
 62
     1
 10
2262.909198185
 20
1690.7
 11
2245.5
 21
1690.7
  0
LINE
  8
0
  6
CONTINUOUS
 62
     1
 10
2325.5
 20
1372.761874274
 11
2325.5
 21
1631.533147735
  0
LINE
  8
0
  6
CONTINUOUS
 62
     1
 10
2057.9
 20
1442.0
 11
2057.9
 21
1562.0
  0
LINE
  8
0
  6
LTYPE3
 62
     2
 10
2080.1
 20
1552.0
 11
2053.1
 21
1552.0
  0
LINE
  8
0
  6
LTYPE3
 62
     2
 10
2080.1
 20
1452.0
 11
2055.1
 21
1452.0
  0
LINE
  8
0
  6
CONTINUOUS
 62
     1
 10
2065.5
 20
1442.0
 11
2057.9
 21
1442.0
  0
LINE
  8
0
  6
CONTINUOUS
 62
     1
 10
2065.5
 20
1562.0
 11
2057.9
 21
1562.0
  0
LINE
  8
0
  6
CONTINUOUS
 62
     1
 10
2333.1
 20
1442.0
 11
2333.1
 21
1562.0
  0
LINE
  8
0
  6
LTYPE3
 62
     2
 10
2310.9
 20
1552.0
 11
2337.9
 21
1552.0
  0
LINE
  8
0
  6
LTYPE3
 62
     2
 10
2310.9
 20
1452.0
 11
2335.9
 21
1452.0
  0
LINE
  8
0
  6
CONTINUOUS
 62
     1
 10
2325.5
 20
1442.0
 11
2333.1
 21
1442.0
  0
LINE
  8
0
  6
CONTINUOUS
 62
     1
 10
2325.5
 20
1562.0
 11
2333.1
 21
1562.0
  0
LINE
  8
6
  6
CONTINUOUS
 62
     2
 10
1933.5
 20
1768.0
 11
1928.323619098
 21
1748.681483474
  0
LINE
  8
6
  6
CONTINUOUS
 62
     2
 10
1933.5
 20
1768.0
 11
1938.676380902
 21
1748.681483474
  0
LINE
  8
0
  6
CONTINUOUS
 62
     2
 10
1859.0
 20
1768.0
 11
1853.823619098
 21
1748.681483474
  0
LINE
  8
0
  6
CONTINUOUS
 62
     2
 10
1859.0
 20
1768.0
 11
1864.176380902
 21
1748.681483474
  0
LINE
  8
6
  6
CONTINUOUS
 62
     2
 10
1933.5
 20
1553.0
 11
1933.5
 21
1768.0
  0
LINE
  8
6
  6
CONTINUOUS
 62
     2
 10
2139.5
 20
1768.0
 11
1851.0
 21
1768.0
  0
TEXT
  8
6
  6
CONTINUOUS
 62
     2
 10
1985.5
 20
1333.5
 30
2.4
 40
24.0
  1
φ４５Ｈ１０深５０
 50
90.0
 41
0.9
 51
0.0
  7
KANJI57
  0
LINE
  8
0
  6
CONTINUOUS
 62
     2
 10
1859.0
 20
1187.0
 11
1859.0
 21
1768.0
  0
LINE
  8
6
  6
CONTINUOUS
 62
     2
 10
2065.5
 20
1011.0
 11
2084.818516526
 21
1005.823619098
  0
LINE
  8
6
  6
CONTINUOUS
 62
     2
 10
2065.5
 20
1011.0
 11
2084.818516526
 21
1016.176380902
  0
LINE
  8
6
  6
CONTINUOUS
 62
     2
 10
2065.5
 20
1011.0
 11
2325.5
 21
1011.0
  0
LINE
  8
6
  6
CONTINUOUS
 62
     2
 10
2325.5
 20
1011.0
 11
2306.181483474
 21
1016.176380902
  0
LINE
  8
6
  6
CONTINUOUS
 62
     2
 10
2325.5
 20
1011.0
 11
2306.181483474
 21
1005.823619098
  0
LINE
  8
6
  6
CONTINUOUS
 62
     2
 10
2055.5
 20
941.0
 11
2074.818516526
 21
935.823619098
  0
LINE
  8
6
  6
CONTINUOUS
 62
     2
 10
2055.5
 20
941.0
 11
2074.818516526
 21
946.176380902
  0
LINE
  8
6
  6
CONTINUOUS
 62
     2
 10
2055.5
 20
941.0
 11
2335.5
 21
941.0
  0
LINE
  8
6
  6
CONTINUOUS
 62
     2
 10
2335.5
 20
941.0
 11
2316.181483474
 21
946.176380902
  0
LINE
  8
6
  6
CONTINUOUS
 62
     2
 10
2335.5
 20
941.0
 11
2316.181483474
 21
935.823619098
  0
TEXT
  8
6
  6
CONTINUOUS
 62
     2
 10
2160.7
 20
949.0
 30
2.4
 40
24.0
  1
２８０
 50
0.0
 41
0.9
 51
0.0
  7
KANJI57
  0
LINE
  8
6
  6
CONTINUOUS
 62
     2
 10
2065.5
 20
1190.0
 11
2065.5
 21
1000.5
  0
LINE
  8
6
  6
CONTINUOUS
 62
     2
 10
2055.5
 20
1260.0
 11
2055.5
 21
933.0
  0
LINE
  8
6
  6
CONTINUOUS
 62
     2
 10
2335.5
 20
1260.0
 11
2335.5
 21
933.0
  0
LINE
  8
6
  6
CONTINUOUS
 62
     2
 10
2325.5
 20
1190.0
 11
2325.5
 21
1000.5
  0
LINE
  8
1
  6
CONTINUOUS
 62
     2
 10
2195.5
 20
1140.0
 11
2195.5
 21
1074.5
  0
LINE
  8
1
  6
CONTINUOUS
 62
     2
 10
2195.5
 20
1082.5
 11
2176.181483474
 21
1087.676380902
  0
LINE
  8
1
  6
CONTINUOUS
 62
     2
 10
2195.5
 20
1082.5
 11
2176.181483474
 21
1077.323619098
  0
LINE
  8
1
  6
CONTINUOUS
 62
     2
 10
2195.5
 20
1082.5
 11
2035.5
 21
1082.5
  0
LINE
  8
1
  6
CONTINUOUS
 62
     2
 10
2035.5
 20
1082.5
 11
2054.818516526
 21
1077.323619098
  0
LINE
  8
1
  6
CONTINUOUS
 62
     2
 10
2035.5
 20
1082.5
 11
2054.818516526
 21
1087.676380902
  0
LINE
  8
1
  6
CONTINUOUS
 62
     2
 10
2035.5
 20
1364.0
 11
2035.5
 21
1074.5
  0
TEXT
  8
6
  6
CONTINUOUS
 62
     2
 10
2160.7
 20
1019.0
 30
2.4
 40
24.0
  1
２６０
 50
0.0
 41
0.9
 51
0.0
  7
KANJI57
  0
TEXT
  8
1
  6
CONTINUOUS
 62
     2
 10
2074.7
 20
1090.5
 30
2.4
 40
24.0
  1
１６０
 50
0.0
 41
0.9
 51
0.0
  7
KANJI2
  0
LINE
  8
1
  6
CONTINUOUS
 62
     2
 10
1672.000190206
 20
1371.5
 11
1791.000190206
 21
1371.5
  0
LINE
  8
1
  6
CONTINUOUS
 62
     2
 10
1775.000190206
 20
1371.5
 11
1769.823809304
 21
1352.181483474
  0
LINE
  8
1
  6
CONTINUOUS
 62
     2
 10
1775.000190206
 20
1371.5
 11
1780.176571108
 21
1352.181483474
  0
LINE
  8
1
  6
CONTINUOUS
 62
     2
 10
1775.000190206
 20
1371.5
 11
1775.000190206
 21
1276.5
  0
LINE
  8
1
  6
CONTINUOUS
 62
     2
 10
1775.000190206
 20
1276.5
 11
1780.176571108
 21
1295.818516526
  0
LINE
  8
1
  6
CONTINUOUS
 62
     2
 10
1775.000190206
 20
1276.5
 11
1769.823809304
 21
1295.818516526
  0
LINE
  8
1
  6
CONTINUOUS
 62
     2
 10
1672.000190206
 20
1276.5
 11
1791.000190206
 21
1276.5
  0
TEXT
  8
1
  6
CONTINUOUS
 62
     3
 10
1767.000190206
 20
1283.2
 30
2.4
 40
28.0
  1
φ９５
 50
90.0
 41
0.914285714
 51
0.0
  7
KANJI53
  0
LINE
  8
0
  6
CONTINUOUS
 62
     1
 10
1474.0
 20
1394.0
 11
1474.0
 21
1254.0
  0
LINE
  8
0
  6
CONTINUOUS
 62
     1
 10
1439.0
 20
1394.0
 11
1439.0
 21
1254.0
  0
LINE
  8
0
  6
CONTINUOUS
 62
     1
 10
1508.0
 20
1372.517376915
 11
1474.0
 21
1372.517376915
  0
LINE
  8
0
  6
CONTINUOUS
 62
     1
 10
1474.0
 20
1279.5
 11
1507.999190206
 21
1279.5
  0
LINE
  8
0
  6
CONTINUOUS
 62
     1
 10
1380.149691586
 20
1394.0
 11
1474.0
 21
1394.0
  0
LINE
  8
0
  6
CONTINUOUS
 62
     1
 10
1321.149691586
 20
1394.0
 11
1364.149691586
 21
1394.0
  0
LINE
  8
0
  6
CONTINUOUS
 62
     1
 10
1519.999190206
 20
1646.815113763
 11
1529.999190206
 21
1646.815113763
  0
LINE
  8
0
  6
CONTINUOUS
 62
     1
 10
1529.999190206
 20
1646.815113763
 11
1529.999190206
 21
1624.315113763
  0
LINE
  8
0
  6
CONTINUOUS
 62
     1
 10
1529.999190206
 20
1624.315113763
 11
1669.999380412
 21
1624.315113763
  0
LINE
  8
0
  6
CONTINUOUS
 62
     1
 10
1669.999380412
 20
1574.315113763
 11
1669.999380412
 21
1624.315113763
  0
LINE
  8
0
  6
CONTINUOUS
 62
     1
 10
1529.999190206
 20
1574.315113763
 11
1669.999380412
 21
1574.315113763
  0
LINE
  8
0
  6
CONTINUOUS
 62
     1
 10
1529.999190206
 20
1574.315113763
 11
1529.999190206
 21
1551.815113763
  0
LINE
  8
0
  6
LTYPE1
 62
     2
 10
1642.499380412
 20
1574.315113763
 11
1642.499380412
 21
1624.315113763
  0
LINE
  8
0
  6
LTYPE1
 62
     2
 10
1597.499380412
 20
1574.315113763
 11
1597.499380412
 21
1624.315113763
  0
LINE
  8
0
  6
CONTINUOUS
 62
     1
 10
1659.999380412
 20
1574.315113763
 11
1659.999380412
 21
1624.315113763
  0
LINE
  8
0
  6
LTYPE3
 62
     2
 10
1619.999380412
 20
1542.815113763
 11
1619.999380412
 21
1653.815113763
  0
LINE
  8
6
  6
CONTINUOUS
 62
     2
 10
1597.499380412
 20
1562.315113763
 11
1597.499380412
 21
1510.315113763
  0
LINE
  8
6
  6
CONTINUOUS
 62
     2
 10
1597.499380412
 20
1522.315113763
 11
1578.180863887
 21
1527.491494666
  0
LINE
  8
6
  6
CONTINUOUS
 62
     2
 10
1597.499380412
 20
1522.315113763
 11
1578.180863887
 21
1517.138732861
  0
LINE
  8
6
  6
CONTINUOUS
 62
     2
 10
1567.499380412
 20
1522.315113763
 11
1814.099380412
 21
1522.315113763
  0
LINE
  8
6
  6
CONTINUOUS
 62
     2
 10
1642.499380412
 20
1522.315113763
 11
1661.817896938
 21
1517.138732861
  0
LINE
  8
6
  6
CONTINUOUS
 62
     2
 10
1642.499380412
 20
1522.315113763
 11
1661.817896938
 21
1527.491494666
  0
LINE
  8
6
  6
CONTINUOUS
 62
     2
 10
1642.499380412
 20
1562.315113763
 11
1642.499380412
 21
1510.315113763
  0
TEXT
  8
6
  6
CONTINUOUS
 62
     2
 10
1672.499380412
 20
1530.315113763
 30
2.4
 40
24.0
  1
φ４５Ｈ１０
 50
0.0
 41
0.9
 51
0.0
  7
KANJI57
  0
LINE
  8
6
  6
CONTINUOUS
 62
     2
 10
1529.999190206
 20
1539.815113763
 11
1529.999190206
 21
1452.315113763
  0
LINE
  8
6
  6
CONTINUOUS
 62
     2
 10
1529.999190206
 20
1464.315113763
 11
1549.317706732
 21
1459.138732861
  0
LINE
  8
6
  6
CONTINUOUS
 62
     2
 10
1529.999190206
 20
1464.315113763
 11
1549.317706732
 21
1469.491494666
  0
LINE
  8
6
  6
CONTINUOUS
 62
     2
 10
1529.999190206
 20
1464.315113763
 11
1619.999380412
 21
1464.315113763
  0
LINE
  8
6
  6
CONTINUOUS
 62
     2
 10
1619.999380412
 20
1464.315113763
 11
1600.680863887
 21
1469.491494666
  0
LINE
  8
6
  6
CONTINUOUS
 62
     2
 10
1619.999380412
 20
1464.315113763
 11
1600.680863887
 21
1459.138732861
  0
LINE
  8
6
  6
CONTINUOUS
 62
     2
 10
1619.999380412
 20
1530.815113763
 11
1619.999380412
 21
1452.315113763
  0
TEXT
  8
6
  6
CONTINUOUS
 62
     2
 10
1552.199285309
 20
1472.315113763
 30
2.4
 40
24.0
  1
９０
 50
0.0
 41
0.9
 51
0.0
  7
KANJI57
  0
LINE
  8
6
  6
CONTINUOUS
 62
     2
 10
1681.999380412
 20
1574.315113763
 11
1742.999380412
 21
1574.315113763
  0
LINE
  8
6
  6
CONTINUOUS
 62
     2
 10
1730.999380412
 20
1574.315113763
 11
1736.175761315
 21
1593.633630289
  0
LINE
  8
6
  6
CONTINUOUS
 62
     2
 10
1730.999380412
 20
1574.315113763
 11
1725.82299951
 21
1593.633630289
  0
LINE
  8
6
  6
CONTINUOUS
 62
     2
 10
1730.999380412
 20
1574.315113763
 11
1730.999380412
 21
1624.315113763
  0
LINE
  8
6
  6
CONTINUOUS
 62
     2
 10
1730.999380412
 20
1624.315113763
 11
1725.82299951
 21
1604.996597238
  0
LINE
  8
6
  6
CONTINUOUS
 62
     2
 10
1730.999380412
 20
1624.315113763
 11
1736.175761315
 21
1604.996597238
  0
LINE
  8
6
  6
CONTINUOUS
 62
     2
 10
1681.999380412
 20
1624.315113763
 11
1742.999380412
 21
1624.315113763
  0
TEXT
  8
6
  6
CONTINUOUS
 62
     2
 10
1722.999380412
 20
1576.515113763
 30
2.4
 40
24.0
  1
５０
 50
90.0
 41
0.9
 51
0.0
  7
KANJI57
  0
LINE
  8
0
  6
CONTINUOUS
 62
     1
 10
1519.999380412
 20
1551.815113763
 11
1529.999190206
 21
1551.815113763
  0
LINE
  8
0
  6
CONTINUOUS
 62
     1
 10
1503.999380412
 20
1551.815113763
 11
1503.999380412
 21
1591.815113763
  0
LINE
  8
0
  6
CONTINUOUS
 62
     1
 10
1519.999190206
 20
1664.315113763
 11
1519.999190206
 21
1534.315113763
  0
LINE
  8
0
  6
CONTINUOUS
 62
     1
 10
1503.999380412
 20
1534.315113763
 11
1519.999190206
 21
1534.315113763
  0
LINE
  8
0
  6
CONTINUOUS
 62
     1
 10
1503.999380412
 20
1534.315113763
 11
1503.999380412
 21
1591.815113763
  0
LINE
  8
0
  6
CONTINUOUS
 62
     1
 10
1503.999190206
 20
1664.315113763
 11
1503.999190206
 21
1561.815113763
  0
LINE
  8
0
  6
CONTINUOUS
 62
     1
 10
1503.999190206
 20
1664.315113763
 11
1519.999190206
 21
1664.315113763
  0
LINE
  8
0
  6
CONTINUOUS
 62
     1
 10
1503.899190206
 20
1553.797736849
 11
1455.319380412
 21
1553.797736849
  0
LINE
  8
0
  6
CONTINUOUS
 62
     1
 10
1503.999190206
 20
1647.832490678
 11
1449.192380412
 21
1647.832490678
  0
LINE
  8
0
  6
LTYPE3
 62
     2
 10
1424.269380412
 20
1599.315113763
 11
1683.999380412
 21
1599.315113763
  0
LINE
  8
0
  6
LTYPE2
 62
     2
 10
531.0
 20
1219.0
 11
449.149691586
 21
1219.0
  0
LINE
  8
0
  6
LTYPE2
 62
     2
 10
521.0
 20
1429.0
 11
452.149691586
 21
1429.0
  0
LINE
  8
0
  6
LTYPE3
 62
     2
 10
1075.0
 20
1555.0
 11
404.149691586
 21
1555.0
  0
TEXT
  8
0
  6
CONTINUOUS
 62
     2
 10
1278.5
 20
566.6
 30
2.4
 40
24.0
  1
１０８０
 50
0.0
 41
0.9
 51
0.0
  7
KANJI2
  0
TEXT
  8
0
  6
CONTINUOUS
 62
     2
 10
1278.0
 20
513.0
 30
2.4
 40
24.0
  1
１３２０
 50
0.0
 41
0.9
 51
0.0
  7
KANJI2
  0
TEXT
  8
0
  6
CONTINUOUS
 62
     2
 10
1275.5
 20
450.1
 30
2.4
 40
24.0
  1
１６２０
 50
0.0
 41
0.9
 51
0.0
  7
KANJI2
  0
TEXT
  8
0
  6
CONTINUOUS
 62
     2
 10
1603.0
 20
565.0
 30
2.4
 40
24.0
  1
　　５０
 50
0.0
 41
0.9
 51
0.0
  7
KANJI2
  0
TEXT
  8
0
  6
CONTINUOUS
 62
     2
 10
1593.0
 20
623.0
 30
2.4
 40
24.0
  1
　　　５０
 50
0.0
 41
0.9
 51
0.0
  7
KANJI2
  0
TEXT
  8
0
  6
CONTINUOUS
 62
     2
 10
1606.0
 20
510.0
 30
2.4
 40
24.0
  1
　　５０
 50
0.0
 41
0.9
 51
0.0
  7
KANJI2
  0
TEXT
  8
0
  6
CONTINUOUS
 62
     2
 10
1606.0
 20
454.0
 30
2.4
 40
24.0
  1
　　５０
 50
0.0
 41
0.9
 51
0.0
  7
KANJI2
  0
TEXT
  8
0
  6
CONTINUOUS
 62
     2
 10
1771.0
 20
567.0
 30
2.4
 40
24.0
  1
２３１
 50
0.0
 41
0.9
 51
0.0
  7
KANJI2
  0
TEXT
  8
0
  6
CONTINUOUS
 62
     2
 10
1770.0
 20
453.0
 30
2.4
 40
24.0
  1
２５９
 50
0.0
 41
0.9
 51
0.0
  7
KANJI2
  0
TEXT
  8
0
  6
CONTINUOUS
 62
     2
 10
1772.0
 20
511.0
 30
2.4
 40
24.0
  1
２４１
 50
0.0
 41
0.9
 51
0.0
  7
KANJI2
  0
TEXT
  8
0
  6
CONTINUOUS
 62
     2
 10
1117.7
 20
565.0
 30
2.4
 40
24.0
  1
１３０５
 50
0.0
 41
0.9
 51
0.0
  7
KANJI2
  0
TEXT
  8
0
  6
CONTINUOUS
 62
     2
 10
1119.0
 20
455.0
 30
2.4
 40
24.0
  1
１８４５
 50
0.0
 41
0.9
 51
0.0
  7
KANJI2
  0
TEXT
  8
0
  6
CONTINUOUS
 62
     2
 10
1115.0
 20
508.0
 30
2.4
 40
24.0
  1
１５４５
 50
0.0
 41
0.9
 51
0.0
  7
KANJI2
  0
TEXT
  8
0
  6
CONTINUOUS
 62
     2
 10
2999.2
 20
1676.2
 30
20.5
 40
28.0
  1
全閉屋内形
 50
0.0
 41
0.9
 51
0.0
  7
KANJI37
  0
TEXT
  8
0
  6
CONTINUOUS
 62
     2
 10
2978.0
 20
1954.2
 30
1.6
 40
24.0
  1
ＭＣＬＦ８ー　　　　　Ｌ
 50
0.0
 41
0.833333333
 51
0.0
  7
KANJI60
  0
TEXT
  8
0
  6
CONTINUOUS
 62
     2
 10
2544.0
 20
336.0
 30
0.0
 40
28.0
  1
ＭＣＬＦ８－　Ｌ
 50
0.0
 41
0.793650794
 51
0.0
  7
KANJI56
  0
TEXT
  8
0
  6
CONTINUOUS
 62
     3
 10
2628.5333816
 20
207.999992
 30
17.333333333
 40
40.0
  1
Ａ３００１２３９
 50
0.0
 41
0.8
 51
0.0
  7
KANJI61
  0
TEXT
  8
0
  6
CONTINUOUS
 62
     2
 10
667.0
 20
619.0
 30
1.6
 40
24.0
  1
ＭＣＬＦ８ー　　　　　３Ｌ
 50
0.0
 41
0.833333333
 51
0.0
  7
KANJI60
  0
TEXT
  8
0
  6
CONTINUOUS
 62
     2
 10
666.0
 20
339.0
 30
1.6
 40
24.0
  1
ＭＣＬＦ８－　　　　　　　Ｌ
 50
0.0
 41
0.833333333
 51
0.0
  7
KANJI60
  0
LINE
  8
0
 62
    99
 10
665.0
 20
0.0
 11
665.0
 21
2376.0
  0
LINE
  8
0
 62
    99
 10
0.0
 20
620.0
 11
3360.0
 21
620.0
  0
LINE
  8
0
 62
    99
 10
0.0
 20
566.0
 11
3360.0
 21
566.0
  0
LINE
  8
0
 62
    99
 10
0.0
 20
509.0
 11
3360.0
 21
509.0
  0
LINE
  8
0
 62
    99
 10
0.0
 20
451.0
 11
3360.0
 21
451.0
  0
LINE
  8
0
 62
    99
 10
0.0
 20
394.0
 11
3360.0
 21
394.0
  0
LINE
  8
0
 62
    99
 10
0.0
 20
336.0
 11
3360.0
 21
336.0
  0
TEXT
  8
0
  6
CONTINUOUS
 62
     2
 10
667.0
 20
513.0
 30
1.6
 40
24.0
  1
ＭＣＬＦ８ー　　　　　７Ｌ
 50
0.0
 41
0.833333333
 51
0.0
  7
KANJI60
  0
TEXT
  8
0
  6
CONTINUOUS
 62
     2
 10
667.0
 20
569.0
 30
1.6
 40
24.0
  1
ＭＣＬＦ８－　　　　　５Ｌ
 50
0.0
 41
0.833333333
 51
0.0
  7
KANJI60
  0
TEXT
  8
0
  6
CONTINUOUS
 62
     2
 10
669.0
 20
453.0
 30
1.6
 40
24.0
  1
ＭＣＬＦ８－　　　１０Ｌ
 50
0.0
 41
0.833333333
 51
0.0
  7
KANJI60
  0
TEXT
  8
0
  6
CONTINUOUS
 62
     2
 10
666.0
 20
395.0
 30
1.6
 40
24.0
  1
ＭＣＬＦ８－　　　　　　　Ｌ
 50
0.0
 41
0.833333333
 51
0.0
  7
KANJI60
  0
TEXT
  8
6
  6
CONTINUOUS
 62
     2
 10
1925.5
 20
1634.2
 30
2.4
 40
24.0
  1
１９７
 50
90.0
 41
0.9
 51
0.0
  7
KANJI57
  0
TEXT
  8
0
  6
CONTINUOUS
 62
     2
 10
1851.0
 20
1452.0
 30
1.6
 40
24.0
  1
５６３
 50
90.0
 41
0.9
 51
0.0
  7
KANJI58
  0
TEXT
  8
0
  6
CONTINUOUS
 62
     2
 10
2976.0
 20
1731.0
 30
2.4
 40
24.0
  1
２１６Ｎ　　
 50
0.0
 41
0.9
 51
0.0
  7
KANJI2
  0
TEXT
  8
0
  6
CONTINUOUS
 62
     2
 10
3097.0
 20
1734.0
 30
0.1792
 40
22.4
  1
（２２　　ｋｇｍ）
 50
0.0
 41
0.8
 51
0.0
  7
KANJI52
  0
LINE
  8
0
  6
CONTINUOUS
 62
     6
 10
2173.333416
 20
102.9333328
 11
2173.333416
 21
541.1999696
  0
LINE
  8
0
  6
CONTINUOUS
 62
     1
 10
2173.333416
 20
541.1999696
 11
3241.0666672
 21
541.1999696
  0
LINE
  8
0
  6
CONTINUOUS
 62
     6
 10
3241.0666672
 20
102.9333328
 11
3241.0666672
 21
541.1999696
  0
LINE
  8
0
  6
CONTINUOUS
 62
     1
 10
2373.333416
 20
435.7333072
 11
2373.333416
 21
541.1999696
  0
TEXT
  8
0
  6
CONTINUOUS
 62
     1
 10
2207.0
 20
460.0
 30
2.4
 40
28.0
  1
御　用　途
 50
0.0
 41
0.857142857
 51
0.0
  7
KANJI62
  0
TEXT
  8
0
  6
CONTINUOUS
 62
     1
 10
2207.0
 20
504.0
 30
2.4
 40
28.0
  1
客　先　名
 50
0.0
 41
0.857142857
 51
0.0
  7
KANJI62
  0
LINE
  8
1
  6
CONTINUOUS
 62
     2
 10
924.0
 20
1707.0
 11
939.215974312
 21
1719.979758309
  0
LINE
  8
1
  6
CONTINUOUS
 62
     2
 10
924.0
 20
1707.0
 11
930.687541143
 21
1725.848787586
  0
LINE
  8
1
  6
CONTINUOUS
 62
     2
 10
924.0
 20
1707.0
 11
1052.0
 21
1893.0
  0
LINE
  8
1
  6
CONTINUOUS
 62
     2
 10
1052.0
 20
1893.0
 11
1192.0
 21
1893.0
  0
TEXT
  8
1
  6
CONTINUOUS
 62
     3
 10
1052.0
 20
1901.0
 30
8.0
 40
24.0
  1
ＰＦ３／４
 50
0.0
 41
0.9
 51
0.0
  7
KANJI63
  0
ENDSEC
  0
EOF
