  0
SECTION
  2
HEADER
  9
$EXTMIN
 10
0.0
 20
0.0
 30
0.0
  9
$EXTMAX
 10
3360.0
 20
2376.0
 30
0.0
  9
$LIMMIN
 10
0.0
 20
0.0
  9
$LIMMAX
 10
3360.0
 20
2376.0
  9
$LTSCALE
 40
1.0
  9
$PDMODE
 70
     0
  0
ENDSEC
  0
SECTION
  2
TABLES
  0
TABLE
  2
LTYPE
 70
     6
  0
LTYPE
  2
CONTINUOUS
 70
    64
  3
Solid line
 72
    65
 73
     0
 40
0.0
  0
LTYPE
  2
LTYPE1
 70
    64
  3
HIDDEN
 72
    65
 73
     2
 40
24.0
 49
14.4
 49
-9.6
  0
LTYPE
  2
LTYPE2
 70
    64
  3
CENTER
 72
    65
 73
     4
 40
120.0
 49
84.0
 49
-12.0
 49
12.0
 49
-12.0
  0
LTYPE
  2
LTYPE3
 70
    64
  3
PHANTOM
 72
    65
 73
     6
 40
120.0
 49
90.0
 49
-6.0
 49
6.0
 49
-6.0
 49
6.0
 49
-6.0
  0
LTYPE
  2
LTYPE4
 70
    64
  3
CENTER
 72
    65
 73
     4
 40
80.0
 49
56.0
 49
-8.0
 49
8.0
 49
-8.0
  0
LTYPE
  2
LTYPE5
 70
    64
  3
CENTER
 72
    65
 73
     4
 40
160.0
 49
112.0
 49
-16.0
 49
16.0
 49
-16.0
  0
ENDTAB
  0
TABLE
  2
LAYER
 70
   128
  0
LAYER
  2
0
 70
     0
 62
     7
  6
CONTINUOUS
  0
LAYER
  2
2
 70
     0
 62
     7
  6
CONTINUOUS
  0
LAYER
  2
3
 70
     0
 62
     7
  6
CONTINUOUS
  0
LAYER
  2
4
 70
     0
 62
     7
  6
CONTINUOUS
  0
LAYER
  2
5
 70
     0
 62
     7
  6
CONTINUOUS
  0
LAYER
  2
6
 70
     0
 62
     7
  6
CONTINUOUS
  0
LAYER
  2
7
 70
     0
 62
     7
  6
CONTINUOUS
  0
LAYER
  2
8
 70
     0
 62
     7
  6
CONTINUOUS
  0
LAYER
  2
9
 70
     0
 62
     7
  6
CONTINUOUS
  0
LAYER
  2
10
 70
     0
 62
     7
  6
CONTINUOUS
  0
LAYER
  2
11
 70
     0
 62
     7
  6
CONTINUOUS
  0
LAYER
  2
12
 70
     0
 62
     7
  6
CONTINUOUS
  0
LAYER
  2
13
 70
     0
 62
     7
  6
CONTINUOUS
  0
LAYER
  2
14
 70
     0
 62
     7
  6
CONTINUOUS
  0
LAYER
  2
15
 70
     0
 62
     7
  6
CONTINUOUS
  0
LAYER
  2
16
 70
     0
 62
     7
  6
CONTINUOUS
  0
LAYER
  2
17
 70
     0
 62
     7
  6
CONTINUOUS
  0
LAYER
  2
18
 70
     0
 62
     7
  6
CONTINUOUS
  0
LAYER
  2
19
 70
     0
 62
     7
  6
CONTINUOUS
  0
LAYER
  2
20
 70
     0
 62
     7
  6
CONTINUOUS
  0
LAYER
  2
21
 70
     0
 62
     7
  6
CONTINUOUS
  0
LAYER
  2
22
 70
     0
 62
     7
  6
CONTINUOUS
  0
LAYER
  2
23
 70
     0
 62
     7
  6
CONTINUOUS
  0
LAYER
  2
24
 70
     0
 62
     7
  6
CONTINUOUS
  0
LAYER
  2
25
 70
     0
 62
     7
  6
CONTINUOUS
  0
LAYER
  2
26
 70
     0
 62
     7
  6
CONTINUOUS
  0
LAYER
  2
27
 70
     0
 62
     7
  6
CONTINUOUS
  0
LAYER
  2
28
 70
     0
 62
     7
  6
CONTINUOUS
  0
LAYER
  2
29
 70
     0
 62
     7
  6
CONTINUOUS
  0
LAYER
  2
30
 70
     0
 62
     7
  6
CONTINUOUS
  0
LAYER
  2
31
 70
     0
 62
     7
  6
CONTINUOUS
  0
LAYER
  2
32
 70
     0
 62
     7
  6
CONTINUOUS
  0
LAYER
  2
33
 70
     0
 62
     7
  6
CONTINUOUS
  0
LAYER
  2
34
 70
     0
 62
     7
  6
CONTINUOUS
  0
LAYER
  2
35
 70
     0
 62
     7
  6
CONTINUOUS
  0
LAYER
  2
36
 70
     0
 62
     7
  6
CONTINUOUS
  0
LAYER
  2
37
 70
     0
 62
     7
  6
CONTINUOUS
  0
LAYER
  2
38
 70
     0
 62
     7
  6
CONTINUOUS
  0
LAYER
  2
39
 70
     0
 62
     7
  6
CONTINUOUS
  0
LAYER
  2
40
 70
     0
 62
     7
  6
CONTINUOUS
  0
LAYER
  2
41
 70
     0
 62
     7
  6
CONTINUOUS
  0
LAYER
  2
42
 70
     0
 62
     7
  6
CONTINUOUS
  0
LAYER
  2
43
 70
     0
 62
     7
  6
CONTINUOUS
  0
LAYER
  2
44
 70
     0
 62
     7
  6
CONTINUOUS
  0
LAYER
  2
45
 70
     0
 62
     7
  6
CONTINUOUS
  0
LAYER
  2
46
 70
     0
 62
     7
  6
CONTINUOUS
  0
LAYER
  2
47
 70
     0
 62
     7
  6
CONTINUOUS
  0
LAYER
  2
48
 70
     0
 62
     7
  6
CONTINUOUS
  0
LAYER
  2
49
 70
     0
 62
     7
  6
CONTINUOUS
  0
LAYER
  2
50
 70
     0
 62
     7
  6
CONTINUOUS
  0
LAYER
  2
51
 70
     0
 62
     7
  6
CONTINUOUS
  0
LAYER
  2
52
 70
     0
 62
     7
  6
CONTINUOUS
  0
LAYER
  2
53
 70
     0
 62
     7
  6
CONTINUOUS
  0
LAYER
  2
54
 70
     0
 62
     7
  6
CONTINUOUS
  0
LAYER
  2
55
 70
     0
 62
     7
  6
CONTINUOUS
  0
LAYER
  2
56
 70
     0
 62
     7
  6
CONTINUOUS
  0
LAYER
  2
57
 70
     0
 62
     7
  6
CONTINUOUS
  0
LAYER
  2
58
 70
     0
 62
     7
  6
CONTINUOUS
  0
LAYER
  2
59
 70
     0
 62
     7
  6
CONTINUOUS
  0
LAYER
  2
60
 70
     0
 62
     7
  6
CONTINUOUS
  0
LAYER
  2
61
 70
     0
 62
     7
  6
CONTINUOUS
  0
LAYER
  2
62
 70
     0
 62
     7
  6
CONTINUOUS
  0
LAYER
  2
63
 70
     0
 62
     7
  6
CONTINUOUS
  0
LAYER
  2
64
 70
     0
 62
     7
  6
CONTINUOUS
  0
LAYER
  2
65
 70
     0
 62
     7
  6
CONTINUOUS
  0
LAYER
  2
66
 70
     0
 62
     7
  6
CONTINUOUS
  0
LAYER
  2
67
 70
     0
 62
     7
  6
CONTINUOUS
  0
LAYER
  2
68
 70
     0
 62
     7
  6
CONTINUOUS
  0
LAYER
  2
69
 70
     0
 62
     7
  6
CONTINUOUS
  0
LAYER
  2
70
 70
     0
 62
     7
  6
CONTINUOUS
  0
LAYER
  2
71
 70
     0
 62
     7
  6
CONTINUOUS
  0
LAYER
  2
72
 70
     0
 62
     7
  6
CONTINUOUS
  0
LAYER
  2
73
 70
     0
 62
     7
  6
CONTINUOUS
  0
LAYER
  2
74
 70
     0
 62
     7
  6
CONTINUOUS
  0
LAYER
  2
75
 70
     0
 62
     7
  6
CONTINUOUS
  0
LAYER
  2
76
 70
     0
 62
     7
  6
CONTINUOUS
  0
LAYER
  2
77
 70
     0
 62
     7
  6
CONTINUOUS
  0
LAYER
  2
78
 70
     0
 62
     7
  6
CONTINUOUS
  0
LAYER
  2
79
 70
     0
 62
     7
  6
CONTINUOUS
  0
LAYER
  2
80
 70
     0
 62
     7
  6
CONTINUOUS
  0
LAYER
  2
81
 70
     0
 62
     7
  6
CONTINUOUS
  0
LAYER
  2
82
 70
     0
 62
     7
  6
CONTINUOUS
  0
LAYER
  2
83
 70
     0
 62
     7
  6
CONTINUOUS
  0
LAYER
  2
84
 70
     0
 62
     7
  6
CONTINUOUS
  0
LAYER
  2
85
 70
     0
 62
     7
  6
CONTINUOUS
  0
LAYER
  2
86
 70
     0
 62
     7
  6
CONTINUOUS
  0
LAYER
  2
87
 70
     0
 62
     7
  6
CONTINUOUS
  0
LAYER
  2
88
 70
     0
 62
     7
  6
CONTINUOUS
  0
LAYER
  2
89
 70
     0
 62
     7
  6
CONTINUOUS
  0
LAYER
  2
90
 70
     0
 62
     7
  6
CONTINUOUS
  0
LAYER
  2
91
 70
     0
 62
     7
  6
CONTINUOUS
  0
LAYER
  2
92
 70
     0
 62
     7
  6
CONTINUOUS
  0
LAYER
  2
93
 70
     0
 62
     7
  6
CONTINUOUS
  0
LAYER
  2
94
 70
     0
 62
     7
  6
CONTINUOUS
  0
LAYER
  2
95
 70
     0
 62
     7
  6
CONTINUOUS
  0
LAYER
  2
96
 70
     0
 62
     7
  6
CONTINUOUS
  0
LAYER
  2
97
 70
     0
 62
     7
  6
CONTINUOUS
  0
LAYER
  2
98
 70
     0
 62
     7
  6
CONTINUOUS
  0
LAYER
  2
99
 70
     0
 62
     7
  6
CONTINUOUS
  0
LAYER
  2
100
 70
     0
 62
     7
  6
CONTINUOUS
  0
LAYER
  2
101
 70
     0
 62
     7
  6
CONTINUOUS
  0
LAYER
  2
102
 70
     0
 62
     7
  6
CONTINUOUS
  0
LAYER
  2
103
 70
     0
 62
     7
  6
CONTINUOUS
  0
LAYER
  2
104
 70
     0
 62
     7
  6
CONTINUOUS
  0
LAYER
  2
105
 70
     0
 62
     7
  6
CONTINUOUS
  0
LAYER
  2
106
 70
     0
 62
     7
  6
CONTINUOUS
  0
LAYER
  2
107
 70
     0
 62
     7
  6
CONTINUOUS
  0
LAYER
  2
108
 70
     0
 62
     7
  6
CONTINUOUS
  0
LAYER
  2
109
 70
     0
 62
     7
  6
CONTINUOUS
  0
LAYER
  2
110
 70
     0
 62
     7
  6
CONTINUOUS
  0
LAYER
  2
111
 70
     0
 62
     7
  6
CONTINUOUS
  0
LAYER
  2
112
 70
     0
 62
     7
  6
CONTINUOUS
  0
LAYER
  2
113
 70
     0
 62
     7
  6
CONTINUOUS
  0
LAYER
  2
114
 70
     0
 62
     7
  6
CONTINUOUS
  0
LAYER
  2
115
 70
     0
 62
     7
  6
CONTINUOUS
  0
LAYER
  2
116
 70
     0
 62
     7
  6
CONTINUOUS
  0
LAYER
  2
117
 70
     0
 62
     7
  6
CONTINUOUS
  0
LAYER
  2
118
 70
     0
 62
     7
  6
CONTINUOUS
  0
LAYER
  2
119
 70
     0
 62
     7
  6
CONTINUOUS
  0
LAYER
  2
120
 70
     0
 62
     7
  6
CONTINUOUS
  0
LAYER
  2
121
 70
     0
 62
     7
  6
CONTINUOUS
  0
LAYER
  2
122
 70
     0
 62
     7
  6
CONTINUOUS
  0
LAYER
  2
123
 70
     0
 62
     7
  6
CONTINUOUS
  0
LAYER
  2
124
 70
     0
 62
     7
  6
CONTINUOUS
  0
LAYER
  2
125
 70
     0
 62
     7
  6
CONTINUOUS
  0
LAYER
  2
126
 70
     0
 62
     7
  6
CONTINUOUS
  0
LAYER
  2
127
 70
     0
 62
     7
  6
CONTINUOUS
  0
LAYER
  2
128
 70
     0
 62
     7
  6
CONTINUOUS
  0
ENDTAB
  0
TABLE
  2
STYLE
 70
    72
  0
STYLE
  2
STANDARD
 70
     0
 40
0.0
 41
1.0
 50
0.0
 71
     0
 42
0.2
  3
txt
  4

  0
STYLE
  2
KANJI0
 70
     0
 40
40.0
 41
1.0
 50
0.0
 71
     0
 42
40.0
  3

  4
bigfont
  0
STYLE
  2
KANJI1
 70
     0
 40
40.0
 41
1.0
 50
0.0
 71
     0
 42
40.0
  3

  4
bigfont
  0
STYLE
  2
KANJI2
 70
     0
 40
15.999996636
 41
0.6
 50
0.0
 71
     0
 42
15.999996636
  3

  4
bigfont
  0
STYLE
  2
KANJI3
 70
     0
 40
19.199995963
 41
0.9
 50
0.0
 71
     0
 42
19.199995963
  3

  4
bigfont
  0
STYLE
  2
KANJI4
 70
     0
 40
13.8666656
 41
0.8
 50
0.0
 71
     0
 42
13.8666656
  3

  4
bigfont
  0
STYLE
  2
KANJI5
 70
     0
 40
13.8666656
 41
0.75
 50
0.0
 71
     0
 42
13.8666656
  3

  4
bigfont
  0
STYLE
  2
KANJI6
 70
     0
 40
16.63999872
 41
0.75
 50
0.0
 71
     0
 42
16.63999872
  3

  4
bigfont
  0
STYLE
  2
KANJI7
 70
     0
 40
16.63999872
 41
0.9
 50
0.0
 71
     0
 42
16.63999872
  3

  4
bigfont
  0
STYLE
  2
KANJI8
 70
     0
 40
16.63999872
 41
0.8
 50
0.0
 71
     0
 42
16.63999872
  3

  4
bigfont
  0
STYLE
  2
KANJI9
 70
     0
 40
20.7999984
 41
0.9
 50
0.0
 71
     0
 42
20.7999984
  3

  4
bigfont
  0
STYLE
  2
KANJI10
 70
     0
 40
13.8666656
 41
0.75
 50
0.0
 71
     0
 42
13.8666656
  3

  4
bigfont
  0
STYLE
  2
KANJI11
 70
     0
 40
20.7999984
 41
0.75
 50
0.0
 71
     0
 42
20.7999984
  3

  4
bigfont
  0
STYLE
  2
KANJI12
 70
     0
 40
12.47999904
 41
0.75
 50
0.0
 71
     0
 42
12.47999904
  3

  4
bigfont
  0
STYLE
  2
KANJI13
 70
     0
 40
13.8666656
 41
0.6
 50
0.0
 71
     0
 42
13.8666656
  3

  4
bigfont
  0
STYLE
  2
KANJI14
 70
     0
 40
16.63999872
 41
0.6
 50
0.0
 71
     0
 42
16.63999872
  3

  4
bigfont
  0
STYLE
  2
KANJI15
 70
     0
 40
13.8666656
 41
0.8
 50
0.0
 71
     0
 42
13.8666656
  3

  4
bigfont
  0
STYLE
  2
KANJI16
 70
     0
 40
16.63999872
 41
0.8
 50
0.0
 71
     0
 42
16.63999872
  3

  4
bigfont
  0
STYLE
  2
KANJI17
 70
     0
 40
69.333328
 41
0.9
 50
0.0
 71
     0
 42
69.333328
  3

  4
bigfont
  0
STYLE
  2
KANJI18
 70
     0
 40
23.999994954
 41
0.9
 50
0.0
 71
     0
 42
23.999994954
  3

  4
bigfont
  0
STYLE
  2
KANJI19
 70
     0
 40
24.2666648
 41
0.42031746
 50
0.0
 71
     0
 42
24.2666648
  3

  4
bigfont
  0
STYLE
  2
KANJI20
 70
     0
 40
41.5999968
 41
0.9
 50
0.0
 71
     0
 42
41.5999968
  3

  4
bigfont
  0
STYLE
  2
KANJI21
 70
     0
 40
36.0
 41
0.666666667
 50
0.0
 71
     0
 42
36.0
  3

  4
bigfont
  0
STYLE
  2
KANJI22
 70
     0
 40
36.0
 41
0.9
 50
0.0
 71
     0
 42
36.0
  3

  4
bigfont
  0
STYLE
  2
KANJI23
 70
     4
 40
28.0
 41
0.9
 50
0.0
 71
     0
 42
28.0
  3

  4
bigfont
  0
STYLE
  2
KANJI24
 70
     4
 40
24.0
 41
0.9
 50
0.0
 71
     0
 42
24.0
  3

  4
bigfont
  0
STYLE
  2
KANJI25
 70
     0
 40
28.0
 41
0.9
 50
0.0
 71
     0
 42
28.0
  3

  4
bigfont
  0
STYLE
  2
KANJI26
 70
     0
 40
24.0
 41
0.9
 50
0.0
 71
     0
 42
24.0
  3

  4
bigfont
  0
STYLE
  2
KANJI27
 70
     0
 40
24.0
 41
0.857142857
 50
0.0
 71
     0
 42
24.0
  3

  4
bigfont
  0
STYLE
  2
KANJI28
 70
     0
 40
28.0
 41
0.9
 50
0.0
 71
     0
 42
28.0
  3

  4
bigfont
  0
STYLE
  2
KANJI29
 70
     0
 40
22.4
 41
0.9
 50
0.0
 71
     0
 42
22.4
  3

  4
bigfont
  0
STYLE
  2
KANJI30
 70
     0
 40
22.4
 41
0.785714286
 50
0.0
 71
     0
 42
22.4
  3

  4
bigfont
  0
STYLE
  2
KANJI31
 70
     0
 40
22.4
 41
0.8
 50
0.0
 71
     0
 42
22.4
  3

  4
bigfont
  0
STYLE
  2
KANJI32
 70
     0
 40
24.0
 41
0.8
 50
0.0
 71
     0
 42
24.0
  3

  4
bigfont
  0
STYLE
  2
KANJI33
 70
     0
 40
24.0
 41
0.9
 50
0.0
 71
     0
 42
24.0
  3

  4
bigfont
  0
STYLE
  2
KANJI34
 70
     0
 40
30.4
 41
0.9
 50
0.0
 71
     0
 42
30.4
  3

  4
bigfont
  0
STYLE
  2
KANJI35
 70
     0
 40
30.4
 41
0.9
 50
0.0
 71
     0
 42
30.4
  3

  4
bigfont
  0
STYLE
  2
KANJI36
 70
     0
 40
30.4
 41
0.9
 50
0.0
 71
     0
 42
30.4
  3

  4
bigfont
  0
STYLE
  2
KANJI37
 70
     0
 40
30.4
 41
0.9
 50
0.0
 71
     0
 42
30.4
  3

  4
bigfont
  0
STYLE
  2
KANJI38
 70
     0
 40
30.4
 41
0.9
 50
0.0
 71
     0
 42
30.4
  3

  4
bigfont
  0
STYLE
  2
KANJI39
 70
     0
 40
30.4
 41
0.9
 50
0.0
 71
     0
 42
30.4
  3

  4
bigfont
  0
STYLE
  2
KANJI40
 70
     0
 40
30.4
 41
0.9
 50
0.0
 71
     0
 42
30.4
  3

  4
bigfont
  0
STYLE
  2
KANJI41
 70
     0
 40
30.4
 41
0.9
 50
0.0
 71
     0
 42
30.4
  3

  4
bigfont
  0
STYLE
  2
KANJI42
 70
     0
 40
30.4
 41
0.9
 50
0.0
 71
     0
 42
30.4
  3

  4
bigfont
  0
STYLE
  2
KANJI43
 70
     0
 40
30.4
 41
0.9
 50
0.0
 71
     0
 42
30.4
  3

  4
bigfont
  0
STYLE
  2
KANJI44
 70
     0
 40
22.4
 41
0.8
 50
0.0
 71
     0
 42
22.4
  3

  4
bigfont
  0
STYLE
  2
KANJI45
 70
     0
 40
28.0
 41
0.914285714
 50
0.0
 71
     0
 42
28.0
  3

  4
bigfont
  0
STYLE
  2
KANJI46
 70
     0
 40
28.0
 41
0.793650794
 50
0.0
 71
     0
 42
28.0
  3

  4
bigfont
  0
STYLE
  2
KANJI47
 70
     0
 40
32.0
 41
0.925
 50
0.0
 71
     0
 42
32.0
  3

  4
bigfont
  0
STYLE
  2
KANJI48
 70
     0
 40
40.0
 41
0.8
 50
0.0
 71
     0
 42
40.0
  3

  4
bigfont
  0
STYLE
  2
KANJI49
 70
     0
 40
24.0
 41
0.833333333
 50
0.0
 71
     0
 42
24.0
  3

  4
bigfont
  0
STYLE
  2
KANJI50
 70
     0
 40
27.9993
 41
0.9
 50
0.0
 71
     0
 42
27.9993
  3

  4
bigfont
  0
STYLE
  2
KANJI51
 70
     0
 40
23.9994
 41
0.9
 50
0.0
 71
     0
 42
23.9994
  3

  4
bigfont
  0
STYLE
  2
KANJI52
 70
     0
 40
24.0
 41
0.9
 50
0.0
 71
     0
 42
24.0
  3

  4
bigfont
  0
STYLE
  2
KANJI53
 70
     0
 40
19.2
 41
0.777777778
 50
0.0
 71
     0
 42
19.2
  3

  4
bigfont
  0
STYLE
  2
KANJI54
 70
     0
 40
25.6
 41
0.9
 50
0.0
 71
     0
 42
25.6
  3

  4
bigfont
  0
STYLE
  2
KANJI55
 70
     0
 40
28.0
 41
0.9
 50
0.0
 71
     0
 42
28.0
  3

  4
bigfont
  0
STYLE
  2
KANJI56
 70
     0
 40
24.0
 41
0.9
 50
0.0
 71
     0
 42
24.0
  3

  4
bigfont
  0
STYLE
  2
KANJI57
 70
     0
 40
28.0
 41
0.771428571
 50
0.0
 71
     0
 42
28.0
  3

  4
bigfont
  0
STYLE
  2
KANJI58
 70
     0
 40
24.0
 41
0.9
 50
0.0
 71
     0
 42
24.0
  3

  4
bigfont
  0
STYLE
  2
KANJI59
 70
     0
 40
20.7999984
 41
0.75
 50
0.0
 71
     0
 42
20.7999984
  3

  4
bigfont
  0
STYLE
  2
KANJI60
 70
     0
 40
28.8
 41
0.833333333
 50
0.0
 71
     0
 42
28.8
  3

  4
bigfont
  0
STYLE
  2
KANJI61
 70
     0
 40
30.4
 41
0.894736842
 50
0.0
 71
     0
 42
30.4
  3

  4
bigfont
  0
STYLE
  2
KANJI62
 70
     0
 40
24.0
 41
0.9
 50
0.0
 71
     0
 42
24.0
  3

  4
bigfont
  0
STYLE
  2
KANJI63
 70
     0
 40
24.0
 41
0.9
 50
0.0
 71
     0
 42
24.0
  3

  4
bigfont
  0
STYLE
  2
KANJI64
 70
     0
 40
32.0
 41
0.9
 50
0.0
 71
     0
 42
32.0
  3

  4
bigfont
  0
STYLE
  2
KANJI65
 70
     0
 40
28.8
 41
0.857142857
 50
0.0
 71
     0
 42
28.8
  3

  4
bigfont
  0
STYLE
  2
KANJI66
 70
     0
 40
28.8
 41
0.857222222
 50
0.0
 71
     0
 42
28.8
  3

  4
bigfont
  0
STYLE
  2
KANJI67
 70
     0
 40
25.6
 41
0.9375
 50
0.0
 71
     0
 42
25.6
  3

  4
bigfont
  0
STYLE
  2
KANJI68
 70
     0
 40
24.0
 41
0.5
 50
0.0
 71
     0
 42
24.0
  3

  4
bigfont
  0
STYLE
  2
KANJI69
 70
     0
 40
24.0
 41
0.666666667
 50
0.0
 71
     0
 42
24.0
  3

  4
bigfont
  0
STYLE
  2
KANJI70
 70
     0
 40
11.313708499
 41
1.0
 50
0.0
 71
     0
 42
11.313708499
  3

  4
bigfont
  0
ENDTAB
  0
TABLE
  2
VIEW
 70
     0
  0
ENDTAB
  0
ENDSEC
  0
SECTION
  2
BLOCKS
  0
ENDSEC
  0
SECTION
  2
ENTITIES
  0
LINE
  8
0
 62
    99
 10
144.0
 20
0.0
 11
144.0
 21
2376.0
  0
LINE
  8
0
 62
    99
 10
0.0
 20
108.0
 11
3360.0
 21
108.0
  0
LINE
  8
0
  6
CONTINUOUS
 62
     4
 10
3248.0
 20
-120.6
 11
2456.0
 21
-120.6
  0
LINE
  8
0
  6
CONTINUOUS
 62
     4
 10
3248.0
 20
-200.6
 11
2456.0
 21
-200.6
  0
TEXT
  8
0
  6
CONTINUOUS
 62
     2
 10
2864.0
 20
259.4
 30
20.0
 40
40.0
  1
外形寸法図
 50
0.0
 41
1.0
 51
0.0
  7
KANJI0
  0
TEXT
  8
0
  6
CONTINUOUS
 62
     2
 10
2816.0
 20
307.4
 30
5.714285714
 40
40.0
  1
マイティシリンダ
 50
0.0
 41
1.0
 51
0.0
  7
KANJI1
  0
TEXT
  8
0
  6
CONTINUOUS
 62
     4
 10
159.999994954
 20
115.39999159
 30
1.599999664
 40
15.999996636
  1
ＰＡＲＴＳ　ＬＩＳＴ
 50
0.0
 41
0.6
 51
0.0
  7
KANJI2
  0
TEXT
  8
0
  6
CONTINUOUS
 62
     4
 10
519.999919262
 20
115.39999159
 30
1.599999664
 40
15.999996636
  1
Ｎ０．
 50
0.0
 41
0.6
 51
0.0
  7
KANJI2
  0
TEXT
  8
0
  6
CONTINUOUS
 62
     4
 10
159.999994954
 20
91.399996636
 30
1.919999596
 40
19.199995963
  1
部品表
 50
0.0
 41
0.9
 51
0.0
  7
KANJI3
  0
TEXT
  8
0
  6
CONTINUOUS
 62
     4
 10
519.999919262
 20
91.399996636
 30
1.919999596
 40
19.199995963
  1
項番
 50
0.0
 41
0.9
 51
0.0
  7
KANJI3
  0
LINE
  8
0
  6
CONTINUOUS
 62
     4
 10
2854.1333624
 20
2220.4666672
 11
2854.1333624
 21
2099.1333432
  0
LINE
  8
0
  6
CONTINUOUS
 62
     4
 10
2788.2667008
 20
2220.4666672
 11
2788.2667008
 21
2099.1333432
  0
LINE
  8
0
  6
CONTINUOUS
 62
     4
 10
2670.4000432
 20
2220.4666672
 11
2670.4000432
 21
2099.1333432
  0
LINE
  8
0
  6
CONTINUOUS
 62
     4
 10
2552.5333856
 20
2220.4666672
 11
2552.5333856
 21
2099.1333432
  0
LINE
  8
0
  6
CONTINUOUS
 62
     4
 10
2486.666724
 20
2220.4666672
 11
2486.666724
 21
2099.1333432
  0
LINE
  8
0
  6
CONTINUOUS
 62
     4
 10
2420.8000624
 20
2220.4666672
 11
2420.8000624
 21
2099.1333432
  0
TEXT
  8
0
  6
CONTINUOUS
 62
     4
 10
2302.9334048
 20
2196.2000024
 30
1.38666656
 40
13.8666656
  1
（μ）
 50
0.0
 41
0.8
 51
0.0
  7
KANJI4
  0
TEXT
  8
0
  6
CONTINUOUS
 62
     4
 10
2296.000072
 20
2168.4666712
 30
1.38666656
 40
13.8666656
  1
０．８－Ｓ
 50
0.0
 41
0.75
 51
0.0
  7
KANJI5
  0
TEXT
  8
0
  6
CONTINUOUS
 62
     4
 10
2361.8667336
 20
2168.4666712
 30
1.38666656
 40
13.8666656
  1
　６－Ｓ
 50
0.0
 41
0.75
 51
0.0
  7
KANJI5
  0
TEXT
  8
0
  6
CONTINUOUS
 62
     4
 10
2427.7333952
 20
2168.4666712
 30
1.38666656
 40
13.8666656
  1
２５－Ｓ
 50
0.0
 41
0.75
 51
0.0
  7
KANJI5
  0
TEXT
  8
0
  6
CONTINUOUS
 62
     4
 10
2493.6000568
 20
2168.4666712
 30
1.38666656
 40
13.8666656
  1
１００－Ｓ
 50
0.0
 41
0.75
 51
0.0
  7
KANJI5
  0
TEXT
  8
0
  6
CONTINUOUS
 62
     4
 10
2559.4667184
 20
2168.4666712
 30
1.38666656
 40
13.8666656
  1
ＭＡＣＨＩＮＩＮＧ
 50
0.0
 41
0.75
 51
0.0
  7
KANJI5
  0
TEXT
  8
0
  6
CONTINUOUS
 62
     4
 10
2559.4667184
 20
2192.733336
 30
1.38666656
 40
13.8666656
  1
ＷＩＴＨＯＵＴ
 50
0.0
 41
0.75
 51
0.0
  7
KANJI5
  0
TEXT
  8
0
  6
CONTINUOUS
 62
     4
 10
2677.333376
 20
2192.733336
 30
1.38666656
 40
13.8666656
  1
ＭＡＣＨＩＮＩＮＧ
 50
0.0
 41
0.75
 51
0.0
  7
KANJI5
  0
TEXT
  8
0
  6
CONTINUOUS
 62
     4
 10
2677.333376
 20
2168.4666712
 30
1.38666656
 40
13.8666656
  1
ＴＯＬＥＲＡＮＣＥ
 50
0.0
 41
0.75
 51
0.0
  7
KANJI5
  0
TEXT
  8
0
  6
CONTINUOUS
 62
     4
 10
2795.2000336
 20
2192.733336
 30
1.38666656
 40
13.8666656
  1
０．５≦
 50
0.0
 41
0.75
 51
0.0
  7
KANJI5
  0
TEXT
  8
0
  6
CONTINUOUS
 62
     4
 10
2795.2000336
 20
2144.2000064
 30
1.38666656
 40
13.8666656
  1
≦６
 50
0.0
 41
0.75
 51
0.0
  7
KANJI5
  0
TEXT
  8
0
  6
CONTINUOUS
 62
     4
 10
2861.0666952
 20
2144.2000064
 30
1.38666656
 40
13.8666656
  1
≦３０
 50
0.0
 41
0.75
 51
0.0
  7
KANJI5
  0
TEXT
  8
0
  6
CONTINUOUS
 62
     4
 10
2861.0666952
 20
2192.733336
 30
1.38666656
 40
13.8666656
  1
６＜
 50
0.0
 41
0.75
 51
0.0
  7
KANJI5
  0
TEXT
  8
0
  6
CONTINUOUS
 62
     4
 10
2798.6667
 20
2109.5333424
 30
1.38666656
 40
13.8666656
  1
±０．１
 50
0.0
 41
0.75
 51
0.0
  7
KANJI5
  0
TEXT
  8
0
  6
CONTINUOUS
 62
     4
 10
2864.5333616
 20
2109.5333424
 30
1.38666656
 40
13.8666656
  1
±０．２
 50
0.0
 41
0.75
 51
0.0
  7
KANJI5
  0
ARC
  8
0
  6
CONTINUOUS
 62
     4
 10
2601.85960666
 20
2110.92000896
 40
11.09333248
 50
30.0
 51
180.0
  0
ARC
  8
0
  6
CONTINUOUS
 62
     4
 10
2621.07382214
 20
2122.01334144
 40
11.09333248
 50
210.0
 51
0.0
  0
LINE
  8
0
  6
CONTINUOUS
 62
     4
 10
2513.5333886
 20
2123.400008
 11
2525.666721
 21
2123.400008
  0
LINE
  8
0
  6
CONTINUOUS
 62
     4
 10
2513.5333886
 20
2123.400008
 11
2519.6000548
 21
2109.5333424
  0
LINE
  8
0
  6
CONTINUOUS
 62
     4
 10
2519.6000548
 20
2109.5333424
 11
2525.666721
 21
2123.400008
  0
LINE
  8
0
  6
CONTINUOUS
 62
     4
 10
2441.6000608
 20
2123.400008
 11
2447.666727
 21
2109.5333424
  0
LINE
  8
0
  6
CONTINUOUS
 62
     4
 10
2447.666727
 20
2109.5333424
 11
2453.7333932
 21
2123.400008
  0
LINE
  8
0
  6
CONTINUOUS
 62
     4
 10
2453.7333932
 20
2123.400008
 11
2459.8000594
 21
2109.5333424
  0
LINE
  8
0
  6
CONTINUOUS
 62
     4
 10
2459.8000594
 20
2109.5333424
 11
2465.8667256
 21
2123.400008
  0
LINE
  8
0
  6
CONTINUOUS
 62
     4
 10
2441.6000608
 20
2123.400008
 11
2465.8667256
 21
2123.400008
  0
LINE
  8
0
  6
CONTINUOUS
 62
     4
 10
2354.9334008
 20
2220.4666672
 11
2354.9334008
 21
2099.1333432
  0
LINE
  8
0
  6
CONTINUOUS
 62
     4
 10
2297.7334052
 20
2123.400008
 11
2346.2667348
 21
2123.400008
  0
LINE
  8
0
  6
CONTINUOUS
 62
     4
 10
2297.7334052
 20
2123.400008
 11
2303.8000714
 21
2109.5333424
  0
LINE
  8
0
  6
CONTINUOUS
 62
     4
 10
2303.8000714
 20
2109.5333424
 11
2309.8667376
 21
2123.400008
  0
LINE
  8
0
  6
CONTINUOUS
 62
     4
 10
2309.8667376
 20
2123.400008
 11
2315.9334038
 21
2109.5333424
  0
LINE
  8
0
  6
CONTINUOUS
 62
     4
 10
2315.9334038
 20
2109.5333424
 11
2322.00007
 21
2123.400008
  0
LINE
  8
0
  6
CONTINUOUS
 62
     4
 10
2322.00007
 20
2123.400008
 11
2328.0667362
 21
2109.5333424
  0
LINE
  8
0
  6
CONTINUOUS
 62
     4
 10
2328.0667362
 20
2109.5333424
 11
2334.1334024
 21
2123.400008
  0
LINE
  8
0
  6
CONTINUOUS
 62
     4
 10
2334.1334024
 20
2123.400008
 11
2340.2000686
 21
2109.5333424
  0
LINE
  8
0
  6
CONTINUOUS
 62
     4
 10
2340.2000686
 20
2109.5333424
 11
2346.2667348
 21
2123.400008
  0
LINE
  8
0
  6
CONTINUOUS
 62
     4
 10
2369.666733
 20
2123.400008
 11
2375.7333992
 21
2109.5333424
  0
LINE
  8
0
  6
CONTINUOUS
 62
     4
 10
2375.7333992
 20
2109.5333424
 11
2381.8000654
 21
2123.400008
  0
LINE
  8
0
  6
CONTINUOUS
 62
     4
 10
2381.8000654
 20
2123.400008
 11
2387.8667316
 21
2109.5333424
  0
LINE
  8
0
  6
CONTINUOUS
 62
     4
 10
2387.8667316
 20
2109.5333424
 11
2393.9333978
 21
2123.400008
  0
LINE
  8
0
  6
CONTINUOUS
 62
     4
 10
2393.9333978
 20
2123.400008
 11
2400.000064
 21
2109.5333424
  0
LINE
  8
0
  6
CONTINUOUS
 62
     4
 10
2400.000064
 20
2109.5333424
 11
2406.0667302
 21
2123.400008
  0
LINE
  8
0
  6
CONTINUOUS
 62
     4
 10
2369.666733
 20
2123.400008
 11
2406.0667302
 21
2123.400008
  0
TEXT
  8
0
  6
CONTINUOUS
 62
     4
 10
2559.4667184
 20
2144.2000064
 30
1.663999872
 40
16.63999872
  1
加工なし
 50
0.0
 41
0.75
 51
0.0
  7
KANJI6
  0
TEXT
  8
0
  6
CONTINUOUS
 62
     4
 10
2677.333376
 20
2144.2000064
 30
1.663999872
 40
16.63999872
  1
普通加工交差
 50
0.0
 41
0.9
 51
0.0
  7
KANJI7
  0
TEXT
  8
0
  6
CONTINUOUS
 62
     4
 10
2705.0667072
 20
2109.5333424
 30
1.663999872
 40
16.63999872
  1
（ｍｍ）
 50
0.0
 41
0.75
 51
0.0
  7
KANJI6
  0
LINE
  8
0
  6
CONTINUOUS
 62
     4
 10
3051.7333472
 20
2220.4666672
 11
3051.7333472
 21
2099.1333432
  0
LINE
  8
0
  6
CONTINUOUS
 62
     4
 10
3138.4000072
 20
2220.4666672
 11
3138.4000072
 21
2099.1333432
  0
LINE
  8
0
  6
CONTINUOUS
 62
     4
 10
2985.8666856
 20
2220.4666672
 11
2985.8666856
 21
2099.1333432
  0
LINE
  8
0
  6
CONTINUOUS
 62
     4
 10
2920.000024
 20
2220.4666672
 11
2920.000024
 21
2099.1333432
  0
TEXT
  8
0
  6
CONTINUOUS
 62
     4
 10
2926.9333568
 20
2144.2000064
 30
1.38666656
 40
13.8666656
  1
≦１２０
 50
0.0
 41
0.75
 51
0.0
  7
KANJI5
  0
TEXT
  8
0
  6
CONTINUOUS
 62
     4
 10
2926.9333568
 20
2192.733336
 30
1.38666656
 40
13.8666656
  1
３０＜
 50
0.0
 41
0.75
 51
0.0
  7
KANJI5
  0
TEXT
  8
0
  6
CONTINUOUS
 62
     4
 10
2992.8000184
 20
2192.733336
 30
1.38666656
 40
13.8666656
  1
１２０＜
 50
0.0
 41
0.75
 51
0.0
  7
KANJI5
  0
TEXT
  8
0
  6
CONTINUOUS
 62
     4
 10
2992.8000184
 20
2144.2000064
 30
1.38666656
 40
13.8666656
  1
≦３１５
 50
0.0
 41
0.75
 51
0.0
  7
KANJI5
  0
TEXT
  8
0
  6
CONTINUOUS
 62
     4
 10
3058.66668
 20
2192.733336
 30
1.38666656
 40
13.8666656
  1
３１５＜
 50
0.0
 41
0.75
 51
0.0
  7
KANJI5
  0
TEXT
  8
0
  6
CONTINUOUS
 62
     4
 10
3058.66668
 20
2144.2000064
 30
1.38666656
 40
13.8666656
  1
≦１０００
 50
0.0
 41
0.75
 51
0.0
  7
KANJI5
  0
TEXT
  8
0
  6
CONTINUOUS
 62
     4
 10
3145.33334
 20
2192.733336
 30
1.38666656
 40
13.8666656
  1
１０００＜
 50
0.0
 41
0.75
 51
0.0
  7
KANJI5
  0
TEXT
  8
0
  6
CONTINUOUS
 62
     4
 10
3145.33334
 20
2144.2000064
 30
1.38666656
 40
13.8666656
  1
≦２０００
 50
0.0
 41
0.75
 51
0.0
  7
KANJI5
  0
TEXT
  8
0
  6
CONTINUOUS
 62
     4
 10
2930.4000232
 20
2109.5333424
 30
1.38666656
 40
13.8666656
  1
±０．３
 50
0.0
 41
0.75
 51
0.0
  7
KANJI5
  0
TEXT
  8
0
  6
CONTINUOUS
 62
     4
 10
2996.2666848
 20
2109.5333424
 30
1.38666656
 40
13.8666656
  1
±０．５
 50
0.0
 41
0.75
 51
0.0
  7
KANJI5
  0
TEXT
  8
0
  6
CONTINUOUS
 62
     4
 10
3072.5333456
 20
2109.5333424
 30
1.38666656
 40
13.8666656
  1
±０．８
 50
0.0
 41
0.75
 51
0.0
  7
KANJI5
  0
TEXT
  8
0
  6
CONTINUOUS
 62
     4
 10
3159.2000056
 20
2109.5333424
 30
1.38666656
 40
13.8666656
  1
±１．２
 50
0.0
 41
0.75
 51
0.0
  7
KANJI5
  0
LINE
  8
0
  6
CONTINUOUS
 62
     4
 10
2289.0667392
 20
2220.4666672
 11
2289.0667392
 21
2099.1333432
  0
TEXT
  8
0
  6
CONTINUOUS
 62
     4
 10
2178.1334144
 20
2168.4666712
 30
1.38666656
 40
13.8666656
  1
ＲＯＵＧＨＮＥＳＳ
 50
0.0
 41
0.8
 51
0.0
  7
KANJI4
  0
TEXT
  8
0
  6
CONTINUOUS
 62
     4
 10
2178.1334144
 20
2192.733336
 30
1.38666656
 40
13.8666656
  1
ＳＵＲＦＡＣＥ
 50
0.0
 41
0.8
 51
0.0
  7
KANJI4
  0
TEXT
  8
0
  6
CONTINUOUS
 62
     4
 10
2178.1334144
 20
2144.2000064
 30
1.663999872
 40
16.63999872
  1
仕上面粗さ
 50
0.0
 41
0.8
 51
0.0
  7
KANJI8
  0
TEXT
  8
0
  6
CONTINUOUS
 62
     4
 10
2188.5334136
 20
2109.5333424
 30
1.663999872
 40
16.63999872
  1
ＳＹＭ．記号
 50
0.0
 41
0.75
 51
0.0
  7
KANJI6
  0
LINE
  8
0
  6
CONTINUOUS
 62
     4
 10
3225.0666672
 20
2133.8000072
 11
2171.2000816
 21
2133.8000072
  0
TEXT
  8
0
  6
CONTINUOUS
 62
     4
 10
2354.9334008
 20
2234.3333328
 30
2.07999984
 40
20.7999984
  1
ＩＳＯ
 50
0.0
 41
0.9
 51
0.0
  7
KANJI9
  0
TEXT
  8
0
  6
CONTINUOUS
 62
     4
 10
2417.333396
 20
2234.3333328
 30
1.38666656
 40
13.8666656
  1
ＭＥＴＲＩＣ　ＳＣＲＥＷ　ＴＨＲＥＡＤ
 50
0.0
 41
0.75
 51
0.0
  7
KANJI10
  0
TEXT
  8
0
  6
CONTINUOUS
 62
     4
 10
2652.72004456
 20
2234.3333328
 30
1.38666656
 40
13.8666656
  1
ＩＳＯ
 50
0.0
 41
0.75
 51
0.0
  7
KANJI10
  0
TEXT
  8
0
  6
CONTINUOUS
 62
     4
 10
2850.32002936
 20
2234.3333328
 30
2.07999984
 40
20.7999984
  1
３
 50
0.0
 41
0.75
 51
0.0
  7
KANJI11
  0
TEXT
  8
0
  6
CONTINUOUS
 62
     4
 10
2867.65336136
 20
2234.3333328
 30
1.38666656
 40
13.8666656
  1
ＲＤ　ＡＮＧＬＥ　ＰＲＯＪＥＣＴＩＯＮ　第３角法
 50
0.0
 41
0.75
 51
0.0
  7
KANJI10
  0
TEXT
  8
0
  6
CONTINUOUS
 62
     4
 10
2690.85337496
 20
2234.3333328
 30
1.247999904
 40
12.47999904
  1
メートルネジ使用
 50
0.0
 41
0.75
 51
0.0
  7
KANJI12
  0
TEXT
  8
0
  6
CONTINUOUS
 62
     4
 10
2171.2000816
 20
224.4666552
 30
1.38666656
 40
13.8666656
  1
ＤＲＡＷＮ
 50
0.0
 41
0.6
 51
0.0
  7
KANJI13
  0
TEXT
  8
0
  6
CONTINUOUS
 62
     4
 10
2171.2000816
 20
279.9333176
 30
1.38666656
 40
13.8666656
  1
ＤＥＳＩＧＮ
 50
0.0
 41
0.6
 51
0.0
  7
KANJI13
  0
TEXT
  8
0
  6
CONTINUOUS
 62
     4
 10
2171.2000816
 20
335.39998
 30
1.38666656
 40
13.8666656
  1
ＣＨＥＣＫ
 50
0.0
 41
0.6
 51
0.0
  7
KANJI13
  0
TEXT
  8
0
  6
CONTINUOUS
 62
     4
 10
2171.2000816
 20
390.8666424
 30
1.38666656
 40
13.8666656
  1
ＣＯＤＥ
 50
0.0
 41
0.6
 51
0.0
  7
KANJI13
  0
LINE
  8
0
  6
CONTINUOUS
 62
     4
 10
2157.333416
 20
304.1999824
 11
2410.4000632
 21
304.1999824
  0
LINE
  8
0
  6
CONTINUOUS
 62
     4
 10
2157.333416
 20
248.73332
 11
2410.4000632
 21
248.73332
  0
LINE
  8
0
  6
CONTINUOUS
 62
     4
 10
2157.333416
 20
359.6666448
 11
2410.4000632
 21
359.6666448
  0
TEXT
  8
0
  6
CONTINUOUS
 62
     4
 10
2171.2000816
 20
259.1333192
 30
1.663999872
 40
16.63999872
  1
設計
 50
0.0
 41
0.6
 51
0.0
  7
KANJI14
  0
TEXT
  8
0
  6
CONTINUOUS
 62
     4
 10
2171.2000816
 20
314.5999816
 30
1.663999872
 40
16.63999872
  1
検図
 50
0.0
 41
0.6
 51
0.0
  7
KANJI14
  0
TEXT
  8
0
  6
CONTINUOUS
 62
     4
 10
2171.2000816
 20
370.066644
 30
1.663999872
 40
16.63999872
  1
分類
 50
0.0
 41
0.6
 51
0.0
  7
KANJI14
  0
LINE
  8
0
  6
CONTINUOUS
 62
     4
 10
2410.4000632
 20
248.73332
 11
3225.0666672
 21
248.73332
  0
TEXT
  8
0
  6
CONTINUOUS
 62
     4
 10
2424.2667288
 20
224.4666552
 30
1.38666656
 40
13.8666656
  1
ＤＲＡＷＩＮＧ　ＮＯ．
 50
0.0
 41
0.8
 51
0.0
  7
KANJI15
  0
TEXT
  8
0
  6
CONTINUOUS
 62
     4
 10
2424.2667288
 20
335.39998
 30
1.38666656
 40
13.8666656
  1
ＴＹＰＥ
 50
0.0
 41
0.8
 51
0.0
  7
KANJI15
  0
TEXT
  8
0
  6
CONTINUOUS
 62
     4
 10
2424.2667288
 20
200.1999904
 30
1.663999872
 40
16.63999872
  1
図　面　番　号
 50
0.0
 41
0.8
 51
0.0
  7
KANJI16
  0
TEXT
  8
0
  6
CONTINUOUS
 62
     4
 10
2424.2667288
 20
255.6666528
 30
1.663999872
 40
16.63999872
  1
製番
 50
0.0
 41
0.8
 51
0.0
  7
KANJI16
  0
TEXT
  8
0
  6
CONTINUOUS
 62
     4
 10
2424.2667288
 20
311.1333152
 30
1.663999872
 40
16.63999872
  1
機種
 50
0.0
 41
0.8
 51
0.0
  7
KANJI16
  0
LINE
  8
0
  6
CONTINUOUS
 62
     4
 10
2157.333416
 20
137.7999952
 11
2410.4000632
 21
137.7999952
  0
LINE
  8
0
  6
CONTINUOUS
 62
     4
 10
2157.333416
 20
193.2666576
 11
2410.4000632
 21
193.2666576
  0
TEXT
  8
0
  6
CONTINUOUS
 62
     4
 10
2171.2000816
 20
113.5333304
 30
1.38666656
 40
13.8666656
  1
ＳＣＡＬＥ
 50
0.0
 41
0.6
 51
0.0
  7
KANJI13
  0
TEXT
  8
0
  6
CONTINUOUS
 62
     4
 10
2171.2000816
 20
168.9999928
 30
1.38666656
 40
13.8666656
  1
ＤＡＴＥ
 50
0.0
 41
0.6
 51
0.0
  7
KANJI13
  0
TEXT
  8
0
  6
CONTINUOUS
 62
     4
 10
2171.2000816
 20
92.733332
 30
1.663999872
 40
16.63999872
  1
尺度
 50
0.0
 41
0.6
 51
0.0
  7
KANJI14
  0
TEXT
  8
0
  6
CONTINUOUS
 62
     4
 10
2171.2000816
 20
148.1999944
 30
1.663999872
 40
16.63999872
  1
日付
 50
0.0
 41
0.6
 51
0.0
  7
KANJI14
  0
TEXT
  8
0
  6
CONTINUOUS
 62
     4
 10
2171.2000816
 20
203.6666568
 30
1.663999872
 40
16.63999872
  1
作図
 50
0.0
 41
0.6
 51
0.0
  7
KANJI14
  0
LINE
  8
0
  6
CONTINUOUS
 62
     4
 10
1765.6001128
 20
82.3333328
 11
1765.6001128
 21
137.7999952
  0
LINE
  8
0
  6
CONTINUOUS
 62
     4
 10
1828.000108
 20
82.3333328
 11
1828.000108
 21
137.7999952
  0
TEXT
  8
0
  6
CONTINUOUS
 62
     4
 10
1786.4001112
 20
113.5333304
 30
1.38666656
 40
13.8666656
  1
ＢＹ
 50
0.0
 41
0.6
 51
0.0
  7
KANJI13
  0
TEXT
  8
0
  6
CONTINUOUS
 62
     4
 10
1938.9334328
 20
113.5333304
 30
1.38666656
 40
13.8666656
  1
ＤＥＳＣＲＩＰＴＩＯＮ
 50
0.0
 41
0.6
 51
0.0
  7
KANJI13
  0
TEXT
  8
0
  6
CONTINUOUS
 62
     4
 10
1786.4001112
 20
92.733332
 30
1.663999872
 40
16.63999872
  1
担当
 50
0.0
 41
0.6
 51
0.0
  7
KANJI14
  0
TEXT
  8
0
  6
CONTINUOUS
 62
     4
 10
1959.7334312
 20
92.733332
 30
1.663999872
 40
16.63999872
  1
記　　　　事
 50
0.0
 41
0.6
 51
0.0
  7
KANJI14
  0
LINE
  8
0
  6
CONTINUOUS
 62
     4
 10
1639.0667892
 20
127.399996
 11
1616.5334576
 21
92.733332
  0
TEXT
  8
0
  6
CONTINUOUS
 62
     4
 10
1696.2667848
 20
113.5333304
 30
1.38666656
 40
13.8666656
  1
ＤＡＴＥ
 50
0.0
 41
0.6
 51
0.0
  7
KANJI13
  0
TEXT
  8
0
  6
CONTINUOUS
 62
     4
 10
1706.666784
 20
92.733332
 30
1.663999872
 40
16.63999872
  1
日付
 50
0.0
 41
0.6
 51
0.0
  7
KANJI14
  0
LINE
  8
0
  6
CONTINUOUS
 62
     4
 10
1616.5334576
 20
92.733332
 11
1661.6001208
 21
92.733332
  0
LINE
  8
0
  6
CONTINUOUS
 62
     4
 10
1668.5334536
 20
82.3333328
 11
1668.5334536
 21
137.7999952
  0
LINE
  8
0
  6
CONTINUOUS
 62
     4
 10
1639.0667892
 20
127.399996
 11
1661.6001208
 21
92.733332
  0
LINE
  8
0
  6
CONTINUOUS
 62
     4
 10
2410.4000632
 20
168.9999928
 11
3225.0666672
 21
168.9999928
  0
LINE
  8
0
  6
CONTINUOUS
 62
     4
 10
2410.4000632
 20
82.3333328
 11
2410.4000632
 21
415.1333072
  0
LINE
  8
0
  6
LTYPE1
 62
     4
 10
2992.8000184
 20
179.399992
 11
2992.8000184
 21
234.8666544
  0
LINE
  8
0
  6
LTYPE1
 62
     4
 10
2944.2666888
 20
179.399992
 11
2944.2666888
 21
234.8666544
  0
LINE
  8
0
  6
LTYPE1
 62
     4
 10
2895.7333592
 20
179.399992
 11
2895.7333592
 21
234.8666544
  0
LINE
  8
0
  6
LTYPE1
 62
     4
 10
2847.2000296
 20
179.399992
 11
2847.2000296
 21
234.8666544
  0
LINE
  8
0
  6
LTYPE1
 62
     4
 10
2798.6667
 20
179.399992
 11
2798.6667
 21
234.8666544
  0
LINE
  8
0
  6
LTYPE1
 62
     4
 10
2750.1333704
 20
179.399992
 11
2750.1333704
 21
234.8666544
  0
LINE
  8
0
  6
LTYPE1
 62
     4
 10
2701.6000408
 20
179.399992
 11
2701.6000408
 21
234.8666544
  0
LINE
  8
0
  6
LTYPE1
 62
     4
 10
2653.0667112
 20
179.399992
 11
2653.0667112
 21
234.8666544
  0
LINE
  8
0
  6
LTYPE1
 62
     4
 10
2653.0667112
 20
234.8666544
 11
2992.8000184
 21
234.8666544
  0
LINE
  8
0
  6
LTYPE1
 62
     4
 10
2653.0667112
 20
179.399992
 11
2992.8000184
 21
179.399992
  0
LINE
  8
0
  6
CONTINUOUS
 62
     4
 10
3020.5333496
 20
208.8666564
 11
3034.4000152
 21
208.8666564
  0
LINE
  8
0
  6
CONTINUOUS
 62
     4
 10
3107.2000096
 20
188.066658
 11
3058.66668
 21
188.066658
  0
LINE
  8
0
  6
CONTINUOUS
 62
     4
 10
3058.66668
 20
188.066658
 11
3082.9333448
 21
229.6666548
  0
LINE
  8
0
  6
CONTINUOUS
 62
     4
 10
3082.9333448
 20
229.6666548
 11
3107.2000096
 21
188.066658
  0
TEXT
  8
0
  6
CONTINUOUS
 62
     4
 10
3114.1333424
 20
6.066672
 30
6.9333328
 40
69.333328
  1
／
 50
0.0
 41
0.9
 51
0.0
  7
KANJI17
  0
TEXT
  8
0
  6
CONTINUOUS
 62
     4
 10
2770.9333688
 20
335.39998
 30
1.38666656
 40
13.8666656
  1
ＴＩＴＬＥ
 50
0.0
 41
0.8
 51
0.0
  7
KANJI15
  0
TEXT
  8
0
  6
CONTINUOUS
 62
     4
 10
2770.9333688
 20
311.1333152
 30
1.663999872
 40
16.63999872
  1
名称
 50
0.0
 41
0.8
 51
0.0
  7
KANJI16
  0
LINE
  8
0
  6
CONTINUOUS
 62
     6
 10
136.0
 20
75.4
 11
136.0
 21
2227.4
  0
LINE
  8
0
  6
CONTINUOUS
 62
     6
 10
136.0
 20
2227.4
 11
3232.0
 21
2227.4
  0
LINE
  8
0
  6
CONTINUOUS
 62
     6
 10
3232.0
 20
2227.4
 11
3232.0
 21
75.4
  0
LINE
  8
0
  6
CONTINUOUS
 62
     6
 10
2171.2000816
 20
2220.4666672
 11
2171.2000816
 21
2099.1333432
  0
LINE
  8
0
  6
CONTINUOUS
 62
     6
 10
3225.0666672
 20
2220.4666672
 11
2171.2000816
 21
2220.4666672
  0
LINE
  8
0
  6
CONTINUOUS
 62
     6
 10
3225.0666672
 20
2099.1333432
 11
2171.2000816
 21
2099.1333432
  0
LINE
  8
0
  6
CONTINUOUS
 62
     6
 10
3225.0666672
 20
2220.4666672
 11
3225.0666672
 21
2099.1333432
  0
LINE
  8
0
  6
CONTINUOUS
 62
     6
 10
3232.0
 20
75.4
 11
136.0
 21
75.4
  0
LINE
  8
0
  6
CONTINUOUS
 62
     6
 10
663.999888985
 20
83.399998318
 11
663.999888985
 21
195.399974769
  0
LINE
  8
0
  6
CONTINUOUS
 62
     6
 10
143.999998318
 20
195.399974769
 11
663.999888985
 21
195.399974769
  0
LINE
  8
0
  6
CONTINUOUS
 62
     6
 10
143.999998318
 20
83.399998318
 11
663.999888985
 21
83.399998318
  0
LINE
  8
0
  6
CONTINUOUS
 62
     6
 10
143.999998318
 20
83.399998318
 11
143.999998318
 21
195.399974769
  0
LINE
  8
0
  6
CONTINUOUS
 62
     6
 10
503.999922626
 20
83.399998318
 11
503.999922626
 21
195.399974769
  0
LINE
  8
0
  6
CONTINUOUS
 62
     6
 10
143.999998318
 20
139.399986544
 11
663.999888985
 21
139.399986544
  0
TEXT
  8
0
  6
CONTINUOUS
 62
     3
 10
159.999994954
 20
155.399983179
 30
2.399999495
 40
23.999994954
  1
ＰＬ
 50
0.0
 41
0.9
 51
0.0
  7
KANJI18
  0
LINE
  8
0
  6
CONTINUOUS
 62
     6
 10
1609.6001248
 20
82.3333328
 11
1609.6001248
 21
137.7999952
  0
LINE
  8
0
  6
CONTINUOUS
 62
     6
 10
1609.6001248
 20
137.7999952
 11
2157.333416
 21
137.7999952
  0
LINE
  8
0
  6
CONTINUOUS
 62
     6
 10
1609.6001248
 20
82.3333328
 11
3225.0666672
 21
82.3333328
  0
LINE
  8
0
  6
CONTINUOUS
 62
     6
 10
2702.20670742
 20
119.07999664
 11
2679.32670918
 21
119.07999664
  0
LINE
  8
0
  6
CONTINUOUS
 62
     6
 10
2702.20670742
 20
123.23999632
 11
2679.32670918
 21
123.23999632
  0
LINE
  8
0
  6
CONTINUOUS
 62
     6
 10
2702.20670742
 20
119.07999664
 11
2725.08670566
 21
119.07999664
  0
LINE
  8
0
  6
CONTINUOUS
 62
     6
 10
2702.20670742
 20
123.23999632
 11
2725.08670566
 21
123.23999632
  0
LINE
  8
0
  6
CONTINUOUS
 62
     6
 10
2725.08670566
 20
123.23999632
 11
2725.08670566
 21
119.07999664
  0
ARC
  8
0
  6
CONTINUOUS
 62
     6
 10
2730.28670526
 20
121.15999648
 40
20.7999984
 50
185.739170477
 51
90.0
  0
ARC
  8
0
  6
CONTINUOUS
 62
     6
 10
2730.28670526
 20
121.15999648
 40
24.95999808
 50
184.780191847
 51
90.0
  0
LINE
  8
0
  6
CONTINUOUS
 62
     6
 10
2679.32670918
 20
119.07999664
 11
2679.32670918
 21
123.23999632
  0
TEXT
  8
0
  6
CONTINUOUS
 62
     6
 10
2417.333396
 20
113.5333304
 30
0.0
 40
24.2666648
  1
ＵＮＩＴＥＣ　ＩＮＤＵＳＴＲＹ　ＣＯ．，ＬＴＤ．
 50
0.0
 41
0.42031746
 51
0.0
  7
KANJI19
  0
LINE
  8
0
  6
CONTINUOUS
 62
     6
 10
2699.08670766
 20
146.11999456
 11
2674.12670958
 21
146.11999456
  0
LINE
  8
0
  6
CONTINUOUS
 62
     6
 10
2705.32670718
 20
146.11999456
 11
2730.28670526
 21
146.11999456
  0
ARC
  8
0
  6
CONTINUOUS
 62
     6
 10
2674.12670958
 20
121.15999648
 40
20.7999984
 50
90.0
 51
354.260829523
  0
ARC
  8
0
  6
CONTINUOUS
 62
     6
 10
2674.12670958
 20
121.15999648
 40
24.95999808
 50
90.0
 51
355.219808153
  0
LINE
  8
0
  6
CONTINUOUS
 62
     6
 10
2699.08670766
 20
146.11999456
 11
2699.08670766
 21
141.95999488
  0
LINE
  8
0
  6
CONTINUOUS
 62
     6
 10
2674.12670958
 20
141.95999488
 11
2699.08670766
 21
141.95999488
  0
LINE
  8
0
  6
CONTINUOUS
 62
     6
 10
2705.32670718
 20
146.11999456
 11
2705.32670718
 21
141.95999488
  0
LINE
  8
0
  6
CONTINUOUS
 62
     6
 10
2730.28670526
 20
141.95999488
 11
2705.32670718
 21
141.95999488
  0
TEXT
  8
0
  6
CONTINUOUS
 62
     6
 10
2757.67336982
 20
104.51999776
 30
4.15999968
 40
41.5999968
  1
ユニテック工業株式会社
 50
0.0
 41
0.9
 51
0.0
  7
KANJI20
  0
TEXT
  8
0
  6
CONTINUOUS
 62
     3
 10
2304.0
 20
91.4
 30
2.4
 40
36.0
  1
１／８
 50
0.0
 41
0.666666667
 51
0.0
  7
KANJI21
  0
LINE
  8
0
  6
CONTINUOUS
 62
     1
 10
2524.0
 20
2056.4
 11
2524.0
 21
968.4
  0
TEXT
  8
0
  6
CONTINUOUS
 62
     2
 10
2624.0
 20
1998.0
 30
22.79952
 40
36.0
  1
マイティシリンダ仕様
 50
0.0
 41
0.9
 51
0.0
  7
KANJI22
  0
TEXT
  8
0
  6
CONTINUOUS
 62
     2
 10
2556.6
 20
1492.4
 30
17.6
 40
28.0
  1
モ　トル仕様
 50
0.0
 41
0.9
 51
0.0
  7
KANJI23
  0
TEXT
  8
0
  6
CONTINUOUS
 62
     2
 10
2554.8
 20
1188.4
 30
1.371428571
 40
24.0
  1
ブレ　キ
 50
0.0
 41
0.9
 51
0.0
  7
KANJI24
  0
LINE
  8
0
  6
CONTINUOUS
 62
     2
 10
2554.4
 20
1133.2
 11
2554.4
 21
1116.4
  0
LINE
  8
0
  6
CONTINUOUS
 62
     2
 10
2554.4
 20
1447.6
 11
2554.4
 21
1429.2
  0
TEXT
  8
0
  6
CONTINUOUS
 62
     2
 10
2983.2
 20
1598.8
 30
11.36
 40
28.0
  1
推力リミッタ
 50
0.0
 41
0.9
 51
0.0
  7
KANJI25
  0
TEXT
  8
0
  6
CONTINUOUS
 62
     2
 10
3195.2
 20
1486.8
 30
17.571428571
 40
24.0
  1
Ｐ
 50
0.0
 41
0.9
 51
0.0
  7
KANJI26
  0
TEXT
  8
0
  6
CONTINUOUS
 62
     2
 10
3062.4
 20
1486.8
 30
1.6
 40
24.0
  1
ＫＷ
 50
0.0
 41
0.857142857
 51
0.0
  7
KANJI27
  0
TEXT
  8
0
  6
CONTINUOUS
 62
     2
 10
3155.2
 20
1486.8
 30
20.5
 40
28.0
  1
４
 50
0.0
 41
0.9
 51
0.0
  7
KANJI28
  0
TEXT
  8
0
  6
CONTINUOUS
 62
     2
 10
2938.4
 20
1545.2
 30
0.8
 40
22.4
  1
マンセル
 50
0.0
 41
0.9
 51
0.0
  7
KANJI29
  0
TEXT
  8
0
  6
CONTINUOUS
 62
     2
 10
3032.0
 20
1546.8
 30
0.32
 40
22.4
  1
７．５ＧＹ５／４．５
 50
0.0
 41
0.785714286
 51
0.0
  7
KANJI30
  0
TEXT
  8
0
  6
CONTINUOUS
 62
     2
 10
2932.0
 20
1151.6
 30
2.4
 40
22.4
  1
スプリング制動式電磁ブレーキ
 50
0.0
 41
0.8
 51
0.0
  7
KANJI31
  0
TEXT
  8
0
  6
CONTINUOUS
 62
     2
 10
3196.0
 20
1430.8
 30
0.288
 40
24.0
  1
Ｖ
 50
0.0
 41
0.8
 51
0.0
  7
KANJI32
  0
TEXT
  8
0
  6
CONTINUOUS
 62
     2
 10
3181.6
 20
1374.8
 30
0.288
 40
24.0
  1
Ｈｚ
 50
0.0
 41
0.8
 51
0.0
  7
KANJI32
  0
TEXT
  8
0
  6
CONTINUOUS
 62
     2
 10
3023.8
 20
1374.6
 30
2.4
 40
24.0
  1
５０／６０
 50
0.0
 41
0.9
 51
0.0
  7
KANJI33
  0
TEXT
  8
0
  6
CONTINUOUS
 62
     2
 10
3197.8
 20
1320.6
 30
2.4
 40
24.0
  1
Ａ
 50
0.0
 41
0.9
 51
0.0
  7
KANJI33
  0
TEXT
  8
0
  6
CONTINUOUS
 62
     2
 10
3071.8
 20
1266.6
 30
2.4
 40
24.0
  1
Ｅ
 50
0.0
 41
0.9
 51
0.0
  7
KANJI33
  0
LINE
  8
0
  6
CONTINUOUS
 62
     2
 10
2588.0
 20
1528.4
 11
2588.0
 21
1080.4
  0
LINE
  8
0
  6
CONTINUOUS
 62
     2
 10
2924.0
 20
1976.4
 11
2924.0
 21
968.4
  0
TEXT
  8
0
  6
CONTINUOUS
 62
     2
 10
2584.0
 20
1934.8
 30
240.594285714
 40
30.4
  1
形式
 50
0.0
 41
0.9
 51
0.0
  7
KANJI34
  0
TEXT
  8
0
  6
CONTINUOUS
 62
     2
 10
2584.0
 20
1878.8
 30
240.594285714
 40
30.4
  1
推力
 50
0.0
 41
0.9
 51
0.0
  7
KANJI34
  0
TEXT
  8
0
  6
CONTINUOUS
 62
     2
 10
2584.0
 20
1822.8
 30
39.628571429
 40
30.4
  1
ストローク
 50
0.0
 41
0.9
 51
0.0
  7
KANJI35
  0
TEXT
  8
0
  6
CONTINUOUS
 62
     2
 10
2584.0
 20
1766.8
 30
61.957805714
 40
30.4
  1
公称速度
 50
0.0
 41
0.9
 51
0.0
  7
KANJI36
  0
TEXT
  8
0
  6
CONTINUOUS
 62
     2
 10
2560.0
 20
1710.8
 30
2.605714286
 40
30.4
  1
ピストンロッド回転トルク
 50
0.0
 41
0.9
 51
0.0
  7
KANJI37
  0
TEXT
  8
0
  6
CONTINUOUS
 62
     2
 10
2584.0
 20
1654.8
 30
240.594285714
 40
30.4
  1
構造
 50
0.0
 41
0.9
 51
0.0
  7
KANJI34
  0
TEXT
  8
0
  6
CONTINUOUS
 62
     2
 10
2584.0
 20
1598.8
 30
17.298468571
 40
30.4
  1
過負荷安全装置
 50
0.0
 41
0.9
 51
0.0
  7
KANJI38
  0
TEXT
  8
0
  6
CONTINUOUS
 62
     2
 10
2584.0
 20
1542.8
 30
106.617142857
 40
30.4
  1
塗装色
 50
0.0
 41
0.9
 51
0.0
  7
KANJI39
  0
TEXT
  8
0
  6
CONTINUOUS
 62
     2
 10
2624.0
 20
1486.8
 30
26.6
 40
30.4
  1
出力　極数
 50
0.0
 41
0.9
 51
0.0
  7
KANJI40
  0
TEXT
  8
0
  6
CONTINUOUS
 62
     2
 10
2624.0
 20
1430.8
 30
44.586377143
 40
30.4
  1
電源電圧
 50
0.0
 41
0.9
 51
0.0
  7
KANJI41
  0
TEXT
  8
0
  6
CONTINUOUS
 62
     2
 10
2624.0
 20
1374.8
 30
80.56
 40
30.4
  1
周波数
 50
0.0
 41
0.9
 51
0.0
  7
KANJI42
  0
TEXT
  8
0
  6
CONTINUOUS
 62
     2
 10
2624.0
 20
1318.8
 30
188.48
 40
30.4
  1
電流
 50
0.0
 41
0.9
 51
0.0
  7
KANJI43
  0
TEXT
  8
0
  6
CONTINUOUS
 62
     2
 10
2624.0
 20
1262.8
 30
80.56
 40
30.4
  1
絶縁級
 50
0.0
 41
0.9
 51
0.0
  7
KANJI42
  0
TEXT
  8
0
  6
CONTINUOUS
 62
     2
 10
2624.0
 20
1150.8
 30
188.48
 40
30.4
  1
形式
 50
0.0
 41
0.9
 51
0.0
  7
KANJI43
  0
TEXT
  8
0
  6
CONTINUOUS
 62
     2
 10
2624.0
 20
1094.8
 30
44.586377143
 40
30.4
  1
操作方式
 50
0.0
 41
0.9
 51
0.0
  7
KANJI41
  0
TEXT
  8
0
  6
CONTINUOUS
 62
     2
 10
2584.0
 20
1038.8
 30
106.617142857
 40
30.4
  1
付属品
 50
0.0
 41
0.9
 51
0.0
  7
KANJI39
  0
TEXT
  8
0
  6
CONTINUOUS
 62
     2
 10
2584.0
 20
982.8
 30
240.594285714
 40
30.4
  1
台数
 50
0.0
 41
0.9
 51
0.0
  7
KANJI34
  0
TEXT
  8
0
  6
CONTINUOUS
 62
     2
 10
3174.8
 20
1826.0
 30
0.1792
 40
22.4
  1
ｍｍ
 50
0.0
 41
0.8
 51
0.0
  7
KANJI44
  0
TEXT
  8
0
  6
CONTINUOUS
 62
     2
 10
3114.8
 20
1772.4
 30
0.1792
 40
22.4
  1
ｍｍ／ｓｅｃ
 50
0.0
 41
0.8
 51
0.0
  7
KANJI44
  0
LINE
  8
0
  6
CONTINUOUS
 62
     1
 10
2524.0
 20
968.4
 11
3232.0
 21
968.4
  0
LINE
  8
0
  6
CONTINUOUS
 62
     2
 10
2524.0
 20
1024.4
 11
3232.0
 21
1024.4
  0
LINE
  8
0
  6
CONTINUOUS
 62
     2
 10
2524.0
 20
1080.4
 11
3232.0
 21
1080.4
  0
LINE
  8
0
  6
CONTINUOUS
 62
     2
 10
2588.0
 20
1136.4
 11
3232.0
 21
1136.4
  0
LINE
  8
0
  6
CONTINUOUS
 62
     2
 10
2524.0
 20
1192.4
 11
3232.0
 21
1192.4
  0
LINE
  8
0
  6
CONTINUOUS
 62
     2
 10
2588.0
 20
1248.4
 11
3232.0
 21
1248.4
  0
LINE
  8
0
  6
CONTINUOUS
 62
     2
 10
2588.0
 20
1304.4
 11
3232.0
 21
1304.4
  0
LINE
  8
0
  6
CONTINUOUS
 62
     2
 10
2588.0
 20
1360.4
 11
3232.0
 21
1360.4
  0
LINE
  8
0
  6
CONTINUOUS
 62
     2
 10
2588.0
 20
1416.4
 11
3232.0
 21
1416.4
  0
LINE
  8
0
  6
CONTINUOUS
 62
     2
 10
2588.0
 20
1472.4
 11
3232.0
 21
1472.4
  0
LINE
  8
0
  6
CONTINUOUS
 62
     2
 10
2524.0
 20
1528.4
 11
3232.0
 21
1528.4
  0
LINE
  8
0
  6
CONTINUOUS
 62
     2
 10
2524.0
 20
1584.4
 11
3232.0
 21
1584.4
  0
LINE
  8
0
  6
CONTINUOUS
 62
     2
 10
2524.0
 20
1640.4
 11
3232.0
 21
1640.4
  0
LINE
  8
0
  6
CONTINUOUS
 62
     1
 10
2524.0
 20
2056.4
 11
3232.0
 21
2056.4
  0
LINE
  8
0
  6
CONTINUOUS
 62
     2
 10
2524.0
 20
1976.4
 11
3232.0
 21
1976.4
  0
LINE
  8
0
  6
CONTINUOUS
 62
     2
 10
2524.0
 20
1920.4
 11
3232.0
 21
1920.4
  0
LINE
  8
0
  6
CONTINUOUS
 62
     2
 10
2524.0
 20
1864.4
 11
3232.0
 21
1864.4
  0
LINE
  8
0
  6
CONTINUOUS
 62
     2
 10
2524.0
 20
1808.4
 11
3232.0
 21
1808.4
  0
LINE
  8
0
  6
CONTINUOUS
 62
     2
 10
2524.0
 20
1752.4
 11
3232.0
 21
1752.4
  0
LINE
  8
0
  6
CONTINUOUS
 62
     2
 10
2524.0
 20
1696.4
 11
3232.0
 21
1696.4
  0
TEXT
  8
0
  6
CONTINUOUS
 62
     2
 10
3000.8
 20
1431.6
 30
2.4
 40
24.0
  1
　　　　　　／　
 50
0.0
 41
0.9
 51
0.0
  7
KANJI33
  0
TEXT
  8
0
  6
CONTINUOUS
 62
     2
 10
3000.8
 20
1319.6
 30
2.4
 40
24.0
  1
　　　　　　／　　
 50
0.0
 41
0.9
 51
0.0
  7
KANJI33
  0
TEXT
  8
0
  6
CONTINUOUS
 62
     2
 10
2983.2
 20
1655.6
 30
20.5
 40
28.0
  1
全閉屋内形
 50
0.0
 41
0.9
 51
0.0
  7
KANJI28
  0
CIRCLE
  8
0
  6
CONTINUOUS
 62
     1
 10
690.0
 20
1303.4
 40
22.5
  0
CIRCLE
  8
0
  6
CONTINUOUS
 62
     1
 10
690.0
 20
1303.4
 40
45.0
  0
CIRCLE
  8
0
  6
CONTINUOUS
 62
     1
 10
690.0
 20
1303.4
 40
55.0
  0
LINE
  8
0
  6
CONTINUOUS
 62
     1
 10
620.0
 20
1403.4
 11
655.0
 21
1403.4
  0
LINE
  8
0
  6
CONTINUOUS
 62
     1
 10
655.0
 20
1403.4
 11
678.0
 21
1384.9
  0
LINE
  8
0
  6
CONTINUOUS
 62
     1
 10
655.0
 20
1349.9
 11
655.0
 21
1403.4
  0
LINE
  8
0
  6
CONTINUOUS
 62
     1
 10
678.0
 20
1359.9
 11
678.0
 21
1384.9
  0
LINE
  8
0
  6
CONTINUOUS
 62
     1
 10
620.0
 20
1203.4
 11
655.0
 21
1203.4
  0
LINE
  8
0
  6
CONTINUOUS
 62
     1
 10
655.0
 20
1203.4
 11
678.0
 21
1221.9
  0
LINE
  8
0
  6
CONTINUOUS
 62
     1
 10
655.0
 20
1256.9
 11
655.0
 21
1203.4
  0
LINE
  8
0
  6
CONTINUOUS
 62
     1
 10
678.0
 20
1246.9
 11
678.0
 21
1221.9
  0
LINE
  8
0
  6
CONTINUOUS
 62
     1
 10
880.0
 20
1203.4
 11
850.0
 21
1221.9
  0
LINE
  8
0
  6
CONTINUOUS
 62
     1
 10
678.0
 20
1221.9
 11
850.0
 21
1221.9
  0
LINE
  8
0
  6
CONTINUOUS
 62
     1
 10
880.0
 20
1203.4
 11
920.0
 21
1203.4
  0
LINE
  8
0
  6
CONTINUOUS
 62
     1
 10
788.0
 20
1321.357620342
 11
878.0
 21
1321.357620342
  0
LINE
  8
0
  6
CONTINUOUS
 62
     1
 10
878.0
 20
1322.057620342
 11
921.0
 21
1322.057620342
  0
LINE
  8
0
  6
CONTINUOUS
 62
     1
 10
678.0
 20
1384.9
 11
788.0
 21
1384.9
  0
LINE
  8
0
  6
CONTINUOUS
 62
     1
 10
880.0
 20
1303.4
 11
880.0
 21
1203.4
  0
LINE
  8
0
  6
CONTINUOUS
 62
     1
 10
850.0
 20
1303.4
 11
850.0
 21
1221.9
  0
LINE
  8
0
  6
CONTINUOUS
 62
     1
 10
878.0
 20
1303.4
 11
878.0
 21
1322.057620342
  0
LINE
  8
0
  6
CONTINUOUS
 62
     1
 10
803.0
 20
1354.705778818
 11
793.0
 21
1364.705778818
  0
ARC
  8
0
  6
CONTINUOUS
 62
     1
 10
791.0
 20
1353.03644216
 40
3.0
 50
180.0
 51
270.0
  0
ARC
  8
0
  6
CONTINUOUS
 62
     1
 10
791.0
 20
1349.594983542
 40
3.0
 50
180.0
 51
270.0
  0
ARC
  8
0
  6
CONTINUOUS
 62
     1
 10
791.0
 20
1348.734618887
 40
3.0
 50
180.0
 51
270.0
  0
LINE
  8
0
  6
CONTINUOUS
 62
     1
 10
911.0
 20
1364.705778818
 11
901.0
 21
1354.705778818
  0
LINE
  8
0
  6
CONTINUOUS
 62
     1
 10
803.0
 20
1354.705778818
 11
901.0
 21
1354.705778818
  0
ARC
  8
0
  6
CONTINUOUS
 62
     1
 10
913.0
 20
1353.03644216
 40
3.0
 50
270.0
 51
0.0
  0
ARC
  8
0
  6
CONTINUOUS
 62
     1
 10
913.0
 20
1349.594983542
 40
3.0
 50
270.0
 51
0.0
  0
ARC
  8
0
  6
CONTINUOUS
 62
     1
 10
913.0
 20
1348.734618887
 40
3.0
 50
270.0
 51
0.0
  0
LINE
  8
0
  6
CONTINUOUS
 62
     1
 10
790.507319827
 20
1350.03644216
 11
913.0
 21
1350.03644216
  0
LINE
  8
0
  6
CONTINUOUS
 62
     1
 10
790.607319827
 20
1346.594983542
 11
913.0
 21
1346.594983542
  0
LINE
  8
0
  6
CONTINUOUS
 62
     1
 10
790.607319827
 20
1345.734618887
 11
913.0
 21
1345.734618887
  0
LINE
  8
0
  6
CONTINUOUS
 62
     1
 10
921.0
 20
1348.666636349
 11
921.0
 21
1405.53271812
  0
LINE
  8
0
  6
CONTINUOUS
 62
     1
 10
916.0
 20
1348.666636349
 11
921.0
 21
1348.666636349
  0
LINE
  8
0
  6
CONTINUOUS
 62
     1
 10
916.0
 20
1405.53271812
 11
921.0
 21
1405.53271812
  0
LINE
  8
0
  6
CONTINUOUS
 62
     1
 10
916.0
 20
1372.766636349
 11
921.0
 21
1372.766636349
  0
LINE
  8
0
  6
LTYPE2
 62
     2
 10
894.737645868
 20
1379.398877817
 11
931.637645868
 21
1379.398877817
  0
LINE
  8
0
  6
LTYPE2
 62
     2
 10
690.0
 20
1233.798877817
 11
690.0
 21
1370.766558854
  0
LINE
  8
0
  6
LTYPE1
 62
     2
 10
2202.8
 20
1280.9
 11
2202.8
 21
1325.9
  0
LINE
  8
0
  6
LTYPE1
 62
     2
 10
2202.8
 20
1325.9
 11
2252.8
 21
1325.9
  0
LINE
  8
0
  6
LTYPE1
 62
     2
 10
2202.8
 20
1280.9
 11
2252.8
 21
1280.9
  0
LINE
  8
0
  6
CONTINUOUS
 62
     1
 10
2252.8
 20
1258.4
 11
2252.8
 21
1348.4
  0
LINE
  8
0
  6
LTYPE2
 62
     2
 10
1937.3
 20
1303.4
 11
2276.8
 21
1303.4
  0
LINE
  8
0
  6
LTYPE2
 62
     2
 10
1130.0
 20
1258.2
 11
1130.0
 21
1343.2
  0
ARC
  8
0
  6
CONTINUOUS
 62
     1
 10
1994.8
 20
1180.4
 40
12.0
 50
180.0
 51
270.0
  0
ARC
  8
0
  6
CONTINUOUS
 62
     1
 10
2230.8
 20
1180.4
 40
12.0
 50
270.0
 51
0.0
  0
LINE
  8
0
  6
CONTINUOUS
 62
     2
 10
1140.0
 20
1326.9
 11
1151.691297021
 21
1343.126939759
  0
LINE
  8
0
  6
CONTINUOUS
 62
     2
 10
1140.0
 20
1326.9
 11
1142.011490344
 21
1346.798590568
  0
LINE
  8
0
  6
CONTINUOUS
 62
     2
 10
1140.0
 20
1326.9
 11
1195.0
 21
1471.9
  0
LINE
  8
0
  6
LTYPE1
 62
     2
 10
2022.8
 20
1280.9
 11
2022.8
 21
1325.9
  0
LINE
  8
0
  6
LTYPE1
 62
     2
 10
2022.8
 20
1325.9
 11
1972.8
 21
1325.9
  0
LINE
  8
0
  6
LTYPE1
 62
     2
 10
2022.8
 20
1280.9
 11
1972.8
 21
1280.9
  0
LINE
  8
0
  6
CONTINUOUS
 62
     2
 10
1982.8
 20
1168.4
 11
1982.8
 21
1047.1
  0
LINE
  8
0
  6
CONTINUOUS
 62
     2
 10
1982.8
 20
1059.1
 11
2002.118516526
 21
1053.923619098
  0
LINE
  8
0
  6
CONTINUOUS
 62
     2
 10
1982.8
 20
1059.1
 11
2002.118516526
 21
1064.276380902
  0
LINE
  8
0
  6
CONTINUOUS
 62
     2
 10
1982.8
 20
1059.1
 11
2242.8
 21
1059.1
  0
LINE
  8
0
  6
CONTINUOUS
 62
     2
 10
2242.8
 20
1059.1
 11
2223.481483474
 21
1064.276380902
  0
LINE
  8
0
  6
CONTINUOUS
 62
     2
 10
2242.8
 20
1059.1
 11
2223.481483474
 21
1053.923619098
  0
LINE
  8
0
  6
CONTINUOUS
 62
     2
 10
2242.8
 20
1168.4
 11
2242.8
 21
1047.1
  0
LINE
  8
0
  6
CONTINUOUS
 62
     2
 10
1972.8
 20
1246.4
 11
1972.8
 21
952.1
  0
LINE
  8
0
  6
CONTINUOUS
 62
     2
 10
1972.8
 20
964.1
 11
1992.118516526
 21
958.923619098
  0
LINE
  8
0
  6
CONTINUOUS
 62
     2
 10
1972.8
 20
964.1
 11
1992.118516526
 21
969.276380902
  0
LINE
  8
0
  6
CONTINUOUS
 62
     2
 10
1972.8
 20
964.1
 11
2252.8
 21
964.1
  0
LINE
  8
0
  6
CONTINUOUS
 62
     2
 10
2252.8
 20
964.1
 11
2233.481483474
 21
969.276380902
  0
LINE
  8
0
  6
CONTINUOUS
 62
     2
 10
2252.8
 20
964.1
 11
2233.481483474
 21
958.923619098
  0
LINE
  8
0
  6
CONTINUOUS
 62
     2
 10
2252.8
 20
1246.4
 11
2252.8
 21
952.1
  0
LINE
  8
0
  6
CONTINUOUS
 62
     1
 10
1982.8
 20
1180.4
 11
1982.8
 21
1257.525113365
  0
LINE
  8
0
  6
CONTINUOUS
 62
     1
 10
2242.8
 20
1180.4
 11
2242.8
 21
1257.525113365
  0
LINE
  8
0
  6
CONTINUOUS
 62
     2
 10
1960.8
 20
1325.9
 11
1892.307300983
 21
1325.9
  0
LINE
  8
0
  6
CONTINUOUS
 62
     2
 10
1904.307300983
 20
1325.9
 11
1909.483681885
 21
1345.218516526
  0
LINE
  8
0
  6
CONTINUOUS
 62
     2
 10
1904.307300983
 20
1325.9
 11
1899.130920081
 21
1345.218516526
  0
LINE
  8
0
  6
CONTINUOUS
 62
     2
 10
1904.307300983
 20
1280.9
 11
1899.130920081
 21
1261.581483474
  0
LINE
  8
0
  6
CONTINUOUS
 62
     2
 10
1904.307300983
 20
1280.9
 11
1909.483681885
 21
1261.581483474
  0
LINE
  8
0
  6
CONTINUOUS
 62
     2
 10
1960.8
 20
1280.9
 11
1892.307300983
 21
1280.9
  0
LINE
  8
0
  6
LTYPE3
 62
     2
 10
1182.3
 20
1206.9
 11
1182.3
 21
1400.9
  0
LINE
  8
0
  6
LTYPE3
 62
     2
 10
1187.3
 20
1206.9
 11
1187.3
 21
1400.9
  0
LINE
  8
1
  6
CONTINUOUS
 62
     2
 10
2238.800043158
 20
1168.4
 11
2351.307300983
 21
1168.4
  0
LINE
  8
1
  6
CONTINUOUS
 62
     2
 10
2335.307300983
 20
1168.4
 11
2340.483681885
 21
1187.718516526
  0
LINE
  8
1
  6
CONTINUOUS
 62
     2
 10
2335.307300983
 20
1168.4
 11
2330.130920081
 21
1187.718516526
  0
LINE
  8
1
  6
CONTINUOUS
 62
     2
 10
2335.307300983
 20
1168.4
 11
2335.307300983
 21
1303.4
  0
LINE
  8
1
  6
CONTINUOUS
 62
     2
 10
2335.307300983
 20
1303.4
 11
2330.130920081
 21
1284.081483474
  0
LINE
  8
1
  6
CONTINUOUS
 62
     2
 10
2335.307300983
 20
1303.4
 11
2340.483681885
 21
1284.081483474
  0
LINE
  8
1
  6
CONTINUOUS
 62
     2
 10
2260.8
 20
1303.4
 11
2351.307300983
 21
1303.4
  0
LINE
  8
1
  6
CONTINUOUS
 62
     2
 10
1578.8
 20
993.4
 11
1559.481483474
 21
998.576380902
  0
LINE
  8
1
  6
CONTINUOUS
 62
     2
 10
1578.8
 20
993.4
 11
1559.481483474
 21
988.223619098
  0
LINE
  8
1
  6
CONTINUOUS
 62
     2
 10
1578.8
 20
993.4
 11
1448.8
 21
993.4
  0
LINE
  8
1
  6
CONTINUOUS
 62
     2
 10
1448.8
 20
993.4
 11
1468.118516526
 21
988.223619098
  0
LINE
  8
1
  6
CONTINUOUS
 62
     2
 10
1448.8
 20
993.4
 11
1468.118516526
 21
998.576380902
  0
LINE
  8
1
  6
CONTINUOUS
 62
     2
 10
1448.8
 20
1200.4
 11
1448.8
 21
977.4
  0
LINE
  8
1
  6
CONTINUOUS
 62
     2
 10
1448.8
 20
993.4
 11
1429.481483474
 21
998.576380902
  0
LINE
  8
1
  6
CONTINUOUS
 62
     2
 10
1448.8
 20
993.4
 11
1429.481483474
 21
988.223619098
  0
LINE
  8
1
  6
CONTINUOUS
 62
     2
 10
1448.8
 20
993.4
 11
690.0
 21
993.4
  0
LINE
  8
1
  6
CONTINUOUS
 62
     2
 10
690.0
 20
993.4
 11
709.318516526
 21
988.223619098
  0
LINE
  8
1
  6
CONTINUOUS
 62
     2
 10
690.0
 20
993.4
 11
709.318516526
 21
998.576380902
  0
LINE
  8
1
  6
CONTINUOUS
 62
     2
 10
690.0
 20
1225.798877817
 11
690.0
 21
977.4
  0
LINE
  8
1
  6
CONTINUOUS
 62
     2
 10
690.0
 20
993.4
 11
670.681483474
 21
998.576380902
  0
LINE
  8
1
  6
CONTINUOUS
 62
     2
 10
690.0
 20
993.4
 11
670.681483474
 21
988.223619098
  0
LINE
  8
1
  6
CONTINUOUS
 62
     2
 10
690.0
 20
993.4
 11
620.0
 21
993.4
  0
LINE
  8
1
  6
CONTINUOUS
 62
     2
 10
620.0
 20
993.4
 11
639.318516526
 21
988.223619098
  0
LINE
  8
1
  6
CONTINUOUS
 62
     2
 10
620.0
 20
993.4
 11
639.318516526
 21
998.576380902
  0
LINE
  8
1
  6
CONTINUOUS
 62
     2
 10
620.0
 20
1160.4
 11
620.0
 21
977.4
  0
LINE
  8
1
  6
CONTINUOUS
 62
     2
 10
620.0
 20
993.4
 11
600.681483474
 21
998.576380902
  0
LINE
  8
1
  6
CONTINUOUS
 62
     2
 10
620.0
 20
993.4
 11
600.681483474
 21
988.223619098
  0
LINE
  8
1
  6
CONTINUOUS
 62
     2
 10
620.0
 20
993.4
 11
465.0
 21
993.4
  0
LINE
  8
1
  6
CONTINUOUS
 62
     2
 10
465.0
 20
993.4
 11
484.318516526
 21
988.223619098
  0
LINE
  8
1
  6
CONTINUOUS
 62
     2
 10
465.0
 20
993.4
 11
484.318516526
 21
998.576380902
  0
LINE
  8
1
  6
CONTINUOUS
 62
     2
 10
465.0
 20
1160.4
 11
465.0
 21
977.4
  0
LINE
  8
0
  6
CONTINUOUS
 62
     1
 10
620.0
 20
1168.4
 11
465.0
 21
1168.4
  0
LINE
  8
0
  6
LTYPE4
 62
     2
 10
515.0
 20
1198.4
 11
406.1
 21
1198.4
  0
LINE
  8
0
  6
CONTINUOUS
 62
     1
 10
465.0
 20
1419.2
 11
462.0
 21
1419.2
  0
LINE
  8
0
  6
CONTINUOUS
 62
     1
 10
462.0
 20
1419.2
 11
462.0
 21
1397.6
  0
LINE
  8
0
  6
CONTINUOUS
 62
     1
 10
462.0
 20
1397.6
 11
465.0
 21
1397.6
  0
LINE
  8
0
  6
CONTINUOUS
 62
     1
 10
465.0
 20
1397.6
 11
465.0
 21
1419.2
  0
LINE
  8
0
  6
CONTINUOUS
 62
     1
 10
462.0
 20
1399.4
 11
462.0
 21
1417.4
  0
LINE
  8
0
  6
CONTINUOUS
 62
     1
 10
454.5
 20
1399.4
 11
454.5
 21
1417.4
  0
LINE
  8
0
  6
LTYPE4
 62
     2
 10
469.0
 20
1408.4
 11
450.5
 21
1408.4
  0
LINE
  8
0
  6
CONTINUOUS
 62
     1
 10
454.5
 20
1417.4
 11
462.0
 21
1417.4
  0
LINE
  8
0
  6
CONTINUOUS
 62
     1
 10
454.5
 20
1399.4
 11
462.0
 21
1399.4
  0
LINE
  8
0
  6
CONTINUOUS
 62
     1
 10
462.0
 20
1408.4
 11
455.5
 21
1408.4
  0
ARC
  8
0
  6
CONTINUOUS
 62
     1
 10
465.1
 20
1403.9
 40
10.6
 50
154.9
 51
205.1
  0
ARC
  8
0
  6
CONTINUOUS
 62
     1
 10
465.1
 20
1412.9
 40
10.6
 50
154.9
 51
205.1
  0
LINE
  8
0
  6
CONTINUOUS
 62
     1
 10
462.0
 20
1408.4
 11
465.0
 21
1410.132050808
  0
LINE
  8
0
  6
CONTINUOUS
 62
     1
 10
465.0
 20
1408.4
 11
462.0
 21
1406.667949192
  0
LINE
  8
0
  6
CONTINUOUS
 62
     1
 10
465.0
 20
1209.2
 11
462.0
 21
1209.2
  0
LINE
  8
0
  6
CONTINUOUS
 62
     1
 10
462.0
 20
1209.2
 11
462.0
 21
1187.6
  0
LINE
  8
0
  6
CONTINUOUS
 62
     1
 10
462.0
 20
1187.6
 11
465.0
 21
1187.6
  0
LINE
  8
0
  6
CONTINUOUS
 62
     1
 10
465.0
 20
1187.6
 11
465.0
 21
1209.2
  0
LINE
  8
0
  6
CONTINUOUS
 62
     1
 10
462.0
 20
1189.4
 11
462.0
 21
1207.4
  0
LINE
  8
0
  6
CONTINUOUS
 62
     1
 10
454.5
 20
1189.4
 11
454.5
 21
1207.4
  0
LINE
  8
0
  6
LTYPE4
 62
     2
 10
469.0
 20
1198.4
 11
450.5
 21
1198.4
  0
LINE
  8
0
  6
CONTINUOUS
 62
     1
 10
454.5
 20
1207.4
 11
462.0
 21
1207.4
  0
LINE
  8
0
  6
CONTINUOUS
 62
     1
 10
454.5
 20
1189.4
 11
462.0
 21
1189.4
  0
LINE
  8
0
  6
CONTINUOUS
 62
     1
 10
462.0
 20
1198.4
 11
455.5
 21
1198.4
  0
ARC
  8
0
  6
CONTINUOUS
 62
     1
 10
465.1
 20
1193.9
 40
10.6
 50
154.9
 51
205.1
  0
ARC
  8
0
  6
CONTINUOUS
 62
     1
 10
465.1
 20
1202.9
 40
10.6
 50
154.9
 51
205.1
  0
LINE
  8
0
  6
CONTINUOUS
 62
     1
 10
462.0
 20
1198.4
 11
465.0
 21
1200.132050808
  0
LINE
  8
0
  6
CONTINUOUS
 62
     1
 10
465.0
 20
1198.4
 11
462.0
 21
1196.667949192
  0
LINE
  8
1
  6
CONTINUOUS
 62
     2
 10
690.0
 20
985.4
 11
690.0
 21
910.4
  0
LINE
  8
1
  6
CONTINUOUS
 62
     2
 10
690.0
 20
926.4
 11
670.681483474
 21
931.576380902
  0
LINE
  8
1
  6
CONTINUOUS
 62
     2
 10
690.0
 20
926.4
 11
670.681483474
 21
921.223619098
  0
LINE
  8
1
  6
CONTINUOUS
 62
     2
 10
690.0
 20
926.4
 11
465.0
 21
926.4
  0
LINE
  8
1
  6
CONTINUOUS
 62
     2
 10
465.0
 20
926.4
 11
484.318516526
 21
921.223619098
  0
LINE
  8
1
  6
CONTINUOUS
 62
     2
 10
465.0
 20
926.4
 11
484.318516526
 21
931.576380902
  0
LINE
  8
1
  6
CONTINUOUS
 62
     2
 10
465.0
 20
985.4
 11
465.0
 21
910.4
  0
LINE
  8
1
  6
CONTINUOUS
 62
     2
 10
465.0
 20
918.4
 11
465.0
 21
840.4
  0
TEXT
  8
1
  6
CONTINUOUS
 62
     2
 10
1004.1
 20
864.4
 30
2.4
 40
28.0
  1
ｍｉｎ．ＡＬ
 50
0.0
 41
0.914285714
 51
0.0
  7
KANJI45
  0
TEXT
  8
1
  6
CONTINUOUS
 62
     2
 10
1056.6
 20
1001.4
 30
2.4
 40
28.0
  1
Ｃ
 50
0.0
 41
0.914285714
 51
0.0
  7
KANJI45
  0
LINE
  8
1
  6
CONTINUOUS
 62
     2
 10
1578.8
 20
1227.2
 11
1578.8
 21
977.4
  0
LINE
  8
0
  6
CONTINUOUS
 62
     1
 10
2112.8
 20
1168.4
 11
2230.8
 21
1168.4
  0
LINE
  8
0
  6
CONTINUOUS
 62
     1
 10
1994.8
 20
1168.4
 11
2112.8
 21
1168.4
  0
LINE
  8
0
  6
CONTINUOUS
 62
     1
 10
2252.8
 20
1348.4
 11
2199.601218029
 21
1353.054290336
  0
LINE
  8
0
  6
CONTINUOUS
 62
     1
 10
2252.8
 20
1258.4
 11
2199.601218029
 21
1253.745709664
  0
CIRCLE
  8
0
  6
CONTINUOUS
 62
     1
 10
2628.5
 20
276.3
 40
23.0
  0
TEXT
  8
0
  6
CONTINUOUS
 62
     2
 10
2617.8
 20
262.8
 30
0.0
 40
28.0
  1
Ｓ
 50
0.0
 41
0.793650794
 51
0.0
  7
KANJI46
  0
LINE
  8
0
  6
CONTINUOUS
 62
     1
 10
1571.55
 20
1708.4
 11
1571.55
 21
1597.0
  0
LINE
  8
0
  6
LTYPE2
 62
     2
 10
1683.8
 20
1236.4
 11
1683.8
 21
1371.4
  0
LINE
  8
1
  6
CONTINUOUS
 62
     2
 10
1832.2
 20
1350.9
 11
1827.023619098
 21
1331.581483474
  0
LINE
  8
1
  6
CONTINUOUS
 62
     2
 10
1832.2
 20
1350.9
 11
1837.376380902
 21
1331.581483474
  0
LINE
  8
1
  6
CONTINUOUS
 62
     2
 10
1832.2
 20
1350.9
 11
1832.2
 21
1255.9
  0
LINE
  8
1
  6
CONTINUOUS
 62
     2
 10
1832.2
 20
1255.9
 11
1837.376380902
 21
1275.218516526
  0
LINE
  8
1
  6
CONTINUOUS
 62
     2
 10
1832.2
 20
1255.9
 11
1827.023619098
 21
1275.218516526
  0
TEXT
  8
1
  6
CONTINUOUS
 62
     3
 10
1824.2
 20
1276.6
 30
2.4
 40
28.0
  1
９５
 50
90.0
 41
0.914285714
 51
0.0
  7
KANJI45
  0
TEXT
  8
0
  6
CONTINUOUS
 62
     2
 10
1823.05
 20
1258.0
 30
10.4
 40
32.0
  1
φ
 50
90.0
 41
0.925
 51
0.0
  7
KANJI47
  0
LINE
  8
1
  6
CONTINUOUS
 62
     2
 10
1578.8
 20
1240.4
 11
1578.8
 21
975.35
  0
LINE
  8
0
  6
CONTINUOUS
 62
     1
 10
1723.8
 20
1350.9
 11
1723.8
 21
1338.326
  0
LINE
  8
0
  6
CONTINUOUS
 62
     1
 10
1723.8
 20
1338.326
 11
1733.8
 21
1325.826
  0
LINE
  8
0
  6
CONTINUOUS
 62
     1
 10
1723.8
 20
1255.9
 11
1723.8
 21
1268.474
  0
LINE
  8
0
  6
CONTINUOUS
 62
     1
 10
1723.8
 20
1268.474
 11
1733.8
 21
1280.974
  0
LINE
  8
0
  6
CONTINUOUS
 62
     1
 10
1723.8
 20
1350.9
 11
1733.8
 21
1340.9
  0
LINE
  8
0
  6
CONTINUOUS
 62
     1
 10
1723.8
 20
1255.9
 11
1733.8
 21
1265.9
  0
LINE
  8
0
  6
CONTINUOUS
 62
     1
 10
1733.8
 20
1265.9
 11
1733.8
 21
1340.9
  0
LINE
  8
0
  6
CONTINUOUS
 62
     1
 10
1733.8
 20
1340.9
 11
1733.8
 21
1265.9
  0
LINE
  8
1
  6
CONTINUOUS
 62
     2
 10
1731.8
 20
1350.9
 11
1843.2
 21
1350.9
  0
LINE
  8
1
  6
CONTINUOUS
 62
     2
 10
1731.8
 20
1255.9
 11
1843.2
 21
1255.9
  0
LINE
  8
1
  6
CONTINUOUS
 62
     2
 10
1683.8
 20
1228.4
 11
1683.8
 21
837.8
  0
LINE
  8
1
  6
CONTINUOUS
 62
     2
 10
1683.8
 20
853.8
 11
1703.118516526
 21
848.623619098
  0
LINE
  8
1
  6
CONTINUOUS
 62
     2
 10
1683.8
 20
853.8
 11
1703.118516526
 21
858.976380902
  0
LINE
  8
1
  6
CONTINUOUS
 62
     2
 10
1683.8
 20
853.8
 11
1733.8
 21
853.8
  0
LINE
  8
1
  6
CONTINUOUS
 62
     2
 10
1733.8
 20
853.8
 11
1714.481483474
 21
858.976380902
  0
LINE
  8
1
  6
CONTINUOUS
 62
     2
 10
1733.8
 20
853.8
 11
1714.481483474
 21
848.623619098
  0
LINE
  8
1
  6
CONTINUOUS
 62
     2
 10
1733.8
 20
1257.9
 11
1733.8
 21
837.8
  0
LINE
  8
1
  6
CONTINUOUS
 62
     2
 10
1578.8
 20
1240.4
 11
1578.8
 21
974.1
  0
LINE
  8
1
  6
CONTINUOUS
 62
     2
 10
1683.8
 20
1228.4
 11
1683.8
 21
974.1
  0
CIRCLE
  8
0
  6
CONTINUOUS
 62
     1
 10
1683.8
 20
1303.4
 40
22.5
  0
LINE
  8
1
  6
CONTINUOUS
 62
     2
 10
690.0
 20
1213.9
 11
690.0
 21
907.6
  0
LINE
  8
1
  6
CONTINUOUS
 62
     2
 10
1683.8
 20
1228.4
 11
1683.8
 21
907.6
  0
LINE
  8
1
  6
CONTINUOUS
 62
     2
 10
1683.8
 20
1228.4
 11
1683.8
 21
837.8
  0
LINE
  8
1
  6
CONTINUOUS
 62
     2
 10
1683.8
 20
853.8
 11
1664.481483474
 21
858.976380902
  0
LINE
  8
1
  6
CONTINUOUS
 62
     2
 10
1683.8
 20
853.8
 11
1664.481483474
 21
848.623619098
  0
LINE
  8
1
  6
CONTINUOUS
 62
     2
 10
1683.8
 20
853.8
 11
465.0
 21
853.8
  0
LINE
  8
1
  6
CONTINUOUS
 62
     2
 10
465.0
 20
853.8
 11
484.318516526
 21
848.623619098
  0
LINE
  8
1
  6
CONTINUOUS
 62
     2
 10
465.0
 20
853.8
 11
484.318516526
 21
858.976380902
  0
LINE
  8
1
  6
CONTINUOUS
 62
     2
 10
465.0
 20
1160.4
 11
465.0
 21
837.8
  0
LINE
  8
0
  6
CONTINUOUS
 62
     1
 10
1448.8
 20
1373.4
 11
1187.3
 21
1373.4
  0
LINE
  8
0
  6
CONTINUOUS
 62
     1
 10
1448.8
 20
1233.4
 11
1448.8
 21
1373.4
  0
LINE
  8
0
  6
CONTINUOUS
 62
     1
 10
1448.8
 20
1233.4
 11
1187.3
 21
1233.4
  0
LINE
  8
0
  6
CONTINUOUS
 62
     1
 10
1398.8
 20
1233.4
 11
1398.8
 21
1373.4
  0
LINE
  8
1
  6
CONTINUOUS
 62
     2
 10
1016.2
 20
1233.4
 11
994.9
 21
1233.4
  0
TEXT
  8
0
  6
CONTINUOUS
 62
     3
 10
2612.5333816
 20
187.399992
 30
17.333333333
 40
40.0
  1
Ａ３００１２３８
 50
0.0
 41
0.8
 51
0.0
  7
KANJI48
  0
TEXT
  8
0
  6
CONTINUOUS
 62
     2
 10
2962.0
 20
1933.6
 30
1.6
 40
24.0
  1
ＭＣＬＥ８－
 50
0.0
 41
0.833333333
 51
0.0
  7
KANJI49
  0
TEXT
  8
0
  6
CONTINUOUS
 62
     2
 10
2969.8
 20
1488.6
 30
2.4
 40
24.0
  1
１．５
 50
0.0
 41
0.9
 51
0.0
  7
KANJI33
  0
TEXT
  8
0
  6
CONTINUOUS
 62
     2
 10
1210.275240468
 20
1908.533058
 30
2.79993
 40
27.9993
  1
注意：サーマルリレー等の選定は、上記の値を参照下さい。
 50
0.0
 41
0.9
 51
0.0
  7
KANJI50
  0
LINE
  8
0
  6
CONTINUOUS
 62
     2
 10
1194.275640468
 20
1900.533258
 11
1946.256840468
 21
1900.533258
  0
LINE
  8
0
  6
CONTINUOUS
 62
     1
 10
2000.85602
 20
2171.193375
 11
2000.85602
 21
1963.198575
  0
LINE
  8
0
  6
CONTINUOUS
 62
     2
 10
1880.85902
 20
2171.193375
 11
1880.85902
 21
1963.198575
  0
LINE
  8
0
  6
CONTINUOUS
 62
     2
 10
1760.86202
 20
2171.193375
 11
1760.86202
 21
1963.198575
  0
LINE
  8
0
  6
CONTINUOUS
 62
     1
 10
1600.86602
 20
2171.193375
 11
1600.86602
 21
1963.198575
  0
LINE
  8
0
  6
CONTINUOUS
 62
     1
 10
1600.86602
 20
2171.193375
 11
2000.85602
 21
2171.193375
  0
LINE
  8
0
  6
CONTINUOUS
 62
     1
 10
1600.86602
 20
2107.194975
 11
2000.85602
 21
2107.194975
  0
LINE
  8
0
  6
CONTINUOUS
 62
     2
 10
1600.86602
 20
2059.196175
 11
2000.85602
 21
2059.196175
  0
LINE
  8
0
  6
CONTINUOUS
 62
     2
 10
1600.86602
 20
2011.197375
 11
2000.85602
 21
2011.197375
  0
LINE
  8
0
  6
CONTINUOUS
 62
     1
 10
1600.86602
 20
1963.198575
 11
2000.85602
 21
1963.198575
  0
TEXT
  8
0
  6
CONTINUOUS
 62
     2
 10
1896.85862
 20
2143.194075
 30
2.39994
 40
23.9994
  1
起動電流
 50
0.0
 41
0.9
 51
0.0
  7
KANJI51
  0
TEXT
  8
0
  6
CONTINUOUS
 62
     2
 10
1896.85862
 20
2115.194775
 30
2.39994
 40
23.9994
  1
　　　Ａ
 50
0.0
 41
0.9
 51
0.0
  7
KANJI51
  0
TEXT
  8
0
  6
CONTINUOUS
 62
     2
 10
1776.86162
 20
2143.194075
 30
2.39994
 40
23.9994
  1
定格電流
 50
0.0
 41
0.9
 51
0.0
  7
KANJI51
  0
TEXT
  8
0
  6
CONTINUOUS
 62
     2
 10
1776.86162
 20
2115.194775
 30
2.39994
 40
23.9994
  1
　　　Ａ
 50
0.0
 41
0.9
 51
0.0
  7
KANJI51
  0
TEXT
  8
0
  6
CONTINUOUS
 62
     2
 10
1614.46568
 20
2143.194075
 30
2.39994
 40
23.9994
  1
電圧／周波数
 50
0.0
 41
0.9
 51
0.0
  7
KANJI51
  0
TEXT
  8
0
  6
CONTINUOUS
 62
     2
 10
1614.46568
 20
2115.194775
 30
2.39994
 40
23.9994
  1
　Ｖ／Ｈｚ
 50
0.0
 41
0.9
 51
0.0
  7
KANJI51
  0
LINE
  8
0
  6
CONTINUOUS
 62
     1
 10
1520.86802
 20
2171.193375
 11
1520.86802
 21
1963.198575
  0
LINE
  8
0
  6
CONTINUOUS
 62
     2
 10
1400.87102
 20
2171.193375
 11
1400.87102
 21
1963.198575
  0
LINE
  8
0
  6
CONTINUOUS
 62
     2
 10
1280.87402
 20
2171.193375
 11
1280.87402
 21
1963.198575
  0
LINE
  8
0
  6
CONTINUOUS
 62
     1
 10
1120.87802
 20
2171.193375
 11
1120.87802
 21
1963.198575
  0
LINE
  8
0
  6
CONTINUOUS
 62
     1
 10
1120.87802
 20
2171.193375
 11
1520.86802
 21
2171.193375
  0
LINE
  8
0
  6
CONTINUOUS
 62
     1
 10
1120.87802
 20
2107.194975
 11
1520.86802
 21
2107.194975
  0
LINE
  8
0
  6
CONTINUOUS
 62
     2
 10
1120.87802
 20
2059.196175
 11
1520.86802
 21
2059.196175
  0
LINE
  8
0
  6
CONTINUOUS
 62
     2
 10
1120.87802
 20
2011.197375
 11
1520.86802
 21
2011.197375
  0
LINE
  8
0
  6
CONTINUOUS
 62
     1
 10
1120.87802
 20
1963.198575
 11
1520.86802
 21
1963.198575
  0
TEXT
  8
0
  6
CONTINUOUS
 62
     2
 10
1416.87062
 20
2143.194075
 30
2.39994
 40
23.9994
  1
起動電流
 50
0.0
 41
0.9
 51
0.0
  7
KANJI51
  0
TEXT
  8
0
  6
CONTINUOUS
 62
     2
 10
1416.87062
 20
2115.194775
 30
2.39994
 40
23.9994
  1
　　　Ａ
 50
0.0
 41
0.9
 51
0.0
  7
KANJI51
  0
TEXT
  8
0
  6
CONTINUOUS
 62
     2
 10
1296.87362
 20
2143.194075
 30
2.39994
 40
23.9994
  1
定格電流
 50
0.0
 41
0.9
 51
0.0
  7
KANJI51
  0
TEXT
  8
0
  6
CONTINUOUS
 62
     2
 10
1296.87362
 20
2115.194775
 30
2.39994
 40
23.9994
  1
　　　Ａ
 50
0.0
 41
0.9
 51
0.0
  7
KANJI51
  0
TEXT
  8
0
  6
CONTINUOUS
 62
     2
 10
1134.47768
 20
2143.194075
 30
2.39994
 40
23.9994
  1
電圧／周波数
 50
0.0
 41
0.9
 51
0.0
  7
KANJI51
  0
TEXT
  8
0
  6
CONTINUOUS
 62
     2
 10
1134.47768
 20
2115.194775
 30
2.39994
 40
23.9994
  1
　Ｖ／Ｈｚ
 50
0.0
 41
0.9
 51
0.0
  7
KANJI51
  0
TEXT
  8
0
  6
CONTINUOUS
 62
     2
 10
1134.47768
 20
2071.195875
 30
2.39994
 40
23.9994
  1
２００／５０
 50
0.0
 41
0.9
 51
0.0
  7
KANJI51
  0
TEXT
  8
0
  6
CONTINUOUS
 62
     2
 10
1134.47768
 20
2023.197075
 30
2.39994
 40
23.9994
  1
２００／６０
 50
0.0
 41
0.9
 51
0.0
  7
KANJI51
  0
TEXT
  8
0
  6
CONTINUOUS
 62
     2
 10
1134.47768
 20
1975.198275
 30
2.39994
 40
23.9994
  1
２２０／６０
 50
0.0
 41
0.9
 51
0.0
  7
KANJI51
  0
TEXT
  8
0
  6
CONTINUOUS
 62
     2
 10
1614.46568
 20
2071.195875
 30
2.39994
 40
23.9994
  1
４００／５０
 50
0.0
 41
0.9
 51
0.0
  7
KANJI51
  0
TEXT
  8
0
  6
CONTINUOUS
 62
     2
 10
1614.46568
 20
2023.197075
 30
2.39994
 40
23.9994
  1
４００／６０
 50
0.0
 41
0.9
 51
0.0
  7
KANJI51
  0
TEXT
  8
0
  6
CONTINUOUS
 62
     2
 10
1614.46568
 20
1975.198275
 30
2.39994
 40
23.9994
  1
４４０／６０
 50
0.0
 41
0.9
 51
0.0
  7
KANJI51
  0
TEXT
  8
0
  6
CONTINUOUS
 62
     2
 10
1416.87062
 20
2071.195875
 30
2.39994
 40
23.9994
  1
４４．０
 50
0.0
 41
0.9
 51
0.0
  7
KANJI51
  0
TEXT
  8
0
  6
CONTINUOUS
 62
     2
 10
1296.87362
 20
2071.195875
 30
2.39994
 40
23.9994
  1
　６．８
 50
0.0
 41
0.9
 51
0.0
  7
KANJI51
  0
TEXT
  8
0
  6
CONTINUOUS
 62
     2
 10
1296.87362
 20
2023.197075
 30
2.39994
 40
23.9994
  1
　６．３
 50
0.0
 41
0.9
 51
0.0
  7
KANJI51
  0
TEXT
  8
0
  6
CONTINUOUS
 62
     2
 10
1296.87362
 20
1975.198275
 30
2.39994
 40
23.9994
  1
　６．０
 50
0.0
 41
0.9
 51
0.0
  7
KANJI51
  0
TEXT
  8
0
  6
CONTINUOUS
 62
     2
 10
1776.86162
 20
2071.195875
 30
2.39994
 40
23.9994
  1
　３．４
 50
0.0
 41
0.9
 51
0.0
  7
KANJI51
  0
TEXT
  8
0
  6
CONTINUOUS
 62
     2
 10
1776.86162
 20
2023.197075
 30
2.39994
 40
23.9994
  1
　３．２
 50
0.0
 41
0.9
 51
0.0
  7
KANJI51
  0
TEXT
  8
0
  6
CONTINUOUS
 62
     2
 10
1776.86162
 20
1975.198275
 30
2.39994
 40
23.9994
  1
　３．０
 50
0.0
 41
0.9
 51
0.0
  7
KANJI51
  0
TEXT
  8
0
  6
CONTINUOUS
 62
     2
 10
1416.87062
 20
2023.197075
 30
2.39994
 40
23.9994
  1
３８．０
 50
0.0
 41
0.9
 51
0.0
  7
KANJI51
  0
TEXT
  8
0
  6
CONTINUOUS
 62
     2
 10
1416.87062
 20
1975.198275
 30
2.39994
 40
23.9994
  1
４１．８
 50
0.0
 41
0.9
 51
0.0
  7
KANJI51
  0
TEXT
  8
0
  6
CONTINUOUS
 62
     2
 10
1896.85862
 20
2071.195875
 30
2.39994
 40
23.9994
  1
２２．０
 50
0.0
 41
0.9
 51
0.0
  7
KANJI51
  0
TEXT
  8
0
  6
CONTINUOUS
 62
     2
 10
1895.992019532
 20
2019.530492
 30
2.39994
 40
23.9994
  1
１９．０
 50
0.0
 41
0.9
 51
0.0
  7
KANJI51
  0
TEXT
  8
0
  6
CONTINUOUS
 62
     2
 10
1897.991969532
 20
1974.198292
 30
2.39994
 40
23.9994
  1
２０．９
 50
0.0
 41
0.9
 51
0.0
  7
KANJI51
  0
LINE
  8
0
  6
LTYPE4
 62
     2
 10
505.0
 20
1408.4
 11
425.0
 21
1408.4
  0
LINE
  8
0
  6
CONTINUOUS
 62
     1
 10
512.0
 20
705.4
 11
1752.0
 21
705.4
  0
LINE
  8
0
  6
CONTINUOUS
 62
     1
 10
512.0
 20
649.4
 11
1752.0
 21
649.4
  0
LINE
  8
0
  6
CONTINUOUS
 62
     1
 10
1752.0
 20
705.4
 11
1752.0
 21
313.4
  0
LINE
  8
0
  6
CONTINUOUS
 62
     1
 10
512.0
 20
313.4
 11
1752.0
 21
313.4
  0
LINE
  8
0
  6
CONTINUOUS
 62
     1
 10
512.0
 20
705.4
 11
512.0
 21
313.4
  0
LINE
  8
0
  6
CONTINUOUS
 62
     1
 10
792.0
 20
705.4
 11
792.0
 21
313.4
  0
LINE
  8
0
  6
CONTINUOUS
 62
     2
 10
952.0
 20
705.4
 11
952.0
 21
313.4
  0
LINE
  8
0
  6
CONTINUOUS
 62
     2
 10
1112.0
 20
705.4
 11
1112.0
 21
313.4
  0
LINE
  8
0
  6
CONTINUOUS
 62
     2
 10
1272.0
 20
705.4
 11
1272.0
 21
313.4
  0
LINE
  8
0
  6
CONTINUOUS
 62
     2
 10
1432.0
 20
705.4
 11
1432.0
 21
313.4
  0
LINE
  8
0
  6
CONTINUOUS
 62
     2
 10
1592.0
 20
705.4
 11
1592.0
 21
313.4
  0
LINE
  8
0
  6
CONTINUOUS
 62
     2
 10
512.0
 20
369.4
 11
1752.0
 21
369.4
  0
LINE
  8
0
  6
CONTINUOUS
 62
     2
 10
512.0
 20
593.4
 11
1752.0
 21
593.4
  0
LINE
  8
0
  6
CONTINUOUS
 62
     2
 10
512.0
 20
537.4
 11
1752.0
 21
537.4
  0
LINE
  8
0
  6
CONTINUOUS
 62
     2
 10
512.0
 20
481.4
 11
1752.0
 21
481.4
  0
LINE
  8
0
  6
CONTINUOUS
 62
     2
 10
512.0
 20
425.4
 11
1752.0
 21
425.4
  0
TEXT
  8
0
  6
CONTINUOUS
 62
     2
 10
840.0
 20
606.8
 30
2.4
 40
24.0
  1
３００
 50
0.0
 41
0.9
 51
0.0
  7
KANJI33
  0
TEXT
  8
0
  6
CONTINUOUS
 62
     2
 10
840.0
 20
550.8
 30
2.4
 40
24.0
  1
５００
 50
0.0
 41
0.9
 51
0.0
  7
KANJI33
  0
TEXT
  8
0
  6
CONTINUOUS
 62
     2
 10
1317.6
 20
610.4
 30
2.4
 40
24.0
  1
７３０
 50
0.0
 41
0.9
 51
0.0
  7
KANJI33
  0
TEXT
  8
0
  6
CONTINUOUS
 62
     2
 10
1491.8
 20
610.4
 30
2.4
 40
24.0
  1
５０
 50
0.0
 41
0.9
 51
0.0
  7
KANJI33
  0
TEXT
  8
0
  6
CONTINUOUS
 62
     2
 10
1317.6
 20
554.4
 30
2.4
 40
24.0
  1
９３０
 50
0.0
 41
0.9
 51
0.0
  7
KANJI33
  0
TEXT
  8
0
  6
CONTINUOUS
 62
     2
 10
812.8
 20
665.4
 30
2.4
 40
24.0
  1
ストローク
 50
0.0
 41
0.9
 51
0.0
  7
KANJI33
  0
TEXT
  8
0
  6
CONTINUOUS
 62
     2
 10
966.4
 20
663.8
 30
0.0
 40
24.0
  1
ｍｉｎ　
 50
0.0
 41
0.9
 51
0.0
  7
KANJI52
  0
TEXT
  8
0
  6
CONTINUOUS
 62
     2
 10
1126.4
 20
663.8
 30
0.0
 40
24.0
  1
ｍｉｎ　
 50
0.0
 41
0.9
 51
0.0
  7
KANJI52
  0
TEXT
  8
0
  6
CONTINUOUS
 62
     2
 10
1446.4
 20
663.8
 30
0.0
 40
24.0
  1
ｍｉｎ　
 50
0.0
 41
0.9
 51
0.0
  7
KANJI52
  0
TEXT
  8
0
  6
CONTINUOUS
 62
     2
 10
1695.0
 20
667.2
 30
0.0
 40
19.2
  1
（ｋｇ）
 50
0.0
 41
0.777777778
 51
0.0
  7
KANJI53
  0
TEXT
  8
0
  6
CONTINUOUS
 62
     2
 10
1599.0
 20
664.4
 30
2.56
 40
25.6
  1
概算重量
 50
0.0
 41
0.9
 51
0.0
  7
KANJI54
  0
TEXT
  8
0
  6
CONTINUOUS
 62
     2
 10
568.0
 20
665.4
 30
2.56
 40
25.6
  1
形
 50
0.0
 41
0.9
 51
0.0
  7
KANJI54
  0
TEXT
  8
0
  6
CONTINUOUS
 62
     2
 10
724.0
 20
665.4
 30
2.56
 40
25.6
  1
式
 50
0.0
 41
0.9
 51
0.0
  7
KANJI54
  0
TEXT
  8
0
  6
CONTINUOUS
 62
     2
 10
1048.0
 20
665.4
 30
2.8
 40
28.0
  1
ＡＬ
 50
0.0
 41
0.9
 51
0.0
  7
KANJI55
  0
TEXT
  8
0
  6
CONTINUOUS
 62
     2
 10
1208.0
 20
665.4
 30
2.8
 40
28.0
  1
Ｌ
 50
0.0
 41
0.9
 51
0.0
  7
KANJI55
  0
TEXT
  8
0
  6
CONTINUOUS
 62
     2
 10
1344.0
 20
665.4
 30
2.8
 40
28.0
  1
Ｃ
 50
0.0
 41
0.9
 51
0.0
  7
KANJI55
  0
TEXT
  8
0
  6
CONTINUOUS
 62
     2
 10
1528.0
 20
665.4
 30
2.8
 40
28.0
  1
Ｐ
 50
0.0
 41
0.9
 51
0.0
  7
KANJI55
  0
TEXT
  8
0
  6
CONTINUOUS
 62
     2
 10
1158.0
 20
609.0
 30
2.4
 40
24.0
  1
８８０
 50
0.0
 41
0.9
 51
0.0
  7
KANJI33
  0
TEXT
  8
0
  6
CONTINUOUS
 62
     2
 10
816.5
 20
438.8
 30
2.4
 40
24.0
  1
１０００
 50
0.0
 41
0.9
 51
0.0
  7
KANJI33
  0
TEXT
  8
0
  6
CONTINUOUS
 62
     2
 10
1293.6
 20
442.4
 30
2.4
 40
24.0
  1
１４７０
 50
0.0
 41
0.9
 51
0.0
  7
KANJI33
  0
TEXT
  8
0
  6
CONTINUOUS
 62
     2
 10
840.0
 20
494.8
 30
2.4
 40
24.0
  1
７００
 50
0.0
 41
0.9
 51
0.0
  7
KANJI33
  0
TEXT
  8
0
  6
CONTINUOUS
 62
     2
 10
1292.6
 20
498.4
 30
2.4
 40
24.0
  1
１１７０
 50
0.0
 41
0.9
 51
0.0
  7
KANJI33
  0
TEXT
  8
0
  6
CONTINUOUS
 62
     2
 10
538.0
 20
438.2
 30
1.6
 40
24.0
  1
ＭＣＬＥ８－　１０
 50
0.0
 41
0.833333333
 51
0.0
  7
KANJI49
  0
TEXT
  8
0
  6
CONTINUOUS
 62
     2
 10
538.0
 20
382.2
 30
1.6
 40
24.0
  1
ＭＣＬＥ８－　　　
 50
0.0
 41
0.833333333
 51
0.0
  7
KANJI49
  0
TEXT
  8
0
  6
CONTINUOUS
 62
     2
 10
538.0
 20
326.2
 30
1.6
 40
24.0
  1
ＭＣＬＥ８－　　　
 50
0.0
 41
0.833333333
 51
0.0
  7
KANJI49
  0
TEXT
  8
0
  6
CONTINUOUS
 62
     2
 10
1650.8
 20
609.8
 30
2.4
 40
24.0
  1
２００
 50
0.0
 41
0.9
 51
0.0
  7
KANJI33
  0
TEXT
  8
0
  6
CONTINUOUS
 62
     2
 10
1650.8
 20
553.8
 30
2.4
 40
24.0
  1
２１０
 50
0.0
 41
0.9
 51
0.0
  7
KANJI33
  0
TEXT
  8
0
  6
CONTINUOUS
 62
     2
 10
1650.8
 20
441.8
 30
2.4
 40
24.0
  1
２３８
 50
0.0
 41
0.9
 51
0.0
  7
KANJI33
  0
TEXT
  8
0
  6
CONTINUOUS
 62
     2
 10
1466.8
 20
554.4
 30
2.4
 40
24.0
  1
　５０
 50
0.0
 41
0.9
 51
0.0
  7
KANJI33
  0
TEXT
  8
0
  6
CONTINUOUS
 62
     2
 10
1466.8
 20
498.4
 30
2.4
 40
24.0
  1
　５０
 50
0.0
 41
0.9
 51
0.0
  7
KANJI33
  0
TEXT
  8
0
  6
CONTINUOUS
 62
     2
 10
1467.8
 20
442.4
 30
2.4
 40
24.0
  1
　５０
 50
0.0
 41
0.9
 51
0.0
  7
KANJI33
  0
TEXT
  8
0
  6
CONTINUOUS
 62
     2
 10
1134.0
 20
553.0
 30
2.4
 40
24.0
  1
１０８０
 50
0.0
 41
0.9
 51
0.0
  7
KANJI33
  0
TEXT
  8
0
  6
CONTINUOUS
 62
     2
 10
1134.0
 20
441.0
 30
2.4
 40
24.0
  1
１６２０
 50
0.0
 41
0.9
 51
0.0
  7
KANJI33
  0
TEXT
  8
0
  6
CONTINUOUS
 62
     2
 10
973.2
 20
607.4
 30
2.4
 40
24.0
  1
１１０５
 50
0.0
 41
0.9
 51
0.0
  7
KANJI33
  0
TEXT
  8
0
  6
CONTINUOUS
 62
     2
 10
973.2
 20
551.4
 30
2.4
 40
24.0
  1
１３０５
 50
0.0
 41
0.9
 51
0.0
  7
KANJI33
  0
TEXT
  8
0
  6
CONTINUOUS
 62
     2
 10
973.2
 20
439.4
 30
2.4
 40
24.0
  1
１８４５
 50
0.0
 41
0.9
 51
0.0
  7
KANJI33
  0
TEXT
  8
0
  6
CONTINUOUS
 62
     2
 10
1134.0
 20
497.0
 30
2.4
 40
24.0
  1
１３２０
 50
0.0
 41
0.9
 51
0.0
  7
KANJI33
  0
TEXT
  8
0
  6
CONTINUOUS
 62
     2
 10
973.2
 20
495.4
 30
2.4
 40
24.0
  1
１５４５
 50
0.0
 41
0.9
 51
0.0
  7
KANJI33
  0
LINE
  8
0
  6
CONTINUOUS
 62
     6
 10
3225.0666672
 20
82.3333328
 11
3225.0666672
 21
520.5999696
  0
TEXT
  8
0
  6
CONTINUOUS
 62
     2
 10
3065.0
 20
1704.4
 30
0.1792
 40
22.4
  1
（　２２　ｋｇｍ）
 50
0.0
 41
0.8
 51
0.0
  7
KANJI44
  0
TEXT
  8
0
  6
CONTINUOUS
 62
     2
 10
2949.0
 20
1709.4
 30
4.0
 40
24.0
  1
２１６Ｎ
 50
0.0
 41
0.9
 51
0.0
  7
KANJI56
  0
TEXT
  8
0
  6
CONTINUOUS
 62
     2
 10
2942.0
 20
1873.4
 30
4.0
 40
28.0
  1
７８．４ＫＮ（８ｔｏｎ）
 50
0.0
 41
0.771428571
 51
0.0
  7
KANJI57
  0
TEXT
  8
0
  6
CONTINUOUS
 62
     2
 10
2951.8
 20
1766.6
 30
2.4
 40
24.0
  1
１２．５／１５
 50
0.0
 41
0.9
 51
0.0
  7
KANJI33
  0
TEXT
  8
0
  6
CONTINUOUS
 62
     2
 10
1650.8
 20
497.8
 30
2.4
 40
24.0
  1
２２０
 50
0.0
 41
0.9
 51
0.0
  7
KANJI33
  0
TEXT
  8
0
  6
CONTINUOUS
 62
     2
 10
2247.0
 20
208.4
 30
24.0
 40
24.0
  1
岡田
 50
0.0
 41
0.9
 51
0.0
  7
KANJI58
  0
TEXT
  8
0
  6
CONTINUOUS
 62
     2
 10
2528.0
 20
315.4
 30
0.0
 40
28.0
  1
ＭＣＬＥ８－
 50
0.0
 41
0.793650794
 51
0.0
  7
KANJI46
  0
TEXT
  8
1
  6
CONTINUOUS
 62
     3
 10
800.941517274
 20
1114.448101266
 30
2.4
 40
24.0
  1
推力リミッタ
 50
0.0
 41
0.9
 51
0.0
  7
KANJI33
  0
LINE
  8
1
  6
CONTINUOUS
 62
     2
 10
942.541517274
 20
1106.448101266
 11
779.541517274
 21
1106.448101266
  0
LINE
  8
1
  6
CONTINUOUS
 62
     2
 10
838.541517274
 20
1380.448101266
 11
779.541517274
 21
1106.448101266
  0
LINE
  8
1
  6
CONTINUOUS
 62
     2
 10
1578.8
 20
1003.4
 11
1578.8
 21
977.4
  0
LINE
  8
1
  6
CONTINUOUS
 62
     2
 10
1578.8
 20
993.4
 11
1598.118516526
 21
988.223619098
  0
LINE
  8
1
  6
CONTINUOUS
 62
     2
 10
1578.8
 20
993.4
 11
1598.118516526
 21
998.576380902
  0
LINE
  8
1
  6
CONTINUOUS
 62
     2
 10
1578.8
 20
993.4
 11
1683.8
 21
993.4
  0
LINE
  8
1
  6
CONTINUOUS
 62
     2
 10
1683.8
 20
993.4
 11
1664.481483474
 21
998.576380902
  0
LINE
  8
1
  6
CONTINUOUS
 62
     2
 10
1683.8
 20
993.4
 11
1664.481483474
 21
988.223619098
  0
LINE
  8
1
  6
CONTINUOUS
 62
     2
 10
1683.8
 20
995.4
 11
1683.8
 21
977.4
  0
LINE
  8
1
  6
CONTINUOUS
 62
     2
 10
690.0
 20
927.4
 11
690.0
 21
910.4
  0
LINE
  8
1
  6
CONTINUOUS
 62
     2
 10
690.0
 20
926.4
 11
709.318516526
 21
921.223619098
  0
LINE
  8
1
  6
CONTINUOUS
 62
     2
 10
690.0
 20
926.4
 11
709.318516526
 21
931.576380902
  0
LINE
  8
1
  6
CONTINUOUS
 62
     2
 10
690.0
 20
926.4
 11
1683.8
 21
926.4
  0
LINE
  8
1
  6
CONTINUOUS
 62
     2
 10
1683.8
 20
926.4
 11
1664.481483474
 21
931.576380902
  0
LINE
  8
1
  6
CONTINUOUS
 62
     2
 10
1683.8
 20
926.4
 11
1664.481483474
 21
921.223619098
  0
LINE
  8
1
  6
CONTINUOUS
 62
     2
 10
1683.8
 20
923.4
 11
1683.8
 21
942.4
  0
LINE
  8
0
  6
CONTINUOUS
 62
     4
 10
32.9333328
 20
84.3333328
 11
116.1333264
 21
84.3333328
  0
LINE
  8
0
  6
CONTINUOUS
 62
     4
 10
32.9333328
 20
125.9333296
 11
116.1333264
 21
125.9333296
  0
LINE
  8
0
  6
CONTINUOUS
 62
     4
 10
32.9333328
 20
167.5333264
 11
116.1333264
 21
167.5333264
  0
LINE
  8
0
  6
CONTINUOUS
 62
     4
 10
32.9333328
 20
209.1333232
 11
116.1333264
 21
209.1333232
  0
LINE
  8
0
  6
CONTINUOUS
 62
     4
 10
32.9333328
 20
250.73332
 11
116.1333264
 21
250.73332
  0
LINE
  8
0
  6
CONTINUOUS
 62
     4
 10
32.9333328
 20
292.3333168
 11
116.1333264
 21
292.3333168
  0
LINE
  8
0
  6
CONTINUOUS
 62
     4
 10
32.9333328
 20
333.9333136
 11
116.1333264
 21
333.9333136
  0
LINE
  8
0
  6
CONTINUOUS
 62
     4
 10
32.9333328
 20
375.5333104
 11
116.1333264
 21
375.5333104
  0
LINE
  8
0
  6
CONTINUOUS
 62
     4
 10
32.9333328
 20
417.1333072
 11
116.1333264
 21
417.1333072
  0
LINE
  8
0
  6
CONTINUOUS
 62
     4
 10
32.9333328
 20
458.733304
 11
116.1333264
 21
458.733304
  0
LINE
  8
0
  6
CONTINUOUS
 62
     4
 10
116.1333264
 20
84.3333328
 11
116.1333264
 21
458.733304
  0
LINE
  8
0
  6
CONTINUOUS
 62
     4
 10
74.5333296
 20
84.3333328
 11
74.5333296
 21
417.1333072
  0
TEXT
  8
0
  6
CONTINUOUS
 62
     4
 10
47.14666504
 20
96.4666652
 30
2.07999984
 40
20.7999984
  1
計
 50
0.0
 41
0.75
 51
0.0
  7
KANJI59
  0
TEXT
  8
0
  6
CONTINUOUS
 62
     4
 10
47.14666504
 20
180.35999208
 30
2.07999984
 40
20.7999984
  1
設
 50
0.0
 41
0.75
 51
0.0
  7
KANJI59
  0
TEXT
  8
0
  6
CONTINUOUS
 62
     4
 10
47.14666504
 20
221.2666556
 30
2.07999984
 40
20.7999984
  1
管
 50
0.0
 41
0.75
 51
0.0
  7
KANJI59
  0
TEXT
  8
0
  6
CONTINUOUS
 62
     4
 10
47.14666504
 20
262.8666524
 30
2.07999984
 40
20.7999984
  1
製
 50
0.0
 41
0.75
 51
0.0
  7
KANJI59
  0
TEXT
  8
0
  6
CONTINUOUS
 62
     4
 10
47.14666504
 20
304.4666492
 30
2.07999984
 40
20.7999984
  1
資
 50
0.0
 41
0.75
 51
0.0
  7
KANJI59
  0
TEXT
  8
0
  6
CONTINUOUS
 62
     4
 10
47.14666504
 20
346.066646
 30
2.07999984
 40
20.7999984
  1
営
 50
0.0
 41
0.75
 51
0.0
  7
KANJI59
  0
TEXT
  8
0
  6
CONTINUOUS
 62
     4
 10
47.14666504
 20
387.6666428
 30
2.07999984
 40
20.7999984
  1
客
 50
0.0
 41
0.75
 51
0.0
  7
KANJI59
  0
TEXT
  8
0
  6
CONTINUOUS
 62
     4
 10
46.7999984
 20
430.9999728
 30
2.07999984
 40
20.7999984
  1
出　図
 50
0.0
 41
0.75
 51
0.0
  7
KANJI59
  0
LINE
  8
0
  6
CONTINUOUS
 62
     4
 10
32.9333328
 20
84.3333328
 11
32.9333328
 21
458.733304
  0
LINE
  8
0
  6
CONTINUOUS
 62
     1
 10
971.0
 20
1403.4
 11
971.0
 21
1203.4
  0
LINE
  8
0
  6
CONTINUOUS
 62
     1
 10
920.0
 20
1203.4
 11
971.0
 21
1203.4
  0
LINE
  8
0
  6
CONTINUOUS
 62
     1
 10
920.0
 20
1403.4
 11
971.0
 21
1403.4
  0
LINE
  8
0
  6
CONTINUOUS
 62
     1
 10
920.0
 20
1403.4
 11
920.0
 21
1203.4
  0
LINE
  8
0
  6
CONTINUOUS
 62
     1
 10
986.0
 20
1387.4
 11
986.0
 21
1219.4
  0
LINE
  8
0
  6
CONTINUOUS
 62
     1
 10
971.0
 20
1387.4
 11
986.0
 21
1387.4
  0
LINE
  8
0
  6
CONTINUOUS
 62
     1
 10
971.0
 20
1219.4
 11
986.0
 21
1219.4
  0
LINE
  8
1
  6
CONTINUOUS
 62
     2
 10
1012.9
 20
1373.4
 11
986.0
 21
1373.4
  0
LINE
  8
0
  6
CONTINUOUS
 62
     1
 10
986.0
 20
1373.4
 11
1182.3
 21
1373.4
  0
LINE
  8
0
  6
CONTINUOUS
 62
     1
 10
986.0
 20
1233.4
 11
1182.3
 21
1233.4
  0
LINE
  8
0
  6
LTYPE2
 62
     2
 10
886.0
 20
1390.9
 11
987.0
 21
1390.9
  0
LINE
  8
0
  6
LTYPE2
 62
     2
 10
890.0
 20
1215.9
 11
990.0
 21
1215.9
  0
LINE
  8
0
  6
LTYPE2
 62
     2
 10
1437.55
 20
1652.7
 11
1767.85
 21
1652.7
  0
TEXT
  8
0
  6
CONTINUOUS
 62
     2
 10
1716.6
 20
1803.4
 30
10.4
 40
32.0
  1
φ
 50
0.0
 41
0.925
 51
0.0
  7
KANJI47
  0
LINE
  8
0
  6
CONTINUOUS
 62
     1
 10
1593.8
 20
1677.7
 11
1733.8
 21
1677.7
  0
LINE
  8
0
  6
CONTINUOUS
 62
     1
 10
1485.25
 20
1708.4
 11
1593.8
 21
1708.4
  0
LINE
  8
0
  6
CONTINUOUS
 62
     1
 10
1593.8
 20
1708.4
 11
1593.8
 21
1677.7
  0
LINE
  8
0
  6
CONTINUOUS
 62
     1
 10
1733.8
 20
1677.7
 11
1733.8
 21
1627.7
  0
LINE
  8
0
  6
CONTINUOUS
 62
     1
 10
1596.05
 20
1627.7
 11
1733.8
 21
1627.7
  0
LINE
  8
1
  6
CONTINUOUS
 62
     2
 10
1741.8
 20
1677.7
 11
1877.5
 21
1677.7
  0
LINE
  8
1
  6
CONTINUOUS
 62
     2
 10
1861.5
 20
1677.7
 11
1856.323619098
 21
1658.381483474
  0
LINE
  8
1
  6
CONTINUOUS
 62
     2
 10
1861.5
 20
1677.7
 11
1866.676380902
 21
1658.381483474
  0
LINE
  8
1
  6
CONTINUOUS
 62
     2
 10
1861.5
 20
1677.7
 11
1861.5
 21
1627.7
  0
LINE
  8
1
  6
CONTINUOUS
 62
     2
 10
1861.5
 20
1627.7
 11
1866.676380902
 21
1647.018516526
  0
LINE
  8
1
  6
CONTINUOUS
 62
     2
 10
1861.5
 20
1627.7
 11
1856.323619098
 21
1647.018516526
  0
LINE
  8
1
  6
CONTINUOUS
 62
     2
 10
1741.8
 20
1627.7
 11
1877.5
 21
1627.7
  0
LINE
  8
0
  6
CONTINUOUS
 62
     1
 10
1593.8
 20
1627.7
 11
1733.8
 21
1627.7
  0
LINE
  8
0
  6
CONTINUOUS
 62
     1
 10
1593.8
 20
1627.7
 11
1593.8
 21
1597.0
  0
LINE
  8
0
  6
CONTINUOUS
 62
     1
 10
1485.25
 20
1597.0
 11
1593.8
 21
1597.0
  0
LINE
  8
0
  6
LTYPE1
 62
     2
 10
1661.3
 20
1677.7
 11
1661.3
 21
1627.7
  0
LINE
  8
0
  6
LTYPE1
 62
     2
 10
1706.3
 20
1677.7
 11
1706.3
 21
1627.7
  0
LINE
  8
0
  6
LTYPE2
 62
     2
 10
1683.8
 20
1708.4
 11
1683.8
 21
1579.1
  0
LINE
  8
1
  6
CONTINUOUS
 62
     2
 10
1593.8
 20
1589.0
 11
1593.8
 21
1450.9
  0
LINE
  8
1
  6
CONTINUOUS
 62
     2
 10
1593.8
 20
1466.9
 11
1613.118516526
 21
1461.723619098
  0
LINE
  8
1
  6
CONTINUOUS
 62
     2
 10
1593.8
 20
1466.9
 11
1613.118516526
 21
1472.076380902
  0
LINE
  8
1
  6
CONTINUOUS
 62
     2
 10
1593.8
 20
1466.9
 11
1683.8
 21
1466.9
  0
LINE
  8
1
  6
CONTINUOUS
 62
     2
 10
1683.8
 20
1466.9
 11
1664.481483474
 21
1472.076380902
  0
LINE
  8
1
  6
CONTINUOUS
 62
     2
 10
1683.8
 20
1466.9
 11
1664.481483474
 21
1461.723619098
  0
LINE
  8
1
  6
CONTINUOUS
 62
     2
 10
1683.8
 20
1619.7
 11
1683.8
 21
1450.9
  0
LINE
  8
1
  6
CONTINUOUS
 62
     2
 10
1661.3
 20
1685.7
 11
1661.3
 21
1815.2
  0
LINE
  8
1
  6
CONTINUOUS
 62
     2
 10
1661.3
 20
1799.2
 11
1641.981483474
 21
1804.376380902
  0
LINE
  8
1
  6
CONTINUOUS
 62
     2
 10
1661.3
 20
1799.2
 11
1641.981483474
 21
1794.023619098
  0
LINE
  8
1
  6
CONTINUOUS
 62
     2
 10
1631.3
 20
1799.2
 11
1661.3
 21
1799.2
  0
LINE
  8
1
  6
CONTINUOUS
 62
     2
 10
1661.3
 20
1799.2
 11
1706.3
 21
1799.2
  0
LINE
  8
1
  6
CONTINUOUS
 62
     2
 10
1706.3
 20
1799.2
 11
1873.9
 21
1799.2
  0
LINE
  8
1
  6
CONTINUOUS
 62
     2
 10
1706.3
 20
1799.2
 11
1725.618516526
 21
1794.023619098
  0
LINE
  8
1
  6
CONTINUOUS
 62
     2
 10
1706.3
 20
1799.2
 11
1725.618516526
 21
1804.376380902
  0
LINE
  8
1
  6
CONTINUOUS
 62
     2
 10
1706.3
 20
1685.7
 11
1706.3
 21
1815.2
  0
LINE
  8
0
  6
CONTINUOUS
 62
     1
 10
1723.8
 20
1627.7
 11
1723.8
 21
1677.7
  0
LINE
  8
0
  6
CONTINUOUS
 62
     1
 10
803.541517274
 20
1433.344375069
 11
793.541517274
 21
1423.344375069
  0
LINE
  8
0
  6
CONTINUOUS
 62
     1
 10
793.541517274
 20
1364.705778818
 11
793.541517274
 21
1423.344375069
  0
LINE
  8
0
  6
CONTINUOUS
 62
     1
 10
788.541517274
 20
1303.4
 11
788.541517274
 21
1433.866558854
  0
ARC
  8
0
  6
CONTINUOUS
 62
     1
 10
791.541517274
 20
1433.866558854
 40
3.0
 50
90.0
 51
180.0
  0
LINE
  8
0
  6
CONTINUOUS
 62
     1
 10
911.541517274
 20
1364.705778818
 11
911.541517274
 21
1423.344375069
  0
LINE
  8
0
  6
CONTINUOUS
 62
     1
 10
916.541517274
 20
1322.057620342
 11
916.541517274
 21
1433.866558854
  0
ARC
  8
0
  6
CONTINUOUS
 62
     1
 10
913.541517274
 20
1433.866558854
 40
3.0
 50
0.0
 51
90.0
  0
LINE
  8
0
  6
CONTINUOUS
 62
     1
 10
911.541517274
 20
1423.344375069
 11
901.541517274
 21
1433.344375069
  0
LINE
  8
0
  6
CONTINUOUS
 62
     1
 10
803.541517274
 20
1433.344375069
 11
901.541517274
 21
1433.344375069
  0
LINE
  8
0
  6
CONTINUOUS
 62
     1
 10
791.541517274
 20
1436.866558854
 11
913.541517274
 21
1436.866558854
  0
LINE
  8
0
  6
CONTINUOUS
 62
     6
 10
2157.333416
 20
82.3333328
 11
2157.333416
 21
470.5999696
  0
TEXT
  8
0
  6
CONTINUOUS
 62
     4
 10
2182.0
 20
423.4
 30
0.8
 40
28.8
  1
ご注文主
 50
0.0
 41
0.833333333
 51
0.0
  7
KANJI60
  0
LINE
  8
0
  6
CONTINUOUS
 62
     6
 10
2157.333416
 20
526.066632
 11
3225.0666672
 21
526.066632
  0
LINE
  8
0
  6
CONTINUOUS
 62
     6
 10
2157.333416
 20
470.5999696
 11
2157.333416
 21
526.066632
  0
LINE
  8
0
  6
CONTINUOUS
 62
     4
 10
2306.0
 20
415.1333072
 11
2306.0
 21
526.066632
  0
TEXT
  8
0
  6
CONTINUOUS
 62
     4
 10
2182.0
 20
478.8666624
 30
0.8
 40
28.8
  1
ご用途
 50
0.0
 41
0.833333333
 51
0.0
  7
KANJI60
  0
LINE
  8
0
  6
CONTINUOUS
 62
     4
 10
2157.333416
 20
415.1333072
 11
3225.0666672
 21
415.1333072
  0
LINE
  8
0
  6
CONTINUOUS
 62
     4
 10
2410.4000632
 20
359.6666448
 11
3225.0666672
 21
359.6666448
  0
LINE
  8
0
  6
CONTINUOUS
 62
     4
 10
2410.4000632
 20
304.1999824
 11
2750.1333704
 21
304.1999824
  0
TEXT
  8
0
  6
CONTINUOUS
 62
     4
 10
2424.2667288
 20
279.9333176
 30
1.38666656
 40
13.8666656
  1
ＭＦＧ．ＮＯ．
 50
0.0
 41
0.8
 51
0.0
  7
KANJI15
  0
TEXT
  8
0
  6
CONTINUOUS
 62
     2
 10
2966.2000316
 20
1088.4666536
 30
40.0
 40
30.4
  1
同時切り
 50
0.0
 41
0.894736842
 51
0.0
  7
KANJI61
  0
LINE
  8
1
  6
CONTINUOUS
 62
     2
 10
1036.7
 20
1373.4
 11
1027.8
 21
1373.4
  0
LINE
  8
1
  6
CONTINUOUS
 62
     2
 10
1043.8
 20
1373.4
 11
1038.623619098
 21
1354.081483474
  0
LINE
  8
1
  6
CONTINUOUS
 62
     2
 10
1043.8
 20
1373.4
 11
1048.976380902
 21
1354.081483474
  0
LINE
  8
1
  6
CONTINUOUS
 62
     2
 10
1043.8
 20
1373.4
 11
1043.8
 21
1233.4
  0
LINE
  8
1
  6
CONTINUOUS
 62
     2
 10
1043.8
 20
1233.4
 11
1048.976380902
 21
1252.718516526
  0
LINE
  8
1
  6
CONTINUOUS
 62
     2
 10
1043.8
 20
1233.4
 11
1038.623619098
 21
1252.718516526
  0
TEXT
  8
1
  6
CONTINUOUS
 62
     3
 10
1035.8
 20
1248.6
 30
2.4
 40
28.0
  1
φ１４０
 50
90.0
 41
0.914285714
 51
0.0
  7
KANJI45
  0
LINE
  8
0
  6
LTYPE2
 62
     2
 10
441.0
 20
1303.4
 11
1008.0
 21
1303.4
  0
LINE
  8
0
  6
LTYPE2
 62
     2
 10
1049.7
 20
1303.4
 11
1757.3
 21
1303.4
  0
LINE
  8
0
  6
CONTINUOUS
 62
     1
 10
971.0
 20
1383.4
 11
986.0
 21
1383.4
  0
LINE
  8
0
  6
CONTINUOUS
 62
     1
 10
971.0
 20
1223.4
 11
986.0
 21
1223.4
  0
LINE
  8
0
  6
CONTINUOUS
 62
     1
 10
971.0
 20
1299.4
 11
986.0
 21
1299.4
  0
LINE
  8
0
  6
CONTINUOUS
 62
     1
 10
971.0
 20
1307.4
 11
986.0
 21
1307.4
  0
LINE
  8
0
  6
CONTINUOUS
 62
     4
 10
2157.333416
 20
470.5999696
 11
3225.0666672
 21
470.5999696
  0
TEXT
  8
1
  6
CONTINUOUS
 62
     3
 10
1132.1
 20
934.4
 30
2.4
 40
24.0
  1
ｍｉｎ．Ｌ
 50
0.0
 41
0.9
 51
0.0
  7
KANJI33
  0
TEXT
  8
1
  6
CONTINUOUS
 62
     2
 10
1445.0
 20
956.4
 30
2.4
 40
24.0
  1
ｍｉｎ．Ｐ
 50
0.0
 41
0.9
 51
0.0
  7
KANJI33
  0
TEXT
  8
1
  6
CONTINUOUS
 62
     2
 10
501.7
 20
1001.4
 30
2.4
 40
24.0
  1
１５５
 50
0.0
 41
0.9
 51
0.0
  7
KANJI33
  0
TEXT
  8
1
  6
CONTINUOUS
 62
     2
 10
628.2
 20
1001.4
 30
2.4
 40
24.0
  1
７０
 50
0.0
 41
0.9
 51
0.0
  7
KANJI33
  0
TEXT
  8
1
  6
CONTINUOUS
 62
     2
 10
536.7
 20
934.4
 30
2.4
 40
24.0
  1
２２５
 50
0.0
 41
0.9
 51
0.0
  7
KANJI33
  0
TEXT
  8
1
  6
CONTINUOUS
 62
     3
 10
1736.3
 20
1807.2
 30
2.4
 40
24.0
  1
４５Ｈ１０
 50
0.0
 41
0.9
 51
0.0
  7
KANJI33
  0
TEXT
  8
1
  6
CONTINUOUS
 62
     3
 10
1612.0
 20
1474.9
 30
2.4
 40
24.0
  1
９０
 50
0.0
 41
0.9
 51
0.0
  7
KANJI33
  0
TEXT
  8
1
  6
CONTINUOUS
 62
     3
 10
1853.5
 20
1625.9
 30
2.4
 40
24.0
  1
５０
 50
90.0
 41
0.9
 51
0.0
  7
KANJI33
  0
TEXT
  8
1
  6
CONTINUOUS
 62
     3
 10
1682.0
 20
861.8
 30
2.4
 40
24.0
  1
５０
 50
0.0
 41
0.9
 51
0.0
  7
KANJI33
  0
TEXT
  8
1
  6
CONTINUOUS
 62
     3
 10
1590.5
 20
1001.4
 30
2.4
 40
24.0
  1
１００
 50
0.0
 41
0.9
 51
0.0
  7
KANJI33
  0
TEXT
  8
0
  6
CONTINUOUS
 62
     2
 10
2078.8
 20
972.1
 30
2.4
 40
24.0
  1
２８０
 50
0.0
 41
0.9
 51
0.0
  7
KANJI33
  0
TEXT
  8
0
  6
CONTINUOUS
 62
     2
 10
2078.8
 20
1067.1
 30
2.4
 40
24.0
  1
２６０
 50
0.0
 41
0.9
 51
0.0
  7
KANJI33
  0
TEXT
  8
1
  6
CONTINUOUS
 62
     2
 10
2327.307300983
 20
1195.1
 30
2.4
 40
24.0
  1
１３５
 50
90.0
 41
0.9
 51
0.0
  7
KANJI33
  0
TEXT
  8
0
  6
CONTINUOUS
 62
     4
 10
250.8
 20
12.2
 30
0.8
 40
24.0
  1
ＦＤＮｏ．ＭＣ２０
 50
0.0
 41
0.9
 51
0.0
  7
KANJI62
  0
LINE
  8
0
  6
LTYPE2
 62
     2
 10
1937.3
 20
1303.4
 11
2276.8
 21
1303.4
  0
LINE
  8
0
  6
LTYPE1
 62
     2
 10
2022.8
 20
1280.9
 11
2022.8
 21
1325.9
  0
LINE
  8
0
  6
LTYPE1
 62
     2
 10
2022.8
 20
1325.9
 11
1972.8
 21
1325.9
  0
LINE
  8
0
  6
LTYPE1
 62
     2
 10
2022.8
 20
1280.9
 11
1972.8
 21
1280.9
  0
LINE
  8
0
  6
CONTINUOUS
 62
     1
 10
1982.8
 20
1180.4
 11
1982.8
 21
1257.525113365
  0
LINE
  8
1
  6
CONTINUOUS
 62
     2
 10
1964.8
 20
1325.9
 11
1864.0
 21
1325.9
  0
LINE
  8
1
  6
CONTINUOUS
 62
     2
 10
1964.8
 20
1280.9
 11
1864.0
 21
1280.9
  0
CIRCLE
  8
0
  6
CONTINUOUS
 62
     1
 10
2112.8
 20
1303.4
 40
47.5
  0
LINE
  8
0
  6
CONTINUOUS
 62
     1
 10
2087.8
 20
1262.9
 11
2087.8
 21
1343.9
  0
ARC
  8
0
  6
CONTINUOUS
 62
     1
 10
2112.8
 20
1303.4
 40
37.5
 50
47.202598162
 51
132.273689006
  0
LINE
  8
0
  6
CONTINUOUS
 62
     1
 10
2137.8
 20
1264.4
 11
2137.8
 21
1343.4
  0
ARC
  8
0
  6
CONTINUOUS
 62
     1
 10
2112.8
 20
1303.4
 40
37.5
 50
227.202598162
 51
312.220833136
  0
LINE
  8
0
  6
LTYPE1
 62
     2
 10
2137.8
 20
1280.9
 11
2087.8
 21
1280.9
  0
LINE
  8
0
  6
LTYPE1
 62
     2
 10
2137.8
 20
1325.9
 11
2087.8
 21
1325.9
  0
CIRCLE
  8
0
  6
CONTINUOUS
 62
     1
 10
2112.8
 20
1303.4
 40
47.5
  0
LINE
  8
0
  6
LTYPE1
 62
     2
 10
2022.8
 20
1325.9
 11
1972.8
 21
1325.9
  0
LINE
  8
0
  6
LTYPE1
 62
     2
 10
2022.8
 20
1280.9
 11
2022.8
 21
1325.9
  0
ARC
  8
0
  6
CONTINUOUS
 62
     1
 10
2050.634520095
 20
1405.525917906
 40
3.0
 50
325.0
 51
55.0
  0
LINE
  8
0
  6
CONTINUOUS
 62
     1
 10
2014.264679345
 20
1434.65467833
 11
2052.355249404
 21
1407.983374039
  0
ARC
  8
0
  6
CONTINUOUS
 62
     1
 10
2013.691102908
 20
1433.835526285
 40
1.0
 50
55.0
 51
145.0
  0
ARC
  8
0
  6
CONTINUOUS
 62
     1
 10
2011.151221555
 20
1431.951646589
 40
1.0
 50
55.0
 51
145.0
  0
ARC
  8
0
  6
CONTINUOUS
 62
     1
 10
1995.571182206
 20
1326.887321655
 40
3.0
 50
235.0
 51
325.0
  0
LINE
  8
0
  6
CONTINUOUS
 62
     1
 10
1955.759882837
 20
1351.101169812
 11
1993.850452896
 21
1324.429865522
  0
ARC
  8
0
  6
CONTINUOUS
 62
     1
 10
1956.333459273
 20
1351.920321856
 40
1.0
 50
145.0
 51
235.0
  0
LINE
  8
0
  6
CONTINUOUS
 62
     1
 10
1959.855643058
 20
1348.23328763
 11
2018.360439566
 21
1431.786796148
  0
LINE
  8
0
  6
CONTINUOUS
 62
     1
 10
1961.084371125
 20
1347.372922976
 11
2019.589167633
 21
1430.926431493
  0
LINE
  8
0
  6
CONTINUOUS
 62
     1
 10
2053.091976228
 20
1403.805188597
 11
1998.028638338
 21
1325.166592346
  0
LINE
  8
0
  6
CONTINUOUS
 62
     1
 10
1955.514307229
 20
1352.493898293
 11
2012.871950864
 21
1434.409102722
  0
LINE
  8
0
  6
LTYPE4
 62
     2
 10
1954.532174803
 20
1359.285467765
 11
1969.850318031
 21
1348.559588405
  0
LINE
  8
0
  6
LTYPE4
 62
     2
 10
2006.154054074
 20
1433.009151751
 11
2021.472197302
 21
1422.283272391
  0
LINE
  8
0
  6
LTYPE2
 62
     2
 10
2119.458322994
 20
1298.737792048
 11
1976.458322994
 21
1398.867470012
  0
LINE
  8
6
  6
CONTINUOUS
 62
     2
 10
1960.8
 20
1325.9
 11
1904.8
 21
1325.9
  0
LINE
  8
0
  6
LTYPE2
 62
     2
 10
1992.848183048
 20
1363.097752135
 11
2016.192744008
 21
1396.437240338
  0
CIRCLE
  8
0
  6
CONTINUOUS
 62
     2
 10
2004.262354132
 20
1379.398877817
 40
10.4775
  0
CIRCLE
  8
0
  6
CONTINUOUS
 62
     2
 10
2004.262354132
 20
1379.398877817
 40
9.3155
  0
LINE
  8
0
  6
CONTINUOUS
 62
     1
 10
1972.8
 20
1258.4
 11
1972.8
 21
1339.169551323
  0
CIRCLE
  8
0
  6
CONTINUOUS
 62
     1
 10
2112.8
 20
1303.4
 40
70.0
  0
LINE
  8
0
  6
CONTINUOUS
 62
     1
 10
1972.8
 20
1258.4
 11
1972.8
 21
1339.169551323
  0
LINE
  8
0
  6
CONTINUOUS
 62
     2
 10
835.6
 20
1379.0
 11
840.6
 21
1378.1
  0
LINE
  8
0
  6
CONTINUOUS
 62
     1
 10
620.0
 20
1108.4
 11
620.0
 21
1668.4
  0
LINE
  8
0
  6
CONTINUOUS
 62
     1
 10
620.0
 20
1668.4
 11
570.0
 21
1668.4
  0
LINE
  8
0
  6
CONTINUOUS
 62
     1
 10
482.0
 20
1108.4
 11
482.0
 21
1593.4
  0
LINE
  8
0
  6
CONTINUOUS
 62
     1
 10
465.0
 20
1108.4
 11
465.0
 21
1593.4
  0
LINE
  8
0
  6
CONTINUOUS
 62
     1
 10
587.0
 20
1533.4
 11
516.0
 21
1533.4
  0
LINE
  8
0
  6
CONTINUOUS
 62
     1
 10
587.0
 20
1533.4
 11
587.0
 21
1413.4
  0
LINE
  8
0
  6
CONTINUOUS
 62
     1
 10
587.0
 20
1413.4
 11
516.0
 21
1413.4
  0
LINE
  8
0
  6
CONTINUOUS
 62
     1
 10
516.0
 20
1413.4
 11
516.0
 21
1533.4
  0
LINE
  8
0
  6
LTYPE2
 62
     2
 10
592.0
 20
1423.4
 11
568.2
 21
1423.4
  0
LINE
  8
0
  6
LTYPE2
 62
     2
 10
538.2
 20
1523.4
 11
511.2
 21
1523.4
  0
LINE
  8
0
  6
LTYPE2
 62
     2
 10
592.2
 20
1523.4
 11
564.2
 21
1523.4
  0
LINE
  8
0
  6
LTYPE2
 62
     2
 10
577.0
 20
1435.2
 11
577.0
 21
1413.4
  0
LINE
  8
0
  6
LTYPE2
 62
     2
 10
577.0
 20
1533.4
 11
577.0
 21
1511.2
  0
LINE
  8
0
  6
LTYPE2
 62
     2
 10
526.0
 20
1512.2
 11
526.0
 21
1533.4
  0
LINE
  8
0
  6
LTYPE2
 62
     2
 10
526.0
 20
1413.4
 11
526.0
 21
1434.2
  0
LINE
  8
0
  6
LTYPE2
 62
     2
 10
538.2
 20
1423.4
 11
513.2
 21
1423.4
  0
CIRCLE
  8
0
  6
CONTINUOUS
 62
     1
 10
590.0
 20
1698.4
 40
17.5
  0
LINE
  8
0
  6
CONTINUOUS
 62
     1
 10
590.0
 20
1668.4
 11
605.0
 21
1668.4
  0
LINE
  8
0
  6
CONTINUOUS
 62
     1
 10
590.0
 20
1679.4
 11
603.751706485
 21
1679.4
  0
LINE
  8
0
  6
CONTINUOUS
 62
     1
 10
603.751706485
 20
1679.4
 11
590.0
 21
1680.9
  0
LINE
  8
0
  6
CONTINUOUS
 62
     1
 10
604.689625645
 20
1671.135028154
 11
603.751706485
 21
1679.4
  0
LINE
  8
0
  6
CONTINUOUS
 62
     1
 10
605.0
 20
1668.4
 11
604.689625645
 21
1671.135028154
  0
ARC
  8
0
  6
CONTINUOUS
 62
     1
 10
606.297773229
 20
1671.327087564
 40
1.6
 50
120.593314844
 51
186.768821444
  0
ARC
  8
0
  6
CONTINUOUS
 62
     1
 10
590.0
 20
1698.4
 40
30.0
 50
301.047754584
 51
0.0
  0
LINE
  8
0
  6
CONTINUOUS
 62
     1
 10
590.0
 20
1668.4
 11
575.0
 21
1668.4
  0
LINE
  8
0
  6
CONTINUOUS
 62
     1
 10
590.0
 20
1679.4
 11
576.248293515
 21
1679.4
  0
LINE
  8
0
  6
CONTINUOUS
 62
     1
 10
576.248293515
 20
1679.4
 11
590.0
 21
1680.9
  0
LINE
  8
0
  6
CONTINUOUS
 62
     1
 10
575.310374355
 20
1671.135028154
 11
576.248293515
 21
1679.4
  0
LINE
  8
0
  6
CONTINUOUS
 62
     1
 10
575.0
 20
1668.4
 11
575.310374355
 21
1671.135028154
  0
ARC
  8
0
  6
CONTINUOUS
 62
     1
 10
573.702226771
 20
1671.327087564
 40
1.6
 50
353.231178556
 51
59.406685156
  0
ARC
  8
0
  6
CONTINUOUS
 62
     1
 10
590.0
 20
1698.4
 40
30.0
 50
0.0
 51
239.0231413
  0
LINE
  8
0
  6
LTYPE2
 62
     2
 10
590.0
 20
1620.2
 11
590.0
 21
1735.2
  0
LINE
  8
0
  6
LTYPE2
 62
     2
 10
628.0
 20
1698.4
 11
554.0
 21
1698.4
  0
LINE
  8
0
  6
CONTINUOUS
 62
     1
 10
597.0
 20
1599.4
 11
597.0
 21
1668.4
  0
ARC
  8
0
  6
CONTINUOUS
 62
     1
 10
591.0
 20
1599.4
 40
6.0
 50
270.0
 51
0.0
  0
LINE
  8
0
  6
CONTINUOUS
 62
     1
 10
591.0
 20
1593.4
 11
465.0
 21
1593.4
  0
ARC
  8
0
  6
CONTINUOUS
 62
     1
 10
564.0
 20
1599.4
 40
6.0
 50
270.0
 51
0.0
  0
LINE
  8
0
  6
CONTINUOUS
 62
     1
 10
570.0
 20
1599.4
 11
570.0
 21
1668.4
  0
LINE
  8
0
  6
CONTINUOUS
 62
     1
 10
620.0
 20
1409.4
 11
620.0
 21
1659.4
  0
LINE
  8
0
  6
CONTINUOUS
 62
     1
 10
415.0
 20
1514.4
 11
415.0
 21
1554.4
  0
LINE
  8
0
  6
CONTINUOUS
 62
     1
 10
457.0
 20
1495.4
 11
457.0
 21
1573.4
  0
LINE
  8
0
  6
CONTINUOUS
 62
     1
 10
457.0
 20
1554.4
 11
415.0
 21
1554.4
  0
LINE
  8
0
  6
CONTINUOUS
 62
     1
 10
457.0
 20
1514.4
 11
415.0
 21
1514.4
  0
LINE
  8
0
  6
CONTINUOUS
 62
     1
 10
465.0
 20
1573.4
 11
457.0
 21
1573.4
  0
LINE
  8
0
  6
CONTINUOUS
 62
     1
 10
465.0
 20
1495.4
 11
457.0
 21
1495.4
  0
LINE
  8
0
  6
CONTINUOUS
 62
     1
 10
465.0
 20
1493.4
 11
459.0
 21
1493.4
  0
LINE
  8
0
  6
CONTINUOUS
 62
     1
 10
459.0
 20
1427.4
 11
459.0
 21
1493.4
  0
LINE
  8
0
  6
CONTINUOUS
 62
     1
 10
465.0
 20
1427.4
 11
459.0
 21
1427.4
  0
LINE
  8
0
  6
LTYPE2
 62
     2
 10
491.0
 20
1464.4
 11
452.6
 21
1464.4
  0
LINE
  8
0
  6
CONTINUOUS
 62
     2
 10
620.0
 20
1680.4
 11
620.0
 21
1809.9
  0
LINE
  8
0
  6
CONTINUOUS
 62
     2
 10
620.0
 20
1797.9
 11
600.681483474
 21
1803.076380902
  0
LINE
  8
0
  6
CONTINUOUS
 62
     2
 10
620.0
 20
1797.9
 11
600.681483474
 21
1792.723619098
  0
LINE
  8
0
  6
CONTINUOUS
 62
     2
 10
620.0
 20
1797.9
 11
415.0
 21
1797.9
  0
LINE
  8
0
  6
CONTINUOUS
 62
     2
 10
415.0
 20
1797.9
 11
434.318516526
 21
1792.723619098
  0
LINE
  8
0
  6
CONTINUOUS
 62
     2
 10
415.0
 20
1797.9
 11
434.318516526
 21
1803.076380902
  0
LINE
  8
0
  6
CONTINUOUS
 62
     2
 10
415.0
 20
1566.4
 11
415.0
 21
1809.9
  0
LINE
  8
0
  6
CONTINUOUS
 62
     2
 10
432.0
 20
1556.4
 11
424.660604836
 21
1575.004657444
  0
LINE
  8
0
  6
CONTINUOUS
 62
     2
 10
432.0
 20
1556.4
 11
416.341568617
 21
1568.842408394
  0
LINE
  8
0
  6
CONTINUOUS
 62
     2
 10
432.0
 20
1556.4
 11
332.0
 21
1691.4
  0
LINE
  8
0
  6
CONTINUOUS
 62
     2
 10
332.0
 20
1691.4
 11
190.4
 21
1691.4
  0
TEXT
  8
0
  6
CONTINUOUS
 62
     2
 10
190.4
 20
1699.4
 30
2.4
 40
24.0
  1
手動軸カバー
 50
0.0
 41
0.9
 51
0.0
  7
KANJI33
  0
LINE
  8
0
  6
CONTINUOUS
 62
     1
 10
620.0
 20
1407.55
 11
620.0
 21
1659.4
  0
LINE
  8
0
  6
CONTINUOUS
 62
     1
 10
620.0
 20
1409.4
 11
620.0
 21
1659.4
  0
LINE
  8
1
  6
CONTINUOUS
 62
     2
 10
1002.6
 20
1538.9
 11
1014.80839642
 21
1554.741561061
  0
LINE
  8
1
  6
CONTINUOUS
 62
     2
 10
1002.6
 20
1538.9
 11
1005.252000908
 21
1558.723392525
  0
LINE
  8
1
  6
CONTINUOUS
 62
     2
 10
1002.6
 20
1538.9
 11
1045.6
 21
1642.1
  0
TEXT
  8
0
  6
CONTINUOUS
 62
     2
 10
1045.6
 20
1650.1
 30
0.0
 40
24.0
  1
ブレーキ開放装置
 50
0.0
 41
0.9
 51
0.0
  7
KANJI52
  0
LINE
  8
0
  6
CONTINUOUS
 62
     2
 10
1045.6
 20
1642.1
 11
1226.6
 21
1642.1
  0
LINE
  8
1
  6
CONTINUOUS
 62
     2
 10
620.0
 20
1788.9
 11
620.0
 21
1813.9
  0
LINE
  8
0
  6
CONTINUOUS
 62
     1
 10
628.0
 20
1644.4
 11
620.0
 21
1644.4
  0
LINE
  8
0
  6
CONTINUOUS
 62
     1
 10
640.0
 20
1434.4
 11
640.0
 21
1634.4
  0
LINE
  8
0
  6
CONTINUOUS
 62
     1
 10
628.0
 20
1424.4
 11
628.0
 21
1644.4
  0
LINE
  8
0
  6
CONTINUOUS
 62
     1
 10
628.0
 20
1424.4
 11
620.0
 21
1424.4
  0
LINE
  8
0
  6
CONTINUOUS
 62
     1
 10
642.5
 20
1485.964
 11
648.114359354
 21
1485.964
  0
LINE
  8
0
  6
CONTINUOUS
 62
     1
 10
649.5
 20
1483.564
 11
648.114359354
 21
1485.964
  0
LINE
  8
0
  6
CONTINUOUS
 62
     1
 10
649.5
 20
1476.164
 11
649.5
 21
1483.564
  0
LINE
  8
0
  6
CONTINUOUS
 62
     1
 10
642.5
 20
1481.064
 11
648.114359354
 21
1481.064
  0
ARC
  8
0
  6
CONTINUOUS
 62
     1
 10
640.1433172
 20
1476.164
 40
9.3566828
 50
328.419912243
 51
31.580087757
  0
LINE
  8
0
  6
CONTINUOUS
 62
     1
 10
649.5
 20
1483.564
 11
648.114359354
 21
1485.964
  0
ARC
  8
0
  6
CONTINUOUS
 62
     1
 10
646.642116168
 20
1483.514
 40
2.858321186
 50
301.002313915
 51
2.989498403
  0
LINE
  8
0
  6
CONTINUOUS
 62
     1
 10
642.5
 20
1466.364
 11
648.114359354
 21
1466.364
  0
LINE
  8
0
  6
CONTINUOUS
 62
     1
 10
649.5
 20
1468.764
 11
648.114359354
 21
1466.364
  0
LINE
  8
0
  6
CONTINUOUS
 62
     1
 10
649.5
 20
1476.164
 11
649.5
 21
1468.764
  0
LINE
  8
0
  6
CONTINUOUS
 62
     1
 10
642.5
 20
1471.264
 11
648.114359354
 21
1471.264
  0
ARC
  8
0
  6
CONTINUOUS
 62
     1
 10
646.642116168
 20
1468.814
 40
2.858321186
 50
357.010501597
 51
58.997686085
  0
LINE
  8
0
  6
CONTINUOUS
 62
     1
 10
642.5
 20
1476.164
 11
642.5
 21
1485.964
  0
LINE
  8
0
  6
CONTINUOUS
 62
     1
 10
642.499999996
 20
1476.164
 11
640.0
 21
1478.663999996
  0
LINE
  8
0
  6
CONTINUOUS
 62
     1
 10
640.0
 20
1485.364
 11
642.5
 21
1485.364
  0
LINE
  8
0
  6
CONTINUOUS
 62
     1
 10
642.5
 20
1476.164
 11
642.5
 21
1466.364
  0
LINE
  8
0
  6
CONTINUOUS
 62
     1
 10
640.0
 20
1466.964
 11
642.5
 21
1466.964
  0
LINE
  8
0
  6
CONTINUOUS
 62
     1
 10
640.0
 20
1476.164
 11
642.499999996
 21
1473.664000004
  0
LINE
  8
0
  6
CONTINUOUS
 62
     1
 10
642.5
 20
1602.636
 11
648.114359354
 21
1602.636
  0
LINE
  8
0
  6
CONTINUOUS
 62
     1
 10
649.5
 20
1600.236
 11
648.114359354
 21
1602.636
  0
LINE
  8
0
  6
CONTINUOUS
 62
     1
 10
649.5
 20
1592.836
 11
649.5
 21
1600.236
  0
LINE
  8
0
  6
CONTINUOUS
 62
     1
 10
642.5
 20
1597.736
 11
648.114359354
 21
1597.736
  0
ARC
  8
0
  6
CONTINUOUS
 62
     1
 10
640.1433172
 20
1592.836
 40
9.3566828
 50
328.419912243
 51
31.580087757
  0
ARC
  8
0
  6
CONTINUOUS
 62
     1
 10
646.642116168
 20
1600.186
 40
2.858321186
 50
301.002313915
 51
2.989498403
  0
LINE
  8
0
  6
CONTINUOUS
 62
     1
 10
642.5
 20
1583.036
 11
648.114359354
 21
1583.036
  0
LINE
  8
0
  6
CONTINUOUS
 62
     1
 10
649.5
 20
1585.436
 11
648.114359354
 21
1583.036
  0
LINE
  8
0
  6
CONTINUOUS
 62
     1
 10
649.5
 20
1592.836
 11
649.5
 21
1585.436
  0
LINE
  8
0
  6
CONTINUOUS
 62
     1
 10
642.5
 20
1587.936
 11
648.114359354
 21
1587.936
  0
LINE
  8
0
  6
CONTINUOUS
 62
     1
 10
649.5
 20
1585.436
 11
648.114359354
 21
1583.036
  0
ARC
  8
0
  6
CONTINUOUS
 62
     1
 10
646.642116168
 20
1585.486
 40
2.858321186
 50
357.010501597
 51
58.997686085
  0
LINE
  8
0
  6
CONTINUOUS
 62
     1
 10
642.5
 20
1592.836
 11
642.5
 21
1602.636
  0
LINE
  8
0
  6
CONTINUOUS
 62
     1
 10
642.5
 20
1592.836
 11
642.5
 21
1583.036
  0
LINE
  8
0
  6
CONTINUOUS
 62
     1
 10
640.0
 20
1602.036
 11
642.5
 21
1602.036
  0
LINE
  8
0
  6
CONTINUOUS
 62
     1
 10
640.0
 20
1592.836
 11
642.499999996
 21
1595.335999996
  0
LINE
  8
0
  6
CONTINUOUS
 62
     1
 10
642.499999996
 20
1592.836
 11
640.0
 21
1590.336000004
  0
LINE
  8
0
  6
CONTINUOUS
 62
     1
 10
640.0
 20
1583.636
 11
642.5
 21
1583.636
  0
LINE
  8
0
  6
CONTINUOUS
 62
     1
 10
640.0
 20
1634.4
 11
628.0
 21
1634.4
  0
LINE
  8
0
  6
CONTINUOUS
 62
     1
 10
640.0
 20
1434.4
 11
628.0
 21
1434.4
  0
LINE
  8
0
  6
LTYPE2
 62
     2
 10
1034.6
 20
1534.4
 11
402.5
 21
1534.4
  0
LINE
  8
0
  6
CONTINUOUS
 62
     1
 10
850.0
 20
1594.5
 11
703.0
 21
1594.5
  0
LINE
  8
0
  6
CONTINUOUS
 62
     1
 10
850.0
 20
1574.5
 11
703.0
 21
1574.5
  0
LINE
  8
0
  6
CONTINUOUS
 62
     1
 10
850.0
 20
1554.5
 11
703.0
 21
1554.5
  0
LINE
  8
0
  6
CONTINUOUS
 62
     1
 10
850.0
 20
1514.5
 11
703.0
 21
1514.5
  0
LINE
  8
0
  6
CONTINUOUS
 62
     1
 10
850.0
 20
1494.5
 11
703.0
 21
1494.5
  0
LINE
  8
0
  6
CONTINUOUS
 62
     1
 10
850.0
 20
1474.5
 11
703.0
 21
1474.5
  0
LINE
  8
0
  6
CONTINUOUS
 62
     1
 10
850.0
 20
1454.5
 11
703.0
 21
1454.5
  0
LINE
  8
0
  6
CONTINUOUS
 62
     1
 10
984.741517274
 20
1550.448101266
 11
984.741517274
 21
1481.448101266
  0
POINT
  8
0
  6
CONTINUOUS
 62
     1
 10
984.741517274
 20
1481.448101266
  0
LINE
  8
0
  6
CONTINUOUS
 62
     1
 10
984.741517274
 20
1481.448101266
 11
989.741517274
 21
1481.448101266
  0
POINT
  8
0
  6
CONTINUOUS
 62
     1
 10
989.741517274
 20
1481.448101266
  0
LINE
  8
0
  6
CONTINUOUS
 62
     1
 10
989.741517274
 20
1481.448101266
 11
989.741517274
 21
1550.448101266
  0
LINE
  8
0
  6
CONTINUOUS
 62
     1
 10
984.741517274
 20
1550.448101266
 11
994.541517274
 21
1550.448101266
  0
LINE
  8
0
  6
CONTINUOUS
 62
     1
 10
994.541517274
 20
1518.551898734
 11
994.541517274
 21
1550.448101266
  0
LINE
  8
0
  6
CONTINUOUS
 62
     1
 10
989.741517274
 20
1518.551898734
 11
994.541517274
 21
1518.551898734
  0
LINE
  8
0
  6
CONTINUOUS
 62
     1
 10
984.741517274
 20
1538.7
 11
978.041517274
 21
1538.7
  0
LINE
  8
0
  6
CONTINUOUS
 62
     1
 10
984.741517274
 20
1530.3
 11
978.041517274
 21
1530.3
  0
LINE
  8
0
  6
CONTINUOUS
 62
     1
 10
989.741517274
 20
1494.25
 11
995.141517274
 21
1494.25
  0
POINT
  8
0
  6
CONTINUOUS
 62
     1
 10
995.141517274
 20
1494.25
  0
LINE
  8
0
  6
CONTINUOUS
 62
     1
 10
995.141517274
 20
1494.25
 11
995.141517274
 21
1485.45
  0
POINT
  8
0
  6
CONTINUOUS
 62
     1
 10
995.141517274
 20
1485.45
  0
LINE
  8
0
  6
CONTINUOUS
 62
     1
 10
995.141517274
 20
1485.45
 11
989.841517274
 21
1485.45
  0
LINE
  8
0
  6
CONTINUOUS
 62
     1
 10
984.741517274
 20
1491.45
 11
975.841517274
 21
1491.45
  0
LINE
  8
0
  6
CONTINUOUS
 62
     1
 10
984.741517274
 20
1488.35
 11
975.541517274
 21
1488.35
  0
LINE
  8
0
  6
CONTINUOUS
 62
     1
 10
994.541517274
 20
1547.9
 11
998.0
 21
1547.9
  0
LINE
  8
0
  6
CONTINUOUS
 62
     1
 10
998.0
 20
1547.9
 11
998.0
 21
1543.3
  0
LINE
  8
0
  6
CONTINUOUS
 62
     1
 10
994.541517274
 20
1543.3
 11
998.0
 21
1543.3
  0
LINE
  8
0
  6
CONTINUOUS
 62
     1
 10
994.541517274
 20
1521.1
 11
998.0
 21
1521.1
  0
LINE
  8
0
  6
CONTINUOUS
 62
     1
 10
998.0
 20
1521.1
 11
998.0
 21
1525.7
  0
LINE
  8
0
  6
CONTINUOUS
 62
     1
 10
994.541517274
 20
1525.7
 11
998.0
 21
1525.7
  0
LINE
  8
0
  6
CONTINUOUS
 62
     1
 10
994.541517274
 20
1532.2
 11
998.0
 21
1532.2
  0
LINE
  8
0
  6
CONTINUOUS
 62
     1
 10
998.0
 20
1532.2
 11
998.0
 21
1536.8
  0
LINE
  8
0
  6
CONTINUOUS
 62
     1
 10
994.541517274
 20
1536.8
 11
998.0
 21
1536.8
  0
LINE
  8
0
  6
LTYPE2
 62
     2
 10
970.841517274
 20
1489.95
 11
1000.841517274
 21
1489.95
  0
LINE
  8
0
  6
CONTINUOUS
 62
     1
 10
850.0
 20
1614.5
 11
703.0
 21
1614.5
  0
LINE
  8
0
  6
CONTINUOUS
 62
     1
 10
847.5
 20
1722.5
 11
699.5
 21
1648.5
  0
LINE
  8
0
  6
CONTINUOUS
 62
     1
 10
851.972135955
 20
1713.55572809
 11
703.972135955
 21
1639.55572809
  0
ARC
  8
0
  6
CONTINUOUS
 62
     1
 10
821.5
 20
1646.5
 40
10.0
 50
270.0
 51
0.0
  0
ARC
  8
0
  6
CONTINUOUS
 62
     1
 10
821.5
 20
1712.5
 40
10.0
 50
0.0
 51
90.0
  0
LINE
  8
0
  6
CONTINUOUS
 62
     1
 10
821.5
 20
1722.5
 11
731.5
 21
1722.5
  0
ARC
  8
0
  6
CONTINUOUS
 62
     1
 10
731.5
 20
1712.5
 40
10.0
 50
90.0
 51
180.0
  0
LINE
  8
0
  6
CONTINUOUS
 62
     1
 10
821.5
 20
1636.5
 11
731.5
 21
1636.5
  0
ARC
  8
0
  6
CONTINUOUS
 62
     1
 10
731.5
 20
1646.5
 40
10.0
 50
180.0
 51
270.0
  0
LINE
  8
0
  6
CONTINUOUS
 62
     1
 10
699.5
 20
1648.5
 11
703.972135955
 21
1639.55572809
  0
LINE
  8
0
  6
CONTINUOUS
 62
     1
 10
721.5
 20
1659.41572809
 11
721.5
 21
1712.5
  0
LINE
  8
0
  6
CONTINUOUS
 62
     1
 10
721.5
 20
1646.5
 11
721.5
 21
1648.41572809
  0
LINE
  8
0
  6
CONTINUOUS
 62
     1
 10
831.5
 20
1646.5
 11
831.5
 21
1702.41572809
  0
LINE
  8
0
  6
CONTINUOUS
 62
     1
 10
847.712135955
 20
1723.29572809
 11
852.512135955
 21
1714.09572809
  0
LINE
  8
0
  6
LTYPE2
 62
     2
 10
776.5
 20
1623.25
 11
776.5
 21
1732.3
  0
LINE
  8
0
  6
CONTINUOUS
 62
     1
 10
860.0
 20
1634.5
 11
955.814388593
 21
1634.5
  0
ARC
  8
0
  6
CONTINUOUS
 62
     1
 10
953.814388593
 20
1619.5
 40
15.0
 50
10.945397096
 51
90.0
  0
ARC
  8
0
  6
CONTINUOUS
 62
     1
 10
953.923513917
 20
1622.193940371
 40
15.0
 50
10.945397096
 51
90.0
  0
LINE
  8
0
  6
CONTINUOUS
 62
     1
 10
860.0
 20
1637.0
 11
955.814388593
 21
1637.0
  0
ARC
  8
0
  6
CONTINUOUS
 62
     1
 10
568.0
 20
1534.5
 40
410.0
 50
347.629566941
 51
12.370433059
  0
LINE
  8
0
  6
CONTINUOUS
 62
     1
 10
860.0
 20
1625.2
 11
693.0
 21
1625.2
  0
LINE
  8
0
  6
CONTINUOUS
 62
     1
 10
693.0
 20
1443.8
 11
693.0
 21
1625.2
  0
LINE
  8
0
  6
CONTINUOUS
 62
     1
 10
811.4
 20
1636.5
 11
811.4
 21
1625.2
  0
LINE
  8
0
  6
CONTINUOUS
 62
     1
 10
741.6
 20
1636.5
 11
741.6
 21
1625.2
  0
ARC
  8
0
  6
CONTINUOUS
 62
     1
 10
967.874980463
 20
1544.5
 40
10.0
 50
1.432543738
 51
90.0
  0
ARC
  8
0
  6
CONTINUOUS
 62
     1
 10
967.874980463
 20
1524.5
 40
10.0
 50
270.0
 51
358.567456262
  0
LINE
  8
0
  6
CONTINUOUS
 62
     1
 10
967.874999151
 20
1554.5
 11
860.0
 21
1554.5
  0
LINE
  8
0
  6
CONTINUOUS
 62
     1
 10
860.0
 20
1514.5
 11
968.374999151
 21
1514.5
  0
LINE
  8
0
  6
CONTINUOUS
 62
     1
 10
860.0
 20
1434.3
 11
955.814388593
 21
1434.3
  0
ARC
  8
0
  6
CONTINUOUS
 62
     1
 10
953.814388593
 20
1449.3
 40
15.0
 50
270.0
 51
349.054602904
  0
ARC
  8
0
  6
CONTINUOUS
 62
     1
 10
953.923513917
 20
1446.606059629
 40
15.0
 50
270.0
 51
349.054602904
  0
ARC
  8
0
  6
CONTINUOUS
 62
     1
 10
568.0
 20
1534.3
 40
410.0
 50
347.629566941
 51
12.370433059
  0
LINE
  8
0
  6
CONTINUOUS
 62
     1
 10
860.0
 20
1443.6
 11
693.0
 21
1443.6
  0
LINE
  8
0
  6
CONTINUOUS
 62
     1
 10
860.0
 20
1431.8
 11
860.0
 21
1637.0
  0
LINE
  8
0
  6
CONTINUOUS
 62
     1
 10
860.0
 20
1431.8
 11
955.814388593
 21
1431.8
  0
LINE
  8
0
  6
CONTINUOUS
 62
     1
 10
640.0
 20
1617.17572809
 11
692.672135955
 21
1617.17572809
  0
LINE
  8
0
  6
CONTINUOUS
 62
     1
 10
640.0
 20
1451.82427191
 11
692.672135955
 21
1451.82427191
  0
LINE
  8
1
  6
CONTINUOUS
 62
     2
 10
620.0
 20
1794.7
 11
620.0
 21
1813.9
  0
LINE
  8
1
  6
CONTINUOUS
 62
     2
 10
620.0
 20
1797.9
 11
639.318516526
 21
1792.723619098
  0
LINE
  8
1
  6
CONTINUOUS
 62
     2
 10
620.0
 20
1797.9
 11
639.318516526
 21
1803.076380902
  0
LINE
  8
1
  6
CONTINUOUS
 62
     2
 10
620.0
 20
1797.9
 11
998.0
 21
1797.9
  0
LINE
  8
1
  6
CONTINUOUS
 62
     2
 10
998.0
 20
1797.9
 11
978.681483474
 21
1803.076380902
  0
LINE
  8
1
  6
CONTINUOUS
 62
     2
 10
998.0
 20
1797.9
 11
978.681483474
 21
1792.723619098
  0
LINE
  8
1
  6
CONTINUOUS
 62
     2
 10
998.0
 20
1555.9
 11
998.0
 21
1813.9
  0
TEXT
  8
1
  6
CONTINUOUS
 62
     3
 10
768.2
 20
1805.9
 30
2.4
 40
24.0
  1
３７８
 50
0.0
 41
0.9
 51
0.0
  7
KANJI33
  0
TEXT
  8
0
  6
CONTINUOUS
 62
     2
 10
483.5
 20
1805.9
 30
2.4
 40
24.0
  1
２０５
 50
0.0
 41
0.9
 51
0.0
  7
KANJI33
  0
TEXT
  8
1
  6
CONTINUOUS
 62
     3
 10
964.5
 20
1855.5
 30
2.4
 40
24.0
  1
ＰＦ３／４
 50
0.0
 41
0.9
 51
0.0
  7
KANJI33
  0
LINE
  8
0
  6
LTYPE5
 62
     2
 10
1965.8
 20
1534.4
 11
2270.8
 21
1534.4
  0
ARC
  8
0
  6
CONTINUOUS
 62
     1
 10
2112.8
 20
1534.4
 40
125.0
 50
280.557968545
 51
0.0
  0
CIRCLE
  8
0
  6
CONTINUOUS
 62
     1
 10
2112.8
 20
1534.4
 40
20.0
  0
ARC
  8
0
  6
CONTINUOUS
 62
     1
 10
2027.8
 20
1534.4
 40
20.0
 50
90.0
 51
270.0
  0
ARC
  8
0
  6
CONTINUOUS
 62
     1
 10
2155.3
 20
1460.787840678
 40
20.0
 50
210.0
 51
30.0
  0
ARC
  8
0
  6
CONTINUOUS
 62
     1
 10
2155.3
 20
1608.012159322
 40
20.0
 50
330.0
 51
150.0
  0
LINE
  8
0
  6
CONTINUOUS
 62
     1
 10
2027.8
 20
1554.4
 11
2101.252994616
 21
1554.4
  0
LINE
  8
0
  6
CONTINUOUS
 62
     1
 10
2137.979491924
 20
1618.012159322
 11
2101.252994616
 21
1554.4
  0
LINE
  8
0
  6
CONTINUOUS
 62
     1
 10
2027.8
 20
1514.4
 11
2101.252994616
 21
1514.4
  0
LINE
  8
0
  6
CONTINUOUS
 62
     1
 10
2137.979491924
 20
1450.787840678
 11
2101.252994616
 21
1514.4
  0
CIRCLE
  8
0
  6
CONTINUOUS
 62
     1
 10
2172.8
 20
1534.4
 40
10.0
  0
LINE
  8
0
  6
CONTINUOUS
 62
     2
 10
2172.8
 20
1549.4
 11
2172.8
 21
1519.4
  0
LINE
  8
0
  6
CONTINUOUS
 62
     1
 10
2116.133333333
 20
1514.679734056
 11
2174.466666667
 21
1524.539867028
  0
LINE
  8
0
  6
CONTINUOUS
 62
     1
 10
2116.133333333
 20
1554.120265944
 11
2174.466666667
 21
1544.260132972
  0
LINE
  8
0
  6
CONTINUOUS
 62
     1
 10
2172.620508076
 20
1598.012159322
 11
2144.510211838
 21
1549.323698023
  0
LINE
  8
0
  6
CONTINUOUS
 62
     1
 10
2172.620508076
 20
1470.787840678
 11
2144.510211838
 21
1519.476301977
  0
ARC
  8
0
  6
CONTINUOUS
 62
     1
 10
2188.813978978
 20
1610.413978978
 40
7.75
 50
294.214141675
 51
155.785858325
  0
LINE
  8
0
  6
CONTINUOUS
 62
     2
 10
2182.8
 20
1604.4
 11
2195.745832412
 21
1617.345832412
  0
ARC
  8
0
  6
CONTINUOUS
 62
     2
 10
2112.8
 20
1534.4
 40
107.5
 50
38.280925788
 51
51.325228591
  0
ARC
  8
0
  6
CONTINUOUS
 62
     1
 10
2188.813978978
 20
1458.386021022
 40
7.75
 50
204.214141675
 51
65.785858325
  0
LINE
  8
0
  6
CONTINUOUS
 62
     2
 10
2182.8
 20
1464.4
 11
2195.745832412
 21
1451.454167588
  0
ARC
  8
0
  6
CONTINUOUS
 62
     2
 10
2112.8
 20
1534.4
 40
107.5
 50
308.674771409
 51
321.719074212
  0
ARC
  8
0
  6
CONTINUOUS
 62
     1
 10
2036.786021022
 20
1610.413978978
 40
7.75
 50
24.214141675
 51
245.785858325
  0
LINE
  8
0
  6
CONTINUOUS
 62
     2
 10
2042.8
 20
1604.4
 11
2029.854167588
 21
1617.345832412
  0
ARC
  8
0
  6
CONTINUOUS
 62
     2
 10
2112.8
 20
1534.4
 40
107.5
 50
128.674771409
 51
141.719074212
  0
ARC
  8
0
  6
CONTINUOUS
 62
     1
 10
2036.786021022
 20
1458.386021022
 40
7.75
 50
114.214141675
 51
335.785858325
  0
LINE
  8
0
  6
CONTINUOUS
 62
     2
 10
2042.8
 20
1464.4
 11
2029.854167588
 21
1451.454167588
  0
ARC
  8
0
  6
CONTINUOUS
 62
     2
 10
2112.8
 20
1534.4
 40
107.5
 50
218.280925788
 51
231.325228591
  0
ARC
  8
0
  6
CONTINUOUS
 62
     1
 10
2112.8
 20
1534.4
 40
105.0
 50
272.980462591
 51
0.0
  0
ARC
  8
0
  6
CONTINUOUS
 62
     1
 10
2112.8
 20
1534.4
 40
105.0
 50
0.0
 51
226.520053773
  0
CIRCLE
  8
0
  6
CONTINUOUS
 62
     1
 10
2112.8
 20
1549.4
 40
4.0
  0
CIRCLE
  8
0
  6
CONTINUOUS
 62
     1
 10
2112.8
 20
1534.4
 40
4.0
  0
CIRCLE
  8
0
  6
CONTINUOUS
 62
     1
 10
2097.8
 20
1534.4
 40
4.0
  0
CIRCLE
  8
0
  6
CONTINUOUS
 62
     1
 10
2112.8
 20
1519.4
 40
4.0
  0
CIRCLE
  8
0
  6
CONTINUOUS
 62
     1
 10
2127.8
 20
1534.4
 40
4.0
  0
ARC
  8
0
  6
CONTINUOUS
 62
     1
 10
2112.8
 20
1534.4
 40
105.0
 50
226.520053773
 51
272.980462591
  0
ARC
  8
0
  6
CONTINUOUS
 62
     1
 10
2112.8
 20
1534.4
 40
150.0
 50
109.471220634
 51
150.073565133
  0
ARC
  8
0
  6
CONTINUOUS
 62
     1
 10
2112.8
 20
1534.4
 40
150.0
 50
29.926434867
 51
70.528779366
  0
LINE
  8
0
  6
CONTINUOUS
 62
     1
 10
1982.8
 20
1543.4
 11
1975.2
 21
1543.4
  0
LINE
  8
0
  6
CONTINUOUS
 62
     1
 10
1975.2
 20
1423.4
 11
1975.2
 21
1543.4
  0
LINE
  8
0
  6
LTYPE2
 62
     2
 10
1997.4
 20
1533.4
 11
1970.4
 21
1533.4
  0
LINE
  8
0
  6
LTYPE2
 62
     2
 10
1997.4
 20
1433.4
 11
1972.4
 21
1433.4
  0
LINE
  8
0
  6
CONTINUOUS
 62
     1
 10
1982.8
 20
1423.4
 11
1975.2
 21
1423.4
  0
LINE
  8
0
  6
CONTINUOUS
 62
     1
 10
2242.8
 20
1543.4
 11
2250.4
 21
1543.4
  0
LINE
  8
0
  6
CONTINUOUS
 62
     1
 10
2250.4
 20
1423.4
 11
2250.4
 21
1543.4
  0
LINE
  8
0
  6
LTYPE2
 62
     2
 10
2228.2
 20
1533.4
 11
2255.2
 21
1533.4
  0
LINE
  8
0
  6
LTYPE2
 62
     2
 10
2228.2
 20
1433.4
 11
2253.2
 21
1433.4
  0
LINE
  8
0
  6
CONTINUOUS
 62
     1
 10
2242.8
 20
1423.4
 11
2250.4
 21
1423.4
  0
TEXT
  8
0
  6
CONTINUOUS
 62
     2
 10
1896.307300983
 20
1039.4
 30
1.6
 40
24.0
  1
φ４５Ｈ１０深さ５０
 50
90.0
 41
0.9
 51
0.0
  7
KANJI63
  0
LINE
  8
0
  6
CONTINUOUS
 62
     2
 10
1904.307300983
 20
1361.8
 11
1904.307300983
 21
1037.8
  0
LINE
  8
1
  6
CONTINUOUS
 62
     2
 10
1999.6
 20
1379.3
 11
1987.765680048
 21
1395.422929984
  0
LINE
  8
1
  6
CONTINUOUS
 62
     2
 10
1999.6
 20
1379.3
 11
1981.289713293
 21
1387.345706974
  0
LINE
  8
1
  6
CONTINUOUS
 62
     2
 10
1999.6
 20
1379.3
 11
1919.9
 21
1443.2
  0
LINE
  8
1
  6
CONTINUOUS
 62
     2
 10
1919.9
 20
1443.2
 11
1802.3
 21
1443.2
  0
TEXT
  8
1
  6
CONTINUOUS
 62
     3
 10
1802.3
 20
1451.2
 30
2.4
 40
24.0
  1
ＰＦ１／２
 50
0.0
 41
0.9
 51
0.0
  7
KANJI33
  0
LINE
  8
1
  6
CONTINUOUS
 62
     2
 10
2333.707300983
 20
1303.4
 11
2351.307300983
 21
1303.4
  0
LINE
  8
1
  6
CONTINUOUS
 62
     2
 10
2335.307300983
 20
1303.4
 11
2340.483681885
 21
1322.718516526
  0
LINE
  8
1
  6
CONTINUOUS
 62
     2
 10
2335.307300983
 20
1303.4
 11
2330.130920081
 21
1322.718516526
  0
LINE
  8
1
  6
CONTINUOUS
 62
     2
 10
2335.307300983
 20
1303.4
 11
2335.307300983
 21
1534.4
  0
LINE
  8
1
  6
CONTINUOUS
 62
     2
 10
2335.307300983
 20
1534.4
 11
2330.130920081
 21
1515.081483474
  0
LINE
  8
1
  6
CONTINUOUS
 62
     2
 10
2335.307300983
 20
1534.4
 11
2340.483681885
 21
1515.081483474
  0
LINE
  8
1
  6
CONTINUOUS
 62
     2
 10
2275.107300983
 20
1534.4
 11
2351.307300983
 21
1534.4
  0
TEXT
  8
1
  6
CONTINUOUS
 62
     3
 10
2327.307300983
 20
1378.1
 30
2.4
 40
28.0
  1
２３１
 50
90.0
 41
0.914285714
 51
0.0
  7
KANJI45
  0
LINE
  8
1
  6
CONTINUOUS
 62
     2
 10
2325.807300983
 20
1534.4
 11
2351.307300983
 21
1534.4
  0
LINE
  8
1
  6
CONTINUOUS
 62
     2
 10
388.286427163
 20
1310.6
 11
318.686427163
 21
1310.6
  0
TEXT
  8
1
  6
CONTINUOUS
 62
     3
 10
318.686427163
 20
1318.6
 30
2.4
 40
24.0
  1
給脂口
 50
0.0
 41
0.9
 51
0.0
  7
KANJI33
  0
LINE
  8
1
  6
CONTINUOUS
 62
     2
 10
553.186427163
 20
1425.459923175
 11
388.286427163
 21
1310.6
  0
LINE
  8
0
  6
CONTINUOUS
 62
     2
 10
551.986427163
 20
1428.6
 11
555.286427163
 21
1424.0
  0
CIRCLE
  8
0
  6
CONTINUOUS
 62
     1
 10
1130.0
 20
1303.4
 40
19.5
  0
LINE
  8
0
  6
CONTINUOUS
 62
     1
 10
1110.0
 20
1283.4
 11
1150.0
 21
1283.4
  0
LINE
  8
0
  6
CONTINUOUS
 62
     1
 10
1110.0
 20
1283.4
 11
1110.0
 21
1323.4
  0
LINE
  8
0
  6
CONTINUOUS
 62
     1
 10
1110.0
 20
1323.4
 11
1150.0
 21
1323.4
  0
LINE
  8
0
  6
CONTINUOUS
 62
     1
 10
1150.0
 20
1283.4
 11
1150.0
 21
1323.4
  0
TEXT
  8
0
  6
CONTINUOUS
 62
     2
 10
1195.0
 20
1479.9
 30
2.4
 40
24.0
  1
給脂口
 50
0.0
 41
0.9
 51
0.0
  7
KANJI33
  0
LINE
  8
0
  6
CONTINUOUS
 62
     2
 10
1195.0
 20
1471.9
 11
1267.6
 21
1471.9
  0
LINE
  8
0
  6
CONTINUOUS
 62
     1
 10
2242.8
 20
1349.274886635
 11
2242.8
 21
1609.233147735
  0
ARC
  8
0
  6
CONTINUOUS
 62
     1
 10
1957.235036538
 20
1354.951354426
 40
1.0
 50
144.998987203
 51
235.0
  0
LINE
  8
0
  6
CONTINUOUS
 62
     1
 10
1956.415894633
 20
1355.524945342
 11
2010.332069511
 21
1432.525223025
  0
LINE
  8
0
  6
CONTINUOUS
 62
     1
 10
1982.8
 20
1393.205352832
 11
1982.8
 21
1609.233147735
  0
TEXT
  8
0
  6
CONTINUOUS
 62
     2
 10
538.0
 20
606.2
 30
1.6
 40
24.0
  1
ＭＣＬＥ８－　　３
 50
0.0
 41
0.833333333
 51
0.0
  7
KANJI49
  0
TEXT
  8
0
  6
CONTINUOUS
 62
     2
 10
538.0
 20
550.2
 30
1.6
 40
24.0
  1
ＭＣＬＥ８－　　５
 50
0.0
 41
0.833333333
 51
0.0
  7
KANJI49
  0
TEXT
  8
0
  6
CONTINUOUS
 62
     2
 10
538.0
 20
494.2
 30
1.6
 40
24.0
  1
ＭＣＬＥ８－　　７
 50
0.0
 41
0.833333333
 51
0.0
  7
KANJI49
  0
LINE
  8
0
  6
CONTINUOUS
 62
     1
 10
1723.8
 20
1343.788736054
 11
1593.799809794
 21
1343.788736054
  0
LINE
  8
0
  6
CONTINUOUS
 62
     1
 10
1593.799809794
 20
1343.788736054
 11
1593.799809794
 21
1263.011263946
  0
LINE
  8
0
  6
CONTINUOUS
 62
     1
 10
1723.8
 20
1263.011263946
 11
1593.799809794
 21
1263.011263946
  0
LINE
  8
0
  6
CONTINUOUS
 62
     1
 10
1571.55
 20
1350.9
 11
1571.55
 21
1255.9
  0
LINE
  8
0
  6
CONTINUOUS
 62
     1
 10
1448.8
 20
1350.9
 11
1571.55
 21
1350.9
  0
LINE
  8
0
  6
CONTINUOUS
 62
     1
 10
1571.55
 20
1350.9
 11
1723.8
 21
1350.9
  0
LINE
  8
0
  6
CONTINUOUS
 62
     1
 10
1448.8
 20
1255.9
 11
1571.55
 21
1255.9
  0
LINE
  8
0
  6
CONTINUOUS
 62
     1
 10
1571.55
 20
1255.9
 11
1723.8
 21
1255.9
  0
LINE
  8
0
  6
LTYPE5
 62
     2
 10
2112.8
 20
1148.0
 11
2112.8
 21
1730.605692517
  0
TEXT
  8
0
  6
CONTINUOUS
 62
     2
 10
2401.0666472
 20
882.0666752
 30
16.0
 40
32.0
  1
特記事項
 50
0.0
 41
0.9
 51
0.0
  7
KANJI64
  0
TEXT
  8
0
  6
CONTINUOUS
 62
     2
 10
2289.0666472
 20
818.0666752
 30
8.228571429
 40
28.8
  1
１。運転時は必ずピストンロッドの回転防止を行って下さい。
 50
0.0
 41
0.857142857
 51
0.0
  7
KANJI65
  0
TEXT
  8
0
  6
CONTINUOUS
 62
     2
 10
2289.0666472
 20
765.6666752
 30
8.208
 40
28.8
  1
２。モートル：全閉自冷かご形３０分定格
 50
0.0
 41
0.857222222
 51
0.0
  7
KANJI66
  0
POLYLINE
  8
0
  6
CONTINUOUS
 62
     1
 66
     1
  0
VERTEX
  8
0
  6
CONTINUOUS
 62
     1
 10
866.5
 20
1656.4
  0
VERTEX
  8
0
  6
CONTINUOUS
 62
     1
 10
866.5
 20
1696.4
  0
VERTEX
  8
0
  6
CONTINUOUS
 62
     1
 10
831.5
 20
1696.4
  0
SEQEND
  0
LINE
  8
1
  6
CONTINUOUS
 62
     2
 10
866.5
 20
1676.4
 11
871.191250589
 21
1695.842020675
  0
LINE
  8
0
  6
CONTINUOUS
 62
     1
 10
866.5
 20
1656.4
 11
831.5
 21
1656.4
  0
LINE
  8
0
  6
LTYPE2
 62
     2
 10
878.0
 20
1676.4
 11
821.552135955
 21
1676.4
  0
LINE
  8
1
  6
CONTINUOUS
 62
     2
 10
866.5
 20
1676.4
 11
880.283752523
 21
1690.891658511
  0
LINE
  8
1
  6
CONTINUOUS
 62
     2
 10
959.654444444
 20
1847.5
 11
1082.1
 21
1847.5
  0
LINE
  8
1
  6
CONTINUOUS
 62
     2
 10
866.5
 20
1676.4
 11
959.654444444
 21
1847.5
  0
LINE
  8
0
  6
CONTINUOUS
 62
     1
 10
2062.8
 20
1653.6
 11
2062.8
 21
1716.4
  0
ARC
  8
0
  6
CONTINUOUS
 62
     1
 10
2156.8
 20
1712.105692517
 40
6.0
 50
0.0
 51
90.0
  0
ARC
  8
0
  6
CONTINUOUS
 62
     1
 10
2156.8
 20
1716.4
 40
6.0
 50
0.0
 51
90.0
  0
ARC
  8
0
  6
CONTINUOUS
 62
     1
 10
2149.8
 20
1709.105692517
 40
3.0
 50
0.0
 51
90.0
  0
LINE
  8
0
  6
CONTINUOUS
 62
     1
 10
2162.8
 20
1653.1
 11
2162.8
 21
1716.4
  0
LINE
  8
0
  6
CONTINUOUS
 62
     1
 10
2152.8
 20
1647.6
 11
2152.8
 21
1709.105692517
  0
ARC
  8
0
  6
CONTINUOUS
 62
     1
 10
2068.8
 20
1653.1
 40
6.0
 50
180.0
 51
270.0
  0
LINE
  8
0
  6
CONTINUOUS
 62
     1
 10
2072.8
 20
1647.1
 11
2068.8
 21
1647.1
  0
LINE
  8
0
  6
CONTINUOUS
 62
     1
 10
2072.8
 20
1647.6
 11
2072.8
 21
1709.105692517
  0
ARC
  8
0
  6
CONTINUOUS
 62
     1
 10
2156.8
 20
1653.1
 40
6.0
 50
270.0
 51
0.0
  0
ARC
  8
0
  6
CONTINUOUS
 62
     1
 10
2149.8
 20
1647.1
 40
3.0
 50
270.0
 51
0.0
  0
LINE
  8
0
  6
CONTINUOUS
 62
     1
 10
2152.8
 20
1647.1
 11
2156.8
 21
1647.1
  0
CIRCLE
  8
0
  6
CONTINUOUS
 62
     1
 10
2112.8
 20
1676.4
 40
20.0
  0
CIRCLE
  8
0
  6
CONTINUOUS
 62
     2
 10
2112.8
 20
1676.4
 40
13.5
  0
CIRCLE
  8
0
  6
CONTINUOUS
 62
     2
 10
2112.8
 20
1676.4
 40
15.0
  0
LINE
  8
0
  6
LTYPE4
 62
     2
 10
2082.3
 20
1676.4
 11
2141.8
 21
1676.4
  0
ARC
  8
0
  6
CONTINUOUS
 62
     1
 10
2112.8
 20
1534.4
 40
125.0
 50
113.70090982
 51
280.557968545
  0
ARC
  8
0
  6
CONTINUOUS
 62
     1
 10
2112.8
 20
1534.4
 40
125.0
 50
0.0
 51
67.203696557
  0
LINE
  8
0
  6
CONTINUOUS
 62
     1
 10
2132.8
 20
1637.47764064
 11
2132.8
 21
1644.1
  0
LINE
  8
0
  6
CONTINUOUS
 62
     1
 10
2092.8
 20
1637.47764064
 11
2092.8
 21
1644.1
  0
ARC
  8
0
  6
CONTINUOUS
 62
     1
 10
2075.8
 20
1647.1
 40
3.0
 50
180.0
 51
270.0
  0
LINE
  8
0
  6
CONTINUOUS
 62
     1
 10
2075.8
 20
1644.1
 11
2149.8
 21
1644.1
  0
ARC
  8
0
  6
CONTINUOUS
 62
     1
 10
2075.8
 20
1709.105692517
 40
3.0
 50
90.0
 51
180.0
  0
LINE
  8
0
  6
CONTINUOUS
 62
     1
 10
2075.8
 20
1712.105692517
 11
2149.8
 21
1712.105692517
  0
LINE
  8
0
  6
CONTINUOUS
 62
     1
 10
2068.8
 20
1718.105692517
 11
2156.8
 21
1718.105692517
  0
ARC
  8
0
  6
CONTINUOUS
 62
     1
 10
2068.8
 20
1712.105692517
 40
6.0
 50
90.0
 51
180.0
  0
ARC
  8
0
  6
CONTINUOUS
 62
     1
 10
2068.8
 20
1716.4
 40
6.0
 50
89.999708579
 51
180.0
  0
LINE
  8
0
  6
CONTINUOUS
 62
     1
 10
2156.8
 20
1722.4
 11
2068.800030518
 21
1722.4
  0
LINE
  8
0
  6
CONTINUOUS
 62
     2
 10
2323.307300983
 20
1534.4
 11
2347.307300983
 21
1534.4
  0
LINE
  8
0
  6
CONTINUOUS
 62
     2
 10
2335.307300983
 20
1534.4
 11
2340.483681885
 21
1553.718516526
  0
LINE
  8
0
  6
CONTINUOUS
 62
     2
 10
2335.307300983
 20
1534.4
 11
2330.130920081
 21
1553.718516526
  0
LINE
  8
0
  6
CONTINUOUS
 62
     2
 10
2335.307300983
 20
1534.4
 11
2335.307300983
 21
1722.4
  0
LINE
  8
0
  6
CONTINUOUS
 62
     2
 10
2335.307300983
 20
1722.4
 11
2330.130920081
 21
1703.081483474
  0
LINE
  8
0
  6
CONTINUOUS
 62
     2
 10
2335.307300983
 20
1722.4
 11
2340.483681885
 21
1703.081483474
  0
LINE
  8
0
  6
CONTINUOUS
 62
     2
 10
2164.8
 20
1722.4
 11
2347.307300983
 21
1722.4
  0
TEXT
  8
0
  6
CONTINUOUS
 62
     3
 10
2331.307300983
 20
1592.4
 30
0.0
 40
25.6
  1
１８８
 50
90.0
 41
0.9375
 51
0.0
  7
KANJI67
  0
LINE
  8
0
  6
CONTINUOUS
 62
     2
 10
2317.0
 20
1722.4
 11
2405.0
 21
1722.4
  0
LINE
  8
0
  6
CONTINUOUS
 62
     2
 10
2393.0
 20
1722.4
 11
2387.823619098
 21
1703.081483474
  0
LINE
  8
0
  6
CONTINUOUS
 62
     2
 10
2393.0
 20
1722.4
 11
2398.176380902
 21
1703.081483474
  0
LINE
  8
0
  6
CONTINUOUS
 62
     2
 10
2393.0
 20
1722.4
 11
2393.0
 21
1168.4
  0
LINE
  8
0
  6
CONTINUOUS
 62
     2
 10
2393.0
 20
1168.4
 11
2398.176380902
 21
1187.718516526
  0
LINE
  8
0
  6
CONTINUOUS
 62
     2
 10
2393.0
 20
1168.4
 11
2387.823619098
 21
1187.718516526
  0
LINE
  8
0
  6
CONTINUOUS
 62
     2
 10
2325.0
 20
1168.4
 11
2405.0
 21
1168.4
  0
TEXT
  8
0
  6
CONTINUOUS
 62
     3
 10
2389.0
 20
1409.4
 30
0.0
 40
25.6
  1
５５４
 50
90.0
 41
0.9375
 51
0.0
  7
KANJI67
  0
TEXT
  8
0
  6
CONTINUOUS
 62
     3
 10
2359.0
 20
317.4
 30
0.0
 40
24.0
  1
７／２
 50
0.0
 41
0.5
 51
0.0
  7
KANJI68
  0
TEXT
  8
0
  6
CONTINUOUS
 62
     2
 10
2247.0
 20
319.3333248
 30
24.0
 40
24.0
  1
田口
 50
0.0
 41
0.9
 51
0.0
  7
KANJI58
  0
POLYLINE
  8
0
  6
CONTINUOUS
 62
     4
 66
     1
  0
VERTEX
  8
0
  6
CONTINUOUS
 62
     4
 10
1639.0667892
 20
178.399996
  0
VERTEX
  8
0
  6
CONTINUOUS
 62
     4
 10
1616.5334576
 20
143.733332
  0
VERTEX
  8
0
  6
CONTINUOUS
 62
     4
 10
1661.6001208
 20
143.733332
  0
SEQEND
  0
LINE
  8
0
  6
CONTINUOUS
 62
     4
 10
1639.0667892
 20
178.399996
 11
1661.6001208
 21
143.733332
  0
TEXT
  8
0
  6
CONTINUOUS
 62
     3
 10
1632.0
 20
146.0
 30
0.0
 40
24.0
  1
１
 50
0.0
 41
0.5
 51
0.0
  7
KANJI68
  0
TEXT
  8
0
  6
CONTINUOUS
 62
     3
 10
1672.0
 20
142.0
 30
0.0
 40
24.0
  1
２００２．１０．１６　岡田　寸法変更
 50
0.0
 41
0.5
 51
0.0
  7
KANJI68
  0
TEXT
  8
0
  6
CONTINUOUS
 62
     3
 10
3076.0
 20
189.0
 30
0.0
 40
24.0
  1
１
 50
0.0
 41
0.5
 51
0.0
  7
KANJI68
  0
CIRCLE
  8
0
  6
CONTINUOUS
 62
     1
 10
2112.8
 20
1303.4
 40
84.0
  0
CIRCLE
  8
0
  6
CONTINUOUS
 62
     1
 10
2112.8
 20
1303.4
 40
100.0
  0
LINE
  8
0
  6
CONTINUOUS
 62
     1
 10
2011.836443723
 20
1319.160586696
 11
2000.978095714
 21
1326.763683824
  0
LINE
  8
0
  6
CONTINUOUS
 62
     1
 10
1972.8
 20
1258.4
 11
2025.998781971
 21
1253.745709664
  0
LINE
  8
0
  6
CONTINUOUS
 62
     1
 10
2065.458322994
 20
1391.483855605
 11
2052.599974985
 21
1400.48736781
  0
LINE
  8
0
  6
CONTINUOUS
 62
     1
 10
2052.599974985
 20
1400.48736781
 11
2000.404519278
 21
1325.94453178
  0
TEXT
  8
0
  6
CONTINUOUS
 62
     2
 10
2215.0
 20
148.4
 30
0.0
 40
24.0
  1
２００１．０６．２０
 50
0.0
 41
0.666666667
 51
0.0
  7
KANJI69
  0
LINE
  8
0
  6
CONTINUOUS
 62
     3
 10
2313.3
 20
1558.2
 11
2289.3
 21
1572.056406461
  0
LINE
  8
0
  6
CONTINUOUS
 62
     3
 10
2289.3
 20
1572.056406461
 11
2313.3
 21
1585.912812921
  0
LINE
  8
0
  6
CONTINUOUS
 62
     3
 10
2313.3
 20
1585.912812921
 11
2313.3
 21
1558.2
  0
TEXT
  8
0
  6
CONTINUOUS
 62
     3
 10
2310.956854249
 20
1566.399552211
 30
0.0
 40
11.313708499
  1
１
 50
90.0
 41
1.0
 51
0.0
  7
KANJI70
  0
LINE
  8
0
  6
CONTINUOUS
 62
     3
 10
2378.3
 20
1369.1
 11
2354.3
 21
1382.956406461
  0
LINE
  8
0
  6
CONTINUOUS
 62
     3
 10
2354.3
 20
1382.956406461
 11
2378.3
 21
1396.812812921
  0
LINE
  8
0
  6
CONTINUOUS
 62
     3
 10
2378.3
 20
1396.812812921
 11
2378.3
 21
1369.1
  0
TEXT
  8
0
  6
CONTINUOUS
 62
     3
 10
2375.956854249
 20
1377.299552211
 30
0.0
 40
11.313708499
  1
１
 50
90.0
 41
1.0
 51
0.0
  7
KANJI70
  0
ENDSEC
  0
EOF
