  0
SECTION
  2
HEADER
  9
$EXTMIN
 10
0.0
 20
0.0
 30
0.0
  9
$EXTMAX
 10
3360.0
 20
2376.0
 30
0.0
  9
$LIMMIN
 10
0.0
 20
0.0
  9
$LIMMAX
 10
3360.0
 20
2376.0
  9
$LTSCALE
 40
1.0
  9
$PDMODE
 70
     0
  0
ENDSEC
  0
SECTION
  2
TABLES
  0
TABLE
  2
LTYPE
 70
     6
  0
LTYPE
  2
CONTINUOUS
 70
    64
  3
Solid line
 72
    65
 73
     0
 40
0.0
  0
LTYPE
  2
LTYPE1
 70
    64
  3
CENTER
 72
    65
 73
     4
 40
120.0
 49
84.0
 49
-12.0
 49
12.0
 49
-12.0
  0
LTYPE
  2
LTYPE2
 70
    64
  3
CENTER
 72
    65
 73
     4
 40
80.0
 49
56.0
 49
-8.0
 49
8.0
 49
-8.0
  0
LTYPE
  2
LTYPE3
 70
    64
  3
HIDDEN
 72
    65
 73
     2
 40
24.0
 49
14.4
 49
-9.6
  0
LTYPE
  2
LTYPE4
 70
    64
  3
PHANTOM
 72
    65
 73
     6
 40
120.0
 49
90.0
 49
-6.0
 49
6.0
 49
-6.0
 49
6.0
 49
-6.0
  0
LTYPE
  2
LTYPE5
 70
    64
  3
CENTER
 72
    65
 73
     4
 40
160.0
 49
112.0
 49
-16.0
 49
16.0
 49
-16.0
  0
ENDTAB
  0
TABLE
  2
LAYER
 70
   128
  0
LAYER
  2
0
 70
     0
 62
     7
  6
CONTINUOUS
  0
LAYER
  2
2
 70
     0
 62
     7
  6
CONTINUOUS
  0
LAYER
  2
3
 70
     0
 62
     7
  6
CONTINUOUS
  0
LAYER
  2
4
 70
     0
 62
     7
  6
CONTINUOUS
  0
LAYER
  2
5
 70
     0
 62
     7
  6
CONTINUOUS
  0
LAYER
  2
6
 70
     0
 62
     7
  6
CONTINUOUS
  0
LAYER
  2
7
 70
     0
 62
     7
  6
CONTINUOUS
  0
LAYER
  2
8
 70
     0
 62
     7
  6
CONTINUOUS
  0
LAYER
  2
9
 70
     0
 62
     7
  6
CONTINUOUS
  0
LAYER
  2
10
 70
     0
 62
     7
  6
CONTINUOUS
  0
LAYER
  2
11
 70
     0
 62
     7
  6
CONTINUOUS
  0
LAYER
  2
12
 70
     0
 62
     7
  6
CONTINUOUS
  0
LAYER
  2
13
 70
     0
 62
     7
  6
CONTINUOUS
  0
LAYER
  2
14
 70
     0
 62
     7
  6
CONTINUOUS
  0
LAYER
  2
15
 70
     0
 62
     7
  6
CONTINUOUS
  0
LAYER
  2
16
 70
     0
 62
     7
  6
CONTINUOUS
  0
LAYER
  2
17
 70
     0
 62
     7
  6
CONTINUOUS
  0
LAYER
  2
18
 70
     0
 62
     7
  6
CONTINUOUS
  0
LAYER
  2
19
 70
     0
 62
     7
  6
CONTINUOUS
  0
LAYER
  2
20
 70
     0
 62
     7
  6
CONTINUOUS
  0
LAYER
  2
21
 70
     0
 62
     7
  6
CONTINUOUS
  0
LAYER
  2
22
 70
     0
 62
     7
  6
CONTINUOUS
  0
LAYER
  2
23
 70
     0
 62
     7
  6
CONTINUOUS
  0
LAYER
  2
24
 70
     0
 62
     7
  6
CONTINUOUS
  0
LAYER
  2
25
 70
     0
 62
     7
  6
CONTINUOUS
  0
LAYER
  2
26
 70
     0
 62
     7
  6
CONTINUOUS
  0
LAYER
  2
27
 70
     0
 62
     7
  6
CONTINUOUS
  0
LAYER
  2
28
 70
     0
 62
     7
  6
CONTINUOUS
  0
LAYER
  2
29
 70
     0
 62
     7
  6
CONTINUOUS
  0
LAYER
  2
30
 70
     0
 62
     7
  6
CONTINUOUS
  0
LAYER
  2
31
 70
     0
 62
     7
  6
CONTINUOUS
  0
LAYER
  2
32
 70
     0
 62
     7
  6
CONTINUOUS
  0
LAYER
  2
33
 70
     0
 62
     7
  6
CONTINUOUS
  0
LAYER
  2
34
 70
     0
 62
     7
  6
CONTINUOUS
  0
LAYER
  2
35
 70
     0
 62
     7
  6
CONTINUOUS
  0
LAYER
  2
36
 70
     0
 62
     7
  6
CONTINUOUS
  0
LAYER
  2
37
 70
     0
 62
     7
  6
CONTINUOUS
  0
LAYER
  2
38
 70
     0
 62
     7
  6
CONTINUOUS
  0
LAYER
  2
39
 70
     0
 62
     7
  6
CONTINUOUS
  0
LAYER
  2
40
 70
     0
 62
     7
  6
CONTINUOUS
  0
LAYER
  2
41
 70
     0
 62
     7
  6
CONTINUOUS
  0
LAYER
  2
42
 70
     0
 62
     7
  6
CONTINUOUS
  0
LAYER
  2
43
 70
     0
 62
     7
  6
CONTINUOUS
  0
LAYER
  2
44
 70
     0
 62
     7
  6
CONTINUOUS
  0
LAYER
  2
45
 70
     0
 62
     7
  6
CONTINUOUS
  0
LAYER
  2
46
 70
     0
 62
     7
  6
CONTINUOUS
  0
LAYER
  2
47
 70
     0
 62
     7
  6
CONTINUOUS
  0
LAYER
  2
48
 70
     0
 62
     7
  6
CONTINUOUS
  0
LAYER
  2
49
 70
     0
 62
     7
  6
CONTINUOUS
  0
LAYER
  2
50
 70
     0
 62
     7
  6
CONTINUOUS
  0
LAYER
  2
51
 70
     0
 62
     7
  6
CONTINUOUS
  0
LAYER
  2
52
 70
     0
 62
     7
  6
CONTINUOUS
  0
LAYER
  2
53
 70
     0
 62
     7
  6
CONTINUOUS
  0
LAYER
  2
54
 70
     0
 62
     7
  6
CONTINUOUS
  0
LAYER
  2
55
 70
     0
 62
     7
  6
CONTINUOUS
  0
LAYER
  2
56
 70
     0
 62
     7
  6
CONTINUOUS
  0
LAYER
  2
57
 70
     0
 62
     7
  6
CONTINUOUS
  0
LAYER
  2
58
 70
     0
 62
     7
  6
CONTINUOUS
  0
LAYER
  2
59
 70
     0
 62
     7
  6
CONTINUOUS
  0
LAYER
  2
60
 70
     0
 62
     7
  6
CONTINUOUS
  0
LAYER
  2
61
 70
     0
 62
     7
  6
CONTINUOUS
  0
LAYER
  2
62
 70
     0
 62
     7
  6
CONTINUOUS
  0
LAYER
  2
63
 70
     0
 62
     7
  6
CONTINUOUS
  0
LAYER
  2
64
 70
     0
 62
     7
  6
CONTINUOUS
  0
LAYER
  2
65
 70
     0
 62
     7
  6
CONTINUOUS
  0
LAYER
  2
66
 70
     0
 62
     7
  6
CONTINUOUS
  0
LAYER
  2
67
 70
     0
 62
     7
  6
CONTINUOUS
  0
LAYER
  2
68
 70
     0
 62
     7
  6
CONTINUOUS
  0
LAYER
  2
69
 70
     0
 62
     7
  6
CONTINUOUS
  0
LAYER
  2
70
 70
     0
 62
     7
  6
CONTINUOUS
  0
LAYER
  2
71
 70
     0
 62
     7
  6
CONTINUOUS
  0
LAYER
  2
72
 70
     0
 62
     7
  6
CONTINUOUS
  0
LAYER
  2
73
 70
     0
 62
     7
  6
CONTINUOUS
  0
LAYER
  2
74
 70
     0
 62
     7
  6
CONTINUOUS
  0
LAYER
  2
75
 70
     0
 62
     7
  6
CONTINUOUS
  0
LAYER
  2
76
 70
     0
 62
     7
  6
CONTINUOUS
  0
LAYER
  2
77
 70
     0
 62
     7
  6
CONTINUOUS
  0
LAYER
  2
78
 70
     0
 62
     7
  6
CONTINUOUS
  0
LAYER
  2
79
 70
     0
 62
     7
  6
CONTINUOUS
  0
LAYER
  2
80
 70
     0
 62
     7
  6
CONTINUOUS
  0
LAYER
  2
81
 70
     0
 62
     7
  6
CONTINUOUS
  0
LAYER
  2
82
 70
     0
 62
     7
  6
CONTINUOUS
  0
LAYER
  2
83
 70
     0
 62
     7
  6
CONTINUOUS
  0
LAYER
  2
84
 70
     0
 62
     7
  6
CONTINUOUS
  0
LAYER
  2
85
 70
     0
 62
     7
  6
CONTINUOUS
  0
LAYER
  2
86
 70
     0
 62
     7
  6
CONTINUOUS
  0
LAYER
  2
87
 70
     0
 62
     7
  6
CONTINUOUS
  0
LAYER
  2
88
 70
     0
 62
     7
  6
CONTINUOUS
  0
LAYER
  2
89
 70
     0
 62
     7
  6
CONTINUOUS
  0
LAYER
  2
90
 70
     0
 62
     7
  6
CONTINUOUS
  0
LAYER
  2
91
 70
     0
 62
     7
  6
CONTINUOUS
  0
LAYER
  2
92
 70
     0
 62
     7
  6
CONTINUOUS
  0
LAYER
  2
93
 70
     0
 62
     7
  6
CONTINUOUS
  0
LAYER
  2
94
 70
     0
 62
     7
  6
CONTINUOUS
  0
LAYER
  2
95
 70
     0
 62
     7
  6
CONTINUOUS
  0
LAYER
  2
96
 70
     0
 62
     7
  6
CONTINUOUS
  0
LAYER
  2
97
 70
     0
 62
     7
  6
CONTINUOUS
  0
LAYER
  2
98
 70
     0
 62
     7
  6
CONTINUOUS
  0
LAYER
  2
99
 70
     0
 62
     7
  6
CONTINUOUS
  0
LAYER
  2
100
 70
     0
 62
     7
  6
CONTINUOUS
  0
LAYER
  2
101
 70
     0
 62
     7
  6
CONTINUOUS
  0
LAYER
  2
102
 70
     0
 62
     7
  6
CONTINUOUS
  0
LAYER
  2
103
 70
     0
 62
     7
  6
CONTINUOUS
  0
LAYER
  2
104
 70
     0
 62
     7
  6
CONTINUOUS
  0
LAYER
  2
105
 70
     0
 62
     7
  6
CONTINUOUS
  0
LAYER
  2
106
 70
     0
 62
     7
  6
CONTINUOUS
  0
LAYER
  2
107
 70
     0
 62
     7
  6
CONTINUOUS
  0
LAYER
  2
108
 70
     0
 62
     7
  6
CONTINUOUS
  0
LAYER
  2
109
 70
     0
 62
     7
  6
CONTINUOUS
  0
LAYER
  2
110
 70
     0
 62
     7
  6
CONTINUOUS
  0
LAYER
  2
111
 70
     0
 62
     7
  6
CONTINUOUS
  0
LAYER
  2
112
 70
     0
 62
     7
  6
CONTINUOUS
  0
LAYER
  2
113
 70
     0
 62
     7
  6
CONTINUOUS
  0
LAYER
  2
114
 70
     0
 62
     7
  6
CONTINUOUS
  0
LAYER
  2
115
 70
     0
 62
     7
  6
CONTINUOUS
  0
LAYER
  2
116
 70
     0
 62
     7
  6
CONTINUOUS
  0
LAYER
  2
117
 70
     0
 62
     7
  6
CONTINUOUS
  0
LAYER
  2
118
 70
     0
 62
     7
  6
CONTINUOUS
  0
LAYER
  2
119
 70
     0
 62
     7
  6
CONTINUOUS
  0
LAYER
  2
120
 70
     0
 62
     7
  6
CONTINUOUS
  0
LAYER
  2
121
 70
     0
 62
     7
  6
CONTINUOUS
  0
LAYER
  2
122
 70
     0
 62
     7
  6
CONTINUOUS
  0
LAYER
  2
123
 70
     0
 62
     7
  6
CONTINUOUS
  0
LAYER
  2
124
 70
     0
 62
     7
  6
CONTINUOUS
  0
LAYER
  2
125
 70
     0
 62
     7
  6
CONTINUOUS
  0
LAYER
  2
126
 70
     0
 62
     7
  6
CONTINUOUS
  0
LAYER
  2
127
 70
     0
 62
     7
  6
CONTINUOUS
  0
LAYER
  2
128
 70
     0
 62
     7
  6
CONTINUOUS
  0
ENDTAB
  0
TABLE
  2
STYLE
 70
    68
  0
STYLE
  2
STANDARD
 70
     0
 40
0.0
 41
1.0
 50
0.0
 71
     0
 42
0.2
  3
txt
  4

  0
STYLE
  2
KANJI0
 70
     0
 40
24.0
 41
0.9
 50
0.0
 71
     0
 42
24.0
  3

  4
bigfont
  0
STYLE
  2
KANJI1
 70
     0
 40
36.0
 41
0.9
 50
0.0
 71
     0
 42
36.0
  3

  4
bigfont
  0
STYLE
  2
KANJI2
 70
     4
 40
28.0
 41
0.9
 50
0.0
 71
     0
 42
28.0
  3

  4
bigfont
  0
STYLE
  2
KANJI3
 70
     4
 40
24.0
 41
0.9
 50
0.0
 71
     0
 42
24.0
  3

  4
bigfont
  0
STYLE
  2
KANJI4
 70
     0
 40
28.0
 41
0.9
 50
0.0
 71
     0
 42
28.0
  3

  4
bigfont
  0
STYLE
  2
KANJI5
 70
     0
 40
24.0
 41
0.9
 50
0.0
 71
     0
 42
24.0
  3

  4
bigfont
  0
STYLE
  2
KANJI6
 70
     0
 40
24.0
 41
0.857142857
 50
0.0
 71
     0
 42
24.0
  3

  4
bigfont
  0
STYLE
  2
KANJI7
 70
     0
 40
28.0
 41
0.9
 50
0.0
 71
     0
 42
28.0
  3

  4
bigfont
  0
STYLE
  2
KANJI8
 70
     0
 40
22.4
 41
0.9
 50
0.0
 71
     0
 42
22.4
  3

  4
bigfont
  0
STYLE
  2
KANJI9
 70
     0
 40
22.4
 41
0.785714286
 50
0.0
 71
     0
 42
22.4
  3

  4
bigfont
  0
STYLE
  2
KANJI10
 70
     0
 40
22.4
 41
0.8
 50
0.0
 71
     0
 42
22.4
  3

  4
bigfont
  0
STYLE
  2
KANJI11
 70
     0
 40
24.0
 41
0.8
 50
0.0
 71
     0
 42
24.0
  3

  4
bigfont
  0
STYLE
  2
KANJI12
 70
     0
 40
24.0
 41
0.9
 50
0.0
 71
     0
 42
24.0
  3

  4
bigfont
  0
STYLE
  2
KANJI13
 70
     0
 40
24.0
 41
0.9
 50
0.0
 71
     0
 42
24.0
  3

  4
bigfont
  0
STYLE
  2
KANJI14
 70
     0
 40
19.2
 41
0.777777778
 50
0.0
 71
     0
 42
19.2
  3

  4
bigfont
  0
STYLE
  2
KANJI15
 70
     0
 40
25.6
 41
0.9
 50
0.0
 71
     0
 42
25.6
  3

  4
bigfont
  0
STYLE
  2
KANJI16
 70
     0
 40
30.4
 41
0.9
 50
0.0
 71
     0
 42
30.4
  3

  4
bigfont
  0
STYLE
  2
KANJI17
 70
     0
 40
30.4
 41
0.9
 50
0.0
 71
     0
 42
30.4
  3

  4
bigfont
  0
STYLE
  2
KANJI18
 70
     0
 40
30.4
 41
0.9
 50
0.0
 71
     0
 42
30.4
  3

  4
bigfont
  0
STYLE
  2
KANJI19
 70
     0
 40
30.4
 41
0.9
 50
0.0
 71
     0
 42
30.4
  3

  4
bigfont
  0
STYLE
  2
KANJI20
 70
     0
 40
30.4
 41
0.9
 50
0.0
 71
     0
 42
30.4
  3

  4
bigfont
  0
STYLE
  2
KANJI21
 70
     0
 40
30.4
 41
0.9
 50
0.0
 71
     0
 42
30.4
  3

  4
bigfont
  0
STYLE
  2
KANJI22
 70
     0
 40
30.4
 41
0.9
 50
0.0
 71
     0
 42
30.4
  3

  4
bigfont
  0
STYLE
  2
KANJI23
 70
     0
 40
30.4
 41
0.9
 50
0.0
 71
     0
 42
30.4
  3

  4
bigfont
  0
STYLE
  2
KANJI24
 70
     0
 40
30.4
 41
0.9
 50
0.0
 71
     0
 42
30.4
  3

  4
bigfont
  0
STYLE
  2
KANJI25
 70
     0
 40
30.4
 41
0.9
 50
0.0
 71
     0
 42
30.4
  3

  4
bigfont
  0
STYLE
  2
KANJI26
 70
     0
 40
22.4
 41
0.8
 50
0.0
 71
     0
 42
22.4
  3

  4
bigfont
  0
STYLE
  2
KANJI27
 70
     0
 40
32.0
 41
0.9
 50
0.0
 71
     0
 42
32.0
  3

  4
bigfont
  0
STYLE
  2
KANJI28
 70
     0
 40
28.8
 41
0.857142857
 50
0.0
 71
     0
 42
28.8
  3

  4
bigfont
  0
STYLE
  2
KANJI29
 70
     0
 40
28.0
 41
0.9
 50
0.0
 71
     0
 42
28.0
  3

  4
bigfont
  0
STYLE
  2
KANJI30
 70
     0
 40
15.999996636
 41
0.6
 50
0.0
 71
     0
 42
15.999996636
  3

  4
bigfont
  0
STYLE
  2
KANJI31
 70
     0
 40
19.199995963
 41
0.9
 50
0.0
 71
     0
 42
19.199995963
  3

  4
bigfont
  0
STYLE
  2
KANJI32
 70
     0
 40
20.7999984
 41
0.9
 50
0.0
 71
     0
 42
20.7999984
  3

  4
bigfont
  0
STYLE
  2
KANJI33
 70
     0
 40
13.8666656
 41
0.75
 50
0.0
 71
     0
 42
13.8666656
  3

  4
bigfont
  0
STYLE
  2
KANJI34
 70
     0
 40
20.7999984
 41
0.75
 50
0.0
 71
     0
 42
20.7999984
  3

  4
bigfont
  0
STYLE
  2
KANJI35
 70
     0
 40
12.47999904
 41
0.75
 50
0.0
 71
     0
 42
12.47999904
  3

  4
bigfont
  0
STYLE
  2
KANJI36
 70
     0
 40
13.8666656
 41
0.6
 50
0.0
 71
     0
 42
13.8666656
  3

  4
bigfont
  0
STYLE
  2
KANJI37
 70
     0
 40
16.63999872
 41
0.6
 50
0.0
 71
     0
 42
16.63999872
  3

  4
bigfont
  0
STYLE
  2
KANJI38
 70
     0
 40
13.8666656
 41
0.8
 50
0.0
 71
     0
 42
13.8666656
  3

  4
bigfont
  0
STYLE
  2
KANJI39
 70
     0
 40
16.63999872
 41
0.8
 50
0.0
 71
     0
 42
16.63999872
  3

  4
bigfont
  0
STYLE
  2
KANJI40
 70
     0
 40
69.333328
 41
0.9
 50
0.0
 71
     0
 42
69.333328
  3

  4
bigfont
  0
STYLE
  2
KANJI41
 70
     0
 40
23.999994954
 41
0.9
 50
0.0
 71
     0
 42
23.999994954
  3

  4
bigfont
  0
STYLE
  2
KANJI42
 70
     0
 40
24.2666648
 41
0.42031746
 50
0.0
 71
     0
 42
24.2666648
  3

  4
bigfont
  0
STYLE
  2
KANJI43
 70
     0
 40
41.5999968
 41
0.9
 50
0.0
 71
     0
 42
41.5999968
  3

  4
bigfont
  0
STYLE
  2
KANJI44
 70
     0
 40
28.8
 41
0.857222222
 50
0.0
 71
     0
 42
28.8
  3

  4
bigfont
  0
STYLE
  2
KANJI45
 70
     0
 40
36.0
 41
0.666666667
 50
0.0
 71
     0
 42
36.0
  3

  4
bigfont
  0
STYLE
  2
KANJI46
 70
     0
 40
32.0
 41
0.75
 50
0.0
 71
     0
 42
32.0
  3

  4
bigfont
  0
STYLE
  2
KANJI47
 70
     0
 40
40.0
 41
1.0
 50
0.0
 71
     0
 42
40.0
  3

  4
bigfont
  0
STYLE
  2
KANJI48
 70
     0
 40
40.0
 41
1.0
 50
0.0
 71
     0
 42
40.0
  3

  4
bigfont
  0
STYLE
  2
KANJI49
 70
     0
 40
28.0
 41
0.914285714
 50
0.0
 71
     0
 42
28.0
  3

  4
bigfont
  0
STYLE
  2
KANJI50
 70
     0
 40
28.0
 41
0.793650794
 50
0.0
 71
     0
 42
28.0
  3

  4
bigfont
  0
STYLE
  2
KANJI51
 70
     0
 40
40.0
 41
0.8
 50
0.0
 71
     0
 42
40.0
  3

  4
bigfont
  0
STYLE
  2
KANJI52
 70
     0
 40
24.0
 41
0.833333333
 50
0.0
 71
     0
 42
24.0
  3

  4
bigfont
  0
STYLE
  2
KANJI53
 70
     0
 40
24.0
 41
0.9
 50
0.0
 71
     0
 42
24.0
  3

  4
bigfont
  0
STYLE
  2
KANJI54
 70
     0
 40
24.0
 41
0.9
 50
0.0
 71
     0
 42
24.0
  3

  4
bigfont
  0
STYLE
  2
KANJI55
 70
     0
 40
27.9993
 41
0.9
 50
0.0
 71
     0
 42
27.9993
  3

  4
bigfont
  0
STYLE
  2
KANJI56
 70
     0
 40
23.9994
 41
0.9
 50
0.0
 71
     0
 42
23.9994
  3

  4
bigfont
  0
STYLE
  2
KANJI57
 70
     0
 40
28.0
 41
0.9
 50
0.0
 71
     0
 42
28.0
  3

  4
bigfont
  0
STYLE
  2
KANJI58
 70
     0
 40
28.0
 41
0.571428571
 50
0.0
 71
     0
 42
28.0
  3

  4
bigfont
  0
STYLE
  2
KANJI59
 70
     0
 40
28.0
 41
0.771428571
 50
0.0
 71
     0
 42
28.0
  3

  4
bigfont
  0
STYLE
  2
KANJI60
 70
     0
 40
20.7999984
 41
0.75
 50
0.0
 71
     0
 42
20.7999984
  3

  4
bigfont
  0
STYLE
  2
KANJI61
 70
     0
 40
28.8
 41
0.833333333
 50
0.0
 71
     0
 42
28.8
  3

  4
bigfont
  0
STYLE
  2
KANJI62
 70
     0
 40
24.0
 41
0.9
 50
0.0
 71
     0
 42
24.0
  3

  4
bigfont
  0
STYLE
  2
KANJI63
 70
     0
 40
25.6
 41
0.9375
 50
0.0
 71
     0
 42
25.6
  3

  4
bigfont
  0
STYLE
  2
KANJI64
 70
     0
 40
24.0
 41
0.5
 50
0.0
 71
     0
 42
24.0
  3

  4
bigfont
  0
STYLE
  2
KANJI65
 70
     0
 40
24.0
 41
0.9
 50
0.0
 71
     0
 42
24.0
  3

  4
bigfont
  0
STYLE
  2
KANJI66
 70
     0
 40
11.313708499
 41
1.0
 50
0.0
 71
     0
 42
11.313708499
  3

  4
bigfont
  0
ENDTAB
  0
TABLE
  2
VIEW
 70
     0
  0
ENDTAB
  0
ENDSEC
  0
SECTION
  2
BLOCKS
  0
ENDSEC
  0
SECTION
  2
ENTITIES
  0
LINE
  8
0
  6
CONTINUOUS
 62
     4
 10
3276.0
 20
-92.0
 11
2484.0
 21
-92.0
  0
LINE
  8
0
  6
CONTINUOUS
 62
     4
 10
3276.0
 20
-172.0
 11
2484.0
 21
-172.0
  0
LINE
  8
0
  6
CONTINUOUS
 62
     1
 10
624.0
 20
708.0
 11
1864.0
 21
708.0
  0
LINE
  8
0
  6
CONTINUOUS
 62
     1
 10
624.0
 20
652.0
 11
1864.0
 21
652.0
  0
LINE
  8
0
  6
CONTINUOUS
 62
     1
 10
1864.0
 20
708.0
 11
1864.0
 21
316.0
  0
LINE
  8
0
  6
CONTINUOUS
 62
     1
 10
624.0
 20
316.0
 11
1864.0
 21
316.0
  0
LINE
  8
0
  6
CONTINUOUS
 62
     1
 10
624.0
 20
708.0
 11
624.0
 21
316.0
  0
LINE
  8
0
  6
CONTINUOUS
 62
     1
 10
904.0
 20
708.0
 11
904.0
 21
316.0
  0
LINE
  8
0
  6
CONTINUOUS
 62
     2
 10
1064.0
 20
708.0
 11
1064.0
 21
316.0
  0
LINE
  8
0
  6
CONTINUOUS
 62
     2
 10
1224.0
 20
708.0
 11
1224.0
 21
316.0
  0
LINE
  8
0
  6
CONTINUOUS
 62
     2
 10
1384.0
 20
708.0
 11
1384.0
 21
316.0
  0
LINE
  8
0
  6
CONTINUOUS
 62
     2
 10
1544.0
 20
708.0
 11
1544.0
 21
316.0
  0
LINE
  8
0
  6
CONTINUOUS
 62
     2
 10
1704.0
 20
708.0
 11
1704.0
 21
316.0
  0
LINE
  8
0
  6
CONTINUOUS
 62
     2
 10
624.0
 20
372.0
 11
1864.0
 21
372.0
  0
LINE
  8
0
  6
CONTINUOUS
 62
     2
 10
624.0
 20
596.0
 11
1864.0
 21
596.0
  0
LINE
  8
0
  6
CONTINUOUS
 62
     2
 10
624.0
 20
540.0
 11
1864.0
 21
540.0
  0
LINE
  8
0
  6
CONTINUOUS
 62
     2
 10
624.0
 20
484.0
 11
1864.0
 21
484.0
  0
LINE
  8
0
  6
CONTINUOUS
 62
     2
 10
624.0
 20
428.0
 11
1864.0
 21
428.0
  0
CIRCLE
  8
0
  6
CONTINUOUS
 62
     1
 10
649.0
 20
1288.0
 40
22.5
  0
CIRCLE
  8
0
  6
CONTINUOUS
 62
     1
 10
649.0
 20
1288.0
 40
45.0
  0
CIRCLE
  8
0
  6
CONTINUOUS
 62
     1
 10
649.0
 20
1288.0
 40
55.0
  0
LINE
  8
0
  6
CONTINUOUS
 62
     1
 10
614.0
 20
1388.0
 11
637.0
 21
1369.5
  0
LINE
  8
0
  6
CONTINUOUS
 62
     1
 10
614.0
 20
1334.5
 11
614.0
 21
1388.0
  0
LINE
  8
0
  6
CONTINUOUS
 62
     1
 10
637.0
 20
1344.5
 11
637.0
 21
1369.5
  0
LINE
  8
0
  6
CONTINUOUS
 62
     1
 10
579.0
 20
1188.0
 11
614.0
 21
1188.0
  0
LINE
  8
0
  6
CONTINUOUS
 62
     1
 10
614.0
 20
1188.0
 11
637.0
 21
1206.5
  0
LINE
  8
0
  6
CONTINUOUS
 62
     1
 10
614.0
 20
1241.5
 11
614.0
 21
1188.0
  0
LINE
  8
0
  6
CONTINUOUS
 62
     1
 10
637.0
 20
1231.5
 11
637.0
 21
1206.5
  0
LINE
  8
0
  6
CONTINUOUS
 62
     1
 10
839.0
 20
1188.0
 11
809.0
 21
1206.5
  0
LINE
  8
0
  6
CONTINUOUS
 62
     1
 10
637.0
 20
1206.5
 11
809.0
 21
1206.5
  0
LINE
  8
0
  6
CONTINUOUS
 62
     1
 10
839.0
 20
1188.0
 11
879.0
 21
1188.0
  0
LINE
  8
0
  6
CONTINUOUS
 62
     1
 10
809.0
 20
1288.0
 11
809.0
 21
1206.5
  0
LINE
  8
0
  6
LTYPE1
 62
     2
 10
649.0
 20
1218.398877817
 11
649.0
 21
1355.366558854
  0
LINE
  8
0
  6
CONTINUOUS
 62
     1
 10
879.0
 20
1288.0
 11
879.0
 21
1188.0
  0
CIRCLE
  8
0
  6
CONTINUOUS
 62
     1
 10
1117.3
 20
1288.0
 40
19.5
  0
LINE
  8
0
  6
CONTINUOUS
 62
     1
 10
1097.3
 20
1308.0
 11
1137.3
 21
1308.0
  0
LINE
  8
0
  6
CONTINUOUS
 62
     1
 10
1137.3
 20
1268.0
 11
1137.3
 21
1308.0
  0
LINE
  8
0
  6
CONTINUOUS
 62
     1
 10
1097.3
 20
1268.0
 11
1137.3
 21
1268.0
  0
LINE
  8
0
  6
CONTINUOUS
 62
     1
 10
1097.3
 20
1268.0
 11
1097.3
 21
1308.0
  0
LINE
  8
0
  6
LTYPE2
 62
     2
 10
1117.3
 20
1262.9
 11
1117.3
 21
1312.8
  0
LINE
  8
0
  6
LTYPE1
 62
     2
 10
457.0
 20
1183.0
 11
400.0
 21
1183.0
  0
LINE
  8
0
  6
CONTINUOUS
 62
     1
 10
424.0
 20
1183.0
 11
424.0
 21
1172.05046
  0
LINE
  8
0
  6
CONTINUOUS
 62
     1
 10
424.0
 20
1183.0
 11
424.0
 21
1193.94954
  0
LINE
  8
0
  6
CONTINUOUS
 62
     1
 10
415.9789
 20
1174.73198
 11
417.527076294
 21
1172.05046
  0
LINE
  8
0
  6
CONTINUOUS
 62
     1
 10
415.9789
 20
1183.0
 11
415.9789
 21
1174.73198
  0
LINE
  8
0
  6
CONTINUOUS
 62
     1
 10
415.9789
 20
1191.26802
 11
417.527076294
 21
1193.94954
  0
LINE
  8
0
  6
CONTINUOUS
 62
     1
 10
415.9789
 20
1183.0
 11
415.9789
 21
1191.26802
  0
ARC
  8
0
  6
CONTINUOUS
 62
     1
 10
426.433121693
 20
1183.0
 40
10.454221693
 50
148.419912243
 51
211.580087757
  0
ARC
  8
0
  6
CONTINUOUS
 62
     1
 10
419.172013606
 20
1174.787845
 40
3.193602261
 50
121.002313915
 51
182.989498403
  0
LINE
  8
0
  6
CONTINUOUS
 62
     1
 10
415.9789
 20
1191.26802
 11
417.527076294
 21
1193.94954
  0
ARC
  8
0
  6
CONTINUOUS
 62
     1
 10
419.172013606
 20
1191.212155
 40
3.193602261
 50
177.010501597
 51
238.997686085
  0
LINE
  8
0
  6
CONTINUOUS
 62
     1
 10
424.0
 20
1172.05046
 11
417.527076294
 21
1172.05046
  0
LINE
  8
0
  6
CONTINUOUS
 62
     1
 10
424.0
 20
1177.52523
 11
417.527076294
 21
1177.52523
  0
LINE
  8
0
  6
CONTINUOUS
 62
     1
 10
424.0
 20
1188.47477
 11
417.527076294
 21
1188.47477
  0
LINE
  8
0
  6
CONTINUOUS
 62
     1
 10
424.0
 20
1193.94954
 11
417.527076294
 21
1193.94954
  0
LINE
  8
6
  6
CONTINUOUS
 62
     2
 10
649.0
 20
1206.398877817
 11
649.0
 21
1014.0
  0
LINE
  8
6
  6
CONTINUOUS
 62
     2
 10
1064.0
 20
1218.0
 11
1069.176380902
 21
1237.318516526
  0
LINE
  8
6
  6
CONTINUOUS
 62
     2
 10
1064.0
 20
1218.0
 11
1058.823619098
 21
1237.318516526
  0
LINE
  8
6
  6
CONTINUOUS
 62
     2
 10
1064.0
 20
1218.0
 11
1064.0
 21
1358.0
  0
LINE
  8
6
  6
CONTINUOUS
 62
     2
 10
1064.0
 20
1358.0
 11
1058.823619098
 21
1338.681483474
  0
LINE
  8
6
  6
CONTINUOUS
 62
     2
 10
1064.0
 20
1358.0
 11
1069.176380902
 21
1338.681483474
  0
TEXT
  8
6
  6
CONTINUOUS
 62
     2
 10
1056.0
 20
1241.2
 30
2.4
 40
24.0
  1
φ１４０
 50
90.0
 41
0.9
 51
0.0
  7
KANJI0
  0
LINE
  8
0
  6
CONTINUOUS
 62
     1
 10
1467.0
 20
1335.5
 11
1607.000190206
 21
1335.5
  0
LINE
  8
0
  6
CONTINUOUS
 62
     1
 10
1607.000190206
 20
1335.5
 11
1617.000190206
 21
1325.5
  0
LINE
  8
0
  6
CONTINUOUS
 62
     1
 10
1617.000190206
 20
1250.5
 11
1617.000190206
 21
1325.5
  0
LINE
  8
0
  6
CONTINUOUS
 62
     1
 10
1607.000190206
 20
1240.5
 11
1617.000190206
 21
1250.5
  0
CIRCLE
  8
0
  6
CONTINUOUS
 62
     1
 10
1567.000190206
 20
1288.0
 40
22.5
  0
LINE
  8
6
  6
CONTINUOUS
 62
     2
 10
1567.000190206
 20
1110.0
 11
1567.000190206
 21
1014.0
  0
LINE
  8
0
  6
CONTINUOUS
 62
     1
 10
1607.000190206
 20
1335.5
 11
1607.000190206
 21
1328.388736054
  0
LINE
  8
0
  6
CONTINUOUS
 62
     1
 10
1607.000190206
 20
1328.388736054
 11
1617.000190206
 21
1315.747752752
  0
LINE
  8
0
  6
CONTINUOUS
 62
     1
 10
1607.000190206
 20
1328.388736054
 11
1477.0
 21
1328.388736054
  0
LINE
  8
0
  6
CONTINUOUS
 62
     1
 10
1607.000190206
 20
1240.5
 11
1607.000190206
 21
1247.611263946
  0
LINE
  8
0
  6
CONTINUOUS
 62
     1
 10
1607.000190206
 20
1247.611263946
 11
1617.000190206
 21
1260.252247248
  0
LINE
  8
0
  6
CONTINUOUS
 62
     1
 10
1607.000190206
 20
1247.611263946
 11
1477.0
 21
1247.611263946
  0
LINE
  8
0
  6
CONTINUOUS
 62
     1
 10
1477.0
 20
1328.388736054
 11
1477.0
 21
1247.611263946
  0
LINE
  8
6
  6
CONTINUOUS
 62
     2
 10
649.0
 20
1014.0
 11
649.0
 21
954.5
  0
LINE
  8
6
  6
CONTINUOUS
 62
     2
 10
649.0
 20
966.5
 11
629.681483474
 21
971.676380902
  0
LINE
  8
6
  6
CONTINUOUS
 62
     2
 10
649.0
 20
966.5
 11
629.681483474
 21
961.323619098
  0
LINE
  8
6
  6
CONTINUOUS
 62
     2
 10
649.0
 20
966.5
 11
424.0
 21
966.5
  0
LINE
  8
6
  6
CONTINUOUS
 62
     2
 10
424.0
 20
966.5
 11
443.318516526
 21
961.323619098
  0
LINE
  8
6
  6
CONTINUOUS
 62
     2
 10
424.0
 20
966.5
 11
443.318516526
 21
971.676380902
  0
TEXT
  8
6
  6
CONTINUOUS
 62
     2
 10
501.7
 20
974.5
 30
2.4
 40
24.0
  1
２２５
 50
0.0
 41
0.9
 51
0.0
  7
KANJI0
  0
LINE
  8
6
  6
CONTINUOUS
 62
     2
 10
649.0
 20
966.5
 11
668.318516526
 21
961.323619098
  0
LINE
  8
6
  6
CONTINUOUS
 62
     2
 10
649.0
 20
966.5
 11
668.318516526
 21
971.676380902
  0
LINE
  8
6
  6
CONTINUOUS
 62
     2
 10
649.0
 20
966.5
 11
1567.000190206
 21
966.5
  0
LINE
  8
6
  6
CONTINUOUS
 62
     2
 10
1567.000190206
 20
966.5
 11
1547.68167368
 21
971.676380902
  0
LINE
  8
6
  6
CONTINUOUS
 62
     2
 10
1567.000190206
 20
966.5
 11
1547.68167368
 21
961.323619098
  0
LINE
  8
6
  6
CONTINUOUS
 62
     2
 10
1567.000190206
 20
1014.0
 11
1567.000190206
 21
954.5
  0
TEXT
  8
6
  6
CONTINUOUS
 62
     2
 10
1049.200095103
 20
974.5
 30
2.4
 40
24.0
  1
ｍｉｎ．Ｌ
 50
0.0
 41
0.9
 51
0.0
  7
KANJI0
  0
LINE
  8
6
  6
CONTINUOUS
 62
     2
 10
1567.000190206
 20
909.0
 11
1547.68167368
 21
914.176380902
  0
LINE
  8
6
  6
CONTINUOUS
 62
     2
 10
1567.000190206
 20
909.0
 11
1547.68167368
 21
903.823619098
  0
LINE
  8
6
  6
CONTINUOUS
 62
     2
 10
1567.000190206
 20
954.5
 11
1567.000190206
 21
897.0
  0
TEXT
  8
6
  6
CONTINUOUS
 62
     2
 10
924.700095103
 20
917.0
 30
2.4
 40
24.0
  1
ｍｉｎ．ＡＬ
 50
0.0
 41
0.9
 51
0.0
  7
KANJI0
  0
LINE
  8
6
  6
CONTINUOUS
 62
     2
 10
1567.000190206
 20
909.0
 11
1586.318706732
 21
903.823619098
  0
LINE
  8
6
  6
CONTINUOUS
 62
     2
 10
1567.000190206
 20
909.0
 11
1586.318706732
 21
914.176380902
  0
LINE
  8
6
  6
CONTINUOUS
 62
     2
 10
1567.000190206
 20
909.0
 11
1617.000190206
 21
909.0
  0
LINE
  8
6
  6
CONTINUOUS
 62
     2
 10
1617.000190206
 20
909.0
 11
1597.68167368
 21
914.176380902
  0
LINE
  8
6
  6
CONTINUOUS
 62
     2
 10
1617.000190206
 20
909.0
 11
1597.68167368
 21
903.823619098
  0
LINE
  8
6
  6
CONTINUOUS
 62
     2
 10
1617.000190206
 20
1238.5
 11
1617.000190206
 21
897.0
  0
TEXT
  8
6
  6
CONTINUOUS
 62
     2
 10
1569.200190206
 20
917.0
 30
2.4
 40
24.0
  1
５０
 50
0.0
 41
0.9
 51
0.0
  7
KANJI0
  0
LINE
  8
6
  6
CONTINUOUS
 62
     2
 10
1211.0
 20
1380.5
 11
1205.823619098
 21
1361.181483474
  0
LINE
  8
6
  6
CONTINUOUS
 62
     2
 10
1211.0
 20
1380.5
 11
1216.176380902
 21
1361.181483474
  0
LINE
  8
6
  6
CONTINUOUS
 62
     2
 10
1211.0
 20
1380.5
 11
1211.0
 21
1195.5
  0
LINE
  8
6
  6
CONTINUOUS
 62
     2
 10
1211.0
 20
1195.5
 11
1216.176380902
 21
1214.818516526
  0
LINE
  8
6
  6
CONTINUOUS
 62
     2
 10
1211.0
 20
1195.5
 11
1205.823619098
 21
1214.818516526
  0
TEXT
  8
6
  6
CONTINUOUS
 62
     2
 10
1203.0
 20
1241.2
 30
2.4
 40
24.0
  1
φ１８５
 50
90.0
 41
0.9
 51
0.0
  7
KANJI0
  0
POINT
  8
0
  6
CONTINUOUS
 62
     1
 10
705.0
 20
1288.0
  0
LINE
  8
0
  6
CONTINUOUS
 62
     1
 10
579.0
 20
1153.0
 11
579.0
 21
1395.5
  0
LINE
  8
0
  6
CONTINUOUS
 62
     1
 10
579.0
 20
1153.0
 11
424.0
 21
1153.0
  0
LINE
  8
6
  6
CONTINUOUS
 62
     2
 10
424.0
 20
1141.0
 11
424.0
 21
894.1
  0
LINE
  8
6
  6
CONTINUOUS
 62
     2
 10
424.0
 20
909.0
 11
1567.000190206
 21
909.0
  0
LINE
  8
6
  6
CONTINUOUS
 62
     2
 10
424.0
 20
909.0
 11
446.216294005
 21
903.047161963
  0
LINE
  8
6
  6
CONTINUOUS
 62
     2
 10
424.0
 20
909.0
 11
446.216294005
 21
914.952838037
  0
LINE
  8
0
  6
CONTINUOUS
 62
     1
 10
762.0
 20
1417.944375069
 11
752.0
 21
1407.944375069
  0
LINE
  8
0
  6
CONTINUOUS
 62
     1
 10
752.0
 20
1349.305778818
 11
752.0
 21
1407.944375069
  0
LINE
  8
0
  6
CONTINUOUS
 62
     1
 10
762.0
 20
1339.305778818
 11
752.0
 21
1349.305778818
  0
ARC
  8
0
  6
CONTINUOUS
 62
     1
 10
750.0
 20
1418.466558854
 40
3.0
 50
90.0
 51
180.0
  0
ARC
  8
0
  6
CONTINUOUS
 62
     1
 10
750.0
 20
1337.63644216
 40
3.0
 50
180.0
 51
270.0
  0
ARC
  8
0
  6
CONTINUOUS
 62
     1
 10
750.0
 20
1334.194983542
 40
3.0
 50
180.0
 51
270.0
  0
ARC
  8
0
  6
CONTINUOUS
 62
     1
 10
750.0
 20
1333.334618887
 40
3.0
 50
180.0
 51
270.0
  0
LINE
  8
0
  6
CONTINUOUS
 62
     1
 10
870.0
 20
1349.305778818
 11
870.0
 21
1407.944375069
  0
LINE
  8
0
  6
CONTINUOUS
 62
     1
 10
875.0
 20
1306.657620342
 11
875.0
 21
1418.466558854
  0
ARC
  8
0
  6
CONTINUOUS
 62
     1
 10
872.0
 20
1418.466558854
 40
3.0
 50
0.0
 51
90.0
  0
LINE
  8
0
  6
CONTINUOUS
 62
     1
 10
870.0
 20
1407.944375069
 11
860.0
 21
1417.944375069
  0
LINE
  8
0
  6
CONTINUOUS
 62
     1
 10
762.0
 20
1417.944375069
 11
860.0
 21
1417.944375069
  0
LINE
  8
0
  6
CONTINUOUS
 62
     1
 10
870.0
 20
1349.305778818
 11
860.0
 21
1339.305778818
  0
LINE
  8
0
  6
CONTINUOUS
 62
     1
 10
762.0
 20
1339.305778818
 11
860.0
 21
1339.305778818
  0
LINE
  8
0
  6
CONTINUOUS
 62
     1
 10
750.0
 20
1421.466558854
 11
872.0
 21
1421.466558854
  0
ARC
  8
0
  6
CONTINUOUS
 62
     1
 10
872.0
 20
1337.63644216
 40
3.0
 50
270.0
 51
0.0
  0
ARC
  8
0
  6
CONTINUOUS
 62
     1
 10
872.0
 20
1334.194983542
 40
3.0
 50
270.0
 51
0.0
  0
ARC
  8
0
  6
CONTINUOUS
 62
     1
 10
872.0
 20
1333.334618887
 40
3.0
 50
270.0
 51
0.0
  0
LINE
  8
0
  6
CONTINUOUS
 62
     1
 10
749.507319827
 20
1334.63644216
 11
872.0
 21
1334.63644216
  0
LINE
  8
0
  6
CONTINUOUS
 62
     1
 10
749.607319827
 20
1331.194983542
 11
872.0
 21
1331.194983542
  0
LINE
  8
0
  6
CONTINUOUS
 62
     1
 10
749.607319827
 20
1330.334618887
 11
872.0
 21
1330.334618887
  0
LINE
  8
0
  6
CONTINUOUS
 62
     1
 10
880.0
 20
1333.266636349
 11
880.0
 21
1390.13271812
  0
LINE
  8
0
  6
CONTINUOUS
 62
     1
 10
875.0
 20
1333.266636349
 11
880.0
 21
1333.266636349
  0
LINE
  8
0
  6
CONTINUOUS
 62
     1
 10
875.0
 20
1390.13271812
 11
880.0
 21
1390.13271812
  0
LINE
  8
0
  6
CONTINUOUS
 62
     1
 10
875.0
 20
1357.366636349
 11
880.0
 21
1357.366636349
  0
LINE
  8
0
  6
CONTINUOUS
 62
     1
 10
837.0
 20
1306.657620342
 11
875.0
 21
1306.657620342
  0
LINE
  8
0
  6
CONTINUOUS
 62
     1
 10
880.0
 20
1377.848877817
 11
880.0
 21
1350.148877817
  0
LINE
  8
0
  6
CONTINUOUS
 62
     1
 10
747.0
 20
1288.0
 11
747.0
 21
1418.0
  0
LINE
  8
0
  6
CONTINUOUS
 62
     1
 10
637.0
 20
1369.5
 11
747.0
 21
1369.5
  0
LINE
  8
0
  6
CONTINUOUS
 62
     1
 10
747.0
 20
1305.957620342
 11
837.0
 21
1305.957620342
  0
LINE
  8
0
  6
CONTINUOUS
 62
     1
 10
839.0
 20
1306.657620342
 11
839.0
 21
1188.0
  0
LINE
  8
0
  6
CONTINUOUS
 62
     1
 10
879.0
 20
1333.266636349
 11
879.0
 21
1188.0
  0
LINE
  8
0
  6
CONTINUOUS
 62
     1
 10
2524.0
 20
1016.0
 11
3224.0
 21
1016.0
  0
LINE
  8
0
  6
CONTINUOUS
 62
     1
 10
2524.0
 20
2104.0
 11
3224.0
 21
2104.0
  0
LINE
  8
0
  6
CONTINUOUS
 62
     1
 10
2524.0
 20
2104.0
 11
2524.0
 21
1016.0
  0
TEXT
  8
0
  6
CONTINUOUS
 62
     2
 10
2624.0
 20
2045.6
 30
22.79952
 40
36.0
  1
マイティシリンダ仕様
 50
0.0
 41
0.9
 51
0.0
  7
KANJI1
  0
TEXT
  8
0
  6
CONTINUOUS
 62
     2
 10
2556.6
 20
1540.0
 30
17.6
 40
28.0
  1
モ　トル仕様
 50
0.0
 41
0.9
 51
0.0
  7
KANJI2
  0
TEXT
  8
0
  6
CONTINUOUS
 62
     2
 10
2554.8
 20
1236.0
 30
1.371428571
 40
24.0
  1
ブレ　キ
 50
0.0
 41
0.9
 51
0.0
  7
KANJI3
  0
LINE
  8
0
  6
CONTINUOUS
 62
     2
 10
2554.4
 20
1180.8
 11
2554.4
 21
1164.0
  0
LINE
  8
0
  6
CONTINUOUS
 62
     2
 10
2554.4
 20
1495.2
 11
2554.4
 21
1476.8
  0
TEXT
  8
0
  6
CONTINUOUS
 62
     2
 10
2983.2
 20
1646.4
 30
11.36
 40
28.0
  1
推力リミッタ
 50
0.0
 41
0.9
 51
0.0
  7
KANJI4
  0
TEXT
  8
0
  6
CONTINUOUS
 62
     2
 10
3195.2
 20
1534.4
 30
17.571428571
 40
24.0
  1
Ｐ
 50
0.0
 41
0.9
 51
0.0
  7
KANJI5
  0
TEXT
  8
0
  6
CONTINUOUS
 62
     2
 10
3062.4
 20
1534.4
 30
1.6
 40
24.0
  1
ＫＷ
 50
0.0
 41
0.857142857
 51
0.0
  7
KANJI6
  0
TEXT
  8
0
  6
CONTINUOUS
 62
     2
 10
3155.2
 20
1534.4
 30
20.5
 40
28.0
  1
４
 50
0.0
 41
0.9
 51
0.0
  7
KANJI7
  0
TEXT
  8
0
  6
CONTINUOUS
 62
     2
 10
2938.4
 20
1592.8
 30
0.8
 40
22.4
  1
マンセル
 50
0.0
 41
0.9
 51
0.0
  7
KANJI8
  0
TEXT
  8
0
  6
CONTINUOUS
 62
     2
 10
3032.0
 20
1594.4
 30
0.32
 40
22.4
  1
７．５ＧＹ５／４．５
 50
0.0
 41
0.785714286
 51
0.0
  7
KANJI9
  0
TEXT
  8
0
  6
CONTINUOUS
 62
     2
 10
2932.0
 20
1199.2
 30
2.4
 40
22.4
  1
スプリング制動式電磁ブレーキ
 50
0.0
 41
0.8
 51
0.0
  7
KANJI10
  0
TEXT
  8
0
  6
CONTINUOUS
 62
     2
 10
3196.0
 20
1478.4
 30
0.288
 40
24.0
  1
Ｖ
 50
0.0
 41
0.8
 51
0.0
  7
KANJI11
  0
TEXT
  8
0
  6
CONTINUOUS
 62
     2
 10
3181.6
 20
1422.4
 30
0.288
 40
24.0
  1
Ｈｚ
 50
0.0
 41
0.8
 51
0.0
  7
KANJI11
  0
TEXT
  8
0
  6
CONTINUOUS
 62
     2
 10
3023.8
 20
1422.2
 30
2.4
 40
24.0
  1
５０／６０
 50
0.0
 41
0.9
 51
0.0
  7
KANJI12
  0
TEXT
  8
0
  6
CONTINUOUS
 62
     2
 10
3197.8
 20
1368.2
 30
2.4
 40
24.0
  1
Ａ
 50
0.0
 41
0.9
 51
0.0
  7
KANJI12
  0
TEXT
  8
0
  6
CONTINUOUS
 62
     2
 10
3071.8
 20
1314.2
 30
2.4
 40
24.0
  1
Ｅ
 50
0.0
 41
0.9
 51
0.0
  7
KANJI12
  0
LINE
  8
0
  6
CONTINUOUS
 62
     2
 10
2524.0
 20
1128.0
 11
3224.0
 21
1128.0
  0
LINE
  8
0
  6
CONTINUOUS
 62
     2
 10
2524.0
 20
1072.0
 11
3224.0
 21
1072.0
  0
LINE
  8
0
  6
CONTINUOUS
 62
     2
 10
2588.0
 20
1184.0
 11
3224.0
 21
1184.0
  0
LINE
  8
0
  6
CONTINUOUS
 62
     2
 10
2588.0
 20
1576.0
 11
2588.0
 21
1128.0
  0
LINE
  8
0
  6
CONTINUOUS
 62
     2
 10
2524.0
 20
1240.0
 11
3224.0
 21
1240.0
  0
LINE
  8
0
  6
CONTINUOUS
 62
     2
 10
2588.0
 20
1296.0
 11
3224.0
 21
1296.0
  0
LINE
  8
0
  6
CONTINUOUS
 62
     2
 10
2588.0
 20
1352.0
 11
3224.0
 21
1352.0
  0
LINE
  8
0
  6
CONTINUOUS
 62
     2
 10
2588.0
 20
1408.0
 11
3224.0
 21
1408.0
  0
LINE
  8
0
  6
CONTINUOUS
 62
     2
 10
2524.0
 20
1688.0
 11
3224.0
 21
1688.0
  0
LINE
  8
0
  6
CONTINUOUS
 62
     2
 10
2524.0
 20
1632.0
 11
3224.0
 21
1632.0
  0
LINE
  8
0
  6
CONTINUOUS
 62
     2
 10
2524.0
 20
1576.0
 11
3224.0
 21
1576.0
  0
LINE
  8
0
  6
CONTINUOUS
 62
     2
 10
2924.0
 20
2024.0
 11
2924.0
 21
1016.0
  0
LINE
  8
0
  6
CONTINUOUS
 62
     2
 10
2588.0
 20
1464.0
 11
3224.0
 21
1464.0
  0
LINE
  8
0
  6
CONTINUOUS
 62
     2
 10
2588.0
 20
1520.0
 11
3224.0
 21
1520.0
  0
LINE
  8
0
  6
CONTINUOUS
 62
     2
 10
2524.0
 20
1968.0
 11
3224.0
 21
1968.0
  0
LINE
  8
0
  6
CONTINUOUS
 62
     2
 10
2524.0
 20
1912.0
 11
3224.0
 21
1912.0
  0
LINE
  8
0
  6
CONTINUOUS
 62
     2
 10
2524.0
 20
1856.0
 11
3224.0
 21
1856.0
  0
LINE
  8
0
  6
CONTINUOUS
 62
     2
 10
2524.0
 20
1800.0
 11
3224.0
 21
1800.0
  0
LINE
  8
0
  6
CONTINUOUS
 62
     2
 10
2524.0
 20
1744.0
 11
3224.0
 21
1744.0
  0
LINE
  8
0
  6
CONTINUOUS
 62
     2
 10
2524.0
 20
2024.0
 11
3224.0
 21
2024.0
  0
TEXT
  8
0
  6
CONTINUOUS
 62
     2
 10
924.8
 20
668.0
 30
2.4
 40
24.0
  1
ストローク
 50
0.0
 41
0.9
 51
0.0
  7
KANJI12
  0
TEXT
  8
0
  6
CONTINUOUS
 62
     2
 10
1078.4
 20
666.4
 30
0.0
 40
24.0
  1
ｍｉｎ　
 50
0.0
 41
0.9
 51
0.0
  7
KANJI13
  0
TEXT
  8
0
  6
CONTINUOUS
 62
     2
 10
1238.4
 20
666.4
 30
0.0
 40
24.0
  1
ｍｉｎ　
 50
0.0
 41
0.9
 51
0.0
  7
KANJI13
  0
TEXT
  8
0
  6
CONTINUOUS
 62
     2
 10
1558.4
 20
666.4
 30
0.0
 40
24.0
  1
ｍｉｎ　
 50
0.0
 41
0.9
 51
0.0
  7
KANJI13
  0
TEXT
  8
0
  6
CONTINUOUS
 62
     2
 10
1807.0
 20
669.8
 30
0.0
 40
19.2
  1
（ｋｇ）
 50
0.0
 41
0.777777778
 51
0.0
  7
KANJI14
  0
TEXT
  8
0
  6
CONTINUOUS
 62
     2
 10
1711.0
 20
667.0
 30
2.56
 40
25.6
  1
概算重量
 50
0.0
 41
0.9
 51
0.0
  7
KANJI15
  0
TEXT
  8
0
  6
CONTINUOUS
 62
     2
 10
680.0
 20
668.0
 30
2.56
 40
25.6
  1
形
 50
0.0
 41
0.9
 51
0.0
  7
KANJI15
  0
TEXT
  8
0
  6
CONTINUOUS
 62
     2
 10
836.0
 20
668.0
 30
2.56
 40
25.6
  1
式
 50
0.0
 41
0.9
 51
0.0
  7
KANJI15
  0
TEXT
  8
0
  6
CONTINUOUS
 62
     2
 10
2584.0
 20
1982.4
 30
240.594285714
 40
30.4
  1
形式
 50
0.0
 41
0.9
 51
0.0
  7
KANJI16
  0
TEXT
  8
0
  6
CONTINUOUS
 62
     2
 10
2584.0
 20
1926.4
 30
240.594285714
 40
30.4
  1
推力
 50
0.0
 41
0.9
 51
0.0
  7
KANJI16
  0
TEXT
  8
0
  6
CONTINUOUS
 62
     2
 10
2584.0
 20
1870.4
 30
39.628571429
 40
30.4
  1
ストローク
 50
0.0
 41
0.9
 51
0.0
  7
KANJI17
  0
TEXT
  8
0
  6
CONTINUOUS
 62
     2
 10
2584.0
 20
1814.4
 30
61.957805714
 40
30.4
  1
公称速度
 50
0.0
 41
0.9
 51
0.0
  7
KANJI18
  0
TEXT
  8
0
  6
CONTINUOUS
 62
     2
 10
2560.0
 20
1758.4
 30
2.605714286
 40
30.4
  1
ピストンロッド回転トルク
 50
0.0
 41
0.9
 51
0.0
  7
KANJI19
  0
TEXT
  8
0
  6
CONTINUOUS
 62
     2
 10
2584.0
 20
1702.4
 30
240.594285714
 40
30.4
  1
構造
 50
0.0
 41
0.9
 51
0.0
  7
KANJI16
  0
TEXT
  8
0
  6
CONTINUOUS
 62
     2
 10
2584.0
 20
1646.4
 30
17.298468571
 40
30.4
  1
過負荷安全装置
 50
0.0
 41
0.9
 51
0.0
  7
KANJI20
  0
TEXT
  8
0
  6
CONTINUOUS
 62
     2
 10
2584.0
 20
1590.4
 30
106.617142857
 40
30.4
  1
塗装色
 50
0.0
 41
0.9
 51
0.0
  7
KANJI21
  0
TEXT
  8
0
  6
CONTINUOUS
 62
     2
 10
2624.0
 20
1534.4
 30
26.6
 40
30.4
  1
出力　極数
 50
0.0
 41
0.9
 51
0.0
  7
KANJI22
  0
TEXT
  8
0
  6
CONTINUOUS
 62
     2
 10
2624.0
 20
1478.4
 30
44.586377143
 40
30.4
  1
電源電圧
 50
0.0
 41
0.9
 51
0.0
  7
KANJI23
  0
TEXT
  8
0
  6
CONTINUOUS
 62
     2
 10
2624.0
 20
1422.4
 30
80.56
 40
30.4
  1
周波数
 50
0.0
 41
0.9
 51
0.0
  7
KANJI24
  0
TEXT
  8
0
  6
CONTINUOUS
 62
     2
 10
2624.0
 20
1366.4
 30
188.48
 40
30.4
  1
電流
 50
0.0
 41
0.9
 51
0.0
  7
KANJI25
  0
TEXT
  8
0
  6
CONTINUOUS
 62
     2
 10
2624.0
 20
1310.4
 30
80.56
 40
30.4
  1
絶縁級
 50
0.0
 41
0.9
 51
0.0
  7
KANJI24
  0
TEXT
  8
0
  6
CONTINUOUS
 62
     2
 10
2624.0
 20
1198.4
 30
188.48
 40
30.4
  1
形式
 50
0.0
 41
0.9
 51
0.0
  7
KANJI25
  0
TEXT
  8
0
  6
CONTINUOUS
 62
     2
 10
2624.0
 20
1142.4
 30
44.586377143
 40
30.4
  1
操作方式
 50
0.0
 41
0.9
 51
0.0
  7
KANJI23
  0
TEXT
  8
0
  6
CONTINUOUS
 62
     2
 10
2584.0
 20
1086.4
 30
106.617142857
 40
30.4
  1
付属品
 50
0.0
 41
0.9
 51
0.0
  7
KANJI21
  0
TEXT
  8
0
  6
CONTINUOUS
 62
     2
 10
2584.0
 20
1030.4
 30
240.594285714
 40
30.4
  1
台数
 50
0.0
 41
0.9
 51
0.0
  7
KANJI16
  0
TEXT
  8
0
  6
CONTINUOUS
 62
     2
 10
3174.8
 20
1873.6
 30
0.1792
 40
22.4
  1
ｍｍ
 50
0.0
 41
0.8
 51
0.0
  7
KANJI26
  0
TEXT
  8
0
  6
CONTINUOUS
 62
     2
 10
3114.8
 20
1820.0
 30
0.1792
 40
22.4
  1
ｍｍ／ｓｅｃ
 50
0.0
 41
0.8
 51
0.0
  7
KANJI26
  0
TEXT
  8
0
  6
CONTINUOUS
 62
     2
 10
2416.0
 20
889.6
 30
16.0
 40
32.0
  1
特記事項
 50
0.0
 41
0.9
 51
0.0
  7
KANJI27
  0
TEXT
  8
0
  6
CONTINUOUS
 62
     2
 10
2304.0
 20
825.6
 30
8.228571429
 40
28.8
  1
１。運転時は必ずピストンロッドの回転防止を行って下さい。
 50
0.0
 41
0.857142857
 51
0.0
  7
KANJI28
  0
TEXT
  8
0
  6
CONTINUOUS
 62
     2
 10
1160.0
 20
668.0
 30
2.8
 40
28.0
  1
ＡＬ
 50
0.0
 41
0.9
 51
0.0
  7
KANJI29
  0
TEXT
  8
0
  6
CONTINUOUS
 62
     2
 10
1320.0
 20
668.0
 30
2.8
 40
28.0
  1
Ｌ
 50
0.0
 41
0.9
 51
0.0
  7
KANJI29
  0
TEXT
  8
0
  6
CONTINUOUS
 62
     2
 10
1456.0
 20
668.0
 30
2.8
 40
28.0
  1
Ｃ
 50
0.0
 41
0.9
 51
0.0
  7
KANJI29
  0
TEXT
  8
0
  6
CONTINUOUS
 62
     2
 10
1640.0
 20
668.0
 30
2.8
 40
28.0
  1
Ｐ
 50
0.0
 41
0.9
 51
0.0
  7
KANJI29
  0
LINE
  8
0
  6
CONTINUOUS
 62
     2
 10
1122.0
 20
1305.4
 11
1193.0
 21
1436.9
  0
LINE
  8
0
  6
CONTINUOUS
 62
     2
 10
1193.0
 20
1436.9
 11
1268.0
 21
1436.9
  0
LINE
  8
0
  6
CONTINUOUS
 62
     2
 10
1122.0
 20
1305.4
 11
1135.733041598
 21
1319.93972381
  0
LINE
  8
0
  6
CONTINUOUS
 62
     2
 10
1122.0
 20
1305.4
 11
1126.62330099
 21
1324.858290982
  0
TEXT
  8
0
  6
CONTINUOUS
 62
     2
 10
1194.5
 20
1448.1
 30
0.0
 40
24.0
  1
給脂口
 50
0.0
 41
0.9
 51
0.0
  7
KANJI13
  0
LINE
  8
0
  6
CONTINUOUS
 62
     1
 10
1466.999190206
 20
1279.5
 11
1466.999190206
 21
1288.0
  0
LINE
  8
0
  6
CONTINUOUS
 62
     1
 10
579.0
 20
1388.0
 11
614.0
 21
1388.0
  0
LINE
  8
1
  6
CONTINUOUS
 62
     2
 10
803.0
 20
1347.466558854
 11
791.528561983
 21
1331.083454453
  0
LINE
  8
1
  6
CONTINUOUS
 62
     2
 10
803.0
 20
1347.466558854
 11
801.25699546
 21
1327.542655242
  0
TEXT
  8
0
  6
CONTINUOUS
 62
     2
 10
728.0
 20
1068.2
 30
0.0
 40
24.0
  1
推力リミッタ
 50
0.0
 41
0.9
 51
0.0
  7
KANJI13
  0
LINE
  8
6
  6
CONTINUOUS
 62
     2
 10
700.01036957
 20
1064.5
 11
865.5
 21
1064.5
  0
LINE
  8
1
  6
CONTINUOUS
 62
     2
 10
803.0
 20
1347.466558854
 11
700.01036957
 21
1064.5
  0
TEXT
  8
0
  6
CONTINUOUS
 62
     4
 10
159.999994954
 20
123.99999159
 30
1.599999664
 40
15.999996636
  1
ＰＡＲＴＳ　ＬＩＳＴ
 50
0.0
 41
0.6
 51
0.0
  7
KANJI30
  0
TEXT
  8
0
  6
CONTINUOUS
 62
     4
 10
519.999919262
 20
123.99999159
 30
1.599999664
 40
15.999996636
  1
Ｎ０．
 50
0.0
 41
0.6
 51
0.0
  7
KANJI30
  0
TEXT
  8
0
  6
CONTINUOUS
 62
     4
 10
159.999994954
 20
99.999996636
 30
1.919999596
 40
19.199995963
  1
部品表
 50
0.0
 41
0.9
 51
0.0
  7
KANJI31
  0
TEXT
  8
0
  6
CONTINUOUS
 62
     4
 10
519.999919262
 20
99.999996636
 30
1.919999596
 40
19.199995963
  1
項番
 50
0.0
 41
0.9
 51
0.0
  7
KANJI31
  0
TEXT
  8
0
  6
CONTINUOUS
 62
     4
 10
2354.9334008
 20
2242.9333328
 30
2.07999984
 40
20.7999984
  1
ＩＳＯ
 50
0.0
 41
0.9
 51
0.0
  7
KANJI32
  0
TEXT
  8
0
  6
CONTINUOUS
 62
     4
 10
2417.333396
 20
2242.9333328
 30
1.38666656
 40
13.8666656
  1
ＭＥＴＲＩＣ　ＳＣＲＥＷ　ＴＨＲＥＡＤ
 50
0.0
 41
0.75
 51
0.0
  7
KANJI33
  0
TEXT
  8
0
  6
CONTINUOUS
 62
     4
 10
2652.72004456
 20
2242.9333328
 30
1.38666656
 40
13.8666656
  1
ＩＳＯ
 50
0.0
 41
0.75
 51
0.0
  7
KANJI33
  0
TEXT
  8
0
  6
CONTINUOUS
 62
     4
 10
2850.32002936
 20
2242.9333328
 30
2.07999984
 40
20.7999984
  1
３
 50
0.0
 41
0.75
 51
0.0
  7
KANJI34
  0
TEXT
  8
0
  6
CONTINUOUS
 62
     4
 10
2867.65336136
 20
2242.9333328
 30
1.38666656
 40
13.8666656
  1
ＲＤ　ＡＮＧＬＥ　ＰＲＯＪＥＣＴＩＯＮ　第３角法
 50
0.0
 41
0.75
 51
0.0
  7
KANJI33
  0
TEXT
  8
0
  6
CONTINUOUS
 62
     4
 10
2690.85337496
 20
2242.9333328
 30
1.247999904
 40
12.47999904
  1
メートルネジ使用
 50
0.0
 41
0.75
 51
0.0
  7
KANJI35
  0
TEXT
  8
0
  6
CONTINUOUS
 62
     4
 10
2171.2000816
 20
233.0666552
 30
1.38666656
 40
13.8666656
  1
ＤＲＡＷＮ
 50
0.0
 41
0.6
 51
0.0
  7
KANJI36
  0
TEXT
  8
0
  6
CONTINUOUS
 62
     4
 10
2171.2000816
 20
288.5333176
 30
1.38666656
 40
13.8666656
  1
ＤＥＳＩＧＮ
 50
0.0
 41
0.6
 51
0.0
  7
KANJI36
  0
TEXT
  8
0
  6
CONTINUOUS
 62
     4
 10
2171.2000816
 20
343.99998
 30
1.38666656
 40
13.8666656
  1
ＣＨＥＣＫ
 50
0.0
 41
0.6
 51
0.0
  7
KANJI36
  0
TEXT
  8
0
  6
CONTINUOUS
 62
     4
 10
2171.2000816
 20
399.4666424
 30
1.38666656
 40
13.8666656
  1
ＣＯＤＥ
 50
0.0
 41
0.6
 51
0.0
  7
KANJI36
  0
LINE
  8
0
  6
CONTINUOUS
 62
     4
 10
2157.333416
 20
312.7999824
 11
2410.4000632
 21
312.7999824
  0
LINE
  8
0
  6
CONTINUOUS
 62
     4
 10
2157.333416
 20
257.33332
 11
2410.4000632
 21
257.33332
  0
LINE
  8
0
  6
CONTINUOUS
 62
     4
 10
2157.333416
 20
368.2666448
 11
2410.4000632
 21
368.2666448
  0
TEXT
  8
0
  6
CONTINUOUS
 62
     4
 10
2171.2000816
 20
267.7333192
 30
1.663999872
 40
16.63999872
  1
設計
 50
0.0
 41
0.6
 51
0.0
  7
KANJI37
  0
TEXT
  8
0
  6
CONTINUOUS
 62
     4
 10
2171.2000816
 20
323.1999816
 30
1.663999872
 40
16.63999872
  1
検図
 50
0.0
 41
0.6
 51
0.0
  7
KANJI37
  0
TEXT
  8
0
  6
CONTINUOUS
 62
     4
 10
2171.2000816
 20
378.666644
 30
1.663999872
 40
16.63999872
  1
分類
 50
0.0
 41
0.6
 51
0.0
  7
KANJI37
  0
LINE
  8
0
  6
CONTINUOUS
 62
     4
 10
2410.4000632
 20
257.33332
 11
3225.0666672
 21
257.33332
  0
TEXT
  8
0
  6
CONTINUOUS
 62
     4
 10
2424.2667288
 20
233.0666552
 30
1.38666656
 40
13.8666656
  1
ＤＲＡＷＩＮＧ　ＮＯ．
 50
0.0
 41
0.8
 51
0.0
  7
KANJI38
  0
TEXT
  8
0
  6
CONTINUOUS
 62
     4
 10
2424.2667288
 20
343.99998
 30
1.38666656
 40
13.8666656
  1
ＴＹＰＥ
 50
0.0
 41
0.8
 51
0.0
  7
KANJI38
  0
TEXT
  8
0
  6
CONTINUOUS
 62
     4
 10
2424.2667288
 20
208.7999904
 30
1.663999872
 40
16.63999872
  1
図　面　番　号
 50
0.0
 41
0.8
 51
0.0
  7
KANJI39
  0
TEXT
  8
0
  6
CONTINUOUS
 62
     4
 10
2424.2667288
 20
264.2666528
 30
1.663999872
 40
16.63999872
  1
製番
 50
0.0
 41
0.8
 51
0.0
  7
KANJI39
  0
TEXT
  8
0
  6
CONTINUOUS
 62
     4
 10
2424.2667288
 20
319.7333152
 30
1.663999872
 40
16.63999872
  1
機種
 50
0.0
 41
0.8
 51
0.0
  7
KANJI39
  0
LINE
  8
0
  6
CONTINUOUS
 62
     4
 10
2157.333416
 20
146.3999952
 11
2410.4000632
 21
146.3999952
  0
LINE
  8
0
  6
CONTINUOUS
 62
     4
 10
2157.333416
 20
201.8666576
 11
2410.4000632
 21
201.8666576
  0
TEXT
  8
0
  6
CONTINUOUS
 62
     4
 10
2171.2000816
 20
122.1333304
 30
1.38666656
 40
13.8666656
  1
ＳＣＡＬＥ
 50
0.0
 41
0.6
 51
0.0
  7
KANJI36
  0
TEXT
  8
0
  6
CONTINUOUS
 62
     4
 10
2171.2000816
 20
177.5999928
 30
1.38666656
 40
13.8666656
  1
ＤＡＴＥ
 50
0.0
 41
0.6
 51
0.0
  7
KANJI36
  0
TEXT
  8
0
  6
CONTINUOUS
 62
     4
 10
2171.2000816
 20
101.333332
 30
1.663999872
 40
16.63999872
  1
尺度
 50
0.0
 41
0.6
 51
0.0
  7
KANJI37
  0
TEXT
  8
0
  6
CONTINUOUS
 62
     4
 10
2171.2000816
 20
156.7999944
 30
1.663999872
 40
16.63999872
  1
日付
 50
0.0
 41
0.6
 51
0.0
  7
KANJI37
  0
TEXT
  8
0
  6
CONTINUOUS
 62
     4
 10
2171.2000816
 20
212.2666568
 30
1.663999872
 40
16.63999872
  1
作図
 50
0.0
 41
0.6
 51
0.0
  7
KANJI37
  0
LINE
  8
0
  6
CONTINUOUS
 62
     4
 10
1765.6001128
 20
90.9333328
 11
1765.6001128
 21
146.3999952
  0
LINE
  8
0
  6
CONTINUOUS
 62
     4
 10
1828.000108
 20
90.9333328
 11
1828.000108
 21
146.3999952
  0
TEXT
  8
0
  6
CONTINUOUS
 62
     4
 10
1786.4001112
 20
122.1333304
 30
1.38666656
 40
13.8666656
  1
ＢＹ
 50
0.0
 41
0.6
 51
0.0
  7
KANJI36
  0
TEXT
  8
0
  6
CONTINUOUS
 62
     4
 10
1938.9334328
 20
122.1333304
 30
1.38666656
 40
13.8666656
  1
ＤＥＳＣＲＩＰＴＩＯＮ
 50
0.0
 41
0.6
 51
0.0
  7
KANJI36
  0
TEXT
  8
0
  6
CONTINUOUS
 62
     4
 10
1786.4001112
 20
101.333332
 30
1.663999872
 40
16.63999872
  1
担当
 50
0.0
 41
0.6
 51
0.0
  7
KANJI37
  0
TEXT
  8
0
  6
CONTINUOUS
 62
     4
 10
1959.7334312
 20
101.333332
 30
1.663999872
 40
16.63999872
  1
記　　　　事
 50
0.0
 41
0.6
 51
0.0
  7
KANJI37
  0
LINE
  8
0
  6
CONTINUOUS
 62
     4
 10
1639.0667892
 20
135.999996
 11
1616.5334576
 21
101.333332
  0
TEXT
  8
0
  6
CONTINUOUS
 62
     4
 10
1696.2667848
 20
122.1333304
 30
1.38666656
 40
13.8666656
  1
ＤＡＴＥ
 50
0.0
 41
0.6
 51
0.0
  7
KANJI36
  0
TEXT
  8
0
  6
CONTINUOUS
 62
     4
 10
1706.666784
 20
101.333332
 30
1.663999872
 40
16.63999872
  1
日付
 50
0.0
 41
0.6
 51
0.0
  7
KANJI37
  0
LINE
  8
0
  6
CONTINUOUS
 62
     4
 10
1616.5334576
 20
101.333332
 11
1661.6001208
 21
101.333332
  0
LINE
  8
0
  6
CONTINUOUS
 62
     4
 10
1668.5334536
 20
90.9333328
 11
1668.5334536
 21
146.3999952
  0
LINE
  8
0
  6
CONTINUOUS
 62
     4
 10
1639.0667892
 20
135.999996
 11
1661.6001208
 21
101.333332
  0
LINE
  8
0
  6
CONTINUOUS
 62
     4
 10
2410.4000632
 20
177.5999928
 11
3225.0666672
 21
177.5999928
  0
LINE
  8
0
  6
CONTINUOUS
 62
     4
 10
2410.4000632
 20
90.9333328
 11
2410.4000632
 21
423.7333072
  0
LINE
  8
0
  6
LTYPE3
 62
     4
 10
2992.8000184
 20
187.999992
 11
2992.8000184
 21
243.4666544
  0
LINE
  8
0
  6
LTYPE3
 62
     4
 10
2944.2666888
 20
187.999992
 11
2944.2666888
 21
243.4666544
  0
LINE
  8
0
  6
LTYPE3
 62
     4
 10
2895.7333592
 20
187.999992
 11
2895.7333592
 21
243.4666544
  0
LINE
  8
0
  6
LTYPE3
 62
     4
 10
2847.2000296
 20
187.999992
 11
2847.2000296
 21
243.4666544
  0
LINE
  8
0
  6
LTYPE3
 62
     4
 10
2798.6667
 20
187.999992
 11
2798.6667
 21
243.4666544
  0
LINE
  8
0
  6
LTYPE3
 62
     4
 10
2750.1333704
 20
187.999992
 11
2750.1333704
 21
243.4666544
  0
LINE
  8
0
  6
LTYPE3
 62
     4
 10
2701.6000408
 20
187.999992
 11
2701.6000408
 21
243.4666544
  0
LINE
  8
0
  6
LTYPE3
 62
     4
 10
2653.0667112
 20
187.999992
 11
2653.0667112
 21
243.4666544
  0
LINE
  8
0
  6
LTYPE3
 62
     4
 10
2653.0667112
 20
243.4666544
 11
2992.8000184
 21
243.4666544
  0
LINE
  8
0
  6
LTYPE3
 62
     4
 10
2653.0667112
 20
187.999992
 11
2992.8000184
 21
187.999992
  0
LINE
  8
0
  6
CONTINUOUS
 62
     4
 10
3020.5333496
 20
217.4666564
 11
3034.4000152
 21
217.4666564
  0
LINE
  8
0
  6
CONTINUOUS
 62
     4
 10
3107.2000096
 20
196.666658
 11
3058.66668
 21
196.666658
  0
LINE
  8
0
  6
CONTINUOUS
 62
     4
 10
3058.66668
 20
196.666658
 11
3082.9333448
 21
238.2666548
  0
LINE
  8
0
  6
CONTINUOUS
 62
     4
 10
3082.9333448
 20
238.2666548
 11
3107.2000096
 21
196.666658
  0
TEXT
  8
0
  6
CONTINUOUS
 62
     4
 10
3114.1333424
 20
14.666672
 30
6.9333328
 40
69.333328
  1
／
 50
0.0
 41
0.9
 51
0.0
  7
KANJI40
  0
TEXT
  8
0
  6
CONTINUOUS
 62
     4
 10
2770.9333688
 20
343.99998
 30
1.38666656
 40
13.8666656
  1
ＴＩＴＬＥ
 50
0.0
 41
0.8
 51
0.0
  7
KANJI38
  0
TEXT
  8
0
  6
CONTINUOUS
 62
     4
 10
2770.9333688
 20
319.7333152
 30
1.663999872
 40
16.63999872
  1
名称
 50
0.0
 41
0.8
 51
0.0
  7
KANJI39
  0
LINE
  8
0
  6
CONTINUOUS
 62
     6
 10
136.0
 20
84.0
 11
136.0
 21
2236.0
  0
LINE
  8
0
  6
CONTINUOUS
 62
     6
 10
136.0
 20
2236.0
 11
3232.0
 21
2236.0
  0
LINE
  8
0
  6
CONTINUOUS
 62
     6
 10
3232.0
 20
2236.0
 11
3232.0
 21
84.0
  0
LINE
  8
0
  6
CONTINUOUS
 62
     6
 10
3232.0
 20
84.0
 11
136.0
 21
84.0
  0
LINE
  8
0
  6
CONTINUOUS
 62
     6
 10
663.999888985
 20
91.999998318
 11
663.999888985
 21
203.999974769
  0
LINE
  8
0
  6
CONTINUOUS
 62
     6
 10
143.999998318
 20
203.999974769
 11
663.999888985
 21
203.999974769
  0
LINE
  8
0
  6
CONTINUOUS
 62
     6
 10
143.999998318
 20
91.999998318
 11
663.999888985
 21
91.999998318
  0
LINE
  8
0
  6
CONTINUOUS
 62
     6
 10
143.999998318
 20
91.999998318
 11
143.999998318
 21
203.999974769
  0
LINE
  8
0
  6
CONTINUOUS
 62
     6
 10
503.999922626
 20
91.999998318
 11
503.999922626
 21
203.999974769
  0
LINE
  8
0
  6
CONTINUOUS
 62
     6
 10
143.999998318
 20
147.999986544
 11
663.999888985
 21
147.999986544
  0
TEXT
  8
0
  6
CONTINUOUS
 62
     3
 10
159.999994954
 20
163.999983179
 30
2.399999495
 40
23.999994954
  1
ＰＬ
 50
0.0
 41
0.9
 51
0.0
  7
KANJI41
  0
LINE
  8
0
  6
CONTINUOUS
 62
     6
 10
1609.6001248
 20
90.9333328
 11
1609.6001248
 21
146.3999952
  0
LINE
  8
0
  6
CONTINUOUS
 62
     6
 10
1609.6001248
 20
146.3999952
 11
2157.333416
 21
146.3999952
  0
LINE
  8
0
  6
CONTINUOUS
 62
     6
 10
1609.6001248
 20
90.9333328
 11
3225.0666672
 21
90.9333328
  0
LINE
  8
0
  6
CONTINUOUS
 62
     6
 10
2702.20670742
 20
127.67999664
 11
2679.32670918
 21
127.67999664
  0
LINE
  8
0
  6
CONTINUOUS
 62
     6
 10
2702.20670742
 20
131.83999632
 11
2679.32670918
 21
131.83999632
  0
LINE
  8
0
  6
CONTINUOUS
 62
     6
 10
2702.20670742
 20
127.67999664
 11
2725.08670566
 21
127.67999664
  0
LINE
  8
0
  6
CONTINUOUS
 62
     6
 10
2702.20670742
 20
131.83999632
 11
2725.08670566
 21
131.83999632
  0
LINE
  8
0
  6
CONTINUOUS
 62
     6
 10
2725.08670566
 20
131.83999632
 11
2725.08670566
 21
127.67999664
  0
ARC
  8
0
  6
CONTINUOUS
 62
     6
 10
2730.28670526
 20
129.75999648
 40
20.7999984
 50
185.739170477
 51
90.0
  0
ARC
  8
0
  6
CONTINUOUS
 62
     6
 10
2730.28670526
 20
129.75999648
 40
24.95999808
 50
184.780191847
 51
90.0
  0
LINE
  8
0
  6
CONTINUOUS
 62
     6
 10
2679.32670918
 20
127.67999664
 11
2679.32670918
 21
131.83999632
  0
TEXT
  8
0
  6
CONTINUOUS
 62
     6
 10
2417.333396
 20
122.1333304
 30
0.0
 40
24.2666648
  1
ＵＮＩＴＥＣ　ＩＮＤＵＳＴＲＹ　ＣＯ．，ＬＴＤ．
 50
0.0
 41
0.42031746
 51
0.0
  7
KANJI42
  0
LINE
  8
0
  6
CONTINUOUS
 62
     6
 10
2699.08670766
 20
154.71999456
 11
2674.12670958
 21
154.71999456
  0
LINE
  8
0
  6
CONTINUOUS
 62
     6
 10
2705.32670718
 20
154.71999456
 11
2730.28670526
 21
154.71999456
  0
ARC
  8
0
  6
CONTINUOUS
 62
     6
 10
2674.12670958
 20
129.75999648
 40
20.7999984
 50
90.0
 51
354.260829523
  0
ARC
  8
0
  6
CONTINUOUS
 62
     6
 10
2674.12670958
 20
129.75999648
 40
24.95999808
 50
90.0
 51
355.219808153
  0
LINE
  8
0
  6
CONTINUOUS
 62
     6
 10
2699.08670766
 20
154.71999456
 11
2699.08670766
 21
150.55999488
  0
LINE
  8
0
  6
CONTINUOUS
 62
     6
 10
2674.12670958
 20
150.55999488
 11
2699.08670766
 21
150.55999488
  0
LINE
  8
0
  6
CONTINUOUS
 62
     6
 10
2705.32670718
 20
154.71999456
 11
2705.32670718
 21
150.55999488
  0
LINE
  8
0
  6
CONTINUOUS
 62
     6
 10
2730.28670526
 20
150.55999488
 11
2705.32670718
 21
150.55999488
  0
TEXT
  8
0
  6
CONTINUOUS
 62
     6
 10
2757.67336982
 20
113.11999776
 30
4.15999968
 40
41.5999968
  1
ユニテック工業株式会社
 50
0.0
 41
0.9
 51
0.0
  7
KANJI43
  0
TEXT
  8
0
  6
CONTINUOUS
 62
     2
 10
2304.0
 20
773.2
 30
8.208
 40
28.8
  1
２。モートル：全閉自冷かご形３０分定格
 50
0.0
 41
0.857222222
 51
0.0
  7
KANJI44
  0
TEXT
  8
0
  6
CONTINUOUS
 62
     3
 10
2276.0
 20
100.0
 30
2.4
 40
36.0
  1
１／８
 50
0.0
 41
0.666666667
 51
0.0
  7
KANJI45
  0
TEXT
  8
0
  6
CONTINUOUS
 62
     3
 10
2602.5
 20
263.0
 30
2.4
 40
32.0
  1
Ｓ
 50
0.0
 41
0.75
 51
0.0
  7
KANJI46
  0
CIRCLE
  8
0
  6
CONTINUOUS
 62
     3
 10
2613.5
 20
279.5
 40
21.708293346
  0
TEXT
  8
0
  6
CONTINUOUS
 62
     3
 10
2894.0
 20
268.0
 30
20.0
 40
40.0
  1
外形寸法図
 50
0.0
 41
1.0
 51
0.0
  7
KANJI47
  0
TEXT
  8
0
  6
CONTINUOUS
 62
     3
 10
2846.0
 20
316.0
 30
5.714285714
 40
40.0
  1
マイティシリンダ
 50
0.0
 41
1.0
 51
0.0
  7
KANJI48
  0
LINE
  8
6
  6
CONTINUOUS
 62
     2
 10
1725.500190206
 20
1335.5
 11
1720.323809304
 21
1316.181483474
  0
LINE
  8
6
  6
CONTINUOUS
 62
     2
 10
1725.500190206
 20
1335.5
 11
1730.676571108
 21
1316.181483474
  0
LINE
  8
6
  6
CONTINUOUS
 62
     2
 10
1725.500190206
 20
1335.5
 11
1725.500190206
 21
1240.5
  0
LINE
  8
6
  6
CONTINUOUS
 62
     2
 10
1725.500190206
 20
1240.5
 11
1730.676571108
 21
1259.818516526
  0
LINE
  8
6
  6
CONTINUOUS
 62
     2
 10
1725.500190206
 20
1240.5
 11
1720.323809304
 21
1259.818516526
  0
TEXT
  8
6
  6
CONTINUOUS
 62
     2
 10
1717.500190206
 20
1253.2
 30
2.4
 40
24.0
  1
φ９５
 50
90.0
 41
0.9
 51
0.0
  7
KANJI0
  0
LINE
  8
6
  6
CONTINUOUS
 62
     2
 10
1616.500190206
 20
1240.5
 11
1737.500190206
 21
1240.5
  0
LINE
  8
6
  6
CONTINUOUS
 62
     2
 10
1615.500190206
 20
1335.5
 11
1737.500190206
 21
1335.5
  0
TEXT
  8
0
  6
CONTINUOUS
 62
     2
 10
3000.8
 20
1479.2
 30
2.4
 40
24.0
  1
　　　／　
 50
0.0
 41
0.9
 51
0.0
  7
KANJI12
  0
TEXT
  8
0
  6
CONTINUOUS
 62
     2
 10
2994.0
 20
1373.0
 30
2.4
 40
24.0
  1
　　　／
 50
0.0
 41
0.9
 51
0.0
  7
KANJI12
  0
TEXT
  8
0
  6
CONTINUOUS
 62
     2
 10
2944.8
 20
1814.2
 30
2.4
 40
24.0
  1
１２．５／１５
 50
0.0
 41
0.9
 51
0.0
  7
KANJI12
  0
TEXT
  8
0
  6
CONTINUOUS
 62
     2
 10
2969.8
 20
1536.2
 30
2.4
 40
24.0
  1
１．５
 50
0.0
 41
0.9
 51
0.0
  7
KANJI12
  0
LINE
  8
6
  6
CONTINUOUS
 62
     2
 10
1467.000190206
 20
1238.8
 11
1467.000190206
 21
1229.735
  0
LINE
  8
0
  6
CONTINUOUS
 62
     1
 10
1354.219691586
 20
1359.650148475
 11
1359.795406547
 21
1380.459
  0
LINE
  8
0
  6
CONTINUOUS
 62
     1
 10
1359.795406547
 20
1380.459
 11
1365.154390396
 21
1360.459
  0
LINE
  8
0
  6
CONTINUOUS
 62
     1
 10
1359.795406547
 20
1195.459
 11
1365.154390396
 21
1215.459
  0
LINE
  8
0
  6
CONTINUOUS
 62
     1
 10
1354.219691586
 20
1359.650148475
 11
1354.219691586
 21
1287.959
  0
LINE
  8
0
  6
CONTINUOUS
 62
     1
 10
1359.795406547
 20
1380.459
 11
1359.795406547
 21
1287.959
  0
LINE
  8
6
  6
CONTINUOUS
 62
     2
 10
1400.07
 20
1380.459
 11
1399.57
 21
1380.459
  0
LINE
  8
0
  6
LTYPE1
 62
     2
 10
1636.07
 20
1287.959
 11
416.07
 21
1287.959
  0
LINE
  8
6
  6
CONTINUOUS
 62
     2
 10
1347.795406547
 20
1380.459
 11
1215.07
 21
1380.459
  0
LINE
  8
6
  6
CONTINUOUS
 62
     2
 10
1347.795406547
 20
1195.459
 11
1215.07
 21
1195.459
  0
LINE
  8
0
  6
CONTINUOUS
 62
     1
 10
1437.405399739
 20
1380.459
 11
1432.04641589
 21
1360.459
  0
LINE
  8
0
  6
CONTINUOUS
 62
     1
 10
1437.405399739
 20
1380.459
 11
1437.405399739
 21
1287.959
  0
LINE
  8
0
  6
CONTINUOUS
 62
     1
 10
1455.127868375
 20
1336.338113682
 11
1455.127868375
 21
1338.238113682
  0
POINT
  8
0
  6
CONTINUOUS
 62
     1
 10
1455.127868375
 20
1338.238113682
  0
LINE
  8
0
  6
CONTINUOUS
 62
     1
 10
1455.127868375
 20
1338.238113682
 11
1463.327868375
 21
1338.238113682
  0
POINT
  8
0
  6
CONTINUOUS
 62
     1
 10
1463.327868375
 20
1338.238113682
  0
LINE
  8
0
  6
CONTINUOUS
 62
     1
 10
1463.327868375
 20
1338.238113682
 11
1463.327868375
 21
1336.538113682
  0
LINE
  8
0
  6
CONTINUOUS
 62
     1
 10
1451.87
 20
1336.476376915
 11
1437.405399739
 21
1380.459
  0
LINE
  8
0
  6
CONTINUOUS
 62
     1
 10
1451.87
 20
1336.476376915
 11
1451.87
 21
1287.959
  0
LINE
  8
0
  6
CONTINUOUS
 62
     1
 10
1463.327868375
 20
1338.238113682
 11
1463.327868375
 21
1287.959
  0
LINE
  8
0
  6
CONTINUOUS
 62
     1
 10
1455.127868375
 20
1336.476376915
 11
1455.127868375
 21
1287.959
  0
LINE
  8
0
  6
CONTINUOUS
 62
     1
 10
1437.405399739
 20
1195.459
 11
1432.04641589
 21
1215.459
  0
LINE
  8
0
  6
CONTINUOUS
 62
     1
 10
1466.97
 20
1242.441623085
 11
1451.97
 21
1242.441623085
  0
LINE
  8
0
  6
CONTINUOUS
 62
     1
 10
1451.87
 20
1242.441623085
 11
1437.405399739
 21
1195.459
  0
LINE
  8
0
  6
LTYPE4
 62
     2
 10
1359.795406547
 20
1380.459
 11
1437.405399739
 21
1380.459
  0
LINE
  8
0
  6
LTYPE4
 62
     2
 10
1359.795406547
 20
1195.459
 11
1437.405399739
 21
1195.459
  0
LINE
  8
0
  6
CONTINUOUS
 62
     1
 10
1354.219691586
 20
1359.650148475
 11
1348.643976624
 21
1380.459
  0
LINE
  8
0
  6
CONTINUOUS
 62
     1
 10
1354.219691586
 20
1359.650148475
 11
1354.219691586
 21
1287.959
  0
LINE
  8
0
  6
CONTINUOUS
 62
     1
 10
1348.643976624
 20
1380.459
 11
1348.643976624
 21
1287.959
  0
LINE
  8
0
  6
CONTINUOUS
 62
     1
 10
1343.389691586
 20
1216.170851525
 11
1348.965406547
 21
1195.362
  0
LINE
  8
0
  6
CONTINUOUS
 62
     1
 10
1329.089390396
 20
1216.367851525
 11
1343.336905595
 21
1216.367851525
  0
LINE
  8
0
  6
CONTINUOUS
 62
     1
 10
1354.393402083
 20
1215.619555123
 11
1359.795406547
 21
1195.459
  0
LINE
  8
0
  6
CONTINUOUS
 62
     1
 10
1348.965406547
 20
1195.362
 11
1354.393521287
 21
1215.62
  0
LINE
  8
0
  6
CONTINUOUS
 62
     1
 10
1467.0
 20
1336.476376915
 11
1467.0
 21
1240.5
  0
LINE
  8
0
  6
CONTINUOUS
 62
     1
 10
1466.999190206
 20
1240.5
 11
1607.000190206
 21
1240.5
  0
LINE
  8
0
  6
CONTINUOUS
 62
     1
 10
1466.999190206
 20
1240.5
 11
1466.999190206
 21
1288.0
  0
LINE
  8
1
  6
CONTINUOUS
 62
     2
 10
1567.000190206
 20
1232.5
 11
1567.000190206
 21
1008.838376915
  0
LINE
  8
1
  6
CONTINUOUS
 62
     2
 10
1567.000190206
 20
1024.838376915
 11
1547.68167368
 21
1030.014757817
  0
LINE
  8
1
  6
CONTINUOUS
 62
     2
 10
1567.000190206
 20
1024.838376915
 11
1547.68167368
 21
1019.661996013
  0
LINE
  8
1
  6
CONTINUOUS
 62
     2
 10
1567.000190206
 20
1024.838376915
 11
1467.0
 21
1024.838376915
  0
LINE
  8
1
  6
CONTINUOUS
 62
     2
 10
1467.0
 20
1024.838376915
 11
1486.318516526
 21
1019.661996013
  0
LINE
  8
1
  6
CONTINUOUS
 62
     2
 10
1467.0
 20
1024.838376915
 11
1486.318516526
 21
1030.014757817
  0
LINE
  8
1
  6
CONTINUOUS
 62
     2
 10
1467.0
 20
1232.5
 11
1467.0
 21
1008.838376915
  0
TEXT
  8
1
  6
CONTINUOUS
 62
     3
 10
1476.200095103
 20
1032.838376915
 30
2.4
 40
28.0
  1
１００
 50
0.0
 41
0.914285714
 51
0.0
  7
KANJI49
  0
LINE
  8
0
  6
CONTINUOUS
 62
     1
 10
1417.0
 20
1243.459
 11
1467.0
 21
1243.459
  0
LINE
  8
0
  6
CONTINUOUS
 62
     1
 10
1339.219691586
 20
1217.959
 11
1417.0
 21
1217.959
  0
LINE
  8
0
  6
CONTINUOUS
 62
     1
 10
1417.0
 20
1287.959
 11
1417.0
 21
1217.959
  0
LINE
  8
0
  6
CONTINUOUS
 62
     1
 10
1242.85
 20
1217.959
 11
1339.219691586
 21
1217.959
  0
LINE
  8
0
  6
CONTINUOUS
 62
     1
 10
1365.174263377
 20
1360.459
 11
1365.174263377
 21
1287.459
  0
LINE
  8
0
  6
CONTINUOUS
 62
     1
 10
1421.11171708
 20
1359.650148475
 11
1426.687432042
 21
1380.459
  0
LINE
  8
0
  6
CONTINUOUS
 62
     1
 10
1426.687432042
 20
1380.459
 11
1432.04641589
 21
1360.459
  0
LINE
  8
0
  6
CONTINUOUS
 62
     1
 10
1421.11171708
 20
1359.650148475
 11
1421.11171708
 21
1287.959
  0
LINE
  8
0
  6
CONTINUOUS
 62
     1
 10
1426.687432042
 20
1380.459
 11
1426.687432042
 21
1287.959
  0
LINE
  8
0
  6
CONTINUOUS
 62
     1
 10
1421.11171708
 20
1359.650148475
 11
1421.11171708
 21
1287.959
  0
LINE
  8
0
  6
CONTINUOUS
 62
     1
 10
1432.066288871
 20
1360.459
 11
1432.066288871
 21
1287.459
  0
LINE
  8
0
  6
CONTINUOUS
 62
     1
 10
1426.645406547
 20
1195.659
 11
1432.004390396
 21
1215.659
  0
LINE
  8
0
  6
CONTINUOUS
 62
     1
 10
1421.243402083
 20
1215.819555123
 11
1426.645406547
 21
1195.659
  0
LINE
  8
0
  6
LTYPE4
 62
     2
 10
1365.154390396
 20
1215.459
 11
1421.204390396
 21
1215.459
  0
LINE
  8
0
  6
CONTINUOUS
 62
     1
 10
1467.0
 20
1336.476376915
 11
1463.327868375
 21
1336.476376915
  0
LINE
  8
0
  6
CONTINUOUS
 62
     1
 10
1455.127868375
 20
1336.476376915
 11
1451.87
 21
1336.476376915
  0
LINE
  8
0
  6
CONTINUOUS
 62
     1
 10
1466.001190206
 20
1694.968
 11
1466.001190206
 21
1703.468
  0
LINE
  8
6
  6
CONTINUOUS
 62
     2
 10
1631.002
 20
1703.468
 11
1670.502
 21
1703.468
  0
LINE
  8
0
  6
CONTINUOUS
 62
     1
 10
1436.407399739
 20
1795.927
 11
1431.04841589
 21
1775.927
  0
LINE
  8
0
  6
CONTINUOUS
 62
     1
 10
1436.407399739
 20
1795.927
 11
1436.407399739
 21
1703.427
  0
LINE
  8
0
  6
CONTINUOUS
 62
     1
 10
1454.129868375
 20
1751.806113682
 11
1454.129868375
 21
1753.706113682
  0
POINT
  8
0
  6
CONTINUOUS
 62
     1
 10
1454.129868375
 20
1753.706113682
  0
LINE
  8
0
  6
CONTINUOUS
 62
     1
 10
1454.129868375
 20
1753.706113682
 11
1462.329868375
 21
1753.706113682
  0
POINT
  8
0
  6
CONTINUOUS
 62
     1
 10
1462.329868375
 20
1753.706113682
  0
LINE
  8
0
  6
CONTINUOUS
 62
     1
 10
1462.329868375
 20
1753.706113682
 11
1462.329868375
 21
1752.006113682
  0
LINE
  8
0
  6
CONTINUOUS
 62
     1
 10
1450.872
 20
1751.944376915
 11
1436.407399739
 21
1795.927
  0
LINE
  8
0
  6
CONTINUOUS
 62
     1
 10
1450.872
 20
1751.944376915
 11
1450.872
 21
1703.427
  0
LINE
  8
0
  6
CONTINUOUS
 62
     1
 10
1462.329868375
 20
1753.706113682
 11
1462.329868375
 21
1703.427
  0
LINE
  8
0
  6
CONTINUOUS
 62
     1
 10
1454.129868375
 20
1751.944376915
 11
1454.129868375
 21
1703.427
  0
LINE
  8
0
  6
CONTINUOUS
 62
     1
 10
1420.11371708
 20
1775.118148475
 11
1425.689432042
 21
1795.927
  0
LINE
  8
0
  6
CONTINUOUS
 62
     1
 10
1425.689432042
 20
1795.927
 11
1431.04841589
 21
1775.927
  0
LINE
  8
0
  6
CONTINUOUS
 62
     1
 10
1420.11371708
 20
1775.118148475
 11
1420.11371708
 21
1703.427
  0
LINE
  8
0
  6
CONTINUOUS
 62
     1
 10
1425.689432042
 20
1795.927
 11
1425.689432042
 21
1703.427
  0
LINE
  8
0
  6
CONTINUOUS
 62
     1
 10
1420.11371708
 20
1775.118148475
 11
1420.11371708
 21
1703.427
  0
LINE
  8
0
  6
CONTINUOUS
 62
     1
 10
1431.068288871
 20
1775.927
 11
1431.068288871
 21
1702.927
  0
LINE
  8
0
  6
CONTINUOUS
 62
     1
 10
1466.002
 20
1751.944376915
 11
1462.329868375
 21
1751.944376915
  0
LINE
  8
0
  6
CONTINUOUS
 62
     1
 10
1454.129868375
 20
1751.944376915
 11
1450.872
 21
1751.944376915
  0
LINE
  8
0
  6
LTYPE1
 62
     2
 10
1567.000190206
 20
1604.768
 11
1567.000190206
 21
1859.668
  0
LINE
  8
0
  6
LTYPE1
 62
     2
 10
1567.000190206
 20
1122.0
 11
1567.000190206
 21
1358.868
  0
LINE
  8
0
  6
CONTINUOUS
 62
     1
 10
1616.002190206
 20
1678.468
 11
1616.002190206
 21
1728.468
  0
LINE
  8
0
  6
CONTINUOUS
 62
     1
 10
1606.002190206
 20
1728.468
 11
1606.002190206
 21
1678.468
  0
LINE
  8
0
  6
CONTINUOUS
 62
     1
 10
1477.000190206
 20
1746.944376915
 11
1466.002
 21
1746.944376915
  0
LINE
  8
0
  6
CONTINUOUS
 62
     1
 10
1477.000190206
 20
1728.468
 11
1616.002190206
 21
1728.468
  0
LINE
  8
0
  6
CONTINUOUS
 62
     1
 10
1466.002
 20
1751.944376915
 11
1466.002
 21
1677.368
  0
LINE
  8
0
  6
CONTINUOUS
 62
     1
 10
1466.001190206
 20
1677.368
 11
1466.001190206
 21
1703.468
  0
LINE
  8
6
  6
CONTINUOUS
 62
     2
 10
1399.072
 20
1610.927
 11
1398.572
 21
1610.927
  0
LINE
  8
0
  6
CONTINUOUS
 62
     1
 10
1436.407399739
 20
1610.927
 11
1431.04841589
 21
1630.927
  0
LINE
  8
0
  6
CONTINUOUS
 62
     1
 10
1436.407399739
 20
1610.927
 11
1436.407399739
 21
1703.427
  0
LINE
  8
0
  6
CONTINUOUS
 62
     1
 10
1454.129868375
 20
1655.047886318
 11
1454.129868375
 21
1653.147886318
  0
POINT
  8
0
  6
CONTINUOUS
 62
     1
 10
1454.129868375
 20
1653.147886318
  0
LINE
  8
0
  6
CONTINUOUS
 62
     1
 10
1454.129868375
 20
1653.147886318
 11
1462.329868375
 21
1653.147886318
  0
POINT
  8
0
  6
CONTINUOUS
 62
     1
 10
1462.329868375
 20
1653.147886318
  0
LINE
  8
0
  6
CONTINUOUS
 62
     1
 10
1462.329868375
 20
1653.147886318
 11
1462.329868375
 21
1654.847886318
  0
LINE
  8
0
  6
CONTINUOUS
 62
     1
 10
1450.872
 20
1654.909623085
 11
1436.407399739
 21
1610.927
  0
LINE
  8
0
  6
CONTINUOUS
 62
     1
 10
1450.872
 20
1654.909623085
 11
1450.872
 21
1703.427
  0
LINE
  8
0
  6
CONTINUOUS
 62
     1
 10
1462.329868375
 20
1653.147886318
 11
1462.329868375
 21
1703.427
  0
LINE
  8
0
  6
CONTINUOUS
 62
     1
 10
1454.129868375
 20
1654.909623085
 11
1454.129868375
 21
1703.427
  0
LINE
  8
0
  6
CONTINUOUS
 62
     1
 10
1420.11371708
 20
1631.735851525
 11
1425.689432042
 21
1610.927
  0
LINE
  8
0
  6
CONTINUOUS
 62
     1
 10
1425.689432042
 20
1610.927
 11
1431.04841589
 21
1630.927
  0
LINE
  8
0
  6
CONTINUOUS
 62
     1
 10
1420.11371708
 20
1631.735851525
 11
1420.11371708
 21
1703.427
  0
LINE
  8
0
  6
CONTINUOUS
 62
     1
 10
1425.689432042
 20
1610.927
 11
1425.689432042
 21
1703.427
  0
LINE
  8
0
  6
CONTINUOUS
 62
     1
 10
1420.11371708
 20
1631.735851525
 11
1420.11371708
 21
1703.427
  0
LINE
  8
0
  6
CONTINUOUS
 62
     1
 10
1431.068288871
 20
1630.927
 11
1431.068288871
 21
1703.927
  0
LINE
  8
0
  6
CONTINUOUS
 62
     1
 10
1466.002
 20
1654.909623085
 11
1462.329868375
 21
1654.909623085
  0
LINE
  8
0
  6
CONTINUOUS
 62
     1
 10
1454.129868375
 20
1654.909623085
 11
1450.872
 21
1654.909623085
  0
LINE
  8
0
  6
CONTINUOUS
 62
     1
 10
1477.000190206
 20
1659.909623085
 11
1466.002
 21
1659.909623085
  0
LINE
  8
0
  6
CONTINUOUS
 62
     1
 10
1466.002
 20
1654.909623085
 11
1466.002
 21
1729.486
  0
LINE
  8
0
  6
CONTINUOUS
 62
     1
 10
1477.000190206
 20
1659.909623085
 11
1477.000190206
 21
1746.944376915
  0
LINE
  8
0
  6
CONTINUOUS
 62
     1
 10
1477.000190206
 20
1678.468
 11
1616.002190206
 21
1678.468
  0
LINE
  8
6
  6
CONTINUOUS
 62
     2
 10
1399.072
 20
1795.927
 11
1398.572
 21
1795.927
  0
LINE
  8
0
  6
CONTINUOUS
 62
     2
 10
1358.797406547
 20
1795.927
 11
1436.407399739
 21
1795.927
  0
LINE
  8
0
  6
CONTINUOUS
 62
     2
 10
1420.11371708
 20
1775.118148475
 11
1367.11371708
 21
1775.318148475
  0
LINE
  8
0
  6
CONTINUOUS
 62
     2
 10
1358.797406547
 20
1610.927
 11
1436.407399739
 21
1610.927
  0
LINE
  8
0
  6
CONTINUOUS
 62
     2
 10
1364.156390396
 20
1630.927
 11
1420.11371708
 21
1630.927
  0
LINE
  8
0
  6
LTYPE3
 62
     2
 10
1544.500190206
 20
1678.468
 11
1544.500190206
 21
1728.468
  0
LINE
  8
0
  6
LTYPE3
 62
     2
 10
1589.500190206
 20
1678.468
 11
1589.500190206
 21
1728.468
  0
LINE
  8
1
  6
CONTINUOUS
 62
     2
 10
1567.000190206
 20
1670.468
 11
1567.000190206
 21
1511.818148475
  0
LINE
  8
1
  6
CONTINUOUS
 62
     2
 10
1567.000190206
 20
1527.818148475
 11
1547.68167368
 21
1532.994529377
  0
LINE
  8
1
  6
CONTINUOUS
 62
     2
 10
1567.000190206
 20
1527.818148475
 11
1547.68167368
 21
1522.641767573
  0
LINE
  8
1
  6
CONTINUOUS
 62
     2
 10
1567.000190206
 20
1527.818148475
 11
1477.000190206
 21
1527.818148475
  0
LINE
  8
1
  6
CONTINUOUS
 62
     2
 10
1477.000190206
 20
1527.818148475
 11
1496.318706732
 21
1522.641767573
  0
LINE
  8
1
  6
CONTINUOUS
 62
     2
 10
1477.000190206
 20
1527.818148475
 11
1496.318706732
 21
1532.994529377
  0
LINE
  8
1
  6
CONTINUOUS
 62
     2
 10
1477.000190206
 20
1651.909623085
 11
1477.000190206
 21
1511.818148475
  0
TEXT
  8
1
  6
CONTINUOUS
 62
     3
 10
1495.200190206
 20
1535.818148475
 30
2.4
 40
28.0
  1
９０
 50
0.0
 41
0.914285714
 51
0.0
  7
KANJI49
  0
LINE
  8
1
  6
CONTINUOUS
 62
     2
 10
1589.500190206
 20
1736.468
 11
1589.500190206
 21
1852.668
  0
LINE
  8
1
  6
CONTINUOUS
 62
     2
 10
1589.500190206
 20
1836.668
 11
1608.818706732
 21
1831.491619098
  0
LINE
  8
1
  6
CONTINUOUS
 62
     2
 10
1589.500190206
 20
1836.668
 11
1608.818706732
 21
1841.844380902
  0
LINE
  8
1
  6
CONTINUOUS
 62
     2
 10
1619.500190206
 20
1836.668
 11
1589.500190206
 21
1836.668
  0
LINE
  8
1
  6
CONTINUOUS
 62
     2
 10
1589.500190206
 20
1836.668
 11
1544.500190206
 21
1836.668
  0
LINE
  8
1
  6
CONTINUOUS
 62
     2
 10
1544.500190206
 20
1836.668
 11
1348.900190206
 21
1836.668
  0
LINE
  8
1
  6
CONTINUOUS
 62
     2
 10
1544.500190206
 20
1836.668
 11
1525.18167368
 21
1841.844380902
  0
LINE
  8
1
  6
CONTINUOUS
 62
     2
 10
1544.500190206
 20
1836.668
 11
1525.18167368
 21
1831.491619098
  0
LINE
  8
1
  6
CONTINUOUS
 62
     2
 10
1544.500190206
 20
1736.468
 11
1544.500190206
 21
1852.668
  0
TEXT
  8
1
  6
CONTINUOUS
 62
     3
 10
1348.900190206
 20
1844.668
 30
2.4
 40
28.0
  1
φ４５Ｈ１０
 50
0.0
 41
0.914285714
 51
0.0
  7
KANJI49
  0
LINE
  8
1
  6
CONTINUOUS
 62
     2
 10
1624.002190206
 20
1728.468
 11
1752.200190206
 21
1728.468
  0
LINE
  8
1
  6
CONTINUOUS
 62
     2
 10
1736.200190206
 20
1728.468
 11
1731.023809304
 21
1709.149483474
  0
LINE
  8
1
  6
CONTINUOUS
 62
     2
 10
1736.200190206
 20
1728.468
 11
1741.376571108
 21
1709.149483474
  0
LINE
  8
1
  6
CONTINUOUS
 62
     2
 10
1736.200190206
 20
1728.468
 11
1736.200190206
 21
1678.468
  0
LINE
  8
1
  6
CONTINUOUS
 62
     2
 10
1736.200190206
 20
1678.468
 11
1741.376571108
 21
1697.786516526
  0
LINE
  8
1
  6
CONTINUOUS
 62
     2
 10
1736.200190206
 20
1678.468
 11
1731.023809304
 21
1697.786516526
  0
LINE
  8
1
  6
CONTINUOUS
 62
     2
 10
1624.002190206
 20
1678.468
 11
1752.200190206
 21
1678.468
  0
TEXT
  8
1
  6
CONTINUOUS
 62
     3
 10
1728.200190206
 20
1676.668
 30
2.4
 40
28.0
  1
５０
 50
90.0
 41
0.914285714
 51
0.0
  7
KANJI49
  0
LINE
  8
1
  6
CONTINUOUS
 62
     2
 10
1467.0
 20
1232.5
 11
1467.0
 21
1007.5
  0
LINE
  8
1
  6
CONTINUOUS
 62
     2
 10
649.0
 20
1023.5
 11
668.318516526
 21
1018.323619098
  0
LINE
  8
1
  6
CONTINUOUS
 62
     2
 10
649.0
 20
1023.5
 11
668.318516526
 21
1028.676380902
  0
LINE
  8
1
  6
CONTINUOUS
 62
     2
 10
649.0
 20
1198.5
 11
649.0
 21
1007.5
  0
TEXT
  8
1
  6
CONTINUOUS
 62
     3
 10
1045.2
 20
1031.5
 30
2.4
 40
28.0
  1
Ｃ
 50
0.0
 41
0.914285714
 51
0.0
  7
KANJI49
  0
LINE
  8
1
  6
CONTINUOUS
 62
     2
 10
1467.0
 20
1232.5
 11
1467.0
 21
1007.159
  0
LINE
  8
1
  6
CONTINUOUS
 62
     2
 10
1467.0
 20
1023.159
 11
1447.681483474
 21
1028.335380902
  0
LINE
  8
1
  6
CONTINUOUS
 62
     2
 10
1467.0
 20
1023.159
 11
1447.681483474
 21
1017.982619098
  0
LINE
  8
1
  6
CONTINUOUS
 62
     2
 10
1467.0
 20
1023.159
 11
1417.0
 21
1023.159
  0
LINE
  8
1
  6
CONTINUOUS
 62
     2
 10
1417.0
 20
1023.159
 11
1436.318516526
 21
1017.982619098
  0
LINE
  8
1
  6
CONTINUOUS
 62
     2
 10
1417.0
 20
1023.159
 11
1436.318516526
 21
1028.335380902
  0
LINE
  8
1
  6
CONTINUOUS
 62
     2
 10
1417.0
 20
1209.959
 11
1417.0
 21
1007.159
  0
LINE
  8
1
  6
CONTINUOUS
 62
     2
 10
1417.0
 20
1209.959
 11
1417.0
 21
1008.259
  0
LINE
  8
1
  6
CONTINUOUS
 62
     2
 10
1417.0
 20
1024.259
 11
1397.681483474
 21
1029.435380902
  0
LINE
  8
1
  6
CONTINUOUS
 62
     2
 10
1417.0
 20
1024.259
 11
1397.681483474
 21
1019.082619098
  0
LINE
  8
1
  6
CONTINUOUS
 62
     2
 10
1417.0
 20
1024.259
 11
649.0
 21
1024.259
  0
LINE
  8
1
  6
CONTINUOUS
 62
     2
 10
649.0
 20
1024.259
 11
668.318516526
 21
1019.082619098
  0
LINE
  8
1
  6
CONTINUOUS
 62
     2
 10
649.0
 20
1024.259
 11
668.318516526
 21
1029.435380902
  0
LINE
  8
1
  6
CONTINUOUS
 62
     2
 10
649.0
 20
1198.5
 11
649.0
 21
1008.259
  0
TEXT
  8
1
  6
CONTINUOUS
 62
     3
 10
1378.0
 20
984.4
 30
2.4
 40
28.0
  1
ｍｉｎ．Ｐ
 50
0.0
 41
0.914285714
 51
0.0
  7
KANJI49
  0
TEXT
  8
0
  6
CONTINUOUS
 62
     2
 10
2528.0
 20
324.0
 30
0.0
 40
28.0
  1
ＭＣＬＥ８－Ｊ
 50
0.0
 41
0.793650794
 51
0.0
  7
KANJI50
  0
TEXT
  8
0
  6
CONTINUOUS
 62
     3
 10
2612.5333816
 20
195.999992
 30
17.333333333
 40
40.0
  1
Ａ３００１２３７
 50
0.0
 41
0.8
 51
0.0
  7
KANJI51
  0
TEXT
  8
0
  6
CONTINUOUS
 62
     2
 10
2962.0
 20
1981.2
 30
1.6
 40
24.0
  1
ＭＣＬＥ８－　　Ｊ
 50
0.0
 41
0.833333333
 51
0.0
  7
KANJI52
  0
LINE
  8
0
  6
LTYPE1
 62
     2
 10
1935.3
 20
1280.0
 11
2274.8
 21
1280.0
  0
LINE
  8
0
  6
CONTINUOUS
 62
     2
 10
1980.8
 20
1145.0
 11
1980.8
 21
1023.7
  0
LINE
  8
0
  6
CONTINUOUS
 62
     2
 10
1980.8
 20
1035.7
 11
2000.118516526
 21
1030.523619098
  0
LINE
  8
0
  6
CONTINUOUS
 62
     2
 10
1980.8
 20
1035.7
 11
2000.118516526
 21
1040.876380902
  0
LINE
  8
0
  6
CONTINUOUS
 62
     2
 10
1980.8
 20
1035.7
 11
2240.8
 21
1035.7
  0
LINE
  8
0
  6
CONTINUOUS
 62
     2
 10
2240.8
 20
1035.7
 11
2221.481483474
 21
1040.876380902
  0
LINE
  8
0
  6
CONTINUOUS
 62
     2
 10
2240.8
 20
1035.7
 11
2221.481483474
 21
1030.523619098
  0
LINE
  8
0
  6
CONTINUOUS
 62
     2
 10
2240.8
 20
1145.0
 11
2240.8
 21
1023.7
  0
TEXT
  8
0
  6
CONTINUOUS
 62
     2
 10
2076.8
 20
1043.7
 30
1.6
 40
24.0
  1
２６０
 50
0.0
 41
0.9
 51
0.0
  7
KANJI53
  0
LINE
  8
0
  6
CONTINUOUS
 62
     2
 10
1970.8
 20
1223.0
 11
1970.8
 21
928.7
  0
LINE
  8
0
  6
CONTINUOUS
 62
     2
 10
1970.8
 20
940.7
 11
1990.118516526
 21
935.523619098
  0
LINE
  8
0
  6
CONTINUOUS
 62
     2
 10
1970.8
 20
940.7
 11
1990.118516526
 21
945.876380902
  0
LINE
  8
0
  6
CONTINUOUS
 62
     2
 10
1970.8
 20
940.7
 11
2250.8
 21
940.7
  0
LINE
  8
0
  6
CONTINUOUS
 62
     2
 10
2250.8
 20
940.7
 11
2231.481483474
 21
945.876380902
  0
LINE
  8
0
  6
CONTINUOUS
 62
     2
 10
2250.8
 20
940.7
 11
2231.481483474
 21
935.523619098
  0
LINE
  8
0
  6
CONTINUOUS
 62
     2
 10
2250.8
 20
1223.0
 11
2250.8
 21
928.7
  0
TEXT
  8
0
  6
CONTINUOUS
 62
     2
 10
2076.8
 20
948.7
 30
1.6
 40
24.0
  1
２８０
 50
0.0
 41
0.9
 51
0.0
  7
KANJI53
  0
LINE
  8
1
  6
CONTINUOUS
 62
     2
 10
2236.800043158
 20
1145.0
 11
2349.307300983
 21
1145.0
  0
LINE
  8
1
  6
CONTINUOUS
 62
     2
 10
2333.307300983
 20
1145.0
 11
2338.483681885
 21
1164.318516526
  0
LINE
  8
1
  6
CONTINUOUS
 62
     2
 10
2333.307300983
 20
1145.0
 11
2328.130920081
 21
1164.318516526
  0
LINE
  8
1
  6
CONTINUOUS
 62
     2
 10
2333.307300983
 20
1145.0
 11
2333.307300983
 21
1280.0
  0
LINE
  8
1
  6
CONTINUOUS
 62
     2
 10
2333.307300983
 20
1280.0
 11
2328.130920081
 21
1260.681483474
  0
LINE
  8
1
  6
CONTINUOUS
 62
     2
 10
2333.307300983
 20
1280.0
 11
2338.483681885
 21
1260.681483474
  0
LINE
  8
1
  6
CONTINUOUS
 62
     2
 10
2258.8
 20
1280.0
 11
2349.307300983
 21
1280.0
  0
TEXT
  8
1
  6
CONTINUOUS
 62
     2
 10
2325.307300983
 20
1171.7
 30
2.4
 40
28.0
  1
１３５
 50
90.0
 41
0.914285714
 51
0.0
  7
KANJI49
  0
LINE
  8
0
  6
LTYPE1
 62
     2
 10
1635.072
 20
1703.427
 11
1290.0
 21
1703.427
  0
LINE
  8
0
  6
LTYPE1
 62
     2
 10
421.0
 20
1392.918
 11
400.0
 21
1392.918
  0
LINE
  8
0
  6
CONTINUOUS
 62
     1
 10
415.9789
 20
1401.18602
 11
417.527076294
 21
1403.86754
  0
LINE
  8
0
  6
CONTINUOUS
 62
     1
 10
415.9789
 20
1392.918
 11
415.9789
 21
1401.18602
  0
LINE
  8
0
  6
CONTINUOUS
 62
     1
 10
415.9789
 20
1384.64998
 11
417.527076294
 21
1381.96846
  0
LINE
  8
0
  6
CONTINUOUS
 62
     1
 10
415.9789
 20
1392.918
 11
415.9789
 21
1384.64998
  0
ARC
  8
0
  6
CONTINUOUS
 62
     1
 10
426.433121693
 20
1392.918
 40
10.454221693
 50
148.419912243
 51
211.580087757
  0
ARC
  8
0
  6
CONTINUOUS
 62
     1
 10
419.172013606
 20
1401.130155
 40
3.193602261
 50
177.010501597
 51
238.997686085
  0
LINE
  8
0
  6
CONTINUOUS
 62
     1
 10
415.9789
 20
1384.64998
 11
417.527076294
 21
1381.96846
  0
ARC
  8
0
  6
CONTINUOUS
 62
     1
 10
419.172013606
 20
1384.705845
 40
3.193602261
 50
121.002313915
 51
182.989498403
  0
LINE
  8
0
  6
CONTINUOUS
 62
     1
 10
421.0
 20
1403.86754
 11
417.527076294
 21
1403.86754
  0
LINE
  8
0
  6
CONTINUOUS
 62
     1
 10
421.0
 20
1398.39277
 11
417.527076294
 21
1398.39277
  0
LINE
  8
0
  6
CONTINUOUS
 62
     1
 10
421.0
 20
1387.44323
 11
417.527076294
 21
1387.44323
  0
LINE
  8
0
  6
CONTINUOUS
 62
     1
 10
421.0
 20
1381.96846
 11
417.527076294
 21
1381.96846
  0
LINE
  8
1
  6
CONTINUOUS
 62
     2
 10
1962.8
 20
1302.5
 11
1868.0
 21
1302.5
  0
LINE
  8
1
  6
CONTINUOUS
 62
     2
 10
1884.0
 20
1302.5
 11
1889.176380902
 21
1321.818516526
  0
LINE
  8
1
  6
CONTINUOUS
 62
     2
 10
1884.0
 20
1302.5
 11
1878.823619098
 21
1321.818516526
  0
LINE
  8
1
  6
CONTINUOUS
 62
     2
 10
1884.0
 20
1302.5
 11
1884.0
 21
1257.5
  0
LINE
  8
1
  6
CONTINUOUS
 62
     2
 10
1884.0
 20
1257.5
 11
1878.823619098
 21
1238.181483474
  0
LINE
  8
1
  6
CONTINUOUS
 62
     2
 10
1884.0
 20
1257.5
 11
1889.176380902
 21
1238.181483474
  0
LINE
  8
1
  6
CONTINUOUS
 62
     2
 10
1962.8
 20
1257.5
 11
1868.0
 21
1257.5
  0
TEXT
  8
0
  6
CONTINUOUS
 62
     2
 10
650.0
 20
608.8
 30
1.6
 40
24.0
  1
ＭＣＬＥ８－　３Ｊ
 50
0.0
 41
0.833333333
 51
0.0
  7
KANJI52
  0
TEXT
  8
0
  6
CONTINUOUS
 62
     2
 10
650.0
 20
552.8
 30
1.6
 40
24.0
  1
ＭＣＬＥ８－　５Ｊ
 50
0.0
 41
0.833333333
 51
0.0
  7
KANJI52
  0
TEXT
  8
0
  6
CONTINUOUS
 62
     2
 10
650.0
 20
496.8
 30
1.6
 40
24.0
  1
ＭＣＬＥ８－　７Ｊ
 50
0.0
 41
0.833333333
 51
0.0
  7
KANJI52
  0
TEXT
  8
0
  6
CONTINUOUS
 62
     2
 10
650.0
 20
440.8
 30
1.6
 40
24.0
  1
ＭＣＬＥ８－１０Ｊ
 50
0.0
 41
0.833333333
 51
0.0
  7
KANJI52
  0
TEXT
  8
0
  6
CONTINUOUS
 62
     2
 10
650.0
 20
328.8
 30
1.6
 40
24.0
  1
ＭＣＬＥ８－　　　　Ｊ
 50
0.0
 41
0.833333333
 51
0.0
  7
KANJI52
  0
TEXT
  8
0
  6
CONTINUOUS
 62
     2
 10
650.0
 20
384.8
 30
1.6
 40
24.0
  1
ＭＣＬＥ８－　　　　Ｊ
 50
0.0
 41
0.833333333
 51
0.0
  7
KANJI52
  0
TEXT
  8
0
  6
CONTINUOUS
 62
     2
 10
1248.8
 20
443.5
 30
4.0
 40
24.0
  1
１８０１
 50
0.0
 41
0.9
 51
0.0
  7
KANJI54
  0
TEXT
  8
0
  6
CONTINUOUS
 62
     2
 10
1406.8
 20
443.5
 30
4.0
 40
24.0
  1
１４７０
 50
0.0
 41
0.9
 51
0.0
  7
KANJI54
  0
TEXT
  8
0
  6
CONTINUOUS
 62
     2
 10
2952.8
 20
1754.5
 30
4.0
 40
24.0
  1
２１６Ｎ
 50
0.0
 41
0.9
 51
0.0
  7
KANJI54
  0
TEXT
  8
0
  6
CONTINUOUS
 62
     2
 10
3067.8
 20
1754.5
 30
0.1792
 40
22.4
  1
（　２２　ｋｇｍ）
 50
0.0
 41
0.8
 51
0.0
  7
KANJI26
  0
LINE
  8
0
  6
CONTINUOUS
 62
     4
 10
3225.0666672
 20
479.1999696
 11
3225.0666672
 21
534.666632
  0
LINE
  8
0
  6
CONTINUOUS
 62
     6
 10
3225.0666672
 20
90.9333328
 11
3225.0666672
 21
534.666632
  0
TEXT
  8
0
  6
CONTINUOUS
 62
     2
 10
2983.2
 20
1703.2
 30
20.5
 40
28.0
  1
全閉屋外形
 50
0.0
 41
0.9
 51
0.0
  7
KANJI7
  0
TEXT
  8
0
  6
CONTINUOUS
 62
     2
 10
1129.075240468
 20
1929.633058
 30
2.79993
 40
27.9993
  1
注意：サーマルリレー等の選定は、上記の値を参照下さい。
 50
0.0
 41
0.9
 51
0.0
  7
KANJI55
  0
LINE
  8
0
  6
CONTINUOUS
 62
     2
 10
1113.075640468
 20
1921.633258
 11
1865.056840468
 21
1921.633258
  0
LINE
  8
0
  6
CONTINUOUS
 62
     1
 10
1919.65602
 20
2192.293375
 11
1919.65602
 21
1984.298575
  0
LINE
  8
0
  6
CONTINUOUS
 62
     2
 10
1799.65902
 20
2192.293375
 11
1799.65902
 21
1984.298575
  0
LINE
  8
0
  6
CONTINUOUS
 62
     2
 10
1679.66202
 20
2192.293375
 11
1679.66202
 21
1984.298575
  0
LINE
  8
0
  6
CONTINUOUS
 62
     1
 10
1519.66602
 20
2192.293375
 11
1519.66602
 21
1984.298575
  0
LINE
  8
0
  6
CONTINUOUS
 62
     1
 10
1519.66602
 20
2192.293375
 11
1919.65602
 21
2192.293375
  0
LINE
  8
0
  6
CONTINUOUS
 62
     1
 10
1519.66602
 20
2128.294975
 11
1919.65602
 21
2128.294975
  0
LINE
  8
0
  6
CONTINUOUS
 62
     2
 10
1519.66602
 20
2080.296175
 11
1919.65602
 21
2080.296175
  0
LINE
  8
0
  6
CONTINUOUS
 62
     2
 10
1519.66602
 20
2032.297375
 11
1919.65602
 21
2032.297375
  0
LINE
  8
0
  6
CONTINUOUS
 62
     1
 10
1519.66602
 20
1984.298575
 11
1919.65602
 21
1984.298575
  0
TEXT
  8
0
  6
CONTINUOUS
 62
     2
 10
1815.65862
 20
2164.294075
 30
2.39994
 40
23.9994
  1
起動電流
 50
0.0
 41
0.9
 51
0.0
  7
KANJI56
  0
TEXT
  8
0
  6
CONTINUOUS
 62
     2
 10
1815.65862
 20
2136.294775
 30
2.39994
 40
23.9994
  1
　　　Ａ
 50
0.0
 41
0.9
 51
0.0
  7
KANJI56
  0
TEXT
  8
0
  6
CONTINUOUS
 62
     2
 10
1695.66162
 20
2164.294075
 30
2.39994
 40
23.9994
  1
定格電流
 50
0.0
 41
0.9
 51
0.0
  7
KANJI56
  0
TEXT
  8
0
  6
CONTINUOUS
 62
     2
 10
1695.66162
 20
2136.294775
 30
2.39994
 40
23.9994
  1
　　　Ａ
 50
0.0
 41
0.9
 51
0.0
  7
KANJI56
  0
TEXT
  8
0
  6
CONTINUOUS
 62
     2
 10
1533.26568
 20
2164.294075
 30
2.39994
 40
23.9994
  1
電圧／周波数
 50
0.0
 41
0.9
 51
0.0
  7
KANJI56
  0
TEXT
  8
0
  6
CONTINUOUS
 62
     2
 10
1533.26568
 20
2136.294775
 30
2.39994
 40
23.9994
  1
　Ｖ／Ｈｚ
 50
0.0
 41
0.9
 51
0.0
  7
KANJI56
  0
LINE
  8
0
  6
CONTINUOUS
 62
     1
 10
1439.66802
 20
2192.293375
 11
1439.66802
 21
1984.298575
  0
LINE
  8
0
  6
CONTINUOUS
 62
     2
 10
1319.67102
 20
2192.293375
 11
1319.67102
 21
1984.298575
  0
LINE
  8
0
  6
CONTINUOUS
 62
     2
 10
1199.67402
 20
2192.293375
 11
1199.67402
 21
1984.298575
  0
LINE
  8
0
  6
CONTINUOUS
 62
     1
 10
1039.67802
 20
2192.293375
 11
1039.67802
 21
1984.298575
  0
LINE
  8
0
  6
CONTINUOUS
 62
     1
 10
1039.67802
 20
2192.293375
 11
1439.66802
 21
2192.293375
  0
LINE
  8
0
  6
CONTINUOUS
 62
     1
 10
1039.67802
 20
2128.294975
 11
1439.66802
 21
2128.294975
  0
LINE
  8
0
  6
CONTINUOUS
 62
     2
 10
1039.67802
 20
2080.296175
 11
1439.66802
 21
2080.296175
  0
LINE
  8
0
  6
CONTINUOUS
 62
     2
 10
1039.67802
 20
2032.297375
 11
1439.66802
 21
2032.297375
  0
LINE
  8
0
  6
CONTINUOUS
 62
     1
 10
1039.67802
 20
1984.298575
 11
1439.66802
 21
1984.298575
  0
TEXT
  8
0
  6
CONTINUOUS
 62
     2
 10
1335.67062
 20
2164.294075
 30
2.39994
 40
23.9994
  1
起動電流
 50
0.0
 41
0.9
 51
0.0
  7
KANJI56
  0
TEXT
  8
0
  6
CONTINUOUS
 62
     2
 10
1335.67062
 20
2136.294775
 30
2.39994
 40
23.9994
  1
　　　Ａ
 50
0.0
 41
0.9
 51
0.0
  7
KANJI56
  0
TEXT
  8
0
  6
CONTINUOUS
 62
     2
 10
1215.67362
 20
2164.294075
 30
2.39994
 40
23.9994
  1
定格電流
 50
0.0
 41
0.9
 51
0.0
  7
KANJI56
  0
TEXT
  8
0
  6
CONTINUOUS
 62
     2
 10
1215.67362
 20
2136.294775
 30
2.39994
 40
23.9994
  1
　　　Ａ
 50
0.0
 41
0.9
 51
0.0
  7
KANJI56
  0
TEXT
  8
0
  6
CONTINUOUS
 62
     2
 10
1053.27768
 20
2164.294075
 30
2.39994
 40
23.9994
  1
電圧／周波数
 50
0.0
 41
0.9
 51
0.0
  7
KANJI56
  0
TEXT
  8
0
  6
CONTINUOUS
 62
     2
 10
1053.27768
 20
2136.294775
 30
2.39994
 40
23.9994
  1
　Ｖ／Ｈｚ
 50
0.0
 41
0.9
 51
0.0
  7
KANJI56
  0
TEXT
  8
0
  6
CONTINUOUS
 62
     2
 10
1053.27768
 20
2092.295875
 30
2.39994
 40
23.9994
  1
２００／５０
 50
0.0
 41
0.9
 51
0.0
  7
KANJI56
  0
TEXT
  8
0
  6
CONTINUOUS
 62
     2
 10
1053.27768
 20
2044.297075
 30
2.39994
 40
23.9994
  1
２００／６０
 50
0.0
 41
0.9
 51
0.0
  7
KANJI56
  0
TEXT
  8
0
  6
CONTINUOUS
 62
     2
 10
1053.27768
 20
1996.298275
 30
2.39994
 40
23.9994
  1
２２０／６０
 50
0.0
 41
0.9
 51
0.0
  7
KANJI56
  0
TEXT
  8
0
  6
CONTINUOUS
 62
     2
 10
1533.26568
 20
2092.295875
 30
2.39994
 40
23.9994
  1
４００／５０
 50
0.0
 41
0.9
 51
0.0
  7
KANJI56
  0
TEXT
  8
0
  6
CONTINUOUS
 62
     2
 10
1533.26568
 20
2044.297075
 30
2.39994
 40
23.9994
  1
４００／６０
 50
0.0
 41
0.9
 51
0.0
  7
KANJI56
  0
TEXT
  8
0
  6
CONTINUOUS
 62
     2
 10
1533.26568
 20
1996.298275
 30
2.39994
 40
23.9994
  1
４４０／６０
 50
0.0
 41
0.9
 51
0.0
  7
KANJI56
  0
TEXT
  8
0
  6
CONTINUOUS
 62
     2
 10
1335.67062
 20
2092.295875
 30
2.39994
 40
23.9994
  1
４４．０
 50
0.0
 41
0.9
 51
0.0
  7
KANJI56
  0
TEXT
  8
0
  6
CONTINUOUS
 62
     2
 10
1215.67362
 20
2092.295875
 30
2.39994
 40
23.9994
  1
　６．８
 50
0.0
 41
0.9
 51
0.0
  7
KANJI56
  0
TEXT
  8
0
  6
CONTINUOUS
 62
     2
 10
1215.67362
 20
2044.297075
 30
2.39994
 40
23.9994
  1
　６．３
 50
0.0
 41
0.9
 51
0.0
  7
KANJI56
  0
TEXT
  8
0
  6
CONTINUOUS
 62
     2
 10
1215.67362
 20
1996.298275
 30
2.39994
 40
23.9994
  1
　６．０
 50
0.0
 41
0.9
 51
0.0
  7
KANJI56
  0
TEXT
  8
0
  6
CONTINUOUS
 62
     2
 10
1695.66162
 20
2092.295875
 30
2.39994
 40
23.9994
  1
　３．４
 50
0.0
 41
0.9
 51
0.0
  7
KANJI56
  0
TEXT
  8
0
  6
CONTINUOUS
 62
     2
 10
1695.66162
 20
2044.297075
 30
2.39994
 40
23.9994
  1
　３．２
 50
0.0
 41
0.9
 51
0.0
  7
KANJI56
  0
TEXT
  8
0
  6
CONTINUOUS
 62
     2
 10
1695.66162
 20
1996.298275
 30
2.39994
 40
23.9994
  1
　３．０
 50
0.0
 41
0.9
 51
0.0
  7
KANJI56
  0
TEXT
  8
0
  6
CONTINUOUS
 62
     2
 10
1335.67062
 20
2044.297075
 30
2.39994
 40
23.9994
  1
３８．０
 50
0.0
 41
0.9
 51
0.0
  7
KANJI56
  0
TEXT
  8
0
  6
CONTINUOUS
 62
     2
 10
1335.67062
 20
1996.298275
 30
2.39994
 40
23.9994
  1
４１．８
 50
0.0
 41
0.9
 51
0.0
  7
KANJI56
  0
TEXT
  8
0
  6
CONTINUOUS
 62
     2
 10
1815.65862
 20
2092.295875
 30
2.39994
 40
23.9994
  1
２２．０
 50
0.0
 41
0.9
 51
0.0
  7
KANJI56
  0
TEXT
  8
0
  6
CONTINUOUS
 62
     2
 10
1814.792019532
 20
2040.630492
 30
2.39994
 40
23.9994
  1
１９．０
 50
0.0
 41
0.9
 51
0.0
  7
KANJI56
  0
TEXT
  8
0
  6
CONTINUOUS
 62
     2
 10
1816.791969532
 20
1995.298292
 30
2.39994
 40
23.9994
  1
２０．９
 50
0.0
 41
0.9
 51
0.0
  7
KANJI56
  0
LINE
  8
0
  6
LTYPE1
 62
     2
 10
853.737645868
 20
1363.957877817
 11
933.0
 21
1363.957877817
  0
LINE
  8
0
  6
CONTINUOUS
 62
     1
 10
930.0
 20
1387.959
 11
930.0
 21
1187.959
  0
LINE
  8
0
  6
CONTINUOUS
 62
     1
 10
879.0
 20
1187.959
 11
930.0
 21
1187.959
  0
LINE
  8
0
  6
CONTINUOUS
 62
     1
 10
879.0
 20
1387.959
 11
930.0
 21
1387.959
  0
LINE
  8
0
  6
CONTINUOUS
 62
     1
 10
945.0
 20
1371.959
 11
945.0
 21
1203.959
  0
LINE
  8
0
  6
CONTINUOUS
 62
     1
 10
930.0
 20
1371.959
 11
945.0
 21
1371.959
  0
LINE
  8
0
  6
CONTINUOUS
 62
     1
 10
930.0
 20
1203.959
 11
945.0
 21
1203.959
  0
LINE
  8
1
  6
CONTINUOUS
 62
     2
 10
971.9
 20
1357.959
 11
945.0
 21
1357.959
  0
LINE
  8
0
  6
LTYPE1
 62
     2
 10
845.0
 20
1375.459
 11
946.0
 21
1375.459
  0
LINE
  8
0
  6
LTYPE1
 62
     2
 10
849.0
 20
1200.459
 11
949.0
 21
1200.459
  0
LINE
  8
0
  6
CONTINUOUS
 62
     1
 10
930.0
 20
1367.959
 11
945.0
 21
1367.959
  0
LINE
  8
0
  6
CONTINUOUS
 62
     1
 10
930.0
 20
1207.959
 11
945.0
 21
1207.959
  0
LINE
  8
0
  6
CONTINUOUS
 62
     1
 10
930.0
 20
1283.959
 11
945.0
 21
1283.959
  0
LINE
  8
0
  6
CONTINUOUS
 62
     1
 10
930.0
 20
1291.959
 11
945.0
 21
1291.959
  0
LINE
  8
0
  6
CONTINUOUS
 62
     1
 10
945.0
 20
1217.959
 11
1248.0
 21
1217.959
  0
LINE
  8
0
  6
CONTINUOUS
 62
     1
 10
945.0
 20
1357.959
 11
1243.0
 21
1357.959
  0
TEXT
  8
0
  6
CONTINUOUS
 62
     2
 10
2988.0
 20
1142.4
 30
16.0
 40
28.0
  1
同時切り
 50
0.0
 41
0.9
 51
0.0
  7
KANJI57
  0
TEXT
  8
0
  6
CONTINUOUS
 62
     3
 10
2223.4667112
 20
157.599992
 30
2.4
 40
28.0
  1
２００１．０４．１２
 50
0.0
 41
0.571428571
 51
0.0
  7
KANJI58
  0
TEXT
  8
0
  6
CONTINUOUS
 62
     3
 10
2246.6667112
 20
215.999992
 30
24.0
 40
28.0
  1
岡田
 50
0.0
 41
0.771428571
 51
0.0
  7
KANJI59
  0
TEXT
  8
0
  6
CONTINUOUS
 62
     2
 10
939.8
 20
444.5
 30
4.0
 40
24.0
  1
１０００
 50
0.0
 41
0.9
 51
0.0
  7
KANJI54
  0
TEXT
  8
0
  6
CONTINUOUS
 62
     2
 10
1092.8
 20
444.5
 30
4.0
 40
24.0
  1
２０２６
 50
0.0
 41
0.9
 51
0.0
  7
KANJI54
  0
TEXT
  8
0
  6
CONTINUOUS
 62
     2
 10
1586.8
 20
442.5
 30
4.0
 40
24.0
  1
２３１
 50
0.0
 41
0.9
 51
0.0
  7
KANJI54
  0
TEXT
  8
0
  6
CONTINUOUS
 62
     2
 10
939.8
 20
612.5
 30
4.0
 40
24.0
  1
　３００
 50
0.0
 41
0.9
 51
0.0
  7
KANJI54
  0
TEXT
  8
0
  6
CONTINUOUS
 62
     2
 10
939.8
 20
556.5
 30
4.0
 40
24.0
  1
　５００
 50
0.0
 41
0.9
 51
0.0
  7
KANJI54
  0
TEXT
  8
0
  6
CONTINUOUS
 62
     2
 10
939.8
 20
500.5
 30
4.0
 40
24.0
  1
　７００
 50
0.0
 41
0.9
 51
0.0
  7
KANJI54
  0
TEXT
  8
0
  6
CONTINUOUS
 62
     2
 10
1092.8
 20
612.5
 30
4.0
 40
24.0
  1
１１０５
 50
0.0
 41
0.9
 51
0.0
  7
KANJI54
  0
TEXT
  8
0
  6
CONTINUOUS
 62
     2
 10
1092.8
 20
556.5
 30
4.0
 40
24.0
  1
１３６７
 50
0.0
 41
0.9
 51
0.0
  7
KANJI54
  0
TEXT
  8
0
  6
CONTINUOUS
 62
     2
 10
1092.8
 20
500.5
 30
4.0
 40
24.0
  1
１６４３
 50
0.0
 41
0.9
 51
0.0
  7
KANJI54
  0
TEXT
  8
0
  6
CONTINUOUS
 62
     2
 10
1248.8
 20
612.5
 30
4.0
 40
24.0
  1
　８８０
 50
0.0
 41
0.9
 51
0.0
  7
KANJI54
  0
TEXT
  8
0
  6
CONTINUOUS
 62
     2
 10
1248.8
 20
556.5
 30
4.0
 40
24.0
  1
１１４２
 50
0.0
 41
0.9
 51
0.0
  7
KANJI54
  0
TEXT
  8
0
  6
CONTINUOUS
 62
     2
 10
1248.8
 20
499.5
 30
4.0
 40
24.0
  1
１４１８
 50
0.0
 41
0.9
 51
0.0
  7
KANJI54
  0
TEXT
  8
0
  6
CONTINUOUS
 62
     2
 10
1406.8
 20
611.5
 30
4.0
 40
24.0
  1
　７３０
 50
0.0
 41
0.9
 51
0.0
  7
KANJI54
  0
TEXT
  8
0
  6
CONTINUOUS
 62
     2
 10
1406.8
 20
555.5
 30
4.0
 40
24.0
  1
　９３０
 50
0.0
 41
0.9
 51
0.0
  7
KANJI54
  0
TEXT
  8
0
  6
CONTINUOUS
 62
     2
 10
1406.8
 20
499.5
 30
4.0
 40
24.0
  1
１１７０
 50
0.0
 41
0.9
 51
0.0
  7
KANJI54
  0
TEXT
  8
0
  6
CONTINUOUS
 62
     2
 10
1586.8
 20
610.5
 30
4.0
 40
24.0
  1
　５０
 50
0.0
 41
0.9
 51
0.0
  7
KANJI54
  0
TEXT
  8
0
  6
CONTINUOUS
 62
     2
 10
1586.8
 20
554.5
 30
4.0
 40
24.0
  1
１１２
 50
0.0
 41
0.9
 51
0.0
  7
KANJI54
  0
TEXT
  8
0
  6
CONTINUOUS
 62
     2
 10
1586.8
 20
498.5
 30
4.0
 40
24.0
  1
１４８
 50
0.0
 41
0.9
 51
0.0
  7
KANJI54
  0
LINE
  8
0
  6
CONTINUOUS
 62
     4
 10
37.9333328
 20
90.9333328
 11
121.1333264
 21
90.9333328
  0
LINE
  8
0
  6
CONTINUOUS
 62
     4
 10
37.9333328
 20
132.5333296
 11
121.1333264
 21
132.5333296
  0
LINE
  8
0
  6
CONTINUOUS
 62
     4
 10
37.9333328
 20
174.1333264
 11
121.1333264
 21
174.1333264
  0
LINE
  8
0
  6
CONTINUOUS
 62
     4
 10
37.9333328
 20
215.7333232
 11
121.1333264
 21
215.7333232
  0
LINE
  8
0
  6
CONTINUOUS
 62
     4
 10
37.9333328
 20
257.33332
 11
121.1333264
 21
257.33332
  0
LINE
  8
0
  6
CONTINUOUS
 62
     4
 10
37.9333328
 20
298.9333168
 11
121.1333264
 21
298.9333168
  0
LINE
  8
0
  6
CONTINUOUS
 62
     4
 10
37.9333328
 20
340.5333136
 11
121.1333264
 21
340.5333136
  0
LINE
  8
0
  6
CONTINUOUS
 62
     4
 10
37.9333328
 20
382.1333104
 11
121.1333264
 21
382.1333104
  0
LINE
  8
0
  6
CONTINUOUS
 62
     4
 10
37.9333328
 20
423.7333072
 11
121.1333264
 21
423.7333072
  0
LINE
  8
0
  6
CONTINUOUS
 62
     4
 10
37.9333328
 20
465.333304
 11
121.1333264
 21
465.333304
  0
LINE
  8
0
  6
CONTINUOUS
 62
     4
 10
121.1333264
 20
90.9333328
 11
121.1333264
 21
465.333304
  0
LINE
  8
0
  6
CONTINUOUS
 62
     4
 10
79.5333296
 20
90.9333328
 11
79.5333296
 21
423.7333072
  0
TEXT
  8
0
  6
CONTINUOUS
 62
     4
 10
52.14666504
 20
103.0666652
 30
2.07999984
 40
20.7999984
  1
計
 50
0.0
 41
0.75
 51
0.0
  7
KANJI60
  0
TEXT
  8
0
  6
CONTINUOUS
 62
     4
 10
52.14666504
 20
186.95999208
 30
2.07999984
 40
20.7999984
  1
設
 50
0.0
 41
0.75
 51
0.0
  7
KANJI60
  0
TEXT
  8
0
  6
CONTINUOUS
 62
     4
 10
52.14666504
 20
227.8666556
 30
2.07999984
 40
20.7999984
  1
管
 50
0.0
 41
0.75
 51
0.0
  7
KANJI60
  0
TEXT
  8
0
  6
CONTINUOUS
 62
     4
 10
52.14666504
 20
269.4666524
 30
2.07999984
 40
20.7999984
  1
製
 50
0.0
 41
0.75
 51
0.0
  7
KANJI60
  0
TEXT
  8
0
  6
CONTINUOUS
 62
     4
 10
52.14666504
 20
311.0666492
 30
2.07999984
 40
20.7999984
  1
資
 50
0.0
 41
0.75
 51
0.0
  7
KANJI60
  0
TEXT
  8
0
  6
CONTINUOUS
 62
     4
 10
52.14666504
 20
352.666646
 30
2.07999984
 40
20.7999984
  1
営
 50
0.0
 41
0.75
 51
0.0
  7
KANJI60
  0
TEXT
  8
0
  6
CONTINUOUS
 62
     4
 10
52.14666504
 20
394.2666428
 30
2.07999984
 40
20.7999984
  1
客
 50
0.0
 41
0.75
 51
0.0
  7
KANJI60
  0
TEXT
  8
0
  6
CONTINUOUS
 62
     4
 10
51.7999984
 20
437.5999728
 30
2.07999984
 40
20.7999984
  1
出　図
 50
0.0
 41
0.75
 51
0.0
  7
KANJI60
  0
LINE
  8
0
  6
CONTINUOUS
 62
     4
 10
37.9333328
 20
90.9333328
 11
37.9333328
 21
465.333304
  0
LINE
  8
0
  6
CONTINUOUS
 62
     6
 10
2157.333416
 20
90.9333328
 11
2157.333416
 21
479.1999696
  0
TEXT
  8
0
  6
CONTINUOUS
 62
     4
 10
2182.0
 20
432.0
 30
0.8
 40
28.8
  1
ご注文主
 50
0.0
 41
0.833333333
 51
0.0
  7
KANJI61
  0
LINE
  8
0
  6
CONTINUOUS
 62
     6
 10
2157.333416
 20
534.666632
 11
3225.0666672
 21
534.666632
  0
LINE
  8
0
  6
CONTINUOUS
 62
     6
 10
2157.333416
 20
479.1999696
 11
2157.333416
 21
534.666632
  0
LINE
  8
0
  6
CONTINUOUS
 62
     4
 10
2306.0
 20
423.7333072
 11
2306.0
 21
534.666632
  0
TEXT
  8
0
  6
CONTINUOUS
 62
     4
 10
2182.0
 20
487.4666624
 30
0.8
 40
28.8
  1
ご用途
 50
0.0
 41
0.833333333
 51
0.0
  7
KANJI61
  0
LINE
  8
0
  6
CONTINUOUS
 62
     4
 10
2157.333416
 20
479.1999696
 11
3225.0666672
 21
479.1999696
  0
LINE
  8
0
  6
CONTINUOUS
 62
     4
 10
2157.333416
 20
423.7333072
 11
3225.0666672
 21
423.7333072
  0
LINE
  8
0
  6
CONTINUOUS
 62
     4
 10
2410.4000632
 20
368.2666448
 11
3225.0666672
 21
368.2666448
  0
LINE
  8
0
  6
CONTINUOUS
 62
     4
 10
2410.4000632
 20
312.7999824
 11
2750.1333704
 21
312.7999824
  0
TEXT
  8
0
  6
CONTINUOUS
 62
     4
 10
2424.2667288
 20
288.5333176
 30
1.38666656
 40
13.8666656
  1
ＭＦＧ．ＮＯ．
 50
0.0
 41
0.8
 51
0.0
  7
KANJI38
  0
TEXT
  8
0
  6
CONTINUOUS
 62
     4
 10
225.4000632
 20
40.7333072
 30
0.8
 40
24.0
  1
ＦＤ　Ｎｏ．ＭＣ２０
 50
0.0
 41
0.9
 51
0.0
  7
KANJI62
  0
LINE
  8
0
  6
LTYPE4
 62
     2
 10
1365.154390396
 20
1360.459
 11
1421.11171708
 21
1360.459
  0
TEXT
  8
0
  6
CONTINUOUS
 62
     2
 10
2936.8
 20
1922.5
 30
4.0
 40
24.0
  1
７８．４ＫＮ（８ｔｏｎ）
 50
0.0
 41
0.9
 51
0.0
  7
KANJI54
  0
LINE
  8
0
  6
LTYPE3
 62
     2
 10
2200.8
 20
1257.5
 11
2200.8
 21
1302.5
  0
LINE
  8
0
  6
LTYPE3
 62
     2
 10
2200.8
 20
1302.5
 11
2250.8
 21
1302.5
  0
LINE
  8
0
  6
LTYPE3
 62
     2
 10
2200.8
 20
1257.5
 11
2250.8
 21
1257.5
  0
LINE
  8
0
  6
CONTINUOUS
 62
     1
 10
2250.8
 20
1235.0
 11
2250.8
 21
1325.0
  0
LINE
  8
0
  6
LTYPE1
 62
     2
 10
1935.3
 20
1280.0
 11
2274.8
 21
1280.0
  0
ARC
  8
0
  6
CONTINUOUS
 62
     1
 10
2228.8
 20
1157.0
 40
12.0
 50
270.0
 51
0.0
  0
LINE
  8
0
  6
LTYPE3
 62
     2
 10
2020.8
 20
1257.5
 11
2020.8
 21
1302.5
  0
LINE
  8
0
  6
LTYPE3
 62
     2
 10
2020.8
 20
1302.5
 11
1970.8
 21
1302.5
  0
LINE
  8
0
  6
LTYPE3
 62
     2
 10
2020.8
 20
1257.5
 11
1970.8
 21
1257.5
  0
LINE
  8
0
  6
CONTINUOUS
 62
     2
 10
1980.8
 20
1145.0
 11
1980.8
 21
1023.7
  0
LINE
  8
0
  6
CONTINUOUS
 62
     2
 10
2240.8
 20
1145.0
 11
2240.8
 21
1023.7
  0
LINE
  8
0
  6
CONTINUOUS
 62
     2
 10
1970.8
 20
1223.0
 11
1970.8
 21
928.7
  0
LINE
  8
0
  6
CONTINUOUS
 62
     2
 10
2250.8
 20
1223.0
 11
2250.8
 21
928.7
  0
LINE
  8
0
  6
CONTINUOUS
 62
     1
 10
1980.8
 20
1157.0
 11
1980.8
 21
1234.125113365
  0
LINE
  8
0
  6
CONTINUOUS
 62
     1
 10
2240.8
 20
1157.0
 11
2240.8
 21
1234.125113365
  0
LINE
  8
1
  6
CONTINUOUS
 62
     2
 10
2236.800043158
 20
1145.0
 11
2349.307300983
 21
1145.0
  0
LINE
  8
1
  6
CONTINUOUS
 62
     2
 10
2258.8
 20
1280.0
 11
2349.307300983
 21
1280.0
  0
LINE
  8
1
  6
CONTINUOUS
 62
     2
 10
1962.8
 20
1302.5
 11
1862.0
 21
1302.5
  0
LINE
  8
1
  6
CONTINUOUS
 62
     2
 10
1962.8
 20
1257.5
 11
1862.0
 21
1257.5
  0
CIRCLE
  8
0
  6
CONTINUOUS
 62
     1
 10
2110.8
 20
1280.0
 40
47.5
  0
LINE
  8
0
  6
CONTINUOUS
 62
     1
 10
2085.8
 20
1239.5
 11
2085.8
 21
1320.5
  0
ARC
  8
0
  6
CONTINUOUS
 62
     1
 10
2110.8
 20
1280.0
 40
37.5
 50
47.202598162
 51
132.273689006
  0
LINE
  8
0
  6
CONTINUOUS
 62
     1
 10
2135.8
 20
1241.0
 11
2135.8
 21
1320.0
  0
ARC
  8
0
  6
CONTINUOUS
 62
     1
 10
2110.8
 20
1280.0
 40
37.5
 50
227.202598162
 51
312.220833136
  0
LINE
  8
0
  6
LTYPE3
 62
     2
 10
2135.8
 20
1257.5
 11
2085.8
 21
1257.5
  0
LINE
  8
0
  6
LTYPE3
 62
     2
 10
2135.8
 20
1302.5
 11
2085.8
 21
1302.5
  0
CIRCLE
  8
0
  6
CONTINUOUS
 62
     1
 10
2110.8
 20
1280.0
 40
47.5
  0
LINE
  8
0
  6
LTYPE3
 62
     2
 10
2020.8
 20
1302.5
 11
1970.8
 21
1302.5
  0
LINE
  8
0
  6
LTYPE3
 62
     2
 10
2020.8
 20
1257.5
 11
2020.8
 21
1302.5
  0
ARC
  8
0
  6
CONTINUOUS
 62
     1
 10
2048.634520095
 20
1382.125917906
 40
3.0
 50
325.0
 51
55.0
  0
LINE
  8
0
  6
CONTINUOUS
 62
     1
 10
2012.264679345
 20
1411.25467833
 11
2050.355249404
 21
1384.583374039
  0
ARC
  8
0
  6
CONTINUOUS
 62
     1
 10
2011.691102908
 20
1410.435526285
 40
1.0
 50
55.0
 51
145.0
  0
ARC
  8
0
  6
CONTINUOUS
 62
     1
 10
2009.151221555
 20
1408.551646589
 40
1.0
 50
55.0
 51
145.0
  0
ARC
  8
0
  6
CONTINUOUS
 62
     1
 10
1993.571182206
 20
1303.487321655
 40
3.0
 50
235.0
 51
325.0
  0
LINE
  8
0
  6
CONTINUOUS
 62
     1
 10
1953.759882837
 20
1327.701169812
 11
1991.850452896
 21
1301.029865522
  0
ARC
  8
0
  6
CONTINUOUS
 62
     1
 10
1954.333459273
 20
1328.520321856
 40
1.0
 50
145.0
 51
235.0
  0
ARC
  8
0
  6
CONTINUOUS
 62
     1
 10
1955.235036538
 20
1331.551354426
 40
1.0
 50
145.0
 51
235.0
  0
LINE
  8
0
  6
CONTINUOUS
 62
     1
 10
1957.855643058
 20
1324.83328763
 11
2016.360439566
 21
1408.386796148
  0
LINE
  8
0
  6
CONTINUOUS
 62
     1
 10
1959.084371125
 20
1323.972922976
 11
2017.589167633
 21
1407.526431493
  0
LINE
  8
0
  6
CONTINUOUS
 62
     1
 10
2051.091976228
 20
1380.405188597
 11
1996.028638338
 21
1301.766592346
  0
LINE
  8
0
  6
CONTINUOUS
 62
     1
 10
1954.415884494
 20
1332.124930862
 11
2008.332069511
 21
1409.125223025
  0
LINE
  8
0
  6
CONTINUOUS
 62
     1
 10
1953.514307229
 20
1329.093898293
 11
2010.871950864
 21
1411.009102722
  0
LINE
  8
0
  6
LTYPE2
 62
     2
 10
1952.532174803
 20
1335.885467765
 11
1967.850318031
 21
1325.159588405
  0
LINE
  8
0
  6
LTYPE2
 62
     2
 10
2004.154054074
 20
1409.609151751
 11
2019.472197302
 21
1398.883272391
  0
LINE
  8
0
  6
LTYPE1
 62
     2
 10
2117.458322994
 20
1275.337792048
 11
1974.458322994
 21
1375.467470012
  0
LINE
  8
6
  6
CONTINUOUS
 62
     2
 10
1958.8
 20
1302.5
 11
1902.8
 21
1302.5
  0
LINE
  8
0
  6
LTYPE1
 62
     2
 10
1990.848183048
 20
1339.697752135
 11
2014.192744008
 21
1373.037240338
  0
CIRCLE
  8
0
  6
CONTINUOUS
 62
     2
 10
2002.262354132
 20
1355.998877817
 40
10.4775
  0
CIRCLE
  8
0
  6
CONTINUOUS
 62
     2
 10
2002.262354132
 20
1355.998877817
 40
9.3155
  0
LINE
  8
0
  6
CONTINUOUS
 62
     1
 10
1970.8
 20
1235.0
 11
1970.8
 21
1315.769551323
  0
LINE
  8
0
  6
CONTINUOUS
 62
     1
 10
1992.800030518
 20
1145.0
 11
2225.8
 21
1145.0
  0
ARC
  8
0
  6
CONTINUOUS
 62
     1
 10
1992.8
 20
1157.0
 40
12.0
 50
180.0
 51
270.000145711
  0
ARC
  8
0
  6
CONTINUOUS
 62
     1
 10
2110.8
 20
1280.0
 40
92.5
 50
269.999986664
 51
268.781124765
  0
LINE
  8
0
  6
CONTINUOUS
 62
     1
 10
1339.350091503
 20
1358.346965206
 11
1339.350091503
 21
1286.367851525
  0
LINE
  8
0
  6
CONTINUOUS
 62
     1
 10
1332.197868375
 20
1216.182886318
 11
1332.197868375
 21
1214.982886318
  0
POINT
  8
0
  6
CONTINUOUS
 62
     1
 10
1332.197868375
 20
1214.982886318
  0
LINE
  8
0
  6
CONTINUOUS
 62
     1
 10
1332.197868375
 20
1214.982886318
 11
1340.097868375
 21
1214.982886318
  0
POINT
  8
0
  6
CONTINUOUS
 62
     1
 10
1340.097868375
 20
1214.982886318
  0
LINE
  8
0
  6
CONTINUOUS
 62
     1
 10
1340.097868375
 20
1214.982886318
 11
1340.097868375
 21
1215.882886318
  0
LINE
  8
0
  6
CONTINUOUS
 62
     1
 10
1342.615119794
 20
1287.959
 11
1342.615119794
 21
1217.959
  0
LINE
  8
0
  6
CONTINUOUS
 62
     1
 10
1331.450091503
 20
1358.046965206
 11
1331.450091503
 21
1360.459
  0
LINE
  8
0
  6
CONTINUOUS
 62
     1
 10
1331.450091503
 20
1357.959
 11
1331.450091503
 21
1286.367851525
  0
LINE
  8
0
  6
CONTINUOUS
 62
     1
 10
1348.643976624
 20
1380.459
 11
1342.615119794
 21
1357.959
  0
LINE
  8
0
  6
CONTINUOUS
 62
     1
 10
1339.350091503
 20
1360.459
 11
1339.350091503
 21
1358.346965206
  0
LINE
  8
0
  6
CONTINUOUS
 62
     1
 10
1339.350091503
 20
1360.459
 11
1331.450091503
 21
1360.459
  0
LINE
  8
0
  6
CONTINUOUS
 62
     1
 10
1339.350091503
 20
1357.959
 11
1342.615119794
 21
1357.959
  0
LINE
  8
0
  6
CONTINUOUS
 62
     1
 10
1232.05
 20
1357.959
 11
1331.450091503
 21
1357.959
  0
LINE
  8
0
  6
LTYPE5
 62
     2
 10
1963.8
 20
1511.0
 11
2268.8
 21
1511.0
  0
ARC
  8
0
  6
CONTINUOUS
 62
     1
 10
2110.8
 20
1511.0
 40
125.0
 50
280.557968545
 51
0.0
  0
CIRCLE
  8
0
  6
CONTINUOUS
 62
     1
 10
2110.8
 20
1511.0
 40
20.0
  0
ARC
  8
0
  6
CONTINUOUS
 62
     1
 10
2025.8
 20
1511.0
 40
20.0
 50
90.0
 51
270.0
  0
ARC
  8
0
  6
CONTINUOUS
 62
     1
 10
2153.3
 20
1437.387840678
 40
20.0
 50
210.0
 51
30.0
  0
ARC
  8
0
  6
CONTINUOUS
 62
     1
 10
2153.3
 20
1584.612159322
 40
20.0
 50
330.0
 51
150.0
  0
LINE
  8
0
  6
CONTINUOUS
 62
     1
 10
2025.8
 20
1531.0
 11
2099.252994616
 21
1531.0
  0
LINE
  8
0
  6
CONTINUOUS
 62
     1
 10
2135.979491924
 20
1594.612159322
 11
2099.252994616
 21
1531.0
  0
LINE
  8
0
  6
CONTINUOUS
 62
     1
 10
2025.8
 20
1491.0
 11
2099.252994616
 21
1491.0
  0
LINE
  8
0
  6
CONTINUOUS
 62
     1
 10
2135.979491924
 20
1427.387840678
 11
2099.252994616
 21
1491.0
  0
CIRCLE
  8
0
  6
CONTINUOUS
 62
     1
 10
2170.8
 20
1511.0
 40
10.0
  0
LINE
  8
0
  6
CONTINUOUS
 62
     2
 10
2170.8
 20
1526.0
 11
2170.8
 21
1496.0
  0
LINE
  8
0
  6
CONTINUOUS
 62
     1
 10
2114.133333333
 20
1491.279734056
 11
2172.466666667
 21
1501.139867028
  0
LINE
  8
0
  6
CONTINUOUS
 62
     1
 10
2114.133333333
 20
1530.720265944
 11
2172.466666667
 21
1520.860132972
  0
LINE
  8
0
  6
CONTINUOUS
 62
     1
 10
2170.620508076
 20
1574.612159322
 11
2142.510211838
 21
1525.923698023
  0
LINE
  8
0
  6
CONTINUOUS
 62
     1
 10
2170.620508076
 20
1447.387840678
 11
2142.510211838
 21
1496.076301977
  0
ARC
  8
0
  6
CONTINUOUS
 62
     1
 10
2186.813978978
 20
1587.013978978
 40
7.75
 50
294.214141675
 51
155.785858325
  0
LINE
  8
0
  6
CONTINUOUS
 62
     2
 10
2180.8
 20
1581.0
 11
2193.745832412
 21
1593.945832412
  0
ARC
  8
0
  6
CONTINUOUS
 62
     2
 10
2110.8
 20
1511.0
 40
107.5
 50
38.280925788
 51
51.325228591
  0
ARC
  8
0
  6
CONTINUOUS
 62
     1
 10
2186.813978978
 20
1434.986021022
 40
7.75
 50
204.214141675
 51
65.785858325
  0
LINE
  8
0
  6
CONTINUOUS
 62
     2
 10
2180.8
 20
1441.0
 11
2193.745832412
 21
1428.054167588
  0
ARC
  8
0
  6
CONTINUOUS
 62
     2
 10
2110.8
 20
1511.0
 40
107.5
 50
308.674771409
 51
321.719074212
  0
ARC
  8
0
  6
CONTINUOUS
 62
     1
 10
2034.786021022
 20
1587.013978978
 40
7.75
 50
24.214141675
 51
245.785858325
  0
LINE
  8
0
  6
CONTINUOUS
 62
     2
 10
2040.8
 20
1581.0
 11
2027.854167588
 21
1593.945832412
  0
ARC
  8
0
  6
CONTINUOUS
 62
     2
 10
2110.8
 20
1511.0
 40
107.5
 50
128.674771409
 51
141.719074212
  0
ARC
  8
0
  6
CONTINUOUS
 62
     1
 10
2034.786021022
 20
1434.986021022
 40
7.75
 50
114.214141675
 51
335.785858325
  0
LINE
  8
0
  6
CONTINUOUS
 62
     2
 10
2040.8
 20
1441.0
 11
2027.854167588
 21
1428.054167588
  0
ARC
  8
0
  6
CONTINUOUS
 62
     2
 10
2110.8
 20
1511.0
 40
107.5
 50
218.280925788
 51
231.325228591
  0
ARC
  8
0
  6
CONTINUOUS
 62
     1
 10
2110.8
 20
1511.0
 40
105.0
 50
272.980462591
 51
0.0
  0
ARC
  8
0
  6
CONTINUOUS
 62
     1
 10
2110.8
 20
1511.0
 40
105.0
 50
0.0
 51
226.520053773
  0
LINE
  8
0
  6
CONTINUOUS
 62
     1
 10
2130.8
 20
1614.07764064
 11
2130.8
 21
1629.7
  0
LINE
  8
0
  6
CONTINUOUS
 62
     1
 10
2090.8
 20
1614.07764064
 11
2090.8
 21
1629.7
  0
CIRCLE
  8
0
  6
CONTINUOUS
 62
     1
 10
2110.8
 20
1526.0
 40
4.0
  0
CIRCLE
  8
0
  6
CONTINUOUS
 62
     1
 10
2110.8
 20
1511.0
 40
4.0
  0
CIRCLE
  8
0
  6
CONTINUOUS
 62
     1
 10
2095.8
 20
1511.0
 40
4.0
  0
CIRCLE
  8
0
  6
CONTINUOUS
 62
     1
 10
2110.8
 20
1496.0
 40
4.0
  0
CIRCLE
  8
0
  6
CONTINUOUS
 62
     1
 10
2125.8
 20
1511.0
 40
4.0
  0
ARC
  8
0
  6
CONTINUOUS
 62
     1
 10
2110.8
 20
1511.0
 40
105.0
 50
226.520053773
 51
272.980462591
  0
ARC
  8
0
  6
CONTINUOUS
 62
     1
 10
2110.8
 20
1511.0
 40
125.0
 50
107.31277541
 51
280.557968545
  0
ARC
  8
0
  6
CONTINUOUS
 62
     1
 10
2110.8
 20
1511.0
 40
125.0
 50
0.0
 51
72.687211164
  0
ARC
  8
0
  6
CONTINUOUS
 62
     1
 10
2110.8
 20
1511.0
 40
150.0
 50
109.471220634
 51
150.073565133
  0
ARC
  8
0
  6
CONTINUOUS
 62
     1
 10
2110.8
 20
1511.0
 40
150.0
 50
29.926434867
 51
70.528779366
  0
LINE
  8
0
  6
CONTINUOUS
 62
     1
 10
1980.8
 20
1520.0
 11
1973.2
 21
1520.0
  0
LINE
  8
0
  6
CONTINUOUS
 62
     1
 10
1973.2
 20
1400.0
 11
1973.2
 21
1520.0
  0
LINE
  8
0
  6
LTYPE1
 62
     2
 10
1995.4
 20
1510.0
 11
1968.4
 21
1510.0
  0
LINE
  8
0
  6
LTYPE1
 62
     2
 10
1995.4
 20
1410.0
 11
1970.4
 21
1410.0
  0
LINE
  8
0
  6
CONTINUOUS
 62
     1
 10
1980.8
 20
1400.0
 11
1973.2
 21
1400.0
  0
LINE
  8
0
  6
CONTINUOUS
 62
     1
 10
2240.8
 20
1520.0
 11
2248.4
 21
1520.0
  0
LINE
  8
0
  6
CONTINUOUS
 62
     1
 10
2248.4
 20
1400.0
 11
2248.4
 21
1520.0
  0
LINE
  8
0
  6
LTYPE1
 62
     2
 10
2226.2
 20
1510.0
 11
2253.2
 21
1510.0
  0
LINE
  8
0
  6
LTYPE1
 62
     2
 10
2226.2
 20
1410.0
 11
2251.2
 21
1410.0
  0
LINE
  8
0
  6
CONTINUOUS
 62
     1
 10
2240.8
 20
1400.0
 11
2248.4
 21
1400.0
  0
LINE
  8
1
  6
CONTINUOUS
 62
     2
 10
2322.007300983
 20
1280.0
 11
2349.307300983
 21
1280.0
  0
LINE
  8
1
  6
CONTINUOUS
 62
     2
 10
2333.307300983
 20
1280.0
 11
2338.483681885
 21
1299.318516526
  0
LINE
  8
1
  6
CONTINUOUS
 62
     2
 10
2333.307300983
 20
1280.0
 11
2328.130920081
 21
1299.318516526
  0
LINE
  8
1
  6
CONTINUOUS
 62
     2
 10
2333.307300983
 20
1280.0
 11
2333.307300983
 21
1511.0
  0
LINE
  8
1
  6
CONTINUOUS
 62
     2
 10
2333.307300983
 20
1511.0
 11
2328.130920081
 21
1491.681483474
  0
LINE
  8
1
  6
CONTINUOUS
 62
     2
 10
2333.307300983
 20
1511.0
 11
2338.483681885
 21
1491.681483474
  0
LINE
  8
1
  6
CONTINUOUS
 62
     2
 10
2266.407300983
 20
1511.0
 11
2349.307300983
 21
1511.0
  0
TEXT
  8
1
  6
CONTINUOUS
 62
     3
 10
2325.307300983
 20
1354.7
 30
2.4
 40
28.0
  1
２３１
 50
90.0
 41
0.914285714
 51
0.0
  7
KANJI49
  0
LINE
  8
1
  6
CONTINUOUS
 62
     2
 10
2312.107300983
 20
1511.0
 11
2349.307300983
 21
1511.0
  0
LINE
  8
0
  6
CONTINUOUS
 62
     1
 10
2240.8
 20
1325.874886635
 11
2240.8
 21
1585.833147735
  0
LINE
  8
0
  6
CONTINUOUS
 62
     1
 10
1980.8
 20
1369.805352832
 11
1980.8
 21
1585.833147735
  0
LINE
  8
0
  6
LTYPE1
 62
     2
 10
2110.8
 20
1115.4
 11
2110.8
 21
1742.4
  0
LINE
  8
0
  6
CONTINUOUS
 62
     1
 10
579.0
 20
1652.959
 11
529.0
 21
1652.959
  0
LINE
  8
0
  6
LTYPE1
 62
     2
 10
450.0
 20
1448.959
 11
402.0
 21
1448.959
  0
CIRCLE
  8
0
  6
CONTINUOUS
 62
     1
 10
549.0
 20
1682.959
 40
17.5
  0
LINE
  8
0
  6
CONTINUOUS
 62
     1
 10
549.0
 20
1652.959
 11
564.0
 21
1652.959
  0
LINE
  8
0
  6
CONTINUOUS
 62
     1
 10
549.0
 20
1663.959
 11
562.751706485
 21
1663.959
  0
LINE
  8
0
  6
CONTINUOUS
 62
     1
 10
562.751706485
 20
1663.959
 11
549.0
 21
1665.459
  0
LINE
  8
0
  6
CONTINUOUS
 62
     1
 10
563.689625645
 20
1655.694028154
 11
562.751706485
 21
1663.959
  0
LINE
  8
0
  6
CONTINUOUS
 62
     1
 10
564.0
 20
1652.959
 11
563.689625645
 21
1655.694028154
  0
ARC
  8
0
  6
CONTINUOUS
 62
     1
 10
565.297773229
 20
1655.886087564
 40
1.6
 50
120.593314844
 51
186.768821444
  0
ARC
  8
0
  6
CONTINUOUS
 62
     1
 10
549.0
 20
1682.959
 40
30.0
 50
301.047754584
 51
0.0
  0
LINE
  8
0
  6
CONTINUOUS
 62
     1
 10
549.0
 20
1652.959
 11
534.0
 21
1652.959
  0
LINE
  8
0
  6
CONTINUOUS
 62
     1
 10
549.0
 20
1663.959
 11
535.248293515
 21
1663.959
  0
LINE
  8
0
  6
CONTINUOUS
 62
     1
 10
535.248293515
 20
1663.959
 11
549.0
 21
1665.459
  0
LINE
  8
0
  6
CONTINUOUS
 62
     1
 10
534.310374355
 20
1655.694028154
 11
535.248293515
 21
1663.959
  0
LINE
  8
0
  6
CONTINUOUS
 62
     1
 10
534.0
 20
1652.959
 11
534.310374355
 21
1655.694028154
  0
ARC
  8
0
  6
CONTINUOUS
 62
     1
 10
532.702226771
 20
1655.886087564
 40
1.6
 50
353.231178556
 51
59.406685156
  0
ARC
  8
0
  6
CONTINUOUS
 62
     1
 10
549.0
 20
1682.959
 40
30.0
 50
0.0
 51
239.0231413
  0
LINE
  8
0
  6
LTYPE1
 62
     2
 10
549.0
 20
1604.759
 11
549.0
 21
1719.759
  0
LINE
  8
0
  6
LTYPE1
 62
     2
 10
587.0
 20
1682.959
 11
513.0
 21
1682.959
  0
LINE
  8
0
  6
CONTINUOUS
 62
     1
 10
556.0
 20
1583.959
 11
556.0
 21
1652.959
  0
ARC
  8
0
  6
CONTINUOUS
 62
     1
 10
550.0
 20
1583.959
 40
6.0
 50
270.0
 51
0.0
  0
ARC
  8
0
  6
CONTINUOUS
 62
     1
 10
523.0
 20
1583.959
 40
6.0
 50
270.0
 51
0.0
  0
LINE
  8
0
  6
CONTINUOUS
 62
     1
 10
529.0
 20
1583.959
 11
529.0
 21
1652.959
  0
LINE
  8
0
  6
CONTINUOUS
 62
     1
 10
550.0
 20
1577.959
 11
424.0
 21
1577.959
  0
LINE
  8
0
  6
CONTINUOUS
 62
     1
 10
424.0
 20
1407.459
 11
424.0
 21
1577.959
  0
LINE
  8
0
  6
CONTINUOUS
 62
     1
 10
579.0
 20
1392.109
 11
579.0
 21
1643.959
  0
LINE
  8
0
  6
CONTINUOUS
 62
     1
 10
579.0
 20
1393.959
 11
579.0
 21
1643.959
  0
LINE
  8
0
  6
CONTINUOUS
 62
     1
 10
579.0
 20
1393.959
 11
579.0
 21
1643.959
  0
LINE
  8
0
  6
CONTINUOUS
 62
     1
 10
546.0
 20
1527.959
 11
475.0
 21
1527.959
  0
LINE
  8
0
  6
CONTINUOUS
 62
     1
 10
546.0
 20
1527.959
 11
546.0
 21
1407.959
  0
LINE
  8
0
  6
CONTINUOUS
 62
     1
 10
546.0
 20
1407.959
 11
475.0
 21
1407.959
  0
LINE
  8
0
  6
CONTINUOUS
 62
     1
 10
475.0
 20
1407.959
 11
475.0
 21
1527.959
  0
LINE
  8
0
  6
LTYPE1
 62
     2
 10
551.0
 20
1417.959
 11
527.2
 21
1417.959
  0
LINE
  8
0
  6
LTYPE1
 62
     2
 10
497.2
 20
1517.959
 11
470.2
 21
1517.959
  0
LINE
  8
0
  6
LTYPE1
 62
     2
 10
551.2
 20
1517.959
 11
523.2
 21
1517.959
  0
LINE
  8
0
  6
LTYPE1
 62
     2
 10
536.0
 20
1429.759
 11
536.0
 21
1407.959
  0
LINE
  8
0
  6
LTYPE1
 62
     2
 10
536.0
 20
1527.959
 11
536.0
 21
1505.759
  0
LINE
  8
0
  6
LTYPE1
 62
     2
 10
485.0
 20
1506.759
 11
485.0
 21
1527.959
  0
LINE
  8
0
  6
LTYPE1
 62
     2
 10
485.0
 20
1407.959
 11
485.0
 21
1428.759
  0
LINE
  8
0
  6
LTYPE1
 62
     2
 10
497.2
 20
1417.959
 11
472.2
 21
1417.959
  0
LINE
  8
0
  6
CONTINUOUS
 62
     1
 10
579.0
 20
1418.959
 11
579.0
 21
1618.959
  0
LINE
  8
0
  6
CONTINUOUS
 62
     1
 10
579.0
 20
1388.959
 11
579.0
 21
1652.959
  0
LINE
  8
0
  6
CONTINUOUS
 62
     1
 10
579.0
 20
1652.959
 11
575.0
 21
1652.959
  0
ARC
  8
0
  6
CONTINUOUS
 62
     1
 10
549.0
 20
1682.959
 40
30.0
 50
330.073565133
 51
0.0
  0
ARC
  8
0
  6
CONTINUOUS
 62
     1
 10
549.0
 20
1682.959
 40
30.0
 50
0.0
 51
29.926434867
  0
LINE
  8
0
  6
LTYPE1
 62
     2
 10
587.0
 20
1682.959
 11
575.0
 21
1682.959
  0
LINE
  8
0
  6
CONTINUOUS
 62
     1
 10
579.0
 20
1393.959
 11
579.0
 21
1643.959
  0
LINE
  8
0
  6
CONTINUOUS
 62
     1
 10
579.0
 20
1392.109
 11
579.0
 21
1643.959
  0
LINE
  8
0
  6
CONTINUOUS
 62
     1
 10
579.0
 20
1393.959
 11
579.0
 21
1643.959
  0
LINE
  8
0
  6
LTYPE1
 62
     2
 10
596.0
 20
1518.959
 11
575.0
 21
1518.959
  0
LINE
  8
0
  6
LTYPE1
 62
     2
 10
587.0
 20
1682.959
 11
513.0
 21
1682.959
  0
LINE
  8
1
  6
CONTINUOUS
 62
     2
 10
1029.8
 20
1686.459
 11
1230.6
 21
1686.459
  0
TEXT
  8
1
  6
CONTINUOUS
 62
     3
 10
1029.8
 20
1694.459
 30
4.0
 40
24.0
  1
ブレーキ開放装置
 50
0.0
 41
0.9
 51
0.0
  7
KANJI54
  0
LINE
  8
1
  6
CONTINUOUS
 62
     2
 10
489.8
 20
1442.459
 11
471.196605414
 21
1435.116404419
  0
LINE
  8
1
  6
CONTINUOUS
 62
     2
 10
489.8
 20
1442.459
 11
477.360285482
 21
1426.798428404
  0
LINE
  8
1
  6
CONTINUOUS
 62
     2
 10
489.8
 20
1442.459
 11
350.8
 21
1339.459
  0
TEXT
  8
1
  6
CONTINUOUS
 62
     3
 10
278.0
 20
1347.459
 30
4.0
 40
24.0
  1
点検口
 50
0.0
 41
0.9
 51
0.0
  7
KANJI54
  0
LINE
  8
0
  6
LTYPE1
 62
     2
 10
450.0
 20
1448.959
 11
402.0
 21
1448.959
  0
LINE
  8
0
  6
CONTINUOUS
 62
     1
 10
374.0
 20
1498.959
 11
374.0
 21
1538.959
  0
LINE
  8
0
  6
CONTINUOUS
 62
     1
 10
416.0
 20
1479.959
 11
416.0
 21
1557.959
  0
LINE
  8
0
  6
CONTINUOUS
 62
     1
 10
416.0
 20
1538.959
 11
374.0
 21
1538.959
  0
LINE
  8
0
  6
CONTINUOUS
 62
     1
 10
416.0
 20
1498.959
 11
374.0
 21
1498.959
  0
LINE
  8
0
  6
CONTINUOUS
 62
     1
 10
424.0
 20
1557.959
 11
416.0
 21
1557.959
  0
LINE
  8
0
  6
CONTINUOUS
 62
     1
 10
424.0
 20
1479.959
 11
416.0
 21
1479.959
  0
LINE
  8
0
  6
CONTINUOUS
 62
     1
 10
424.0
 20
1477.959
 11
418.0
 21
1477.959
  0
LINE
  8
0
  6
CONTINUOUS
 62
     1
 10
418.0
 20
1411.959
 11
418.0
 21
1477.959
  0
LINE
  8
0
  6
CONTINUOUS
 62
     1
 10
424.0
 20
1411.959
 11
418.0
 21
1411.959
  0
LINE
  8
0
  6
LTYPE1
 62
     2
 10
450.0
 20
1448.959
 11
411.6
 21
1448.959
  0
LINE
  8
0
  6
LTYPE1
 62
     2
 10
993.6
 20
1518.959
 11
361.5
 21
1518.959
  0
LINE
  8
1
  6
CONTINUOUS
 62
     2
 10
579.0
 20
1660.959
 11
579.0
 21
1805.959
  0
LINE
  8
1
  6
CONTINUOUS
 62
     2
 10
579.0
 20
1789.959
 11
559.681483474
 21
1795.135380902
  0
LINE
  8
1
  6
CONTINUOUS
 62
     2
 10
579.0
 20
1789.959
 11
559.681483474
 21
1784.782619098
  0
LINE
  8
1
  6
CONTINUOUS
 62
     2
 10
579.0
 20
1789.959
 11
374.0
 21
1789.959
  0
LINE
  8
1
  6
CONTINUOUS
 62
     2
 10
374.0
 20
1789.959
 11
393.318516526
 21
1784.782619098
  0
LINE
  8
1
  6
CONTINUOUS
 62
     2
 10
374.0
 20
1789.959
 11
393.318516526
 21
1795.135380902
  0
LINE
  8
1
  6
CONTINUOUS
 62
     2
 10
374.0
 20
1546.959
 11
374.0
 21
1805.959
  0
TEXT
  8
1
  6
CONTINUOUS
 62
     3
 10
435.7
 20
1797.959
 30
2.4
 40
28.0
  1
２０５
 50
0.0
 41
0.914285714
 51
0.0
  7
KANJI49
  0
LINE
  8
0
  6
LTYPE1
 62
     2
 10
587.0
 20
1682.959
 11
580.0
 21
1682.959
  0
LINE
  8
0
  6
LTYPE1
 62
     2
 10
993.6
 20
1518.959
 11
361.5
 21
1518.959
  0
LINE
  8
0
  6
LTYPE1
 62
     2
 10
587.0
 20
1682.959
 11
513.0
 21
1682.959
  0
LINE
  8
0
  6
CONTINUOUS
 62
     1
 10
587.0
 20
1628.959
 11
579.0
 21
1628.959
  0
LINE
  8
0
  6
CONTINUOUS
 62
     1
 10
599.0
 20
1418.959
 11
599.0
 21
1618.959
  0
LINE
  8
0
  6
CONTINUOUS
 62
     1
 10
587.0
 20
1408.959
 11
587.0
 21
1628.959
  0
LINE
  8
0
  6
CONTINUOUS
 62
     1
 10
587.0
 20
1408.959
 11
579.0
 21
1408.959
  0
LINE
  8
0
  6
CONTINUOUS
 62
     1
 10
601.5
 20
1470.523
 11
607.114359354
 21
1470.523
  0
LINE
  8
0
  6
CONTINUOUS
 62
     1
 10
608.5
 20
1468.123
 11
607.114359354
 21
1470.523
  0
LINE
  8
0
  6
CONTINUOUS
 62
     1
 10
608.5
 20
1460.723
 11
608.5
 21
1468.123
  0
LINE
  8
0
  6
CONTINUOUS
 62
     1
 10
601.5
 20
1465.623
 11
607.114359354
 21
1465.623
  0
ARC
  8
0
  6
CONTINUOUS
 62
     1
 10
599.1433172
 20
1460.723
 40
9.3566828
 50
328.419912243
 51
31.580087757
  0
LINE
  8
0
  6
CONTINUOUS
 62
     1
 10
608.5
 20
1468.123
 11
607.114359354
 21
1470.523
  0
ARC
  8
0
  6
CONTINUOUS
 62
     1
 10
605.642116168
 20
1468.073
 40
2.858321186
 50
301.002313915
 51
2.989498403
  0
LINE
  8
0
  6
CONTINUOUS
 62
     1
 10
601.5
 20
1450.923
 11
607.114359354
 21
1450.923
  0
LINE
  8
0
  6
CONTINUOUS
 62
     1
 10
608.5
 20
1453.323
 11
607.114359354
 21
1450.923
  0
LINE
  8
0
  6
CONTINUOUS
 62
     1
 10
608.5
 20
1460.723
 11
608.5
 21
1453.323
  0
LINE
  8
0
  6
CONTINUOUS
 62
     1
 10
601.5
 20
1455.823
 11
607.114359354
 21
1455.823
  0
ARC
  8
0
  6
CONTINUOUS
 62
     1
 10
605.642116168
 20
1453.373
 40
2.858321186
 50
357.010501597
 51
58.997686085
  0
LINE
  8
0
  6
CONTINUOUS
 62
     1
 10
601.5
 20
1460.723
 11
601.5
 21
1470.523
  0
LINE
  8
0
  6
CONTINUOUS
 62
     1
 10
601.499999996
 20
1460.723
 11
599.0
 21
1463.222999996
  0
LINE
  8
0
  6
CONTINUOUS
 62
     1
 10
599.0
 20
1469.923
 11
601.5
 21
1469.923
  0
LINE
  8
0
  6
CONTINUOUS
 62
     1
 10
601.5
 20
1460.723
 11
601.5
 21
1450.923
  0
LINE
  8
0
  6
CONTINUOUS
 62
     1
 10
599.0
 20
1451.523
 11
601.5
 21
1451.523
  0
LINE
  8
0
  6
CONTINUOUS
 62
     1
 10
599.0
 20
1460.723
 11
601.499999996
 21
1458.223000004
  0
LINE
  8
0
  6
CONTINUOUS
 62
     1
 10
601.5
 20
1587.195
 11
607.114359354
 21
1587.195
  0
LINE
  8
0
  6
CONTINUOUS
 62
     1
 10
608.5
 20
1584.795
 11
607.114359354
 21
1587.195
  0
LINE
  8
0
  6
CONTINUOUS
 62
     1
 10
608.5
 20
1577.395
 11
608.5
 21
1584.795
  0
LINE
  8
0
  6
CONTINUOUS
 62
     1
 10
601.5
 20
1582.295
 11
607.114359354
 21
1582.295
  0
ARC
  8
0
  6
CONTINUOUS
 62
     1
 10
599.1433172
 20
1577.395
 40
9.3566828
 50
328.419912243
 51
31.580087757
  0
ARC
  8
0
  6
CONTINUOUS
 62
     1
 10
605.642116168
 20
1584.745
 40
2.858321186
 50
301.002313915
 51
2.989498403
  0
LINE
  8
0
  6
CONTINUOUS
 62
     1
 10
601.5
 20
1567.595
 11
607.114359354
 21
1567.595
  0
LINE
  8
0
  6
CONTINUOUS
 62
     1
 10
608.5
 20
1569.995
 11
607.114359354
 21
1567.595
  0
LINE
  8
0
  6
CONTINUOUS
 62
     1
 10
608.5
 20
1577.395
 11
608.5
 21
1569.995
  0
LINE
  8
0
  6
CONTINUOUS
 62
     1
 10
601.5
 20
1572.495
 11
607.114359354
 21
1572.495
  0
LINE
  8
0
  6
CONTINUOUS
 62
     1
 10
608.5
 20
1569.995
 11
607.114359354
 21
1567.595
  0
ARC
  8
0
  6
CONTINUOUS
 62
     1
 10
605.642116168
 20
1570.045
 40
2.858321186
 50
357.010501597
 51
58.997686085
  0
LINE
  8
0
  6
CONTINUOUS
 62
     1
 10
601.5
 20
1577.395
 11
601.5
 21
1587.195
  0
LINE
  8
0
  6
CONTINUOUS
 62
     1
 10
601.5
 20
1577.395
 11
601.5
 21
1567.595
  0
LINE
  8
0
  6
CONTINUOUS
 62
     1
 10
599.0
 20
1586.595
 11
601.5
 21
1586.595
  0
LINE
  8
0
  6
CONTINUOUS
 62
     1
 10
599.0
 20
1577.395
 11
601.499999996
 21
1579.894999996
  0
LINE
  8
0
  6
CONTINUOUS
 62
     1
 10
601.499999996
 20
1577.395
 11
599.0
 21
1574.895000004
  0
LINE
  8
0
  6
CONTINUOUS
 62
     1
 10
599.0
 20
1568.195
 11
601.5
 21
1568.195
  0
LINE
  8
0
  6
CONTINUOUS
 62
     1
 10
599.0
 20
1618.959
 11
587.0
 21
1618.959
  0
LINE
  8
0
  6
CONTINUOUS
 62
     1
 10
599.0
 20
1418.959
 11
587.0
 21
1418.959
  0
LINE
  8
0
  6
CONTINUOUS
 62
     1
 10
809.0
 20
1579.059
 11
662.0
 21
1579.059
  0
LINE
  8
0
  6
CONTINUOUS
 62
     1
 10
809.0
 20
1559.059
 11
662.0
 21
1559.059
  0
LINE
  8
0
  6
CONTINUOUS
 62
     1
 10
809.0
 20
1539.059
 11
662.0
 21
1539.059
  0
LINE
  8
0
  6
CONTINUOUS
 62
     1
 10
809.0
 20
1499.059
 11
662.0
 21
1499.059
  0
LINE
  8
0
  6
CONTINUOUS
 62
     1
 10
809.0
 20
1479.059
 11
662.0
 21
1479.059
  0
LINE
  8
0
  6
CONTINUOUS
 62
     1
 10
809.0
 20
1459.059
 11
662.0
 21
1459.059
  0
LINE
  8
0
  6
CONTINUOUS
 62
     1
 10
809.0
 20
1439.059
 11
662.0
 21
1439.059
  0
LINE
  8
0
  6
CONTINUOUS
 62
     1
 10
943.741517274
 20
1535.007101266
 11
943.741517274
 21
1466.007101266
  0
POINT
  8
0
  6
CONTINUOUS
 62
     1
 10
943.741517274
 20
1466.007101266
  0
LINE
  8
0
  6
CONTINUOUS
 62
     1
 10
943.741517274
 20
1466.007101266
 11
948.741517274
 21
1466.007101266
  0
POINT
  8
0
  6
CONTINUOUS
 62
     1
 10
948.741517274
 20
1466.007101266
  0
LINE
  8
0
  6
CONTINUOUS
 62
     1
 10
948.741517274
 20
1466.007101266
 11
948.741517274
 21
1535.007101266
  0
LINE
  8
0
  6
CONTINUOUS
 62
     1
 10
943.741517274
 20
1535.007101266
 11
953.541517274
 21
1535.007101266
  0
LINE
  8
0
  6
CONTINUOUS
 62
     1
 10
953.541517274
 20
1503.110898734
 11
953.541517274
 21
1535.007101266
  0
LINE
  8
0
  6
CONTINUOUS
 62
     1
 10
948.741517274
 20
1503.110898734
 11
953.541517274
 21
1503.110898734
  0
LINE
  8
0
  6
CONTINUOUS
 62
     1
 10
943.741517274
 20
1523.259
 11
937.041517274
 21
1523.259
  0
LINE
  8
0
  6
CONTINUOUS
 62
     1
 10
943.741517274
 20
1514.859
 11
937.041517274
 21
1514.859
  0
LINE
  8
0
  6
CONTINUOUS
 62
     1
 10
948.741517274
 20
1478.809
 11
954.141517274
 21
1478.809
  0
POINT
  8
0
  6
CONTINUOUS
 62
     1
 10
954.141517274
 20
1478.809
  0
LINE
  8
0
  6
CONTINUOUS
 62
     1
 10
954.141517274
 20
1478.809
 11
954.141517274
 21
1470.009
  0
POINT
  8
0
  6
CONTINUOUS
 62
     1
 10
954.141517274
 20
1470.009
  0
LINE
  8
0
  6
CONTINUOUS
 62
     1
 10
954.141517274
 20
1470.009
 11
948.841517274
 21
1470.009
  0
LINE
  8
0
  6
CONTINUOUS
 62
     1
 10
943.741517274
 20
1476.009
 11
934.841517274
 21
1476.009
  0
LINE
  8
0
  6
CONTINUOUS
 62
     1
 10
943.741517274
 20
1472.909
 11
934.541517274
 21
1472.909
  0
LINE
  8
0
  6
CONTINUOUS
 62
     1
 10
953.541517274
 20
1532.459
 11
957.0
 21
1532.459
  0
LINE
  8
0
  6
CONTINUOUS
 62
     1
 10
957.0
 20
1532.459
 11
957.0
 21
1527.859
  0
LINE
  8
0
  6
CONTINUOUS
 62
     1
 10
953.541517274
 20
1527.859
 11
957.0
 21
1527.859
  0
LINE
  8
0
  6
CONTINUOUS
 62
     1
 10
953.541517274
 20
1505.659
 11
957.0
 21
1505.659
  0
LINE
  8
0
  6
CONTINUOUS
 62
     1
 10
957.0
 20
1505.659
 11
957.0
 21
1510.259
  0
LINE
  8
0
  6
CONTINUOUS
 62
     1
 10
953.541517274
 20
1510.259
 11
957.0
 21
1510.259
  0
LINE
  8
0
  6
CONTINUOUS
 62
     1
 10
953.541517274
 20
1516.759
 11
957.0
 21
1516.759
  0
LINE
  8
0
  6
CONTINUOUS
 62
     1
 10
957.0
 20
1516.759
 11
957.0
 21
1521.359
  0
LINE
  8
0
  6
CONTINUOUS
 62
     1
 10
953.541517274
 20
1521.359
 11
957.0
 21
1521.359
  0
LINE
  8
0
  6
LTYPE1
 62
     2
 10
929.841517274
 20
1474.509
 11
959.841517274
 21
1474.509
  0
LINE
  8
0
  6
CONTINUOUS
 62
     1
 10
809.0
 20
1599.059
 11
662.0
 21
1599.059
  0
LINE
  8
0
  6
CONTINUOUS
 62
     1
 10
806.5
 20
1707.059
 11
658.5
 21
1633.059
  0
LINE
  8
0
  6
CONTINUOUS
 62
     1
 10
810.972135955
 20
1698.11472809
 11
662.972135955
 21
1624.11472809
  0
ARC
  8
0
  6
CONTINUOUS
 62
     1
 10
780.5
 20
1631.059
 40
10.0
 50
270.0
 51
0.0
  0
ARC
  8
0
  6
CONTINUOUS
 62
     1
 10
780.5
 20
1697.059
 40
10.0
 50
0.0
 51
90.0
  0
LINE
  8
0
  6
CONTINUOUS
 62
     1
 10
780.5
 20
1707.059
 11
690.5
 21
1707.059
  0
ARC
  8
0
  6
CONTINUOUS
 62
     1
 10
690.5
 20
1697.059
 40
10.0
 50
90.0
 51
180.0
  0
LINE
  8
0
  6
CONTINUOUS
 62
     1
 10
780.5
 20
1621.059
 11
690.5
 21
1621.059
  0
ARC
  8
0
  6
CONTINUOUS
 62
     1
 10
690.5
 20
1631.059
 40
10.0
 50
180.0
 51
270.0
  0
LINE
  8
0
  6
CONTINUOUS
 62
     1
 10
658.5
 20
1633.059
 11
662.972135955
 21
1624.11472809
  0
LINE
  8
0
  6
CONTINUOUS
 62
     1
 10
680.5
 20
1643.97472809
 11
680.5
 21
1697.059
  0
LINE
  8
0
  6
CONTINUOUS
 62
     1
 10
680.5
 20
1631.059
 11
680.5
 21
1632.97472809
  0
LINE
  8
0
  6
CONTINUOUS
 62
     1
 10
790.5
 20
1631.059
 11
790.5
 21
1686.97472809
  0
LINE
  8
0
  6
CONTINUOUS
 62
     1
 10
806.712135955
 20
1707.85472809
 11
811.512135955
 21
1698.65472809
  0
LINE
  8
0
  6
LTYPE1
 62
     2
 10
735.5
 20
1607.809
 11
735.5
 21
1716.859
  0
LINE
  8
0
  6
CONTINUOUS
 62
     1
 10
819.0
 20
1619.059
 11
914.814388593
 21
1619.059
  0
ARC
  8
0
  6
CONTINUOUS
 62
     1
 10
912.814388593
 20
1604.059
 40
15.0
 50
10.945397096
 51
90.0
  0
ARC
  8
0
  6
CONTINUOUS
 62
     1
 10
912.923513917
 20
1606.752940371
 40
15.0
 50
10.945397096
 51
90.0
  0
LINE
  8
0
  6
CONTINUOUS
 62
     1
 10
819.0
 20
1621.559
 11
914.814388593
 21
1621.559
  0
ARC
  8
0
  6
CONTINUOUS
 62
     1
 10
527.0
 20
1519.059
 40
410.0
 50
347.629566941
 51
12.370433059
  0
LINE
  8
0
  6
CONTINUOUS
 62
     1
 10
819.0
 20
1609.759
 11
652.0
 21
1609.759
  0
LINE
  8
0
  6
CONTINUOUS
 62
     1
 10
652.0
 20
1428.359
 11
652.0
 21
1609.759
  0
LINE
  8
0
  6
CONTINUOUS
 62
     1
 10
770.4
 20
1621.059
 11
770.4
 21
1609.759
  0
LINE
  8
0
  6
CONTINUOUS
 62
     1
 10
700.6
 20
1621.059
 11
700.6
 21
1609.759
  0
ARC
  8
0
  6
CONTINUOUS
 62
     1
 10
926.874980463
 20
1529.059
 40
10.0
 50
1.432543738
 51
90.0
  0
ARC
  8
0
  6
CONTINUOUS
 62
     1
 10
926.874980463
 20
1509.059
 40
10.0
 50
270.0
 51
358.567456262
  0
LINE
  8
0
  6
CONTINUOUS
 62
     1
 10
926.874999151
 20
1539.059
 11
819.0
 21
1539.059
  0
LINE
  8
0
  6
CONTINUOUS
 62
     1
 10
819.0
 20
1499.059
 11
927.374999151
 21
1499.059
  0
LINE
  8
0
  6
CONTINUOUS
 62
     1
 10
819.0
 20
1418.859
 11
914.814388593
 21
1418.859
  0
ARC
  8
0
  6
CONTINUOUS
 62
     1
 10
912.814388593
 20
1433.859
 40
15.0
 50
270.0
 51
349.054602904
  0
ARC
  8
0
  6
CONTINUOUS
 62
     1
 10
912.923513917
 20
1431.165059629
 40
15.0
 50
270.0
 51
349.054602904
  0
ARC
  8
0
  6
CONTINUOUS
 62
     1
 10
527.0
 20
1518.859
 40
410.0
 50
347.629566941
 51
12.370433059
  0
LINE
  8
0
  6
CONTINUOUS
 62
     1
 10
819.0
 20
1428.159
 11
652.0
 21
1428.159
  0
LINE
  8
0
  6
CONTINUOUS
 62
     1
 10
819.0
 20
1416.359
 11
819.0
 21
1621.559
  0
LINE
  8
0
  6
CONTINUOUS
 62
     1
 10
819.0
 20
1416.359
 11
914.814388593
 21
1416.359
  0
LINE
  8
0
  6
CONTINUOUS
 62
     1
 10
599.0
 20
1601.73472809
 11
651.672135955
 21
1601.73472809
  0
LINE
  8
0
  6
CONTINUOUS
 62
     1
 10
599.0
 20
1436.38327191
 11
651.672135955
 21
1436.38327191
  0
LINE
  8
1
  6
CONTINUOUS
 62
     2
 10
579.0
 20
1758.959
 11
579.0
 21
1805.959
  0
LINE
  8
1
  6
CONTINUOUS
 62
     2
 10
579.0
 20
1789.959
 11
598.318516526
 21
1784.782619098
  0
LINE
  8
1
  6
CONTINUOUS
 62
     2
 10
579.0
 20
1789.959
 11
598.318516526
 21
1795.135380902
  0
LINE
  8
1
  6
CONTINUOUS
 62
     2
 10
579.0
 20
1789.959
 11
957.0
 21
1789.959
  0
LINE
  8
1
  6
CONTINUOUS
 62
     2
 10
957.0
 20
1789.959
 11
937.681483474
 21
1795.135380902
  0
LINE
  8
1
  6
CONTINUOUS
 62
     2
 10
957.0
 20
1789.959
 11
937.681483474
 21
1784.782619098
  0
LINE
  8
1
  6
CONTINUOUS
 62
     2
 10
957.0
 20
1540.459
 11
957.0
 21
1805.959
  0
TEXT
  8
1
  6
CONTINUOUS
 62
     3
 10
727.2
 20
1797.959
 30
2.4
 40
28.0
  1
３７８
 50
0.0
 41
0.914285714
 51
0.0
  7
KANJI49
  0
TEXT
  8
1
  6
CONTINUOUS
 62
     3
 10
903.5
 20
1852.059
 30
2.4
 40
24.0
  1
ＰＦ３／４
 50
0.0
 41
0.9
 51
0.0
  7
KANJI12
  0
LINE
  8
1
  6
CONTINUOUS
 62
     2
 10
962.0
 20
1536.459
 11
974.690933715
 21
1551.916690689
  0
LINE
  8
1
  6
CONTINUOUS
 62
     2
 10
962.0
 20
1536.459
 11
965.261825651
 21
1556.191219678
  0
LINE
  8
1
  6
CONTINUOUS
 62
     2
 10
962.0
 20
1536.459
 11
1030.0
 21
1686.459
  0
LINE
  8
1
  6
CONTINUOUS
 62
     2
 10
395.4000632
 20
1539.6923072
 11
389.244723047
 21
1558.721542277
  0
LINE
  8
1
  6
CONTINUOUS
 62
     2
 10
395.4000632
 20
1539.6923072
 11
380.55476472
 21
1553.094438114
  0
LINE
  8
1
  6
CONTINUOUS
 62
     2
 10
395.4000632
 20
1539.6923072
 11
316.4000632
 21
1661.6923072
  0
TEXT
  8
0
  6
CONTINUOUS
 62
     2
 10
180.775
 20
1669.664
 30
0.0
 40
24.0
  1
手動軸カバー
 50
0.0
 41
0.9
 51
0.0
  7
KANJI13
  0
LINE
  8
1
  6
CONTINUOUS
 62
     2
 10
316.4000632
 20
1661.6923072
 11
160.4000632
 21
1661.6923072
  0
LINE
  8
1
  6
CONTINUOUS
 62
     2
 10
350.8
 20
1338.8
 11
278.0
 21
1338.8
  0
LINE
  8
0
  6
CONTINUOUS
 62
     1
 10
424.0
 20
1153.0
 11
424.0
 21
1577.959
  0
LINE
  8
0
  6
CONTINUOUS
 62
     1
 10
441.0
 20
1153.0
 11
441.0
 21
1577.959
  0
LINE
  8
0
  6
CONTINUOUS
 62
     1
 10
579.0
 20
1153.0
 11
579.0
 21
1652.959
  0
TEXT
  8
1
  6
CONTINUOUS
 62
     3
 10
1875.2
 20
1002.7
 30
2.4
 40
28.0
  1
φ４５Ｈ１０深５０
 50
90.0
 41
0.914285714
 51
0.0
  7
KANJI49
  0
LINE
  8
1
  6
CONTINUOUS
 62
     2
 10
1884.0
 20
1336.459
 11
1884.0
 21
1302.5
  0
LINE
  8
1
  6
CONTINUOUS
 62
     2
 10
1884.0
 20
1257.5
 11
1884.0
 21
1001.659
  0
LINE
  8
1
  6
CONTINUOUS
 62
     2
 10
1998.5
 20
1356.459
 11
1981.428413356
 21
1366.878257625
  0
LINE
  8
1
  6
CONTINUOUS
 62
     2
 10
1998.5
 20
1356.459
 11
1978.505943471
 21
1356.94654847
  0
LINE
  8
1
  6
CONTINUOUS
 62
     2
 10
1998.5
 20
1356.459
 11
1871.4
 21
1393.859
  0
LINE
  8
1
  6
CONTINUOUS
 62
     2
 10
1871.4
 20
1393.859
 11
1753.8
 21
1393.859
  0
TEXT
  8
1
  6
CONTINUOUS
 62
     3
 10
1753.8
 20
1401.859
 30
2.4
 40
24.0
  1
ＰＦ１／２
 50
0.0
 41
0.9
 51
0.0
  7
KANJI12
  0
TEXT
  8
0
  6
CONTINUOUS
 62
     2
 10
1749.8
 20
608.5
 30
4.0
 40
24.0
  1
２００
 50
0.0
 41
0.9
 51
0.0
  7
KANJI54
  0
TEXT
  8
0
  6
CONTINUOUS
 62
     2
 10
1749.8
 20
554.5
 30
4.0
 40
24.0
  1
２１１
 50
0.0
 41
0.9
 51
0.0
  7
KANJI54
  0
TEXT
  8
0
  6
CONTINUOUS
 62
     2
 10
1749.8
 20
498.5
 30
4.0
 40
24.0
  1
２２２
 50
0.0
 41
0.9
 51
0.0
  7
KANJI54
  0
TEXT
  8
0
  6
CONTINUOUS
 62
     2
 10
1749.8
 20
442.5
 30
4.0
 40
24.0
  1
２４１
 50
0.0
 41
0.9
 51
0.0
  7
KANJI54
  0
POLYLINE
  8
0
  6
CONTINUOUS
 62
     1
 66
     1
  0
VERTEX
  8
0
  6
CONTINUOUS
 62
     1
 10
825.5
 20
1640.959
  0
VERTEX
  8
0
  6
CONTINUOUS
 62
     1
 10
825.5
 20
1680.959
  0
VERTEX
  8
0
  6
CONTINUOUS
 62
     1
 10
790.5
 20
1680.959
  0
SEQEND
  0
LINE
  8
1
  6
CONTINUOUS
 62
     2
 10
825.5
 20
1660.959
 11
827.975302305
 21
1680.805230839
  0
LINE
  8
0
  6
CONTINUOUS
 62
     1
 10
825.5
 20
1640.959
 11
790.5
 21
1640.959
  0
LINE
  8
1
  6
CONTINUOUS
 62
     2
 10
825.5
 20
1660.959
 11
837.566790098
 21
1676.908688923
  0
LINE
  8
0
  6
LTYPE1
 62
     2
 10
841.4000632
 20
1660.959
 11
780.552135955
 21
1660.959
  0
LINE
  8
1
  6
CONTINUOUS
 62
     2
 10
899.884375
 20
1844.059
 11
1021.1
 21
1844.059
  0
LINE
  8
1
  6
CONTINUOUS
 62
     2
 10
825.5
 20
1660.959
 11
899.884375
 21
1844.059
  0
LINE
  8
0
  6
CONTINUOUS
 62
     1
 10
2060.8
 20
1630.2
 11
2060.8
 21
1693.0
  0
ARC
  8
0
  6
CONTINUOUS
 62
     1
 10
2066.8
 20
1688.705692517
 40
6.0
 50
89.999708579
 51
180.0
  0
LINE
  8
0
  6
CONTINUOUS
 62
     1
 10
2066.800030518
 20
1694.705692517
 11
2154.8
 21
1694.705692517
  0
LINE
  8
0
  6
CONTINUOUS
 62
     1
 10
2154.8
 20
1699.0
 11
2066.800043158
 21
1699.0
  0
ARC
  8
0
  6
CONTINUOUS
 62
     1
 10
2066.8
 20
1693.0
 40
6.0
 50
89.999587868
 51
180.0
  0
LINE
  8
0
  6
CONTINUOUS
 62
     1
 10
2070.8
 20
1624.2
 11
2070.8
 21
1685.705692517
  0
LINE
  8
0
  6
CONTINUOUS
 62
     1
 10
2073.800030518
 20
1688.705692517
 11
2147.8
 21
1688.705692517
  0
ARC
  8
0
  6
CONTINUOUS
 62
     1
 10
2073.8
 20
1685.705692517
 40
3.0
 50
89.999417157
 51
180.0
  0
ARC
  8
0
  6
CONTINUOUS
 62
     1
 10
2154.8
 20
1688.705692517
 40
6.0
 50
0.0
 51
90.0
  0
ARC
  8
0
  6
CONTINUOUS
 62
     1
 10
2154.8
 20
1693.0
 40
6.0
 50
0.0
 51
90.0
  0
LINE
  8
0
  6
CONTINUOUS
 62
     1
 10
2160.8
 20
1629.7
 11
2160.8
 21
1693.0
  0
LINE
  8
0
  6
CONTINUOUS
 62
     1
 10
2150.8
 20
1624.2
 11
2150.8
 21
1685.705692517
  0
ARC
  8
0
  6
CONTINUOUS
 62
     1
 10
2147.8
 20
1685.705692517
 40
3.0
 50
0.0
 51
90.0
  0
ARC
  8
0
  6
CONTINUOUS
 62
     1
 10
2147.8
 20
1623.7
 40
3.0
 50
270.0
 51
0.0
  0
ARC
  8
0
  6
CONTINUOUS
 62
     1
 10
2154.8
 20
1629.7
 40
6.0
 50
270.0
 51
0.0
  0
LINE
  8
0
  6
CONTINUOUS
 62
     1
 10
2150.8
 20
1623.7
 11
2154.8
 21
1623.7
  0
LINE
  8
0
  6
CONTINUOUS
 62
     1
 10
2070.8
 20
1623.7
 11
2066.8
 21
1623.7
  0
ARC
  8
0
  6
CONTINUOUS
 62
     1
 10
2073.8
 20
1623.7
 40
3.0
 50
180.0
 51
270.000582843
  0
ARC
  8
0
  6
CONTINUOUS
 62
     1
 10
2066.8
 20
1629.7
 40
6.0
 50
180.0
 51
270.0
  0
LINE
  8
0
  6
CONTINUOUS
 62
     1
 10
2073.800030518
 20
1620.7
 11
2147.8
 21
1620.7
  0
CIRCLE
  8
0
  6
CONTINUOUS
 62
     1
 10
2110.8
 20
1653.0
 40
20.0
  0
CIRCLE
  8
0
  6
CONTINUOUS
 62
     2
 10
2110.8
 20
1653.0
 40
13.5
  0
CIRCLE
  8
0
  6
CONTINUOUS
 62
     2
 10
2110.8
 20
1653.0
 40
15.0
  0
LINE
  8
0
  6
LTYPE2
 62
     2
 10
2080.3
 20
1653.0
 11
2139.8
 21
1653.0
  0
LINE
  8
0
  6
CONTINUOUS
 62
     2
 10
2325.307300983
 20
1511.0
 11
2345.307300983
 21
1511.0
  0
LINE
  8
0
  6
CONTINUOUS
 62
     2
 10
2333.307300983
 20
1511.0
 11
2338.483681885
 21
1530.318516526
  0
LINE
  8
0
  6
CONTINUOUS
 62
     2
 10
2333.307300983
 20
1511.0
 11
2328.130920081
 21
1530.318516526
  0
LINE
  8
0
  6
CONTINUOUS
 62
     2
 10
2333.307300983
 20
1511.0
 11
2333.307300983
 21
1699.0
  0
LINE
  8
0
  6
CONTINUOUS
 62
     2
 10
2333.307300983
 20
1699.0
 11
2328.130920081
 21
1679.681483474
  0
LINE
  8
0
  6
CONTINUOUS
 62
     2
 10
2333.307300983
 20
1699.0
 11
2338.483681885
 21
1679.681483474
  0
LINE
  8
0
  6
CONTINUOUS
 62
     2
 10
2162.800030518
 20
1699.0
 11
2345.307300983
 21
1699.0
  0
TEXT
  8
0
  6
CONTINUOUS
 62
     3
 10
2329.307300983
 20
1569.0
 30
0.0
 40
25.6
  1
１８８
 50
90.0
 41
0.9375
 51
0.0
  7
KANJI63
  0
LINE
  8
0
  6
CONTINUOUS
 62
     2
 10
2322.800030518
 20
1145.0
 11
2403.800030518
 21
1145.0
  0
LINE
  8
0
  6
CONTINUOUS
 62
     2
 10
2391.800030518
 20
1145.0
 11
2396.97641142
 21
1164.318516526
  0
LINE
  8
0
  6
CONTINUOUS
 62
     2
 10
2391.800030518
 20
1145.0
 11
2386.623649616
 21
1164.318516526
  0
LINE
  8
0
  6
CONTINUOUS
 62
     2
 10
2391.800030518
 20
1145.0
 11
2391.800030518
 21
1699.0
  0
LINE
  8
0
  6
CONTINUOUS
 62
     2
 10
2391.800030518
 20
1699.0
 11
2386.623649616
 21
1679.681483474
  0
LINE
  8
0
  6
CONTINUOUS
 62
     2
 10
2391.800030518
 20
1699.0
 11
2396.97641142
 21
1679.681483474
  0
LINE
  8
0
  6
CONTINUOUS
 62
     2
 10
2326.800030518
 20
1699.0
 11
2403.800030518
 21
1699.0
  0
TEXT
  8
0
  6
CONTINUOUS
 62
     3
 10
2387.800030518
 20
1386.0
 30
0.0
 40
25.6
  1
５５４
 50
90.0
 41
0.9375
 51
0.0
  7
KANJI63
  0
CIRCLE
  8
0
  6
CONTINUOUS
 62
     1
 10
2110.8
 20
1280.0
 40
100.0
  0
LINE
  8
0
  6
CONTINUOUS
 62
     1
 10
2070.410225663
 20
1363.216080952
 11
2069.458322994
 21
1363.882610376
  0
LINE
  8
0
  6
CONTINUOUS
 62
     1
 10
2011.836443723
 20
1294.360171619
 11
1998.978095714
 21
1303.363683824
  0
LINE
  8
0
  6
CONTINUOUS
 62
     1
 10
1970.8
 20
1235.0
 11
2023.998781971
 21
1230.345709664
  0
LINE
  8
0
  6
CONTINUOUS
 62
     1
 10
2250.8
 20
1235.0
 11
2197.601218029
 21
1230.345709664
  0
LINE
  8
0
  6
CONTINUOUS
 62
     1
 10
2250.8
 20
1325.0
 11
2197.601218029
 21
1329.654290336
  0
LINE
  8
0
  6
CONTINUOUS
 62
     1
 10
2063.458322994
 20
1368.083855605
 11
2050.599974985
 21
1377.08736781
  0
LINE
  8
0
  6
CONTINUOUS
 62
     1
 10
2050.599974985
 20
1377.08736781
 11
1998.404519278
 21
1302.54453178
  0
TEXT
  8
0
  6
CONTINUOUS
 62
     3
 10
2359.0
 20
326.0
 30
0.0
 40
24.0
  1
７／２
 50
0.0
 41
0.5
 51
0.0
  7
KANJI64
  0
TEXT
  8
0
  6
CONTINUOUS
 62
     2
 10
2247.0
 20
327.9333248
 30
24.0
 40
24.0
  1
田口
 50
0.0
 41
0.9
 51
0.0
  7
KANJI65
  0
POLYLINE
  8
0
  6
CONTINUOUS
 62
     4
 66
     1
  0
VERTEX
  8
0
  6
CONTINUOUS
 62
     4
 10
1639.0667892
 20
186.999996
  0
VERTEX
  8
0
  6
CONTINUOUS
 62
     4
 10
1616.5334576
 20
152.333332
  0
VERTEX
  8
0
  6
CONTINUOUS
 62
     4
 10
1661.6001208
 20
152.333332
  0
SEQEND
  0
LINE
  8
0
  6
CONTINUOUS
 62
     4
 10
1639.0667892
 20
186.999996
 11
1661.6001208
 21
152.333332
  0
TEXT
  8
0
  6
CONTINUOUS
 62
     3
 10
1632.0
 20
154.6
 30
0.0
 40
24.0
  1
１
 50
0.0
 41
0.5
 51
0.0
  7
KANJI64
  0
TEXT
  8
0
  6
CONTINUOUS
 62
     3
 10
1672.0
 20
150.6
 30
0.0
 40
24.0
  1
２００２．１０．１６　岡田　寸法変更
 50
0.0
 41
0.5
 51
0.0
  7
KANJI64
  0
TEXT
  8
0
  6
CONTINUOUS
 62
     3
 10
3076.0
 20
197.6
 30
0.0
 40
24.0
  1
１
 50
0.0
 41
0.5
 51
0.0
  7
KANJI64
  0
LINE
  8
0
  6
CONTINUOUS
 62
     3
 10
2315.8
 20
1538.0
 11
2291.8
 21
1551.856406461
  0
LINE
  8
0
  6
CONTINUOUS
 62
     3
 10
2291.8
 20
1551.856406461
 11
2315.8
 21
1565.712812921
  0
LINE
  8
0
  6
CONTINUOUS
 62
     3
 10
2315.8
 20
1565.712812921
 11
2315.8
 21
1538.0
  0
TEXT
  8
0
  6
CONTINUOUS
 62
     3
 10
2313.456854249
 20
1546.199552211
 30
0.0
 40
11.313708499
  1
１
 50
90.0
 41
1.0
 51
0.0
  7
KANJI66
  0
LINE
  8
0
  6
CONTINUOUS
 62
     3
 10
2371.8
 20
1347.9
 11
2347.8
 21
1361.756406461
  0
LINE
  8
0
  6
CONTINUOUS
 62
     3
 10
2347.8
 20
1361.756406461
 11
2371.8
 21
1375.612812921
  0
LINE
  8
0
  6
CONTINUOUS
 62
     3
 10
2371.8
 20
1375.612812921
 11
2371.8
 21
1347.9
  0
TEXT
  8
0
  6
CONTINUOUS
 62
     3
 10
2369.456854249
 20
1356.099552211
 30
0.0
 40
11.313708499
  1
１
 50
90.0
 41
1.0
 51
0.0
  7
KANJI66
  0
ENDSEC
  0
EOF
