  0
SECTION
  2
HEADER
  9
$EXTMIN
 10
0.0
 20
0.0
 30
0.0
  9
$EXTMAX
 10
3360.0
 20
2376.0
 30
0.0
  9
$LIMMIN
 10
0.0
 20
0.0
  9
$LIMMAX
 10
3360.0
 20
2376.0
  9
$LTSCALE
 40
1.0
  9
$PDMODE
 70
     0
  0
ENDSEC
  0
SECTION
  2
TABLES
  0
TABLE
  2
LTYPE
 70
     6
  0
LTYPE
  2
CONTINUOUS
 70
    64
  3
Solid line
 72
    65
 73
     0
 40
0.0
  0
LTYPE
  2
LTYPE1
 70
    64
  3
CENTER
 72
    65
 73
     4
 40
120.0
 49
84.0
 49
-12.0
 49
12.0
 49
-12.0
  0
LTYPE
  2
LTYPE2
 70
    64
  3
CENTER
 72
    65
 73
     4
 40
80.0
 49
56.0
 49
-8.0
 49
8.0
 49
-8.0
  0
LTYPE
  2
LTYPE3
 70
    64
  3
HIDDEN
 72
    65
 73
     2
 40
24.0
 49
14.4
 49
-9.6
  0
LTYPE
  2
LTYPE4
 70
    64
  3
CENTER
 72
    65
 73
     4
 40
160.0
 49
112.0
 49
-16.0
 49
16.0
 49
-16.0
  0
LTYPE
  2
LTYPE5
 70
    64
  3
PHANTOM
 72
    65
 73
     6
 40
120.0
 49
90.0
 49
-6.0
 49
6.0
 49
-6.0
 49
6.0
 49
-6.0
  0
ENDTAB
  0
TABLE
  2
LAYER
 70
   128
  0
LAYER
  2
0
 70
     0
 62
     7
  6
CONTINUOUS
  0
LAYER
  2
2
 70
     0
 62
     7
  6
CONTINUOUS
  0
LAYER
  2
3
 70
     0
 62
     7
  6
CONTINUOUS
  0
LAYER
  2
4
 70
     0
 62
     7
  6
CONTINUOUS
  0
LAYER
  2
5
 70
     0
 62
     7
  6
CONTINUOUS
  0
LAYER
  2
6
 70
     0
 62
     7
  6
CONTINUOUS
  0
LAYER
  2
7
 70
     0
 62
     7
  6
CONTINUOUS
  0
LAYER
  2
8
 70
     0
 62
     7
  6
CONTINUOUS
  0
LAYER
  2
9
 70
     0
 62
     7
  6
CONTINUOUS
  0
LAYER
  2
10
 70
     0
 62
     7
  6
CONTINUOUS
  0
LAYER
  2
11
 70
     0
 62
     7
  6
CONTINUOUS
  0
LAYER
  2
12
 70
     0
 62
     7
  6
CONTINUOUS
  0
LAYER
  2
13
 70
     0
 62
     7
  6
CONTINUOUS
  0
LAYER
  2
14
 70
     0
 62
     7
  6
CONTINUOUS
  0
LAYER
  2
15
 70
     0
 62
     7
  6
CONTINUOUS
  0
LAYER
  2
16
 70
     0
 62
     7
  6
CONTINUOUS
  0
LAYER
  2
17
 70
     0
 62
     7
  6
CONTINUOUS
  0
LAYER
  2
18
 70
     0
 62
     7
  6
CONTINUOUS
  0
LAYER
  2
19
 70
     0
 62
     7
  6
CONTINUOUS
  0
LAYER
  2
20
 70
     0
 62
     7
  6
CONTINUOUS
  0
LAYER
  2
21
 70
     0
 62
     7
  6
CONTINUOUS
  0
LAYER
  2
22
 70
     0
 62
     7
  6
CONTINUOUS
  0
LAYER
  2
23
 70
     0
 62
     7
  6
CONTINUOUS
  0
LAYER
  2
24
 70
     0
 62
     7
  6
CONTINUOUS
  0
LAYER
  2
25
 70
     0
 62
     7
  6
CONTINUOUS
  0
LAYER
  2
26
 70
     0
 62
     7
  6
CONTINUOUS
  0
LAYER
  2
27
 70
     0
 62
     7
  6
CONTINUOUS
  0
LAYER
  2
28
 70
     0
 62
     7
  6
CONTINUOUS
  0
LAYER
  2
29
 70
     0
 62
     7
  6
CONTINUOUS
  0
LAYER
  2
30
 70
     0
 62
     7
  6
CONTINUOUS
  0
LAYER
  2
31
 70
     0
 62
     7
  6
CONTINUOUS
  0
LAYER
  2
32
 70
     0
 62
     7
  6
CONTINUOUS
  0
LAYER
  2
33
 70
     0
 62
     7
  6
CONTINUOUS
  0
LAYER
  2
34
 70
     0
 62
     7
  6
CONTINUOUS
  0
LAYER
  2
35
 70
     0
 62
     7
  6
CONTINUOUS
  0
LAYER
  2
36
 70
     0
 62
     7
  6
CONTINUOUS
  0
LAYER
  2
37
 70
     0
 62
     7
  6
CONTINUOUS
  0
LAYER
  2
38
 70
     0
 62
     7
  6
CONTINUOUS
  0
LAYER
  2
39
 70
     0
 62
     7
  6
CONTINUOUS
  0
LAYER
  2
40
 70
     0
 62
     7
  6
CONTINUOUS
  0
LAYER
  2
41
 70
     0
 62
     7
  6
CONTINUOUS
  0
LAYER
  2
42
 70
     0
 62
     7
  6
CONTINUOUS
  0
LAYER
  2
43
 70
     0
 62
     7
  6
CONTINUOUS
  0
LAYER
  2
44
 70
     0
 62
     7
  6
CONTINUOUS
  0
LAYER
  2
45
 70
     0
 62
     7
  6
CONTINUOUS
  0
LAYER
  2
46
 70
     0
 62
     7
  6
CONTINUOUS
  0
LAYER
  2
47
 70
     0
 62
     7
  6
CONTINUOUS
  0
LAYER
  2
48
 70
     0
 62
     7
  6
CONTINUOUS
  0
LAYER
  2
49
 70
     0
 62
     7
  6
CONTINUOUS
  0
LAYER
  2
50
 70
     0
 62
     7
  6
CONTINUOUS
  0
LAYER
  2
51
 70
     0
 62
     7
  6
CONTINUOUS
  0
LAYER
  2
52
 70
     0
 62
     7
  6
CONTINUOUS
  0
LAYER
  2
53
 70
     0
 62
     7
  6
CONTINUOUS
  0
LAYER
  2
54
 70
     0
 62
     7
  6
CONTINUOUS
  0
LAYER
  2
55
 70
     0
 62
     7
  6
CONTINUOUS
  0
LAYER
  2
56
 70
     0
 62
     7
  6
CONTINUOUS
  0
LAYER
  2
57
 70
     0
 62
     7
  6
CONTINUOUS
  0
LAYER
  2
58
 70
     0
 62
     7
  6
CONTINUOUS
  0
LAYER
  2
59
 70
     0
 62
     7
  6
CONTINUOUS
  0
LAYER
  2
60
 70
     0
 62
     7
  6
CONTINUOUS
  0
LAYER
  2
61
 70
     0
 62
     7
  6
CONTINUOUS
  0
LAYER
  2
62
 70
     0
 62
     7
  6
CONTINUOUS
  0
LAYER
  2
63
 70
     0
 62
     7
  6
CONTINUOUS
  0
LAYER
  2
64
 70
     0
 62
     7
  6
CONTINUOUS
  0
LAYER
  2
65
 70
     0
 62
     7
  6
CONTINUOUS
  0
LAYER
  2
66
 70
     0
 62
     7
  6
CONTINUOUS
  0
LAYER
  2
67
 70
     0
 62
     7
  6
CONTINUOUS
  0
LAYER
  2
68
 70
     0
 62
     7
  6
CONTINUOUS
  0
LAYER
  2
69
 70
     0
 62
     7
  6
CONTINUOUS
  0
LAYER
  2
70
 70
     0
 62
     7
  6
CONTINUOUS
  0
LAYER
  2
71
 70
     0
 62
     7
  6
CONTINUOUS
  0
LAYER
  2
72
 70
     0
 62
     7
  6
CONTINUOUS
  0
LAYER
  2
73
 70
     0
 62
     7
  6
CONTINUOUS
  0
LAYER
  2
74
 70
     0
 62
     7
  6
CONTINUOUS
  0
LAYER
  2
75
 70
     0
 62
     7
  6
CONTINUOUS
  0
LAYER
  2
76
 70
     0
 62
     7
  6
CONTINUOUS
  0
LAYER
  2
77
 70
     0
 62
     7
  6
CONTINUOUS
  0
LAYER
  2
78
 70
     0
 62
     7
  6
CONTINUOUS
  0
LAYER
  2
79
 70
     0
 62
     7
  6
CONTINUOUS
  0
LAYER
  2
80
 70
     0
 62
     7
  6
CONTINUOUS
  0
LAYER
  2
81
 70
     0
 62
     7
  6
CONTINUOUS
  0
LAYER
  2
82
 70
     0
 62
     7
  6
CONTINUOUS
  0
LAYER
  2
83
 70
     0
 62
     7
  6
CONTINUOUS
  0
LAYER
  2
84
 70
     0
 62
     7
  6
CONTINUOUS
  0
LAYER
  2
85
 70
     0
 62
     7
  6
CONTINUOUS
  0
LAYER
  2
86
 70
     0
 62
     7
  6
CONTINUOUS
  0
LAYER
  2
87
 70
     0
 62
     7
  6
CONTINUOUS
  0
LAYER
  2
88
 70
     0
 62
     7
  6
CONTINUOUS
  0
LAYER
  2
89
 70
     0
 62
     7
  6
CONTINUOUS
  0
LAYER
  2
90
 70
     0
 62
     7
  6
CONTINUOUS
  0
LAYER
  2
91
 70
     0
 62
     7
  6
CONTINUOUS
  0
LAYER
  2
92
 70
     0
 62
     7
  6
CONTINUOUS
  0
LAYER
  2
93
 70
     0
 62
     7
  6
CONTINUOUS
  0
LAYER
  2
94
 70
     0
 62
     7
  6
CONTINUOUS
  0
LAYER
  2
95
 70
     0
 62
     7
  6
CONTINUOUS
  0
LAYER
  2
96
 70
     0
 62
     7
  6
CONTINUOUS
  0
LAYER
  2
97
 70
     0
 62
     7
  6
CONTINUOUS
  0
LAYER
  2
98
 70
     0
 62
     7
  6
CONTINUOUS
  0
LAYER
  2
99
 70
     0
 62
     7
  6
CONTINUOUS
  0
LAYER
  2
100
 70
     0
 62
     7
  6
CONTINUOUS
  0
LAYER
  2
101
 70
     0
 62
     7
  6
CONTINUOUS
  0
LAYER
  2
102
 70
     0
 62
     7
  6
CONTINUOUS
  0
LAYER
  2
103
 70
     0
 62
     7
  6
CONTINUOUS
  0
LAYER
  2
104
 70
     0
 62
     7
  6
CONTINUOUS
  0
LAYER
  2
105
 70
     0
 62
     7
  6
CONTINUOUS
  0
LAYER
  2
106
 70
     0
 62
     7
  6
CONTINUOUS
  0
LAYER
  2
107
 70
     0
 62
     7
  6
CONTINUOUS
  0
LAYER
  2
108
 70
     0
 62
     7
  6
CONTINUOUS
  0
LAYER
  2
109
 70
     0
 62
     7
  6
CONTINUOUS
  0
LAYER
  2
110
 70
     0
 62
     7
  6
CONTINUOUS
  0
LAYER
  2
111
 70
     0
 62
     7
  6
CONTINUOUS
  0
LAYER
  2
112
 70
     0
 62
     7
  6
CONTINUOUS
  0
LAYER
  2
113
 70
     0
 62
     7
  6
CONTINUOUS
  0
LAYER
  2
114
 70
     0
 62
     7
  6
CONTINUOUS
  0
LAYER
  2
115
 70
     0
 62
     7
  6
CONTINUOUS
  0
LAYER
  2
116
 70
     0
 62
     7
  6
CONTINUOUS
  0
LAYER
  2
117
 70
     0
 62
     7
  6
CONTINUOUS
  0
LAYER
  2
118
 70
     0
 62
     7
  6
CONTINUOUS
  0
LAYER
  2
119
 70
     0
 62
     7
  6
CONTINUOUS
  0
LAYER
  2
120
 70
     0
 62
     7
  6
CONTINUOUS
  0
LAYER
  2
121
 70
     0
 62
     7
  6
CONTINUOUS
  0
LAYER
  2
122
 70
     0
 62
     7
  6
CONTINUOUS
  0
LAYER
  2
123
 70
     0
 62
     7
  6
CONTINUOUS
  0
LAYER
  2
124
 70
     0
 62
     7
  6
CONTINUOUS
  0
LAYER
  2
125
 70
     0
 62
     7
  6
CONTINUOUS
  0
LAYER
  2
126
 70
     0
 62
     7
  6
CONTINUOUS
  0
LAYER
  2
127
 70
     0
 62
     7
  6
CONTINUOUS
  0
LAYER
  2
128
 70
     0
 62
     7
  6
CONTINUOUS
  0
ENDTAB
  0
TABLE
  2
STYLE
 70
    68
  0
STYLE
  2
STANDARD
 70
     0
 40
0.0
 41
1.0
 50
0.0
 71
     0
 42
0.2
  3
txt
  4

  0
STYLE
  2
KANJI0
 70
     0
 40
24.0
 41
0.9
 50
0.0
 71
     0
 42
24.0
  3

  4
bigfont
  0
STYLE
  2
KANJI1
 70
     0
 40
24.0
 41
0.9
 50
0.0
 71
     0
 42
24.0
  3

  4
bigfont
  0
STYLE
  2
KANJI2
 70
     0
 40
36.0
 41
0.9
 50
0.0
 71
     0
 42
36.0
  3

  4
bigfont
  0
STYLE
  2
KANJI3
 70
     4
 40
28.0
 41
0.9
 50
0.0
 71
     0
 42
28.0
  3

  4
bigfont
  0
STYLE
  2
KANJI4
 70
     4
 40
24.0
 41
0.9
 50
0.0
 71
     0
 42
24.0
  3

  4
bigfont
  0
STYLE
  2
KANJI5
 70
     0
 40
28.0
 41
0.9
 50
0.0
 71
     0
 42
28.0
  3

  4
bigfont
  0
STYLE
  2
KANJI6
 70
     0
 40
24.0
 41
0.9
 50
0.0
 71
     0
 42
24.0
  3

  4
bigfont
  0
STYLE
  2
KANJI7
 70
     0
 40
24.0
 41
0.857142857
 50
0.0
 71
     0
 42
24.0
  3

  4
bigfont
  0
STYLE
  2
KANJI8
 70
     0
 40
28.0
 41
0.9
 50
0.0
 71
     0
 42
28.0
  3

  4
bigfont
  0
STYLE
  2
KANJI9
 70
     0
 40
22.4
 41
0.9
 50
0.0
 71
     0
 42
22.4
  3

  4
bigfont
  0
STYLE
  2
KANJI10
 70
     0
 40
22.4
 41
0.785714286
 50
0.0
 71
     0
 42
22.4
  3

  4
bigfont
  0
STYLE
  2
KANJI11
 70
     0
 40
22.4
 41
0.8
 50
0.0
 71
     0
 42
22.4
  3

  4
bigfont
  0
STYLE
  2
KANJI12
 70
     0
 40
24.0
 41
0.8
 50
0.0
 71
     0
 42
24.0
  3

  4
bigfont
  0
STYLE
  2
KANJI13
 70
     0
 40
24.0
 41
0.9
 50
0.0
 71
     0
 42
24.0
  3

  4
bigfont
  0
STYLE
  2
KANJI14
 70
     0
 40
19.2
 41
0.777777778
 50
0.0
 71
     0
 42
19.2
  3

  4
bigfont
  0
STYLE
  2
KANJI15
 70
     0
 40
25.6
 41
0.9
 50
0.0
 71
     0
 42
25.6
  3

  4
bigfont
  0
STYLE
  2
KANJI16
 70
     0
 40
30.4
 41
0.9
 50
0.0
 71
     0
 42
30.4
  3

  4
bigfont
  0
STYLE
  2
KANJI17
 70
     0
 40
30.4
 41
0.9
 50
0.0
 71
     0
 42
30.4
  3

  4
bigfont
  0
STYLE
  2
KANJI18
 70
     0
 40
30.4
 41
0.9
 50
0.0
 71
     0
 42
30.4
  3

  4
bigfont
  0
STYLE
  2
KANJI19
 70
     0
 40
30.4
 41
0.9
 50
0.0
 71
     0
 42
30.4
  3

  4
bigfont
  0
STYLE
  2
KANJI20
 70
     0
 40
30.4
 41
0.9
 50
0.0
 71
     0
 42
30.4
  3

  4
bigfont
  0
STYLE
  2
KANJI21
 70
     0
 40
30.4
 41
0.9
 50
0.0
 71
     0
 42
30.4
  3

  4
bigfont
  0
STYLE
  2
KANJI22
 70
     0
 40
30.4
 41
0.9
 50
0.0
 71
     0
 42
30.4
  3

  4
bigfont
  0
STYLE
  2
KANJI23
 70
     0
 40
30.4
 41
0.9
 50
0.0
 71
     0
 42
30.4
  3

  4
bigfont
  0
STYLE
  2
KANJI24
 70
     0
 40
30.4
 41
0.9
 50
0.0
 71
     0
 42
30.4
  3

  4
bigfont
  0
STYLE
  2
KANJI25
 70
     0
 40
30.4
 41
0.9
 50
0.0
 71
     0
 42
30.4
  3

  4
bigfont
  0
STYLE
  2
KANJI26
 70
     0
 40
22.4
 41
0.8
 50
0.0
 71
     0
 42
22.4
  3

  4
bigfont
  0
STYLE
  2
KANJI27
 70
     0
 40
28.0
 41
0.9
 50
0.0
 71
     0
 42
28.0
  3

  4
bigfont
  0
STYLE
  2
KANJI28
 70
     0
 40
24.0
 41
0.9
 50
0.0
 71
     0
 42
24.0
  3

  4
bigfont
  0
STYLE
  2
KANJI29
 70
     0
 40
15.999996636
 41
0.6
 50
0.0
 71
     0
 42
15.999996636
  3

  4
bigfont
  0
STYLE
  2
KANJI30
 70
     0
 40
19.199995963
 41
0.9
 50
0.0
 71
     0
 42
19.199995963
  3

  4
bigfont
  0
STYLE
  2
KANJI31
 70
     0
 40
20.7999984
 41
0.9
 50
0.0
 71
     0
 42
20.7999984
  3

  4
bigfont
  0
STYLE
  2
KANJI32
 70
     0
 40
13.8666656
 41
0.75
 50
0.0
 71
     0
 42
13.8666656
  3

  4
bigfont
  0
STYLE
  2
KANJI33
 70
     0
 40
20.7999984
 41
0.75
 50
0.0
 71
     0
 42
20.7999984
  3

  4
bigfont
  0
STYLE
  2
KANJI34
 70
     0
 40
12.47999904
 41
0.75
 50
0.0
 71
     0
 42
12.47999904
  3

  4
bigfont
  0
STYLE
  2
KANJI35
 70
     0
 40
13.8666656
 41
0.6
 50
0.0
 71
     0
 42
13.8666656
  3

  4
bigfont
  0
STYLE
  2
KANJI36
 70
     0
 40
16.63999872
 41
0.6
 50
0.0
 71
     0
 42
16.63999872
  3

  4
bigfont
  0
STYLE
  2
KANJI37
 70
     0
 40
13.8666656
 41
0.8
 50
0.0
 71
     0
 42
13.8666656
  3

  4
bigfont
  0
STYLE
  2
KANJI38
 70
     0
 40
16.63999872
 41
0.8
 50
0.0
 71
     0
 42
16.63999872
  3

  4
bigfont
  0
STYLE
  2
KANJI39
 70
     0
 40
69.333328
 41
0.9
 50
0.0
 71
     0
 42
69.333328
  3

  4
bigfont
  0
STYLE
  2
KANJI40
 70
     0
 40
23.999994954
 41
0.9
 50
0.0
 71
     0
 42
23.999994954
  3

  4
bigfont
  0
STYLE
  2
KANJI41
 70
     0
 40
24.2666648
 41
0.42031746
 50
0.0
 71
     0
 42
24.2666648
  3

  4
bigfont
  0
STYLE
  2
KANJI42
 70
     0
 40
41.5999968
 41
0.9
 50
0.0
 71
     0
 42
41.5999968
  3

  4
bigfont
  0
STYLE
  2
KANJI43
 70
     0
 40
36.0
 41
0.666666667
 50
0.0
 71
     0
 42
36.0
  3

  4
bigfont
  0
STYLE
  2
KANJI44
 70
     0
 40
40.0
 41
1.0
 50
0.0
 71
     0
 42
40.0
  3

  4
bigfont
  0
STYLE
  2
KANJI45
 70
     0
 40
40.0
 41
1.0
 50
0.0
 71
     0
 42
40.0
  3

  4
bigfont
  0
STYLE
  2
KANJI46
 70
     0
 40
27.9993
 41
0.9
 50
0.0
 71
     0
 42
27.9993
  3

  4
bigfont
  0
STYLE
  2
KANJI47
 70
     0
 40
23.9994
 41
0.9
 50
0.0
 71
     0
 42
23.9994
  3

  4
bigfont
  0
STYLE
  2
KANJI48
 70
     0
 40
28.0
 41
0.914285714
 50
0.0
 71
     0
 42
28.0
  3

  4
bigfont
  0
STYLE
  2
KANJI49
 70
     0
 40
24.0
 41
0.833333333
 50
0.0
 71
     0
 42
24.0
  3

  4
bigfont
  0
STYLE
  2
KANJI50
 70
     0
 40
28.0
 41
0.793650794
 50
0.0
 71
     0
 42
28.0
  3

  4
bigfont
  0
STYLE
  2
KANJI51
 70
     0
 40
40.0
 41
0.8
 50
0.0
 71
     0
 42
40.0
  3

  4
bigfont
  0
STYLE
  2
KANJI52
 70
     0
 40
28.0
 41
0.9
 50
0.0
 71
     0
 42
28.0
  3

  4
bigfont
  0
STYLE
  2
KANJI53
 70
     0
 40
28.8
 41
0.833333333
 50
0.0
 71
     0
 42
28.8
  3

  4
bigfont
  0
STYLE
  2
KANJI54
 70
     0
 40
32.0
 41
0.9
 50
0.0
 71
     0
 42
32.0
  3

  4
bigfont
  0
STYLE
  2
KANJI55
 70
     0
 40
28.8
 41
0.857142857
 50
0.0
 71
     0
 42
28.8
  3

  4
bigfont
  0
STYLE
  2
KANJI56
 70
     0
 40
28.8
 41
0.857222222
 50
0.0
 71
     0
 42
28.8
  3

  4
bigfont
  0
STYLE
  2
KANJI57
 70
     0
 40
32.0
 41
0.75
 50
0.0
 71
     0
 42
32.0
  3

  4
bigfont
  0
STYLE
  2
KANJI58
 70
     0
 40
28.0
 41
0.771428571
 50
0.0
 71
     0
 42
28.0
  3

  4
bigfont
  0
STYLE
  2
KANJI59
 70
     0
 40
20.7999984
 41
0.75
 50
0.0
 71
     0
 42
20.7999984
  3

  4
bigfont
  0
STYLE
  2
KANJI60
 70
     0
 40
24.0
 41
0.9
 50
0.0
 71
     0
 42
24.0
  3

  4
bigfont
  0
STYLE
  2
KANJI61
 70
     0
 40
24.0
 41
0.9
 50
0.0
 71
     0
 42
24.0
  3

  4
bigfont
  0
STYLE
  2
KANJI62
 70
     0
 40
28.0
 41
0.571428571
 50
0.0
 71
     0
 42
28.0
  3

  4
bigfont
  0
STYLE
  2
KANJI63
 70
     0
 40
25.6
 41
0.9375
 50
0.0
 71
     0
 42
25.6
  3

  4
bigfont
  0
STYLE
  2
KANJI64
 70
     0
 40
24.0
 41
0.5
 50
0.0
 71
     0
 42
24.0
  3

  4
bigfont
  0
STYLE
  2
KANJI65
 70
     0
 40
24.0
 41
0.9
 50
0.0
 71
     0
 42
24.0
  3

  4
bigfont
  0
STYLE
  2
KANJI66
 70
     0
 40
11.313708499
 41
1.0
 50
0.0
 71
     0
 42
11.313708499
  3

  4
bigfont
  0
ENDTAB
  0
TABLE
  2
VIEW
 70
     0
  0
ENDTAB
  0
ENDSEC
  0
SECTION
  2
BLOCKS
  0
ENDSEC
  0
SECTION
  2
ENTITIES
  0
LINE
  8
0
  6
CONTINUOUS
 62
     4
 10
3272.0
 20
-112.0
 11
2480.0
 21
-112.0
  0
LINE
  8
0
  6
CONTINUOUS
 62
     4
 10
3272.0
 20
-192.0
 11
2480.0
 21
-192.0
  0
LINE
  8
0
  6
CONTINUOUS
 62
     1
 10
627.0
 20
709.0
 11
1867.0
 21
709.0
  0
LINE
  8
0
  6
CONTINUOUS
 62
     1
 10
627.0
 20
653.0
 11
1867.0
 21
653.0
  0
LINE
  8
0
  6
CONTINUOUS
 62
     1
 10
1867.0
 20
709.0
 11
1867.0
 21
317.0
  0
LINE
  8
0
  6
CONTINUOUS
 62
     1
 10
627.0
 20
317.0
 11
1867.0
 21
317.0
  0
LINE
  8
0
  6
CONTINUOUS
 62
     1
 10
627.0
 20
709.0
 11
627.0
 21
317.0
  0
LINE
  8
0
  6
CONTINUOUS
 62
     1
 10
907.0
 20
709.0
 11
907.0
 21
317.0
  0
LINE
  8
0
  6
CONTINUOUS
 62
     2
 10
1067.0
 20
709.0
 11
1067.0
 21
317.0
  0
LINE
  8
0
  6
CONTINUOUS
 62
     2
 10
1227.0
 20
709.0
 11
1227.0
 21
317.0
  0
LINE
  8
0
  6
CONTINUOUS
 62
     2
 10
1387.0
 20
709.0
 11
1387.0
 21
317.0
  0
LINE
  8
0
  6
CONTINUOUS
 62
     2
 10
1547.0
 20
709.0
 11
1547.0
 21
317.0
  0
LINE
  8
0
  6
CONTINUOUS
 62
     2
 10
1707.0
 20
709.0
 11
1707.0
 21
317.0
  0
LINE
  8
0
  6
CONTINUOUS
 62
     2
 10
627.0
 20
373.0
 11
1867.0
 21
373.0
  0
LINE
  8
0
  6
CONTINUOUS
 62
     2
 10
627.0
 20
597.0
 11
1867.0
 21
597.0
  0
LINE
  8
0
  6
CONTINUOUS
 62
     2
 10
627.0
 20
541.0
 11
1867.0
 21
541.0
  0
LINE
  8
0
  6
CONTINUOUS
 62
     2
 10
627.0
 20
485.0
 11
1867.0
 21
485.0
  0
LINE
  8
0
  6
CONTINUOUS
 62
     2
 10
627.0
 20
429.0
 11
1867.0
 21
429.0
  0
CIRCLE
  8
0
  6
CONTINUOUS
 62
     1
 10
652.0
 20
1289.0
 40
22.5
  0
CIRCLE
  8
0
  6
CONTINUOUS
 62
     1
 10
652.0
 20
1289.0
 40
45.0
  0
CIRCLE
  8
0
  6
CONTINUOUS
 62
     1
 10
652.0
 20
1289.0
 40
55.0
  0
LINE
  8
0
  6
CONTINUOUS
 62
     1
 10
617.0
 20
1389.0
 11
640.0
 21
1370.5
  0
LINE
  8
0
  6
CONTINUOUS
 62
     1
 10
617.0
 20
1335.5
 11
617.0
 21
1389.0
  0
LINE
  8
0
  6
CONTINUOUS
 62
     1
 10
640.0
 20
1345.5
 11
640.0
 21
1370.5
  0
LINE
  8
0
  6
CONTINUOUS
 62
     1
 10
582.0
 20
1189.0
 11
617.0
 21
1189.0
  0
LINE
  8
0
  6
CONTINUOUS
 62
     1
 10
617.0
 20
1189.0
 11
640.0
 21
1207.5
  0
LINE
  8
0
  6
CONTINUOUS
 62
     1
 10
617.0
 20
1242.5
 11
617.0
 21
1189.0
  0
LINE
  8
0
  6
CONTINUOUS
 62
     1
 10
640.0
 20
1232.5
 11
640.0
 21
1207.5
  0
LINE
  8
0
  6
CONTINUOUS
 62
     1
 10
640.0
 20
1207.5
 11
812.0
 21
1207.5
  0
LINE
  8
0
  6
CONTINUOUS
 62
     1
 10
812.0
 20
1289.0
 11
812.0
 21
1207.5
  0
LINE
  8
0
  6
LTYPE1
 62
     2
 10
652.0
 20
1219.398877817
 11
652.0
 21
1356.366558854
  0
LINE
  8
0
  6
CONTINUOUS
 62
     1
 10
1420.0
 20
1289.0
 11
1420.0
 21
1219.0
  0
CIRCLE
  8
0
  6
CONTINUOUS
 62
     1
 10
1120.3
 20
1289.0
 40
19.5
  0
LINE
  8
0
  6
CONTINUOUS
 62
     1
 10
1100.3
 20
1309.0
 11
1140.3
 21
1309.0
  0
LINE
  8
0
  6
CONTINUOUS
 62
     1
 10
1140.3
 20
1269.0
 11
1140.3
 21
1309.0
  0
LINE
  8
0
  6
CONTINUOUS
 62
     1
 10
1100.3
 20
1269.0
 11
1140.3
 21
1269.0
  0
LINE
  8
0
  6
CONTINUOUS
 62
     1
 10
1100.3
 20
1269.0
 11
1100.3
 21
1309.0
  0
LINE
  8
0
  6
LTYPE2
 62
     2
 10
1120.3
 20
1263.9
 11
1120.3
 21
1313.8
  0
LINE
  8
0
  6
CONTINUOUS
 62
     1
 10
1385.0
 20
1289.0
 11
1385.0
 21
1219.0
  0
LINE
  8
0
  6
LTYPE1
 62
     2
 10
460.0
 20
1184.0
 11
403.0
 21
1184.0
  0
LINE
  8
0
  6
CONTINUOUS
 62
     1
 10
427.0
 20
1184.0
 11
427.0
 21
1173.05046
  0
LINE
  8
0
  6
CONTINUOUS
 62
     1
 10
427.0
 20
1184.0
 11
427.0
 21
1194.94954
  0
LINE
  8
0
  6
CONTINUOUS
 62
     1
 10
418.9789
 20
1175.73198
 11
420.527076294
 21
1173.05046
  0
LINE
  8
0
  6
CONTINUOUS
 62
     1
 10
418.9789
 20
1184.0
 11
418.9789
 21
1175.73198
  0
LINE
  8
0
  6
CONTINUOUS
 62
     1
 10
418.9789
 20
1192.26802
 11
420.527076294
 21
1194.94954
  0
LINE
  8
0
  6
CONTINUOUS
 62
     1
 10
418.9789
 20
1184.0
 11
418.9789
 21
1192.26802
  0
ARC
  8
0
  6
CONTINUOUS
 62
     1
 10
429.433121693
 20
1184.0
 40
10.454221693
 50
148.419912243
 51
211.580087757
  0
ARC
  8
0
  6
CONTINUOUS
 62
     1
 10
422.172013606
 20
1175.787845
 40
3.193602261
 50
121.002313915
 51
182.989498403
  0
LINE
  8
0
  6
CONTINUOUS
 62
     1
 10
418.9789
 20
1192.26802
 11
420.527076294
 21
1194.94954
  0
ARC
  8
0
  6
CONTINUOUS
 62
     1
 10
422.172013606
 20
1192.212155
 40
3.193602261
 50
177.010501597
 51
238.997686085
  0
LINE
  8
0
  6
CONTINUOUS
 62
     1
 10
427.0
 20
1173.05046
 11
420.527076294
 21
1173.05046
  0
LINE
  8
0
  6
CONTINUOUS
 62
     1
 10
427.0
 20
1178.52523
 11
420.527076294
 21
1178.52523
  0
LINE
  8
0
  6
CONTINUOUS
 62
     1
 10
427.0
 20
1189.47477
 11
420.527076294
 21
1189.47477
  0
LINE
  8
0
  6
CONTINUOUS
 62
     1
 10
427.0
 20
1194.94954
 11
420.527076294
 21
1194.94954
  0
LINE
  8
6
  6
CONTINUOUS
 62
     2
 10
652.0
 20
1207.398877817
 11
652.0
 21
1015.0
  0
LINE
  8
6
  6
CONTINUOUS
 62
     2
 10
652.0
 20
1027.0
 11
671.318516526
 21
1021.823619098
  0
LINE
  8
6
  6
CONTINUOUS
 62
     2
 10
652.0
 20
1027.0
 11
671.318516526
 21
1032.176380902
  0
LINE
  8
6
  6
CONTINUOUS
 62
     2
 10
652.0
 20
1027.0
 11
1420.0
 21
1027.0
  0
LINE
  8
6
  6
CONTINUOUS
 62
     2
 10
1420.0
 20
1027.0
 11
1400.681483474
 21
1032.176380902
  0
LINE
  8
6
  6
CONTINUOUS
 62
     2
 10
1420.0
 20
1027.0
 11
1400.681483474
 21
1021.823619098
  0
TEXT
  8
6
  6
CONTINUOUS
 62
     2
 10
1025.2
 20
1035.0
 30
2.4
 40
24.0
  1
Ｃ
 50
0.0
 41
0.9
 51
0.0
  7
KANJI0
  0
LINE
  8
6
  6
CONTINUOUS
 62
     2
 10
1420.0
 20
1027.0
 11
1470.000190206
 21
1027.0
  0
TEXT
  8
6
  6
CONTINUOUS
 62
     2
 10
1386.200095103
 20
980.0
 30
2.4
 40
24.0
  1
ｍｉｎ．Ｐ
 50
0.0
 41
0.9
 51
0.0
  7
KANJI0
  0
LINE
  8
6
  6
CONTINUOUS
 62
     2
 10
1067.0
 20
1219.0
 11
1072.176380902
 21
1238.318516526
  0
LINE
  8
6
  6
CONTINUOUS
 62
     2
 10
1067.0
 20
1219.0
 11
1061.823619098
 21
1238.318516526
  0
LINE
  8
6
  6
CONTINUOUS
 62
     2
 10
1067.0
 20
1219.0
 11
1067.0
 21
1359.0
  0
LINE
  8
6
  6
CONTINUOUS
 62
     2
 10
1067.0
 20
1359.0
 11
1061.823619098
 21
1339.681483474
  0
LINE
  8
6
  6
CONTINUOUS
 62
     2
 10
1067.0
 20
1359.0
 11
1072.176380902
 21
1339.681483474
  0
TEXT
  8
6
  6
CONTINUOUS
 62
     2
 10
1059.0
 20
1242.2
 30
2.4
 40
24.0
  1
φ１４０
 50
90.0
 41
0.9
 51
0.0
  7
KANJI0
  0
LINE
  8
0
  6
LTYPE1
 62
     2
 10
1570.000190206
 20
1123.0
 11
1570.000190206
 21
1343.5
  0
LINE
  8
0
  6
LTYPE1
 62
     2
 10
1623.0
 20
1289.0
 11
403.0
 21
1289.0
  0
LINE
  8
0
  6
CONTINUOUS
 62
     1
 10
1610.000190206
 20
1336.5
 11
1620.000190206
 21
1326.5
  0
LINE
  8
0
  6
CONTINUOUS
 62
     1
 10
1620.000190206
 20
1251.5
 11
1620.000190206
 21
1326.5
  0
LINE
  8
0
  6
CONTINUOUS
 62
     1
 10
1610.000190206
 20
1241.5
 11
1620.000190206
 21
1251.5
  0
CIRCLE
  8
0
  6
CONTINUOUS
 62
     1
 10
1570.000190206
 20
1289.0
 40
22.5
  0
LINE
  8
6
  6
CONTINUOUS
 62
     2
 10
1470.000190206
 20
1027.0
 11
1489.318706732
 21
1021.823619098
  0
LINE
  8
6
  6
CONTINUOUS
 62
     2
 10
1470.000190206
 20
1027.0
 11
1489.318706732
 21
1032.176380902
  0
LINE
  8
6
  6
CONTINUOUS
 62
     2
 10
1470.000190206
 20
1027.0
 11
1570.000190206
 21
1027.0
  0
LINE
  8
6
  6
CONTINUOUS
 62
     2
 10
1570.000190206
 20
1027.0
 11
1550.68167368
 21
1032.176380902
  0
LINE
  8
6
  6
CONTINUOUS
 62
     2
 10
1570.000190206
 20
1027.0
 11
1550.68167368
 21
1021.823619098
  0
LINE
  8
6
  6
CONTINUOUS
 62
     2
 10
1570.000190206
 20
1111.0
 11
1570.000190206
 21
1015.0
  0
TEXT
  8
6
  6
CONTINUOUS
 62
     2
 10
1485.200190206
 20
1035.0
 30
2.4
 40
24.0
  1
１００
 50
0.0
 41
0.9
 51
0.0
  7
KANJI0
  0
LINE
  8
0
  6
CONTINUOUS
 62
     1
 10
1610.000190206
 20
1336.5
 11
1610.000190206
 21
1329.388736054
  0
LINE
  8
0
  6
CONTINUOUS
 62
     1
 10
1610.000190206
 20
1329.388736054
 11
1620.000190206
 21
1316.747752752
  0
LINE
  8
0
  6
CONTINUOUS
 62
     1
 10
1610.000190206
 20
1329.388736054
 11
1480.0
 21
1329.388736054
  0
LINE
  8
0
  6
CONTINUOUS
 62
     1
 10
1610.000190206
 20
1241.5
 11
1610.000190206
 21
1248.611263946
  0
LINE
  8
0
  6
CONTINUOUS
 62
     1
 10
1610.000190206
 20
1248.611263946
 11
1620.000190206
 21
1261.252247248
  0
LINE
  8
0
  6
CONTINUOUS
 62
     1
 10
1610.000190206
 20
1248.611263946
 11
1480.0
 21
1248.611263946
  0
LINE
  8
0
  6
CONTINUOUS
 62
     1
 10
1480.0
 20
1329.388736054
 11
1480.0
 21
1248.611263946
  0
LINE
  8
6
  6
CONTINUOUS
 62
     2
 10
652.0
 20
1015.0
 11
652.0
 21
955.5
  0
LINE
  8
6
  6
CONTINUOUS
 62
     2
 10
652.0
 20
967.5
 11
632.681483474
 21
972.676380902
  0
LINE
  8
6
  6
CONTINUOUS
 62
     2
 10
652.0
 20
967.5
 11
632.681483474
 21
962.323619098
  0
LINE
  8
6
  6
CONTINUOUS
 62
     2
 10
652.0
 20
967.5
 11
427.0
 21
967.5
  0
LINE
  8
6
  6
CONTINUOUS
 62
     2
 10
427.0
 20
967.5
 11
446.318516526
 21
962.323619098
  0
LINE
  8
6
  6
CONTINUOUS
 62
     2
 10
427.0
 20
967.5
 11
446.318516526
 21
972.676380902
  0
TEXT
  8
6
  6
CONTINUOUS
 62
     2
 10
504.7
 20
975.5
 30
2.4
 40
24.0
  1
２２５
 50
0.0
 41
0.9
 51
0.0
  7
KANJI0
  0
LINE
  8
6
  6
CONTINUOUS
 62
     2
 10
652.0
 20
967.5
 11
671.318516526
 21
962.323619098
  0
LINE
  8
6
  6
CONTINUOUS
 62
     2
 10
652.0
 20
967.5
 11
671.318516526
 21
972.676380902
  0
LINE
  8
6
  6
CONTINUOUS
 62
     2
 10
652.0
 20
967.5
 11
1570.000190206
 21
967.5
  0
LINE
  8
6
  6
CONTINUOUS
 62
     2
 10
1570.000190206
 20
967.5
 11
1550.68167368
 21
972.676380902
  0
LINE
  8
6
  6
CONTINUOUS
 62
     2
 10
1570.000190206
 20
967.5
 11
1550.68167368
 21
962.323619098
  0
LINE
  8
6
  6
CONTINUOUS
 62
     2
 10
1570.000190206
 20
1015.0
 11
1570.000190206
 21
955.5
  0
TEXT
  8
6
  6
CONTINUOUS
 62
     2
 10
1052.200095103
 20
975.5
 30
2.4
 40
24.0
  1
ｍｉｎ．Ｌ
 50
0.0
 41
0.9
 51
0.0
  7
KANJI0
  0
LINE
  8
6
  6
CONTINUOUS
 62
     2
 10
1570.000190206
 20
910.0
 11
1550.68167368
 21
915.176380902
  0
LINE
  8
6
  6
CONTINUOUS
 62
     2
 10
1570.000190206
 20
910.0
 11
1550.68167368
 21
904.823619098
  0
LINE
  8
6
  6
CONTINUOUS
 62
     2
 10
1570.000190206
 20
955.5
 11
1570.000190206
 21
898.0
  0
TEXT
  8
6
  6
CONTINUOUS
 62
     2
 10
927.700095103
 20
918.0
 30
2.4
 40
24.0
  1
ｍｉｎ．ＡＬ
 50
0.0
 41
0.9
 51
0.0
  7
KANJI0
  0
LINE
  8
6
  6
CONTINUOUS
 62
     2
 10
1570.000190206
 20
910.0
 11
1589.318706732
 21
904.823619098
  0
LINE
  8
6
  6
CONTINUOUS
 62
     2
 10
1570.000190206
 20
910.0
 11
1589.318706732
 21
915.176380902
  0
LINE
  8
6
  6
CONTINUOUS
 62
     2
 10
1570.000190206
 20
910.0
 11
1620.000190206
 21
910.0
  0
LINE
  8
6
  6
CONTINUOUS
 62
     2
 10
1620.000190206
 20
910.0
 11
1600.68167368
 21
915.176380902
  0
LINE
  8
6
  6
CONTINUOUS
 62
     2
 10
1620.000190206
 20
910.0
 11
1600.68167368
 21
904.823619098
  0
LINE
  8
6
  6
CONTINUOUS
 62
     2
 10
1620.000190206
 20
1239.5
 11
1620.000190206
 21
898.0
  0
TEXT
  8
6
  6
CONTINUOUS
 62
     2
 10
1572.200190206
 20
918.0
 30
2.4
 40
24.0
  1
５０
 50
0.0
 41
0.9
 51
0.0
  7
KANJI0
  0
LINE
  8
0
  6
CONTINUOUS
 62
     1
 10
1480.0
 20
1661.5
 11
1480.0
 21
1639.0
  0
LINE
  8
0
  6
CONTINUOUS
 62
     1
 10
1480.0
 20
1639.0
 11
1620.000190206
 21
1639.0
  0
LINE
  8
0
  6
CONTINUOUS
 62
     1
 10
1620.000190206
 20
1589.0
 11
1620.000190206
 21
1639.0
  0
LINE
  8
0
  6
CONTINUOUS
 62
     1
 10
1480.0
 20
1589.0
 11
1620.000190206
 21
1589.0
  0
LINE
  8
0
  6
CONTINUOUS
 62
     1
 10
1480.0
 20
1589.0
 11
1480.0
 21
1566.5
  0
LINE
  8
0
  6
LTYPE3
 62
     2
 10
1592.500190206
 20
1589.0
 11
1592.500190206
 21
1639.0
  0
LINE
  8
0
  6
LTYPE3
 62
     2
 10
1547.500190206
 20
1589.0
 11
1547.500190206
 21
1639.0
  0
LINE
  8
0
  6
CONTINUOUS
 62
     1
 10
1610.000190206
 20
1589.0
 11
1610.000190206
 21
1639.0
  0
LINE
  8
0
  6
LTYPE1
 62
     2
 10
1570.000190206
 20
1557.5
 11
1570.000190206
 21
1668.5
  0
LINE
  8
6
  6
CONTINUOUS
 62
     2
 10
1547.500190206
 20
1577.0
 11
1547.500190206
 21
1525.0
  0
LINE
  8
6
  6
CONTINUOUS
 62
     2
 10
1547.500190206
 20
1537.0
 11
1528.18167368
 21
1542.176380902
  0
LINE
  8
6
  6
CONTINUOUS
 62
     2
 10
1547.500190206
 20
1537.0
 11
1528.18167368
 21
1531.823619098
  0
LINE
  8
6
  6
CONTINUOUS
 62
     2
 10
1517.500190206
 20
1537.0
 11
1764.100190206
 21
1537.0
  0
LINE
  8
6
  6
CONTINUOUS
 62
     2
 10
1592.500190206
 20
1537.0
 11
1611.818706732
 21
1531.823619098
  0
LINE
  8
6
  6
CONTINUOUS
 62
     2
 10
1592.500190206
 20
1537.0
 11
1611.818706732
 21
1542.176380902
  0
LINE
  8
6
  6
CONTINUOUS
 62
     2
 10
1592.500190206
 20
1577.0
 11
1592.500190206
 21
1525.0
  0
TEXT
  8
6
  6
CONTINUOUS
 62
     2
 10
1622.500190206
 20
1545.0
 30
2.4
 40
24.0
  1
φ４５Ｈ１０
 50
0.0
 41
0.9
 51
0.0
  7
KANJI0
  0
LINE
  8
6
  6
CONTINUOUS
 62
     2
 10
1480.0
 20
1554.5
 11
1480.0
 21
1467.0
  0
LINE
  8
6
  6
CONTINUOUS
 62
     2
 10
1480.0
 20
1479.0
 11
1499.318516526
 21
1473.823619098
  0
LINE
  8
6
  6
CONTINUOUS
 62
     2
 10
1480.0
 20
1479.0
 11
1499.318516526
 21
1484.176380902
  0
LINE
  8
6
  6
CONTINUOUS
 62
     2
 10
1480.0
 20
1479.0
 11
1570.000190206
 21
1479.0
  0
LINE
  8
6
  6
CONTINUOUS
 62
     2
 10
1570.000190206
 20
1479.0
 11
1550.68167368
 21
1484.176380902
  0
LINE
  8
6
  6
CONTINUOUS
 62
     2
 10
1570.000190206
 20
1479.0
 11
1550.68167368
 21
1473.823619098
  0
LINE
  8
6
  6
CONTINUOUS
 62
     2
 10
1570.000190206
 20
1545.5
 11
1570.000190206
 21
1467.0
  0
TEXT
  8
6
  6
CONTINUOUS
 62
     2
 10
1502.200095103
 20
1487.0
 30
2.4
 40
24.0
  1
９０
 50
0.0
 41
0.9
 51
0.0
  7
KANJI0
  0
LINE
  8
6
  6
CONTINUOUS
 62
     2
 10
1632.000190206
 20
1589.0
 11
1693.000190206
 21
1589.0
  0
LINE
  8
6
  6
CONTINUOUS
 62
     2
 10
1681.000190206
 20
1589.0
 11
1686.176571108
 21
1608.318516526
  0
LINE
  8
6
  6
CONTINUOUS
 62
     2
 10
1681.000190206
 20
1589.0
 11
1675.823809304
 21
1608.318516526
  0
LINE
  8
6
  6
CONTINUOUS
 62
     2
 10
1681.000190206
 20
1589.0
 11
1681.000190206
 21
1639.0
  0
LINE
  8
6
  6
CONTINUOUS
 62
     2
 10
1681.000190206
 20
1639.0
 11
1675.823809304
 21
1619.681483474
  0
LINE
  8
6
  6
CONTINUOUS
 62
     2
 10
1681.000190206
 20
1639.0
 11
1686.176571108
 21
1619.681483474
  0
LINE
  8
6
  6
CONTINUOUS
 62
     2
 10
1632.000190206
 20
1639.0
 11
1693.000190206
 21
1639.0
  0
TEXT
  8
6
  6
CONTINUOUS
 62
     2
 10
1673.000190206
 20
1591.2
 30
2.4
 40
24.0
  1
５０
 50
90.0
 41
0.9
 51
0.0
  7
KANJI0
  0
LINE
  8
0
  6
LTYPE1
 62
     2
 10
1346.000190206
 20
1614.0
 11
1634.000190206
 21
1614.0
  0
TEXT
  8
0
  6
CONTINUOUS
 62
     2
 10
955.0
 20
610.4
 30
2.4
 40
24.0
  1
３００
 50
0.0
 41
0.9
 51
0.0
  7
KANJI1
  0
TEXT
  8
0
  6
CONTINUOUS
 62
     2
 10
955.0
 20
554.4
 30
2.4
 40
24.0
  1
５００
 50
0.0
 41
0.9
 51
0.0
  7
KANJI1
  0
TEXT
  8
0
  6
CONTINUOUS
 62
     2
 10
1432.6
 20
614.0
 30
2.4
 40
24.0
  1
７３０
 50
0.0
 41
0.9
 51
0.0
  7
KANJI1
  0
TEXT
  8
0
  6
CONTINUOUS
 62
     2
 10
1606.8
 20
614.0
 30
2.4
 40
24.0
  1
５０
 50
0.0
 41
0.9
 51
0.0
  7
KANJI1
  0
TEXT
  8
0
  6
CONTINUOUS
 62
     2
 10
1432.6
 20
558.0
 30
2.4
 40
24.0
  1
９３０
 50
0.0
 41
0.9
 51
0.0
  7
KANJI1
  0
LINE
  8
0
  6
CONTINUOUS
 62
     1
 10
1326.149691586
 20
1301.0
 11
1326.149691586
 21
1289.0
  0
LINE
  8
0
  6
CONTINUOUS
 62
     1
 10
1326.149691586
 20
1360.591148475
 11
1326.149691586
 21
1289.0
  0
POINT
  8
0
  6
CONTINUOUS
 62
     1
 10
708.0
 20
1289.0
  0
LINE
  8
0
  6
CONTINUOUS
 62
     1
 10
582.0
 20
1154.0
 11
582.0
 21
1396.5
  0
LINE
  8
6
  6
CONTINUOUS
 62
     2
 10
1470.000190206
 20
1239.8
 11
1470.000190206
 21
1015.0
  0
LINE
  8
0
  6
CONTINUOUS
 62
     1
 10
582.0
 20
1154.0
 11
427.0
 21
1154.0
  0
LINE
  8
6
  6
CONTINUOUS
 62
     2
 10
427.0
 20
1142.0
 11
427.0
 21
895.1
  0
LINE
  8
6
  6
CONTINUOUS
 62
     2
 10
427.0
 20
910.0
 11
1570.000190206
 21
910.0
  0
LINE
  8
6
  6
CONTINUOUS
 62
     2
 10
427.0
 20
910.0
 11
449.216294005
 21
904.047161963
  0
LINE
  8
6
  6
CONTINUOUS
 62
     2
 10
427.0
 20
910.0
 11
449.216294005
 21
915.952838037
  0
LINE
  8
0
  6
CONTINUOUS
 62
     1
 10
765.0
 20
1340.305778818
 11
755.0
 21
1350.305778818
  0
ARC
  8
0
  6
CONTINUOUS
 62
     1
 10
753.0
 20
1338.63644216
 40
3.0
 50
180.0
 51
270.0
  0
ARC
  8
0
  6
CONTINUOUS
 62
     1
 10
753.0
 20
1335.194983542
 40
3.0
 50
180.0
 51
270.0
  0
ARC
  8
0
  6
CONTINUOUS
 62
     1
 10
753.0
 20
1334.334618887
 40
3.0
 50
180.0
 51
270.0
  0
LINE
  8
0
  6
CONTINUOUS
 62
     1
 10
873.0
 20
1350.305778818
 11
863.0
 21
1340.305778818
  0
LINE
  8
0
  6
CONTINUOUS
 62
     1
 10
765.0
 20
1340.305778818
 11
863.0
 21
1340.305778818
  0
ARC
  8
0
  6
CONTINUOUS
 62
     1
 10
875.0
 20
1338.63644216
 40
3.0
 50
270.0
 51
0.0
  0
ARC
  8
0
  6
CONTINUOUS
 62
     1
 10
875.0
 20
1335.194983542
 40
3.0
 50
270.0
 51
0.0
  0
ARC
  8
0
  6
CONTINUOUS
 62
     1
 10
875.0
 20
1334.334618887
 40
3.0
 50
270.0
 51
0.0
  0
LINE
  8
0
  6
CONTINUOUS
 62
     1
 10
752.507319827
 20
1335.63644216
 11
875.0
 21
1335.63644216
  0
LINE
  8
0
  6
CONTINUOUS
 62
     1
 10
752.607319827
 20
1332.194983542
 11
875.0
 21
1332.194983542
  0
LINE
  8
0
  6
CONTINUOUS
 62
     1
 10
752.607319827
 20
1331.334618887
 11
875.0
 21
1331.334618887
  0
LINE
  8
0
  6
CONTINUOUS
 62
     1
 10
883.0
 20
1334.266636349
 11
883.0
 21
1391.13271812
  0
LINE
  8
0
  6
CONTINUOUS
 62
     1
 10
878.0
 20
1334.266636349
 11
883.0
 21
1334.266636349
  0
LINE
  8
0
  6
CONTINUOUS
 62
     1
 10
878.0
 20
1391.13271812
 11
883.0
 21
1391.13271812
  0
LINE
  8
0
  6
CONTINUOUS
 62
     1
 10
878.0
 20
1358.366636349
 11
883.0
 21
1358.366636349
  0
LINE
  8
0
  6
CONTINUOUS
 62
     1
 10
840.0
 20
1307.657620342
 11
878.0
 21
1307.657620342
  0
LINE
  8
0
  6
CONTINUOUS
 62
     1
 10
883.0
 20
1378.848877817
 11
883.0
 21
1351.148877817
  0
LINE
  8
0
  6
CONTINUOUS
 62
     1
 10
640.0
 20
1370.5
 11
750.0
 21
1370.5
  0
LINE
  8
0
  6
CONTINUOUS
 62
     1
 10
750.0
 20
1306.957620342
 11
840.0
 21
1306.957620342
  0
LINE
  8
0
  6
CONTINUOUS
 62
     1
 10
842.0
 20
1307.657620342
 11
842.0
 21
1189.0
  0
LINE
  8
0
  6
CONTINUOUS
 62
     1
 10
882.0
 20
1334.266636349
 11
882.0
 21
1189.0
  0
LINE
  8
0
  6
CONTINUOUS
 62
     1
 10
2527.0
 20
1017.0
 11
3227.0
 21
1017.0
  0
LINE
  8
0
  6
CONTINUOUS
 62
     1
 10
2527.0
 20
2105.0
 11
3227.0
 21
2105.0
  0
LINE
  8
0
  6
CONTINUOUS
 62
     1
 10
2527.0
 20
2105.0
 11
2527.0
 21
1017.0
  0
TEXT
  8
0
  6
CONTINUOUS
 62
     2
 10
2627.0
 20
2046.6
 30
22.79952
 40
36.0
  1
マイティシリンダ仕様
 50
0.0
 41
0.9
 51
0.0
  7
KANJI2
  0
TEXT
  8
0
  6
CONTINUOUS
 62
     2
 10
2559.6
 20
1541.0
 30
17.6
 40
28.0
  1
モ　トル仕様
 50
0.0
 41
0.9
 51
0.0
  7
KANJI3
  0
TEXT
  8
0
  6
CONTINUOUS
 62
     2
 10
2557.8
 20
1237.0
 30
1.371428571
 40
24.0
  1
ブレ　キ
 50
0.0
 41
0.9
 51
0.0
  7
KANJI4
  0
LINE
  8
0
  6
CONTINUOUS
 62
     2
 10
2557.4
 20
1181.8
 11
2557.4
 21
1165.0
  0
LINE
  8
0
  6
CONTINUOUS
 62
     2
 10
2557.4
 20
1496.2
 11
2557.4
 21
1477.8
  0
TEXT
  8
0
  6
CONTINUOUS
 62
     2
 10
2986.2
 20
1647.4
 30
11.36
 40
28.0
  1
推力リミッタ
 50
0.0
 41
0.9
 51
0.0
  7
KANJI5
  0
TEXT
  8
0
  6
CONTINUOUS
 62
     2
 10
3198.2
 20
1535.4
 30
17.571428571
 40
24.0
  1
Ｐ
 50
0.0
 41
0.9
 51
0.0
  7
KANJI6
  0
TEXT
  8
0
  6
CONTINUOUS
 62
     2
 10
3065.4
 20
1535.4
 30
1.6
 40
24.0
  1
ＫＷ
 50
0.0
 41
0.857142857
 51
0.0
  7
KANJI7
  0
TEXT
  8
0
  6
CONTINUOUS
 62
     2
 10
3158.2
 20
1535.4
 30
20.5
 40
28.0
  1
４
 50
0.0
 41
0.9
 51
0.0
  7
KANJI8
  0
TEXT
  8
0
  6
CONTINUOUS
 62
     2
 10
2941.4
 20
1593.8
 30
0.8
 40
22.4
  1
マンセル
 50
0.0
 41
0.9
 51
0.0
  7
KANJI9
  0
TEXT
  8
0
  6
CONTINUOUS
 62
     2
 10
3035.0
 20
1595.4
 30
0.32
 40
22.4
  1
７．５ＧＹ５／４．５
 50
0.0
 41
0.785714286
 51
0.0
  7
KANJI10
  0
TEXT
  8
0
  6
CONTINUOUS
 62
     2
 10
2935.0
 20
1200.2
 30
2.4
 40
22.4
  1
スプリング制動式電磁ブレーキ
 50
0.0
 41
0.8
 51
0.0
  7
KANJI11
  0
TEXT
  8
0
  6
CONTINUOUS
 62
     2
 10
3199.0
 20
1479.4
 30
0.288
 40
24.0
  1
Ｖ
 50
0.0
 41
0.8
 51
0.0
  7
KANJI12
  0
TEXT
  8
0
  6
CONTINUOUS
 62
     2
 10
3184.6
 20
1423.4
 30
0.288
 40
24.0
  1
Ｈｚ
 50
0.0
 41
0.8
 51
0.0
  7
KANJI12
  0
TEXT
  8
0
  6
CONTINUOUS
 62
     2
 10
3026.8
 20
1423.2
 30
2.4
 40
24.0
  1
５０／６０
 50
0.0
 41
0.9
 51
0.0
  7
KANJI1
  0
TEXT
  8
0
  6
CONTINUOUS
 62
     2
 10
3200.8
 20
1369.2
 30
2.4
 40
24.0
  1
Ａ
 50
0.0
 41
0.9
 51
0.0
  7
KANJI1
  0
TEXT
  8
0
  6
CONTINUOUS
 62
     2
 10
3074.8
 20
1315.2
 30
2.4
 40
24.0
  1
Ｅ
 50
0.0
 41
0.9
 51
0.0
  7
KANJI1
  0
LINE
  8
0
  6
CONTINUOUS
 62
     2
 10
2527.0
 20
1129.0
 11
3227.0
 21
1129.0
  0
LINE
  8
0
  6
CONTINUOUS
 62
     2
 10
2527.0
 20
1073.0
 11
3227.0
 21
1073.0
  0
LINE
  8
0
  6
CONTINUOUS
 62
     2
 10
2591.0
 20
1185.0
 11
3227.0
 21
1185.0
  0
LINE
  8
0
  6
CONTINUOUS
 62
     2
 10
2591.0
 20
1577.0
 11
2591.0
 21
1129.0
  0
LINE
  8
0
  6
CONTINUOUS
 62
     2
 10
2527.0
 20
1241.0
 11
3227.0
 21
1241.0
  0
LINE
  8
0
  6
CONTINUOUS
 62
     2
 10
2591.0
 20
1297.0
 11
3227.0
 21
1297.0
  0
LINE
  8
0
  6
CONTINUOUS
 62
     2
 10
2591.0
 20
1353.0
 11
3227.0
 21
1353.0
  0
LINE
  8
0
  6
CONTINUOUS
 62
     2
 10
2591.0
 20
1409.0
 11
3227.0
 21
1409.0
  0
LINE
  8
0
  6
CONTINUOUS
 62
     2
 10
2527.0
 20
1689.0
 11
3227.0
 21
1689.0
  0
LINE
  8
0
  6
CONTINUOUS
 62
     2
 10
2527.0
 20
1633.0
 11
3227.0
 21
1633.0
  0
LINE
  8
0
  6
CONTINUOUS
 62
     2
 10
2527.0
 20
1577.0
 11
3227.0
 21
1577.0
  0
LINE
  8
0
  6
CONTINUOUS
 62
     2
 10
2927.0
 20
2025.0
 11
2927.0
 21
1017.0
  0
LINE
  8
0
  6
CONTINUOUS
 62
     2
 10
2591.0
 20
1465.0
 11
3227.0
 21
1465.0
  0
LINE
  8
0
  6
CONTINUOUS
 62
     2
 10
2591.0
 20
1521.0
 11
3227.0
 21
1521.0
  0
LINE
  8
0
  6
CONTINUOUS
 62
     2
 10
2527.0
 20
1969.0
 11
3227.0
 21
1969.0
  0
LINE
  8
0
  6
CONTINUOUS
 62
     2
 10
2527.0
 20
1913.0
 11
3227.0
 21
1913.0
  0
LINE
  8
0
  6
CONTINUOUS
 62
     2
 10
2527.0
 20
1857.0
 11
3227.0
 21
1857.0
  0
LINE
  8
0
  6
CONTINUOUS
 62
     2
 10
2527.0
 20
1801.0
 11
3227.0
 21
1801.0
  0
LINE
  8
0
  6
CONTINUOUS
 62
     2
 10
2527.0
 20
1745.0
 11
3227.0
 21
1745.0
  0
LINE
  8
0
  6
CONTINUOUS
 62
     2
 10
2527.0
 20
2025.0
 11
3227.0
 21
2025.0
  0
TEXT
  8
0
  6
CONTINUOUS
 62
     2
 10
927.8
 20
669.0
 30
2.4
 40
24.0
  1
ストローク
 50
0.0
 41
0.9
 51
0.0
  7
KANJI1
  0
TEXT
  8
0
  6
CONTINUOUS
 62
     2
 10
1081.4
 20
667.4
 30
0.0
 40
24.0
  1
ｍｉｎ　
 50
0.0
 41
0.9
 51
0.0
  7
KANJI13
  0
TEXT
  8
0
  6
CONTINUOUS
 62
     2
 10
1241.4
 20
667.4
 30
0.0
 40
24.0
  1
ｍｉｎ　
 50
0.0
 41
0.9
 51
0.0
  7
KANJI13
  0
TEXT
  8
0
  6
CONTINUOUS
 62
     2
 10
1561.4
 20
667.4
 30
0.0
 40
24.0
  1
ｍｉｎ　
 50
0.0
 41
0.9
 51
0.0
  7
KANJI13
  0
TEXT
  8
0
  6
CONTINUOUS
 62
     2
 10
1810.0
 20
670.8
 30
0.0
 40
19.2
  1
（ｋｇ）
 50
0.0
 41
0.777777778
 51
0.0
  7
KANJI14
  0
TEXT
  8
0
  6
CONTINUOUS
 62
     2
 10
1714.0
 20
668.0
 30
2.56
 40
25.6
  1
概算重量
 50
0.0
 41
0.9
 51
0.0
  7
KANJI15
  0
TEXT
  8
0
  6
CONTINUOUS
 62
     2
 10
683.0
 20
669.0
 30
2.56
 40
25.6
  1
形
 50
0.0
 41
0.9
 51
0.0
  7
KANJI15
  0
TEXT
  8
0
  6
CONTINUOUS
 62
     2
 10
839.0
 20
669.0
 30
2.56
 40
25.6
  1
式
 50
0.0
 41
0.9
 51
0.0
  7
KANJI15
  0
TEXT
  8
0
  6
CONTINUOUS
 62
     2
 10
2587.0
 20
1983.4
 30
240.594285714
 40
30.4
  1
形式
 50
0.0
 41
0.9
 51
0.0
  7
KANJI16
  0
TEXT
  8
0
  6
CONTINUOUS
 62
     2
 10
2587.0
 20
1927.4
 30
240.594285714
 40
30.4
  1
推力
 50
0.0
 41
0.9
 51
0.0
  7
KANJI16
  0
TEXT
  8
0
  6
CONTINUOUS
 62
     2
 10
2587.0
 20
1871.4
 30
39.628571429
 40
30.4
  1
ストローク
 50
0.0
 41
0.9
 51
0.0
  7
KANJI17
  0
TEXT
  8
0
  6
CONTINUOUS
 62
     2
 10
2587.0
 20
1815.4
 30
61.957805714
 40
30.4
  1
公称速度
 50
0.0
 41
0.9
 51
0.0
  7
KANJI18
  0
TEXT
  8
0
  6
CONTINUOUS
 62
     2
 10
2563.0
 20
1759.4
 30
2.605714286
 40
30.4
  1
ピストンロッド回転トルク
 50
0.0
 41
0.9
 51
0.0
  7
KANJI19
  0
TEXT
  8
0
  6
CONTINUOUS
 62
     2
 10
2587.0
 20
1703.4
 30
240.594285714
 40
30.4
  1
構造
 50
0.0
 41
0.9
 51
0.0
  7
KANJI16
  0
TEXT
  8
0
  6
CONTINUOUS
 62
     2
 10
2587.0
 20
1647.4
 30
17.298468571
 40
30.4
  1
過負荷安全装置
 50
0.0
 41
0.9
 51
0.0
  7
KANJI20
  0
TEXT
  8
0
  6
CONTINUOUS
 62
     2
 10
2587.0
 20
1591.4
 30
106.617142857
 40
30.4
  1
塗装色
 50
0.0
 41
0.9
 51
0.0
  7
KANJI21
  0
TEXT
  8
0
  6
CONTINUOUS
 62
     2
 10
2627.0
 20
1535.4
 30
26.6
 40
30.4
  1
出力　極数
 50
0.0
 41
0.9
 51
0.0
  7
KANJI22
  0
TEXT
  8
0
  6
CONTINUOUS
 62
     2
 10
2627.0
 20
1479.4
 30
44.586377143
 40
30.4
  1
電源電圧
 50
0.0
 41
0.9
 51
0.0
  7
KANJI23
  0
TEXT
  8
0
  6
CONTINUOUS
 62
     2
 10
2627.0
 20
1423.4
 30
80.56
 40
30.4
  1
周波数
 50
0.0
 41
0.9
 51
0.0
  7
KANJI24
  0
TEXT
  8
0
  6
CONTINUOUS
 62
     2
 10
2627.0
 20
1367.4
 30
188.48
 40
30.4
  1
電流
 50
0.0
 41
0.9
 51
0.0
  7
KANJI25
  0
TEXT
  8
0
  6
CONTINUOUS
 62
     2
 10
2627.0
 20
1311.4
 30
80.56
 40
30.4
  1
絶縁級
 50
0.0
 41
0.9
 51
0.0
  7
KANJI24
  0
TEXT
  8
0
  6
CONTINUOUS
 62
     2
 10
2627.0
 20
1199.4
 30
188.48
 40
30.4
  1
形式
 50
0.0
 41
0.9
 51
0.0
  7
KANJI25
  0
TEXT
  8
0
  6
CONTINUOUS
 62
     2
 10
2627.0
 20
1143.4
 30
44.586377143
 40
30.4
  1
操作方式
 50
0.0
 41
0.9
 51
0.0
  7
KANJI23
  0
TEXT
  8
0
  6
CONTINUOUS
 62
     2
 10
2587.0
 20
1087.4
 30
106.617142857
 40
30.4
  1
付属品
 50
0.0
 41
0.9
 51
0.0
  7
KANJI21
  0
TEXT
  8
0
  6
CONTINUOUS
 62
     2
 10
2587.0
 20
1031.4
 30
240.594285714
 40
30.4
  1
台数
 50
0.0
 41
0.9
 51
0.0
  7
KANJI16
  0
TEXT
  8
0
  6
CONTINUOUS
 62
     2
 10
3177.8
 20
1874.6
 30
0.1792
 40
22.4
  1
ｍｍ
 50
0.0
 41
0.8
 51
0.0
  7
KANJI26
  0
TEXT
  8
0
  6
CONTINUOUS
 62
     2
 10
3117.8
 20
1821.0
 30
0.1792
 40
22.4
  1
ｍｍ／ｓｅｃ
 50
0.0
 41
0.8
 51
0.0
  7
KANJI26
  0
TEXT
  8
0
  6
CONTINUOUS
 62
     2
 10
1163.0
 20
669.0
 30
2.8
 40
28.0
  1
ＡＬ
 50
0.0
 41
0.9
 51
0.0
  7
KANJI27
  0
TEXT
  8
0
  6
CONTINUOUS
 62
     2
 10
1323.0
 20
669.0
 30
2.8
 40
28.0
  1
Ｌ
 50
0.0
 41
0.9
 51
0.0
  7
KANJI27
  0
TEXT
  8
0
  6
CONTINUOUS
 62
     2
 10
1459.0
 20
669.0
 30
2.8
 40
28.0
  1
Ｃ
 50
0.0
 41
0.9
 51
0.0
  7
KANJI27
  0
TEXT
  8
0
  6
CONTINUOUS
 62
     2
 10
1643.0
 20
669.0
 30
2.8
 40
28.0
  1
Ｐ
 50
0.0
 41
0.9
 51
0.0
  7
KANJI27
  0
LINE
  8
0
  6
CONTINUOUS
 62
     1
 10
1454.000190206
 20
1566.5
 11
1454.000190206
 21
1606.5
  0
LINE
  8
0
  6
CONTINUOUS
 62
     2
 10
1125.0
 20
1306.4
 11
1196.0
 21
1437.9
  0
LINE
  8
0
  6
CONTINUOUS
 62
     2
 10
1196.0
 20
1437.9
 11
1271.0
 21
1437.9
  0
LINE
  8
0
  6
CONTINUOUS
 62
     2
 10
1125.0
 20
1306.4
 11
1138.733041598
 21
1320.93972381
  0
LINE
  8
0
  6
CONTINUOUS
 62
     2
 10
1125.0
 20
1306.4
 11
1129.62330099
 21
1325.858290982
  0
TEXT
  8
0
  6
CONTINUOUS
 62
     2
 10
1197.5
 20
1449.1
 30
0.0
 40
24.0
  1
給脂口
 50
0.0
 41
0.9
 51
0.0
  7
KANJI13
  0
LINE
  8
0
  6
LTYPE2
 62
     2
 10
1288.149691586
 20
1129.5
 11
1288.149691586
 21
1194.8
  0
LINE
  8
0
  6
CONTINUOUS
 62
     1
 10
1469.999190206
 20
1280.5
 11
1469.999190206
 21
1289.0
  0
LINE
  8
0
  6
CONTINUOUS
 62
     1
 10
1453.999190206
 20
1289.0
 11
1469.999190206
 21
1289.0
  0
LINE
  8
0
  6
CONTINUOUS
 62
     1
 10
1469.999190206
 20
1130.5
 11
1469.999190206
 21
1289.0
  0
LINE
  8
6
  6
CONTINUOUS
 62
     2
 10
1635.0
 20
1289.0
 11
1674.5
 21
1289.0
  0
LINE
  8
6
  6
CONTINUOUS
 62
     2
 10
1662.5
 20
1289.0
 11
1657.323619098
 21
1269.681483474
  0
LINE
  8
6
  6
CONTINUOUS
 62
     2
 10
1662.5
 20
1289.0
 11
1667.676380902
 21
1269.681483474
  0
LINE
  8
0
  6
CONTINUOUS
 62
     1
 10
1470.0
 20
1349.0
 11
1470.0
 21
1241.5
  0
LINE
  8
0
  6
CONTINUOUS
 62
     1
 10
1470.0
 20
1349.0
 11
1454.0
 21
1349.0
  0
LINE
  8
0
  6
CONTINUOUS
 62
     1
 10
1454.0
 20
1289.0
 11
1454.0
 21
1349.0
  0
LINE
  8
0
  6
CONTINUOUS
 62
     1
 10
1470.0
 20
1679.0
 11
1470.0
 21
1549.0
  0
LINE
  8
0
  6
CONTINUOUS
 62
     1
 10
1454.000190206
 20
1549.0
 11
1470.0
 21
1549.0
  0
LINE
  8
0
  6
CONTINUOUS
 62
     1
 10
1454.000190206
 20
1549.0
 11
1454.000190206
 21
1606.5
  0
LINE
  8
0
  6
CONTINUOUS
 62
     1
 10
1454.0
 20
1679.0
 11
1454.0
 21
1576.5
  0
LINE
  8
0
  6
CONTINUOUS
 62
     1
 10
1454.0
 20
1679.0
 11
1470.0
 21
1679.0
  0
LINE
  8
0
  6
CONTINUOUS
 62
     1
 10
1326.149691586
 20
1369.0
 11
1326.149691586
 21
1248.5
  0
LINE
  8
0
  6
CONTINUOUS
 62
     1
 10
1310.149691586
 20
1369.0
 11
1326.149691586
 21
1369.0
  0
LINE
  8
0
  6
CONTINUOUS
 62
     1
 10
1250.149691586
 20
1369.0
 11
1266.149691586
 21
1369.0
  0
LINE
  8
0
  6
CONTINUOUS
 62
     1
 10
1326.149691586
 20
1219.0
 11
1420.0
 21
1219.0
  0
LINE
  8
0
  6
CONTINUOUS
 62
     1
 10
1267.149691586
 20
1359.0
 11
1310.149691586
 21
1359.0
  0
LINE
  8
0
  6
CONTINUOUS
 62
     1
 10
1223.149691586
 20
1186.5
 11
1353.149691586
 21
1186.5
  0
LINE
  8
0
  6
CONTINUOUS
 62
     1
 10
1360.849691586
 20
1179.5
 11
1360.849691586
 21
1154.1
  0
LINE
  8
0
  6
CONTINUOUS
 62
     1
 10
1335.449691586
 20
1179.5
 11
1360.849691586
 21
1179.5
  0
LINE
  8
0
  6
CONTINUOUS
 62
     1
 10
1223.149691586
 20
1180.5
 11
1223.149691586
 21
1186.5
  0
LINE
  8
0
  6
CONTINUOUS
 62
     1
 10
1223.149691586
 20
1180.5
 11
1353.149691586
 21
1180.5
  0
LINE
  8
0
  6
CONTINUOUS
 62
     1
 10
1353.149691586
 20
1180.5
 11
1353.149691586
 21
1186.5
  0
LINE
  8
0
  6
CONTINUOUS
 62
     1
 10
1335.449691586
 20
1154.1
 11
1360.849691586
 21
1154.1
  0
LINE
  8
0
  6
CONTINUOUS
 62
     1
 10
1266.749691586
 20
1180.5
 11
1266.749691586
 21
1140.5
  0
LINE
  8
0
  6
CONTINUOUS
 62
     1
 10
1335.449691586
 20
1180.5
 11
1335.449691586
 21
1140.5
  0
LINE
  8
0
  6
LTYPE3
 62
     2
 10
1271.849691586
 20
1149.73
 11
1266.849691586
 21
1149.73
  0
LINE
  8
0
  6
LTYPE3
 62
     2
 10
1271.849691586
 20
1150.885
 11
1266.849691586
 21
1150.885
  0
LINE
  8
0
  6
LTYPE3
 62
     2
 10
1271.849691586
 20
1170.67
 11
1266.849691586
 21
1170.67
  0
LINE
  8
0
  6
LTYPE3
 62
     2
 10
1271.849691586
 20
1169.515
 11
1266.849691586
 21
1169.515
  0
LINE
  8
0
  6
LTYPE3
 62
     2
 10
1271.849691586
 20
1170.67
 11
1266.849691586
 21
1170.67
  0
LINE
  8
0
  6
LTYPE2
 62
     2
 10
1345.149691586
 20
1165.6875
 11
1345.149691586
 21
1125.7
  0
LINE
  8
0
  6
CONTINUOUS
 62
     1
 10
1215.449691586
 20
1179.5
 11
1215.449691586
 21
1154.1
  0
LINE
  8
0
  6
CONTINUOUS
 62
     1
 10
1240.849691586
 20
1179.5
 11
1215.449691586
 21
1179.5
  0
LINE
  8
0
  6
CONTINUOUS
 62
     1
 10
1240.849691586
 20
1154.1
 11
1215.449691586
 21
1154.1
  0
LINE
  8
0
  6
CONTINUOUS
 62
     1
 10
1240.849691586
 20
1180.5
 11
1240.849691586
 21
1140.5
  0
LINE
  8
0
  6
CONTINUOUS
 62
     1
 10
1272.149691586
 20
1125.5
 11
1272.149691586
 21
1140.5
  0
LINE
  8
0
  6
CONTINUOUS
 62
     1
 10
1272.149691586
 20
1125.5
 11
1304.149691586
 21
1125.5
  0
LINE
  8
0
  6
CONTINUOUS
 62
     1
 10
1304.149691586
 20
1125.5
 11
1304.149691586
 21
1140.5
  0
LINE
  8
0
  6
LTYPE4
 62
     2
 10
1271.849691586
 20
1159.2
 11
1262.749691586
 21
1159.2
  0
LINE
  8
0
  6
CONTINUOUS
 62
     1
 10
1376.149691586
 20
1130.5
 11
1390.006098046
 21
1122.5
  0
LINE
  8
0
  6
LTYPE3
 62
     2
 10
1376.149691586
 20
1132.5
 11
1426.149691586
 21
1132.5
  0
LINE
  8
0
  6
CONTINUOUS
 62
     1
 10
1390.006098046
 20
1122.5
 11
1412.293285125
 21
1122.5
  0
LINE
  8
0
  6
LTYPE3
 62
     2
 10
1376.149691586
 20
1144.5
 11
1426.149691586
 21
1144.5
  0
LINE
  8
0
  6
CONTINUOUS
 62
     1
 10
1376.149691586
 20
1146.5
 11
1390.006098046
 21
1154.5
  0
LINE
  8
0
  6
CONTINUOUS
 62
     1
 10
1390.006098046
 20
1154.5
 11
1412.293285125
 21
1154.5
  0
LINE
  8
0
  6
CONTINUOUS
 62
     1
 10
1426.149691586
 20
1146.5
 11
1412.293285125
 21
1154.5
  0
LINE
  8
0
  6
CONTINUOUS
 62
     1
 10
1426.149691586
 20
1130.5
 11
1426.149691586
 21
1146.5
  0
LINE
  8
0
  6
CONTINUOUS
 62
     1
 10
1426.149691586
 20
1130.5
 11
1412.293285125
 21
1122.5
  0
LINE
  8
0
  6
CONTINUOUS
 62
     1
 10
1412.293285125
 20
1122.5
 11
1412.293285125
 21
1154.5
  0
LINE
  8
0
  6
CONTINUOUS
 62
     1
 10
1390.006098046
 20
1122.5
 11
1412.293285125
 21
1122.5
  0
LINE
  8
0
  6
CONTINUOUS
 62
     1
 10
1390.006098046
 20
1122.5
 11
1390.006098046
 21
1154.5
  0
LINE
  8
0
  6
CONTINUOUS
 62
     1
 10
1376.149691586
 20
1130.5
 11
1376.149691586
 21
1146.5
  0
CIRCLE
  8
0
  6
CONTINUOUS
 62
     2
 10
1401.149691586
 20
1138.5
 40
5.0
  0
CIRCLE
  8
0
  6
CONTINUOUS
 62
     2
 10
1401.149691586
 20
1138.5
 40
4.0
  0
LINE
  8
0
  6
LTYPE2
 62
     2
 10
1401.149691586
 20
1128.5
 11
1401.149691586
 21
1148.5
  0
LINE
  8
0
  6
CONTINUOUS
 62
     1
 10
1335.449691586
 20
1144.5
 11
1376.149691586
 21
1144.5
  0
LINE
  8
0
  6
CONTINUOUS
 62
     1
 10
1304.149691586
 20
1132.5
 11
1376.149691586
 21
1132.5
  0
LINE
  8
0
  6
CONTINUOUS
 62
     1
 10
1240.849691586
 20
1146.5
 11
1335.449691586
 21
1146.5
  0
LINE
  8
0
  6
CONTINUOUS
 62
     1
 10
1240.849691586
 20
1140.5
 11
1335.449691586
 21
1140.5
  0
LINE
  8
0
  6
CONTINUOUS
 62
     1
 10
1426.149691586
 20
1144.5
 11
1453.925190206
 21
1144.5
  0
LINE
  8
0
  6
CONTINUOUS
 62
     1
 10
1426.149691586
 20
1132.5
 11
1453.925190206
 21
1132.5
  0
LINE
  8
0
  6
CONTINUOUS
 62
     1
 10
1469.999190206
 20
1138.5
 11
1469.999190206
 21
1145.99406
  0
LINE
  8
0
  6
CONTINUOUS
 62
     1
 10
1469.999190206
 20
1138.5
 11
1469.999190206
 21
1131.00594
  0
LINE
  8
0
  6
CONTINUOUS
 62
     1
 10
1475.499090206
 20
1144.15878
 11
1474.439490804
 21
1145.99406
  0
LINE
  8
0
  6
CONTINUOUS
 62
     1
 10
1475.499090206
 20
1138.5
 11
1475.499090206
 21
1144.15878
  0
LINE
  8
0
  6
CONTINUOUS
 62
     1
 10
1475.499090206
 20
1132.84122
 11
1474.439490804
 21
1131.00594
  0
LINE
  8
0
  6
CONTINUOUS
 62
     1
 10
1475.499090206
 20
1138.5
 11
1475.499090206
 21
1132.84122
  0
ARC
  8
0
  6
CONTINUOUS
 62
     1
 10
1468.344034869
 20
1138.5
 40
7.155055337
 50
328.419912243
 51
31.580087757
  0
ARC
  8
0
  6
CONTINUOUS
 62
     1
 10
1473.31366644
 20
1144.120545
 40
2.185758211
 50
301.002313915
 51
2.989498403
  0
LINE
  8
0
  6
CONTINUOUS
 62
     1
 10
1475.499090206
 20
1132.84122
 11
1474.439490804
 21
1131.00594
  0
ARC
  8
0
  6
CONTINUOUS
 62
     1
 10
1473.31366644
 20
1132.879455
 40
2.185758211
 50
357.010501597
 51
58.997686085
  0
LINE
  8
0
  6
CONTINUOUS
 62
     1
 10
1469.999190206
 20
1145.99406
 11
1474.439490804
 21
1145.99406
  0
LINE
  8
0
  6
CONTINUOUS
 62
     1
 10
1469.999190206
 20
1142.24703
 11
1474.439490804
 21
1142.24703
  0
LINE
  8
0
  6
CONTINUOUS
 62
     1
 10
1469.999190206
 20
1134.75297
 11
1474.439490804
 21
1134.75297
  0
LINE
  8
0
  6
CONTINUOUS
 62
     1
 10
1469.999190206
 20
1131.00594
 11
1474.439490804
 21
1131.00594
  0
LINE
  8
0
  6
CONTINUOUS
 62
     1
 10
1475.499090206
 20
1134.5
 11
1480.499090206
 21
1134.5
  0
LINE
  8
0
  6
CONTINUOUS
 62
     1
 10
1475.499090206
 20
1142.5
 11
1480.499090206
 21
1142.5
  0
LINE
  8
0
  6
CONTINUOUS
 62
     1
 10
1480.499090206
 20
1134.5
 11
1480.499090206
 21
1142.5
  0
LINE
  8
0
  6
CONTINUOUS
 62
     2
 10
1475.499090206
 20
1141.7
 11
1480.499090206
 21
1141.7
  0
LINE
  8
0
  6
CONTINUOUS
 62
     2
 10
1475.499090206
 20
1135.3
 11
1480.499090206
 21
1135.3
  0
LINE
  8
0
  6
CONTINUOUS
 62
     1
 10
1250.149691586
 20
1186.5
 11
1250.149691586
 21
1369.0
  0
LINE
  8
0
  6
CONTINUOUS
 62
     1
 10
1266.149691586
 20
1186.5
 11
1266.149691586
 21
1369.0
  0
LINE
  8
0
  6
CONTINUOUS
 62
     1
 10
1310.149691586
 20
1186.5
 11
1310.149691586
 21
1369.0
  0
LINE
  8
0
  6
CONTINUOUS
 62
     1
 10
1326.149691586
 20
1186.5
 11
1326.149691586
 21
1369.0
  0
LINE
  8
6
  6
CONTINUOUS
 62
     2
 10
1662.5
 20
1284.0
 11
1662.5
 21
1122.5
  0
LINE
  8
6
  6
CONTINUOUS
 62
     2
 10
1662.5
 20
1122.5
 11
1667.676380902
 21
1141.818516526
  0
LINE
  8
6
  6
CONTINUOUS
 62
     2
 10
1662.5
 20
1122.5
 11
1657.323619098
 21
1141.818516526
  0
LINE
  8
6
  6
CONTINUOUS
 62
     2
 10
1420.6
 20
1122.5
 11
1674.5
 21
1122.5
  0
TEXT
  8
6
  6
CONTINUOUS
 62
     2
 10
1654.5
 20
1169.25
 30
1.6
 40
24.0
  1
１６８
 50
90.0
 41
0.9
 51
0.0
  7
KANJI28
  0
LINE
  8
0
  6
CONTINUOUS
 62
     1
 10
1266.149691586
 20
1219.0
 11
1310.149691586
 21
1219.0
  0
LINE
  8
0
  6
CONTINUOUS
 62
     1
 10
582.0
 20
1389.0
 11
617.0
 21
1389.0
  0
LINE
  8
1
  6
CONTINUOUS
 62
     2
 10
806.0
 20
1348.466558854
 11
794.528561983
 21
1332.083454453
  0
LINE
  8
1
  6
CONTINUOUS
 62
     2
 10
806.0
 20
1348.466558854
 11
804.25699546
 21
1328.542655242
  0
TEXT
  8
0
  6
CONTINUOUS
 62
     2
 10
731.0
 20
1069.2
 30
0.0
 40
24.0
  1
推力リミッタ
 50
0.0
 41
0.9
 51
0.0
  7
KANJI13
  0
LINE
  8
6
  6
CONTINUOUS
 62
     2
 10
703.01036957
 20
1065.5
 11
868.5
 21
1065.5
  0
LINE
  8
1
  6
CONTINUOUS
 62
     2
 10
806.0
 20
1348.466558854
 11
703.01036957
 21
1065.5
  0
TEXT
  8
0
  6
CONTINUOUS
 62
     4
 10
162.999994954
 20
124.99999159
 30
1.599999664
 40
15.999996636
  1
ＰＡＲＴＳ　ＬＩＳＴ
 50
0.0
 41
0.6
 51
0.0
  7
KANJI29
  0
TEXT
  8
0
  6
CONTINUOUS
 62
     4
 10
522.999919262
 20
124.99999159
 30
1.599999664
 40
15.999996636
  1
Ｎ０．
 50
0.0
 41
0.6
 51
0.0
  7
KANJI29
  0
TEXT
  8
0
  6
CONTINUOUS
 62
     4
 10
162.999994954
 20
100.999996636
 30
1.919999596
 40
19.199995963
  1
部品表
 50
0.0
 41
0.9
 51
0.0
  7
KANJI30
  0
TEXT
  8
0
  6
CONTINUOUS
 62
     4
 10
522.999919262
 20
100.999996636
 30
1.919999596
 40
19.199995963
  1
項番
 50
0.0
 41
0.9
 51
0.0
  7
KANJI30
  0
TEXT
  8
0
  6
CONTINUOUS
 62
     4
 10
2357.9334008
 20
2243.9333328
 30
2.07999984
 40
20.7999984
  1
ＩＳＯ
 50
0.0
 41
0.9
 51
0.0
  7
KANJI31
  0
TEXT
  8
0
  6
CONTINUOUS
 62
     4
 10
2420.333396
 20
2243.9333328
 30
1.38666656
 40
13.8666656
  1
ＭＥＴＲＩＣ　ＳＣＲＥＷ　ＴＨＲＥＡＤ
 50
0.0
 41
0.75
 51
0.0
  7
KANJI32
  0
TEXT
  8
0
  6
CONTINUOUS
 62
     4
 10
2655.72004456
 20
2243.9333328
 30
1.38666656
 40
13.8666656
  1
ＩＳＯ
 50
0.0
 41
0.75
 51
0.0
  7
KANJI32
  0
TEXT
  8
0
  6
CONTINUOUS
 62
     4
 10
2853.32002936
 20
2243.9333328
 30
2.07999984
 40
20.7999984
  1
３
 50
0.0
 41
0.75
 51
0.0
  7
KANJI33
  0
TEXT
  8
0
  6
CONTINUOUS
 62
     4
 10
2870.65336136
 20
2243.9333328
 30
1.38666656
 40
13.8666656
  1
ＲＤ　ＡＮＧＬＥ　ＰＲＯＪＥＣＴＩＯＮ　第３角法
 50
0.0
 41
0.75
 51
0.0
  7
KANJI32
  0
TEXT
  8
0
  6
CONTINUOUS
 62
     4
 10
2693.85337496
 20
2243.9333328
 30
1.247999904
 40
12.47999904
  1
メートルネジ使用
 50
0.0
 41
0.75
 51
0.0
  7
KANJI34
  0
TEXT
  8
0
  6
CONTINUOUS
 62
     4
 10
2174.2000816
 20
234.0666552
 30
1.38666656
 40
13.8666656
  1
ＤＲＡＷＮ
 50
0.0
 41
0.6
 51
0.0
  7
KANJI35
  0
TEXT
  8
0
  6
CONTINUOUS
 62
     4
 10
2174.2000816
 20
289.5333176
 30
1.38666656
 40
13.8666656
  1
ＤＥＳＩＧＮ
 50
0.0
 41
0.6
 51
0.0
  7
KANJI35
  0
TEXT
  8
0
  6
CONTINUOUS
 62
     4
 10
2174.2000816
 20
344.99998
 30
1.38666656
 40
13.8666656
  1
ＣＨＥＣＫ
 50
0.0
 41
0.6
 51
0.0
  7
KANJI35
  0
TEXT
  8
0
  6
CONTINUOUS
 62
     4
 10
2174.2000816
 20
400.4666424
 30
1.38666656
 40
13.8666656
  1
ＣＯＤＥ
 50
0.0
 41
0.6
 51
0.0
  7
KANJI35
  0
LINE
  8
0
  6
CONTINUOUS
 62
     4
 10
2160.333416
 20
313.7999824
 11
2413.4000632
 21
313.7999824
  0
LINE
  8
0
  6
CONTINUOUS
 62
     4
 10
2160.333416
 20
258.33332
 11
2413.4000632
 21
258.33332
  0
LINE
  8
0
  6
CONTINUOUS
 62
     4
 10
2160.333416
 20
369.2666448
 11
2413.4000632
 21
369.2666448
  0
TEXT
  8
0
  6
CONTINUOUS
 62
     4
 10
2174.2000816
 20
268.7333192
 30
1.663999872
 40
16.63999872
  1
設計
 50
0.0
 41
0.6
 51
0.0
  7
KANJI36
  0
TEXT
  8
0
  6
CONTINUOUS
 62
     4
 10
2174.2000816
 20
324.1999816
 30
1.663999872
 40
16.63999872
  1
検図
 50
0.0
 41
0.6
 51
0.0
  7
KANJI36
  0
TEXT
  8
0
  6
CONTINUOUS
 62
     4
 10
2174.2000816
 20
379.666644
 30
1.663999872
 40
16.63999872
  1
分類
 50
0.0
 41
0.6
 51
0.0
  7
KANJI36
  0
LINE
  8
0
  6
CONTINUOUS
 62
     4
 10
2413.4000632
 20
258.33332
 11
3228.0666672
 21
258.33332
  0
TEXT
  8
0
  6
CONTINUOUS
 62
     4
 10
2427.2667288
 20
234.0666552
 30
1.38666656
 40
13.8666656
  1
ＤＲＡＷＩＮＧ　ＮＯ．
 50
0.0
 41
0.8
 51
0.0
  7
KANJI37
  0
TEXT
  8
0
  6
CONTINUOUS
 62
     4
 10
2427.2667288
 20
344.99998
 30
1.38666656
 40
13.8666656
  1
ＴＹＰＥ
 50
0.0
 41
0.8
 51
0.0
  7
KANJI37
  0
TEXT
  8
0
  6
CONTINUOUS
 62
     4
 10
2427.2667288
 20
209.7999904
 30
1.663999872
 40
16.63999872
  1
図　面　番　号
 50
0.0
 41
0.8
 51
0.0
  7
KANJI38
  0
TEXT
  8
0
  6
CONTINUOUS
 62
     4
 10
2427.2667288
 20
265.2666528
 30
1.663999872
 40
16.63999872
  1
製番
 50
0.0
 41
0.8
 51
0.0
  7
KANJI38
  0
TEXT
  8
0
  6
CONTINUOUS
 62
     4
 10
2427.2667288
 20
320.7333152
 30
1.663999872
 40
16.63999872
  1
機種
 50
0.0
 41
0.8
 51
0.0
  7
KANJI38
  0
LINE
  8
0
  6
CONTINUOUS
 62
     4
 10
2160.333416
 20
147.3999952
 11
2413.4000632
 21
147.3999952
  0
LINE
  8
0
  6
CONTINUOUS
 62
     4
 10
2160.333416
 20
202.8666576
 11
2413.4000632
 21
202.8666576
  0
TEXT
  8
0
  6
CONTINUOUS
 62
     4
 10
2174.2000816
 20
123.1333304
 30
1.38666656
 40
13.8666656
  1
ＳＣＡＬＥ
 50
0.0
 41
0.6
 51
0.0
  7
KANJI35
  0
TEXT
  8
0
  6
CONTINUOUS
 62
     4
 10
2174.2000816
 20
178.5999928
 30
1.38666656
 40
13.8666656
  1
ＤＡＴＥ
 50
0.0
 41
0.6
 51
0.0
  7
KANJI35
  0
TEXT
  8
0
  6
CONTINUOUS
 62
     4
 10
2174.2000816
 20
102.333332
 30
1.663999872
 40
16.63999872
  1
尺度
 50
0.0
 41
0.6
 51
0.0
  7
KANJI36
  0
TEXT
  8
0
  6
CONTINUOUS
 62
     4
 10
2174.2000816
 20
157.7999944
 30
1.663999872
 40
16.63999872
  1
日付
 50
0.0
 41
0.6
 51
0.0
  7
KANJI36
  0
TEXT
  8
0
  6
CONTINUOUS
 62
     4
 10
2174.2000816
 20
213.2666568
 30
1.663999872
 40
16.63999872
  1
作図
 50
0.0
 41
0.6
 51
0.0
  7
KANJI36
  0
LINE
  8
0
  6
CONTINUOUS
 62
     4
 10
1768.6001128
 20
91.9333328
 11
1768.6001128
 21
147.3999952
  0
LINE
  8
0
  6
CONTINUOUS
 62
     4
 10
1831.000108
 20
91.9333328
 11
1831.000108
 21
147.3999952
  0
TEXT
  8
0
  6
CONTINUOUS
 62
     4
 10
1789.4001112
 20
123.1333304
 30
1.38666656
 40
13.8666656
  1
ＢＹ
 50
0.0
 41
0.6
 51
0.0
  7
KANJI35
  0
TEXT
  8
0
  6
CONTINUOUS
 62
     4
 10
1941.9334328
 20
123.1333304
 30
1.38666656
 40
13.8666656
  1
ＤＥＳＣＲＩＰＴＩＯＮ
 50
0.0
 41
0.6
 51
0.0
  7
KANJI35
  0
TEXT
  8
0
  6
CONTINUOUS
 62
     4
 10
1789.4001112
 20
102.333332
 30
1.663999872
 40
16.63999872
  1
担当
 50
0.0
 41
0.6
 51
0.0
  7
KANJI36
  0
TEXT
  8
0
  6
CONTINUOUS
 62
     4
 10
1962.7334312
 20
102.333332
 30
1.663999872
 40
16.63999872
  1
記　　　　事
 50
0.0
 41
0.6
 51
0.0
  7
KANJI36
  0
LINE
  8
0
  6
CONTINUOUS
 62
     4
 10
1642.0667892
 20
136.999996
 11
1619.5334576
 21
102.333332
  0
TEXT
  8
0
  6
CONTINUOUS
 62
     4
 10
1699.2667848
 20
123.1333304
 30
1.38666656
 40
13.8666656
  1
ＤＡＴＥ
 50
0.0
 41
0.6
 51
0.0
  7
KANJI35
  0
TEXT
  8
0
  6
CONTINUOUS
 62
     4
 10
1709.666784
 20
102.333332
 30
1.663999872
 40
16.63999872
  1
日付
 50
0.0
 41
0.6
 51
0.0
  7
KANJI36
  0
LINE
  8
0
  6
CONTINUOUS
 62
     4
 10
1619.5334576
 20
102.333332
 11
1664.6001208
 21
102.333332
  0
LINE
  8
0
  6
CONTINUOUS
 62
     4
 10
1671.5334536
 20
91.9333328
 11
1671.5334536
 21
147.3999952
  0
LINE
  8
0
  6
CONTINUOUS
 62
     4
 10
1642.0667892
 20
136.999996
 11
1664.6001208
 21
102.333332
  0
LINE
  8
0
  6
CONTINUOUS
 62
     4
 10
2413.4000632
 20
178.5999928
 11
3228.0666672
 21
178.5999928
  0
LINE
  8
0
  6
CONTINUOUS
 62
     4
 10
2413.4000632
 20
91.9333328
 11
2413.4000632
 21
424.7333072
  0
LINE
  8
0
  6
LTYPE3
 62
     4
 10
2995.8000184
 20
188.999992
 11
2995.8000184
 21
244.4666544
  0
LINE
  8
0
  6
LTYPE3
 62
     4
 10
2947.2666888
 20
188.999992
 11
2947.2666888
 21
244.4666544
  0
LINE
  8
0
  6
LTYPE3
 62
     4
 10
2898.7333592
 20
188.999992
 11
2898.7333592
 21
244.4666544
  0
LINE
  8
0
  6
LTYPE3
 62
     4
 10
2850.2000296
 20
188.999992
 11
2850.2000296
 21
244.4666544
  0
LINE
  8
0
  6
LTYPE3
 62
     4
 10
2801.6667
 20
188.999992
 11
2801.6667
 21
244.4666544
  0
LINE
  8
0
  6
LTYPE3
 62
     4
 10
2753.1333704
 20
188.999992
 11
2753.1333704
 21
244.4666544
  0
LINE
  8
0
  6
LTYPE3
 62
     4
 10
2704.6000408
 20
188.999992
 11
2704.6000408
 21
244.4666544
  0
LINE
  8
0
  6
LTYPE3
 62
     4
 10
2656.0667112
 20
188.999992
 11
2656.0667112
 21
244.4666544
  0
LINE
  8
0
  6
LTYPE3
 62
     4
 10
2656.0667112
 20
244.4666544
 11
2995.8000184
 21
244.4666544
  0
LINE
  8
0
  6
LTYPE3
 62
     4
 10
2656.0667112
 20
188.999992
 11
2995.8000184
 21
188.999992
  0
LINE
  8
0
  6
CONTINUOUS
 62
     4
 10
3023.5333496
 20
218.4666564
 11
3037.4000152
 21
218.4666564
  0
LINE
  8
0
  6
CONTINUOUS
 62
     4
 10
3110.2000096
 20
197.666658
 11
3061.66668
 21
197.666658
  0
LINE
  8
0
  6
CONTINUOUS
 62
     4
 10
3061.66668
 20
197.666658
 11
3085.9333448
 21
239.2666548
  0
LINE
  8
0
  6
CONTINUOUS
 62
     4
 10
3085.9333448
 20
239.2666548
 11
3110.2000096
 21
197.666658
  0
LINE
  8
0
  6
CONTINUOUS
 62
     4
 10
3228.0666672
 20
480.1999696
 11
3228.0666672
 21
535.666632
  0
TEXT
  8
0
  6
CONTINUOUS
 62
     4
 10
3117.1333424
 20
15.666672
 30
6.9333328
 40
69.333328
  1
／
 50
0.0
 41
0.9
 51
0.0
  7
KANJI39
  0
TEXT
  8
0
  6
CONTINUOUS
 62
     4
 10
2773.9333688
 20
344.99998
 30
1.38666656
 40
13.8666656
  1
ＴＩＴＬＥ
 50
0.0
 41
0.8
 51
0.0
  7
KANJI37
  0
TEXT
  8
0
  6
CONTINUOUS
 62
     4
 10
2773.9333688
 20
320.7333152
 30
1.663999872
 40
16.63999872
  1
名称
 50
0.0
 41
0.8
 51
0.0
  7
KANJI38
  0
LINE
  8
0
  6
CONTINUOUS
 62
     6
 10
139.0
 20
85.0
 11
139.0
 21
2237.0
  0
LINE
  8
0
  6
CONTINUOUS
 62
     6
 10
139.0
 20
2237.0
 11
3235.0
 21
2237.0
  0
LINE
  8
0
  6
CONTINUOUS
 62
     6
 10
3235.0
 20
2237.0
 11
3235.0
 21
85.0
  0
LINE
  8
0
  6
CONTINUOUS
 62
     6
 10
3235.0
 20
85.0
 11
139.0
 21
85.0
  0
LINE
  8
0
  6
CONTINUOUS
 62
     6
 10
666.999888985
 20
92.999998318
 11
666.999888985
 21
204.999974769
  0
LINE
  8
0
  6
CONTINUOUS
 62
     6
 10
146.999998318
 20
204.999974769
 11
666.999888985
 21
204.999974769
  0
LINE
  8
0
  6
CONTINUOUS
 62
     6
 10
146.999998318
 20
92.999998318
 11
666.999888985
 21
92.999998318
  0
LINE
  8
0
  6
CONTINUOUS
 62
     6
 10
146.999998318
 20
92.999998318
 11
146.999998318
 21
204.999974769
  0
LINE
  8
0
  6
CONTINUOUS
 62
     6
 10
506.999922626
 20
92.999998318
 11
506.999922626
 21
204.999974769
  0
LINE
  8
0
  6
CONTINUOUS
 62
     6
 10
146.999998318
 20
148.999986544
 11
666.999888985
 21
148.999986544
  0
TEXT
  8
0
  6
CONTINUOUS
 62
     3
 10
162.999994954
 20
164.999983179
 30
2.399999495
 40
23.999994954
  1
ＰＬ
 50
0.0
 41
0.9
 51
0.0
  7
KANJI40
  0
LINE
  8
0
  6
CONTINUOUS
 62
     6
 10
1612.6001248
 20
91.9333328
 11
1612.6001248
 21
147.3999952
  0
LINE
  8
0
  6
CONTINUOUS
 62
     6
 10
1612.6001248
 20
147.3999952
 11
2160.333416
 21
147.3999952
  0
LINE
  8
0
  6
CONTINUOUS
 62
     6
 10
1612.6001248
 20
91.9333328
 11
3228.0666672
 21
91.9333328
  0
LINE
  8
0
  6
CONTINUOUS
 62
     6
 10
2705.20670742
 20
128.67999664
 11
2682.32670918
 21
128.67999664
  0
LINE
  8
0
  6
CONTINUOUS
 62
     6
 10
2705.20670742
 20
132.83999632
 11
2682.32670918
 21
132.83999632
  0
LINE
  8
0
  6
CONTINUOUS
 62
     6
 10
2705.20670742
 20
128.67999664
 11
2728.08670566
 21
128.67999664
  0
LINE
  8
0
  6
CONTINUOUS
 62
     6
 10
2705.20670742
 20
132.83999632
 11
2728.08670566
 21
132.83999632
  0
LINE
  8
0
  6
CONTINUOUS
 62
     6
 10
2728.08670566
 20
132.83999632
 11
2728.08670566
 21
128.67999664
  0
ARC
  8
0
  6
CONTINUOUS
 62
     6
 10
2733.28670526
 20
130.75999648
 40
20.7999984
 50
185.739170477
 51
90.0
  0
ARC
  8
0
  6
CONTINUOUS
 62
     6
 10
2733.28670526
 20
130.75999648
 40
24.95999808
 50
184.780191847
 51
90.0
  0
LINE
  8
0
  6
CONTINUOUS
 62
     6
 10
2682.32670918
 20
128.67999664
 11
2682.32670918
 21
132.83999632
  0
TEXT
  8
0
  6
CONTINUOUS
 62
     6
 10
2420.333396
 20
123.1333304
 30
0.0
 40
24.2666648
  1
ＵＮＩＴＥＣ　ＩＮＤＵＳＴＲＹ　ＣＯ．，ＬＴＤ．
 50
0.0
 41
0.42031746
 51
0.0
  7
KANJI41
  0
LINE
  8
0
  6
CONTINUOUS
 62
     6
 10
2702.08670766
 20
155.71999456
 11
2677.12670958
 21
155.71999456
  0
LINE
  8
0
  6
CONTINUOUS
 62
     6
 10
2708.32670718
 20
155.71999456
 11
2733.28670526
 21
155.71999456
  0
ARC
  8
0
  6
CONTINUOUS
 62
     6
 10
2677.12670958
 20
130.75999648
 40
20.7999984
 50
90.0
 51
354.260829523
  0
ARC
  8
0
  6
CONTINUOUS
 62
     6
 10
2677.12670958
 20
130.75999648
 40
24.95999808
 50
90.0
 51
355.219808153
  0
LINE
  8
0
  6
CONTINUOUS
 62
     6
 10
2702.08670766
 20
155.71999456
 11
2702.08670766
 21
151.55999488
  0
LINE
  8
0
  6
CONTINUOUS
 62
     6
 10
2677.12670958
 20
151.55999488
 11
2702.08670766
 21
151.55999488
  0
LINE
  8
0
  6
CONTINUOUS
 62
     6
 10
2708.32670718
 20
155.71999456
 11
2708.32670718
 21
151.55999488
  0
LINE
  8
0
  6
CONTINUOUS
 62
     6
 10
2733.28670526
 20
151.55999488
 11
2708.32670718
 21
151.55999488
  0
TEXT
  8
0
  6
CONTINUOUS
 62
     6
 10
2760.67336982
 20
114.11999776
 30
4.15999968
 40
41.5999968
  1
ユニテック工業株式会社
 50
0.0
 41
0.9
 51
0.0
  7
KANJI42
  0
TEXT
  8
0
  6
CONTINUOUS
 62
     3
 10
2279.0
 20
101.0
 30
2.4
 40
36.0
  1
１／８
 50
0.0
 41
0.666666667
 51
0.0
  7
KANJI43
  0
TEXT
  8
0
  6
CONTINUOUS
 62
     3
 10
2897.0
 20
269.0
 30
20.0
 40
40.0
  1
外形寸法図
 50
0.0
 41
1.0
 51
0.0
  7
KANJI44
  0
TEXT
  8
0
  6
CONTINUOUS
 62
     3
 10
2849.0
 20
317.0
 30
5.714285714
 40
40.0
  1
マイティシリンダ
 50
0.0
 41
1.0
 51
0.0
  7
KANJI45
  0
LINE
  8
6
  6
CONTINUOUS
 62
     2
 10
1728.500190206
 20
1336.5
 11
1723.323809304
 21
1317.181483474
  0
LINE
  8
6
  6
CONTINUOUS
 62
     2
 10
1728.500190206
 20
1336.5
 11
1733.676571108
 21
1317.181483474
  0
LINE
  8
6
  6
CONTINUOUS
 62
     2
 10
1728.500190206
 20
1336.5
 11
1728.500190206
 21
1241.5
  0
LINE
  8
6
  6
CONTINUOUS
 62
     2
 10
1728.500190206
 20
1241.5
 11
1733.676571108
 21
1260.818516526
  0
LINE
  8
6
  6
CONTINUOUS
 62
     2
 10
1728.500190206
 20
1241.5
 11
1723.323809304
 21
1260.818516526
  0
TEXT
  8
6
  6
CONTINUOUS
 62
     2
 10
1720.500190206
 20
1254.2
 30
2.4
 40
24.0
  1
φ９５
 50
90.0
 41
0.9
 51
0.0
  7
KANJI0
  0
LINE
  8
6
  6
CONTINUOUS
 62
     2
 10
1619.500190206
 20
1241.5
 11
1740.500190206
 21
1241.5
  0
LINE
  8
6
  6
CONTINUOUS
 62
     2
 10
1618.500190206
 20
1336.5
 11
1740.500190206
 21
1336.5
  0
TEXT
  8
0
  6
CONTINUOUS
 62
     2
 10
3003.8
 20
1480.2
 30
2.4
 40
24.0
  1
　　　／　
 50
0.0
 41
0.9
 51
0.0
  7
KANJI1
  0
TEXT
  8
0
  6
CONTINUOUS
 62
     2
 10
2997.0
 20
1374.0
 30
2.4
 40
24.0
  1
　　　／
 50
0.0
 41
0.9
 51
0.0
  7
KANJI1
  0
TEXT
  8
0
  6
CONTINUOUS
 62
     2
 10
1088.2
 20
611.0
 30
2.4
 40
24.0
  1
１１０５
 50
0.0
 41
0.9
 51
0.0
  7
KANJI1
  0
TEXT
  8
0
  6
CONTINUOUS
 62
     2
 10
1273.0
 20
612.6
 30
2.4
 40
24.0
  1
８８０
 50
0.0
 41
0.9
 51
0.0
  7
KANJI1
  0
TEXT
  8
0
  6
CONTINUOUS
 62
     2
 10
931.5
 20
442.4
 30
2.4
 40
24.0
  1
１０００
 50
0.0
 41
0.9
 51
0.0
  7
KANJI1
  0
TEXT
  8
0
  6
CONTINUOUS
 62
     2
 10
1408.6
 20
446.0
 30
2.4
 40
24.0
  1
１４７０
 50
0.0
 41
0.9
 51
0.0
  7
KANJI1
  0
TEXT
  8
0
  6
CONTINUOUS
 62
     2
 10
955.0
 20
498.4
 30
2.4
 40
24.0
  1
７００
 50
0.0
 41
0.9
 51
0.0
  7
KANJI1
  0
TEXT
  8
0
  6
CONTINUOUS
 62
     2
 10
1407.6
 20
502.0
 30
2.4
 40
24.0
  1
１１７０
 50
0.0
 41
0.9
 51
0.0
  7
KANJI1
  0
TEXT
  8
0
  6
CONTINUOUS
 62
     2
 10
2947.8
 20
1815.2
 30
2.4
 40
24.0
  1
１２．５／１５
 50
0.0
 41
0.9
 51
0.0
  7
KANJI1
  0
TEXT
  8
0
  6
CONTINUOUS
 62
     2
 10
2972.8
 20
1537.2
 30
2.4
 40
24.0
  1
１．５
 50
0.0
 41
0.9
 51
0.0
  7
KANJI1
  0
TEXT
  8
0
  6
CONTINUOUS
 62
     2
 10
1175.275240468
 20
1956.133058
 30
2.79993
 40
27.9993
  1
注意：サーマルリレー等の選定は、上記の値を参照下さい。
 50
0.0
 41
0.9
 51
0.0
  7
KANJI46
  0
LINE
  8
0
  6
CONTINUOUS
 62
     2
 10
1159.275640468
 20
1948.133258
 11
1911.256840468
 21
1948.133258
  0
LINE
  8
0
  6
CONTINUOUS
 62
     1
 10
1945.85602
 20
2209.793375
 11
1945.85602
 21
2001.798575
  0
LINE
  8
0
  6
CONTINUOUS
 62
     2
 10
1825.85902
 20
2209.793375
 11
1825.85902
 21
2001.798575
  0
LINE
  8
0
  6
CONTINUOUS
 62
     2
 10
1705.86202
 20
2209.793375
 11
1705.86202
 21
2001.798575
  0
LINE
  8
0
  6
CONTINUOUS
 62
     1
 10
1545.86602
 20
2209.793375
 11
1545.86602
 21
2001.798575
  0
LINE
  8
0
  6
CONTINUOUS
 62
     1
 10
1545.86602
 20
2209.793375
 11
1945.85602
 21
2209.793375
  0
LINE
  8
0
  6
CONTINUOUS
 62
     1
 10
1545.86602
 20
2145.794975
 11
1945.85602
 21
2145.794975
  0
LINE
  8
0
  6
CONTINUOUS
 62
     2
 10
1545.86602
 20
2097.796175
 11
1945.85602
 21
2097.796175
  0
LINE
  8
0
  6
CONTINUOUS
 62
     2
 10
1545.86602
 20
2049.797375
 11
1945.85602
 21
2049.797375
  0
LINE
  8
0
  6
CONTINUOUS
 62
     1
 10
1545.86602
 20
2001.798575
 11
1945.85602
 21
2001.798575
  0
TEXT
  8
0
  6
CONTINUOUS
 62
     2
 10
1841.85862
 20
2181.794075
 30
2.39994
 40
23.9994
  1
起動電流
 50
0.0
 41
0.9
 51
0.0
  7
KANJI47
  0
TEXT
  8
0
  6
CONTINUOUS
 62
     2
 10
1841.85862
 20
2153.794775
 30
2.39994
 40
23.9994
  1
　　　Ａ
 50
0.0
 41
0.9
 51
0.0
  7
KANJI47
  0
TEXT
  8
0
  6
CONTINUOUS
 62
     2
 10
1721.86162
 20
2181.794075
 30
2.39994
 40
23.9994
  1
定格電流
 50
0.0
 41
0.9
 51
0.0
  7
KANJI47
  0
TEXT
  8
0
  6
CONTINUOUS
 62
     2
 10
1721.86162
 20
2153.794775
 30
2.39994
 40
23.9994
  1
　　　Ａ
 50
0.0
 41
0.9
 51
0.0
  7
KANJI47
  0
TEXT
  8
0
  6
CONTINUOUS
 62
     2
 10
1559.46568
 20
2181.794075
 30
2.39994
 40
23.9994
  1
電圧／周波数
 50
0.0
 41
0.9
 51
0.0
  7
KANJI47
  0
TEXT
  8
0
  6
CONTINUOUS
 62
     2
 10
1559.46568
 20
2153.794775
 30
2.39994
 40
23.9994
  1
　Ｖ／Ｈｚ
 50
0.0
 41
0.9
 51
0.0
  7
KANJI47
  0
LINE
  8
0
  6
CONTINUOUS
 62
     1
 10
1465.86802
 20
2209.793375
 11
1465.86802
 21
2001.798575
  0
LINE
  8
0
  6
CONTINUOUS
 62
     2
 10
1345.87102
 20
2209.793375
 11
1345.87102
 21
2001.798575
  0
LINE
  8
0
  6
CONTINUOUS
 62
     2
 10
1225.87402
 20
2209.793375
 11
1225.87402
 21
2001.798575
  0
LINE
  8
0
  6
CONTINUOUS
 62
     1
 10
1065.87802
 20
2209.793375
 11
1065.87802
 21
2001.798575
  0
LINE
  8
0
  6
CONTINUOUS
 62
     1
 10
1065.87802
 20
2209.793375
 11
1465.86802
 21
2209.793375
  0
LINE
  8
0
  6
CONTINUOUS
 62
     1
 10
1065.87802
 20
2145.794975
 11
1465.86802
 21
2145.794975
  0
LINE
  8
0
  6
CONTINUOUS
 62
     2
 10
1065.87802
 20
2097.796175
 11
1465.86802
 21
2097.796175
  0
LINE
  8
0
  6
CONTINUOUS
 62
     2
 10
1065.87802
 20
2049.797375
 11
1465.86802
 21
2049.797375
  0
LINE
  8
0
  6
CONTINUOUS
 62
     1
 10
1065.87802
 20
2001.798575
 11
1465.86802
 21
2001.798575
  0
TEXT
  8
0
  6
CONTINUOUS
 62
     2
 10
1361.87062
 20
2181.794075
 30
2.39994
 40
23.9994
  1
起動電流
 50
0.0
 41
0.9
 51
0.0
  7
KANJI47
  0
TEXT
  8
0
  6
CONTINUOUS
 62
     2
 10
1361.87062
 20
2153.794775
 30
2.39994
 40
23.9994
  1
　　　Ａ
 50
0.0
 41
0.9
 51
0.0
  7
KANJI47
  0
TEXT
  8
0
  6
CONTINUOUS
 62
     2
 10
1241.87362
 20
2181.794075
 30
2.39994
 40
23.9994
  1
定格電流
 50
0.0
 41
0.9
 51
0.0
  7
KANJI47
  0
TEXT
  8
0
  6
CONTINUOUS
 62
     2
 10
1241.87362
 20
2153.794775
 30
2.39994
 40
23.9994
  1
　　　Ａ
 50
0.0
 41
0.9
 51
0.0
  7
KANJI47
  0
TEXT
  8
0
  6
CONTINUOUS
 62
     2
 10
1079.47768
 20
2181.794075
 30
2.39994
 40
23.9994
  1
電圧／周波数
 50
0.0
 41
0.9
 51
0.0
  7
KANJI47
  0
TEXT
  8
0
  6
CONTINUOUS
 62
     2
 10
1079.47768
 20
2153.794775
 30
2.39994
 40
23.9994
  1
　Ｖ／Ｈｚ
 50
0.0
 41
0.9
 51
0.0
  7
KANJI47
  0
LINE
  8
0
  6
CONTINUOUS
 62
     1
 10
765.0
 20
1418.944375069
 11
755.0
 21
1408.944375069
  0
LINE
  8
0
  6
CONTINUOUS
 62
     1
 10
755.0
 20
1350.305778818
 11
755.0
 21
1408.944375069
  0
ARC
  8
0
  6
CONTINUOUS
 62
     1
 10
753.0
 20
1419.466558854
 40
3.0
 50
90.0
 51
180.0
  0
LINE
  8
0
  6
CONTINUOUS
 62
     1
 10
765.0
 20
1418.944375069
 11
863.0
 21
1418.944375069
  0
LINE
  8
0
  6
CONTINUOUS
 62
     1
 10
753.0
 20
1422.466558854
 11
875.0
 21
1422.466558854
  0
LINE
  8
0
  6
CONTINUOUS
 62
     1
 10
750.0
 20
1289.0
 11
750.0
 21
1419.0
  0
LINE
  8
0
  6
CONTINUOUS
 62
     1
 10
873.0
 20
1350.305778818
 11
873.0
 21
1408.944375069
  0
LINE
  8
0
  6
CONTINUOUS
 62
     1
 10
878.0
 20
1307.657620342
 11
878.0
 21
1419.466558854
  0
LINE
  8
0
  6
CONTINUOUS
 62
     1
 10
873.0
 20
1408.944375069
 11
863.0
 21
1418.944375069
  0
ARC
  8
0
  6
CONTINUOUS
 62
     1
 10
875.0
 20
1419.466558854
 40
3.0
 50
0.0
 51
90.0
  0
TEXT
  8
0
  6
CONTINUOUS
 62
     2
 10
1079.47768
 20
2109.795875
 30
2.39994
 40
23.9994
  1
２００／５０
 50
0.0
 41
0.9
 51
0.0
  7
KANJI47
  0
TEXT
  8
0
  6
CONTINUOUS
 62
     2
 10
1079.47768
 20
2061.797075
 30
2.39994
 40
23.9994
  1
２００／６０
 50
0.0
 41
0.9
 51
0.0
  7
KANJI47
  0
TEXT
  8
0
  6
CONTINUOUS
 62
     2
 10
1079.47768
 20
2013.798275
 30
2.39994
 40
23.9994
  1
２２０／６０
 50
0.0
 41
0.9
 51
0.0
  7
KANJI47
  0
TEXT
  8
0
  6
CONTINUOUS
 62
     2
 10
1559.46568
 20
2109.795875
 30
2.39994
 40
23.9994
  1
４００／５０
 50
0.0
 41
0.9
 51
0.0
  7
KANJI47
  0
TEXT
  8
0
  6
CONTINUOUS
 62
     2
 10
1559.46568
 20
2061.797075
 30
2.39994
 40
23.9994
  1
４００／６０
 50
0.0
 41
0.9
 51
0.0
  7
KANJI47
  0
TEXT
  8
0
  6
CONTINUOUS
 62
     2
 10
1559.46568
 20
2013.798275
 30
2.39994
 40
23.9994
  1
４４０／６０
 50
0.0
 41
0.9
 51
0.0
  7
KANJI47
  0
TEXT
  8
0
  6
CONTINUOUS
 62
     2
 10
1361.87062
 20
2109.795875
 30
2.39994
 40
23.9994
  1
４４．０
 50
0.0
 41
0.9
 51
0.0
  7
KANJI47
  0
TEXT
  8
0
  6
CONTINUOUS
 62
     2
 10
1241.87362
 20
2109.795875
 30
2.39994
 40
23.9994
  1
　６．８
 50
0.0
 41
0.9
 51
0.0
  7
KANJI47
  0
TEXT
  8
0
  6
CONTINUOUS
 62
     2
 10
1241.87362
 20
2061.797075
 30
2.39994
 40
23.9994
  1
　６．３
 50
0.0
 41
0.9
 51
0.0
  7
KANJI47
  0
TEXT
  8
0
  6
CONTINUOUS
 62
     2
 10
1241.87362
 20
2013.798275
 30
2.39994
 40
23.9994
  1
　６．０
 50
0.0
 41
0.9
 51
0.0
  7
KANJI47
  0
TEXT
  8
0
  6
CONTINUOUS
 62
     2
 10
1721.86162
 20
2109.795875
 30
2.39994
 40
23.9994
  1
　３．４
 50
0.0
 41
0.9
 51
0.0
  7
KANJI47
  0
TEXT
  8
0
  6
CONTINUOUS
 62
     2
 10
1721.86162
 20
2061.797075
 30
2.39994
 40
23.9994
  1
　３．２
 50
0.0
 41
0.9
 51
0.0
  7
KANJI47
  0
TEXT
  8
0
  6
CONTINUOUS
 62
     2
 10
1721.86162
 20
2013.798275
 30
2.39994
 40
23.9994
  1
　３．０
 50
0.0
 41
0.9
 51
0.0
  7
KANJI47
  0
TEXT
  8
0
  6
CONTINUOUS
 62
     2
 10
1361.87062
 20
2061.797075
 30
2.39994
 40
23.9994
  1
３８．０
 50
0.0
 41
0.9
 51
0.0
  7
KANJI47
  0
TEXT
  8
0
  6
CONTINUOUS
 62
     2
 10
1361.87062
 20
2013.798275
 30
2.39994
 40
23.9994
  1
４１．８
 50
0.0
 41
0.9
 51
0.0
  7
KANJI47
  0
TEXT
  8
0
  6
CONTINUOUS
 62
     2
 10
1841.85862
 20
2109.795875
 30
2.39994
 40
23.9994
  1
２２．０
 50
0.0
 41
0.9
 51
0.0
  7
KANJI47
  0
TEXT
  8
0
  6
CONTINUOUS
 62
     2
 10
1840.992019532
 20
2058.130492
 30
2.39994
 40
23.9994
  1
１９．０
 50
0.0
 41
0.9
 51
0.0
  7
KANJI47
  0
TEXT
  8
0
  6
CONTINUOUS
 62
     2
 10
1842.991969532
 20
2012.798292
 30
2.39994
 40
23.9994
  1
２０．９
 50
0.0
 41
0.9
 51
0.0
  7
KANJI47
  0
LINE
  8
0
  6
CONTINUOUS
 62
     1
 10
444.0
 20
1154.0
 11
444.0
 21
1398.0
  0
LINE
  8
0
  6
CONTINUOUS
 62
     1
 10
427.0
 20
1154.0
 11
427.0
 21
1398.0
  0
LINE
  8
0
  6
CONTINUOUS
 62
     1
 10
582.0
 20
1393.15
 11
582.0
 21
1398.0
  0
LINE
  8
0
  6
CONTINUOUS
 62
     1
 10
582.0
 20
1395.0
 11
582.0
 21
1398.0
  0
LINE
  8
0
  6
CONTINUOUS
 62
     1
 10
582.0
 20
1395.0
 11
582.0
 21
1398.0
  0
LINE
  8
0
  6
LTYPE1
 62
     2
 10
460.0
 20
1394.0
 11
403.0
 21
1394.0
  0
LINE
  8
0
  6
CONTINUOUS
 62
     1
 10
418.9789
 20
1402.26802
 11
420.527076294
 21
1404.94954
  0
LINE
  8
0
  6
CONTINUOUS
 62
     1
 10
418.9789
 20
1394.0
 11
418.9789
 21
1402.26802
  0
LINE
  8
0
  6
CONTINUOUS
 62
     1
 10
418.9789
 20
1385.73198
 11
420.527076294
 21
1383.05046
  0
LINE
  8
0
  6
CONTINUOUS
 62
     1
 10
418.9789
 20
1394.0
 11
418.9789
 21
1385.73198
  0
ARC
  8
0
  6
CONTINUOUS
 62
     1
 10
429.433121693
 20
1394.0
 40
10.454221693
 50
148.419912243
 51
211.580087757
  0
ARC
  8
0
  6
CONTINUOUS
 62
     1
 10
422.172013606
 20
1402.212155
 40
3.193602261
 50
177.010501597
 51
238.997686085
  0
LINE
  8
0
  6
CONTINUOUS
 62
     1
 10
418.9789
 20
1385.73198
 11
420.527076294
 21
1383.05046
  0
ARC
  8
0
  6
CONTINUOUS
 62
     1
 10
422.172013606
 20
1385.787845
 40
3.193602261
 50
121.002313915
 51
182.989498403
  0
LINE
  8
0
  6
CONTINUOUS
 62
     1
 10
427.0
 20
1404.94954
 11
420.527076294
 21
1404.94954
  0
LINE
  8
0
  6
CONTINUOUS
 62
     1
 10
427.0
 20
1399.47477
 11
420.527076294
 21
1399.47477
  0
LINE
  8
0
  6
CONTINUOUS
 62
     1
 10
427.0
 20
1388.52523
 11
420.527076294
 21
1388.52523
  0
LINE
  8
0
  6
CONTINUOUS
 62
     1
 10
427.0
 20
1383.05046
 11
420.527076294
 21
1383.05046
  0
LINE
  8
0
  6
LTYPE3
 62
     2
 10
2209.8
 20
1264.5
 11
2209.8
 21
1309.5
  0
LINE
  8
0
  6
LTYPE3
 62
     2
 10
2209.8
 20
1309.5
 11
2259.8
 21
1309.5
  0
LINE
  8
0
  6
LTYPE3
 62
     2
 10
2209.8
 20
1264.5
 11
2259.8
 21
1264.5
  0
LINE
  8
0
  6
LTYPE1
 62
     2
 10
1944.3
 20
1287.0
 11
2283.8
 21
1287.0
  0
ARC
  8
0
  6
CONTINUOUS
 62
     1
 10
2001.8
 20
1164.0
 40
12.0
 50
180.0
 51
270.0
  0
ARC
  8
0
  6
CONTINUOUS
 62
     1
 10
2237.8
 20
1164.0
 40
12.0
 50
270.0
 51
0.0
  0
LINE
  8
0
  6
LTYPE3
 62
     2
 10
2029.8
 20
1264.5
 11
2029.8
 21
1309.5
  0
LINE
  8
0
  6
LTYPE3
 62
     2
 10
2029.8
 20
1309.5
 11
1979.8
 21
1309.5
  0
LINE
  8
0
  6
LTYPE3
 62
     2
 10
2029.8
 20
1264.5
 11
1979.8
 21
1264.5
  0
LINE
  8
0
  6
CONTINUOUS
 62
     2
 10
1989.8
 20
1152.0
 11
1989.8
 21
1030.7
  0
LINE
  8
0
  6
CONTINUOUS
 62
     2
 10
1989.8
 20
1042.7
 11
2009.118516526
 21
1037.523619098
  0
LINE
  8
0
  6
CONTINUOUS
 62
     2
 10
1989.8
 20
1042.7
 11
2009.118516526
 21
1047.876380902
  0
LINE
  8
0
  6
CONTINUOUS
 62
     2
 10
1989.8
 20
1042.7
 11
2249.8
 21
1042.7
  0
LINE
  8
0
  6
CONTINUOUS
 62
     2
 10
2249.8
 20
1042.7
 11
2230.481483474
 21
1047.876380902
  0
LINE
  8
0
  6
CONTINUOUS
 62
     2
 10
2249.8
 20
1042.7
 11
2230.481483474
 21
1037.523619098
  0
LINE
  8
0
  6
CONTINUOUS
 62
     2
 10
2249.8
 20
1152.0
 11
2249.8
 21
1030.7
  0
TEXT
  8
0
  6
CONTINUOUS
 62
     2
 10
2085.8
 20
1050.7
 30
1.6
 40
24.0
  1
２６０
 50
0.0
 41
0.9
 51
0.0
  7
KANJI28
  0
LINE
  8
0
  6
CONTINUOUS
 62
     2
 10
1979.8
 20
1230.0
 11
1979.8
 21
935.7
  0
LINE
  8
0
  6
CONTINUOUS
 62
     2
 10
1979.8
 20
947.7
 11
1999.118516526
 21
942.523619098
  0
LINE
  8
0
  6
CONTINUOUS
 62
     2
 10
1979.8
 20
947.7
 11
1999.118516526
 21
952.876380902
  0
LINE
  8
0
  6
CONTINUOUS
 62
     2
 10
1979.8
 20
947.7
 11
2259.8
 21
947.7
  0
LINE
  8
0
  6
CONTINUOUS
 62
     2
 10
2259.8
 20
947.7
 11
2240.481483474
 21
952.876380902
  0
LINE
  8
0
  6
CONTINUOUS
 62
     2
 10
2259.8
 20
947.7
 11
2240.481483474
 21
942.523619098
  0
LINE
  8
0
  6
CONTINUOUS
 62
     2
 10
2259.8
 20
1230.0
 11
2259.8
 21
935.7
  0
TEXT
  8
0
  6
CONTINUOUS
 62
     2
 10
2085.8
 20
955.7
 30
1.6
 40
24.0
  1
２８０
 50
0.0
 41
0.9
 51
0.0
  7
KANJI28
  0
LINE
  8
0
  6
CONTINUOUS
 62
     1
 10
1989.8
 20
1164.0
 11
1989.8
 21
1241.125113365
  0
LINE
  8
0
  6
CONTINUOUS
 62
     1
 10
2249.8
 20
1164.0
 11
2249.8
 21
1241.125113365
  0
LINE
  8
0
  6
CONTINUOUS
 62
     1
 10
2041.8
 20
1148.0
 11
2041.8
 21
1148.1
  0
LINE
  8
0
  6
CONTINUOUS
 62
     1
 10
2157.8
 20
1148.0
 11
2157.8
 21
1148.1
  0
LINE
  8
1
  6
CONTINUOUS
 62
     2
 10
2245.800043158
 20
1152.0
 11
2358.307300983
 21
1152.0
  0
LINE
  8
1
  6
CONTINUOUS
 62
     2
 10
2342.307300983
 20
1152.0
 11
2347.483681885
 21
1171.318516526
  0
LINE
  8
1
  6
CONTINUOUS
 62
     2
 10
2342.307300983
 20
1152.0
 11
2337.130920081
 21
1171.318516526
  0
LINE
  8
1
  6
CONTINUOUS
 62
     2
 10
2342.307300983
 20
1152.0
 11
2342.307300983
 21
1287.0
  0
LINE
  8
1
  6
CONTINUOUS
 62
     2
 10
2342.307300983
 20
1287.0
 11
2337.130920081
 21
1267.681483474
  0
LINE
  8
1
  6
CONTINUOUS
 62
     2
 10
2342.307300983
 20
1287.0
 11
2347.483681885
 21
1267.681483474
  0
LINE
  8
1
  6
CONTINUOUS
 62
     2
 10
2267.8
 20
1287.0
 11
2358.307300983
 21
1287.0
  0
TEXT
  8
1
  6
CONTINUOUS
 62
     2
 10
2334.307300983
 20
1178.7
 30
2.4
 40
28.0
  1
１３５
 50
90.0
 41
0.914285714
 51
0.0
  7
KANJI48
  0
LINE
  8
1
  6
CONTINUOUS
 62
     2
 10
1971.8
 20
1309.5
 11
1871.0
 21
1309.5
  0
LINE
  8
1
  6
CONTINUOUS
 62
     2
 10
1887.0
 20
1309.5
 11
1892.176380902
 21
1328.818516526
  0
LINE
  8
1
  6
CONTINUOUS
 62
     2
 10
1887.0
 20
1309.5
 11
1881.823619098
 21
1328.818516526
  0
LINE
  8
1
  6
CONTINUOUS
 62
     2
 10
1887.0
 20
1309.5
 11
1887.0
 21
1264.5
  0
LINE
  8
1
  6
CONTINUOUS
 62
     2
 10
1887.0
 20
1264.5
 11
1881.823619098
 21
1245.181483474
  0
LINE
  8
1
  6
CONTINUOUS
 62
     2
 10
1887.0
 20
1264.5
 11
1892.176380902
 21
1245.181483474
  0
LINE
  8
1
  6
CONTINUOUS
 62
     2
 10
1971.8
 20
1264.5
 11
1871.0
 21
1264.5
  0
LINE
  8
0
  6
CONTINUOUS
 62
     6
 10
3228.0666672
 20
91.9333328
 11
3228.0666672
 21
535.666632
  0
LINE
  8
0
  6
CONTINUOUS
 62
     1
 10
1420.0
 20
1289.0
 11
1420.0
 21
1359.0
  0
LINE
  8
0
  6
CONTINUOUS
 62
     1
 10
1385.0
 20
1289.0
 11
1385.0
 21
1359.0
  0
LINE
  8
0
  6
CONTINUOUS
 62
     1
 10
1326.149691586
 20
1359.0
 11
1420.0
 21
1359.0
  0
LINE
  8
0
  6
CONTINUOUS
 62
     1
 10
1470.0
 20
1336.5
 11
1610.000190206
 21
1336.5
  0
LINE
  8
0
  6
CONTINUOUS
 62
     1
 10
1420.0
 20
1336.5
 11
1454.0
 21
1336.5
  0
LINE
  8
0
  6
CONTINUOUS
 62
     1
 10
1470.000190206
 20
1241.5
 11
1610.000190206
 21
1241.5
  0
LINE
  8
0
  6
CONTINUOUS
 62
     1
 10
1420.0
 20
1241.5
 11
1453.999190206
 21
1241.5
  0
LINE
  8
0
  6
CONTINUOUS
 62
     1
 10
1470.0
 20
1661.5
 11
1480.0
 21
1661.5
  0
LINE
  8
0
  6
CONTINUOUS
 62
     1
 10
1378.000190206
 20
1661.5
 11
1454.0
 21
1661.5
  0
LINE
  8
0
  6
CONTINUOUS
 62
     1
 10
1470.0
 20
1566.5
 11
1480.0
 21
1566.5
  0
LINE
  8
0
  6
CONTINUOUS
 62
     1
 10
1381.000190206
 20
1566.5
 11
1454.000190206
 21
1566.5
  0
TEXT
  8
0
  6
CONTINUOUS
 62
     2
 10
653.0
 20
441.8
 30
1.6
 40
24.0
  1
ＭＣＬＥ８－　１０Ｌ
 50
0.0
 41
0.833333333
 51
0.0
  7
KANJI49
  0
TEXT
  8
0
  6
CONTINUOUS
 62
     2
 10
653.0
 20
385.8
 30
1.6
 40
24.0
  1
ＭＣＬＥ８－　　　Ｌ
 50
0.0
 41
0.833333333
 51
0.0
  7
KANJI49
  0
TEXT
  8
0
  6
CONTINUOUS
 62
     2
 10
653.0
 20
329.8
 30
1.6
 40
24.0
  1
ＭＣＬＥ８－　　　Ｌ
 50
0.0
 41
0.833333333
 51
0.0
  7
KANJI49
  0
TEXT
  8
0
  6
CONTINUOUS
 62
     2
 10
2531.0
 20
325.0
 30
0.0
 40
28.0
  1
ＭＣＬＥ８－　Ｌ
 50
0.0
 41
0.793650794
 51
0.0
  7
KANJI50
  0
TEXT
  8
0
  6
CONTINUOUS
 62
     3
 10
2615.5333816
 20
196.999992
 30
17.333333333
 40
40.0
  1
Ａ３００１２３６
 50
0.0
 41
0.8
 51
0.0
  7
KANJI51
  0
TEXT
  8
0
  6
CONTINUOUS
 62
     2
 10
2965.0
 20
1982.2
 30
1.6
 40
24.0
  1
ＭＣＬＥ８－　　Ｌ
 50
0.0
 41
0.833333333
 51
0.0
  7
KANJI49
  0
TEXT
  8
0
  6
CONTINUOUS
 62
     2
 10
2986.2
 20
1704.2
 30
20.5
 40
28.0
  1
全閉屋内形
 50
0.0
 41
0.9
 51
0.0
  7
KANJI8
  0
TEXT
  8
0
  6
CONTINUOUS
 62
     2
 10
653.0
 20
609.8
 30
1.6
 40
24.0
  1
ＭＣＬＥ８－　　３Ｌ
 50
0.0
 41
0.833333333
 51
0.0
  7
KANJI49
  0
TEXT
  8
0
  6
CONTINUOUS
 62
     2
 10
653.0
 20
553.8
 30
1.6
 40
24.0
  1
ＭＣＬＥ８－　　５Ｌ
 50
0.0
 41
0.833333333
 51
0.0
  7
KANJI49
  0
TEXT
  8
0
  6
CONTINUOUS
 62
     2
 10
653.0
 20
497.8
 30
1.6
 40
24.0
  1
ＭＣＬＥ８－　　７Ｌ
 50
0.0
 41
0.833333333
 51
0.0
  7
KANJI49
  0
TEXT
  8
0
  6
CONTINUOUS
 62
     2
 10
1581.8
 20
558.0
 30
2.4
 40
24.0
  1
　５０
 50
0.0
 41
0.9
 51
0.0
  7
KANJI1
  0
TEXT
  8
0
  6
CONTINUOUS
 62
     2
 10
1581.8
 20
502.0
 30
2.4
 40
24.0
  1
　５０
 50
0.0
 41
0.9
 51
0.0
  7
KANJI1
  0
TEXT
  8
0
  6
CONTINUOUS
 62
     2
 10
1582.8
 20
446.0
 30
2.4
 40
24.0
  1
　５０
 50
0.0
 41
0.9
 51
0.0
  7
KANJI1
  0
LINE
  8
0
  6
CONTINUOUS
 62
     1
 10
882.0
 20
1290.0
 11
882.0
 21
1190.0
  0
LINE
  8
0
  6
CONTINUOUS
 62
     1
 10
842.0
 20
1308.657620342
 11
842.0
 21
1190.0
  0
LINE
  8
0
  6
CONTINUOUS
 62
     1
 10
882.0
 20
1335.266636349
 11
882.0
 21
1190.0
  0
LINE
  8
0
  6
CONTINUOUS
 62
     1
 10
927.274192965
 20
1131.5
 11
941.130599426
 21
1123.5
  0
LINE
  8
0
  6
LTYPE3
 62
     2
 10
927.274192965
 20
1133.5
 11
977.274192965
 21
1133.5
  0
LINE
  8
0
  6
CONTINUOUS
 62
     1
 10
941.130599426
 20
1123.5
 11
963.417786504
 21
1123.5
  0
LINE
  8
0
  6
LTYPE3
 62
     2
 10
927.274192965
 20
1145.5
 11
977.274192965
 21
1145.5
  0
LINE
  8
0
  6
CONTINUOUS
 62
     1
 10
927.274192965
 20
1147.5
 11
941.130599426
 21
1155.5
  0
LINE
  8
0
  6
CONTINUOUS
 62
     1
 10
941.130599426
 20
1155.5
 11
963.417786504
 21
1155.5
  0
LINE
  8
0
  6
CONTINUOUS
 62
     1
 10
977.274192965
 20
1147.5
 11
963.417786504
 21
1155.5
  0
LINE
  8
0
  6
CONTINUOUS
 62
     1
 10
977.274192965
 20
1131.5
 11
977.274192965
 21
1147.5
  0
LINE
  8
0
  6
CONTINUOUS
 62
     1
 10
977.274192965
 20
1131.5
 11
963.417786504
 21
1123.5
  0
LINE
  8
0
  6
CONTINUOUS
 62
     1
 10
963.417786504
 20
1123.5
 11
963.417786504
 21
1155.5
  0
LINE
  8
0
  6
CONTINUOUS
 62
     1
 10
941.130599426
 20
1123.5
 11
963.417786504
 21
1123.5
  0
LINE
  8
0
  6
CONTINUOUS
 62
     1
 10
941.130599426
 20
1123.5
 11
941.130599426
 21
1155.5
  0
LINE
  8
0
  6
CONTINUOUS
 62
     1
 10
927.274192965
 20
1131.5
 11
927.274192965
 21
1147.5
  0
CIRCLE
  8
0
  6
CONTINUOUS
 62
     2
 10
952.274192965
 20
1139.5
 40
5.0
  0
CIRCLE
  8
0
  6
CONTINUOUS
 62
     2
 10
952.274192965
 20
1139.5
 40
4.0
  0
LINE
  8
0
  6
LTYPE2
 62
     2
 10
952.274192965
 20
1129.5
 11
952.274192965
 21
1149.5
  0
LINE
  8
0
  6
CONTINUOUS
 62
     1
 10
920.274192965
 20
1145.5
 11
927.274192965
 21
1145.5
  0
LINE
  8
0
  6
CONTINUOUS
 62
     1
 10
927.274192965
 20
1133.5
 11
920.274192965
 21
1133.5
  0
POINT
  8
0
  6
CONTINUOUS
 62
     1
 10
920.274192965
 20
1133.5
  0
LINE
  8
0
  6
LTYPE5
 62
     2
 10
920.274192965
 20
1179.5
 11
888.274192965
 21
1179.5
  0
LINE
  8
0
  6
LTYPE5
 62
     2
 10
920.274192965
 20
1126.5
 11
920.274192965
 21
1179.5
  0
LINE
  8
0
  6
LTYPE5
 62
     2
 10
878.274192965
 20
1161.5
 11
888.274192965
 21
1161.5
  0
LINE
  8
0
  6
LTYPE5
 62
     2
 10
862.274192965
 20
1154.5
 11
878.274192965
 21
1154.5
  0
LINE
  8
0
  6
LTYPE5
 62
     2
 10
859.774192965
 20
1167.5
 11
859.774192965
 21
1157.7
  0
LINE
  8
0
  6
LTYPE5
 62
     2
 10
859.774192965
 20
1157.7
 11
854.159833611
 21
1157.7
  0
LINE
  8
0
  6
LTYPE5
 62
     2
 10
852.774192965
 20
1160.1
 11
854.159833611
 21
1157.7
  0
LINE
  8
0
  6
LTYPE5
 62
     2
 10
852.774192965
 20
1167.5
 11
852.774192965
 21
1160.1
  0
LINE
  8
0
  6
LTYPE5
 62
     2
 10
859.774192965
 20
1162.6
 11
854.159833611
 21
1162.6
  0
ARC
  8
0
  6
LTYPE5
 62
     2
 10
855.632076797
 20
1160.15
 40
2.858321186
 50
121.002313915
 51
182.989498403
  0
LINE
  8
0
  6
LTYPE5
 62
     2
 10
862.274192965
 20
1158.3
 11
859.774192965
 21
1158.3
  0
LINE
  8
0
  6
LTYPE5
 62
     2
 10
862.274192965
 20
1167.5
 11
859.774192969
 21
1165.000000004
  0
LINE
  8
0
  6
LTYPE5
 62
     2
 10
878.274192965
 20
1173.5
 11
888.274192965
 21
1173.5
  0
LINE
  8
0
  6
LTYPE5
 62
     2
 10
859.774192969
 20
1167.5
 11
862.274192965
 21
1169.999999996
  0
LINE
  8
0
  6
LTYPE5
 62
     2
 10
862.274192965
 20
1154.5
 11
862.274192965
 21
1187.5
  0
LINE
  8
0
  6
LTYPE5
 62
     2
 10
878.274192965
 20
1154.5
 11
878.274192965
 21
1181.5
  0
LINE
  8
0
  6
LTYPE5
 62
     2
 10
852.774192965
 20
1167.5
 11
852.774192965
 21
1174.9
  0
LINE
  8
0
  6
LTYPE5
 62
     2
 10
859.774192965
 20
1167.5
 11
859.774192965
 21
1177.3
  0
LINE
  8
0
  6
LTYPE5
 62
     2
 10
859.774192965
 20
1177.3
 11
854.159833611
 21
1177.3
  0
LINE
  8
0
  6
LTYPE5
 62
     2
 10
852.774192965
 20
1174.9
 11
854.159833611
 21
1177.3
  0
LINE
  8
0
  6
LTYPE5
 62
     2
 10
859.774192965
 20
1172.4
 11
854.159833611
 21
1172.4
  0
LINE
  8
0
  6
LTYPE5
 62
     2
 10
852.774192965
 20
1174.9
 11
854.159833611
 21
1177.3
  0
ARC
  8
0
  6
LTYPE5
 62
     2
 10
855.632076797
 20
1174.85
 40
2.858321186
 50
177.010501597
 51
238.997686085
  0
LINE
  8
0
  6
LTYPE5
 62
     2
 10
862.274192965
 20
1176.7
 11
859.774192965
 21
1176.7
  0
ARC
  8
0
  6
LTYPE5
 62
     2
 10
862.130875765
 20
1167.5
 40
9.3566828
 50
148.419912243
 51
211.580087757
  0
LINE
  8
0
  6
LTYPE5
 62
     2
 10
888.274192965
 20
1126.5
 11
920.274192965
 21
1126.5
  0
LINE
  8
0
  6
LTYPE5
 62
     2
 10
885.774192965
 20
1139.5
 11
885.774192965
 21
1129.7
  0
LINE
  8
0
  6
LTYPE5
 62
     2
 10
885.774192965
 20
1129.7
 11
880.159833611
 21
1129.7
  0
LINE
  8
0
  6
LTYPE5
 62
     2
 10
878.774192965
 20
1132.1
 11
880.159833611
 21
1129.7
  0
LINE
  8
0
  6
LTYPE5
 62
     2
 10
878.774192965
 20
1139.5
 11
878.774192965
 21
1132.1
  0
LINE
  8
0
  6
LTYPE5
 62
     2
 10
885.774192965
 20
1134.6
 11
880.159833611
 21
1134.6
  0
ARC
  8
0
  6
LTYPE5
 62
     2
 10
881.632076797
 20
1132.15
 40
2.858321186
 50
121.002313915
 51
182.989498403
  0
LINE
  8
0
  6
LTYPE5
 62
     2
 10
888.274192965
 20
1130.3
 11
885.774192965
 21
1130.3
  0
LINE
  8
0
  6
LTYPE5
 62
     2
 10
885.774192965
 20
1139.5
 11
885.774192965
 21
1149.3
  0
LINE
  8
0
  6
LTYPE5
 62
     2
 10
885.774192965
 20
1149.3
 11
880.159833611
 21
1149.3
  0
LINE
  8
0
  6
LTYPE5
 62
     2
 10
878.774192965
 20
1146.9
 11
880.159833611
 21
1149.3
  0
LINE
  8
0
  6
LTYPE5
 62
     2
 10
878.774192965
 20
1139.5
 11
878.774192965
 21
1146.9
  0
LINE
  8
0
  6
LTYPE5
 62
     2
 10
885.774192965
 20
1144.4
 11
880.159833611
 21
1144.4
  0
LINE
  8
0
  6
LTYPE5
 62
     2
 10
878.774192965
 20
1146.9
 11
880.159833611
 21
1149.3
  0
ARC
  8
0
  6
LTYPE5
 62
     2
 10
881.632076797
 20
1146.85
 40
2.858321186
 50
177.010501597
 51
238.997686085
  0
LINE
  8
0
  6
LTYPE5
 62
     2
 10
885.774192969
 20
1139.5
 11
888.274192965
 21
1141.999999996
  0
LINE
  8
0
  6
LTYPE5
 62
     2
 10
888.274192965
 20
1148.7
 11
885.774192965
 21
1148.7
  0
ARC
  8
0
  6
LTYPE5
 62
     2
 10
888.130875765
 20
1139.5
 40
9.3566828
 50
148.419912243
 51
211.580087757
  0
LINE
  8
0
  6
LTYPE5
 62
     2
 10
888.274192965
 20
1139.5
 11
885.774192969
 21
1137.000000004
  0
LINE
  8
0
  6
LTYPE5
 62
     2
 10
888.274192965
 20
1126.5
 11
888.274192965
 21
1179.5
  0
LINE
  8
0
  6
LTYPE5
 62
     2
 10
970.149691586
 20
1187.5
 11
862.274192965
 21
1187.5
  0
LINE
  8
0
  6
LTYPE5
 62
     2
 10
970.149691586
 20
1181.5
 11
862.274192965
 21
1181.5
  0
LINE
  8
0
  6
LTYPE5
 62
     2
 10
954.149691586
 20
1187.5
 11
954.149691586
 21
1370.0
  0
LINE
  8
0
  6
LTYPE5
 62
     2
 10
970.149691586
 20
1181.5
 11
970.149691586
 21
1370.0
  0
LINE
  8
0
  6
CONTINUOUS
 62
     1
 10
977.274192965
 20
1133.5
 11
1272.149691586
 21
1133.5
  0
LINE
  8
0
  6
CONTINUOUS
 62
     1
 10
977.274192965
 20
1145.5
 11
1240.849691586
 21
1145.5
  0
LINE
  8
0
  6
LTYPE5
 62
     2
 10
920.274192965
 20
1173.5
 11
1219.149691586
 21
1173.5
  0
LINE
  8
0
  6
LTYPE5
 62
     2
 10
920.274192965
 20
1161.5
 11
1219.149691586
 21
1161.5
  0
LINE
  8
0
  6
LTYPE1
 62
     2
 10
830.649691586
 20
1167.5
 11
1249.149691586
 21
1167.5
  0
LINE
  8
0
  6
LTYPE4
 62
     2
 10
874.149691586
 20
1139.5
 11
1490.149691586
 21
1139.5
  0
LINE
  8
0
  6
CONTINUOUS
 62
     1
 10
842.0
 20
1189.0
 11
812.0
 21
1207.5
  0
LINE
  8
0
  6
CONTINUOUS
 62
     1
 10
842.0
 20
1189.0
 11
882.0
 21
1189.0
  0
LINE
  8
0
  6
CONTINUOUS
 62
     1
 10
933.0
 20
1189.0
 11
882.0
 21
1189.0
  0
LINE
  8
0
  6
CONTINUOUS
 62
     1
 10
882.0
 20
1289.0
 11
882.0
 21
1189.0
  0
LINE
  8
0
  6
CONTINUOUS
 62
     1
 10
933.0
 20
1389.0
 11
933.0
 21
1189.0
  0
LINE
  8
0
  6
CONTINUOUS
 62
     1
 10
933.0
 20
1389.0
 11
883.0
 21
1389.0
  0
LINE
  8
0
  6
LTYPE1
 62
     2
 10
856.737645868
 20
1364.998877817
 11
936.0
 21
1364.998877817
  0
LINE
  8
0
  6
CONTINUOUS
 62
     1
 10
948.0
 20
1373.0
 11
948.0
 21
1205.0
  0
LINE
  8
0
  6
CONTINUOUS
 62
     1
 10
933.0
 20
1373.0
 11
948.0
 21
1373.0
  0
LINE
  8
0
  6
CONTINUOUS
 62
     1
 10
933.0
 20
1205.0
 11
948.0
 21
1205.0
  0
LINE
  8
1
  6
CONTINUOUS
 62
     2
 10
974.9
 20
1359.0
 11
948.0
 21
1359.0
  0
LINE
  8
0
  6
LTYPE1
 62
     2
 10
848.0
 20
1376.5
 11
949.0
 21
1376.5
  0
LINE
  8
0
  6
LTYPE1
 62
     2
 10
852.0
 20
1201.5
 11
952.0
 21
1201.5
  0
LINE
  8
0
  6
CONTINUOUS
 62
     1
 10
933.0
 20
1369.0
 11
948.0
 21
1369.0
  0
LINE
  8
0
  6
CONTINUOUS
 62
     1
 10
933.0
 20
1209.0
 11
948.0
 21
1209.0
  0
LINE
  8
0
  6
CONTINUOUS
 62
     1
 10
933.0
 20
1285.0
 11
948.0
 21
1285.0
  0
LINE
  8
0
  6
CONTINUOUS
 62
     1
 10
933.0
 20
1293.0
 11
948.0
 21
1293.0
  0
LINE
  8
0
  6
CONTINUOUS
 62
     1
 10
948.0
 20
1359.0
 11
1250.149691586
 21
1359.0
  0
LINE
  8
0
  6
CONTINUOUS
 62
     1
 10
948.0
 20
1219.0
 11
1250.149691586
 21
1219.0
  0
LINE
  8
0
  6
LTYPE5
 62
     2
 10
970.149691586
 20
1369.0
 11
954.149691586
 21
1369.0
  0
TEXT
  8
0
  6
CONTINUOUS
 62
     2
 10
2934.8
 20
1921.5
 30
0.0
 40
24.0
  1
７８．４ＫＮ　（８ｔｏｎ）
 50
0.0
 41
0.9
 51
0.0
  7
KANJI13
  0
TEXT
  8
0
  6
CONTINUOUS
 62
     2
 10
2947.8
 20
1763.5
 30
0.0
 40
24.0
  1
２１６Ｎ　（２２ｋｇｍ）
 50
0.0
 41
0.9
 51
0.0
  7
KANJI13
  0
TEXT
  8
0
  6
CONTINUOUS
 62
     2
 10
2991.0
 20
1143.4
 30
16.0
 40
28.0
  1
同時切り
 50
0.0
 41
0.9
 51
0.0
  7
KANJI52
  0
LINE
  8
0
  6
CONTINUOUS
 62
     6
 10
2160.333416
 20
91.9333328
 11
2160.333416
 21
480.1999696
  0
LINE
  8
0
  6
CONTINUOUS
 62
     6
 10
2160.333416
 20
535.666632
 11
3228.0666672
 21
535.666632
  0
LINE
  8
0
  6
CONTINUOUS
 62
     6
 10
2160.333416
 20
480.1999696
 11
2160.333416
 21
535.666632
  0
TEXT
  8
0
  6
CONTINUOUS
 62
     4
 10
2185.0
 20
488.4666624
 30
0.8
 40
28.8
  1
ご用途
 50
0.0
 41
0.833333333
 51
0.0
  7
KANJI53
  0
LINE
  8
0
  6
CONTINUOUS
 62
     4
 10
2160.333416
 20
480.1999696
 11
3228.0666672
 21
480.1999696
  0
LINE
  8
0
  6
CONTINUOUS
 62
     4
 10
2160.333416
 20
424.7333072
 11
2278.8
 21
424.7333072
  0
LINE
  8
0
  6
CONTINUOUS
 62
     4
 10
2237.8
 20
424.7333072
 11
3228.0666672
 21
424.7333072
  0
LINE
  8
0
  6
CONTINUOUS
 62
     4
 10
2309.0
 20
424.7333072
 11
2309.0
 21
535.666632
  0
LINE
  8
0
  6
CONTINUOUS
 62
     4
 10
2413.4000632
 20
369.2666448
 11
3228.0666672
 21
369.2666448
  0
LINE
  8
0
  6
CONTINUOUS
 62
     4
 10
2413.4000632
 20
313.7999824
 11
2753.1333704
 21
313.7999824
  0
TEXT
  8
0
  6
CONTINUOUS
 62
     4
 10
2427.2667288
 20
289.5333176
 30
1.38666656
 40
13.8666656
  1
ＭＦＧ．ＮＯ．
 50
0.0
 41
0.8
 51
0.0
  7
KANJI37
  0
TEXT
  8
0
  6
CONTINUOUS
 62
     2
 10
2404.0666472
 20
891.6666752
 30
16.0
 40
32.0
  1
特記事項
 50
0.0
 41
0.9
 51
0.0
  7
KANJI54
  0
TEXT
  8
0
  6
CONTINUOUS
 62
     2
 10
2292.0666472
 20
827.6666752
 30
8.228571429
 40
28.8
  1
１。運転時は必ずピストンロッドの回転防止を行って下さい。
 50
0.0
 41
0.857142857
 51
0.0
  7
KANJI55
  0
TEXT
  8
0
  6
CONTINUOUS
 62
     2
 10
2292.0666472
 20
775.2666752
 30
8.208
 40
28.8
  1
２。モートル：全閉自冷かご形３０分定格
 50
0.0
 41
0.857222222
 51
0.0
  7
KANJI56
  0
TEXT
  8
0
  6
CONTINUOUS
 62
     2
 10
2292.0666472
 20
725.6666752
 30
8.228571429
 40
28.8
  1
３。ＬＳユニット
 50
0.0
 41
0.857142857
 51
0.0
  7
KANJI55
  0
TEXT
  8
0
  6
CONTINUOUS
 62
     2
 10
2292.0666472
 20
673.2666752
 30
8.208
 40
28.8
  1
　　リミットＳＷ：１ＬＳ１Ｊ×２ヶ（山武）
 50
0.0
 41
0.857222222
 51
0.0
  7
KANJI56
  0
TEXT
  8
0
  6
CONTINUOUS
 62
     2
 10
2292.0666472
 20
619.2666752
 30
8.208
 40
28.8
  1
　　ストローク７００ｍｍ以上の場合２ロッド方式となります。
 50
0.0
 41
0.857222222
 51
0.0
  7
KANJI56
  0
TEXT
  8
0
  6
CONTINUOUS
 62
     2
 10
1088.2
 20
555.0
 30
2.4
 40
24.0
  1
１３０５
 50
0.0
 41
0.9
 51
0.0
  7
KANJI1
  0
TEXT
  8
0
  6
CONTINUOUS
 62
     2
 10
1088.2
 20
499.0
 30
2.4
 40
24.0
  1
１５４５
 50
0.0
 41
0.9
 51
0.0
  7
KANJI1
  0
TEXT
  8
0
  6
CONTINUOUS
 62
     2
 10
1249.0
 20
556.6
 30
2.4
 40
24.0
  1
１０８０
 50
0.0
 41
0.9
 51
0.0
  7
KANJI1
  0
TEXT
  8
0
  6
CONTINUOUS
 62
     2
 10
1249.0
 20
500.6
 30
2.4
 40
24.0
  1
１３２０
 50
0.0
 41
0.9
 51
0.0
  7
KANJI1
  0
TEXT
  8
0
  6
CONTINUOUS
 62
     2
 10
1088.2
 20
443.0
 30
2.4
 40
24.0
  1
１６２０
 50
0.0
 41
0.9
 51
0.0
  7
KANJI1
  0
TEXT
  8
0
  6
CONTINUOUS
 62
     2
 10
1249.0
 20
444.6
 30
2.4
 40
24.0
  1
１６２０
 50
0.0
 41
0.9
 51
0.0
  7
KANJI1
  0
TEXT
  8
0
  6
CONTINUOUS
 62
     2
 10
1765.8
 20
613.4
 30
2.4
 40
24.0
  1
２０３
 50
0.0
 41
0.9
 51
0.0
  7
KANJI1
  0
TEXT
  8
0
  6
CONTINUOUS
 62
     2
 10
1765.8
 20
557.4
 30
2.4
 40
24.0
  1
２１３
 50
0.0
 41
0.9
 51
0.0
  7
KANJI1
  0
TEXT
  8
0
  6
CONTINUOUS
 62
     2
 10
1765.8
 20
501.4
 30
2.4
 40
24.0
  1
２２３
 50
0.0
 41
0.9
 51
0.0
  7
KANJI1
  0
TEXT
  8
0
  6
CONTINUOUS
 62
     2
 10
1765.8
 20
445.4
 30
2.4
 40
24.0
  1
２４１
 50
0.0
 41
0.9
 51
0.0
  7
KANJI1
  0
TEXT
  8
0
  6
CONTINUOUS
 62
     3
 10
2605.5
 20
268.0
 30
2.4
 40
32.0
  1
Ｓ
 50
0.0
 41
0.75
 51
0.0
  7
KANJI57
  0
CIRCLE
  8
0
  6
CONTINUOUS
 62
     3
 10
2616.5
 20
284.5
 40
21.708293346
  0
TEXT
  8
0
  6
CONTINUOUS
 62
     3
 10
2249.6667112
 20
216.999992
 30
24.0
 40
28.0
  1
岡田
 50
0.0
 41
0.771428571
 51
0.0
  7
KANJI58
  0
LINE
  8
0
  6
CONTINUOUS
 62
     4
 10
42.9333328
 20
92.9333328
 11
126.1333264
 21
92.9333328
  0
LINE
  8
0
  6
CONTINUOUS
 62
     4
 10
42.9333328
 20
134.5333296
 11
126.1333264
 21
134.5333296
  0
LINE
  8
0
  6
CONTINUOUS
 62
     4
 10
42.9333328
 20
176.1333264
 11
126.1333264
 21
176.1333264
  0
LINE
  8
0
  6
CONTINUOUS
 62
     4
 10
42.9333328
 20
217.7333232
 11
126.1333264
 21
217.7333232
  0
LINE
  8
0
  6
CONTINUOUS
 62
     4
 10
42.9333328
 20
259.33332
 11
126.1333264
 21
259.33332
  0
LINE
  8
0
  6
CONTINUOUS
 62
     4
 10
42.9333328
 20
300.9333168
 11
126.1333264
 21
300.9333168
  0
LINE
  8
0
  6
CONTINUOUS
 62
     4
 10
42.9333328
 20
342.5333136
 11
126.1333264
 21
342.5333136
  0
LINE
  8
0
  6
CONTINUOUS
 62
     4
 10
42.9333328
 20
384.1333104
 11
126.1333264
 21
384.1333104
  0
LINE
  8
0
  6
CONTINUOUS
 62
     4
 10
42.9333328
 20
425.7333072
 11
126.1333264
 21
425.7333072
  0
LINE
  8
0
  6
CONTINUOUS
 62
     4
 10
42.9333328
 20
467.333304
 11
126.1333264
 21
467.333304
  0
LINE
  8
0
  6
CONTINUOUS
 62
     4
 10
126.1333264
 20
92.9333328
 11
126.1333264
 21
467.333304
  0
LINE
  8
0
  6
CONTINUOUS
 62
     4
 10
84.5333296
 20
92.9333328
 11
84.5333296
 21
425.7333072
  0
TEXT
  8
0
  6
CONTINUOUS
 62
     4
 10
57.14666504
 20
105.0666652
 30
2.07999984
 40
20.7999984
  1
計
 50
0.0
 41
0.75
 51
0.0
  7
KANJI59
  0
TEXT
  8
0
  6
CONTINUOUS
 62
     4
 10
57.14666504
 20
188.95999208
 30
2.07999984
 40
20.7999984
  1
設
 50
0.0
 41
0.75
 51
0.0
  7
KANJI59
  0
TEXT
  8
0
  6
CONTINUOUS
 62
     4
 10
57.14666504
 20
229.8666556
 30
2.07999984
 40
20.7999984
  1
管
 50
0.0
 41
0.75
 51
0.0
  7
KANJI59
  0
TEXT
  8
0
  6
CONTINUOUS
 62
     4
 10
57.14666504
 20
271.4666524
 30
2.07999984
 40
20.7999984
  1
製
 50
0.0
 41
0.75
 51
0.0
  7
KANJI59
  0
TEXT
  8
0
  6
CONTINUOUS
 62
     4
 10
57.14666504
 20
313.0666492
 30
2.07999984
 40
20.7999984
  1
資
 50
0.0
 41
0.75
 51
0.0
  7
KANJI59
  0
TEXT
  8
0
  6
CONTINUOUS
 62
     4
 10
57.14666504
 20
354.666646
 30
2.07999984
 40
20.7999984
  1
営
 50
0.0
 41
0.75
 51
0.0
  7
KANJI59
  0
TEXT
  8
0
  6
CONTINUOUS
 62
     4
 10
57.14666504
 20
396.2666428
 30
2.07999984
 40
20.7999984
  1
客
 50
0.0
 41
0.75
 51
0.0
  7
KANJI59
  0
TEXT
  8
0
  6
CONTINUOUS
 62
     4
 10
56.7999984
 20
439.5999728
 30
2.07999984
 40
20.7999984
  1
出　図
 50
0.0
 41
0.75
 51
0.0
  7
KANJI59
  0
LINE
  8
0
  6
CONTINUOUS
 62
     4
 10
42.9333328
 20
92.9333328
 11
42.9333328
 21
467.333304
  0
TEXT
  8
0
  6
CONTINUOUS
 62
     4
 10
229.1333264
 20
42.9333328
 30
0.8
 40
24.0
  1
ＦＤ　Ｎｏ．ＭＣ２０
 50
0.0
 41
0.9
 51
0.0
  7
KANJI60
  0
LINE
  8
0
  6
CONTINUOUS
 62
     1
 10
2104.8
 20
1128.5
 11
2134.8
 21
1128.5
  0
LINE
  8
0
  6
LTYPE4
 62
     2
 10
2088.9
 20
1141.5
 11
2150.9
 21
1141.5
  0
CIRCLE
  8
0
  6
CONTINUOUS
 62
     1
 10
2119.8
 20
1141.5
 40
6.49995
  0
LINE
  8
0
  6
CONTINUOUS
 62
     1
 10
2126.29995
 20
1145.24703
 11
2126.29995
 21
1137.75297
  0
LINE
  8
0
  6
CONTINUOUS
 62
     1
 10
2126.29995
 20
1137.75297
 11
2119.8
 21
1134.00594
  0
LINE
  8
0
  6
CONTINUOUS
 62
     1
 10
2113.30005
 20
1145.24703
 11
2113.30005
 21
1137.75297
  0
LINE
  8
0
  6
CONTINUOUS
 62
     1
 10
2113.30005
 20
1137.75297
 11
2119.8
 21
1134.00594
  0
LINE
  8
0
  6
CONTINUOUS
 62
     1
 10
2126.29995
 20
1145.24703
 11
2119.8
 21
1148.99406
  0
LINE
  8
0
  6
CONTINUOUS
 62
     1
 10
2113.30005
 20
1145.24703
 11
2119.8
 21
1148.99406
  0
LINE
  8
0
  6
CONTINUOUS
 62
     1
 10
2202.3
 20
1182.5
 11
2202.3
 21
1188.5
  0
LINE
  8
0
  6
CONTINUOUS
 62
     1
 10
2037.3
 20
1182.5
 11
2037.3
 21
1188.5
  0
LINE
  8
0
  6
CONTINUOUS
 62
     1
 10
2081.8
 20
1182.5
 11
2041.8
 21
1182.5
  0
LINE
  8
0
  6
CONTINUOUS
 62
     1
 10
2041.8
 20
1182.5
 11
2041.8
 21
1182.6
  0
LINE
  8
0
  6
CONTINUOUS
 62
     1
 10
2041.8
 20
1142.5
 11
2041.8
 21
1143.5
  0
LINE
  8
0
  6
CONTINUOUS
 62
     1
 10
2041.8
 20
1142.5
 11
2041.8
 21
1182.5
  0
LINE
  8
0
  6
CONTINUOUS
 62
     1
 10
2081.8
 20
1182.5
 11
2081.8
 21
1142.5
  0
LINE
  8
0
  6
CONTINUOUS
 62
     1
 10
2091.05
 20
1138.0
 11
2091.05
 21
1145.0
  0
LINE
  8
0
  6
LTYPE2
 62
     2
 10
2061.8
 20
1125.9
 11
2061.8
 21
1183.9
  0
LINE
  8
0
  6
LTYPE2
 62
     2
 10
2076.9
 20
1185.9
 11
2076.9
 21
1138.9
  0
LINE
  8
0
  6
LTYPE2
 62
     2
 10
2046.7
 20
1139.9
 11
2046.7
 21
1186.9
  0
LINE
  8
0
  6
CONTINUOUS
 62
     1
 10
2104.8
 20
1129.5
 11
2104.8
 21
1137.5
  0
LINE
  8
0
  6
CONTINUOUS
 62
     1
 10
2104.8
 20
1137.5
 11
2091.05
 21
1137.5
  0
LINE
  8
0
  6
CONTINUOUS
 62
     1
 10
2081.8
 20
1139.5
 11
2069.3
 21
1139.5
  0
LINE
  8
0
  6
CONTINUOUS
 62
     1
 10
2091.05
 20
1137.4
 11
2081.8
 21
1139.5
  0
LINE
  8
0
  6
LTYPE2
 62
     2
 10
2099.8
 20
1128.3
 11
2099.8
 21
1147.5
  0
LINE
  8
0
  6
CONTINUOUS
 62
     1
 10
2069.3
 20
1139.5
 11
2054.3
 21
1139.5
  0
ARC
  8
0
  6
CONTINUOUS
 62
     1
 10
2051.1
 20
1158.7
 40
2.0
 50
180.0
 51
270.0
  0
LINE
  8
0
  6
CONTINUOUS
 62
     1
 10
2072.5
 20
1156.7
 11
2051.1
 21
1156.7
  0
ARC
  8
0
  6
CONTINUOUS
 62
     1
 10
2072.5
 20
1158.7
 40
2.0
 50
270.0
 51
360.0
  0
LINE
  8
0
  6
CONTINUOUS
 62
     1
 10
2074.5
 20
1158.7
 11
2074.5
 21
1180.1
  0
ARC
  8
0
  6
CONTINUOUS
 62
     1
 10
2072.5
 20
1180.1
 40
2.0
 50
0.0
 51
90.0
  0
LINE
  8
0
  6
CONTINUOUS
 62
     1
 10
2049.1
 20
1158.7
 11
2049.1
 21
1180.1
  0
LINE
  8
0
  6
CONTINUOUS
 62
     1
 10
2072.5
 20
1182.1
 11
2051.1
 21
1182.1
  0
ARC
  8
0
  6
CONTINUOUS
 62
     1
 10
2051.1
 20
1180.1
 40
2.0
 50
90.0
 51
180.0
  0
LINE
  8
0
  6
LTYPE2
 62
     2
 10
2047.7
 20
1169.4
 11
2076.1
 21
1169.4
  0
LINE
  8
0
  6
CONTINUOUS
 62
     1
 10
2069.3
 20
1129.5
 11
2069.3
 21
1156.7
  0
LINE
  8
0
  6
CONTINUOUS
 62
     1
 10
2054.3
 20
1147.5
 11
2041.8
 21
1147.5
  0
LINE
  8
0
  6
CONTINUOUS
 62
     1
 10
2081.8
 20
1147.5
 11
2069.2
 21
1147.5
  0
LINE
  8
0
  6
CONTINUOUS
 62
     1
 10
2054.2
 20
1142.5
 11
2041.8
 21
1142.5
  0
LINE
  8
0
  6
CONTINUOUS
 62
     1
 10
2081.8
 20
1142.5
 11
2069.3
 21
1142.5
  0
LINE
  8
0
  6
CONTINUOUS
 62
     1
 10
2197.8
 20
1182.5
 11
2157.8
 21
1182.5
  0
LINE
  8
0
  6
CONTINUOUS
 62
     1
 10
2157.8
 20
1182.5
 11
2157.8
 21
1182.6
  0
LINE
  8
0
  6
CONTINUOUS
 62
     1
 10
2157.8
 20
1142.5
 11
2157.8
 21
1143.5
  0
LINE
  8
0
  6
CONTINUOUS
 62
     1
 10
2157.8
 20
1142.5
 11
2157.8
 21
1182.5
  0
LINE
  8
0
  6
CONTINUOUS
 62
     1
 10
2197.8
 20
1182.5
 11
2197.8
 21
1142.5
  0
LINE
  8
0
  6
CONTINUOUS
 62
     1
 10
2197.8
 20
1142.5
 11
2157.8
 21
1142.5
  0
LINE
  8
0
  6
CONTINUOUS
 62
     1
 10
2197.8
 20
1147.5
 11
2157.8
 21
1147.5
  0
LINE
  8
0
  6
CONTINUOUS
 62
     1
 10
2185.3
 20
1129.5
 11
2185.3
 21
1142.5
  0
LINE
  8
0
  6
CONTINUOUS
 62
     1
 10
2170.3
 20
1129.5
 11
2170.3
 21
1142.5
  0
CIRCLE
  8
0
  6
CONTINUOUS
 62
     1
 10
2177.8
 20
1160.9
 40
9.36
  0
LINE
  8
0
  6
CONTINUOUS
 62
     1
 10
2148.55
 20
1138.0
 11
2148.55
 21
1145.0
  0
LINE
  8
0
  6
LTYPE2
 62
     2
 10
2177.8
 20
1125.9
 11
2177.8
 21
1183.9
  0
LINE
  8
0
  6
LTYPE2
 62
     2
 10
2190.8
 20
1160.9
 11
2164.8
 21
1160.9
  0
LINE
  8
0
  6
LTYPE2
 62
     2
 10
2192.9
 20
1185.9
 11
2192.9
 21
1138.9
  0
LINE
  8
0
  6
LTYPE2
 62
     2
 10
2162.7
 20
1139.9
 11
2162.7
 21
1186.9
  0
LINE
  8
0
  6
LTYPE2
 62
     2
 10
2139.8
 20
1125.9
 11
2139.8
 21
1147.5
  0
CIRCLE
  8
0
  6
CONTINUOUS
 62
     2
 10
2177.8
 20
1160.9
 40
10.47
  0
LINE
  8
0
  6
CONTINUOUS
 62
     1
 10
2134.8
 20
1129.5
 11
2134.8
 21
1138.0
  0
LINE
  8
0
  6
CONTINUOUS
 62
     1
 10
2134.8
 20
1137.5
 11
2148.55
 21
1137.5
  0
LINE
  8
0
  6
CONTINUOUS
 62
     1
 10
2157.8
 20
1139.5
 11
2170.3
 21
1139.5
  0
LINE
  8
0
  6
CONTINUOUS
 62
     1
 10
2148.55
 20
1137.4
 11
2157.8
 21
1139.5
  0
LINE
  8
0
  6
CONTINUOUS
 62
     1
 10
2134.8
 20
1129.5
 11
2185.3
 21
1129.5
  0
LINE
  8
0
  6
CONTINUOUS
 62
     1
 10
2054.3
 20
1129.5
 11
2054.3
 21
1156.7
  0
LINE
  8
0
  6
CONTINUOUS
 62
     1
 10
2104.8
 20
1129.5
 11
2054.3
 21
1129.5
  0
LINE
  8
0
  6
CONTINUOUS
 62
     1
 10
2103.8
 20
1128.5
 11
2135.8
 21
1128.5
  0
LINE
  8
0
  6
LTYPE4
 62
     2
 10
2031.8
 20
1141.5
 11
2208.8
 21
1141.5
  0
LINE
  8
0
  6
CONTINUOUS
 62
     1
 10
2099.64375
 20
1145.0
 11
2091.05
 21
1145.0
  0
LINE
  8
0
  6
CONTINUOUS
 62
     1
 10
2101.83125
 20
1138.0
 11
2091.05
 21
1138.0
  0
LINE
  8
0
  6
CONTINUOUS
 62
     1
 10
2148.55
 20
1138.0
 11
2137.76875
 21
1138.0
  0
LINE
  8
0
  6
CONTINUOUS
 62
     1
 10
2148.55
 20
1145.0
 11
2139.8
 21
1145.0
  0
LINE
  8
0
  6
LTYPE3
 62
     2
 10
2131.05
 20
1138.0
 11
2131.05
 21
1145.0
  0
LINE
  8
0
  6
LTYPE3
 62
     2
 10
2139.8
 20
1145.0
 11
2131.05
 21
1145.0
  0
LINE
  8
0
  6
LTYPE3
 62
     2
 10
2137.73125
 20
1138.0
 11
2131.05
 21
1138.0
  0
LINE
  8
0
  6
LTYPE3
 62
     2
 10
2108.55
 20
1138.0
 11
2108.55
 21
1145.0
  0
LINE
  8
0
  6
LTYPE3
 62
     2
 10
2108.55
 20
1145.0
 11
2099.64375
 21
1145.0
  0
LINE
  8
0
  6
LTYPE3
 62
     2
 10
2108.55
 20
1138.0
 11
2101.83125
 21
1138.0
  0
CIRCLE
  8
0
  6
CONTINUOUS
 62
     1
 10
2119.8
 20
1141.5
 40
4.0
  0
CIRCLE
  8
0
  6
CONTINUOUS
 62
     2
 10
2119.8
 20
1141.5
 40
3.2
  0
LINE
  8
0
  6
CONTINUOUS
 62
     1
 10
2041.8
 20
1152.0
 11
2004.8
 21
1152.0
  0
LINE
  8
0
  6
CONTINUOUS
 62
     1
 10
2197.8
 20
1152.0
 11
2234.8
 21
1152.0
  0
LINE
  8
0
  6
CONTINUOUS
 62
     1
 10
2037.3
 20
1188.5
 11
2079.994331984
 21
1188.5
  0
LINE
  8
0
  6
CONTINUOUS
 62
     1
 10
2037.3
 20
1182.5
 11
2082.374898785
 21
1182.5
  0
LINE
  8
0
  6
CONTINUOUS
 62
     1
 10
2159.605668016
 20
1188.5
 11
2202.3
 21
1188.5
  0
LINE
  8
0
  6
CONTINUOUS
 62
     1
 10
2157.225101215
 20
1182.5
 11
2202.3
 21
1182.5
  0
LINE
  8
0
  6
CONTINUOUS
 62
     1
 10
2182.3
 20
1347.0
 11
2057.3
 21
1347.0
  0
LINE
  8
0
  6
CONTINUOUS
 62
     1
 10
2182.3
 20
1252.0
 11
2182.3
 21
1347.0
  0
LINE
  8
0
  6
CONTINUOUS
 62
     1
 10
2182.3
 20
1252.0
 11
2135.8
 21
1128.5
  0
LINE
  8
0
  6
CONTINUOUS
 62
     1
 10
2057.3
 20
1252.0
 11
2103.8
 21
1128.5
  0
LINE
  8
0
  6
CONTINUOUS
 62
     1
 10
2057.3
 20
1252.0
 11
2057.3
 21
1347.0
  0
CIRCLE
  8
0
  6
CONTINUOUS
 62
     1
 10
2119.8
 20
1287.0
 40
47.5
  0
LINE
  8
0
  6
CONTINUOUS
 62
     1
 10
2094.8
 20
1246.5
 11
2094.8
 21
1327.5
  0
ARC
  8
0
  6
CONTINUOUS
 62
     1
 10
2119.8
 20
1287.0
 40
37.5
 50
47.202598162
 51
132.273689006
  0
LINE
  8
0
  6
CONTINUOUS
 62
     1
 10
2144.8
 20
1248.0
 11
2144.8
 21
1327.0
  0
ARC
  8
0
  6
CONTINUOUS
 62
     1
 10
2119.8
 20
1287.0
 40
37.5
 50
227.202598162
 51
312.220833136
  0
LINE
  8
0
  6
LTYPE3
 62
     2
 10
2144.8
 20
1264.5
 11
2094.8
 21
1264.5
  0
LINE
  8
0
  6
LTYPE3
 62
     2
 10
2144.8
 20
1309.5
 11
2094.8
 21
1309.5
  0
CIRCLE
  8
0
  6
CONTINUOUS
 62
     1
 10
2119.8
 20
1287.0
 40
47.5
  0
LINE
  8
0
  6
LTYPE3
 62
     2
 10
2029.8
 20
1309.5
 11
1979.8
 21
1309.5
  0
LINE
  8
0
  6
LTYPE3
 62
     2
 10
2029.8
 20
1264.5
 11
2029.8
 21
1309.5
  0
ARC
  8
0
  6
CONTINUOUS
 62
     1
 10
2057.634520095
 20
1389.125917906
 40
3.0
 50
325.0
 51
55.0
  0
LINE
  8
0
  6
CONTINUOUS
 62
     1
 10
2021.264679345
 20
1418.25467833
 11
2059.355249404
 21
1391.583374039
  0
ARC
  8
0
  6
CONTINUOUS
 62
     1
 10
2020.691102908
 20
1417.435526285
 40
1.0
 50
55.0
 51
145.0
  0
ARC
  8
0
  6
CONTINUOUS
 62
     1
 10
2018.151221555
 20
1415.551646589
 40
1.0
 50
55.0
 51
145.0
  0
ARC
  8
0
  6
CONTINUOUS
 62
     1
 10
2002.571182206
 20
1310.487321655
 40
3.0
 50
235.0
 51
325.0
  0
LINE
  8
0
  6
CONTINUOUS
 62
     1
 10
1962.759882837
 20
1334.701169812
 11
2000.850452896
 21
1308.029865522
  0
ARC
  8
0
  6
CONTINUOUS
 62
     1
 10
1963.333459273
 20
1335.520321856
 40
1.0
 50
145.0
 51
235.0
  0
ARC
  8
0
  6
CONTINUOUS
 62
     1
 10
1964.235036538
 20
1338.551354426
 40
1.0
 50
145.0
 51
235.0
  0
LINE
  8
0
  6
CONTINUOUS
 62
     1
 10
1966.855643058
 20
1331.83328763
 11
2025.360439566
 21
1415.386796148
  0
LINE
  8
0
  6
CONTINUOUS
 62
     1
 10
1968.084371125
 20
1330.972922976
 11
2026.589167633
 21
1414.526431493
  0
LINE
  8
0
  6
CONTINUOUS
 62
     1
 10
2060.091976228
 20
1387.405188597
 11
2005.028638338
 21
1308.766592346
  0
LINE
  8
0
  6
CONTINUOUS
 62
     1
 10
1962.514307229
 20
1336.093898293
 11
2019.871950864
 21
1418.009102722
  0
LINE
  8
0
  6
LTYPE2
 62
     2
 10
1961.532174803
 20
1342.885467765
 11
1976.850318031
 21
1332.159588405
  0
LINE
  8
0
  6
LTYPE2
 62
     2
 10
2013.154054074
 20
1416.609151751
 11
2028.472197302
 21
1405.883272391
  0
LINE
  8
0
  6
LTYPE1
 62
     2
 10
2126.458322994
 20
1282.337792048
 11
1983.458322994
 21
1382.467470012
  0
LINE
  8
6
  6
CONTINUOUS
 62
     2
 10
1967.8
 20
1309.5
 11
1911.8
 21
1309.5
  0
LINE
  8
0
  6
LTYPE1
 62
     2
 10
1999.848183048
 20
1346.697752135
 11
2023.192744008
 21
1380.037240338
  0
ARC
  8
0
  6
CONTINUOUS
 62
     1
 10
2119.8
 20
1287.0
 40
92.5
 50
300.640663456
 51
239.359336544
  0
CIRCLE
  8
0
  6
CONTINUOUS
 62
     2
 10
2011.262354132
 20
1362.998877817
 40
10.4775
  0
CIRCLE
  8
0
  6
CONTINUOUS
 62
     2
 10
2011.262354132
 20
1362.998877817
 40
9.3155
  0
LINE
  8
0
  6
CONTINUOUS
 62
     1
 10
1979.8
 20
1242.0
 11
1979.8
 21
1322.769551323
  0
LINE
  8
0
  6
CONTINUOUS
 62
     1
 10
582.0
 20
1654.0
 11
532.0
 21
1654.0
  0
LINE
  8
0
  6
LTYPE1
 62
     2
 10
453.0
 20
1450.0
 11
405.0
 21
1450.0
  0
CIRCLE
  8
0
  6
CONTINUOUS
 62
     1
 10
552.0
 20
1684.0
 40
17.5
  0
LINE
  8
0
  6
CONTINUOUS
 62
     1
 10
552.0
 20
1654.0
 11
567.0
 21
1654.0
  0
LINE
  8
0
  6
CONTINUOUS
 62
     1
 10
552.0
 20
1665.0
 11
565.751706485
 21
1665.0
  0
LINE
  8
0
  6
CONTINUOUS
 62
     1
 10
565.751706485
 20
1665.0
 11
552.0
 21
1666.5
  0
LINE
  8
0
  6
CONTINUOUS
 62
     1
 10
566.689625645
 20
1656.735028154
 11
565.751706485
 21
1665.0
  0
LINE
  8
0
  6
CONTINUOUS
 62
     1
 10
567.0
 20
1654.0
 11
566.689625645
 21
1656.735028154
  0
ARC
  8
0
  6
CONTINUOUS
 62
     1
 10
568.297773229
 20
1656.927087564
 40
1.6
 50
120.593314844
 51
186.768821444
  0
ARC
  8
0
  6
CONTINUOUS
 62
     1
 10
552.0
 20
1684.0
 40
30.0
 50
301.047754584
 51
0.0
  0
LINE
  8
0
  6
CONTINUOUS
 62
     1
 10
552.0
 20
1654.0
 11
537.0
 21
1654.0
  0
LINE
  8
0
  6
CONTINUOUS
 62
     1
 10
552.0
 20
1665.0
 11
538.248293515
 21
1665.0
  0
LINE
  8
0
  6
CONTINUOUS
 62
     1
 10
538.248293515
 20
1665.0
 11
552.0
 21
1666.5
  0
LINE
  8
0
  6
CONTINUOUS
 62
     1
 10
537.310374355
 20
1656.735028154
 11
538.248293515
 21
1665.0
  0
LINE
  8
0
  6
CONTINUOUS
 62
     1
 10
537.0
 20
1654.0
 11
537.310374355
 21
1656.735028154
  0
ARC
  8
0
  6
CONTINUOUS
 62
     1
 10
535.702226771
 20
1656.927087564
 40
1.6
 50
353.231178556
 51
59.406685156
  0
ARC
  8
0
  6
CONTINUOUS
 62
     1
 10
552.0
 20
1684.0
 40
30.0
 50
0.0
 51
239.0231413
  0
LINE
  8
0
  6
LTYPE1
 62
     2
 10
552.0
 20
1605.8
 11
552.0
 21
1720.8
  0
LINE
  8
0
  6
CONTINUOUS
 62
     1
 10
559.0
 20
1585.0
 11
559.0
 21
1654.0
  0
ARC
  8
0
  6
CONTINUOUS
 62
     1
 10
553.0
 20
1585.0
 40
6.0
 50
270.0
 51
0.0
  0
ARC
  8
0
  6
CONTINUOUS
 62
     1
 10
526.0
 20
1585.0
 40
6.0
 50
270.0
 51
0.0
  0
LINE
  8
0
  6
CONTINUOUS
 62
     1
 10
532.0
 20
1585.0
 11
532.0
 21
1654.0
  0
LINE
  8
0
  6
CONTINUOUS
 62
     1
 10
553.0
 20
1579.0
 11
427.0
 21
1579.0
  0
LINE
  8
0
  6
CONTINUOUS
 62
     1
 10
427.0
 20
1408.5
 11
427.0
 21
1579.0
  0
LINE
  8
0
  6
CONTINUOUS
 62
     1
 10
582.0
 20
1398.0
 11
582.0
 21
1645.0
  0
LINE
  8
0
  6
CONTINUOUS
 62
     1
 10
582.0
 20
1398.0
 11
582.0
 21
1645.0
  0
LINE
  8
0
  6
CONTINUOUS
 62
     1
 10
582.0
 20
1398.0
 11
582.0
 21
1645.0
  0
LINE
  8
0
  6
CONTINUOUS
 62
     1
 10
549.0
 20
1529.0
 11
478.0
 21
1529.0
  0
LINE
  8
0
  6
CONTINUOUS
 62
     1
 10
549.0
 20
1529.0
 11
549.0
 21
1409.0
  0
LINE
  8
0
  6
CONTINUOUS
 62
     1
 10
549.0
 20
1409.0
 11
478.0
 21
1409.0
  0
LINE
  8
0
  6
CONTINUOUS
 62
     1
 10
478.0
 20
1409.0
 11
478.0
 21
1529.0
  0
LINE
  8
0
  6
LTYPE1
 62
     2
 10
554.0
 20
1419.0
 11
530.2
 21
1419.0
  0
LINE
  8
0
  6
LTYPE1
 62
     2
 10
500.2
 20
1519.0
 11
473.2
 21
1519.0
  0
LINE
  8
0
  6
LTYPE1
 62
     2
 10
554.2
 20
1519.0
 11
526.2
 21
1519.0
  0
LINE
  8
0
  6
LTYPE1
 62
     2
 10
539.0
 20
1430.8
 11
539.0
 21
1409.0
  0
LINE
  8
0
  6
LTYPE1
 62
     2
 10
539.0
 20
1529.0
 11
539.0
 21
1506.8
  0
LINE
  8
0
  6
LTYPE1
 62
     2
 10
488.0
 20
1507.8
 11
488.0
 21
1529.0
  0
LINE
  8
0
  6
LTYPE1
 62
     2
 10
488.0
 20
1409.0
 11
488.0
 21
1429.8
  0
LINE
  8
0
  6
LTYPE1
 62
     2
 10
500.2
 20
1419.0
 11
475.2
 21
1419.0
  0
LINE
  8
0
  6
CONTINUOUS
 62
     1
 10
582.0
 20
1420.0
 11
582.0
 21
1620.0
  0
LINE
  8
0
  6
LTYPE1
 62
     2
 10
598.0
 20
1684.0
 11
524.0
 21
1684.0
  0
LINE
  8
0
  6
LTYPE1
 62
     2
 10
590.0
 20
1684.0
 11
583.0
 21
1684.0
  0
LINE
  8
0
  6
CONTINUOUS
 62
     1
 10
427.0
 20
1319.0
 11
427.0
 21
1579.0
  0
LINE
  8
0
  6
CONTINUOUS
 62
     1
 10
444.0
 20
1299.0
 11
444.0
 21
1579.0
  0
LINE
  8
0
  6
CONTINUOUS
 62
     1
 10
582.0
 20
1294.0
 11
582.0
 21
1654.0
  0
LINE
  8
1
  6
CONTINUOUS
 62
     2
 10
488.0
 20
1442.0
 11
469.080264544
 21
1435.515895569
  0
LINE
  8
1
  6
CONTINUOUS
 62
     2
 10
488.0
 20
1442.0
 11
474.857080677
 21
1426.924733114
  0
LINE
  8
1
  6
CONTINUOUS
 62
     2
 10
488.0
 20
1442.0
 11
372.0
 21
1364.0
  0
LINE
  8
0
  6
LTYPE1
 62
     2
 10
453.0
 20
1450.0
 11
405.0
 21
1450.0
  0
LINE
  8
0
  6
CONTINUOUS
 62
     1
 10
377.0
 20
1500.0
 11
377.0
 21
1540.0
  0
LINE
  8
0
  6
CONTINUOUS
 62
     1
 10
419.0
 20
1481.0
 11
419.0
 21
1559.0
  0
LINE
  8
0
  6
CONTINUOUS
 62
     1
 10
419.0
 20
1540.0
 11
377.0
 21
1540.0
  0
LINE
  8
0
  6
CONTINUOUS
 62
     1
 10
419.0
 20
1500.0
 11
377.0
 21
1500.0
  0
LINE
  8
0
  6
CONTINUOUS
 62
     1
 10
427.0
 20
1559.0
 11
419.0
 21
1559.0
  0
LINE
  8
0
  6
CONTINUOUS
 62
     1
 10
427.0
 20
1481.0
 11
419.0
 21
1481.0
  0
LINE
  8
0
  6
CONTINUOUS
 62
     1
 10
427.0
 20
1479.0
 11
421.0
 21
1479.0
  0
LINE
  8
0
  6
CONTINUOUS
 62
     1
 10
421.0
 20
1413.0
 11
421.0
 21
1479.0
  0
LINE
  8
0
  6
CONTINUOUS
 62
     1
 10
427.0
 20
1413.0
 11
421.0
 21
1413.0
  0
LINE
  8
0
  6
LTYPE1
 62
     2
 10
453.0
 20
1450.0
 11
414.6
 21
1450.0
  0
LINE
  8
1
  6
CONTINUOUS
 62
     2
 10
389.5
 20
1540.1
 11
387.922114377
 21
1560.037659766
  0
LINE
  8
1
  6
CONTINUOUS
 62
     2
 10
389.5
 20
1540.1
 11
378.164681083
 21
1556.577577038
  0
TEXT
  8
0
  6
CONTINUOUS
 62
     2
 10
196.775
 20
1691.705
 30
0.0
 40
24.0
  1
手動軸カバー
 50
0.0
 41
0.9
 51
0.0
  7
KANJI13
  0
LINE
  8
1
  6
CONTINUOUS
 62
     2
 10
389.5
 20
1540.1
 11
339.487134918
 21
1681.136279533
  0
LINE
  8
0
  6
CONTINUOUS
 62
     2
 10
179.0
 20
1681.136279533
 11
339.487134918
 21
1681.136279533
  0
LINE
  8
1
  6
CONTINUOUS
 62
     2
 10
582.0
 20
1662.0
 11
582.0
 21
1806.5
  0
LINE
  8
1
  6
CONTINUOUS
 62
     2
 10
582.0
 20
1790.5
 11
562.681483474
 21
1795.676380902
  0
LINE
  8
1
  6
CONTINUOUS
 62
     2
 10
582.0
 20
1790.5
 11
562.681483474
 21
1785.323619098
  0
LINE
  8
1
  6
CONTINUOUS
 62
     2
 10
582.0
 20
1790.5
 11
377.0
 21
1790.5
  0
LINE
  8
1
  6
CONTINUOUS
 62
     2
 10
377.0
 20
1790.5
 11
396.318516526
 21
1785.323619098
  0
LINE
  8
1
  6
CONTINUOUS
 62
     2
 10
377.0
 20
1790.5
 11
396.318516526
 21
1795.676380902
  0
LINE
  8
1
  6
CONTINUOUS
 62
     2
 10
377.0
 20
1548.0
 11
377.0
 21
1806.5
  0
LINE
  8
0
  6
LTYPE1
 62
     2
 10
590.0
 20
1684.0
 11
583.0
 21
1684.0
  0
LINE
  8
0
  6
LTYPE1
 62
     2
 10
590.0
 20
1684.0
 11
516.0
 21
1684.0
  0
LINE
  8
1
  6
CONTINUOUS
 62
     2
 10
964.6
 20
1524.5
 11
976.80839642
 21
1540.341561061
  0
LINE
  8
1
  6
CONTINUOUS
 62
     2
 10
964.6
 20
1524.5
 11
967.252000908
 21
1544.323392525
  0
LINE
  8
0
  6
CONTINUOUS
 62
     1
 10
590.0
 20
1630.0
 11
582.0
 21
1630.0
  0
LINE
  8
0
  6
CONTINUOUS
 62
     1
 10
602.0
 20
1420.0
 11
602.0
 21
1620.0
  0
LINE
  8
0
  6
CONTINUOUS
 62
     1
 10
590.0
 20
1410.0
 11
590.0
 21
1630.0
  0
LINE
  8
0
  6
CONTINUOUS
 62
     1
 10
590.0
 20
1410.0
 11
582.0
 21
1410.0
  0
LINE
  8
0
  6
CONTINUOUS
 62
     1
 10
604.5
 20
1471.564
 11
610.114359354
 21
1471.564
  0
LINE
  8
0
  6
CONTINUOUS
 62
     1
 10
611.5
 20
1469.164
 11
610.114359354
 21
1471.564
  0
LINE
  8
0
  6
CONTINUOUS
 62
     1
 10
611.5
 20
1461.764
 11
611.5
 21
1469.164
  0
LINE
  8
0
  6
CONTINUOUS
 62
     1
 10
604.5
 20
1466.664
 11
610.114359354
 21
1466.664
  0
ARC
  8
0
  6
CONTINUOUS
 62
     1
 10
602.1433172
 20
1461.764
 40
9.3566828
 50
328.419912243
 51
31.580087757
  0
LINE
  8
0
  6
CONTINUOUS
 62
     1
 10
611.5
 20
1469.164
 11
610.114359354
 21
1471.564
  0
ARC
  8
0
  6
CONTINUOUS
 62
     1
 10
608.642116168
 20
1469.114
 40
2.858321186
 50
301.002313915
 51
2.989498403
  0
LINE
  8
0
  6
CONTINUOUS
 62
     1
 10
604.5
 20
1451.964
 11
610.114359354
 21
1451.964
  0
LINE
  8
0
  6
CONTINUOUS
 62
     1
 10
611.5
 20
1454.364
 11
610.114359354
 21
1451.964
  0
LINE
  8
0
  6
CONTINUOUS
 62
     1
 10
611.5
 20
1461.764
 11
611.5
 21
1454.364
  0
LINE
  8
0
  6
CONTINUOUS
 62
     1
 10
604.5
 20
1456.864
 11
610.114359354
 21
1456.864
  0
ARC
  8
0
  6
CONTINUOUS
 62
     1
 10
608.642116168
 20
1454.414
 40
2.858321186
 50
357.010501597
 51
58.997686085
  0
LINE
  8
0
  6
CONTINUOUS
 62
     1
 10
604.5
 20
1461.764
 11
604.5
 21
1471.564
  0
LINE
  8
0
  6
CONTINUOUS
 62
     1
 10
604.499999996
 20
1461.764
 11
602.0
 21
1464.263999996
  0
LINE
  8
0
  6
CONTINUOUS
 62
     1
 10
602.0
 20
1470.964
 11
604.5
 21
1470.964
  0
LINE
  8
0
  6
CONTINUOUS
 62
     1
 10
604.5
 20
1461.764
 11
604.5
 21
1451.964
  0
LINE
  8
0
  6
CONTINUOUS
 62
     1
 10
602.0
 20
1452.564
 11
604.5
 21
1452.564
  0
LINE
  8
0
  6
CONTINUOUS
 62
     1
 10
602.0
 20
1461.764
 11
604.499999996
 21
1459.264000004
  0
LINE
  8
0
  6
CONTINUOUS
 62
     1
 10
604.5
 20
1588.236
 11
610.114359354
 21
1588.236
  0
LINE
  8
0
  6
CONTINUOUS
 62
     1
 10
611.5
 20
1585.836
 11
610.114359354
 21
1588.236
  0
LINE
  8
0
  6
CONTINUOUS
 62
     1
 10
611.5
 20
1578.436
 11
611.5
 21
1585.836
  0
LINE
  8
0
  6
CONTINUOUS
 62
     1
 10
604.5
 20
1583.336
 11
610.114359354
 21
1583.336
  0
ARC
  8
0
  6
CONTINUOUS
 62
     1
 10
602.1433172
 20
1578.436
 40
9.3566828
 50
328.419912243
 51
31.580087757
  0
ARC
  8
0
  6
CONTINUOUS
 62
     1
 10
608.642116168
 20
1585.786
 40
2.858321186
 50
301.002313915
 51
2.989498403
  0
LINE
  8
0
  6
CONTINUOUS
 62
     1
 10
604.5
 20
1568.636
 11
610.114359354
 21
1568.636
  0
LINE
  8
0
  6
CONTINUOUS
 62
     1
 10
611.5
 20
1571.036
 11
610.114359354
 21
1568.636
  0
LINE
  8
0
  6
CONTINUOUS
 62
     1
 10
611.5
 20
1578.436
 11
611.5
 21
1571.036
  0
LINE
  8
0
  6
CONTINUOUS
 62
     1
 10
604.5
 20
1573.536
 11
610.114359354
 21
1573.536
  0
LINE
  8
0
  6
CONTINUOUS
 62
     1
 10
611.5
 20
1571.036
 11
610.114359354
 21
1568.636
  0
ARC
  8
0
  6
CONTINUOUS
 62
     1
 10
608.642116168
 20
1571.086
 40
2.858321186
 50
357.010501597
 51
58.997686085
  0
LINE
  8
0
  6
CONTINUOUS
 62
     1
 10
604.5
 20
1578.436
 11
604.5
 21
1588.236
  0
LINE
  8
0
  6
CONTINUOUS
 62
     1
 10
604.5
 20
1578.436
 11
604.5
 21
1568.636
  0
LINE
  8
0
  6
CONTINUOUS
 62
     1
 10
602.0
 20
1587.636
 11
604.5
 21
1587.636
  0
LINE
  8
0
  6
CONTINUOUS
 62
     1
 10
602.0
 20
1578.436
 11
604.499999996
 21
1580.935999996
  0
LINE
  8
0
  6
CONTINUOUS
 62
     1
 10
604.499999996
 20
1578.436
 11
602.0
 21
1575.936000004
  0
LINE
  8
0
  6
CONTINUOUS
 62
     1
 10
602.0
 20
1569.236
 11
604.5
 21
1569.236
  0
LINE
  8
0
  6
CONTINUOUS
 62
     1
 10
602.0
 20
1620.0
 11
590.0
 21
1620.0
  0
LINE
  8
0
  6
CONTINUOUS
 62
     1
 10
602.0
 20
1420.0
 11
590.0
 21
1420.0
  0
LINE
  8
0
  6
CONTINUOUS
 62
     1
 10
812.0
 20
1580.1
 11
665.0
 21
1580.1
  0
LINE
  8
0
  6
CONTINUOUS
 62
     1
 10
812.0
 20
1560.1
 11
665.0
 21
1560.1
  0
LINE
  8
0
  6
CONTINUOUS
 62
     1
 10
812.0
 20
1540.1
 11
665.0
 21
1540.1
  0
LINE
  8
0
  6
CONTINUOUS
 62
     1
 10
812.0
 20
1500.1
 11
665.0
 21
1500.1
  0
LINE
  8
0
  6
CONTINUOUS
 62
     1
 10
812.0
 20
1480.1
 11
665.0
 21
1480.1
  0
LINE
  8
0
  6
CONTINUOUS
 62
     1
 10
812.0
 20
1460.1
 11
665.0
 21
1460.1
  0
LINE
  8
0
  6
CONTINUOUS
 62
     1
 10
812.0
 20
1440.1
 11
665.0
 21
1440.1
  0
LINE
  8
0
  6
CONTINUOUS
 62
     1
 10
946.741517274
 20
1536.048101266
 11
946.741517274
 21
1467.048101266
  0
POINT
  8
0
  6
CONTINUOUS
 62
     1
 10
946.741517274
 20
1467.048101266
  0
LINE
  8
0
  6
CONTINUOUS
 62
     1
 10
946.741517274
 20
1467.048101266
 11
951.741517274
 21
1467.048101266
  0
POINT
  8
0
  6
CONTINUOUS
 62
     1
 10
951.741517274
 20
1467.048101266
  0
LINE
  8
0
  6
CONTINUOUS
 62
     1
 10
951.741517274
 20
1467.048101266
 11
951.741517274
 21
1536.048101266
  0
LINE
  8
0
  6
CONTINUOUS
 62
     1
 10
946.741517274
 20
1536.048101266
 11
956.541517274
 21
1536.048101266
  0
LINE
  8
0
  6
CONTINUOUS
 62
     1
 10
956.541517274
 20
1504.151898734
 11
956.541517274
 21
1536.048101266
  0
LINE
  8
0
  6
CONTINUOUS
 62
     1
 10
951.741517274
 20
1504.151898734
 11
956.541517274
 21
1504.151898734
  0
LINE
  8
0
  6
CONTINUOUS
 62
     1
 10
946.741517274
 20
1524.3
 11
940.041517274
 21
1524.3
  0
LINE
  8
0
  6
CONTINUOUS
 62
     1
 10
946.741517274
 20
1515.9
 11
940.041517274
 21
1515.9
  0
LINE
  8
0
  6
CONTINUOUS
 62
     1
 10
951.741517274
 20
1479.85
 11
957.141517274
 21
1479.85
  0
POINT
  8
0
  6
CONTINUOUS
 62
     1
 10
957.141517274
 20
1479.85
  0
LINE
  8
0
  6
CONTINUOUS
 62
     1
 10
957.141517274
 20
1479.85
 11
957.141517274
 21
1471.05
  0
POINT
  8
0
  6
CONTINUOUS
 62
     1
 10
957.141517274
 20
1471.05
  0
LINE
  8
0
  6
CONTINUOUS
 62
     1
 10
957.141517274
 20
1471.05
 11
951.841517274
 21
1471.05
  0
LINE
  8
0
  6
CONTINUOUS
 62
     1
 10
946.741517274
 20
1477.05
 11
937.841517274
 21
1477.05
  0
LINE
  8
0
  6
CONTINUOUS
 62
     1
 10
946.741517274
 20
1473.95
 11
937.541517274
 21
1473.95
  0
LINE
  8
0
  6
CONTINUOUS
 62
     1
 10
956.541517274
 20
1533.5
 11
960.0
 21
1533.5
  0
LINE
  8
0
  6
CONTINUOUS
 62
     1
 10
960.0
 20
1533.5
 11
960.0
 21
1528.9
  0
LINE
  8
0
  6
CONTINUOUS
 62
     1
 10
956.541517274
 20
1528.9
 11
960.0
 21
1528.9
  0
LINE
  8
0
  6
CONTINUOUS
 62
     1
 10
956.541517274
 20
1506.7
 11
960.0
 21
1506.7
  0
LINE
  8
0
  6
CONTINUOUS
 62
     1
 10
960.0
 20
1506.7
 11
960.0
 21
1511.3
  0
LINE
  8
0
  6
CONTINUOUS
 62
     1
 10
956.541517274
 20
1511.3
 11
960.0
 21
1511.3
  0
LINE
  8
0
  6
CONTINUOUS
 62
     1
 10
956.541517274
 20
1517.8
 11
960.0
 21
1517.8
  0
LINE
  8
0
  6
CONTINUOUS
 62
     1
 10
960.0
 20
1517.8
 11
960.0
 21
1522.4
  0
LINE
  8
0
  6
CONTINUOUS
 62
     1
 10
956.541517274
 20
1522.4
 11
960.0
 21
1522.4
  0
LINE
  8
0
  6
LTYPE1
 62
     2
 10
932.841517274
 20
1475.55
 11
962.841517274
 21
1475.55
  0
LINE
  8
0
  6
CONTINUOUS
 62
     1
 10
812.0
 20
1600.1
 11
665.0
 21
1600.1
  0
LINE
  8
0
  6
CONTINUOUS
 62
     1
 10
809.5
 20
1708.1
 11
661.5
 21
1634.1
  0
LINE
  8
0
  6
CONTINUOUS
 62
     1
 10
813.972135955
 20
1699.15572809
 11
665.972135955
 21
1625.15572809
  0
ARC
  8
0
  6
CONTINUOUS
 62
     1
 10
783.5
 20
1632.1
 40
10.0
 50
270.0
 51
0.0
  0
ARC
  8
0
  6
CONTINUOUS
 62
     1
 10
783.5
 20
1698.1
 40
10.0
 50
0.0
 51
90.0
  0
LINE
  8
0
  6
CONTINUOUS
 62
     1
 10
783.5
 20
1708.1
 11
693.5
 21
1708.1
  0
ARC
  8
0
  6
CONTINUOUS
 62
     1
 10
693.5
 20
1698.1
 40
10.0
 50
90.0
 51
180.0
  0
LINE
  8
0
  6
CONTINUOUS
 62
     1
 10
783.5
 20
1622.1
 11
693.5
 21
1622.1
  0
ARC
  8
0
  6
CONTINUOUS
 62
     1
 10
693.5
 20
1632.1
 40
10.0
 50
180.0
 51
270.0
  0
LINE
  8
0
  6
CONTINUOUS
 62
     1
 10
661.5
 20
1634.1
 11
665.972135955
 21
1625.15572809
  0
LINE
  8
0
  6
CONTINUOUS
 62
     1
 10
683.5
 20
1645.01572809
 11
683.5
 21
1698.1
  0
LINE
  8
0
  6
CONTINUOUS
 62
     1
 10
683.5
 20
1632.1
 11
683.5
 21
1634.01572809
  0
LINE
  8
0
  6
CONTINUOUS
 62
     1
 10
793.5
 20
1632.1
 11
793.5
 21
1688.01572809
  0
LINE
  8
0
  6
CONTINUOUS
 62
     1
 10
809.712135955
 20
1708.89572809
 11
814.512135955
 21
1699.69572809
  0
LINE
  8
0
  6
LTYPE1
 62
     2
 10
738.5
 20
1608.85
 11
738.5
 21
1717.9
  0
LINE
  8
0
  6
CONTINUOUS
 62
     1
 10
822.0
 20
1620.1
 11
917.814388593
 21
1620.1
  0
ARC
  8
0
  6
CONTINUOUS
 62
     1
 10
915.814388593
 20
1605.1
 40
15.0
 50
10.945397096
 51
90.0
  0
ARC
  8
0
  6
CONTINUOUS
 62
     1
 10
915.923513917
 20
1607.793940371
 40
15.0
 50
10.945397096
 51
90.0
  0
LINE
  8
0
  6
CONTINUOUS
 62
     1
 10
822.0
 20
1622.6
 11
917.814388593
 21
1622.6
  0
ARC
  8
0
  6
CONTINUOUS
 62
     1
 10
530.0
 20
1520.1
 40
410.0
 50
347.629566941
 51
12.370433059
  0
LINE
  8
0
  6
CONTINUOUS
 62
     1
 10
822.0
 20
1610.8
 11
655.0
 21
1610.8
  0
LINE
  8
0
  6
CONTINUOUS
 62
     1
 10
655.0
 20
1429.4
 11
655.0
 21
1610.8
  0
LINE
  8
0
  6
CONTINUOUS
 62
     1
 10
773.4
 20
1622.1
 11
773.4
 21
1610.8
  0
LINE
  8
0
  6
CONTINUOUS
 62
     1
 10
703.6
 20
1622.1
 11
703.6
 21
1610.8
  0
ARC
  8
0
  6
CONTINUOUS
 62
     1
 10
929.874980463
 20
1530.1
 40
10.0
 50
1.432543738
 51
90.0
  0
ARC
  8
0
  6
CONTINUOUS
 62
     1
 10
929.874980463
 20
1510.1
 40
10.0
 50
270.0
 51
358.567456262
  0
LINE
  8
0
  6
CONTINUOUS
 62
     1
 10
929.874999151
 20
1540.1
 11
822.0
 21
1540.1
  0
LINE
  8
0
  6
CONTINUOUS
 62
     1
 10
822.0
 20
1500.1
 11
930.374999151
 21
1500.1
  0
LINE
  8
0
  6
CONTINUOUS
 62
     1
 10
822.0
 20
1419.9
 11
917.814388593
 21
1419.9
  0
ARC
  8
0
  6
CONTINUOUS
 62
     1
 10
915.814388593
 20
1434.9
 40
15.0
 50
270.0
 51
349.054602904
  0
ARC
  8
0
  6
CONTINUOUS
 62
     1
 10
915.923513917
 20
1432.206059629
 40
15.0
 50
270.0
 51
349.054602904
  0
ARC
  8
0
  6
CONTINUOUS
 62
     1
 10
530.0
 20
1519.9
 40
410.0
 50
347.629566941
 51
12.370433059
  0
LINE
  8
0
  6
CONTINUOUS
 62
     1
 10
822.0
 20
1429.2
 11
655.0
 21
1429.2
  0
LINE
  8
0
  6
CONTINUOUS
 62
     1
 10
822.0
 20
1417.4
 11
822.0
 21
1622.6
  0
LINE
  8
0
  6
CONTINUOUS
 62
     1
 10
822.0
 20
1417.4
 11
917.814388593
 21
1417.4
  0
LINE
  8
0
  6
CONTINUOUS
 62
     1
 10
602.0
 20
1602.77572809
 11
654.672135955
 21
1602.77572809
  0
LINE
  8
0
  6
CONTINUOUS
 62
     1
 10
602.0
 20
1437.42427191
 11
654.672135955
 21
1437.42427191
  0
LINE
  8
1
  6
CONTINUOUS
 62
     2
 10
964.6
 20
1524.5
 11
1022.933333333
 21
1664.5
  0
LINE
  8
0
  6
LTYPE1
 62
     2
 10
977.0
 20
1520.0
 11
364.5
 21
1520.0
  0
LINE
  8
1
  6
CONTINUOUS
 62
     2
 10
582.0
 20
1772.5
 11
582.0
 21
1806.5
  0
LINE
  8
1
  6
CONTINUOUS
 62
     2
 10
582.0
 20
1790.5
 11
601.318516526
 21
1785.323619098
  0
LINE
  8
1
  6
CONTINUOUS
 62
     2
 10
582.0
 20
1790.5
 11
601.318516526
 21
1795.676380902
  0
LINE
  8
1
  6
CONTINUOUS
 62
     2
 10
582.0
 20
1790.5
 11
960.0
 21
1790.5
  0
LINE
  8
1
  6
CONTINUOUS
 62
     2
 10
960.0
 20
1790.5
 11
940.681483474
 21
1795.676380902
  0
LINE
  8
1
  6
CONTINUOUS
 62
     2
 10
960.0
 20
1790.5
 11
940.681483474
 21
1785.323619098
  0
LINE
  8
1
  6
CONTINUOUS
 62
     2
 10
960.0
 20
1541.5
 11
960.0
 21
1806.5
  0
LINE
  8
1
  6
CONTINUOUS
 62
     2
 10
372.0
 20
1364.0
 11
291.2
 21
1364.0
  0
LINE
  8
0
  6
LTYPE4
 62
     2
 10
1972.8
 20
1518.0
 11
2277.8
 21
1518.0
  0
ARC
  8
0
  6
CONTINUOUS
 62
     1
 10
2119.8
 20
1518.0
 40
125.0
 50
280.557968545
 51
0.0
  0
CIRCLE
  8
0
  6
CONTINUOUS
 62
     1
 10
2119.8
 20
1518.0
 40
20.0
  0
ARC
  8
0
  6
CONTINUOUS
 62
     1
 10
2034.8
 20
1518.0
 40
20.0
 50
90.0
 51
270.0
  0
ARC
  8
0
  6
CONTINUOUS
 62
     1
 10
2162.3
 20
1444.387840678
 40
20.0
 50
210.0
 51
30.0
  0
ARC
  8
0
  6
CONTINUOUS
 62
     1
 10
2162.3
 20
1591.612159322
 40
20.0
 50
330.0
 51
150.0
  0
LINE
  8
0
  6
CONTINUOUS
 62
     1
 10
2034.8
 20
1538.0
 11
2108.252994616
 21
1538.0
  0
LINE
  8
0
  6
CONTINUOUS
 62
     1
 10
2144.979491924
 20
1601.612159322
 11
2108.252994616
 21
1538.0
  0
LINE
  8
0
  6
CONTINUOUS
 62
     1
 10
2034.8
 20
1498.0
 11
2108.252994616
 21
1498.0
  0
LINE
  8
0
  6
CONTINUOUS
 62
     1
 10
2144.979491924
 20
1434.387840678
 11
2108.252994616
 21
1498.0
  0
CIRCLE
  8
0
  6
CONTINUOUS
 62
     1
 10
2179.8
 20
1518.0
 40
10.0
  0
LINE
  8
0
  6
CONTINUOUS
 62
     2
 10
2179.8
 20
1533.0
 11
2179.8
 21
1503.0
  0
LINE
  8
0
  6
CONTINUOUS
 62
     1
 10
2123.133333333
 20
1498.279734056
 11
2181.466666667
 21
1508.139867028
  0
LINE
  8
0
  6
CONTINUOUS
 62
     1
 10
2123.133333333
 20
1537.720265944
 11
2181.466666667
 21
1527.860132972
  0
LINE
  8
0
  6
CONTINUOUS
 62
     1
 10
2179.620508076
 20
1581.612159322
 11
2151.510211838
 21
1532.923698023
  0
LINE
  8
0
  6
CONTINUOUS
 62
     1
 10
2179.620508076
 20
1454.387840678
 11
2151.510211838
 21
1503.076301977
  0
ARC
  8
0
  6
CONTINUOUS
 62
     1
 10
2195.813978978
 20
1594.013978978
 40
7.75
 50
294.214141675
 51
155.785858325
  0
LINE
  8
0
  6
CONTINUOUS
 62
     2
 10
2189.8
 20
1588.0
 11
2202.745832412
 21
1600.945832412
  0
ARC
  8
0
  6
CONTINUOUS
 62
     2
 10
2119.8
 20
1518.0
 40
107.5
 50
38.280925788
 51
51.325228591
  0
ARC
  8
0
  6
CONTINUOUS
 62
     1
 10
2195.813978978
 20
1441.986021022
 40
7.75
 50
204.214141675
 51
65.785858325
  0
LINE
  8
0
  6
CONTINUOUS
 62
     2
 10
2189.8
 20
1448.0
 11
2202.745832412
 21
1435.054167588
  0
ARC
  8
0
  6
CONTINUOUS
 62
     2
 10
2119.8
 20
1518.0
 40
107.5
 50
308.674771409
 51
321.719074212
  0
ARC
  8
0
  6
CONTINUOUS
 62
     1
 10
2043.786021022
 20
1594.013978978
 40
7.75
 50
24.214141675
 51
245.785858325
  0
LINE
  8
0
  6
CONTINUOUS
 62
     2
 10
2049.8
 20
1588.0
 11
2036.854167588
 21
1600.945832412
  0
ARC
  8
0
  6
CONTINUOUS
 62
     2
 10
2119.8
 20
1518.0
 40
107.5
 50
128.674771409
 51
141.719074212
  0
ARC
  8
0
  6
CONTINUOUS
 62
     1
 10
2043.786021022
 20
1441.986021022
 40
7.75
 50
114.214141675
 51
335.785858325
  0
LINE
  8
0
  6
CONTINUOUS
 62
     2
 10
2049.8
 20
1448.0
 11
2036.854167588
 21
1435.054167588
  0
ARC
  8
0
  6
CONTINUOUS
 62
     2
 10
2119.8
 20
1518.0
 40
107.5
 50
218.280925788
 51
231.325228591
  0
ARC
  8
0
  6
CONTINUOUS
 62
     1
 10
2119.8
 20
1518.0
 40
105.0
 50
272.980462591
 51
0.0
  0
ARC
  8
0
  6
CONTINUOUS
 62
     1
 10
2119.8
 20
1518.0
 40
105.0
 50
0.0
 51
226.520053773
  0
CIRCLE
  8
0
  6
CONTINUOUS
 62
     1
 10
2119.8
 20
1533.0
 40
4.0
  0
CIRCLE
  8
0
  6
CONTINUOUS
 62
     1
 10
2119.8
 20
1518.0
 40
4.0
  0
CIRCLE
  8
0
  6
CONTINUOUS
 62
     1
 10
2104.8
 20
1518.0
 40
4.0
  0
CIRCLE
  8
0
  6
CONTINUOUS
 62
     1
 10
2119.8
 20
1503.0
 40
4.0
  0
CIRCLE
  8
0
  6
CONTINUOUS
 62
     1
 10
2134.8
 20
1518.0
 40
4.0
  0
ARC
  8
0
  6
CONTINUOUS
 62
     1
 10
2119.8
 20
1518.0
 40
105.0
 50
226.520053773
 51
272.980462591
  0
ARC
  8
0
  6
CONTINUOUS
 62
     1
 10
2119.8
 20
1518.0
 40
150.0
 50
109.471220634
 51
150.073565133
  0
ARC
  8
0
  6
CONTINUOUS
 62
     1
 10
2119.8
 20
1518.0
 40
150.0
 50
29.926434867
 51
70.528779366
  0
LINE
  8
0
  6
CONTINUOUS
 62
     1
 10
1989.8
 20
1527.0
 11
1982.2
 21
1527.0
  0
LINE
  8
0
  6
CONTINUOUS
 62
     1
 10
1982.2
 20
1407.0
 11
1982.2
 21
1527.0
  0
LINE
  8
0
  6
LTYPE1
 62
     2
 10
2004.4
 20
1517.0
 11
1977.4
 21
1517.0
  0
LINE
  8
0
  6
LTYPE1
 62
     2
 10
2004.4
 20
1417.0
 11
1979.4
 21
1417.0
  0
LINE
  8
0
  6
CONTINUOUS
 62
     1
 10
1989.8
 20
1407.0
 11
1982.2
 21
1407.0
  0
LINE
  8
0
  6
CONTINUOUS
 62
     1
 10
2249.8
 20
1527.0
 11
2257.4
 21
1527.0
  0
LINE
  8
0
  6
CONTINUOUS
 62
     1
 10
2257.4
 20
1407.0
 11
2257.4
 21
1527.0
  0
LINE
  8
0
  6
LTYPE1
 62
     2
 10
2235.2
 20
1517.0
 11
2262.2
 21
1517.0
  0
LINE
  8
0
  6
LTYPE1
 62
     2
 10
2235.2
 20
1417.0
 11
2260.2
 21
1417.0
  0
LINE
  8
0
  6
CONTINUOUS
 62
     1
 10
2249.8
 20
1407.0
 11
2257.4
 21
1407.0
  0
LINE
  8
0
  6
CONTINUOUS
 62
     1
 10
2249.8
 20
1332.874886635
 11
2249.8
 21
1592.833147735
  0
LINE
  8
0
  6
CONTINUOUS
 62
     1
 10
1989.8
 20
1376.805352832
 11
2017.332069511
 21
1416.125223025
  0
LINE
  8
0
  6
CONTINUOUS
 62
     1
 10
1989.8
 20
1376.805352832
 11
1989.8
 21
1592.833147735
  0
LINE
  8
0
  6
CONTINUOUS
 62
     1
 10
2259.8
 20
1242.0
 11
2259.8
 21
1332.0
  0
LINE
  8
1
  6
CONTINUOUS
 62
     2
 10
2330.307300983
 20
1287.0
 11
2358.307300983
 21
1287.0
  0
LINE
  8
1
  6
CONTINUOUS
 62
     2
 10
2342.307300983
 20
1287.0
 11
2347.483681885
 21
1306.318516526
  0
LINE
  8
1
  6
CONTINUOUS
 62
     2
 10
2342.307300983
 20
1287.0
 11
2337.130920081
 21
1306.318516526
  0
LINE
  8
1
  6
CONTINUOUS
 62
     2
 10
2342.307300983
 20
1518.0
 11
2337.130920081
 21
1498.681483474
  0
LINE
  8
1
  6
CONTINUOUS
 62
     2
 10
2342.307300983
 20
1518.0
 11
2347.483681885
 21
1498.681483474
  0
LINE
  8
1
  6
CONTINUOUS
 62
     2
 10
2245.307300983
 20
1518.0
 11
2358.307300983
 21
1518.0
  0
LINE
  8
1
  6
CONTINUOUS
 62
     2
 10
2335.307300983
 20
1518.0
 11
2358.307300983
 21
1518.0
  0
TEXT
  8
1
  6
CONTINUOUS
 62
     2
 10
291.2
 20
1372.0
 30
4.0
 40
24.0
  1
点検口
 50
0.0
 41
0.9
 51
0.0
  7
KANJI61
  0
TEXT
  8
1
  6
CONTINUOUS
 62
     2
 10
936.0
 20
1864.5
 30
4.0
 40
24.0
  1
ＰＦ３／４
 50
0.0
 41
0.9
 51
0.0
  7
KANJI61
  0
TEXT
  8
1
  6
CONTINUOUS
 62
     2
 10
438.7
 20
1798.5
 30
2.4
 40
28.0
  1
２０５
 50
0.0
 41
0.914285714
 51
0.0
  7
KANJI48
  0
TEXT
  8
1
  6
CONTINUOUS
 62
     2
 10
730.2
 20
1798.5
 30
2.4
 40
28.0
  1
３７８
 50
0.0
 41
0.914285714
 51
0.0
  7
KANJI48
  0
TEXT
  8
1
  6
CONTINUOUS
 62
     2
 10
1020.0
 20
1672.5
 30
4.0
 40
24.0
  1
ブレーキ開放装置
 50
0.0
 41
0.9
 51
0.0
  7
KANJI61
  0
LINE
  8
1
  6
CONTINUOUS
 62
     2
 10
1022.933333333
 20
1664.5
 11
1220.8
 21
1664.5
  0
LINE
  8
1
  6
CONTINUOUS
 62
     2
 10
2342.307300983
 20
1287.0
 11
2342.307300983
 21
1518.0
  0
TEXT
  8
1
  6
CONTINUOUS
 62
     2
 10
2334.307300983
 20
1361.7
 30
2.4
 40
28.0
  1
２３１
 50
90.0
 41
0.914285714
 51
0.0
  7
KANJI48
  0
TEXT
  8
1
  6
CONTINUOUS
 62
     2
 10
1879.0
 20
992.5
 30
2.4
 40
28.0
  1
φ４５Ｈ１０深５０
 50
90.0
 41
0.914285714
 51
0.0
  7
KANJI48
  0
LINE
  8
1
  6
CONTINUOUS
 62
     2
 10
1887.0
 20
1264.5
 11
1887.0
 21
991.0
  0
LINE
  8
1
  6
CONTINUOUS
 62
     2
 10
1887.0
 20
1336.0
 11
1887.0
 21
1309.5
  0
LINE
  8
1
  6
CONTINUOUS
 62
     2
 10
2003.800030518
 20
1364.0
 11
1987.661405387
 21
1375.8129073
  0
LINE
  8
1
  6
CONTINUOUS
 62
     2
 10
2003.800030518
 20
1364.0
 11
1983.917117522
 21
1366.160965249
  0
LINE
  8
1
  6
CONTINUOUS
 62
     2
 10
2003.800030518
 20
1364.0
 11
1887.800030518
 21
1409.0
  0
LINE
  8
1
  6
CONTINUOUS
 62
     2
 10
1887.800030518
 20
1409.0
 11
1770.200030518
 21
1409.0
  0
TEXT
  8
1
  6
CONTINUOUS
 62
     2
 10
1770.200030518
 20
1417.0
 30
2.4
 40
24.0
  1
ＰＦ１／２
 50
0.0
 41
0.9
 51
0.0
  7
KANJI1
  0
TEXT
  8
0
  6
CONTINUOUS
 62
     3
 10
2226.4667112
 20
158.599992
 30
2.4
 40
28.0
  1
２００１．０６．２０
 50
0.0
 41
0.571428571
 51
0.0
  7
KANJI62
  0
POLYLINE
  8
0
  6
CONTINUOUS
 62
     1
 66
     1
  0
VERTEX
  8
0
  6
CONTINUOUS
 62
     1
 10
828.5
 20
1642.0
  0
VERTEX
  8
0
  6
CONTINUOUS
 62
     1
 10
828.5
 20
1682.0
  0
VERTEX
  8
0
  6
CONTINUOUS
 62
     1
 10
793.5
 20
1682.0
  0
SEQEND
  0
LINE
  8
1
  6
CONTINUOUS
 62
     2
 10
828.5
 20
1662.0
 11
832.509607405
 21
1681.593954385
  0
LINE
  8
0
  6
CONTINUOUS
 62
     1
 10
828.5
 20
1642.0
 11
793.5
 21
1642.0
  0
LINE
  8
0
  6
LTYPE1
 62
     2
 10
843.4000632
 20
1662.0
 11
783.552135955
 21
1662.0
  0
LINE
  8
1
  6
CONTINUOUS
 62
     2
 10
828.5
 20
1662.0
 11
841.769399065
 21
1676.964058556
  0
LINE
  8
1
  6
CONTINUOUS
 62
     2
 10
925.75
 20
1856.5
 11
1060.0
 21
1856.5
  0
LINE
  8
1
  6
CONTINUOUS
 62
     2
 10
828.5
 20
1662.0
 11
925.75
 21
1856.5
  0
CIRCLE
  8
0
  6
CONTINUOUS
 62
     1
 10
2119.8
 20
1660.0
 40
20.0
  0
CIRCLE
  8
0
  6
CONTINUOUS
 62
     2
 10
2119.8
 20
1660.0
 40
13.5
  0
CIRCLE
  8
0
  6
CONTINUOUS
 62
     2
 10
2119.8
 20
1660.0
 40
15.0
  0
LINE
  8
0
  6
LTYPE2
 62
     2
 10
2089.3
 20
1660.0
 11
2148.8
 21
1660.0
  0
LINE
  8
0
  6
CONTINUOUS
 62
     1
 10
2163.8
 20
1706.0
 11
2075.8
 21
1706.0
  0
ARC
  8
0
  6
CONTINUOUS
 62
     1
 10
2075.8
 20
1700.0
 40
6.0
 50
90.0
 51
180.0
  0
ARC
  8
0
  6
CONTINUOUS
 62
     1
 10
2075.8
 20
1695.705692517
 40
6.0
 50
90.0
 51
180.0
  0
LINE
  8
0
  6
CONTINUOUS
 62
     1
 10
2075.8
 20
1701.705692517
 11
2163.8
 21
1701.705692517
  0
ARC
  8
0
  6
CONTINUOUS
 62
     1
 10
2163.8
 20
1695.705692517
 40
6.0
 50
0.0
 51
90.0
  0
ARC
  8
0
  6
CONTINUOUS
 62
     1
 10
2163.8
 20
1700.0
 40
6.0
 50
0.0
 51
90.0
  0
LINE
  8
0
  6
CONTINUOUS
 62
     1
 10
2169.8
 20
1636.7
 11
2169.8
 21
1700.0
  0
ARC
  8
0
  6
CONTINUOUS
 62
     1
 10
2156.8
 20
1692.705692517
 40
3.0
 50
0.0
 51
90.0
  0
LINE
  8
0
  6
CONTINUOUS
 62
     1
 10
2159.8
 20
1631.2
 11
2159.8
 21
1692.705692517
  0
LINE
  8
0
  6
CONTINUOUS
 62
     1
 10
2082.800030518
 20
1695.705692517
 11
2156.8
 21
1695.705692517
  0
LINE
  8
0
  6
CONTINUOUS
 62
     1
 10
2079.8
 20
1631.2
 11
2079.8
 21
1692.705692517
  0
LINE
  8
0
  6
CONTINUOUS
 62
     1
 10
2069.8
 20
1637.2
 11
2069.8
 21
1700.0
  0
ARC
  8
0
  6
CONTINUOUS
 62
     1
 10
2082.8
 20
1692.705692517
 40
3.0
 50
89.999417157
 51
180.0
  0
ARC
  8
0
  6
CONTINUOUS
 62
     1
 10
2075.8
 20
1636.7
 40
6.0
 50
180.0
 51
270.0
  0
LINE
  8
0
  6
CONTINUOUS
 62
     1
 10
2079.8
 20
1630.7
 11
2075.8
 21
1630.7
  0
ARC
  8
0
  6
CONTINUOUS
 62
     1
 10
2082.8
 20
1630.7
 40
3.0
 50
180.0
 51
270.000582843
  0
ARC
  8
0
  6
CONTINUOUS
 62
     1
 10
2156.8
 20
1630.7
 40
3.0
 50
270.0
 51
0.0
  0
ARC
  8
0
  6
CONTINUOUS
 62
     1
 10
2163.8
 20
1636.7
 40
6.0
 50
270.0
 51
0.0
  0
LINE
  8
0
  6
CONTINUOUS
 62
     1
 10
2159.8
 20
1630.7
 11
2163.8
 21
1630.7
  0
LINE
  8
0
  6
CONTINUOUS
 62
     1
 10
2082.800030518
 20
1627.7
 11
2156.8
 21
1627.7
  0
ARC
  8
0
  6
CONTINUOUS
 62
     1
 10
2119.8
 20
1518.0
 40
125.0
 50
113.156704077
 51
280.557968545
  0
ARC
  8
0
  6
CONTINUOUS
 62
     1
 10
2119.8
 20
1518.0
 40
125.0
 50
0.0
 51
66.29909018
  0
LINE
  8
0
  6
CONTINUOUS
 62
     1
 10
2139.8
 20
1621.07764064
 11
2139.8
 21
1627.7
  0
LINE
  8
0
  6
CONTINUOUS
 62
     1
 10
2099.8
 20
1621.07764064
 11
2099.8
 21
1627.7
  0
LINE
  8
0
  6
CONTINUOUS
 62
     2
 10
2330.307300983
 20
1518.0
 11
2354.307300983
 21
1518.0
  0
LINE
  8
0
  6
CONTINUOUS
 62
     2
 10
2342.307300983
 20
1518.0
 11
2347.483681885
 21
1537.318516526
  0
LINE
  8
0
  6
CONTINUOUS
 62
     2
 10
2342.307300983
 20
1518.0
 11
2337.130920081
 21
1537.318516526
  0
LINE
  8
0
  6
CONTINUOUS
 62
     2
 10
2342.307300983
 20
1518.0
 11
2342.307300983
 21
1706.0
  0
LINE
  8
0
  6
CONTINUOUS
 62
     2
 10
2342.307300983
 20
1706.0
 11
2337.130920081
 21
1686.681483474
  0
LINE
  8
0
  6
CONTINUOUS
 62
     2
 10
2342.307300983
 20
1706.0
 11
2347.483681885
 21
1686.681483474
  0
LINE
  8
0
  6
CONTINUOUS
 62
     2
 10
2171.800030518
 20
1706.0
 11
2354.307300983
 21
1706.0
  0
TEXT
  8
0
  6
CONTINUOUS
 62
     3
 10
2338.307300983
 20
1576.0
 30
0.0
 40
25.6
  1
１８８
 50
90.0
 41
0.9375
 51
0.0
  7
KANJI63
  0
LINE
  8
0
  6
CONTINUOUS
 62
     2
 10
2333.0
 20
1706.0
 11
2406.0
 21
1706.0
  0
LINE
  8
0
  6
CONTINUOUS
 62
     2
 10
2394.0
 20
1706.0
 11
2388.823619098
 21
1686.681483474
  0
LINE
  8
0
  6
CONTINUOUS
 62
     2
 10
2394.0
 20
1706.0
 11
2399.176380902
 21
1686.681483474
  0
LINE
  8
0
  6
CONTINUOUS
 62
     2
 10
2394.0
 20
1706.0
 11
2394.0
 21
1152.0
  0
LINE
  8
0
  6
CONTINUOUS
 62
     2
 10
2394.0
 20
1152.0
 11
2399.176380902
 21
1171.318516526
  0
LINE
  8
0
  6
CONTINUOUS
 62
     2
 10
2394.0
 20
1152.0
 11
2388.823619098
 21
1171.318516526
  0
LINE
  8
0
  6
CONTINUOUS
 62
     2
 10
2334.0
 20
1152.0
 11
2406.0
 21
1152.0
  0
TEXT
  8
0
  6
CONTINUOUS
 62
     3
 10
2390.0
 20
1393.0
 30
0.0
 40
25.6
  1
５５４
 50
90.0
 41
0.9375
 51
0.0
  7
KANJI63
  0
LINE
  8
0
  6
CONTINUOUS
 62
     1
 10
1979.8
 20
1242.0
 11
2032.998781971
 21
1237.345709664
  0
LINE
  8
0
  6
CONTINUOUS
 62
     1
 10
2259.8
 20
1242.0
 11
2206.601218029
 21
1237.345709664
  0
LINE
  8
0
  6
CONTINUOUS
 62
     1
 10
2021.601218029
 20
1300.824670885
 11
2007.978095714
 21
1310.363683824
  0
ARC
  8
0
  6
CONTINUOUS
 62
     1
 10
2119.8
 20
1287.0
 40
100.0
 50
294.459816836
 51
244.893969159
  0
LINE
  8
0
  6
CONTINUOUS
 62
     1
 10
2259.8
 20
1332.0
 11
2206.601218029
 21
1336.654290336
  0
LINE
  8
0
  6
CONTINUOUS
 62
     1
 10
2072.458322994
 20
1375.083855605
 11
2059.599974985
 21
1384.08736781
  0
LINE
  8
0
  6
CONTINUOUS
 62
     1
 10
2059.599974985
 20
1384.08736781
 11
2007.404519278
 21
1309.54453178
  0
LINE
  8
0
  6
LTYPE4
 62
     2
 10
2119.8
 20
1119.654290336
 11
2119.8
 21
1717.205692517
  0
LINE
  8
0
  6
CONTINUOUS
 62
     2
 10
1420.0
 20
1015.0
 11
1420.0
 21
1215.0
  0
LINE
  8
0
  6
CONTINUOUS
 62
     1
 10
1453.999190206
 20
1125.5
 11
1453.999190206
 21
1289.0
  0
LINE
  8
0
  6
CONTINUOUS
 62
     1
 10
1453.999190206
 20
1125.5
 11
1469.999190206
 21
1125.5
  0
TEXT
  8
0
  6
CONTINUOUS
 62
     3
 10
2362.0
 20
327.0
 30
0.0
 40
24.0
  1
７／２
 50
0.0
 41
0.5
 51
0.0
  7
KANJI64
  0
TEXT
  8
0
  6
CONTINUOUS
 62
     2
 10
2250.0
 20
328.9333248
 30
24.0
 40
24.0
  1
田口
 50
0.0
 41
0.9
 51
0.0
  7
KANJI65
  0
POLYLINE
  8
0
  6
CONTINUOUS
 62
     4
 66
     1
  0
VERTEX
  8
0
  6
CONTINUOUS
 62
     4
 10
1642.0667892
 20
187.999996
  0
VERTEX
  8
0
  6
CONTINUOUS
 62
     4
 10
1619.5334576
 20
153.333332
  0
VERTEX
  8
0
  6
CONTINUOUS
 62
     4
 10
1664.6001208
 20
153.333332
  0
SEQEND
  0
LINE
  8
0
  6
CONTINUOUS
 62
     4
 10
1642.0667892
 20
187.999996
 11
1664.6001208
 21
153.333332
  0
TEXT
  8
0
  6
CONTINUOUS
 62
     3
 10
1635.0
 20
155.6
 30
0.0
 40
24.0
  1
１
 50
0.0
 41
0.5
 51
0.0
  7
KANJI64
  0
TEXT
  8
0
  6
CONTINUOUS
 62
     3
 10
1675.0
 20
151.6
 30
0.0
 40
24.0
  1
２００２．１０．１６　岡田　寸法変更
 50
0.0
 41
0.5
 51
0.0
  7
KANJI64
  0
TEXT
  8
0
  6
CONTINUOUS
 62
     3
 10
3079.0
 20
198.6
 30
0.0
 40
24.0
  1
１
 50
0.0
 41
0.5
 51
0.0
  7
KANJI64
  0
LINE
  8
0
  6
CONTINUOUS
 62
     3
 10
2327.2
 20
1542.7
 11
2303.2
 21
1556.556406461
  0
LINE
  8
0
  6
CONTINUOUS
 62
     3
 10
2303.2
 20
1556.556406461
 11
2327.2
 21
1570.412812921
  0
LINE
  8
0
  6
CONTINUOUS
 62
     3
 10
2327.2
 20
1570.412812921
 11
2327.2
 21
1542.7
  0
TEXT
  8
0
  6
CONTINUOUS
 62
     3
 10
2324.856854249
 20
1550.899552211
 30
0.0
 40
11.313708499
  1
１
 50
90.0
 41
1.0
 51
0.0
  7
KANJI66
  0
LINE
  8
0
  6
CONTINUOUS
 62
     3
 10
2376.1
 20
1358.2
 11
2352.1
 21
1372.056406461
  0
LINE
  8
0
  6
CONTINUOUS
 62
     3
 10
2352.1
 20
1372.056406461
 11
2376.1
 21
1385.912812921
  0
LINE
  8
0
  6
CONTINUOUS
 62
     3
 10
2376.1
 20
1385.912812921
 11
2376.1
 21
1358.2
  0
TEXT
  8
0
  6
CONTINUOUS
 62
     3
 10
2373.756854249
 20
1366.399552211
 30
0.0
 40
11.313708499
  1
１
 50
90.0
 41
1.0
 51
0.0
  7
KANJI66
  0
ENDSEC
  0
EOF
