  0
SECTION
  2
HEADER
  9
$EXTMIN
 10
0.0
 20
0.0
 30
0.0
  9
$EXTMAX
 10
3360.0
 20
2376.0
 30
0.0
  9
$LIMMIN
 10
0.0
 20
0.0
  9
$LIMMAX
 10
3360.0
 20
2376.0
  9
$LTSCALE
 40
1.0
  9
$PDMODE
 70
     0
  0
ENDSEC
  0
SECTION
  2
TABLES
  0
TABLE
  2
LTYPE
 70
     6
  0
LTYPE
  2
CONTINUOUS
 70
    64
  3
Solid line
 72
    65
 73
     0
 40
0.0
  0
LTYPE
  2
LTYPE1
 70
    64
  3
HIDDEN
 72
    65
 73
     2
 40
24.0
 49
14.4
 49
-9.6
  0
LTYPE
  2
LTYPE2
 70
    64
  3
CENTER
 72
    65
 73
     4
 40
80.0
 49
56.0
 49
-8.0
 49
8.0
 49
-8.0
  0
LTYPE
  2
LTYPE3
 70
    64
  3
CENTER
 72
    65
 73
     4
 40
120.0
 49
84.0
 49
-12.0
 49
12.0
 49
-12.0
  0
LTYPE
  2
LTYPE4
 70
    64
  3
PHANTOM
 72
    65
 73
     6
 40
120.0
 49
90.0
 49
-6.0
 49
6.0
 49
-6.0
 49
6.0
 49
-6.0
  0
LTYPE
  2
LTYPE5
 70
    64
  3
CENTER
 72
    65
 73
     4
 40
160.0
 49
112.0
 49
-16.0
 49
16.0
 49
-16.0
  0
ENDTAB
  0
TABLE
  2
LAYER
 70
   128
  0
LAYER
  2
0
 70
     0
 62
     7
  6
CONTINUOUS
  0
LAYER
  2
2
 70
     0
 62
     7
  6
CONTINUOUS
  0
LAYER
  2
3
 70
     0
 62
     7
  6
CONTINUOUS
  0
LAYER
  2
4
 70
     0
 62
     7
  6
CONTINUOUS
  0
LAYER
  2
5
 70
     0
 62
     7
  6
CONTINUOUS
  0
LAYER
  2
6
 70
     0
 62
     7
  6
CONTINUOUS
  0
LAYER
  2
7
 70
     0
 62
     7
  6
CONTINUOUS
  0
LAYER
  2
8
 70
     0
 62
     7
  6
CONTINUOUS
  0
LAYER
  2
9
 70
     0
 62
     7
  6
CONTINUOUS
  0
LAYER
  2
10
 70
     0
 62
     7
  6
CONTINUOUS
  0
LAYER
  2
11
 70
     0
 62
     7
  6
CONTINUOUS
  0
LAYER
  2
12
 70
     0
 62
     7
  6
CONTINUOUS
  0
LAYER
  2
13
 70
     0
 62
     7
  6
CONTINUOUS
  0
LAYER
  2
14
 70
     0
 62
     7
  6
CONTINUOUS
  0
LAYER
  2
15
 70
     0
 62
     7
  6
CONTINUOUS
  0
LAYER
  2
16
 70
     0
 62
     7
  6
CONTINUOUS
  0
LAYER
  2
17
 70
     0
 62
     7
  6
CONTINUOUS
  0
LAYER
  2
18
 70
     0
 62
     7
  6
CONTINUOUS
  0
LAYER
  2
19
 70
     0
 62
     7
  6
CONTINUOUS
  0
LAYER
  2
20
 70
     0
 62
     7
  6
CONTINUOUS
  0
LAYER
  2
21
 70
     0
 62
     7
  6
CONTINUOUS
  0
LAYER
  2
22
 70
     0
 62
     7
  6
CONTINUOUS
  0
LAYER
  2
23
 70
     0
 62
     7
  6
CONTINUOUS
  0
LAYER
  2
24
 70
     0
 62
     7
  6
CONTINUOUS
  0
LAYER
  2
25
 70
     0
 62
     7
  6
CONTINUOUS
  0
LAYER
  2
26
 70
     0
 62
     7
  6
CONTINUOUS
  0
LAYER
  2
27
 70
     0
 62
     7
  6
CONTINUOUS
  0
LAYER
  2
28
 70
     0
 62
     7
  6
CONTINUOUS
  0
LAYER
  2
29
 70
     0
 62
     7
  6
CONTINUOUS
  0
LAYER
  2
30
 70
     0
 62
     7
  6
CONTINUOUS
  0
LAYER
  2
31
 70
     0
 62
     7
  6
CONTINUOUS
  0
LAYER
  2
32
 70
     0
 62
     7
  6
CONTINUOUS
  0
LAYER
  2
33
 70
     0
 62
     7
  6
CONTINUOUS
  0
LAYER
  2
34
 70
     0
 62
     7
  6
CONTINUOUS
  0
LAYER
  2
35
 70
     0
 62
     7
  6
CONTINUOUS
  0
LAYER
  2
36
 70
     0
 62
     7
  6
CONTINUOUS
  0
LAYER
  2
37
 70
     0
 62
     7
  6
CONTINUOUS
  0
LAYER
  2
38
 70
     0
 62
     7
  6
CONTINUOUS
  0
LAYER
  2
39
 70
     0
 62
     7
  6
CONTINUOUS
  0
LAYER
  2
40
 70
     0
 62
     7
  6
CONTINUOUS
  0
LAYER
  2
41
 70
     0
 62
     7
  6
CONTINUOUS
  0
LAYER
  2
42
 70
     0
 62
     7
  6
CONTINUOUS
  0
LAYER
  2
43
 70
     0
 62
     7
  6
CONTINUOUS
  0
LAYER
  2
44
 70
     0
 62
     7
  6
CONTINUOUS
  0
LAYER
  2
45
 70
     0
 62
     7
  6
CONTINUOUS
  0
LAYER
  2
46
 70
     0
 62
     7
  6
CONTINUOUS
  0
LAYER
  2
47
 70
     0
 62
     7
  6
CONTINUOUS
  0
LAYER
  2
48
 70
     0
 62
     7
  6
CONTINUOUS
  0
LAYER
  2
49
 70
     0
 62
     7
  6
CONTINUOUS
  0
LAYER
  2
50
 70
     0
 62
     7
  6
CONTINUOUS
  0
LAYER
  2
51
 70
     0
 62
     7
  6
CONTINUOUS
  0
LAYER
  2
52
 70
     0
 62
     7
  6
CONTINUOUS
  0
LAYER
  2
53
 70
     0
 62
     7
  6
CONTINUOUS
  0
LAYER
  2
54
 70
     0
 62
     7
  6
CONTINUOUS
  0
LAYER
  2
55
 70
     0
 62
     7
  6
CONTINUOUS
  0
LAYER
  2
56
 70
     0
 62
     7
  6
CONTINUOUS
  0
LAYER
  2
57
 70
     0
 62
     7
  6
CONTINUOUS
  0
LAYER
  2
58
 70
     0
 62
     7
  6
CONTINUOUS
  0
LAYER
  2
59
 70
     0
 62
     7
  6
CONTINUOUS
  0
LAYER
  2
60
 70
     0
 62
     7
  6
CONTINUOUS
  0
LAYER
  2
61
 70
     0
 62
     7
  6
CONTINUOUS
  0
LAYER
  2
62
 70
     0
 62
     7
  6
CONTINUOUS
  0
LAYER
  2
63
 70
     0
 62
     7
  6
CONTINUOUS
  0
LAYER
  2
64
 70
     0
 62
     7
  6
CONTINUOUS
  0
LAYER
  2
65
 70
     0
 62
     7
  6
CONTINUOUS
  0
LAYER
  2
66
 70
     0
 62
     7
  6
CONTINUOUS
  0
LAYER
  2
67
 70
     0
 62
     7
  6
CONTINUOUS
  0
LAYER
  2
68
 70
     0
 62
     7
  6
CONTINUOUS
  0
LAYER
  2
69
 70
     0
 62
     7
  6
CONTINUOUS
  0
LAYER
  2
70
 70
     0
 62
     7
  6
CONTINUOUS
  0
LAYER
  2
71
 70
     0
 62
     7
  6
CONTINUOUS
  0
LAYER
  2
72
 70
     0
 62
     7
  6
CONTINUOUS
  0
LAYER
  2
73
 70
     0
 62
     7
  6
CONTINUOUS
  0
LAYER
  2
74
 70
     0
 62
     7
  6
CONTINUOUS
  0
LAYER
  2
75
 70
     0
 62
     7
  6
CONTINUOUS
  0
LAYER
  2
76
 70
     0
 62
     7
  6
CONTINUOUS
  0
LAYER
  2
77
 70
     0
 62
     7
  6
CONTINUOUS
  0
LAYER
  2
78
 70
     0
 62
     7
  6
CONTINUOUS
  0
LAYER
  2
79
 70
     0
 62
     7
  6
CONTINUOUS
  0
LAYER
  2
80
 70
     0
 62
     7
  6
CONTINUOUS
  0
LAYER
  2
81
 70
     0
 62
     7
  6
CONTINUOUS
  0
LAYER
  2
82
 70
     0
 62
     7
  6
CONTINUOUS
  0
LAYER
  2
83
 70
     0
 62
     7
  6
CONTINUOUS
  0
LAYER
  2
84
 70
     0
 62
     7
  6
CONTINUOUS
  0
LAYER
  2
85
 70
     0
 62
     7
  6
CONTINUOUS
  0
LAYER
  2
86
 70
     0
 62
     7
  6
CONTINUOUS
  0
LAYER
  2
87
 70
     0
 62
     7
  6
CONTINUOUS
  0
LAYER
  2
88
 70
     0
 62
     7
  6
CONTINUOUS
  0
LAYER
  2
89
 70
     0
 62
     7
  6
CONTINUOUS
  0
LAYER
  2
90
 70
     0
 62
     7
  6
CONTINUOUS
  0
LAYER
  2
91
 70
     0
 62
     7
  6
CONTINUOUS
  0
LAYER
  2
92
 70
     0
 62
     7
  6
CONTINUOUS
  0
LAYER
  2
93
 70
     0
 62
     7
  6
CONTINUOUS
  0
LAYER
  2
94
 70
     0
 62
     7
  6
CONTINUOUS
  0
LAYER
  2
95
 70
     0
 62
     7
  6
CONTINUOUS
  0
LAYER
  2
96
 70
     0
 62
     7
  6
CONTINUOUS
  0
LAYER
  2
97
 70
     0
 62
     7
  6
CONTINUOUS
  0
LAYER
  2
98
 70
     0
 62
     7
  6
CONTINUOUS
  0
LAYER
  2
99
 70
     0
 62
     7
  6
CONTINUOUS
  0
LAYER
  2
100
 70
     0
 62
     7
  6
CONTINUOUS
  0
LAYER
  2
101
 70
     0
 62
     7
  6
CONTINUOUS
  0
LAYER
  2
102
 70
     0
 62
     7
  6
CONTINUOUS
  0
LAYER
  2
103
 70
     0
 62
     7
  6
CONTINUOUS
  0
LAYER
  2
104
 70
     0
 62
     7
  6
CONTINUOUS
  0
LAYER
  2
105
 70
     0
 62
     7
  6
CONTINUOUS
  0
LAYER
  2
106
 70
     0
 62
     7
  6
CONTINUOUS
  0
LAYER
  2
107
 70
     0
 62
     7
  6
CONTINUOUS
  0
LAYER
  2
108
 70
     0
 62
     7
  6
CONTINUOUS
  0
LAYER
  2
109
 70
     0
 62
     7
  6
CONTINUOUS
  0
LAYER
  2
110
 70
     0
 62
     7
  6
CONTINUOUS
  0
LAYER
  2
111
 70
     0
 62
     7
  6
CONTINUOUS
  0
LAYER
  2
112
 70
     0
 62
     7
  6
CONTINUOUS
  0
LAYER
  2
113
 70
     0
 62
     7
  6
CONTINUOUS
  0
LAYER
  2
114
 70
     0
 62
     7
  6
CONTINUOUS
  0
LAYER
  2
115
 70
     0
 62
     7
  6
CONTINUOUS
  0
LAYER
  2
116
 70
     0
 62
     7
  6
CONTINUOUS
  0
LAYER
  2
117
 70
     0
 62
     7
  6
CONTINUOUS
  0
LAYER
  2
118
 70
     0
 62
     7
  6
CONTINUOUS
  0
LAYER
  2
119
 70
     0
 62
     7
  6
CONTINUOUS
  0
LAYER
  2
120
 70
     0
 62
     7
  6
CONTINUOUS
  0
LAYER
  2
121
 70
     0
 62
     7
  6
CONTINUOUS
  0
LAYER
  2
122
 70
     0
 62
     7
  6
CONTINUOUS
  0
LAYER
  2
123
 70
     0
 62
     7
  6
CONTINUOUS
  0
LAYER
  2
124
 70
     0
 62
     7
  6
CONTINUOUS
  0
LAYER
  2
125
 70
     0
 62
     7
  6
CONTINUOUS
  0
LAYER
  2
126
 70
     0
 62
     7
  6
CONTINUOUS
  0
LAYER
  2
127
 70
     0
 62
     7
  6
CONTINUOUS
  0
LAYER
  2
128
 70
     0
 62
     7
  6
CONTINUOUS
  0
ENDTAB
  0
TABLE
  2
STYLE
 70
    66
  0
STYLE
  2
STANDARD
 70
     0
 40
0.0
 41
1.0
 50
0.0
 71
     0
 42
0.2
  3
txt
  4

  0
STYLE
  2
KANJI0
 70
     0
 40
40.0
 41
1.0
 50
0.0
 71
     0
 42
40.0
  3

  4
bigfont
  0
STYLE
  2
KANJI1
 70
     0
 40
40.0
 41
1.0
 50
0.0
 71
     0
 42
40.0
  3

  4
bigfont
  0
STYLE
  2
KANJI2
 70
     0
 40
24.0
 41
0.9
 50
0.0
 71
     0
 42
24.0
  3

  4
bigfont
  0
STYLE
  2
KANJI3
 70
     0
 40
24.0
 41
0.9
 50
0.0
 71
     0
 42
24.0
  3

  4
bigfont
  0
STYLE
  2
KANJI4
 70
     0
 40
19.2
 41
0.777777778
 50
0.0
 71
     0
 42
19.2
  3

  4
bigfont
  0
STYLE
  2
KANJI5
 70
     0
 40
25.6
 41
0.9
 50
0.0
 71
     0
 42
25.6
  3

  4
bigfont
  0
STYLE
  2
KANJI6
 70
     0
 40
32.0
 41
0.9
 50
0.0
 71
     0
 42
32.0
  3

  4
bigfont
  0
STYLE
  2
KANJI7
 70
     0
 40
28.8
 41
0.857142857
 50
0.0
 71
     0
 42
28.8
  3

  4
bigfont
  0
STYLE
  2
KANJI8
 70
     0
 40
28.0
 41
0.9
 50
0.0
 71
     0
 42
28.0
  3

  4
bigfont
  0
STYLE
  2
KANJI9
 70
     0
 40
15.999996636
 41
0.6
 50
0.0
 71
     0
 42
15.999996636
  3

  4
bigfont
  0
STYLE
  2
KANJI10
 70
     0
 40
19.199995963
 41
0.9
 50
0.0
 71
     0
 42
19.199995963
  3

  4
bigfont
  0
STYLE
  2
KANJI11
 70
     0
 40
13.8666656
 41
0.8
 50
0.0
 71
     0
 42
13.8666656
  3

  4
bigfont
  0
STYLE
  2
KANJI12
 70
     0
 40
13.8666656
 41
0.75
 50
0.0
 71
     0
 42
13.8666656
  3

  4
bigfont
  0
STYLE
  2
KANJI13
 70
     0
 40
16.63999872
 41
0.75
 50
0.0
 71
     0
 42
16.63999872
  3

  4
bigfont
  0
STYLE
  2
KANJI14
 70
     0
 40
16.63999872
 41
0.9
 50
0.0
 71
     0
 42
16.63999872
  3

  4
bigfont
  0
STYLE
  2
KANJI15
 70
     0
 40
16.63999872
 41
0.8
 50
0.0
 71
     0
 42
16.63999872
  3

  4
bigfont
  0
STYLE
  2
KANJI16
 70
     0
 40
20.7999984
 41
0.9
 50
0.0
 71
     0
 42
20.7999984
  3

  4
bigfont
  0
STYLE
  2
KANJI17
 70
     0
 40
13.8666656
 41
0.75
 50
0.0
 71
     0
 42
13.8666656
  3

  4
bigfont
  0
STYLE
  2
KANJI18
 70
     0
 40
20.7999984
 41
0.75
 50
0.0
 71
     0
 42
20.7999984
  3

  4
bigfont
  0
STYLE
  2
KANJI19
 70
     0
 40
12.47999904
 41
0.75
 50
0.0
 71
     0
 42
12.47999904
  3

  4
bigfont
  0
STYLE
  2
KANJI20
 70
     0
 40
13.8666656
 41
0.6
 50
0.0
 71
     0
 42
13.8666656
  3

  4
bigfont
  0
STYLE
  2
KANJI21
 70
     0
 40
16.63999872
 41
0.6
 50
0.0
 71
     0
 42
16.63999872
  3

  4
bigfont
  0
STYLE
  2
KANJI22
 70
     0
 40
13.8666656
 41
0.8
 50
0.0
 71
     0
 42
13.8666656
  3

  4
bigfont
  0
STYLE
  2
KANJI23
 70
     0
 40
16.63999872
 41
0.8
 50
0.0
 71
     0
 42
16.63999872
  3

  4
bigfont
  0
STYLE
  2
KANJI24
 70
     0
 40
20.7999984
 41
0.75
 50
0.0
 71
     0
 42
20.7999984
  3

  4
bigfont
  0
STYLE
  2
KANJI25
 70
     0
 40
69.333328
 41
0.9
 50
0.0
 71
     0
 42
69.333328
  3

  4
bigfont
  0
STYLE
  2
KANJI26
 70
     0
 40
23.999994954
 41
0.9
 50
0.0
 71
     0
 42
23.999994954
  3

  4
bigfont
  0
STYLE
  2
KANJI27
 70
     0
 40
24.2666648
 41
0.42031746
 50
0.0
 71
     0
 42
24.2666648
  3

  4
bigfont
  0
STYLE
  2
KANJI28
 70
     0
 40
41.5999968
 41
0.9
 50
0.0
 71
     0
 42
41.5999968
  3

  4
bigfont
  0
STYLE
  2
KANJI29
 70
     0
 40
36.0
 41
0.666666667
 50
0.0
 71
     0
 42
36.0
  3

  4
bigfont
  0
STYLE
  2
KANJI30
 70
     0
 40
36.0
 41
0.9
 50
0.0
 71
     0
 42
36.0
  3

  4
bigfont
  0
STYLE
  2
KANJI31
 70
     4
 40
28.0
 41
0.9
 50
0.0
 71
     0
 42
28.0
  3

  4
bigfont
  0
STYLE
  2
KANJI32
 70
     4
 40
24.0
 41
0.9
 50
0.0
 71
     0
 42
24.0
  3

  4
bigfont
  0
STYLE
  2
KANJI33
 70
     0
 40
28.0
 41
0.9
 50
0.0
 71
     0
 42
28.0
  3

  4
bigfont
  0
STYLE
  2
KANJI34
 70
     0
 40
24.0
 41
0.9
 50
0.0
 71
     0
 42
24.0
  3

  4
bigfont
  0
STYLE
  2
KANJI35
 70
     0
 40
24.0
 41
0.857142857
 50
0.0
 71
     0
 42
24.0
  3

  4
bigfont
  0
STYLE
  2
KANJI36
 70
     0
 40
28.0
 41
0.9
 50
0.0
 71
     0
 42
28.0
  3

  4
bigfont
  0
STYLE
  2
KANJI37
 70
     0
 40
22.4
 41
0.9
 50
0.0
 71
     0
 42
22.4
  3

  4
bigfont
  0
STYLE
  2
KANJI38
 70
     0
 40
22.4
 41
0.785714286
 50
0.0
 71
     0
 42
22.4
  3

  4
bigfont
  0
STYLE
  2
KANJI39
 70
     0
 40
22.4
 41
0.8
 50
0.0
 71
     0
 42
22.4
  3

  4
bigfont
  0
STYLE
  2
KANJI40
 70
     0
 40
24.0
 41
0.8
 50
0.0
 71
     0
 42
24.0
  3

  4
bigfont
  0
STYLE
  2
KANJI41
 70
     0
 40
30.4
 41
0.9
 50
0.0
 71
     0
 42
30.4
  3

  4
bigfont
  0
STYLE
  2
KANJI42
 70
     0
 40
30.4
 41
0.9
 50
0.0
 71
     0
 42
30.4
  3

  4
bigfont
  0
STYLE
  2
KANJI43
 70
     0
 40
30.4
 41
0.9
 50
0.0
 71
     0
 42
30.4
  3

  4
bigfont
  0
STYLE
  2
KANJI44
 70
     0
 40
30.4
 41
0.9
 50
0.0
 71
     0
 42
30.4
  3

  4
bigfont
  0
STYLE
  2
KANJI45
 70
     0
 40
30.4
 41
0.9
 50
0.0
 71
     0
 42
30.4
  3

  4
bigfont
  0
STYLE
  2
KANJI46
 70
     0
 40
30.4
 41
0.9
 50
0.0
 71
     0
 42
30.4
  3

  4
bigfont
  0
STYLE
  2
KANJI47
 70
     0
 40
30.4
 41
0.9
 50
0.0
 71
     0
 42
30.4
  3

  4
bigfont
  0
STYLE
  2
KANJI48
 70
     0
 40
30.4
 41
0.9
 50
0.0
 71
     0
 42
30.4
  3

  4
bigfont
  0
STYLE
  2
KANJI49
 70
     0
 40
30.4
 41
0.9
 50
0.0
 71
     0
 42
30.4
  3

  4
bigfont
  0
STYLE
  2
KANJI50
 70
     0
 40
30.4
 41
0.9
 50
0.0
 71
     0
 42
30.4
  3

  4
bigfont
  0
STYLE
  2
KANJI51
 70
     0
 40
22.4
 41
0.8
 50
0.0
 71
     0
 42
22.4
  3

  4
bigfont
  0
STYLE
  2
KANJI52
 70
     0
 40
28.0
 41
0.914285714
 50
0.0
 71
     0
 42
28.0
  3

  4
bigfont
  0
STYLE
  2
KANJI53
 70
     0
 40
23.9994
 41
0.9
 50
0.0
 71
     0
 42
23.9994
  3

  4
bigfont
  0
STYLE
  2
KANJI54
 70
     0
 40
27.9993
 41
0.9
 50
0.0
 71
     0
 42
27.9993
  3

  4
bigfont
  0
STYLE
  2
KANJI55
 70
     0
 40
28.0
 41
0.793650794
 50
0.0
 71
     0
 42
28.0
  3

  4
bigfont
  0
STYLE
  2
KANJI56
 70
     0
 40
24.0
 41
0.9
 50
0.0
 71
     0
 42
24.0
  3

  4
bigfont
  0
STYLE
  2
KANJI57
 70
     0
 40
24.0
 41
0.9
 50
0.0
 71
     0
 42
24.0
  3

  4
bigfont
  0
STYLE
  2
KANJI58
 70
     0
 40
24.0
 41
0.9
 50
0.0
 71
     0
 42
24.0
  3

  4
bigfont
  0
STYLE
  2
KANJI59
 70
     0
 40
32.0
 41
0.925
 50
0.0
 71
     0
 42
32.0
  3

  4
bigfont
  0
STYLE
  2
KANJI60
 70
     0
 40
24.0
 41
0.833333333
 50
0.0
 71
     0
 42
24.0
  3

  4
bigfont
  0
STYLE
  2
KANJI61
 70
     0
 40
40.0
 41
0.8
 50
0.0
 71
     0
 42
40.0
  3

  4
bigfont
  0
STYLE
  2
KANJI62
 70
     0
 40
28.8
 41
0.857222222
 50
0.0
 71
     0
 42
28.8
  3

  4
bigfont
  0
STYLE
  2
KANJI63
 70
     0
 40
28.0
 41
0.857142857
 50
0.0
 71
     0
 42
28.0
  3

  4
bigfont
  0
STYLE
  2
KANJI64
 70
     0
 40
24.0
 41
0.9
 50
0.0
 71
     0
 42
24.0
  3

  4
bigfont
  0
ENDTAB
  0
TABLE
  2
VIEW
 70
     0
  0
ENDTAB
  0
ENDSEC
  0
SECTION
  2
BLOCKS
  0
ENDSEC
  0
SECTION
  2
ENTITIES
  0
LINE
  8
0
  6
CONTINUOUS
 62
     4
 10
3248.0
 20
-56.0
 11
2456.0
 21
-56.0
  0
LINE
  8
0
  6
CONTINUOUS
 62
     4
 10
3248.0
 20
-136.0
 11
2456.0
 21
-136.0
  0
TEXT
  8
0
  6
CONTINUOUS
 62
     2
 10
2868.0
 20
304.0
 30
20.0
 40
40.0
  1
外形寸法図
 50
0.0
 41
1.0
 51
0.0
  7
KANJI0
  0
TEXT
  8
0
  6
CONTINUOUS
 62
     2
 10
2820.0
 20
352.0
 30
5.714285714
 40
40.0
  1
マイティシリンダ
 50
0.0
 41
1.0
 51
0.0
  7
KANJI1
  0
LINE
  8
0
  6
CONTINUOUS
 62
     1
 10
628.0
 20
744.0
 11
1868.0
 21
744.0
  0
LINE
  8
0
  6
CONTINUOUS
 62
     1
 10
628.0
 20
688.0
 11
1868.0
 21
688.0
  0
LINE
  8
0
  6
CONTINUOUS
 62
     1
 10
1868.0
 20
744.0
 11
1868.0
 21
352.0
  0
LINE
  8
0
  6
CONTINUOUS
 62
     1
 10
628.0
 20
352.0
 11
1868.0
 21
352.0
  0
LINE
  8
0
  6
CONTINUOUS
 62
     1
 10
628.0
 20
744.0
 11
628.0
 21
352.0
  0
LINE
  8
0
  6
CONTINUOUS
 62
     1
 10
908.0
 20
744.0
 11
908.0
 21
352.0
  0
LINE
  8
0
  6
CONTINUOUS
 62
     2
 10
1068.0
 20
744.0
 11
1068.0
 21
352.0
  0
LINE
  8
0
  6
CONTINUOUS
 62
     2
 10
1228.0
 20
744.0
 11
1228.0
 21
352.0
  0
LINE
  8
0
  6
CONTINUOUS
 62
     2
 10
1388.0
 20
744.0
 11
1388.0
 21
352.0
  0
LINE
  8
0
  6
CONTINUOUS
 62
     2
 10
1548.0
 20
744.0
 11
1548.0
 21
352.0
  0
LINE
  8
0
  6
CONTINUOUS
 62
     2
 10
1708.0
 20
744.0
 11
1708.0
 21
352.0
  0
LINE
  8
0
  6
CONTINUOUS
 62
     2
 10
628.0
 20
408.0
 11
1868.0
 21
408.0
  0
LINE
  8
0
  6
CONTINUOUS
 62
     2
 10
628.0
 20
632.0
 11
1868.0
 21
632.0
  0
LINE
  8
0
  6
CONTINUOUS
 62
     2
 10
628.0
 20
576.0
 11
1868.0
 21
576.0
  0
LINE
  8
0
  6
CONTINUOUS
 62
     2
 10
628.0
 20
520.0
 11
1868.0
 21
520.0
  0
LINE
  8
0
  6
CONTINUOUS
 62
     2
 10
628.0
 20
464.0
 11
1868.0
 21
464.0
  0
TEXT
  8
0
  6
CONTINUOUS
 62
     2
 10
928.8
 20
704.0
 30
2.4
 40
24.0
  1
ストローク
 50
0.0
 41
0.9
 51
0.0
  7
KANJI2
  0
TEXT
  8
0
  6
CONTINUOUS
 62
     2
 10
1082.4
 20
702.4
 30
0.0
 40
24.0
  1
ｍｉｎ　
 50
0.0
 41
0.9
 51
0.0
  7
KANJI3
  0
TEXT
  8
0
  6
CONTINUOUS
 62
     2
 10
1242.4
 20
702.4
 30
0.0
 40
24.0
  1
ｍｉｎ　
 50
0.0
 41
0.9
 51
0.0
  7
KANJI3
  0
TEXT
  8
0
  6
CONTINUOUS
 62
     2
 10
1562.4
 20
702.4
 30
0.0
 40
24.0
  1
ｍｉｎ　
 50
0.0
 41
0.9
 51
0.0
  7
KANJI3
  0
TEXT
  8
0
  6
CONTINUOUS
 62
     2
 10
1811.0
 20
705.8
 30
0.0
 40
19.2
  1
（ｋｇ）
 50
0.0
 41
0.777777778
 51
0.0
  7
KANJI4
  0
TEXT
  8
0
  6
CONTINUOUS
 62
     2
 10
1715.0
 20
703.0
 30
2.56
 40
25.6
  1
概算重量
 50
0.0
 41
0.9
 51
0.0
  7
KANJI5
  0
TEXT
  8
0
  6
CONTINUOUS
 62
     2
 10
684.0
 20
704.0
 30
2.56
 40
25.6
  1
形
 50
0.0
 41
0.9
 51
0.0
  7
KANJI5
  0
TEXT
  8
0
  6
CONTINUOUS
 62
     2
 10
840.0
 20
704.0
 30
2.56
 40
25.6
  1
式
 50
0.0
 41
0.9
 51
0.0
  7
KANJI5
  0
TEXT
  8
0
  6
CONTINUOUS
 62
     2
 10
2420.0
 20
925.6
 30
16.0
 40
32.0
  1
特記事項
 50
0.0
 41
0.9
 51
0.0
  7
KANJI6
  0
TEXT
  8
0
  6
CONTINUOUS
 62
     2
 10
2308.0
 20
861.6
 30
8.228571429
 40
28.8
  1
１。運転時は必ずピストンロッドの回転防止を行って下さい。
 50
0.0
 41
0.857142857
 51
0.0
  7
KANJI7
  0
TEXT
  8
0
  6
CONTINUOUS
 62
     2
 10
1164.0
 20
704.0
 30
2.8
 40
28.0
  1
ＡＬ
 50
0.0
 41
0.9
 51
0.0
  7
KANJI8
  0
TEXT
  8
0
  6
CONTINUOUS
 62
     2
 10
1324.0
 20
704.0
 30
2.8
 40
28.0
  1
Ｌ
 50
0.0
 41
0.9
 51
0.0
  7
KANJI8
  0
TEXT
  8
0
  6
CONTINUOUS
 62
     2
 10
1460.0
 20
704.0
 30
2.8
 40
28.0
  1
Ｃ
 50
0.0
 41
0.9
 51
0.0
  7
KANJI8
  0
TEXT
  8
0
  6
CONTINUOUS
 62
     2
 10
1644.0
 20
704.0
 30
2.8
 40
28.0
  1
Ｐ
 50
0.0
 41
0.9
 51
0.0
  7
KANJI8
  0
TEXT
  8
0
  6
CONTINUOUS
 62
     4
 10
163.999994954
 20
159.99999159
 30
1.599999664
 40
15.999996636
  1
ＰＡＲＴＳ　ＬＩＳＴ
 50
0.0
 41
0.6
 51
0.0
  7
KANJI9
  0
TEXT
  8
0
  6
CONTINUOUS
 62
     4
 10
523.999919262
 20
159.99999159
 30
1.599999664
 40
15.999996636
  1
Ｎ０．
 50
0.0
 41
0.6
 51
0.0
  7
KANJI9
  0
TEXT
  8
0
  6
CONTINUOUS
 62
     4
 10
163.999994954
 20
135.999996636
 30
1.919999596
 40
19.199995963
  1
部品表
 50
0.0
 41
0.9
 51
0.0
  7
KANJI10
  0
TEXT
  8
0
  6
CONTINUOUS
 62
     4
 10
523.999919262
 20
135.999996636
 30
1.919999596
 40
19.199995963
  1
項番
 50
0.0
 41
0.9
 51
0.0
  7
KANJI10
  0
LINE
  8
0
  6
CONTINUOUS
 62
     4
 10
2858.1333624
 20
2265.0666672
 11
2858.1333624
 21
2143.7333432
  0
LINE
  8
0
  6
CONTINUOUS
 62
     4
 10
2792.2667008
 20
2265.0666672
 11
2792.2667008
 21
2143.7333432
  0
LINE
  8
0
  6
CONTINUOUS
 62
     4
 10
2674.4000432
 20
2265.0666672
 11
2674.4000432
 21
2143.7333432
  0
LINE
  8
0
  6
CONTINUOUS
 62
     4
 10
2556.5333856
 20
2265.0666672
 11
2556.5333856
 21
2143.7333432
  0
LINE
  8
0
  6
CONTINUOUS
 62
     4
 10
2490.666724
 20
2265.0666672
 11
2490.666724
 21
2143.7333432
  0
LINE
  8
0
  6
CONTINUOUS
 62
     4
 10
2424.8000624
 20
2265.0666672
 11
2424.8000624
 21
2143.7333432
  0
TEXT
  8
0
  6
CONTINUOUS
 62
     4
 10
2306.9334048
 20
2240.8000024
 30
1.38666656
 40
13.8666656
  1
（μ）
 50
0.0
 41
0.8
 51
0.0
  7
KANJI11
  0
TEXT
  8
0
  6
CONTINUOUS
 62
     4
 10
2300.000072
 20
2213.0666712
 30
1.38666656
 40
13.8666656
  1
０．８－Ｓ
 50
0.0
 41
0.75
 51
0.0
  7
KANJI12
  0
TEXT
  8
0
  6
CONTINUOUS
 62
     4
 10
2365.8667336
 20
2213.0666712
 30
1.38666656
 40
13.8666656
  1
　６－Ｓ
 50
0.0
 41
0.75
 51
0.0
  7
KANJI12
  0
TEXT
  8
0
  6
CONTINUOUS
 62
     4
 10
2431.7333952
 20
2213.0666712
 30
1.38666656
 40
13.8666656
  1
２５－Ｓ
 50
0.0
 41
0.75
 51
0.0
  7
KANJI12
  0
TEXT
  8
0
  6
CONTINUOUS
 62
     4
 10
2497.6000568
 20
2213.0666712
 30
1.38666656
 40
13.8666656
  1
１００－Ｓ
 50
0.0
 41
0.75
 51
0.0
  7
KANJI12
  0
TEXT
  8
0
  6
CONTINUOUS
 62
     4
 10
2563.4667184
 20
2213.0666712
 30
1.38666656
 40
13.8666656
  1
ＭＡＣＨＩＮＩＮＧ
 50
0.0
 41
0.75
 51
0.0
  7
KANJI12
  0
TEXT
  8
0
  6
CONTINUOUS
 62
     4
 10
2563.4667184
 20
2237.333336
 30
1.38666656
 40
13.8666656
  1
ＷＩＴＨＯＵＴ
 50
0.0
 41
0.75
 51
0.0
  7
KANJI12
  0
TEXT
  8
0
  6
CONTINUOUS
 62
     4
 10
2681.333376
 20
2237.333336
 30
1.38666656
 40
13.8666656
  1
ＭＡＣＨＩＮＩＮＧ
 50
0.0
 41
0.75
 51
0.0
  7
KANJI12
  0
TEXT
  8
0
  6
CONTINUOUS
 62
     4
 10
2681.333376
 20
2213.0666712
 30
1.38666656
 40
13.8666656
  1
ＴＯＬＥＲＡＮＣＥ
 50
0.0
 41
0.75
 51
0.0
  7
KANJI12
  0
TEXT
  8
0
  6
CONTINUOUS
 62
     4
 10
2799.2000336
 20
2237.333336
 30
1.38666656
 40
13.8666656
  1
０．５≦
 50
0.0
 41
0.75
 51
0.0
  7
KANJI12
  0
TEXT
  8
0
  6
CONTINUOUS
 62
     4
 10
2799.2000336
 20
2188.8000064
 30
1.38666656
 40
13.8666656
  1
≦６
 50
0.0
 41
0.75
 51
0.0
  7
KANJI12
  0
TEXT
  8
0
  6
CONTINUOUS
 62
     4
 10
2865.0666952
 20
2188.8000064
 30
1.38666656
 40
13.8666656
  1
≦３０
 50
0.0
 41
0.75
 51
0.0
  7
KANJI12
  0
TEXT
  8
0
  6
CONTINUOUS
 62
     4
 10
2865.0666952
 20
2237.333336
 30
1.38666656
 40
13.8666656
  1
６＜
 50
0.0
 41
0.75
 51
0.0
  7
KANJI12
  0
TEXT
  8
0
  6
CONTINUOUS
 62
     4
 10
2802.6667
 20
2154.1333424
 30
1.38666656
 40
13.8666656
  1
±０．１
 50
0.0
 41
0.75
 51
0.0
  7
KANJI12
  0
TEXT
  8
0
  6
CONTINUOUS
 62
     4
 10
2868.5333616
 20
2154.1333424
 30
1.38666656
 40
13.8666656
  1
±０．２
 50
0.0
 41
0.75
 51
0.0
  7
KANJI12
  0
ARC
  8
0
  6
CONTINUOUS
 62
     4
 10
2605.85960666
 20
2155.52000896
 40
11.09333248
 50
30.0
 51
180.0
  0
ARC
  8
0
  6
CONTINUOUS
 62
     4
 10
2625.07382214
 20
2166.61334144
 40
11.09333248
 50
210.0
 51
0.0
  0
LINE
  8
0
  6
CONTINUOUS
 62
     4
 10
2517.5333886
 20
2168.000008
 11
2529.666721
 21
2168.000008
  0
LINE
  8
0
  6
CONTINUOUS
 62
     4
 10
2517.5333886
 20
2168.000008
 11
2523.6000548
 21
2154.1333424
  0
LINE
  8
0
  6
CONTINUOUS
 62
     4
 10
2523.6000548
 20
2154.1333424
 11
2529.666721
 21
2168.000008
  0
LINE
  8
0
  6
CONTINUOUS
 62
     4
 10
2445.6000608
 20
2168.000008
 11
2451.666727
 21
2154.1333424
  0
LINE
  8
0
  6
CONTINUOUS
 62
     4
 10
2451.666727
 20
2154.1333424
 11
2457.7333932
 21
2168.000008
  0
LINE
  8
0
  6
CONTINUOUS
 62
     4
 10
2457.7333932
 20
2168.000008
 11
2463.8000594
 21
2154.1333424
  0
LINE
  8
0
  6
CONTINUOUS
 62
     4
 10
2463.8000594
 20
2154.1333424
 11
2469.8667256
 21
2168.000008
  0
LINE
  8
0
  6
CONTINUOUS
 62
     4
 10
2445.6000608
 20
2168.000008
 11
2469.8667256
 21
2168.000008
  0
LINE
  8
0
  6
CONTINUOUS
 62
     4
 10
2358.9334008
 20
2265.0666672
 11
2358.9334008
 21
2143.7333432
  0
LINE
  8
0
  6
CONTINUOUS
 62
     4
 10
2301.7334052
 20
2168.000008
 11
2350.2667348
 21
2168.000008
  0
LINE
  8
0
  6
CONTINUOUS
 62
     4
 10
2301.7334052
 20
2168.000008
 11
2307.8000714
 21
2154.1333424
  0
LINE
  8
0
  6
CONTINUOUS
 62
     4
 10
2307.8000714
 20
2154.1333424
 11
2313.8667376
 21
2168.000008
  0
LINE
  8
0
  6
CONTINUOUS
 62
     4
 10
2313.8667376
 20
2168.000008
 11
2319.9334038
 21
2154.1333424
  0
LINE
  8
0
  6
CONTINUOUS
 62
     4
 10
2319.9334038
 20
2154.1333424
 11
2326.00007
 21
2168.000008
  0
LINE
  8
0
  6
CONTINUOUS
 62
     4
 10
2326.00007
 20
2168.000008
 11
2332.0667362
 21
2154.1333424
  0
LINE
  8
0
  6
CONTINUOUS
 62
     4
 10
2332.0667362
 20
2154.1333424
 11
2338.1334024
 21
2168.000008
  0
LINE
  8
0
  6
CONTINUOUS
 62
     4
 10
2338.1334024
 20
2168.000008
 11
2344.2000686
 21
2154.1333424
  0
LINE
  8
0
  6
CONTINUOUS
 62
     4
 10
2344.2000686
 20
2154.1333424
 11
2350.2667348
 21
2168.000008
  0
LINE
  8
0
  6
CONTINUOUS
 62
     4
 10
2373.666733
 20
2168.000008
 11
2379.7333992
 21
2154.1333424
  0
LINE
  8
0
  6
CONTINUOUS
 62
     4
 10
2379.7333992
 20
2154.1333424
 11
2385.8000654
 21
2168.000008
  0
LINE
  8
0
  6
CONTINUOUS
 62
     4
 10
2385.8000654
 20
2168.000008
 11
2391.8667316
 21
2154.1333424
  0
LINE
  8
0
  6
CONTINUOUS
 62
     4
 10
2391.8667316
 20
2154.1333424
 11
2397.9333978
 21
2168.000008
  0
LINE
  8
0
  6
CONTINUOUS
 62
     4
 10
2397.9333978
 20
2168.000008
 11
2404.000064
 21
2154.1333424
  0
LINE
  8
0
  6
CONTINUOUS
 62
     4
 10
2404.000064
 20
2154.1333424
 11
2410.0667302
 21
2168.000008
  0
LINE
  8
0
  6
CONTINUOUS
 62
     4
 10
2373.666733
 20
2168.000008
 11
2410.0667302
 21
2168.000008
  0
TEXT
  8
0
  6
CONTINUOUS
 62
     4
 10
2563.4667184
 20
2188.8000064
 30
1.663999872
 40
16.63999872
  1
加工なし
 50
0.0
 41
0.75
 51
0.0
  7
KANJI13
  0
TEXT
  8
0
  6
CONTINUOUS
 62
     4
 10
2681.333376
 20
2188.8000064
 30
1.663999872
 40
16.63999872
  1
普通加工交差
 50
0.0
 41
0.9
 51
0.0
  7
KANJI14
  0
TEXT
  8
0
  6
CONTINUOUS
 62
     4
 10
2709.0667072
 20
2154.1333424
 30
1.663999872
 40
16.63999872
  1
（ｍｍ）
 50
0.0
 41
0.75
 51
0.0
  7
KANJI13
  0
LINE
  8
0
  6
CONTINUOUS
 62
     4
 10
3055.7333472
 20
2265.0666672
 11
3055.7333472
 21
2143.7333432
  0
LINE
  8
0
  6
CONTINUOUS
 62
     4
 10
3142.4000072
 20
2265.0666672
 11
3142.4000072
 21
2143.7333432
  0
LINE
  8
0
  6
CONTINUOUS
 62
     4
 10
2989.8666856
 20
2265.0666672
 11
2989.8666856
 21
2143.7333432
  0
LINE
  8
0
  6
CONTINUOUS
 62
     4
 10
2924.000024
 20
2265.0666672
 11
2924.000024
 21
2143.7333432
  0
TEXT
  8
0
  6
CONTINUOUS
 62
     4
 10
2930.9333568
 20
2188.8000064
 30
1.38666656
 40
13.8666656
  1
≦１２０
 50
0.0
 41
0.75
 51
0.0
  7
KANJI12
  0
TEXT
  8
0
  6
CONTINUOUS
 62
     4
 10
2930.9333568
 20
2237.333336
 30
1.38666656
 40
13.8666656
  1
３０＜
 50
0.0
 41
0.75
 51
0.0
  7
KANJI12
  0
TEXT
  8
0
  6
CONTINUOUS
 62
     4
 10
2996.8000184
 20
2237.333336
 30
1.38666656
 40
13.8666656
  1
１２０＜
 50
0.0
 41
0.75
 51
0.0
  7
KANJI12
  0
TEXT
  8
0
  6
CONTINUOUS
 62
     4
 10
2996.8000184
 20
2188.8000064
 30
1.38666656
 40
13.8666656
  1
≦３１５
 50
0.0
 41
0.75
 51
0.0
  7
KANJI12
  0
TEXT
  8
0
  6
CONTINUOUS
 62
     4
 10
3062.66668
 20
2237.333336
 30
1.38666656
 40
13.8666656
  1
３１５＜
 50
0.0
 41
0.75
 51
0.0
  7
KANJI12
  0
TEXT
  8
0
  6
CONTINUOUS
 62
     4
 10
3062.66668
 20
2188.8000064
 30
1.38666656
 40
13.8666656
  1
≦１０００
 50
0.0
 41
0.75
 51
0.0
  7
KANJI12
  0
TEXT
  8
0
  6
CONTINUOUS
 62
     4
 10
3149.33334
 20
2237.333336
 30
1.38666656
 40
13.8666656
  1
１０００＜
 50
0.0
 41
0.75
 51
0.0
  7
KANJI12
  0
TEXT
  8
0
  6
CONTINUOUS
 62
     4
 10
3149.33334
 20
2188.8000064
 30
1.38666656
 40
13.8666656
  1
≦２０００
 50
0.0
 41
0.75
 51
0.0
  7
KANJI12
  0
TEXT
  8
0
  6
CONTINUOUS
 62
     4
 10
2934.4000232
 20
2154.1333424
 30
1.38666656
 40
13.8666656
  1
±０．３
 50
0.0
 41
0.75
 51
0.0
  7
KANJI12
  0
TEXT
  8
0
  6
CONTINUOUS
 62
     4
 10
3000.2666848
 20
2154.1333424
 30
1.38666656
 40
13.8666656
  1
±０．５
 50
0.0
 41
0.75
 51
0.0
  7
KANJI12
  0
TEXT
  8
0
  6
CONTINUOUS
 62
     4
 10
3076.5333456
 20
2154.1333424
 30
1.38666656
 40
13.8666656
  1
±０．８
 50
0.0
 41
0.75
 51
0.0
  7
KANJI12
  0
TEXT
  8
0
  6
CONTINUOUS
 62
     4
 10
3163.2000056
 20
2154.1333424
 30
1.38666656
 40
13.8666656
  1
±１．２
 50
0.0
 41
0.75
 51
0.0
  7
KANJI12
  0
LINE
  8
0
  6
CONTINUOUS
 62
     4
 10
2293.0667392
 20
2265.0666672
 11
2293.0667392
 21
2143.7333432
  0
TEXT
  8
0
  6
CONTINUOUS
 62
     4
 10
2182.1334144
 20
2213.0666712
 30
1.38666656
 40
13.8666656
  1
ＲＯＵＧＨＮＥＳＳ
 50
0.0
 41
0.8
 51
0.0
  7
KANJI11
  0
TEXT
  8
0
  6
CONTINUOUS
 62
     4
 10
2182.1334144
 20
2237.333336
 30
1.38666656
 40
13.8666656
  1
ＳＵＲＦＡＣＥ
 50
0.0
 41
0.8
 51
0.0
  7
KANJI11
  0
TEXT
  8
0
  6
CONTINUOUS
 62
     4
 10
2182.1334144
 20
2188.8000064
 30
1.663999872
 40
16.63999872
  1
仕上面粗さ
 50
0.0
 41
0.8
 51
0.0
  7
KANJI15
  0
TEXT
  8
0
  6
CONTINUOUS
 62
     4
 10
2192.5334136
 20
2154.1333424
 30
1.663999872
 40
16.63999872
  1
ＳＹＭ．記号
 50
0.0
 41
0.75
 51
0.0
  7
KANJI13
  0
LINE
  8
0
  6
CONTINUOUS
 62
     4
 10
3229.0666672
 20
2178.4000072
 11
2175.2000816
 21
2178.4000072
  0
TEXT
  8
0
  6
CONTINUOUS
 62
     4
 10
2358.9334008
 20
2278.9333328
 30
2.07999984
 40
20.7999984
  1
ＩＳＯ
 50
0.0
 41
0.9
 51
0.0
  7
KANJI16
  0
TEXT
  8
0
  6
CONTINUOUS
 62
     4
 10
2421.333396
 20
2278.9333328
 30
1.38666656
 40
13.8666656
  1
ＭＥＴＲＩＣ　ＳＣＲＥＷ　ＴＨＲＥＡＤ
 50
0.0
 41
0.75
 51
0.0
  7
KANJI17
  0
TEXT
  8
0
  6
CONTINUOUS
 62
     4
 10
2656.72004456
 20
2278.9333328
 30
1.38666656
 40
13.8666656
  1
ＩＳＯ
 50
0.0
 41
0.75
 51
0.0
  7
KANJI17
  0
TEXT
  8
0
  6
CONTINUOUS
 62
     4
 10
2854.32002936
 20
2278.9333328
 30
2.07999984
 40
20.7999984
  1
３
 50
0.0
 41
0.75
 51
0.0
  7
KANJI18
  0
TEXT
  8
0
  6
CONTINUOUS
 62
     4
 10
2871.65336136
 20
2278.9333328
 30
1.38666656
 40
13.8666656
  1
ＲＤ　ＡＮＧＬＥ　ＰＲＯＪＥＣＴＩＯＮ　第３角法
 50
0.0
 41
0.75
 51
0.0
  7
KANJI17
  0
TEXT
  8
0
  6
CONTINUOUS
 62
     4
 10
2694.85337496
 20
2278.9333328
 30
1.247999904
 40
12.47999904
  1
メートルネジ使用
 50
0.0
 41
0.75
 51
0.0
  7
KANJI19
  0
TEXT
  8
0
  6
CONTINUOUS
 62
     4
 10
2175.2000816
 20
269.0666552
 30
1.38666656
 40
13.8666656
  1
ＤＲＡＷＮ
 50
0.0
 41
0.6
 51
0.0
  7
KANJI20
  0
TEXT
  8
0
  6
CONTINUOUS
 62
     4
 10
2175.2000816
 20
324.5333176
 30
1.38666656
 40
13.8666656
  1
ＤＥＳＩＧＮ
 50
0.0
 41
0.6
 51
0.0
  7
KANJI20
  0
TEXT
  8
0
  6
CONTINUOUS
 62
     4
 10
2175.2000816
 20
379.99998
 30
1.38666656
 40
13.8666656
  1
ＣＨＥＣＫ
 50
0.0
 41
0.6
 51
0.0
  7
KANJI20
  0
TEXT
  8
0
  6
CONTINUOUS
 62
     4
 10
2175.2000816
 20
435.4666424
 30
1.38666656
 40
13.8666656
  1
ＣＯＤＥ
 50
0.0
 41
0.6
 51
0.0
  7
KANJI20
  0
LINE
  8
0
  6
CONTINUOUS
 62
     4
 10
2161.333416
 20
348.7999824
 11
2414.4000632
 21
348.7999824
  0
LINE
  8
0
  6
CONTINUOUS
 62
     4
 10
2161.333416
 20
293.33332
 11
2414.4000632
 21
293.33332
  0
LINE
  8
0
  6
CONTINUOUS
 62
     4
 10
2161.333416
 20
404.2666448
 11
2414.4000632
 21
404.2666448
  0
LINE
  8
0
  6
CONTINUOUS
 62
     4
 10
2161.333416
 20
459.7333072
 11
3229.0666672
 21
459.7333072
  0
TEXT
  8
0
  6
CONTINUOUS
 62
     4
 10
2175.2000816
 20
303.7333192
 30
1.663999872
 40
16.63999872
  1
設計
 50
0.0
 41
0.6
 51
0.0
  7
KANJI21
  0
TEXT
  8
0
  6
CONTINUOUS
 62
     4
 10
2175.2000816
 20
359.1999816
 30
1.663999872
 40
16.63999872
  1
検図
 50
0.0
 41
0.6
 51
0.0
  7
KANJI21
  0
TEXT
  8
0
  6
CONTINUOUS
 62
     4
 10
2175.2000816
 20
414.666644
 30
1.663999872
 40
16.63999872
  1
分類
 50
0.0
 41
0.6
 51
0.0
  7
KANJI21
  0
LINE
  8
0
  6
CONTINUOUS
 62
     4
 10
2434.85339496
 20
404.2666448
 11
3229.0666672
 21
404.2666448
  0
LINE
  8
0
  6
CONTINUOUS
 62
     4
 10
2414.4000632
 20
293.33332
 11
3229.0666672
 21
293.33332
  0
TEXT
  8
0
  6
CONTINUOUS
 62
     4
 10
2428.2667288
 20
269.0666552
 30
1.38666656
 40
13.8666656
  1
ＤＲＡＷＩＮＧ　ＮＯ．
 50
0.0
 41
0.8
 51
0.0
  7
KANJI22
  0
TEXT
  8
0
  6
CONTINUOUS
 62
     4
 10
2428.2667288
 20
324.5333176
 30
1.38666656
 40
13.8666656
  1
ＭＦＧ　ＮＯ．
 50
0.0
 41
0.8
 51
0.0
  7
KANJI22
  0
TEXT
  8
0
  6
CONTINUOUS
 62
     4
 10
2428.2667288
 20
379.99998
 30
1.38666656
 40
13.8666656
  1
ＴＹＰＥ
 50
0.0
 41
0.8
 51
0.0
  7
KANJI22
  0
LINE
  8
0
  6
CONTINUOUS
 62
     4
 10
2435.2000616
 20
348.7999824
 11
2754.1333704
 21
348.7999824
  0
TEXT
  8
0
  6
CONTINUOUS
 62
     4
 10
2428.2667288
 20
244.7999904
 30
1.663999872
 40
16.63999872
  1
図　面　番　号
 50
0.0
 41
0.8
 51
0.0
  7
KANJI23
  0
TEXT
  8
0
  6
CONTINUOUS
 62
     4
 10
2428.2667288
 20
300.2666528
 30
1.663999872
 40
16.63999872
  1
製番
 50
0.0
 41
0.8
 51
0.0
  7
KANJI23
  0
TEXT
  8
0
  6
CONTINUOUS
 62
     4
 10
2428.2667288
 20
355.7333152
 30
1.663999872
 40
16.63999872
  1
機種
 50
0.0
 41
0.8
 51
0.0
  7
KANJI23
  0
LINE
  8
0
  6
CONTINUOUS
 62
     4
 10
2161.333416
 20
182.3999952
 11
2414.4000632
 21
182.3999952
  0
LINE
  8
0
  6
CONTINUOUS
 62
     4
 10
2161.333416
 20
237.8666576
 11
2414.4000632
 21
237.8666576
  0
TEXT
  8
0
  6
CONTINUOUS
 62
     4
 10
2175.2000816
 20
158.1333304
 30
1.38666656
 40
13.8666656
  1
ＳＣＡＬＥ
 50
0.0
 41
0.6
 51
0.0
  7
KANJI20
  0
TEXT
  8
0
  6
CONTINUOUS
 62
     4
 10
2175.2000816
 20
213.5999928
 30
1.38666656
 40
13.8666656
  1
ＤＡＴＥ
 50
0.0
 41
0.6
 51
0.0
  7
KANJI20
  0
TEXT
  8
0
  6
CONTINUOUS
 62
     4
 10
2175.2000816
 20
137.333332
 30
1.663999872
 40
16.63999872
  1
尺度
 50
0.0
 41
0.6
 51
0.0
  7
KANJI21
  0
TEXT
  8
0
  6
CONTINUOUS
 62
     4
 10
2175.2000816
 20
192.7999944
 30
1.663999872
 40
16.63999872
  1
日付
 50
0.0
 41
0.6
 51
0.0
  7
KANJI21
  0
TEXT
  8
0
  6
CONTINUOUS
 62
     4
 10
2175.2000816
 20
248.2666568
 30
1.663999872
 40
16.63999872
  1
作図
 50
0.0
 41
0.6
 51
0.0
  7
KANJI21
  0
LINE
  8
0
  6
CONTINUOUS
 62
     4
 10
1769.6001128
 20
126.9333328
 11
1769.6001128
 21
182.3999952
  0
LINE
  8
0
  6
CONTINUOUS
 62
     4
 10
1832.000108
 20
126.9333328
 11
1832.000108
 21
182.3999952
  0
TEXT
  8
0
  6
CONTINUOUS
 62
     4
 10
1790.4001112
 20
158.1333304
 30
1.38666656
 40
13.8666656
  1
ＢＹ
 50
0.0
 41
0.6
 51
0.0
  7
KANJI20
  0
TEXT
  8
0
  6
CONTINUOUS
 62
     4
 10
1942.9334328
 20
158.1333304
 30
1.38666656
 40
13.8666656
  1
ＤＥＳＣＲＩＰＴＩＯＮ
 50
0.0
 41
0.6
 51
0.0
  7
KANJI20
  0
TEXT
  8
0
  6
CONTINUOUS
 62
     4
 10
1790.4001112
 20
137.333332
 30
1.663999872
 40
16.63999872
  1
担当
 50
0.0
 41
0.6
 51
0.0
  7
KANJI21
  0
TEXT
  8
0
  6
CONTINUOUS
 62
     4
 10
1963.7334312
 20
137.333332
 30
1.663999872
 40
16.63999872
  1
記　　　　事
 50
0.0
 41
0.6
 51
0.0
  7
KANJI21
  0
LINE
  8
0
  6
CONTINUOUS
 62
     4
 10
1643.0667892
 20
171.999996
 11
1620.5334576
 21
137.333332
  0
TEXT
  8
0
  6
CONTINUOUS
 62
     4
 10
1700.2667848
 20
158.1333304
 30
1.38666656
 40
13.8666656
  1
ＤＡＴＥ
 50
0.0
 41
0.6
 51
0.0
  7
KANJI20
  0
TEXT
  8
0
  6
CONTINUOUS
 62
     4
 10
1710.666784
 20
137.333332
 30
1.663999872
 40
16.63999872
  1
日付
 50
0.0
 41
0.6
 51
0.0
  7
KANJI21
  0
LINE
  8
0
  6
CONTINUOUS
 62
     4
 10
1620.5334576
 20
137.333332
 11
1665.6001208
 21
137.333332
  0
LINE
  8
0
  6
CONTINUOUS
 62
     4
 10
1672.5334536
 20
126.9333328
 11
1672.5334536
 21
182.3999952
  0
LINE
  8
0
  6
CONTINUOUS
 62
     4
 10
1643.0667892
 20
171.999996
 11
1665.6001208
 21
137.333332
  0
LINE
  8
0
  6
CONTINUOUS
 62
     4
 10
2414.4000632
 20
213.5999928
 11
3229.0666672
 21
213.5999928
  0
LINE
  8
0
  6
CONTINUOUS
 62
     4
 10
2414.4000632
 20
126.9333328
 11
2414.4000632
 21
459.7333072
  0
LINE
  8
0
  6
LTYPE1
 62
     4
 10
2996.8000184
 20
223.999992
 11
2996.8000184
 21
279.4666544
  0
LINE
  8
0
  6
LTYPE1
 62
     4
 10
2948.2666888
 20
223.999992
 11
2948.2666888
 21
279.4666544
  0
LINE
  8
0
  6
LTYPE1
 62
     4
 10
2899.7333592
 20
223.999992
 11
2899.7333592
 21
279.4666544
  0
LINE
  8
0
  6
LTYPE1
 62
     4
 10
2851.2000296
 20
223.999992
 11
2851.2000296
 21
279.4666544
  0
LINE
  8
0
  6
LTYPE1
 62
     4
 10
2802.6667
 20
223.999992
 11
2802.6667
 21
279.4666544
  0
LINE
  8
0
  6
LTYPE1
 62
     4
 10
2754.1333704
 20
223.999992
 11
2754.1333704
 21
279.4666544
  0
LINE
  8
0
  6
LTYPE1
 62
     4
 10
2705.6000408
 20
223.999992
 11
2705.6000408
 21
279.4666544
  0
LINE
  8
0
  6
LTYPE1
 62
     4
 10
2657.0667112
 20
223.999992
 11
2657.0667112
 21
279.4666544
  0
LINE
  8
0
  6
LTYPE1
 62
     4
 10
2657.0667112
 20
279.4666544
 11
2996.8000184
 21
279.4666544
  0
LINE
  8
0
  6
LTYPE1
 62
     4
 10
2657.0667112
 20
223.999992
 11
2996.8000184
 21
223.999992
  0
LINE
  8
0
  6
CONTINUOUS
 62
     4
 10
3024.5333496
 20
253.4666564
 11
3038.4000152
 21
253.4666564
  0
LINE
  8
0
  6
CONTINUOUS
 62
     4
 10
3111.2000096
 20
232.666658
 11
3062.66668
 21
232.666658
  0
LINE
  8
0
  6
CONTINUOUS
 62
     4
 10
3062.66668
 20
232.666658
 11
3086.9333448
 21
274.2666548
  0
LINE
  8
0
  6
CONTINUOUS
 62
     4
 10
3086.9333448
 20
274.2666548
 11
3111.2000096
 21
232.666658
  0
LINE
  8
0
  6
CONTINUOUS
 62
     4
 10
3242.9333328
 20
126.9333328
 11
3326.1333264
 21
126.9333328
  0
LINE
  8
0
  6
CONTINUOUS
 62
     4
 10
3242.9333328
 20
168.5333296
 11
3326.1333264
 21
168.5333296
  0
LINE
  8
0
  6
CONTINUOUS
 62
     4
 10
3242.9333328
 20
210.1333264
 11
3326.1333264
 21
210.1333264
  0
LINE
  8
0
  6
CONTINUOUS
 62
     4
 10
3242.9333328
 20
251.7333232
 11
3326.1333264
 21
251.7333232
  0
LINE
  8
0
  6
CONTINUOUS
 62
     4
 10
3242.9333328
 20
293.33332
 11
3326.1333264
 21
293.33332
  0
LINE
  8
0
  6
CONTINUOUS
 62
     4
 10
3242.9333328
 20
334.9333168
 11
3326.1333264
 21
334.9333168
  0
LINE
  8
0
  6
CONTINUOUS
 62
     4
 10
3242.9333328
 20
376.5333136
 11
3326.1333264
 21
376.5333136
  0
LINE
  8
0
  6
CONTINUOUS
 62
     4
 10
3242.9333328
 20
418.1333104
 11
3326.1333264
 21
418.1333104
  0
LINE
  8
0
  6
CONTINUOUS
 62
     4
 10
3242.9333328
 20
459.7333072
 11
3326.1333264
 21
459.7333072
  0
LINE
  8
0
  6
CONTINUOUS
 62
     4
 10
3242.9333328
 20
501.333304
 11
3326.1333264
 21
501.333304
  0
LINE
  8
0
  6
CONTINUOUS
 62
     4
 10
3326.1333264
 20
126.9333328
 11
3326.1333264
 21
501.333304
  0
LINE
  8
0
  6
CONTINUOUS
 62
     4
 10
3284.5333296
 20
126.9333328
 11
3284.5333296
 21
459.7333072
  0
TEXT
  8
0
  6
CONTINUOUS
 62
     4
 10
3257.14666504
 20
139.0666652
 30
2.07999984
 40
20.7999984
  1
計
 50
0.0
 41
0.75
 51
0.0
  7
KANJI24
  0
TEXT
  8
0
  6
CONTINUOUS
 62
     4
 10
3257.14666504
 20
222.95999208
 30
2.07999984
 40
20.7999984
  1
設
 50
0.0
 41
0.75
 51
0.0
  7
KANJI24
  0
TEXT
  8
0
  6
CONTINUOUS
 62
     4
 10
3257.14666504
 20
263.8666556
 30
2.07999984
 40
20.7999984
  1
管
 50
0.0
 41
0.75
 51
0.0
  7
KANJI24
  0
TEXT
  8
0
  6
CONTINUOUS
 62
     4
 10
3257.14666504
 20
305.4666524
 30
2.07999984
 40
20.7999984
  1
製
 50
0.0
 41
0.75
 51
0.0
  7
KANJI24
  0
TEXT
  8
0
  6
CONTINUOUS
 62
     4
 10
3257.14666504
 20
347.0666492
 30
2.07999984
 40
20.7999984
  1
資
 50
0.0
 41
0.75
 51
0.0
  7
KANJI24
  0
TEXT
  8
0
  6
CONTINUOUS
 62
     4
 10
3257.14666504
 20
388.666646
 30
2.07999984
 40
20.7999984
  1
営
 50
0.0
 41
0.75
 51
0.0
  7
KANJI24
  0
TEXT
  8
0
  6
CONTINUOUS
 62
     4
 10
3257.14666504
 20
430.2666428
 30
2.07999984
 40
20.7999984
  1
客
 50
0.0
 41
0.75
 51
0.0
  7
KANJI24
  0
TEXT
  8
0
  6
CONTINUOUS
 62
     4
 10
3256.7999984
 20
473.5999728
 30
2.07999984
 40
20.7999984
  1
出　図
 50
0.0
 41
0.75
 51
0.0
  7
KANJI24
  0
LINE
  8
0
  6
CONTINUOUS
 62
     4
 10
3242.9333328
 20
126.9333328
 11
3242.9333328
 21
501.333304
  0
TEXT
  8
0
  6
CONTINUOUS
 62
     4
 10
3118.1333424
 20
50.666672
 30
6.9333328
 40
69.333328
  1
／
 50
0.0
 41
0.9
 51
0.0
  7
KANJI25
  0
TEXT
  8
0
  6
CONTINUOUS
 62
     4
 10
2774.9333688
 20
379.99998
 30
1.38666656
 40
13.8666656
  1
ＴＩＴＬＥ
 50
0.0
 41
0.8
 51
0.0
  7
KANJI22
  0
TEXT
  8
0
  6
CONTINUOUS
 62
     4
 10
2774.9333688
 20
355.7333152
 30
1.663999872
 40
16.63999872
  1
名称
 50
0.0
 41
0.8
 51
0.0
  7
KANJI23
  0
LINE
  8
0
  6
CONTINUOUS
 62
     6
 10
140.0
 20
120.0
 11
140.0
 21
2272.0
  0
LINE
  8
0
  6
CONTINUOUS
 62
     6
 10
140.0
 20
2272.0
 11
3236.0
 21
2272.0
  0
LINE
  8
0
  6
CONTINUOUS
 62
     6
 10
3236.0
 20
2272.0
 11
3236.0
 21
120.0
  0
LINE
  8
0
  6
CONTINUOUS
 62
     6
 10
2175.2000816
 20
2265.0666672
 11
2175.2000816
 21
2143.7333432
  0
LINE
  8
0
  6
CONTINUOUS
 62
     6
 10
3229.0666672
 20
2265.0666672
 11
2175.2000816
 21
2265.0666672
  0
LINE
  8
0
  6
CONTINUOUS
 62
     6
 10
3229.0666672
 20
2143.7333432
 11
2175.2000816
 21
2143.7333432
  0
LINE
  8
0
  6
CONTINUOUS
 62
     6
 10
3229.0666672
 20
2265.0666672
 11
3229.0666672
 21
2143.7333432
  0
LINE
  8
0
  6
CONTINUOUS
 62
     6
 10
3236.0
 20
120.0
 11
140.0
 21
120.0
  0
LINE
  8
0
  6
CONTINUOUS
 62
     6
 10
667.999888985
 20
127.999998318
 11
667.999888985
 21
239.999974769
  0
LINE
  8
0
  6
CONTINUOUS
 62
     6
 10
147.999998318
 20
239.999974769
 11
667.999888985
 21
239.999974769
  0
LINE
  8
0
  6
CONTINUOUS
 62
     6
 10
147.999998318
 20
127.999998318
 11
667.999888985
 21
127.999998318
  0
LINE
  8
0
  6
CONTINUOUS
 62
     6
 10
147.999998318
 20
127.999998318
 11
147.999998318
 21
239.999974769
  0
LINE
  8
0
  6
CONTINUOUS
 62
     6
 10
507.999922626
 20
127.999998318
 11
507.999922626
 21
239.999974769
  0
LINE
  8
0
  6
CONTINUOUS
 62
     6
 10
147.999998318
 20
183.999986544
 11
667.999888985
 21
183.999986544
  0
TEXT
  8
0
  6
CONTINUOUS
 62
     3
 10
163.999994954
 20
199.999983179
 30
2.399999495
 40
23.999994954
  1
ＰＬ
 50
0.0
 41
0.9
 51
0.0
  7
KANJI26
  0
LINE
  8
0
  6
CONTINUOUS
 62
     6
 10
1613.6001248
 20
126.9333328
 11
1613.6001248
 21
182.3999952
  0
LINE
  8
0
  6
CONTINUOUS
 62
     6
 10
1613.6001248
 20
182.3999952
 11
2161.333416
 21
182.3999952
  0
LINE
  8
0
  6
CONTINUOUS
 62
     6
 10
1613.6001248
 20
126.9333328
 11
3229.0666672
 21
126.9333328
  0
LINE
  8
0
  6
CONTINUOUS
 62
     6
 10
2706.20670742
 20
163.67999664
 11
2683.32670918
 21
163.67999664
  0
LINE
  8
0
  6
CONTINUOUS
 62
     6
 10
2706.20670742
 20
167.83999632
 11
2683.32670918
 21
167.83999632
  0
LINE
  8
0
  6
CONTINUOUS
 62
     6
 10
2706.20670742
 20
163.67999664
 11
2729.08670566
 21
163.67999664
  0
LINE
  8
0
  6
CONTINUOUS
 62
     6
 10
2706.20670742
 20
167.83999632
 11
2729.08670566
 21
167.83999632
  0
LINE
  8
0
  6
CONTINUOUS
 62
     6
 10
2729.08670566
 20
167.83999632
 11
2729.08670566
 21
163.67999664
  0
ARC
  8
0
  6
CONTINUOUS
 62
     6
 10
2734.28670526
 20
165.75999648
 40
20.7999984
 50
185.739170477
 51
90.0
  0
ARC
  8
0
  6
CONTINUOUS
 62
     6
 10
2734.28670526
 20
165.75999648
 40
24.95999808
 50
184.780191847
 51
90.0
  0
LINE
  8
0
  6
CONTINUOUS
 62
     6
 10
2683.32670918
 20
163.67999664
 11
2683.32670918
 21
167.83999632
  0
TEXT
  8
0
  6
CONTINUOUS
 62
     6
 10
2421.333396
 20
158.1333304
 30
0.0
 40
24.2666648
  1
ＵＮＩＴＥＣ　ＩＮＤＵＳＴＲＹ　ＣＯ．，ＬＴＤ．
 50
0.0
 41
0.42031746
 51
0.0
  7
KANJI27
  0
LINE
  8
0
  6
CONTINUOUS
 62
     6
 10
2703.08670766
 20
190.71999456
 11
2678.12670958
 21
190.71999456
  0
LINE
  8
0
  6
CONTINUOUS
 62
     6
 10
2709.32670718
 20
190.71999456
 11
2734.28670526
 21
190.71999456
  0
ARC
  8
0
  6
CONTINUOUS
 62
     6
 10
2678.12670958
 20
165.75999648
 40
20.7999984
 50
90.0
 51
354.260829523
  0
ARC
  8
0
  6
CONTINUOUS
 62
     6
 10
2678.12670958
 20
165.75999648
 40
24.95999808
 50
90.0
 51
355.219808153
  0
LINE
  8
0
  6
CONTINUOUS
 62
     6
 10
2703.08670766
 20
190.71999456
 11
2703.08670766
 21
186.55999488
  0
LINE
  8
0
  6
CONTINUOUS
 62
     6
 10
2678.12670958
 20
186.55999488
 11
2703.08670766
 21
186.55999488
  0
LINE
  8
0
  6
CONTINUOUS
 62
     6
 10
2709.32670718
 20
190.71999456
 11
2709.32670718
 21
186.55999488
  0
LINE
  8
0
  6
CONTINUOUS
 62
     6
 10
2734.28670526
 20
186.55999488
 11
2709.32670718
 21
186.55999488
  0
TEXT
  8
0
  6
CONTINUOUS
 62
     6
 10
2761.67336982
 20
149.11999776
 30
4.15999968
 40
41.5999968
  1
ユニテック工業株式会社
 50
0.0
 41
0.9
 51
0.0
  7
KANJI28
  0
LINE
  8
0
  6
CONTINUOUS
 62
     6
 10
2161.333416
 20
515.1999696
 11
3229.0666672
 21
515.1999696
  0
TEXT
  8
0
  6
CONTINUOUS
 62
     3
 10
2308.0
 20
136.0
 30
2.4
 40
36.0
  1
１／８
 50
0.0
 41
0.666666667
 51
0.0
  7
KANJI29
  0
LINE
  8
0
  6
CONTINUOUS
 62
     1
 10
2528.0
 20
2101.0
 11
2528.0
 21
1013.0
  0
TEXT
  8
0
  6
CONTINUOUS
 62
     2
 10
2628.0
 20
2042.6
 30
22.79952
 40
36.0
  1
マイティシリンダ仕様
 50
0.0
 41
0.9
 51
0.0
  7
KANJI30
  0
TEXT
  8
0
  6
CONTINUOUS
 62
     2
 10
2560.6
 20
1537.0
 30
17.6
 40
28.0
  1
モ　トル仕様
 50
0.0
 41
0.9
 51
0.0
  7
KANJI31
  0
TEXT
  8
0
  6
CONTINUOUS
 62
     2
 10
2558.8
 20
1233.0
 30
1.371428571
 40
24.0
  1
ブレ　キ
 50
0.0
 41
0.9
 51
0.0
  7
KANJI32
  0
LINE
  8
0
  6
CONTINUOUS
 62
     2
 10
2558.4
 20
1177.8
 11
2558.4
 21
1161.0
  0
LINE
  8
0
  6
CONTINUOUS
 62
     2
 10
2558.4
 20
1492.2
 11
2558.4
 21
1473.8
  0
TEXT
  8
0
  6
CONTINUOUS
 62
     2
 10
2987.2
 20
1643.4
 30
11.36
 40
28.0
  1
推力リミッタ
 50
0.0
 41
0.9
 51
0.0
  7
KANJI33
  0
TEXT
  8
0
  6
CONTINUOUS
 62
     2
 10
3199.2
 20
1531.4
 30
17.571428571
 40
24.0
  1
Ｐ
 50
0.0
 41
0.9
 51
0.0
  7
KANJI34
  0
TEXT
  8
0
  6
CONTINUOUS
 62
     2
 10
3066.4
 20
1531.4
 30
1.6
 40
24.0
  1
ＫＷ
 50
0.0
 41
0.857142857
 51
0.0
  7
KANJI35
  0
TEXT
  8
0
  6
CONTINUOUS
 62
     2
 10
3159.2
 20
1531.4
 30
20.5
 40
28.0
  1
４
 50
0.0
 41
0.9
 51
0.0
  7
KANJI36
  0
TEXT
  8
0
  6
CONTINUOUS
 62
     2
 10
2942.4
 20
1589.8
 30
0.8
 40
22.4
  1
マンセル
 50
0.0
 41
0.9
 51
0.0
  7
KANJI37
  0
TEXT
  8
0
  6
CONTINUOUS
 62
     2
 10
3036.0
 20
1591.4
 30
0.32
 40
22.4
  1
７．５ＧＹ５／４．５
 50
0.0
 41
0.785714286
 51
0.0
  7
KANJI38
  0
TEXT
  8
0
  6
CONTINUOUS
 62
     2
 10
2936.0
 20
1196.2
 30
2.4
 40
22.4
  1
スプリング制動式電磁ブレーキ
 50
0.0
 41
0.8
 51
0.0
  7
KANJI39
  0
TEXT
  8
0
  6
CONTINUOUS
 62
     2
 10
3200.0
 20
1475.4
 30
0.288
 40
24.0
  1
Ｖ
 50
0.0
 41
0.8
 51
0.0
  7
KANJI40
  0
TEXT
  8
0
  6
CONTINUOUS
 62
     2
 10
3185.6
 20
1419.4
 30
0.288
 40
24.0
  1
Ｈｚ
 50
0.0
 41
0.8
 51
0.0
  7
KANJI40
  0
TEXT
  8
0
  6
CONTINUOUS
 62
     2
 10
3027.8
 20
1419.2
 30
2.4
 40
24.0
  1
５０／６０
 50
0.0
 41
0.9
 51
0.0
  7
KANJI2
  0
TEXT
  8
0
  6
CONTINUOUS
 62
     2
 10
3201.8
 20
1365.2
 30
2.4
 40
24.0
  1
Ａ
 50
0.0
 41
0.9
 51
0.0
  7
KANJI2
  0
TEXT
  8
0
  6
CONTINUOUS
 62
     2
 10
3075.8
 20
1311.2
 30
2.4
 40
24.0
  1
Ｅ
 50
0.0
 41
0.9
 51
0.0
  7
KANJI2
  0
LINE
  8
0
  6
CONTINUOUS
 62
     2
 10
2592.0
 20
1573.0
 11
2592.0
 21
1125.0
  0
LINE
  8
0
  6
CONTINUOUS
 62
     2
 10
2928.0
 20
2021.0
 11
2928.0
 21
1013.0
  0
TEXT
  8
0
  6
CONTINUOUS
 62
     2
 10
2588.0
 20
1979.4
 30
240.594285714
 40
30.4
  1
形式
 50
0.0
 41
0.9
 51
0.0
  7
KANJI41
  0
TEXT
  8
0
  6
CONTINUOUS
 62
     2
 10
2588.0
 20
1923.4
 30
240.594285714
 40
30.4
  1
推力
 50
0.0
 41
0.9
 51
0.0
  7
KANJI41
  0
TEXT
  8
0
  6
CONTINUOUS
 62
     2
 10
2588.0
 20
1867.4
 30
39.628571429
 40
30.4
  1
ストローク
 50
0.0
 41
0.9
 51
0.0
  7
KANJI42
  0
TEXT
  8
0
  6
CONTINUOUS
 62
     2
 10
2588.0
 20
1811.4
 30
61.957805714
 40
30.4
  1
公称速度
 50
0.0
 41
0.9
 51
0.0
  7
KANJI43
  0
TEXT
  8
0
  6
CONTINUOUS
 62
     2
 10
2564.0
 20
1755.4
 30
2.605714286
 40
30.4
  1
ピストンロッド回転トルク
 50
0.0
 41
0.9
 51
0.0
  7
KANJI44
  0
TEXT
  8
0
  6
CONTINUOUS
 62
     2
 10
2588.0
 20
1699.4
 30
240.594285714
 40
30.4
  1
構造
 50
0.0
 41
0.9
 51
0.0
  7
KANJI41
  0
TEXT
  8
0
  6
CONTINUOUS
 62
     2
 10
2588.0
 20
1643.4
 30
17.298468571
 40
30.4
  1
過負荷安全装置
 50
0.0
 41
0.9
 51
0.0
  7
KANJI45
  0
TEXT
  8
0
  6
CONTINUOUS
 62
     2
 10
2588.0
 20
1587.4
 30
106.617142857
 40
30.4
  1
塗装色
 50
0.0
 41
0.9
 51
0.0
  7
KANJI46
  0
TEXT
  8
0
  6
CONTINUOUS
 62
     2
 10
2628.0
 20
1531.4
 30
26.6
 40
30.4
  1
出力　極数
 50
0.0
 41
0.9
 51
0.0
  7
KANJI47
  0
TEXT
  8
0
  6
CONTINUOUS
 62
     2
 10
2628.0
 20
1475.4
 30
44.586377143
 40
30.4
  1
電源電圧
 50
0.0
 41
0.9
 51
0.0
  7
KANJI48
  0
TEXT
  8
0
  6
CONTINUOUS
 62
     2
 10
2628.0
 20
1419.4
 30
80.56
 40
30.4
  1
周波数
 50
0.0
 41
0.9
 51
0.0
  7
KANJI49
  0
TEXT
  8
0
  6
CONTINUOUS
 62
     2
 10
2628.0
 20
1363.4
 30
188.48
 40
30.4
  1
電流
 50
0.0
 41
0.9
 51
0.0
  7
KANJI50
  0
TEXT
  8
0
  6
CONTINUOUS
 62
     2
 10
2628.0
 20
1307.4
 30
80.56
 40
30.4
  1
絶縁級
 50
0.0
 41
0.9
 51
0.0
  7
KANJI49
  0
TEXT
  8
0
  6
CONTINUOUS
 62
     2
 10
2628.0
 20
1195.4
 30
188.48
 40
30.4
  1
形式
 50
0.0
 41
0.9
 51
0.0
  7
KANJI50
  0
TEXT
  8
0
  6
CONTINUOUS
 62
     2
 10
2628.0
 20
1139.4
 30
44.586377143
 40
30.4
  1
操作方式
 50
0.0
 41
0.9
 51
0.0
  7
KANJI48
  0
TEXT
  8
0
  6
CONTINUOUS
 62
     2
 10
2588.0
 20
1083.4
 30
106.617142857
 40
30.4
  1
付属品
 50
0.0
 41
0.9
 51
0.0
  7
KANJI46
  0
TEXT
  8
0
  6
CONTINUOUS
 62
     2
 10
2588.0
 20
1027.4
 30
240.594285714
 40
30.4
  1
台数
 50
0.0
 41
0.9
 51
0.0
  7
KANJI41
  0
TEXT
  8
0
  6
CONTINUOUS
 62
     2
 10
3178.8
 20
1870.6
 30
0.1792
 40
22.4
  1
ｍｍ
 50
0.0
 41
0.8
 51
0.0
  7
KANJI51
  0
TEXT
  8
0
  6
CONTINUOUS
 62
     2
 10
3118.8
 20
1817.0
 30
0.1792
 40
22.4
  1
ｍｍ／ｓｅｃ
 50
0.0
 41
0.8
 51
0.0
  7
KANJI51
  0
TEXT
  8
0
  6
CONTINUOUS
 62
     2
 10
3166.0
 20
1759.4
 30
0.1792
 40
22.4
  1
ｋｇｍ
 50
0.0
 41
0.8
 51
0.0
  7
KANJI51
  0
LINE
  8
0
  6
CONTINUOUS
 62
     1
 10
2528.0
 20
1013.0
 11
3236.0
 21
1013.0
  0
LINE
  8
0
  6
CONTINUOUS
 62
     2
 10
2528.0
 20
1069.0
 11
3236.0
 21
1069.0
  0
LINE
  8
0
  6
CONTINUOUS
 62
     2
 10
2528.0
 20
1125.0
 11
3236.0
 21
1125.0
  0
LINE
  8
0
  6
CONTINUOUS
 62
     2
 10
2592.0
 20
1181.0
 11
3236.0
 21
1181.0
  0
LINE
  8
0
  6
CONTINUOUS
 62
     2
 10
2528.0
 20
1237.0
 11
3236.0
 21
1237.0
  0
LINE
  8
0
  6
CONTINUOUS
 62
     2
 10
2592.0
 20
1293.0
 11
3236.0
 21
1293.0
  0
LINE
  8
0
  6
CONTINUOUS
 62
     2
 10
2592.0
 20
1349.0
 11
3236.0
 21
1349.0
  0
LINE
  8
0
  6
CONTINUOUS
 62
     2
 10
2592.0
 20
1405.0
 11
3236.0
 21
1405.0
  0
LINE
  8
0
  6
CONTINUOUS
 62
     2
 10
2592.0
 20
1461.0
 11
3236.0
 21
1461.0
  0
LINE
  8
0
  6
CONTINUOUS
 62
     2
 10
2592.0
 20
1517.0
 11
3236.0
 21
1517.0
  0
LINE
  8
0
  6
CONTINUOUS
 62
     2
 10
2528.0
 20
1573.0
 11
3236.0
 21
1573.0
  0
LINE
  8
0
  6
CONTINUOUS
 62
     2
 10
2528.0
 20
1629.0
 11
3236.0
 21
1629.0
  0
LINE
  8
0
  6
CONTINUOUS
 62
     2
 10
2528.0
 20
1685.0
 11
3236.0
 21
1685.0
  0
LINE
  8
0
  6
CONTINUOUS
 62
     1
 10
2528.0
 20
2101.0
 11
3236.0
 21
2101.0
  0
LINE
  8
0
  6
CONTINUOUS
 62
     2
 10
2528.0
 20
2021.0
 11
3236.0
 21
2021.0
  0
LINE
  8
0
  6
CONTINUOUS
 62
     2
 10
2528.0
 20
1965.0
 11
3236.0
 21
1965.0
  0
LINE
  8
0
  6
CONTINUOUS
 62
     2
 10
2528.0
 20
1909.0
 11
3236.0
 21
1909.0
  0
LINE
  8
0
  6
CONTINUOUS
 62
     2
 10
2528.0
 20
1853.0
 11
3236.0
 21
1853.0
  0
LINE
  8
0
  6
CONTINUOUS
 62
     2
 10
2528.0
 20
1797.0
 11
3236.0
 21
1797.0
  0
LINE
  8
0
  6
CONTINUOUS
 62
     2
 10
2528.0
 20
1741.0
 11
3236.0
 21
1741.0
  0
TEXT
  8
0
  6
CONTINUOUS
 62
     2
 10
2955.8
 20
1811.2
 30
2.4
 40
24.0
  1
２０／２４
 50
0.0
 41
0.9
 51
0.0
  7
KANJI2
  0
TEXT
  8
0
  6
CONTINUOUS
 62
     2
 10
2973.8
 20
1533.2
 30
2.4
 40
24.0
  1
２．２
 50
0.0
 41
0.9
 51
0.0
  7
KANJI2
  0
TEXT
  8
0
  6
CONTINUOUS
 62
     2
 10
3004.8
 20
1476.2
 30
2.4
 40
24.0
  1
　　　　　　／　
 50
0.0
 41
0.9
 51
0.0
  7
KANJI2
  0
TEXT
  8
0
  6
CONTINUOUS
 62
     2
 10
3004.8
 20
1364.2
 30
2.4
 40
24.0
  1
　　　　　　／　　
 50
0.0
 41
0.9
 51
0.0
  7
KANJI2
  0
LINE
  8
1
  6
CONTINUOUS
 62
     2
 10
694.0
 20
1038.0
 11
674.681483474
 21
1043.176380902
  0
LINE
  8
1
  6
CONTINUOUS
 62
     2
 10
694.0
 20
1038.0
 11
674.681483474
 21
1032.823619098
  0
LINE
  8
1
  6
CONTINUOUS
 62
     2
 10
694.0
 20
1038.0
 11
624.0
 21
1038.0
  0
LINE
  8
1
  6
CONTINUOUS
 62
     2
 10
624.0
 20
1038.0
 11
643.318516526
 21
1032.823619098
  0
LINE
  8
1
  6
CONTINUOUS
 62
     2
 10
624.0
 20
1038.0
 11
643.318516526
 21
1043.176380902
  0
LINE
  8
1
  6
CONTINUOUS
 62
     2
 10
624.0
 20
1205.0
 11
624.0
 21
1022.0
  0
LINE
  8
1
  6
CONTINUOUS
 62
     2
 10
624.0
 20
1038.0
 11
604.681483474
 21
1043.176380902
  0
LINE
  8
1
  6
CONTINUOUS
 62
     2
 10
624.0
 20
1038.0
 11
604.681483474
 21
1032.823619098
  0
LINE
  8
1
  6
CONTINUOUS
 62
     2
 10
624.0
 20
1038.0
 11
469.0
 21
1038.0
  0
LINE
  8
1
  6
CONTINUOUS
 62
     2
 10
469.0
 20
1038.0
 11
488.318516526
 21
1032.823619098
  0
LINE
  8
1
  6
CONTINUOUS
 62
     2
 10
469.0
 20
1038.0
 11
488.318516526
 21
1043.176380902
  0
LINE
  8
1
  6
CONTINUOUS
 62
     2
 10
469.0
 20
1205.0
 11
469.0
 21
1022.0
  0
LINE
  8
0
  6
CONTINUOUS
 62
     1
 10
624.0
 20
1213.0
 11
469.0
 21
1213.0
  0
LINE
  8
0
  6
CONTINUOUS
 62
     1
 10
469.0
 20
1463.8
 11
466.0
 21
1463.8
  0
LINE
  8
0
  6
CONTINUOUS
 62
     1
 10
466.0
 20
1463.8
 11
466.0
 21
1442.2
  0
LINE
  8
0
  6
CONTINUOUS
 62
     1
 10
466.0
 20
1442.2
 11
469.0
 21
1442.2
  0
LINE
  8
0
  6
CONTINUOUS
 62
     1
 10
469.0
 20
1442.2
 11
469.0
 21
1463.8
  0
LINE
  8
0
  6
CONTINUOUS
 62
     1
 10
466.0
 20
1444.0
 11
466.0
 21
1462.0
  0
LINE
  8
0
  6
CONTINUOUS
 62
     1
 10
458.5
 20
1444.0
 11
458.5
 21
1462.0
  0
LINE
  8
0
  6
LTYPE2
 62
     2
 10
473.0
 20
1453.0
 11
454.5
 21
1453.0
  0
LINE
  8
0
  6
CONTINUOUS
 62
     1
 10
458.5
 20
1462.0
 11
466.0
 21
1462.0
  0
LINE
  8
0
  6
CONTINUOUS
 62
     1
 10
458.5
 20
1444.0
 11
466.0
 21
1444.0
  0
LINE
  8
0
  6
CONTINUOUS
 62
     1
 10
466.0
 20
1453.0
 11
459.5
 21
1453.0
  0
ARC
  8
0
  6
CONTINUOUS
 62
     1
 10
469.1
 20
1448.5
 40
10.6
 50
154.9
 51
205.1
  0
ARC
  8
0
  6
CONTINUOUS
 62
     1
 10
469.1
 20
1457.5
 40
10.6
 50
154.9
 51
205.1
  0
LINE
  8
0
  6
CONTINUOUS
 62
     1
 10
466.0
 20
1453.0
 11
469.0
 21
1454.732050808
  0
LINE
  8
0
  6
CONTINUOUS
 62
     1
 10
469.0
 20
1453.0
 11
466.0
 21
1451.267949192
  0
LINE
  8
0
  6
CONTINUOUS
 62
     1
 10
469.0
 20
1253.8
 11
466.0
 21
1253.8
  0
LINE
  8
0
  6
CONTINUOUS
 62
     1
 10
466.0
 20
1253.8
 11
466.0
 21
1232.2
  0
LINE
  8
0
  6
CONTINUOUS
 62
     1
 10
466.0
 20
1232.2
 11
469.0
 21
1232.2
  0
LINE
  8
0
  6
CONTINUOUS
 62
     1
 10
469.0
 20
1232.2
 11
469.0
 21
1253.8
  0
LINE
  8
0
  6
CONTINUOUS
 62
     1
 10
466.0
 20
1234.0
 11
466.0
 21
1252.0
  0
LINE
  8
0
  6
CONTINUOUS
 62
     1
 10
458.5
 20
1234.0
 11
458.5
 21
1252.0
  0
LINE
  8
0
  6
LTYPE2
 62
     2
 10
473.0
 20
1243.0
 11
454.5
 21
1243.0
  0
LINE
  8
0
  6
CONTINUOUS
 62
     1
 10
458.5
 20
1252.0
 11
466.0
 21
1252.0
  0
LINE
  8
0
  6
CONTINUOUS
 62
     1
 10
458.5
 20
1234.0
 11
466.0
 21
1234.0
  0
LINE
  8
0
  6
CONTINUOUS
 62
     1
 10
466.0
 20
1243.0
 11
459.5
 21
1243.0
  0
ARC
  8
0
  6
CONTINUOUS
 62
     1
 10
469.1
 20
1238.5
 40
10.6
 50
154.9
 51
205.1
  0
ARC
  8
0
  6
CONTINUOUS
 62
     1
 10
469.1
 20
1247.5
 40
10.6
 50
154.9
 51
205.1
  0
LINE
  8
0
  6
CONTINUOUS
 62
     1
 10
466.0
 20
1243.0
 11
469.0
 21
1244.732050808
  0
LINE
  8
0
  6
CONTINUOUS
 62
     1
 10
469.0
 20
1243.0
 11
466.0
 21
1241.267949192
  0
LINE
  8
1
  6
CONTINUOUS
 62
     2
 10
694.0
 20
1030.0
 11
694.0
 21
955.0
  0
LINE
  8
1
  6
CONTINUOUS
 62
     2
 10
694.0
 20
971.0
 11
674.681483474
 21
976.176380902
  0
LINE
  8
1
  6
CONTINUOUS
 62
     2
 10
694.0
 20
971.0
 11
674.681483474
 21
965.823619098
  0
LINE
  8
1
  6
CONTINUOUS
 62
     2
 10
694.0
 20
971.0
 11
469.0
 21
971.0
  0
LINE
  8
1
  6
CONTINUOUS
 62
     2
 10
469.0
 20
971.0
 11
488.318516526
 21
965.823619098
  0
LINE
  8
1
  6
CONTINUOUS
 62
     2
 10
469.0
 20
971.0
 11
488.318516526
 21
976.176380902
  0
LINE
  8
1
  6
CONTINUOUS
 62
     2
 10
469.0
 20
1030.0
 11
469.0
 21
955.0
  0
TEXT
  8
1
  6
CONTINUOUS
 62
     2
 10
505.7
 20
1046.0
 30
2.4
 40
28.0
  1
１５５
 50
0.0
 41
0.914285714
 51
0.0
  7
KANJI52
  0
TEXT
  8
1
  6
CONTINUOUS
 62
     2
 10
632.2
 20
1046.0
 30
2.4
 40
28.0
  1
７０
 50
0.0
 41
0.914285714
 51
0.0
  7
KANJI52
  0
TEXT
  8
1
  6
CONTINUOUS
 62
     2
 10
540.7
 20
979.0
 30
2.4
 40
28.0
  1
２２５
 50
0.0
 41
0.914285714
 51
0.0
  7
KANJI52
  0
LINE
  8
0
  6
CONTINUOUS
 62
     1
 10
2084.49
 20
2220.5948
 11
2084.49
 21
2012.6
  0
LINE
  8
0
  6
CONTINUOUS
 62
     2
 10
1964.493
 20
2220.5948
 11
1964.493
 21
2012.6
  0
LINE
  8
0
  6
CONTINUOUS
 62
     2
 10
1844.496
 20
2220.5948
 11
1844.496
 21
2012.6
  0
LINE
  8
0
  6
CONTINUOUS
 62
     1
 10
1684.5
 20
2220.5948
 11
1684.5
 21
2012.6
  0
LINE
  8
0
  6
CONTINUOUS
 62
     1
 10
1684.5
 20
2220.5948
 11
2084.49
 21
2220.5948
  0
LINE
  8
0
  6
CONTINUOUS
 62
     1
 10
1684.5
 20
2156.5964
 11
2084.49
 21
2156.5964
  0
LINE
  8
0
  6
CONTINUOUS
 62
     2
 10
1684.5
 20
2108.5976
 11
2084.49
 21
2108.5976
  0
LINE
  8
0
  6
CONTINUOUS
 62
     2
 10
1684.5
 20
2060.5988
 11
2084.49
 21
2060.5988
  0
LINE
  8
0
  6
CONTINUOUS
 62
     1
 10
1684.5
 20
2012.6
 11
2084.49
 21
2012.6
  0
TEXT
  8
0
  6
CONTINUOUS
 62
     2
 10
1980.4926
 20
2192.5955
 30
2.39994
 40
23.9994
  1
起動電流
 50
0.0
 41
0.9
 51
0.0
  7
KANJI53
  0
TEXT
  8
0
  6
CONTINUOUS
 62
     2
 10
1980.4926
 20
2164.5962
 30
2.39994
 40
23.9994
  1
　　　Ａ
 50
0.0
 41
0.9
 51
0.0
  7
KANJI53
  0
TEXT
  8
0
  6
CONTINUOUS
 62
     2
 10
1860.4956
 20
2192.5955
 30
2.39994
 40
23.9994
  1
定格電流
 50
0.0
 41
0.9
 51
0.0
  7
KANJI53
  0
TEXT
  8
0
  6
CONTINUOUS
 62
     2
 10
1860.4956
 20
2164.5962
 30
2.39994
 40
23.9994
  1
　　　Ａ
 50
0.0
 41
0.9
 51
0.0
  7
KANJI53
  0
TEXT
  8
0
  6
CONTINUOUS
 62
     2
 10
1698.09966
 20
2192.5955
 30
2.39994
 40
23.9994
  1
電圧／周波数
 50
0.0
 41
0.9
 51
0.0
  7
KANJI53
  0
TEXT
  8
0
  6
CONTINUOUS
 62
     2
 10
1698.09966
 20
2164.5962
 30
2.39994
 40
23.9994
  1
　Ｖ／Ｈｚ
 50
0.0
 41
0.9
 51
0.0
  7
KANJI53
  0
TEXT
  8
0
  6
CONTINUOUS
 62
     2
 10
1698.09966
 20
2120.5973
 30
2.39994
 40
23.9994
  1
４００／５０
 50
0.0
 41
0.9
 51
0.0
  7
KANJI53
  0
TEXT
  8
0
  6
CONTINUOUS
 62
     2
 10
1698.09966
 20
2072.5985
 30
2.39994
 40
23.9994
  1
４００／６０
 50
0.0
 41
0.9
 51
0.0
  7
KANJI53
  0
TEXT
  8
0
  6
CONTINUOUS
 62
     2
 10
1698.09966
 20
2024.5997
 30
2.39994
 40
23.9994
  1
４４０／６０
 50
0.0
 41
0.9
 51
0.0
  7
KANJI53
  0
LINE
  8
0
  6
CONTINUOUS
 62
     1
 10
1604.5
 20
2220.5948
 11
1604.5
 21
2012.6
  0
LINE
  8
0
  6
CONTINUOUS
 62
     2
 10
1484.503
 20
2220.5948
 11
1484.503
 21
2012.6
  0
LINE
  8
0
  6
CONTINUOUS
 62
     2
 10
1364.506
 20
2220.5948
 11
1364.506
 21
2012.6
  0
LINE
  8
0
  6
CONTINUOUS
 62
     1
 10
1204.51
 20
2220.5948
 11
1204.51
 21
2012.6
  0
LINE
  8
0
  6
CONTINUOUS
 62
     1
 10
1204.51
 20
2220.5948
 11
1604.5
 21
2220.5948
  0
LINE
  8
0
  6
CONTINUOUS
 62
     1
 10
1204.51
 20
2156.5964
 11
1604.5
 21
2156.5964
  0
LINE
  8
0
  6
CONTINUOUS
 62
     2
 10
1204.51
 20
2108.5976
 11
1604.5
 21
2108.5976
  0
LINE
  8
0
  6
CONTINUOUS
 62
     2
 10
1204.51
 20
2060.5988
 11
1604.5
 21
2060.5988
  0
LINE
  8
0
  6
CONTINUOUS
 62
     1
 10
1204.51
 20
2012.6
 11
1604.5
 21
2012.6
  0
TEXT
  8
0
  6
CONTINUOUS
 62
     2
 10
1500.5026
 20
2192.5955
 30
2.39994
 40
23.9994
  1
起動電流
 50
0.0
 41
0.9
 51
0.0
  7
KANJI53
  0
TEXT
  8
0
  6
CONTINUOUS
 62
     2
 10
1500.5026
 20
2164.5962
 30
2.39994
 40
23.9994
  1
　　　Ａ
 50
0.0
 41
0.9
 51
0.0
  7
KANJI53
  0
TEXT
  8
0
  6
CONTINUOUS
 62
     2
 10
1380.5056
 20
2192.5955
 30
2.39994
 40
23.9994
  1
定格電流
 50
0.0
 41
0.9
 51
0.0
  7
KANJI53
  0
TEXT
  8
0
  6
CONTINUOUS
 62
     2
 10
1380.5056
 20
2164.5962
 30
2.39994
 40
23.9994
  1
　　　Ａ
 50
0.0
 41
0.9
 51
0.0
  7
KANJI53
  0
TEXT
  8
0
  6
CONTINUOUS
 62
     2
 10
1218.10966
 20
2072.5985
 30
2.39994
 40
23.9994
  1
２００／６０
 50
0.0
 41
0.9
 51
0.0
  7
KANJI53
  0
TEXT
  8
0
  6
CONTINUOUS
 62
     2
 10
1218.10966
 20
2192.5955
 30
2.39994
 40
23.9994
  1
電圧／周波数
 50
0.0
 41
0.9
 51
0.0
  7
KANJI53
  0
TEXT
  8
0
  6
CONTINUOUS
 62
     2
 10
1218.10966
 20
2164.5962
 30
2.39994
 40
23.9994
  1
　Ｖ／Ｈｚ
 50
0.0
 41
0.9
 51
0.0
  7
KANJI53
  0
TEXT
  8
0
  6
CONTINUOUS
 62
     2
 10
1218.10966
 20
2120.5973
 30
2.39994
 40
23.9994
  1
２００／５０
 50
0.0
 41
0.9
 51
0.0
  7
KANJI53
  0
TEXT
  8
0
  6
CONTINUOUS
 62
     2
 10
1218.10966
 20
2024.5997
 30
2.39994
 40
23.9994
  1
２２０／６０
 50
0.0
 41
0.9
 51
0.0
  7
KANJI53
  0
TEXT
  8
0
  6
CONTINUOUS
 62
     2
 10
1307.097220468
 20
1966.934483
 30
2.79993
 40
27.9993
  1
注意：サーマルリレー等の選定は、上記の値を参照下さい。
 50
0.0
 41
0.9
 51
0.0
  7
KANJI54
  0
LINE
  8
0
  6
CONTINUOUS
 62
     2
 10
1291.097620468
 20
1958.934683
 11
2043.078820468
 21
1958.934683
  0
TEXT
  8
0
  6
CONTINUOUS
 62
     2
 10
1380.5056
 20
2120.5973
 30
2.39994
 40
23.9994
  1
　　９．４
 50
0.0
 41
0.9
 51
0.0
  7
KANJI53
  0
TEXT
  8
0
  6
CONTINUOUS
 62
     2
 10
1380.5056
 20
2072.5985
 30
2.39994
 40
23.9994
  1
　　８．８
 50
0.0
 41
0.9
 51
0.0
  7
KANJI53
  0
TEXT
  8
0
  6
CONTINUOUS
 62
     2
 10
1380.5056
 20
2024.5997
 30
2.39994
 40
23.9994
  1
　　８．３
 50
0.0
 41
0.9
 51
0.0
  7
KANJI53
  0
TEXT
  8
0
  6
CONTINUOUS
 62
     2
 10
1500.5026
 20
2120.5973
 30
2.39994
 40
23.9994
  1
６０．４
 50
0.0
 41
0.9
 51
0.0
  7
KANJI53
  0
TEXT
  8
0
  6
CONTINUOUS
 62
     2
 10
1499.635999532
 20
2068.931917
 30
2.39994
 40
23.9994
  1
５２．４
 50
0.0
 41
0.9
 51
0.0
  7
KANJI53
  0
TEXT
  8
0
  6
CONTINUOUS
 62
     2
 10
1501.635949532
 20
2023.599717
 30
2.39994
 40
23.9994
  1
５７．６
 50
0.0
 41
0.9
 51
0.0
  7
KANJI53
  0
TEXT
  8
0
  6
CONTINUOUS
 62
     2
 10
1860.4956
 20
2120.5973
 30
2.39994
 40
23.9994
  1
　　４．７
 50
0.0
 41
0.9
 51
0.0
  7
KANJI53
  0
TEXT
  8
0
  6
CONTINUOUS
 62
     2
 10
1860.4956
 20
2072.5985
 30
2.39994
 40
23.9994
  1
　　４．４
 50
0.0
 41
0.9
 51
0.0
  7
KANJI53
  0
TEXT
  8
0
  6
CONTINUOUS
 62
     2
 10
1860.4956
 20
2024.5997
 30
2.39994
 40
23.9994
  1
　　４．２
 50
0.0
 41
0.9
 51
0.0
  7
KANJI53
  0
TEXT
  8
0
  6
CONTINUOUS
 62
     2
 10
1980.4926
 20
2120.5973
 30
2.39994
 40
23.9994
  1
３０．２
 50
0.0
 41
0.9
 51
0.0
  7
KANJI53
  0
TEXT
  8
0
  6
CONTINUOUS
 62
     2
 10
1980.4926
 20
2072.5985
 30
2.39994
 40
23.9994
  1
２６．２
 50
0.0
 41
0.9
 51
0.0
  7
KANJI53
  0
TEXT
  8
0
  6
CONTINUOUS
 62
     2
 10
1980.4926
 20
2024.5997
 30
2.39994
 40
23.9994
  1
２８．８
 50
0.0
 41
0.9
 51
0.0
  7
KANJI53
  0
CIRCLE
  8
0
  6
CONTINUOUS
 62
     1
 10
2632.5
 20
320.9
 40
23.0
  0
TEXT
  8
0
  6
CONTINUOUS
 62
     2
 10
2621.8
 20
307.4
 30
0.0
 40
28.0
  1
Ｓ
 50
0.0
 41
0.793650794
 51
0.0
  7
KANJI55
  0
TEXT
  8
0
  6
CONTINUOUS
 62
     2
 10
2251.0
 20
253.0
 30
2.4
 40
24.0
  1
佐竹
 50
0.0
 41
0.9
 51
0.0
  7
KANJI2
  0
TEXT
  8
0
  6
CONTINUOUS
 62
     2
 10
1105.7
 20
645.0
 30
2.4
 40
24.0
  1
１１０５
 50
0.0
 41
0.9
 51
0.0
  7
KANJI2
  0
TEXT
  8
0
  6
CONTINUOUS
 62
     2
 10
1758.0
 20
648.0
 30
2.4
 40
24.0
  1
２０１
 50
0.0
 41
0.9
 51
0.0
  7
KANJI2
  0
TEXT
  8
0
  6
CONTINUOUS
 62
     2
 10
2239.0
 20
193.0
 30
2.4
 40
24.0
  1
００．３．２２
 50
0.0
 41
0.9
 51
0.0
  7
KANJI2
  0
LINE
  8
0
  6
LTYPE3
 62
     2
 10
624.0
 20
1348.0
 11
469.0
 21
1348.0
  0
CIRCLE
  8
0
  6
CONTINUOUS
 62
     1
 10
694.0
 20
1348.041
 40
22.5
  0
CIRCLE
  8
0
  6
CONTINUOUS
 62
     1
 10
694.0
 20
1348.041
 40
45.0
  0
CIRCLE
  8
0
  6
CONTINUOUS
 62
     1
 10
694.0
 20
1348.041
 40
55.0
  0
LINE
  8
0
  6
CONTINUOUS
 62
     1
 10
659.0
 20
1448.041
 11
682.0
 21
1429.541
  0
LINE
  8
0
  6
CONTINUOUS
 62
     1
 10
659.0
 20
1394.541
 11
659.0
 21
1448.041
  0
LINE
  8
0
  6
CONTINUOUS
 62
     1
 10
682.0
 20
1404.541
 11
682.0
 21
1429.541
  0
LINE
  8
0
  6
CONTINUOUS
 62
     1
 10
624.0
 20
1248.041
 11
659.0
 21
1248.041
  0
LINE
  8
0
  6
CONTINUOUS
 62
     1
 10
659.0
 20
1248.041
 11
682.0
 21
1266.541
  0
LINE
  8
0
  6
CONTINUOUS
 62
     1
 10
659.0
 20
1301.541
 11
659.0
 21
1248.041
  0
LINE
  8
0
  6
CONTINUOUS
 62
     1
 10
682.0
 20
1291.541
 11
682.0
 21
1266.541
  0
LINE
  8
0
  6
CONTINUOUS
 62
     1
 10
884.0
 20
1248.041
 11
854.0
 21
1266.541
  0
LINE
  8
0
  6
CONTINUOUS
 62
     1
 10
682.0
 20
1266.541
 11
854.0
 21
1266.541
  0
LINE
  8
0
  6
CONTINUOUS
 62
     1
 10
884.0
 20
1248.041
 11
924.0
 21
1248.041
  0
LINE
  8
0
  6
CONTINUOUS
 62
     1
 10
854.0
 20
1348.041
 11
854.0
 21
1266.541
  0
LINE
  8
0
  6
LTYPE3
 62
     2
 10
694.0
 20
1278.439877817
 11
694.0
 21
1415.407558854
  0
LINE
  8
0
  6
CONTINUOUS
 62
     1
 10
961.0
 20
1348.041
 11
961.0
 21
1448.041
  0
LINE
  8
0
  6
CONTINUOUS
 62
     1
 10
938.0
 20
1348.041
 11
938.0
 21
1448.041
  0
LINE
  8
0
  6
CONTINUOUS
 62
     1
 10
964.0
 20
1435.541
 11
964.0
 21
1446.49054
  0
LINE
  8
0
  6
CONTINUOUS
 62
     1
 10
964.0
 20
1435.541
 11
964.0
 21
1424.59146
  0
LINE
  8
0
  6
CONTINUOUS
 62
     1
 10
961.0
 20
1446.291
 11
964.0
 21
1446.291
  0
LINE
  8
0
  6
CONTINUOUS
 62
     1
 10
961.0
 20
1435.541
 11
964.000254073
 21
1438.541254073
  0
LINE
  8
0
  6
CONTINUOUS
 62
     1
 10
964.000254073
 20
1435.541
 11
961.0
 21
1432.540745927
  0
LINE
  8
0
  6
CONTINUOUS
 62
     1
 10
961.0
 20
1424.791
 11
964.0
 21
1424.791
  0
LINE
  8
0
  6
CONTINUOUS
 62
     1
 10
964.0
 20
1446.291
 11
975.3
 21
1446.291
  0
LINE
  8
0
  6
CONTINUOUS
 62
     1
 10
975.3
 20
1435.541
 11
975.3
 21
1446.291
  0
LINE
  8
0
  6
CONTINUOUS
 62
     1
 10
975.3
 20
1446.291
 11
976.0
 21
1445.078564435
  0
LINE
  8
0
  6
CONTINUOUS
 62
     1
 10
976.0
 20
1435.541
 11
976.0
 21
1445.078564435
  0
LINE
  8
0
  6
CONTINUOUS
 62
     1
 10
964.0
 20
1424.791
 11
975.3
 21
1424.791
  0
LINE
  8
0
  6
CONTINUOUS
 62
     1
 10
975.3
 20
1435.541
 11
975.3
 21
1424.791
  0
LINE
  8
0
  6
CONTINUOUS
 62
     1
 10
975.3
 20
1424.791
 11
976.0
 21
1426.003435565
  0
LINE
  8
0
  6
CONTINUOUS
 62
     1
 10
976.0
 20
1435.541
 11
976.0
 21
1426.003435565
  0
LINE
  8
0
  6
LTYPE3
 62
     2
 10
924.0
 20
1435.541
 11
987.7
 21
1435.541
  0
LINE
  8
0
  6
CONTINUOUS
 62
     1
 10
961.0
 20
1348.041
 11
961.0
 21
1248.041
  0
LINE
  8
0
  6
CONTINUOUS
 62
     1
 10
938.0
 20
1348.041
 11
938.0
 21
1248.041
  0
LINE
  8
0
  6
CONTINUOUS
 62
     1
 10
924.0
 20
1248.041
 11
961.0
 21
1248.041
  0
LINE
  8
0
  6
CONTINUOUS
 62
     1
 10
924.0
 20
1348.041
 11
924.0
 21
1248.041
  0
LINE
  8
0
  6
CONTINUOUS
 62
     1
 10
964.0
 20
1260.541
 11
964.0
 21
1249.59146
  0
LINE
  8
0
  6
CONTINUOUS
 62
     1
 10
964.0
 20
1260.541
 11
964.0
 21
1271.49054
  0
LINE
  8
0
  6
CONTINUOUS
 62
     1
 10
961.0
 20
1249.791
 11
964.0
 21
1249.791
  0
LINE
  8
0
  6
CONTINUOUS
 62
     1
 10
961.0
 20
1260.541
 11
964.000254073
 21
1257.540745927
  0
LINE
  8
0
  6
CONTINUOUS
 62
     1
 10
964.000254073
 20
1260.541
 11
961.0
 21
1263.541254073
  0
LINE
  8
0
  6
CONTINUOUS
 62
     1
 10
961.0
 20
1271.291
 11
964.0
 21
1271.291
  0
LINE
  8
0
  6
CONTINUOUS
 62
     1
 10
964.0
 20
1249.791
 11
975.3
 21
1249.791
  0
LINE
  8
0
  6
CONTINUOUS
 62
     1
 10
975.3
 20
1260.541
 11
975.3
 21
1249.791
  0
LINE
  8
0
  6
CONTINUOUS
 62
     1
 10
975.3
 20
1249.791
 11
976.0
 21
1251.003435565
  0
LINE
  8
0
  6
CONTINUOUS
 62
     1
 10
976.0
 20
1260.541
 11
976.0
 21
1251.003435565
  0
LINE
  8
0
  6
CONTINUOUS
 62
     1
 10
964.0
 20
1271.291
 11
975.3
 21
1271.291
  0
LINE
  8
0
  6
CONTINUOUS
 62
     1
 10
975.3
 20
1260.541
 11
975.3
 21
1271.291
  0
LINE
  8
0
  6
CONTINUOUS
 62
     1
 10
975.3
 20
1271.291
 11
976.0
 21
1270.078564435
  0
LINE
  8
0
  6
CONTINUOUS
 62
     1
 10
976.0
 20
1260.541
 11
976.0
 21
1270.078564435
  0
LINE
  8
0
  6
LTYPE3
 62
     2
 10
924.0
 20
1260.541
 11
987.7
 21
1260.541
  0
CIRCLE
  8
0
  6
CONTINUOUS
 62
     1
 10
1162.3
 20
1348.041
 40
19.5
  0
LINE
  8
0
  6
CONTINUOUS
 62
     1
 10
1142.3
 20
1368.041
 11
1182.3
 21
1368.041
  0
LINE
  8
0
  6
CONTINUOUS
 62
     1
 10
1182.3
 20
1328.041
 11
1182.3
 21
1368.041
  0
LINE
  8
0
  6
CONTINUOUS
 62
     1
 10
1142.3
 20
1328.041
 11
1182.3
 21
1328.041
  0
LINE
  8
0
  6
CONTINUOUS
 62
     1
 10
1142.3
 20
1328.041
 11
1142.3
 21
1368.041
  0
LINE
  8
0
  6
LTYPE2
 62
     2
 10
1162.3
 20
1322.941
 11
1162.3
 21
1372.841
  0
LINE
  8
6
  6
CONTINUOUS
 62
     2
 10
694.0
 20
1266.439877817
 11
694.0
 21
1074.041
  0
LINE
  8
6
  6
CONTINUOUS
 62
     2
 10
1109.0
 20
1278.041
 11
1114.176380902
 21
1297.359516526
  0
LINE
  8
6
  6
CONTINUOUS
 62
     2
 10
1109.0
 20
1278.041
 11
1103.823619098
 21
1297.359516526
  0
LINE
  8
6
  6
CONTINUOUS
 62
     2
 10
1109.0
 20
1278.041
 11
1109.0
 21
1418.041
  0
LINE
  8
6
  6
CONTINUOUS
 62
     2
 10
1109.0
 20
1418.041
 11
1103.823619098
 21
1398.722483474
  0
LINE
  8
6
  6
CONTINUOUS
 62
     2
 10
1109.0
 20
1418.041
 11
1114.176380902
 21
1398.722483474
  0
TEXT
  8
6
  6
CONTINUOUS
 62
     2
 10
1101.0
 20
1301.241
 30
2.4
 40
24.0
  1
φ１４０
 50
90.0
 41
0.9
 51
0.0
  7
KANJI56
  0
LINE
  8
0
  6
CONTINUOUS
 62
     1
 10
1652.000190206
 20
1395.541
 11
1662.000190206
 21
1385.541
  0
LINE
  8
0
  6
CONTINUOUS
 62
     1
 10
1662.000190206
 20
1310.541
 11
1662.000190206
 21
1385.541
  0
LINE
  8
0
  6
CONTINUOUS
 62
     1
 10
1652.000190206
 20
1300.541
 11
1662.000190206
 21
1310.541
  0
CIRCLE
  8
0
  6
CONTINUOUS
 62
     1
 10
1612.000190206
 20
1348.041
 40
22.5
  0
LINE
  8
0
  6
CONTINUOUS
 62
     1
 10
1652.000190206
 20
1395.541
 11
1652.000190206
 21
1388.429736054
  0
LINE
  8
0
  6
CONTINUOUS
 62
     1
 10
1652.000190206
 20
1388.429736054
 11
1662.000190206
 21
1375.788752752
  0
LINE
  8
0
  6
CONTINUOUS
 62
     1
 10
1652.000190206
 20
1388.429736054
 11
1522.0
 21
1388.429736054
  0
LINE
  8
0
  6
CONTINUOUS
 62
     1
 10
1652.000190206
 20
1300.541
 11
1652.000190206
 21
1307.652263946
  0
LINE
  8
0
  6
CONTINUOUS
 62
     1
 10
1652.000190206
 20
1307.652263946
 11
1662.000190206
 21
1320.293247248
  0
LINE
  8
0
  6
CONTINUOUS
 62
     1
 10
1652.000190206
 20
1307.652263946
 11
1522.0
 21
1307.652263946
  0
LINE
  8
0
  6
CONTINUOUS
 62
     1
 10
1522.0
 20
1388.429736054
 11
1522.0
 21
1307.652263946
  0
POINT
  8
0
  6
CONTINUOUS
 62
     1
 10
750.0
 20
1348.041
  0
LINE
  8
0
  6
CONTINUOUS
 62
     1
 10
807.0
 20
1477.985375069
 11
797.0
 21
1467.985375069
  0
LINE
  8
0
  6
CONTINUOUS
 62
     1
 10
797.0
 20
1409.346778818
 11
797.0
 21
1467.985375069
  0
LINE
  8
0
  6
CONTINUOUS
 62
     1
 10
807.0
 20
1399.346778818
 11
797.0
 21
1409.346778818
  0
ARC
  8
0
  6
CONTINUOUS
 62
     1
 10
795.0
 20
1478.507558854
 40
3.0
 50
90.0
 51
180.0
  0
ARC
  8
0
  6
CONTINUOUS
 62
     1
 10
795.0
 20
1397.67744216
 40
3.0
 50
180.0
 51
270.0
  0
ARC
  8
0
  6
CONTINUOUS
 62
     1
 10
795.0
 20
1394.235983542
 40
3.0
 50
180.0
 51
270.0
  0
ARC
  8
0
  6
CONTINUOUS
 62
     1
 10
795.0
 20
1393.375618887
 40
3.0
 50
180.0
 51
270.0
  0
LINE
  8
0
  6
CONTINUOUS
 62
     1
 10
915.0
 20
1409.346778818
 11
915.0
 21
1467.985375069
  0
LINE
  8
0
  6
CONTINUOUS
 62
     1
 10
920.0
 20
1366.698620342
 11
920.0
 21
1478.507558854
  0
ARC
  8
0
  6
CONTINUOUS
 62
     1
 10
917.0
 20
1478.507558854
 40
3.0
 50
0.0
 51
90.0
  0
LINE
  8
0
  6
CONTINUOUS
 62
     1
 10
915.0
 20
1467.985375069
 11
905.0
 21
1477.985375069
  0
LINE
  8
0
  6
CONTINUOUS
 62
     1
 10
807.0
 20
1477.985375069
 11
905.0
 21
1477.985375069
  0
LINE
  8
0
  6
CONTINUOUS
 62
     1
 10
915.0
 20
1409.346778818
 11
905.0
 21
1399.346778818
  0
LINE
  8
0
  6
CONTINUOUS
 62
     1
 10
807.0
 20
1399.346778818
 11
905.0
 21
1399.346778818
  0
LINE
  8
0
  6
CONTINUOUS
 62
     1
 10
795.0
 20
1481.507558854
 11
917.0
 21
1481.507558854
  0
ARC
  8
0
  6
CONTINUOUS
 62
     1
 10
917.0
 20
1397.67744216
 40
3.0
 50
270.0
 51
0.0
  0
ARC
  8
0
  6
CONTINUOUS
 62
     1
 10
917.0
 20
1394.235983542
 40
3.0
 50
270.0
 51
0.0
  0
ARC
  8
0
  6
CONTINUOUS
 62
     1
 10
917.0
 20
1393.375618887
 40
3.0
 50
270.0
 51
0.0
  0
LINE
  8
0
  6
CONTINUOUS
 62
     1
 10
794.507319827
 20
1394.67744216
 11
917.0
 21
1394.67744216
  0
LINE
  8
0
  6
CONTINUOUS
 62
     1
 10
794.607319827
 20
1391.235983542
 11
917.0
 21
1391.235983542
  0
LINE
  8
0
  6
CONTINUOUS
 62
     1
 10
794.607319827
 20
1390.375618887
 11
917.0
 21
1390.375618887
  0
LINE
  8
0
  6
CONTINUOUS
 62
     1
 10
925.0
 20
1393.307636349
 11
925.0
 21
1450.17371812
  0
LINE
  8
0
  6
CONTINUOUS
 62
     1
 10
920.0
 20
1393.307636349
 11
925.0
 21
1393.307636349
  0
LINE
  8
0
  6
CONTINUOUS
 62
     1
 10
920.0
 20
1450.17371812
 11
925.0
 21
1450.17371812
  0
LINE
  8
0
  6
CONTINUOUS
 62
     1
 10
920.0
 20
1417.407636349
 11
925.0
 21
1417.407636349
  0
LINE
  8
0
  6
CONTINUOUS
 62
     1
 10
882.0
 20
1366.698620342
 11
920.0
 21
1366.698620342
  0
LINE
  8
0
  6
CONTINUOUS
 62
     1
 10
925.0
 20
1437.889877817
 11
925.0
 21
1410.189877817
  0
LINE
  8
0
  6
LTYPE3
 62
     2
 10
898.737645868
 20
1424.039877817
 11
978.0
 21
1424.039877817
  0
LINE
  8
0
  6
CONTINUOUS
 62
     1
 10
792.0
 20
1348.041
 11
792.0
 21
1478.041
  0
LINE
  8
0
  6
CONTINUOUS
 62
     1
 10
682.0
 20
1429.541
 11
792.0
 21
1429.541
  0
LINE
  8
0
  6
CONTINUOUS
 62
     1
 10
792.0
 20
1365.998620342
 11
882.0
 21
1365.998620342
  0
LINE
  8
0
  6
CONTINUOUS
 62
     1
 10
884.0
 20
1366.698620342
 11
884.0
 21
1248.041
  0
LINE
  8
0
  6
CONTINUOUS
 62
     1
 10
924.0
 20
1393.307636349
 11
924.0
 21
1248.041
  0
LINE
  8
0
  6
CONTINUOUS
 62
     1
 10
925.0
 20
1448.041
 11
961.0
 21
1448.041
  0
LINE
  8
0
  6
CONTINUOUS
 62
     1
 10
1511.999190206
 20
1339.541
 11
1511.999190206
 21
1348.041
  0
LINE
  8
0
  6
CONTINUOUS
 62
     1
 10
961.0
 20
1418.041
 11
1291.149691586
 21
1418.041
  0
LINE
  8
0
  6
CONTINUOUS
 62
     1
 10
961.0
 20
1278.041
 11
1292.149691586
 21
1278.041
  0
LINE
  8
0
  6
CONTINUOUS
 62
     1
 10
624.0
 20
1448.041
 11
659.0
 21
1448.041
  0
LINE
  8
1
  6
CONTINUOUS
 62
     2
 10
848.0
 20
1407.507558854
 11
836.528561983
 21
1391.124454453
  0
LINE
  8
1
  6
CONTINUOUS
 62
     2
 10
848.0
 20
1407.507558854
 11
846.25699546
 21
1387.583655242
  0
TEXT
  8
0
  6
CONTINUOUS
 62
     2
 10
773.0
 20
1128.241
 30
0.0
 40
24.0
  1
推力リミッタ
 50
0.0
 41
0.9
 51
0.0
  7
KANJI3
  0
LINE
  8
6
  6
CONTINUOUS
 62
     2
 10
745.01036957
 20
1124.541
 11
910.5
 21
1124.541
  0
LINE
  8
1
  6
CONTINUOUS
 62
     2
 10
848.0
 20
1407.507558854
 11
745.01036957
 21
1124.541
  0
LINE
  8
0
  6
LTYPE4
 62
     2
 10
946.274192965
 20
1236.606
 11
946.274192965
 21
1237.541
  0
LINE
  8
6
  6
CONTINUOUS
 62
     2
 10
1512.000190206
 20
1298.841
 11
1512.000190206
 21
1289.776
  0
LINE
  8
6
  6
CONTINUOUS
 62
     2
 10
1445.07
 20
1440.5
 11
1444.57
 21
1440.5
  0
LINE
  8
0
  6
LTYPE3
 62
     2
 10
1681.07
 20
1348.0
 11
461.07
 21
1348.0
  0
LINE
  8
0
  6
CONTINUOUS
 62
     1
 10
1387.615119794
 20
1418.0
 11
1387.615119794
 21
1278.0
  0
LINE
  8
0
  6
CONTINUOUS
 62
     1
 10
1511.999190206
 20
1300.541
 11
1511.999190206
 21
1348.041
  0
LINE
  8
0
  6
CONTINUOUS
 62
     1
 10
1384.219691586
 20
1278.0
 11
1462.0
 21
1278.0
  0
LINE
  8
0
  6
CONTINUOUS
 62
     1
 10
1287.85
 20
1278.0
 11
1384.219691586
 21
1278.0
  0
LINE
  8
0
  6
LTYPE3
 62
     2
 10
1612.000190206
 20
1182.041
 11
1612.000190206
 21
1418.909
  0
LINE
  8
1
  6
CONTINUOUS
 62
     2
 10
694.0
 20
1258.541
 11
694.0
 21
1067.541
  0
LINE
  8
1
  6
CONTINUOUS
 62
     2
 10
694.0
 20
1258.541
 11
694.0
 21
1068.3
  0
LINE
  8
1
  6
CONTINUOUS
 62
     2
 10
694.0
 20
1258.541
 11
694.0
 21
1022.0
  0
LINE
  8
1
  6
CONTINUOUS
 62
     2
 10
694.0
 20
1038.0
 11
713.318516526
 21
1032.823619098
  0
LINE
  8
1
  6
CONTINUOUS
 62
     2
 10
694.0
 20
1038.0
 11
713.318516526
 21
1043.176380902
  0
LINE
  8
1
  6
CONTINUOUS
 62
     2
 10
694.0
 20
1038.0
 11
1462.0
 21
1038.0
  0
LINE
  8
1
  6
CONTINUOUS
 62
     2
 10
1462.0
 20
1038.0
 11
1442.681483474
 21
1043.176380902
  0
LINE
  8
1
  6
CONTINUOUS
 62
     2
 10
1462.0
 20
1038.0
 11
1442.681483474
 21
1032.823619098
  0
LINE
  8
1
  6
CONTINUOUS
 62
     2
 10
1462.0
 20
1295.5
 11
1462.0
 21
1022.0
  0
TEXT
  8
1
  6
CONTINUOUS
 62
     3
 10
1065.2
 20
1046.0
 30
2.4
 40
28.0
  1
Ｃ
 50
0.0
 41
0.914285714
 51
0.0
  7
KANJI52
  0
LINE
  8
1
  6
CONTINUOUS
 62
     2
 10
1462.0
 20
1038.0
 11
1481.318516526
 21
1032.823619098
  0
LINE
  8
1
  6
CONTINUOUS
 62
     2
 10
1462.0
 20
1038.0
 11
1481.318516526
 21
1043.176380902
  0
LINE
  8
1
  6
CONTINUOUS
 62
     2
 10
1462.0
 20
1038.0
 11
1512.0
 21
1038.0
  0
LINE
  8
1
  6
CONTINUOUS
 62
     2
 10
1512.0
 20
1038.0
 11
1492.681483474
 21
1043.176380902
  0
LINE
  8
1
  6
CONTINUOUS
 62
     2
 10
1512.0
 20
1038.0
 11
1492.681483474
 21
1032.823619098
  0
LINE
  8
1
  6
CONTINUOUS
 62
     2
 10
1512.0
 20
1294.482623085
 11
1512.0
 21
1022.0
  0
LINE
  8
1
  6
CONTINUOUS
 62
     2
 10
1512.0
 20
1038.0
 11
1531.318516526
 21
1032.823619098
  0
LINE
  8
1
  6
CONTINUOUS
 62
     2
 10
1512.0
 20
1038.0
 11
1531.318516526
 21
1043.176380902
  0
LINE
  8
1
  6
CONTINUOUS
 62
     2
 10
1512.0
 20
1038.0
 11
1612.000190206
 21
1038.0
  0
LINE
  8
1
  6
CONTINUOUS
 62
     2
 10
1612.000190206
 20
1038.0
 11
1592.68167368
 21
1043.176380902
  0
LINE
  8
1
  6
CONTINUOUS
 62
     2
 10
1612.000190206
 20
1038.0
 11
1592.68167368
 21
1032.823619098
  0
LINE
  8
1
  6
CONTINUOUS
 62
     2
 10
1612.000190206
 20
1292.541
 11
1612.000190206
 21
1022.0
  0
TEXT
  8
1
  6
CONTINUOUS
 62
     3
 10
1521.200095103
 20
1046.0
 30
2.4
 40
28.0
  1
１００
 50
0.0
 41
0.914285714
 51
0.0
  7
KANJI52
  0
TEXT
  8
0
  6
CONTINUOUS
 62
     2
 10
1442.000190206
 20
995.541
 30
2.4
 40
24.0
  1
ｍｉｎ、Ｐ
 50
0.0
 41
0.9
 51
0.0
  7
KANJI2
  0
LINE
  8
1
  6
CONTINUOUS
 62
     2
 10
694.0
 20
971.0
 11
713.318516526
 21
965.823619098
  0
LINE
  8
1
  6
CONTINUOUS
 62
     2
 10
694.0
 20
971.0
 11
713.318516526
 21
976.176380902
  0
LINE
  8
1
  6
CONTINUOUS
 62
     2
 10
694.0
 20
971.0
 11
1612.000190206
 21
971.0
  0
LINE
  8
1
  6
CONTINUOUS
 62
     2
 10
1612.000190206
 20
971.0
 11
1592.68167368
 21
976.176380902
  0
LINE
  8
1
  6
CONTINUOUS
 62
     2
 10
1612.000190206
 20
971.0
 11
1592.68167368
 21
965.823619098
  0
LINE
  8
1
  6
CONTINUOUS
 62
     2
 10
1612.000190206
 20
1030.0
 11
1612.000190206
 21
955.0
  0
TEXT
  8
1
  6
CONTINUOUS
 62
     3
 10
1084.200095103
 20
979.0
 30
2.4
 40
28.0
  1
ｍｉｎ，Ｌ
 50
0.0
 41
0.914285714
 51
0.0
  7
KANJI52
  0
LINE
  8
1
  6
CONTINUOUS
 62
     2
 10
469.0
 20
963.0
 11
469.0
 21
896.0
  0
LINE
  8
1
  6
CONTINUOUS
 62
     2
 10
469.0
 20
912.0
 11
488.318516526
 21
906.823619098
  0
LINE
  8
1
  6
CONTINUOUS
 62
     2
 10
469.0
 20
912.0
 11
488.318516526
 21
917.176380902
  0
LINE
  8
1
  6
CONTINUOUS
 62
     2
 10
469.0
 20
912.0
 11
1612.000190206
 21
912.0
  0
LINE
  8
1
  6
CONTINUOUS
 62
     2
 10
1612.000190206
 20
912.0
 11
1592.68167368
 21
917.176380902
  0
LINE
  8
1
  6
CONTINUOUS
 62
     2
 10
1612.000190206
 20
912.0
 11
1592.68167368
 21
906.823619098
  0
LINE
  8
1
  6
CONTINUOUS
 62
     2
 10
1612.000190206
 20
963.0
 11
1612.000190206
 21
896.0
  0
TEXT
  8
1
  6
CONTINUOUS
 62
     3
 10
957.700095103
 20
920.0
 30
2.4
 40
28.0
  1
ｍｉｎ，ＡＬ
 50
0.0
 41
0.914285714
 51
0.0
  7
KANJI52
  0
LINE
  8
1
  6
CONTINUOUS
 62
     2
 10
1612.000190206
 20
912.0
 11
1631.318706732
 21
906.823619098
  0
LINE
  8
1
  6
CONTINUOUS
 62
     2
 10
1612.000190206
 20
912.0
 11
1631.318706732
 21
917.176380902
  0
LINE
  8
1
  6
CONTINUOUS
 62
     2
 10
1612.000190206
 20
912.0
 11
1662.000190206
 21
912.0
  0
LINE
  8
1
  6
CONTINUOUS
 62
     2
 10
1662.000190206
 20
912.0
 11
1642.68167368
 21
917.176380902
  0
LINE
  8
1
  6
CONTINUOUS
 62
     2
 10
1662.000190206
 20
912.0
 11
1642.68167368
 21
906.823619098
  0
LINE
  8
1
  6
CONTINUOUS
 62
     2
 10
1662.000190206
 20
1302.541
 11
1662.000190206
 21
896.0
  0
TEXT
  8
1
  6
CONTINUOUS
 62
     3
 10
1610.200190206
 20
920.0
 30
2.4
 40
28.0
  1
５０
 50
0.0
 41
0.914285714
 51
0.0
  7
KANJI52
  0
LINE
  8
1
  6
CONTINUOUS
 62
     2
 10
1162.000190206
 20
1373.541
 11
1174.616691209
 21
1389.05950194
  0
LINE
  8
1
  6
CONTINUOUS
 62
     2
 10
1162.000190206
 20
1373.541
 11
1165.167149612
 21
1393.28866741
  0
LINE
  8
1
  6
CONTINUOUS
 62
     2
 10
1162.000190206
 20
1373.541
 11
1226.000190206
 21
1516.541
  0
LINE
  8
1
  6
CONTINUOUS
 62
     2
 10
1226.000190206
 20
1516.541
 11
1295.600190206
 21
1516.541
  0
TEXT
  8
1
  6
CONTINUOUS
 62
     3
 10
1226.000190206
 20
1524.541
 30
2.4
 40
24.0
  1
給脂口
 50
0.0
 41
0.9
 51
0.0
  7
KANJI2
  0
LINE
  8
0
  6
CONTINUOUS
 62
     1
 10
624.0
 20
1213.0
 11
624.0
 21
1502.0
  0
LINE
  8
0
  6
CONTINUOUS
 62
     1
 10
624.0
 20
1442.0
 11
624.0
 21
1713.0
  0
LINE
  8
0
  6
CONTINUOUS
 62
     1
 10
624.0
 20
1713.0
 11
574.0
 21
1713.0
  0
LINE
  8
0
  6
CONTINUOUS
 62
     1
 10
486.0
 20
1213.0
 11
486.0
 21
1502.0
  0
LINE
  8
0
  6
CONTINUOUS
 62
     1
 10
486.0
 20
1442.0
 11
486.0
 21
1638.0
  0
LINE
  8
0
  6
CONTINUOUS
 62
     1
 10
469.0
 20
1213.0
 11
469.0
 21
1502.0
  0
LINE
  8
0
  6
CONTINUOUS
 62
     1
 10
469.0
 20
1442.0
 11
469.0
 21
1638.0
  0
LINE
  8
0
  6
CONTINUOUS
 62
     1
 10
591.0
 20
1578.0
 11
520.0
 21
1578.0
  0
LINE
  8
0
  6
CONTINUOUS
 62
     1
 10
591.0
 20
1578.0
 11
591.0
 21
1458.0
  0
LINE
  8
0
  6
CONTINUOUS
 62
     1
 10
591.0
 20
1458.0
 11
520.0
 21
1458.0
  0
LINE
  8
0
  6
CONTINUOUS
 62
     1
 10
520.0
 20
1458.0
 11
520.0
 21
1578.0
  0
LINE
  8
0
  6
LTYPE3
 62
     2
 10
596.0
 20
1468.0
 11
572.2
 21
1468.0
  0
LINE
  8
0
  6
LTYPE3
 62
     2
 10
542.2
 20
1568.0
 11
515.2
 21
1568.0
  0
LINE
  8
0
  6
LTYPE3
 62
     2
 10
596.2
 20
1568.0
 11
568.2
 21
1568.0
  0
LINE
  8
0
  6
LTYPE3
 62
     2
 10
581.0
 20
1479.8
 11
581.0
 21
1458.0
  0
LINE
  8
0
  6
LTYPE3
 62
     2
 10
581.0
 20
1578.0
 11
581.0
 21
1555.8
  0
LINE
  8
0
  6
LTYPE3
 62
     2
 10
530.0
 20
1556.8
 11
530.0
 21
1578.0
  0
LINE
  8
0
  6
LTYPE3
 62
     2
 10
530.0
 20
1458.0
 11
530.0
 21
1478.8
  0
LINE
  8
0
  6
LTYPE3
 62
     2
 10
542.2
 20
1468.0
 11
517.2
 21
1468.0
  0
CIRCLE
  8
0
  6
CONTINUOUS
 62
     1
 10
594.0
 20
1743.0
 40
17.5
  0
LINE
  8
0
  6
CONTINUOUS
 62
     1
 10
594.0
 20
1713.0
 11
609.0
 21
1713.0
  0
LINE
  8
0
  6
CONTINUOUS
 62
     1
 10
594.0
 20
1724.0
 11
607.751706485
 21
1724.0
  0
LINE
  8
0
  6
CONTINUOUS
 62
     1
 10
607.751706485
 20
1724.0
 11
594.0
 21
1725.5
  0
LINE
  8
0
  6
CONTINUOUS
 62
     1
 10
608.689625645
 20
1715.735028154
 11
607.751706485
 21
1724.0
  0
LINE
  8
0
  6
CONTINUOUS
 62
     1
 10
609.0
 20
1713.0
 11
608.689625645
 21
1715.735028154
  0
ARC
  8
0
  6
CONTINUOUS
 62
     1
 10
610.297773229
 20
1715.927087564
 40
1.6
 50
120.593314844
 51
186.768821444
  0
ARC
  8
0
  6
CONTINUOUS
 62
     1
 10
594.0
 20
1743.0
 40
30.0
 50
301.047754584
 51
0.0
  0
LINE
  8
0
  6
CONTINUOUS
 62
     1
 10
594.0
 20
1713.0
 11
579.0
 21
1713.0
  0
LINE
  8
0
  6
CONTINUOUS
 62
     1
 10
594.0
 20
1724.0
 11
580.248293515
 21
1724.0
  0
LINE
  8
0
  6
CONTINUOUS
 62
     1
 10
580.248293515
 20
1724.0
 11
594.0
 21
1725.5
  0
LINE
  8
0
  6
CONTINUOUS
 62
     1
 10
579.310374355
 20
1715.735028154
 11
580.248293515
 21
1724.0
  0
LINE
  8
0
  6
CONTINUOUS
 62
     1
 10
579.0
 20
1713.0
 11
579.310374355
 21
1715.735028154
  0
ARC
  8
0
  6
CONTINUOUS
 62
     1
 10
577.702226771
 20
1715.927087564
 40
1.6
 50
353.231178556
 51
59.406685156
  0
ARC
  8
0
  6
CONTINUOUS
 62
     1
 10
594.0
 20
1743.0
 40
30.0
 50
0.0
 51
239.0231413
  0
LINE
  8
0
  6
LTYPE3
 62
     2
 10
594.0
 20
1664.8
 11
594.0
 21
1779.8
  0
LINE
  8
0
  6
LTYPE3
 62
     2
 10
632.0
 20
1743.0
 11
558.0
 21
1743.0
  0
LINE
  8
0
  6
CONTINUOUS
 62
     1
 10
601.0
 20
1644.0
 11
601.0
 21
1713.0
  0
ARC
  8
0
  6
CONTINUOUS
 62
     1
 10
595.0
 20
1644.0
 40
6.0
 50
270.0
 51
0.0
  0
LINE
  8
0
  6
CONTINUOUS
 62
     1
 10
595.0
 20
1638.0
 11
469.0
 21
1638.0
  0
ARC
  8
0
  6
CONTINUOUS
 62
     1
 10
568.0
 20
1644.0
 40
6.0
 50
270.0
 51
0.0
  0
LINE
  8
0
  6
CONTINUOUS
 62
     1
 10
574.0
 20
1644.0
 11
574.0
 21
1713.0
  0
LINE
  8
0
  6
CONTINUOUS
 62
     1
 10
624.0
 20
1454.0
 11
624.0
 21
1704.0
  0
LINE
  8
0
  6
CONTINUOUS
 62
     1
 10
419.0
 20
1559.0
 11
419.0
 21
1599.0
  0
LINE
  8
0
  6
CONTINUOUS
 62
     1
 10
461.0
 20
1540.0
 11
461.0
 21
1618.0
  0
LINE
  8
0
  6
CONTINUOUS
 62
     1
 10
461.0
 20
1599.0
 11
419.0
 21
1599.0
  0
LINE
  8
0
  6
CONTINUOUS
 62
     1
 10
461.0
 20
1559.0
 11
419.0
 21
1559.0
  0
LINE
  8
0
  6
CONTINUOUS
 62
     1
 10
469.0
 20
1618.0
 11
461.0
 21
1618.0
  0
LINE
  8
0
  6
CONTINUOUS
 62
     1
 10
469.0
 20
1540.0
 11
461.0
 21
1540.0
  0
LINE
  8
0
  6
CONTINUOUS
 62
     1
 10
469.0
 20
1538.0
 11
463.0
 21
1538.0
  0
LINE
  8
0
  6
CONTINUOUS
 62
     1
 10
463.0
 20
1472.0
 11
463.0
 21
1538.0
  0
LINE
  8
0
  6
CONTINUOUS
 62
     1
 10
469.0
 20
1472.0
 11
463.0
 21
1472.0
  0
LINE
  8
0
  6
LTYPE3
 62
     2
 10
495.0
 20
1509.0
 11
456.6
 21
1509.0
  0
LINE
  8
0
  6
CONTINUOUS
 62
     2
 10
624.0
 20
1725.0
 11
624.0
 21
1854.5
  0
LINE
  8
0
  6
CONTINUOUS
 62
     2
 10
624.0
 20
1842.5
 11
604.681483474
 21
1847.676380902
  0
LINE
  8
0
  6
CONTINUOUS
 62
     2
 10
624.0
 20
1842.5
 11
604.681483474
 21
1837.323619098
  0
LINE
  8
0
  6
CONTINUOUS
 62
     2
 10
624.0
 20
1842.5
 11
419.0
 21
1842.5
  0
LINE
  8
0
  6
CONTINUOUS
 62
     2
 10
419.0
 20
1842.5
 11
438.318516526
 21
1837.323619098
  0
LINE
  8
0
  6
CONTINUOUS
 62
     2
 10
419.0
 20
1842.5
 11
438.318516526
 21
1847.676380902
  0
LINE
  8
0
  6
CONTINUOUS
 62
     2
 10
419.0
 20
1611.0
 11
419.0
 21
1854.5
  0
TEXT
  8
0
  6
CONTINUOUS
 62
     2
 10
487.5
 20
1850.5
 30
1.6
 40
24.0
  1
２０５
 50
0.0
 41
0.9
 51
0.0
  7
KANJI57
  0
LINE
  8
0
  6
CONTINUOUS
 62
     2
 10
436.0
 20
1601.0
 11
428.660604836
 21
1619.604657444
  0
LINE
  8
0
  6
CONTINUOUS
 62
     2
 10
436.0
 20
1601.0
 11
420.341568617
 21
1613.442408394
  0
LINE
  8
0
  6
CONTINUOUS
 62
     2
 10
436.0
 20
1601.0
 11
336.0
 21
1736.0
  0
LINE
  8
0
  6
CONTINUOUS
 62
     2
 10
336.0
 20
1736.0
 11
194.4
 21
1736.0
  0
TEXT
  8
0
  6
CONTINUOUS
 62
     2
 10
194.4
 20
1744.0
 30
2.4
 40
24.0
  1
手動軸カバー
 50
0.0
 41
0.9
 51
0.0
  7
KANJI2
  0
LINE
  8
0
  6
CONTINUOUS
 62
     2
 10
557.5
 20
1566.0
 11
550.707359852
 21
1584.811167955
  0
LINE
  8
0
  6
CONTINUOUS
 62
     2
 10
557.5
 20
1566.0
 11
542.211817096
 21
1578.894629249
  0
LINE
  8
0
  6
CONTINUOUS
 62
     2
 10
557.5
 20
1566.0
 11
362.5
 21
1846.0
  0
LINE
  8
0
  6
CONTINUOUS
 62
     2
 10
362.5
 20
1846.0
 11
292.9
 21
1846.0
  0
TEXT
  8
0
  6
CONTINUOUS
 62
     2
 10
292.9
 20
1854.0
 30
2.4
 40
24.0
  1
点検口
 50
0.0
 41
0.9
 51
0.0
  7
KANJI2
  0
LINE
  8
0
  6
CONTINUOUS
 62
     1
 10
624.0
 20
1452.15
 11
624.0
 21
1704.0
  0
LINE
  8
0
  6
CONTINUOUS
 62
     1
 10
624.0
 20
1454.0
 11
624.0
 21
1704.0
  0
LINE
  8
0
  6
CONTINUOUS
 62
     1
 10
624.0
 20
1454.0
 11
635.0
 21
1454.0
  0
LINE
  8
0
  6
CONTINUOUS
 62
     1
 10
1013.5
 20
1570.3
 11
1019.4
 21
1570.3
  0
LINE
  8
0
  6
CONTINUOUS
 62
     1
 10
1013.5
 20
1587.7
 11
1019.4
 21
1587.7
  0
LINE
  8
0
  6
CONTINUOUS
 62
     1
 10
1027.0
 20
1569.0
 11
1027.0
 21
1578.9
  0
LINE
  8
0
  6
CONTINUOUS
 62
     1
 10
1020.4
 20
1569.0
 11
1027.0
 21
1569.0
  0
LINE
  8
0
  6
CONTINUOUS
 62
     1
 10
1020.4
 20
1574.0
 11
1027.0
 21
1574.0
  0
LINE
  8
0
  6
CONTINUOUS
 62
     1
 10
1027.0
 20
1589.0
 11
1027.0
 21
1579.1
  0
LINE
  8
0
  6
CONTINUOUS
 62
     1
 10
1020.4
 20
1589.0
 11
1027.0
 21
1589.0
  0
LINE
  8
0
  6
CONTINUOUS
 62
     1
 10
1020.4
 20
1584.0
 11
1027.0
 21
1584.0
  0
LINE
  8
0
  6
LTYPE2
 62
     2
 10
821.5
 20
1660.843067336
 11
821.5
 21
1701.143067336
  0
LINE
  8
0
  6
CONTINUOUS
 62
     1
 10
911.5
 20
1709.0
 11
911.5
 21
1749.0
  0
LINE
  8
0
  6
CONTINUOUS
 62
     1
 10
911.5
 20
1749.0
 11
885.8
 21
1749.0
  0
LINE
  8
0
  6
CONTINUOUS
 62
     1
 10
911.5
 20
1709.0
 11
885.8
 21
1709.0
  0
ARC
  8
0
  6
CONTINUOUS
 62
     1
 10
879.8
 20
1703.7
 40
6.0
 50
270.0
 51
0.0
  0
ARC
  8
0
  6
CONTINUOUS
 62
     1
 10
766.319480257
 20
1703.7
 40
6.0
 50
190.033164511
 51
270.0
  0
LINE
  8
0
  6
CONTINUOUS
 62
     1
 10
624.0
 20
1704.0
 11
640.0
 21
1704.0
  0
LINE
  8
0
  6
CONTINUOUS
 62
     1
 10
640.0
 20
1454.0
 11
640.0
 21
1704.0
  0
LINE
  8
0
  6
CONTINUOUS
 62
     1
 10
624.0
 20
1454.0
 11
640.0
 21
1454.0
  0
LINE
  8
0
  6
CONTINUOUS
 62
     1
 10
690.0
 20
1474.0
 11
690.0
 21
1684.0
  0
LINE
  8
0
  6
CONTINUOUS
 62
     1
 10
690.0
 20
1474.0
 11
640.0
 21
1474.0
  0
LINE
  8
0
  6
CONTINUOUS
 62
     1
 10
690.0
 20
1684.0
 11
640.0
 21
1684.0
  0
ARC
  8
0
  6
CONTINUOUS
 62
     1
 10
986.720549228
 20
1664.0
 40
20.0
 50
9.12031501
 51
90.0
  0
ARC
  8
0
  6
CONTINUOUS
 62
     1
 10
986.720549228
 20
1494.0
 40
20.0
 50
270.0
 51
350.87968499
  0
ARC
  8
0
  6
CONTINUOUS
 62
     1
 10
457.25
 20
1579.0
 40
556.25
 50
350.879686542
 51
9.120316562
  0
LINE
  8
0
  6
CONTINUOUS
 62
     1
 10
690.0
 20
1679.0
 11
857.0
 21
1679.0
  0
LINE
  8
0
  6
CONTINUOUS
 62
     1
 10
690.0
 20
1674.0
 11
857.0
 21
1674.0
  0
LINE
  8
0
  6
CONTINUOUS
 62
     1
 10
690.0
 20
1659.0
 11
857.0
 21
1659.0
  0
LINE
  8
0
  6
CONTINUOUS
 62
     1
 10
690.0
 20
1644.0
 11
857.0
 21
1644.0
  0
LINE
  8
0
  6
CONTINUOUS
 62
     1
 10
986.720560018
 20
1684.0
 11
857.0
 21
1684.0
  0
LINE
  8
0
  6
CONTINUOUS
 62
     1
 10
690.0
 20
1629.0
 11
857.0
 21
1629.0
  0
LINE
  8
0
  6
CONTINUOUS
 62
     1
 10
690.0
 20
1614.0
 11
857.0
 21
1614.0
  0
LINE
  8
0
  6
CONTINUOUS
 62
     1
 10
690.0
 20
1599.0
 11
857.0
 21
1599.0
  0
LINE
  8
0
  6
CONTINUOUS
 62
     1
 10
690.0
 20
1584.0
 11
857.0
 21
1584.0
  0
LINE
  8
0
  6
CONTINUOUS
 62
     1
 10
690.0
 20
1569.0
 11
857.0
 21
1569.0
  0
LINE
  8
0
  6
CONTINUOUS
 62
     1
 10
690.0
 20
1554.0
 11
857.0
 21
1554.0
  0
LINE
  8
0
  6
CONTINUOUS
 62
     1
 10
690.0
 20
1539.0
 11
857.0
 21
1539.0
  0
LINE
  8
0
  6
CONTINUOUS
 62
     1
 10
690.0
 20
1524.0
 11
857.0
 21
1524.0
  0
LINE
  8
0
  6
CONTINUOUS
 62
     1
 10
690.0
 20
1509.0
 11
857.0
 21
1509.0
  0
LINE
  8
0
  6
CONTINUOUS
 62
     1
 10
690.0
 20
1494.0
 11
857.0
 21
1494.0
  0
LINE
  8
0
  6
CONTINUOUS
 62
     1
 10
880.161039485
 20
1697.7
 11
766.319480257
 21
1697.7
  0
ARC
  8
0
  6
CONTINUOUS
 62
     1
 10
766.319480257
 20
1766.0
 40
6.0
 50
90.0
 51
180.0
  0
LINE
  8
0
  6
CONTINUOUS
 62
     1
 10
884.608952959
 20
1772.0
 11
766.319480257
 21
1772.0
  0
LINE
  8
0
  6
CONTINUOUS
 62
     1
 10
885.8
 20
1703.7
 11
885.8
 21
1763.372990042
  0
LINE
  8
0
  6
CONTINUOUS
 62
     1
 10
841.5
 20
1679.0
 11
841.5
 21
1697.7
  0
LINE
  8
0
  6
CONTINUOUS
 62
     1
 10
801.5
 20
1679.0
 11
801.5
 21
1697.7
  0
LINE
  8
0
  6
CONTINUOUS
 62
     1
 10
895.877020398
 20
1771.498824355
 11
893.7
 21
1776.0
  0
LINE
  8
0
  6
CONTINUOUS
 62
     1
 10
893.7
 20
1776.0
 11
748.301684551
 21
1705.6772391
  0
LINE
  8
0
  6
CONTINUOUS
 62
     1
 10
895.877020398
 20
1771.498824355
 11
750.47870495
 21
1701.176063455
  0
LINE
  8
0
  6
CONTINUOUS
 62
     1
 10
748.301684551
 20
1705.6772391
 11
750.47870495
 21
1701.176063455
  0
LINE
  8
0
  6
CONTINUOUS
 62
     1
 10
760.319480257
 20
1712.676063455
 11
760.319480257
 21
1766.0
  0
LINE
  8
0
  6
CONTINUOUS
 62
     1
 10
760.97870495
 20
1705.676063455
 11
760.97870495
 21
1702.676063455
  0
LINE
  8
0
  6
CONTINUOUS
 62
     1
 10
1013.5
 20
1540.3
 11
1019.4
 21
1540.3
  0
LINE
  8
0
  6
CONTINUOUS
 62
     1
 10
1013.5
 20
1536.5
 11
1019.4
 21
1536.5
  0
LINE
  8
0
  6
CONTINUOUS
 62
     1
 10
1028.9
 20
1548.4
 11
1028.9
 21
1528.4
  0
LINE
  8
0
  6
CONTINUOUS
 62
     1
 10
1023.9
 20
1528.4
 11
1028.9
 21
1528.4
  0
LINE
  8
0
  6
CONTINUOUS
 62
     1
 10
1023.9
 20
1548.4
 11
1028.9
 21
1548.4
  0
LINE
  8
0
  6
CONTINUOUS
 62
     1
 10
1019.4
 20
1599.0
 11
1023.9
 21
1599.0
  0
LINE
  8
0
  6
CONTINUOUS
 62
     1
 10
1023.9
 20
1528.4
 11
1023.9
 21
1599.0
  0
LINE
  8
0
  6
LTYPE2
 62
     2
 10
1005.4
 20
1538.4
 11
1035.7
 21
1538.4
  0
LINE
  8
0
  6
CONTINUOUS
 62
     1
 10
1019.4
 20
1599.0
 11
1019.4
 21
1533.4
  0
LINE
  8
0
  6
CONTINUOUS
 62
     1
 10
1023.9
 20
1533.4
 11
1019.4
 21
1533.4
  0
LINE
  8
0
  6
CONTINUOUS
 62
     1
 10
1017.4
 20
1545.4
 11
1017.4
 21
1530.4
  0
LINE
  8
0
  6
CONTINUOUS
 62
     1
 10
1014.9
 20
1544.9
 11
1014.9
 21
1530.4
  0
LINE
  8
1
  6
CONTINUOUS
 62
     2
 10
624.0
 20
1842.5
 11
643.318516526
 21
1837.323619098
  0
LINE
  8
1
  6
CONTINUOUS
 62
     2
 10
624.0
 20
1842.5
 11
643.318516526
 21
1847.676380902
  0
LINE
  8
1
  6
CONTINUOUS
 62
     2
 10
624.0
 20
1842.5
 11
1027.0
 21
1842.5
  0
LINE
  8
1
  6
CONTINUOUS
 62
     2
 10
1027.0
 20
1842.5
 11
1007.681483474
 21
1847.676380902
  0
LINE
  8
1
  6
CONTINUOUS
 62
     2
 10
1027.0
 20
1842.5
 11
1007.681483474
 21
1837.323619098
  0
LINE
  8
1
  6
CONTINUOUS
 62
     2
 10
1027.0
 20
1597.0
 11
1027.0
 21
1858.5
  0
LINE
  8
1
  6
CONTINUOUS
 62
     2
 10
994.720560018
 20
1684.0
 11
1156.4
 21
1684.0
  0
LINE
  8
1
  6
CONTINUOUS
 62
     2
 10
1140.4
 20
1684.0
 11
1135.223619098
 21
1664.681483474
  0
LINE
  8
1
  6
CONTINUOUS
 62
     2
 10
1140.4
 20
1684.0
 11
1145.576380902
 21
1664.681483474
  0
LINE
  8
1
  6
CONTINUOUS
 62
     2
 10
1140.4
 20
1684.0
 11
1140.4
 21
1474.0
  0
LINE
  8
1
  6
CONTINUOUS
 62
     2
 10
1140.4
 20
1474.0
 11
1145.576380902
 21
1493.318516526
  0
LINE
  8
1
  6
CONTINUOUS
 62
     2
 10
1140.4
 20
1474.0
 11
1135.223619098
 21
1493.318516526
  0
LINE
  8
1
  6
CONTINUOUS
 62
     2
 10
994.720577775
 20
1474.0
 11
1156.4
 21
1474.0
  0
TEXT
  8
1
  6
CONTINUOUS
 62
     2
 10
784.7
 20
1850.5
 30
2.4
 40
28.0
  1
４０５
 50
0.0
 41
0.914285714
 51
0.0
  7
KANJI52
  0
TEXT
  8
1
  6
CONTINUOUS
 62
     2
 10
1132.4
 20
1538.2
 30
2.4
 40
28.0
  1
２１０
 50
90.0
 41
0.914285714
 51
0.0
  7
KANJI52
  0
LINE
  8
0
  6
CONTINUOUS
 62
     1
 10
857.0
 20
1479.0
 11
857.0
 21
1479.0
  0
LINE
  8
0
  6
CONTINUOUS
 62
     1
 10
690.0
 20
1479.0
 11
792.040692358
 21
1479.0
  0
LINE
  8
0
  6
CONTINUOUS
 62
     1
 10
986.720560018
 20
1474.0
 11
920.0
 21
1474.0
  0
LINE
  8
0
  6
CONTINUOUS
 62
     1
 10
907.0
 20
1684.0
 11
907.0
 21
1481.507558854
  0
LINE
  8
0
  6
CONTINUOUS
 62
     1
 10
857.0
 20
1684.0
 11
857.0
 21
1481.507558854
  0
LINE
  8
1
  6
CONTINUOUS
 62
     2
 10
1029.0
 20
1589.271490877
 11
1041.289237177
 21
1605.050421436
  0
LINE
  8
1
  6
CONTINUOUS
 62
     2
 10
1029.0
 20
1589.271490877
 11
1031.753326309
 21
1609.081064175
  0
LINE
  8
1
  6
CONTINUOUS
 62
     2
 10
1029.0
 20
1589.271490877
 11
1111.0
 21
1783.271490877
  0
LINE
  8
1
  6
CONTINUOUS
 62
     2
 10
1111.0
 20
1783.271490877
 11
1337.4
 21
1783.271490877
  0
TEXT
  8
1
  6
CONTINUOUS
 62
     3
 10
1111.0
 20
1791.271490877
 30
4.0
 40
24.0
  1
ブレーキ開放レバー
 50
0.0
 41
0.9
 51
0.0
  7
KANJI58
  0
LINE
  8
0
  6
LTYPE2
 62
     2
 10
519.0
 20
1243.0
 11
434.0
 21
1243.0
  0
LINE
  8
0
  6
LTYPE2
 62
     2
 10
509.0
 20
1453.0
 11
433.0
 21
1453.0
  0
LINE
  8
0
  6
LTYPE3
 62
     2
 10
1063.0
 20
1579.0
 11
398.0
 21
1579.0
  0
TEXT
  8
0
  6
CONTINUOUS
 62
     2
 10
948.5
 20
644.4
 30
2.4
 40
24.0
  1
　３００
 50
0.0
 41
0.9
 51
0.0
  7
KANJI2
  0
TEXT
  8
0
  6
CONTINUOUS
 62
     2
 10
948.5
 20
588.4
 30
2.4
 40
24.0
  1
　５００
 50
0.0
 41
0.9
 51
0.0
  7
KANJI2
  0
TEXT
  8
0
  6
CONTINUOUS
 62
     2
 10
946.1
 20
531.8
 30
2.4
 40
24.0
  1
　７００
 50
0.0
 41
0.9
 51
0.0
  7
KANJI2
  0
TEXT
  8
0
  6
CONTINUOUS
 62
     2
 10
1423.002380412
 20
478.009
 30
2.4
 40
24.0
  1
１４７０
 50
0.0
 41
0.9
 51
0.0
  7
KANJI2
  0
TEXT
  8
0
  6
CONTINUOUS
 62
     2
 10
941.002380412
 20
478.009
 30
2.4
 40
24.0
  1
１０００
 50
0.0
 41
0.9
 51
0.0
  7
KANJI2
  0
TEXT
  8
0
  6
CONTINUOUS
 62
     2
 10
1426.1
 20
648.0
 30
2.4
 40
24.0
  1
　　７３０
 50
0.0
 41
0.9
 51
0.0
  7
KANJI2
  0
TEXT
  8
0
  6
CONTINUOUS
 62
     2
 10
1426.1
 20
592.0
 30
2.4
 40
24.0
  1
　　９３０
 50
0.0
 41
0.9
 51
0.0
  7
KANJI2
  0
TEXT
  8
0
  6
CONTINUOUS
 62
     2
 10
1266.5
 20
646.6
 30
2.4
 40
24.0
  1
　８８０
 50
0.0
 41
0.9
 51
0.0
  7
KANJI2
  0
TEXT
  8
0
  6
CONTINUOUS
 62
     2
 10
1575.4
 20
646.3
 30
2.4
 40
24.0
  1
　　　　５０
 50
0.0
 41
0.9
 51
0.0
  7
KANJI2
  0
TEXT
  8
0
  6
CONTINUOUS
 62
     2
 10
1421.3
 20
531.8
 30
2.4
 40
24.0
  1
１１７０
 50
0.0
 41
0.9
 51
0.0
  7
KANJI2
  0
CIRCLE
  8
0
  6
CONTINUOUS
 62
     1
 10
2074.802380412
 20
1343.009
 40
55.0
  0
LINE
  8
0
  6
LTYPE1
 62
     2
 10
2164.802380412
 20
1320.509
 11
2164.802380412
 21
1365.509
  0
LINE
  8
0
  6
LTYPE1
 62
     2
 10
2164.802380412
 20
1365.509
 11
2214.802380412
 21
1365.509
  0
LINE
  8
0
  6
LTYPE1
 62
     2
 10
2164.802380412
 20
1320.509
 11
2214.802380412
 21
1320.509
  0
LINE
  8
0
  6
CONTINUOUS
 62
     1
 10
2214.802380412
 20
1298.009
 11
2214.802380412
 21
1388.009
  0
LINE
  8
0
  6
LTYPE3
 62
     2
 10
1899.302380412
 20
1343.009
 11
2238.802380412
 21
1343.009
  0
LINE
  8
0
  6
CONTINUOUS
 62
     1
 10
2109.802380412
 20
1300.582593129
 11
2109.802380412
 21
1385.309
  0
LINE
  8
0
  6
CONTINUOUS
 62
     1
 10
2039.802380412
 20
1302.082593129
 11
2039.802380412
 21
1384.309
  0
ARC
  8
0
  6
CONTINUOUS
 62
     1
 10
2074.802380412
 20
1343.009
 40
45.0
 50
38.874498799
 51
141.540385828
  0
ARC
  8
0
  6
CONTINUOUS
 62
     1
 10
2074.802380412
 20
1343.009
 40
45.0
 50
218.942441269
 51
321.057558731
  0
LINE
  8
0
  6
LTYPE1
 62
     2
 10
2039.802380412
 20
1318.009
 11
2109.802380412
 21
1318.009
  0
LINE
  8
0
  6
LTYPE1
 62
     2
 10
2039.802380412
 20
1368.009
 11
2109.802380412
 21
1368.009
  0
LINE
  8
0
  6
CONTINUOUS
 62
     1
 10
1934.802380412
 20
1298.009
 11
1934.802380412
 21
1388.009
  0
ARC
  8
0
  6
CONTINUOUS
 62
     1
 10
1956.802380412
 20
1220.009
 40
12.0
 50
180.0
 51
270.0
  0
ARC
  8
0
  6
CONTINUOUS
 62
     1
 10
2192.802380412
 20
1220.009
 40
12.0
 50
270.0
 51
0.0
  0
LINE
  8
0
  6
LTYPE1
 62
     2
 10
1984.802380412
 20
1320.509
 11
1984.802380412
 21
1365.509
  0
LINE
  8
0
  6
LTYPE1
 62
     2
 10
1984.802380412
 20
1365.509
 11
1934.802380412
 21
1365.509
  0
LINE
  8
0
  6
LTYPE1
 62
     2
 10
1984.802380412
 20
1320.509
 11
1934.802380412
 21
1320.509
  0
LINE
  8
0
  6
CONTINUOUS
 62
     2
 10
1944.802380412
 20
1208.009
 11
1944.802380412
 21
1086.709
  0
LINE
  8
0
  6
CONTINUOUS
 62
     2
 10
1944.802380412
 20
1098.709
 11
1964.120896938
 21
1093.532619098
  0
LINE
  8
0
  6
CONTINUOUS
 62
     2
 10
1944.802380412
 20
1098.709
 11
1964.120896938
 21
1103.885380902
  0
LINE
  8
0
  6
CONTINUOUS
 62
     2
 10
1944.802380412
 20
1098.709
 11
2204.802380412
 21
1098.709
  0
LINE
  8
0
  6
CONTINUOUS
 62
     2
 10
2204.802380412
 20
1098.709
 11
2185.483863887
 21
1103.885380902
  0
LINE
  8
0
  6
CONTINUOUS
 62
     2
 10
2204.802380412
 20
1098.709
 11
2185.483863887
 21
1093.532619098
  0
LINE
  8
0
  6
CONTINUOUS
 62
     2
 10
2204.802380412
 20
1208.009
 11
2204.802380412
 21
1086.709
  0
TEXT
  8
0
  6
CONTINUOUS
 62
     2
 10
2040.802380412
 20
1106.709
 30
1.6
 40
24.0
  1
２６０
 50
0.0
 41
0.9
 51
0.0
  7
KANJI57
  0
LINE
  8
0
  6
CONTINUOUS
 62
     2
 10
1934.802380412
 20
1286.009
 11
1934.802380412
 21
991.709
  0
LINE
  8
0
  6
CONTINUOUS
 62
     2
 10
1934.802380412
 20
1003.709
 11
1954.120896938
 21
998.532619098
  0
LINE
  8
0
  6
CONTINUOUS
 62
     2
 10
1934.802380412
 20
1003.709
 11
1954.120896938
 21
1008.885380902
  0
LINE
  8
0
  6
CONTINUOUS
 62
     2
 10
1934.802380412
 20
1003.709
 11
2214.802380412
 21
1003.709
  0
LINE
  8
0
  6
CONTINUOUS
 62
     2
 10
2214.802380412
 20
1003.709
 11
2195.483863887
 21
1008.885380902
  0
LINE
  8
0
  6
CONTINUOUS
 62
     2
 10
2214.802380412
 20
1003.709
 11
2195.483863887
 21
998.532619098
  0
LINE
  8
0
  6
CONTINUOUS
 62
     2
 10
2214.802380412
 20
1286.009
 11
2214.802380412
 21
991.709
  0
TEXT
  8
0
  6
CONTINUOUS
 62
     2
 10
2040.802380412
 20
1011.709
 30
1.6
 40
24.0
  1
２８０
 50
0.0
 41
0.9
 51
0.0
  7
KANJI57
  0
LINE
  8
0
  6
CONTINUOUS
 62
     1
 10
1944.802380412
 20
1220.009
 11
1944.802380412
 21
1297.134113365
  0
LINE
  8
0
  6
CONTINUOUS
 62
     1
 10
2204.802380412
 20
1220.009
 11
2204.802380412
 21
1297.134113365
  0
LINE
  8
0
  6
CONTINUOUS
 62
     1
 10
2038.717503563
 20
1449.797958525
 11
1972.071637012
 21
1393.875436482
  0
ARC
  8
0
  6
CONTINUOUS
 62
     1
 10
2041.187270422
 20
1457.744671786
 40
3.0
 50
310.0
 51
40.0
  0
LINE
  8
0
  6
CONTINUOUS
 62
     1
 10
2013.5957799
 20
1495.294101221
 11
2043.485403751
 21
1459.673034616
  0
ARC
  8
0
  6
CONTINUOUS
 62
     1
 10
2012.829735457
 20
1494.651313611
 40
1.0
 50
40.0
 51
130.0
  0
ARC
  8
0
  6
CONTINUOUS
 62
     1
 10
2009.888814518
 20
1493.488995225
 40
1.0
 50
40.0
 51
130.0
  0
ARC
  8
0
  6
CONTINUOUS
 62
     1
 10
1967.647003882
 20
1396.037061257
 40
3.0
 50
220.0
 51
310.0
  0
LINE
  8
0
  6
CONTINUOUS
 62
     1
 10
1935.459246702
 20
1429.729765033
 11
1965.348870553
 21
1394.108698428
  0
ARC
  8
0
  6
CONTINUOUS
 62
     1
 10
1936.225291145
 20
1430.372552642
 40
1.0
 50
130.0
 51
220.0
  0
ARC
  8
0
  6
CONTINUOUS
 62
     1
 10
1937.880636865
 20
1433.066959914
 40
1.0
 50
130.0
 51
220.0
  0
LINE
  8
0
  6
CONTINUOUS
 62
     1
 10
1938.673184751
 20
1425.899542817
 11
2016.809717949
 21
1491.463879005
  0
LINE
  8
0
  6
CONTINUOUS
 62
     1
 10
1939.637366165
 20
1424.750476152
 11
2017.773899363
 21
1490.31481234
  0
LINE
  8
0
  6
CONTINUOUS
 62
     1
 10
2043.115633251
 20
1455.446538457
 11
1969.575366711
 21
1393.738927927
  0
LINE
  8
0
  6
CONTINUOUS
 62
     1
 10
1937.237849255
 20
1433.833004358
 11
2009.246026909
 21
1494.255039668
  0
LINE
  8
0
  6
CONTINUOUS
 62
     1
 10
1935.582503536
 20
1431.138597085
 11
2012.186947848
 21
1495.417358054
  0
LINE
  8
0
  6
LTYPE2
 62
     2
 10
1936.391623986
 20
1437.952944016
 11
1948.411752287
 21
1423.62791293
  0
LINE
  8
0
  6
LTYPE2
 62
     2
 10
2005.335623867
 20
1495.803828888
 11
2017.355752168
 21
1481.478797802
  0
LINE
  8
0
  6
CONTINUOUS
 62
     1
 10
1944.802380412
 20
1388.883886635
 11
1944.802380412
 21
1418.943666527
  0
LINE
  8
0
  6
LTYPE3
 62
     2
 10
1974.388737711
 20
1431.718415281
 11
2005.566746546
 21
1457.879870995
  0
LINE
  8
0
  6
LTYPE3
 62
     2
 10
1979.340385529
 20
1456.776175359
 11
2008.370280951
 21
1422.179693196
  0
CIRCLE
  8
0
  6
CONTINUOUS
 62
     2
 10
1989.633022129
 20
1444.509888713
 40
10.4775
  0
CIRCLE
  8
0
  6
CONTINUOUS
 62
     2
 10
1989.633022129
 20
1444.509888713
 40
9.3155
  0
LINE
  8
0
  6
CONTINUOUS
 62
     2
 10
1922.802380412
 20
1365.509
 11
1854.309681395
 21
1365.509
  0
LINE
  8
0
  6
CONTINUOUS
 62
     2
 10
1866.309681395
 20
1365.509
 11
1871.486062297
 21
1384.827516526
  0
LINE
  8
0
  6
CONTINUOUS
 62
     2
 10
1866.309681395
 20
1365.509
 11
1861.133300493
 21
1384.827516526
  0
LINE
  8
0
  6
CONTINUOUS
 62
     2
 10
1866.309681395
 20
1463.509
 11
1866.309681395
 21
1290.509
  0
LINE
  8
0
  6
CONTINUOUS
 62
     2
 10
1866.309681395
 20
1320.509
 11
1861.133300493
 21
1301.190483474
  0
LINE
  8
0
  6
CONTINUOUS
 62
     2
 10
1866.309681395
 20
1320.509
 11
1871.486062297
 21
1301.190483474
  0
LINE
  8
0
  6
CONTINUOUS
 62
     2
 10
1922.802380412
 20
1320.509
 11
1854.309681395
 21
1320.509
  0
TEXT
  8
0
  6
CONTINUOUS
 62
     2
 10
1858.309681395
 20
1395.509
 30
1.6
 40
24.0
  1
φ４５Ｈ１０深さ５０
 50
90.0
 41
0.9
 51
0.0
  7
KANJI57
  0
LINE
  8
0
  6
CONTINUOUS
 62
     1
 10
2038.717503563
 20
1449.797958525
 11
2050.717503563
 21
1437.797958525
  0
CIRCLE
  8
0
  6
CONTINUOUS
 62
     1
 10
2074.802380412
 20
1343.009
 40
90.0
  0
LINE
  8
0
  6
CONTINUOUS
 62
     1
 10
2074.802380412
 20
1208.009
 11
2192.802380412
 21
1208.009
  0
LINE
  8
0
  6
CONTINUOUS
 62
     1
 10
1956.802380412
 20
1208.009
 11
2074.802380412
 21
1208.009
  0
CIRCLE
  8
0
  6
CONTINUOUS
 62
     1
 10
2074.802380412
 20
1343.009
 40
100.0
  0
LINE
  8
0
  6
CONTINUOUS
 62
     1
 10
2214.802380412
 20
1388.009
 11
2161.603598441
 21
1392.663290336
  0
LINE
  8
0
  6
CONTINUOUS
 62
     1
 10
2214.802380412
 20
1298.009
 11
2161.603598441
 21
1293.354709664
  0
LINE
  8
0
  6
CONTINUOUS
 62
     1
 10
1934.802380412
 20
1388.009
 11
1988.001162384
 21
1392.663290336
  0
LINE
  8
0
  6
CONTINUOUS
 62
     1
 10
1934.802380412
 20
1298.009
 11
1988.001162384
 21
1293.354709664
  0
LINE
  8
1
  6
CONTINUOUS
 62
     2
 10
1832.002380412
 20
1717.309
 11
1832.252380412
 21
1717.309
  0
LINE
  8
1
  6
CONTINUOUS
 62
     2
 10
1832.002380412
 20
1667.309
 11
1832.252380412
 21
1667.309
  0
LINE
  8
0
  6
LTYPE5
 62
     2
 10
2074.802380412
 20
1489.009
 11
2074.802380412
 21
1503.009
  0
LINE
  8
0
  6
LTYPE5
 62
     2
 10
2074.802380412
 20
1443.009
 11
2074.802380412
 21
1770.214692517
  0
LINE
  8
0
  6
LTYPE5
 62
     2
 10
1927.802380412
 20
1574.009
 11
2232.802380412
 21
1574.009
  0
LINE
  8
0
  6
CONTINUOUS
 62
     1
 10
2204.802380412
 20
1388.883886635
 11
2204.802380412
 21
1503.009
  0
LINE
  8
0
  6
CONTINUOUS
 62
     1
 10
2204.802380412
 20
1443.009
 11
2204.802380412
 21
1648.842147735
  0
LINE
  8
0
  6
CONTINUOUS
 62
     1
 10
1944.802380412
 20
1440.443666527
 11
1944.802380412
 21
1503.009
  0
LINE
  8
0
  6
CONTINUOUS
 62
     1
 10
1944.802380412
 20
1443.009
 11
1944.802380412
 21
1648.842147735
  0
LINE
  8
0
  6
LTYPE3
 62
     2
 10
2074.802380412
 20
1151.309
 11
2074.802380412
 21
1503.009
  0
LINE
  8
0
  6
LTYPE3
 62
     2
 10
2074.802380412
 20
1443.009
 11
2074.802380412
 21
1500.109
  0
ARC
  8
0
  6
CONTINUOUS
 62
     1
 10
2074.802380412
 20
1574.009
 40
125.0
 50
280.557968545
 51
0.0
  0
ARC
  8
0
  6
CONTINUOUS
 62
     1
 10
2111.802380412
 20
1757.714692517
 40
3.0
 50
0.0
 51
90.0
  0
ARC
  8
0
  6
CONTINUOUS
 62
     1
 10
2118.802380412
 20
1760.714692517
 40
6.0
 50
0.0
 51
90.0
  0
ARC
  8
0
  6
CONTINUOUS
 62
     1
 10
2118.802380412
 20
1765.009
 40
6.0
 50
0.0
 51
90.0
  0
LINE
  8
0
  6
CONTINUOUS
 62
     1
 10
2118.802380412
 20
1771.009
 11
2074.802380412
 21
1771.009
  0
LINE
  8
0
  6
CONTINUOUS
 62
     1
 10
2074.802380412
 20
1766.714692517
 11
2118.802380412
 21
1766.714692517
  0
LINE
  8
0
  6
CONTINUOUS
 62
     1
 10
2074.802380412
 20
1760.714692517
 11
2111.802380412
 21
1760.714692517
  0
ARC
  8
0
  6
CONTINUOUS
 62
     1
 10
2037.802380412
 20
1757.714692517
 40
3.0
 50
90.0
 51
180.0
  0
ARC
  8
0
  6
CONTINUOUS
 62
     1
 10
2030.802380412
 20
1760.714692517
 40
6.0
 50
90.0
 51
180.0
  0
ARC
  8
0
  6
CONTINUOUS
 62
     1
 10
2030.802380412
 20
1765.009
 40
6.0
 50
90.0
 51
180.0
  0
LINE
  8
0
  6
CONTINUOUS
 62
     1
 10
2030.802380412
 20
1771.009
 11
2074.802380412
 21
1771.009
  0
LINE
  8
0
  6
CONTINUOUS
 62
     1
 10
2074.802380412
 20
1766.714692517
 11
2030.802380412
 21
1766.714692517
  0
LINE
  8
0
  6
CONTINUOUS
 62
     1
 10
2074.802380412
 20
1760.714692517
 11
2037.802380412
 21
1760.714692517
  0
CIRCLE
  8
0
  6
CONTINUOUS
 62
     1
 10
2074.802380412
 20
1574.009
 40
20.0
  0
ARC
  8
0
  6
CONTINUOUS
 62
     1
 10
1989.802380412
 20
1574.009
 40
20.0
 50
90.0
 51
270.0
  0
ARC
  8
0
  6
CONTINUOUS
 62
     1
 10
2117.302380412
 20
1500.396840678
 40
20.0
 50
210.0
 51
30.0
  0
ARC
  8
0
  6
CONTINUOUS
 62
     1
 10
2117.302380412
 20
1647.621159322
 40
20.0
 50
330.0
 51
150.0
  0
LINE
  8
0
  6
CONTINUOUS
 62
     1
 10
1989.802380412
 20
1594.009
 11
2063.255375029
 21
1594.009
  0
LINE
  8
0
  6
CONTINUOUS
 62
     1
 10
2099.981872337
 20
1657.621159322
 11
2063.255375029
 21
1594.009
  0
LINE
  8
0
  6
CONTINUOUS
 62
     1
 10
1989.802380412
 20
1554.009
 11
2063.255375029
 21
1554.009
  0
LINE
  8
0
  6
CONTINUOUS
 62
     1
 10
2099.981872337
 20
1490.396840678
 11
2063.255375029
 21
1554.009
  0
CIRCLE
  8
0
  6
CONTINUOUS
 62
     1
 10
2134.802380412
 20
1574.009
 40
10.0
  0
LINE
  8
0
  6
CONTINUOUS
 62
     2
 10
2134.802380412
 20
1589.009
 11
2134.802380412
 21
1559.009
  0
LINE
  8
0
  6
CONTINUOUS
 62
     1
 10
2078.135713746
 20
1554.288734056
 11
2136.469047079
 21
1564.148867028
  0
LINE
  8
0
  6
CONTINUOUS
 62
     1
 10
2078.135713746
 20
1593.729265944
 11
2136.469047079
 21
1583.869132972
  0
LINE
  8
0
  6
CONTINUOUS
 62
     1
 10
2134.622888488
 20
1637.621159322
 11
2106.512592251
 21
1588.932698023
  0
LINE
  8
0
  6
CONTINUOUS
 62
     1
 10
2134.622888488
 20
1510.396840678
 11
2106.512592251
 21
1559.085301977
  0
ARC
  8
0
  6
CONTINUOUS
 62
     1
 10
2150.81635939
 20
1650.022978978
 40
7.75
 50
294.214141675
 51
155.785858325
  0
LINE
  8
0
  6
CONTINUOUS
 62
     2
 10
2144.802380412
 20
1644.009
 11
2157.748212824
 21
1656.954832412
  0
ARC
  8
0
  6
CONTINUOUS
 62
     2
 10
2074.802380412
 20
1574.009
 40
107.5
 50
38.280925788
 51
51.325228591
  0
ARC
  8
0
  6
CONTINUOUS
 62
     1
 10
2150.81635939
 20
1497.995021022
 40
7.75
 50
204.214141675
 51
65.785858325
  0
LINE
  8
0
  6
CONTINUOUS
 62
     2
 10
2144.802380412
 20
1504.009
 11
2157.748212824
 21
1491.063167588
  0
ARC
  8
0
  6
CONTINUOUS
 62
     2
 10
2074.802380412
 20
1574.009
 40
107.5
 50
308.674771409
 51
321.719074212
  0
ARC
  8
0
  6
CONTINUOUS
 62
     1
 10
1998.788401435
 20
1650.022978978
 40
7.75
 50
24.214141675
 51
245.785858325
  0
LINE
  8
0
  6
CONTINUOUS
 62
     2
 10
2004.802380412
 20
1644.009
 11
1991.856548
 21
1656.954832412
  0
ARC
  8
0
  6
CONTINUOUS
 62
     2
 10
2074.802380412
 20
1574.009
 40
107.5
 50
128.674771409
 51
141.719074212
  0
ARC
  8
0
  6
CONTINUOUS
 62
     1
 10
1998.788401435
 20
1497.995021022
 40
7.75
 50
114.214141675
 51
335.785858325
  0
LINE
  8
0
  6
CONTINUOUS
 62
     2
 10
2004.802380412
 20
1504.009
 11
1991.856548
 21
1491.063167588
  0
ARC
  8
0
  6
CONTINUOUS
 62
     2
 10
2074.802380412
 20
1574.009
 40
107.5
 50
218.280925788
 51
231.325228591
  0
ARC
  8
0
  6
CONTINUOUS
 62
     1
 10
2074.802380412
 20
1574.009
 40
105.0
 50
272.980462591
 51
0.0
  0
ARC
  8
0
  6
CONTINUOUS
 62
     1
 10
2074.802380412
 20
1574.009
 40
105.0
 50
0.0
 51
226.520053773
  0
ARC
  8
0
  6
CONTINUOUS
 62
     1
 10
2111.802380412
 20
1695.709
 40
3.0
 50
270.0
 51
0.0
  0
ARC
  8
0
  6
CONTINUOUS
 62
     1
 10
2118.802380412
 20
1701.709
 40
6.0
 50
270.0
 51
0.0
  0
LINE
  8
0
  6
CONTINUOUS
 62
     1
 10
2114.802380412
 20
1695.709
 11
2118.802380412
 21
1695.709
  0
LINE
  8
0
  6
CONTINUOUS
 62
     1
 10
2074.802380412
 20
1692.709
 11
2111.802380412
 21
1692.709
  0
ARC
  8
0
  6
CONTINUOUS
 62
     1
 10
2037.802380412
 20
1695.709
 40
3.0
 50
180.0
 51
270.0
  0
ARC
  8
0
  6
CONTINUOUS
 62
     1
 10
2030.802380412
 20
1701.709
 40
6.0
 50
180.0
 51
270.0
  0
LINE
  8
0
  6
CONTINUOUS
 62
     1
 10
2034.802380412
 20
1695.709
 11
2030.802380412
 21
1695.709
  0
LINE
  8
0
  6
CONTINUOUS
 62
     1
 10
2074.802380412
 20
1692.709
 11
2037.802380412
 21
1692.709
  0
LINE
  8
0
  6
CONTINUOUS
 62
     1
 10
2094.802380412
 20
1677.08664064
 11
2094.802380412
 21
1692.709
  0
LINE
  8
0
  6
CONTINUOUS
 62
     1
 10
2054.802380412
 20
1677.08664064
 11
2054.802380412
 21
1692.709
  0
LINE
  8
0
  6
CONTINUOUS
 62
     1
 10
2124.802380412
 20
1701.709
 11
2124.802380412
 21
1765.009
  0
LINE
  8
0
  6
CONTINUOUS
 62
     1
 10
2114.802380412
 20
1696.209
 11
2114.802380412
 21
1757.714692517
  0
LINE
  8
0
  6
CONTINUOUS
 62
     1
 10
2034.802380412
 20
1696.209
 11
2034.802380412
 21
1757.714692517
  0
LINE
  8
0
  6
CONTINUOUS
 62
     1
 10
2024.802380412
 20
1702.209
 11
2024.802380412
 21
1765.009
  0
CIRCLE
  8
0
  6
CONTINUOUS
 62
     1
 10
2074.802380412
 20
1724.009
 40
20.0
  0
CIRCLE
  8
0
  6
CONTINUOUS
 62
     2
 10
2074.802380412
 20
1724.009
 40
13.5
  0
CIRCLE
  8
0
  6
CONTINUOUS
 62
     2
 10
2074.802380412
 20
1724.009
 40
15.0
  0
LINE
  8
0
  6
LTYPE2
 62
     2
 10
2044.302380412
 20
1724.009
 11
2103.802380412
 21
1724.009
  0
CIRCLE
  8
0
  6
CONTINUOUS
 62
     1
 10
2074.802380412
 20
1589.009
 40
4.0
  0
CIRCLE
  8
0
  6
CONTINUOUS
 62
     1
 10
2074.802380412
 20
1574.009
 40
4.0
  0
CIRCLE
  8
0
  6
CONTINUOUS
 62
     1
 10
2059.802380412
 20
1574.009
 40
4.0
  0
CIRCLE
  8
0
  6
CONTINUOUS
 62
     1
 10
2074.802380412
 20
1559.009
 40
4.0
  0
CIRCLE
  8
0
  6
CONTINUOUS
 62
     1
 10
2089.802380412
 20
1574.009
 40
4.0
  0
ARC
  8
0
  6
CONTINUOUS
 62
     1
 10
2074.802380412
 20
1574.009
 40
125.0
 50
0.0
 51
72.687211164
  0
ARC
  8
0
  6
CONTINUOUS
 62
     1
 10
2074.802380412
 20
1574.009
 40
150.0
 50
109.471220634
 51
150.073565133
  0
ARC
  8
0
  6
CONTINUOUS
 62
     1
 10
2074.802380412
 20
1574.009
 40
150.0
 50
29.926434867
 51
70.528779366
  0
ARC
  8
0
  6
CONTINUOUS
 62
     1
 10
2074.802380412
 20
1574.009
 40
125.0
 50
255.145173981
 51
280.557968545
  0
ARC
  8
0
  6
CONTINUOUS
 62
     1
 10
2074.802380412
 20
1574.009
 40
125.0
 50
107.31277541
 51
228.722566178
  0
ARC
  8
0
  6
CONTINUOUS
 62
     1
 10
2074.802380412
 20
1574.009
 40
105.0
 50
241.810391894
 51
272.980462591
  0
ARC
  8
0
  6
CONTINUOUS
 62
     1
 10
2074.802380412
 20
1574.009
 40
105.0
 50
226.520053773
 51
230.380400035
  0
LINE
  8
1
  6
CONTINUOUS
 62
     2
 10
2212.802380412
 20
1574.009
 11
2301.802380412
 21
1574.009
  0
LINE
  8
1
  6
CONTINUOUS
 62
     2
 10
2285.802380412
 20
1574.009
 11
2280.62599951
 21
1554.690483474
  0
LINE
  8
1
  6
CONTINUOUS
 62
     2
 10
2285.802380412
 20
1574.009
 11
2290.978761315
 21
1554.690483474
  0
LINE
  8
1
  6
CONTINUOUS
 62
     2
 10
2285.802380412
 20
1574.009
 11
2285.802380412
 21
1343.009
  0
LINE
  8
1
  6
CONTINUOUS
 62
     2
 10
2285.802380412
 20
1343.009
 11
2290.978761315
 21
1362.327516526
  0
LINE
  8
1
  6
CONTINUOUS
 62
     2
 10
2285.802380412
 20
1343.009
 11
2280.62599951
 21
1362.327516526
  0
LINE
  8
1
  6
CONTINUOUS
 62
     2
 10
2222.802380412
 20
1343.009
 11
2301.802380412
 21
1343.009
  0
TEXT
  8
1
  6
CONTINUOUS
 62
     3
 10
2277.802380412
 20
1417.709
 30
2.4
 40
28.0
  1
２３１
 50
90.0
 41
0.914285714
 51
0.0
  7
KANJI52
  0
LINE
  8
1
  6
CONTINUOUS
 62
     2
 10
2285.802380412
 20
1574.009
 11
2290.978761315
 21
1593.327516526
  0
LINE
  8
1
  6
CONTINUOUS
 62
     2
 10
2285.802380412
 20
1574.009
 11
2280.62599951
 21
1593.327516526
  0
LINE
  8
1
  6
CONTINUOUS
 62
     2
 10
2285.802380412
 20
1574.009
 11
2285.802380412
 21
1771.009
  0
LINE
  8
1
  6
CONTINUOUS
 62
     2
 10
2285.802380412
 20
1771.009
 11
2280.62599951
 21
1751.690483474
  0
LINE
  8
1
  6
CONTINUOUS
 62
     2
 10
2285.802380412
 20
1771.009
 11
2290.978761315
 21
1751.690483474
  0
LINE
  8
1
  6
CONTINUOUS
 62
     2
 10
2082.802380412
 20
1771.009
 11
2301.802380412
 21
1771.009
  0
TEXT
  8
1
  6
CONTINUOUS
 62
     3
 10
2277.802380412
 20
1631.709
 30
2.4
 40
28.0
  1
１９７
 50
90.0
 41
0.914285714
 51
0.0
  7
KANJI52
  0
LINE
  8
1
  6
CONTINUOUS
 62
     2
 10
2285.802380412
 20
1343.009
 11
2280.62599951
 21
1323.690483474
  0
LINE
  8
1
  6
CONTINUOUS
 62
     2
 10
2285.802380412
 20
1343.009
 11
2290.978761315
 21
1323.690483474
  0
LINE
  8
1
  6
CONTINUOUS
 62
     2
 10
2285.802380412
 20
1343.009
 11
2285.802380412
 21
1208.009
  0
LINE
  8
1
  6
CONTINUOUS
 62
     2
 10
2285.802380412
 20
1208.009
 11
2290.978761315
 21
1227.327516526
  0
LINE
  8
1
  6
CONTINUOUS
 62
     2
 10
2285.802380412
 20
1208.009
 11
2280.62599951
 21
1227.327516526
  0
LINE
  8
1
  6
CONTINUOUS
 62
     2
 10
2175.802380412
 20
1208.009
 11
2301.802380412
 21
1208.009
  0
TEXT
  8
1
  6
CONTINUOUS
 62
     3
 10
2277.802380412
 20
1234.709
 30
2.4
 40
28.0
  1
１３５
 50
90.0
 41
0.914285714
 51
0.0
  7
KANJI52
  0
LINE
  8
1
  6
CONTINUOUS
 62
     2
 10
2082.802380412
 20
1771.009
 11
2371.802380412
 21
1771.009
  0
LINE
  8
1
  6
CONTINUOUS
 62
     2
 10
2355.802380412
 20
1771.009
 11
2350.62599951
 21
1751.690483474
  0
LINE
  8
1
  6
CONTINUOUS
 62
     2
 10
2355.802380412
 20
1771.009
 11
2360.978761315
 21
1751.690483474
  0
LINE
  8
1
  6
CONTINUOUS
 62
     2
 10
2355.802380412
 20
1771.009
 11
2355.802380412
 21
1208.009
  0
LINE
  8
1
  6
CONTINUOUS
 62
     2
 10
2355.802380412
 20
1208.009
 11
2360.978761315
 21
1227.327516526
  0
LINE
  8
1
  6
CONTINUOUS
 62
     2
 10
2355.802380412
 20
1208.009
 11
2350.62599951
 21
1227.327516526
  0
LINE
  8
1
  6
CONTINUOUS
 62
     2
 10
2100.802380412
 20
1208.009
 11
2371.802380412
 21
1208.009
  0
TEXT
  8
1
  6
CONTINUOUS
 62
     3
 10
2347.802380412
 20
1448.709
 30
2.4
 40
28.0
  1
５６３
 50
90.0
 41
0.914285714
 51
0.0
  7
KANJI52
  0
TEXT
  8
0
  6
CONTINUOUS
 62
     2
 10
2944.802380412
 20
1926.009
 30
2.4
 40
24.0
  1
７８．４ＫＮ（８ｔｏｎ）
 50
0.0
 41
0.9
 51
0.0
  7
KANJI2
  0
LINE
  8
0
  6
CONTINUOUS
 62
     1
 10
1277.05
 20
1418.0
 11
1462.0
 21
1418.0
  0
LINE
  8
0
  6
CONTINUOUS
 62
     1
 10
1462.0
 20
1418.0
 11
1462.0
 21
1278.0
  0
LINE
  8
0
  6
CONTINUOUS
 62
     1
 10
1462.0
 20
1395.541
 11
1652.000190206
 21
1395.541
  0
LINE
  8
0
  6
CONTINUOUS
 62
     1
 10
1462.0
 20
1300.541
 11
1652.000190206
 21
1300.541
  0
LINE
  8
0
  6
CONTINUOUS
 62
     1
 10
1512.0
 20
1395.541
 11
1512.0
 21
1300.541
  0
LINE
  8
0
  6
LTYPE3
 62
     2
 10
1358.102380412
 20
1647.309
 11
1688.402380412
 21
1647.309
  0
TEXT
  8
0
  6
CONTINUOUS
 62
     2
 10
1637.152380412
 20
1798.009
 30
10.4
 40
32.0
  1
φ
 50
0.0
 41
0.925
 51
0.0
  7
KANJI59
  0
LINE
  8
0
  6
CONTINUOUS
 62
     1
 10
1514.352380412
 20
1672.309
 11
1654.352380412
 21
1672.309
  0
LINE
  8
0
  6
CONTINUOUS
 62
     1
 10
1405.802380412
 20
1703.009
 11
1514.352380412
 21
1703.009
  0
LINE
  8
0
  6
CONTINUOUS
 62
     1
 10
1514.352380412
 20
1703.009
 11
1514.352380412
 21
1672.309
  0
LINE
  8
0
  6
CONTINUOUS
 62
     1
 10
1654.352380412
 20
1672.309
 11
1654.352380412
 21
1622.309
  0
LINE
  8
0
  6
CONTINUOUS
 62
     1
 10
1516.602380412
 20
1622.309
 11
1654.352380412
 21
1622.309
  0
LINE
  8
0
  6
CONTINUOUS
 62
     1
 10
1514.352380412
 20
1622.309
 11
1654.352380412
 21
1622.309
  0
LINE
  8
0
  6
CONTINUOUS
 62
     1
 10
1514.352380412
 20
1622.309
 11
1514.352380412
 21
1591.609
  0
LINE
  8
0
  6
CONTINUOUS
 62
     1
 10
1405.802380412
 20
1591.609
 11
1514.352380412
 21
1591.609
  0
LINE
  8
0
  6
CONTINUOUS
 62
     1
 10
1499.352380412
 20
1703.009
 11
1499.352380412
 21
1591.609
  0
LINE
  8
0
  6
LTYPE1
 62
     2
 10
1581.852380412
 20
1672.309
 11
1581.852380412
 21
1622.309
  0
LINE
  8
0
  6
LTYPE1
 62
     2
 10
1626.852380412
 20
1672.309
 11
1626.852380412
 21
1622.309
  0
LINE
  8
0
  6
LTYPE3
 62
     2
 10
1604.352380412
 20
1703.009
 11
1604.352380412
 21
1573.709
  0
LINE
  8
1
  6
CONTINUOUS
 62
     2
 10
1581.852380412
 20
1680.309
 11
1581.852380412
 21
1809.809
  0
LINE
  8
1
  6
CONTINUOUS
 62
     2
 10
1581.852380412
 20
1793.809
 11
1562.533863887
 21
1798.985380902
  0
LINE
  8
1
  6
CONTINUOUS
 62
     2
 10
1581.852380412
 20
1793.809
 11
1562.533863887
 21
1788.632619098
  0
LINE
  8
1
  6
CONTINUOUS
 62
     2
 10
1551.852380412
 20
1793.809
 11
1581.852380412
 21
1793.809
  0
LINE
  8
1
  6
CONTINUOUS
 62
     2
 10
1581.852380412
 20
1793.809
 11
1626.852380412
 21
1793.809
  0
LINE
  8
1
  6
CONTINUOUS
 62
     2
 10
1626.852380412
 20
1793.809
 11
1794.452380412
 21
1793.809
  0
LINE
  8
1
  6
CONTINUOUS
 62
     2
 10
1626.852380412
 20
1793.809
 11
1646.170896938
 21
1788.632619098
  0
LINE
  8
1
  6
CONTINUOUS
 62
     2
 10
1626.852380412
 20
1793.809
 11
1646.170896938
 21
1798.985380902
  0
LINE
  8
1
  6
CONTINUOUS
 62
     2
 10
1626.852380412
 20
1680.309
 11
1626.852380412
 21
1809.809
  0
TEXT
  8
1
  6
CONTINUOUS
 62
     3
 10
1656.852380412
 20
1801.809
 30
2.4
 40
28.0
  1
４５Ｈ１０
 50
0.0
 41
0.914285714
 51
0.0
  7
KANJI52
  0
LINE
  8
1
  6
CONTINUOUS
 62
     2
 10
1662.352380412
 20
1672.309
 11
1767.802380412
 21
1672.309
  0
LINE
  8
1
  6
CONTINUOUS
 62
     2
 10
1751.802380412
 20
1672.309
 11
1746.62599951
 21
1652.990483474
  0
LINE
  8
1
  6
CONTINUOUS
 62
     2
 10
1751.802380412
 20
1672.309
 11
1756.978761315
 21
1652.990483474
  0
LINE
  8
1
  6
CONTINUOUS
 62
     2
 10
1751.802380412
 20
1672.309
 11
1751.802380412
 21
1622.309
  0
LINE
  8
1
  6
CONTINUOUS
 62
     2
 10
1751.802380412
 20
1622.309
 11
1756.978761315
 21
1641.627516526
  0
LINE
  8
1
  6
CONTINUOUS
 62
     2
 10
1751.802380412
 20
1622.309
 11
1746.62599951
 21
1641.627516526
  0
LINE
  8
1
  6
CONTINUOUS
 62
     2
 10
1662.352380412
 20
1622.309
 11
1767.802380412
 21
1622.309
  0
TEXT
  8
1
  6
CONTINUOUS
 62
     3
 10
1743.802380412
 20
1620.509
 30
2.4
 40
28.0
  1
５０
 50
90.0
 41
0.914285714
 51
0.0
  7
KANJI52
  0
LINE
  8
1
  6
CONTINUOUS
 62
     2
 10
1514.352380412
 20
1583.609
 11
1514.352380412
 21
1464.309
  0
LINE
  8
1
  6
CONTINUOUS
 62
     2
 10
1514.352380412
 20
1480.309
 11
1533.670896938
 21
1475.132619098
  0
LINE
  8
1
  6
CONTINUOUS
 62
     2
 10
1514.352380412
 20
1480.309
 11
1533.670896938
 21
1485.485380902
  0
LINE
  8
1
  6
CONTINUOUS
 62
     2
 10
1514.352380412
 20
1480.309
 11
1604.352380412
 21
1480.309
  0
LINE
  8
1
  6
CONTINUOUS
 62
     2
 10
1604.352380412
 20
1480.309
 11
1585.033863887
 21
1485.485380902
  0
LINE
  8
1
  6
CONTINUOUS
 62
     2
 10
1604.352380412
 20
1480.309
 11
1585.033863887
 21
1475.132619098
  0
LINE
  8
1
  6
CONTINUOUS
 62
     2
 10
1604.352380412
 20
1614.309
 11
1604.352380412
 21
1464.309
  0
TEXT
  8
1
  6
CONTINUOUS
 62
     3
 10
1532.552380412
 20
1488.309
 30
2.4
 40
28.0
  1
９０
 50
0.0
 41
0.914285714
 51
0.0
  7
KANJI52
  0
TEXT
  8
0
  6
CONTINUOUS
 62
     2
 10
654.0
 20
644.8
 30
1.6
 40
24.0
  1
ＭＣＬＦ８ー　　　　　３
 50
0.0
 41
0.833333333
 51
0.0
  7
KANJI60
  0
TEXT
  8
0
  6
CONTINUOUS
 62
     2
 10
654.0
 20
588.8
 30
1.6
 40
24.0
  1
ＭＣＬＦ８－　　　　　５
 50
0.0
 41
0.833333333
 51
0.0
  7
KANJI60
  0
TEXT
  8
0
  6
CONTINUOUS
 62
     2
 10
654.0
 20
532.8
 30
1.6
 40
24.0
  1
ＭＣＬＦ８－　　　　　７
 50
0.0
 41
0.833333333
 51
0.0
  7
KANJI60
  0
TEXT
  8
0
  6
CONTINUOUS
 62
     2
 10
654.0
 20
476.8
 30
1.6
 40
24.0
  1
ＭＣＬＦ８－　　　１０
 50
0.0
 41
0.833333333
 51
0.0
  7
KANJI60
  0
TEXT
  8
0
  6
CONTINUOUS
 62
     2
 10
654.0
 20
420.8
 30
1.6
 40
24.0
  1
ＭＣＬＦ８－　　　　　　　
 50
0.0
 41
0.833333333
 51
0.0
  7
KANJI60
  0
TEXT
  8
0
  6
CONTINUOUS
 62
     2
 10
654.0
 20
364.8
 30
1.6
 40
24.0
  1
ＭＣＬＦ８－　　　　　　　
 50
0.0
 41
0.833333333
 51
0.0
  7
KANJI60
  0
TEXT
  8
0
  6
CONTINUOUS
 62
     2
 10
1105.7
 20
589.0
 30
2.4
 40
24.0
  1
１３０５
 50
0.0
 41
0.9
 51
0.0
  7
KANJI2
  0
TEXT
  8
0
  6
CONTINUOUS
 62
     2
 10
1111.002380412
 20
480.009
 30
2.4
 40
24.0
  1
１８４５
 50
0.0
 41
0.9
 51
0.0
  7
KANJI2
  0
TEXT
  8
0
  6
CONTINUOUS
 62
     2
 10
1267.002380412
 20
475.009
 30
2.4
 40
24.0
  1
１６２０
 50
0.0
 41
0.9
 51
0.0
  7
KANJI2
  0
TEXT
  8
0
  6
CONTINUOUS
 62
     2
 10
1599.0
 20
590.0
 30
2.4
 40
24.0
  1
　　５０
 50
0.0
 41
0.9
 51
0.0
  7
KANJI2
  0
TEXT
  8
0
  6
CONTINUOUS
 62
     2
 10
1600.8
 20
530.0
 30
2.4
 40
24.0
  1
　　５０
 50
0.0
 41
0.9
 51
0.0
  7
KANJI2
  0
TEXT
  8
0
  6
CONTINUOUS
 62
     2
 10
1604.002380412
 20
473.009
 30
2.4
 40
24.0
  1
　　５０
 50
0.0
 41
0.9
 51
0.0
  7
KANJI2
  0
TEXT
  8
0
  6
CONTINUOUS
 62
     2
 10
1755.002380412
 20
589.009
 30
2.4
 40
24.0
  1
２１１
 50
0.0
 41
0.9
 51
0.0
  7
KANJI2
  0
TEXT
  8
0
  6
CONTINUOUS
 62
     2
 10
1754.002380412
 20
475.009
 30
2.4
 40
24.0
  1
２３９
 50
0.0
 41
0.9
 51
0.0
  7
KANJI2
  0
TEXT
  8
0
  6
CONTINUOUS
 62
     2
 10
1753.6
 20
533.4
 30
2.4
 40
24.0
  1
２２１
 50
0.0
 41
0.9
 51
0.0
  7
KANJI2
  0
TEXT
  8
0
  6
CONTINUOUS
 62
     2
 10
1107.002380412
 20
531.009
 30
2.4
 40
24.0
  1
１５４５
 50
0.0
 41
0.9
 51
0.0
  7
KANJI2
  0
TEXT
  8
0
  6
CONTINUOUS
 62
     2
 10
1262.002380412
 20
536.009
 30
2.4
 40
24.0
  1
１３２０
 50
0.0
 41
0.9
 51
0.0
  7
KANJI2
  0
TEXT
  8
0
  6
CONTINUOUS
 62
     2
 10
2966.0
 20
1978.2
 30
1.6
 40
24.0
  1
ＭＣＬＦ８ー　　　　　
 50
0.0
 41
0.833333333
 51
0.0
  7
KANJI60
  0
TEXT
  8
0
  6
CONTINUOUS
 62
     2
 10
2987.2
 20
1700.2
 30
20.5
 40
28.0
  1
全閉屋内形
 50
0.0
 41
0.9
 51
0.0
  7
KANJI36
  0
TEXT
  8
0
  6
CONTINUOUS
 62
     2
 10
2532.0
 20
360.0
 30
0.0
 40
28.0
  1
ＭＣＬＦ８－　　　
 50
0.0
 41
0.793650794
 51
0.0
  7
KANJI55
  0
TEXT
  8
0
  6
CONTINUOUS
 62
     3
 10
2616.5333816
 20
231.999992
 30
17.333333333
 40
40.0
  1
Ａ３００１２３３
 50
0.0
 41
0.8
 51
0.0
  7
KANJI61
  0
LINE
  8
0
  6
CONTINUOUS
 62
     6
 10
2161.333416
 20
126.9333328
 11
2161.333416
 21
565.1999696
  0
LINE
  8
0
  6
CONTINUOUS
 62
     1
 10
2361.333416
 20
459.7333072
 11
2361.333416
 21
565.1999696
  0
LINE
  8
0
  6
CONTINUOUS
 62
     1
 10
2161.333416
 20
565.1999696
 11
3229.0666672
 21
565.1999696
  0
LINE
  8
0
  6
CONTINUOUS
 62
     6
 10
3229.0666672
 20
126.9333328
 11
3229.0666672
 21
565.1999696
  0
TEXT
  8
0
  6
CONTINUOUS
 62
     2
 10
2308.0
 20
799.2
 30
8.208
 40
28.8
  1
２。モートル：全閉自冷かご形３０分定格
 50
0.0
 41
0.857222222
 51
0.0
  7
KANJI62
  0
TEXT
  8
0
  6
CONTINUOUS
 62
     2
 10
2205.0
 20
526.0
 30
2.4
 40
28.0
  1
客　先　名
 50
0.0
 41
0.857142857
 51
0.0
  7
KANJI63
  0
TEXT
  8
0
  6
CONTINUOUS
 62
     2
 10
2205.0
 20
476.0
 30
2.4
 40
28.0
  1
御　用　途
 50
0.0
 41
0.857142857
 51
0.0
  7
KANJI63
  0
LINE
  8
1
  6
CONTINUOUS
 62
     2
 10
1969.0
 20
1430.0
 11
1957.283238419
 21
1413.791437508
  0
LINE
  8
1
  6
CONTINUOUS
 62
     2
 10
1969.0
 20
1430.0
 11
1966.957268067
 21
1410.104592333
  0
LINE
  8
1
  6
CONTINUOUS
 62
     2
 10
1969.0
 20
1430.0
 11
1852.0
 21
1123.0
  0
LINE
  8
1
  6
CONTINUOUS
 62
     2
 10
1852.0
 20
1123.0
 11
1712.0
 21
1123.0
  0
TEXT
  8
1
  6
CONTINUOUS
 62
     3
 10
1712.0
 20
1131.0
 30
4.0
 40
24.0
  1
ＰＦ１／２
 50
0.0
 41
0.9
 51
0.0
  7
KANJI58
  0
TEXT
  8
0
  6
CONTINUOUS
 62
     2
 10
1262.002380412
 20
589.009
 30
2.4
 40
24.0
  1
１０８０
 50
0.0
 41
0.9
 51
0.0
  7
KANJI2
  0
TEXT
  8
0
  6
CONTINUOUS
 62
     2
 10
3223.0
 20
1754.0
 30
2.4
 40
24.0
  1
）
 50
0.0
 41
0.9
 51
0.0
  7
KANJI2
  0
TEXT
  8
0
  6
CONTINUOUS
 62
     2
 10
2943.802380412
 20
1754.009
 30
2.4
 40
24.0
  1
２１６Ｎ　　（　２２
 50
0.0
 41
0.9
 51
0.0
  7
KANJI2
  0
LINE
  8
0
  6
LTYPE2
 62
     2
 10
948.0
 20
1729.0
 11
876.256580424
 21
1729.0
  0
LINE
  8
1
  6
CONTINUOUS
 62
     2
 10
914.0
 20
1732.0
 11
927.269399065
 21
1746.964058556
  0
LINE
  8
1
  6
CONTINUOUS
 62
     2
 10
914.0
 20
1732.0
 11
918.009607405
 21
1751.593954385
  0
LINE
  8
1
  6
CONTINUOUS
 62
     2
 10
914.0
 20
1732.0
 11
1011.0
 21
1926.0
  0
LINE
  8
1
  6
CONTINUOUS
 62
     2
 10
1011.0
 20
1926.0
 11
1151.0
 21
1926.0
  0
TEXT
  8
1
  6
CONTINUOUS
 62
     3
 10
1011.0
 20
1934.0
 30
8.0
 40
24.0
  1
ＰＦ３／４
 50
0.0
 41
0.9
 51
0.0
  7
KANJI64
  0
ENDSEC
  0
EOF
