  0
SECTION
  2
HEADER
  9
$EXTMIN
 10
0.0
 20
0.0
 30
0.0
  9
$EXTMAX
 10
3360.0
 20
2376.0
 30
0.0
  9
$LIMMIN
 10
0.0
 20
0.0
  9
$LIMMAX
 10
3360.0
 20
2376.0
  9
$LTSCALE
 40
1.0
  9
$PDMODE
 70
     0
  0
ENDSEC
  0
SECTION
  2
TABLES
  0
TABLE
  2
LTYPE
 70
     6
  0
LTYPE
  2
CONTINUOUS
 70
    64
  3
Solid line
 72
    65
 73
     0
 40
0.0
  0
LTYPE
  2
LTYPE1
 70
    64
  3
CENTER
 72
    65
 73
     4
 40
120.0
 49
84.0
 49
-12.0
 49
12.0
 49
-12.0
  0
LTYPE
  2
LTYPE2
 70
    64
  3
CENTER
 72
    65
 73
     4
 40
80.0
 49
56.0
 49
-8.0
 49
8.0
 49
-8.0
  0
LTYPE
  2
LTYPE3
 70
    64
  3
HIDDEN
 72
    65
 73
     2
 40
24.0
 49
14.4
 49
-9.6
  0
LTYPE
  2
LTYPE4
 70
    64
  3
PHANTOM
 72
    65
 73
     6
 40
120.0
 49
90.0
 49
-6.0
 49
6.0
 49
-6.0
 49
6.0
 49
-6.0
  0
LTYPE
  2
LTYPE5
 70
    64
  3
CENTER
 72
    65
 73
     4
 40
160.0
 49
112.0
 49
-16.0
 49
16.0
 49
-16.0
  0
ENDTAB
  0
TABLE
  2
LAYER
 70
   128
  0
LAYER
  2
0
 70
     0
 62
     7
  6
CONTINUOUS
  0
LAYER
  2
2
 70
     0
 62
     7
  6
CONTINUOUS
  0
LAYER
  2
3
 70
     0
 62
     7
  6
CONTINUOUS
  0
LAYER
  2
4
 70
     0
 62
     7
  6
CONTINUOUS
  0
LAYER
  2
5
 70
     0
 62
     7
  6
CONTINUOUS
  0
LAYER
  2
6
 70
     0
 62
     7
  6
CONTINUOUS
  0
LAYER
  2
7
 70
     0
 62
     7
  6
CONTINUOUS
  0
LAYER
  2
8
 70
     0
 62
     7
  6
CONTINUOUS
  0
LAYER
  2
9
 70
     0
 62
     7
  6
CONTINUOUS
  0
LAYER
  2
10
 70
     0
 62
     7
  6
CONTINUOUS
  0
LAYER
  2
11
 70
     0
 62
     7
  6
CONTINUOUS
  0
LAYER
  2
12
 70
     0
 62
     7
  6
CONTINUOUS
  0
LAYER
  2
13
 70
     0
 62
     7
  6
CONTINUOUS
  0
LAYER
  2
14
 70
     0
 62
     7
  6
CONTINUOUS
  0
LAYER
  2
15
 70
     0
 62
     7
  6
CONTINUOUS
  0
LAYER
  2
16
 70
     0
 62
     7
  6
CONTINUOUS
  0
LAYER
  2
17
 70
     0
 62
     7
  6
CONTINUOUS
  0
LAYER
  2
18
 70
     0
 62
     7
  6
CONTINUOUS
  0
LAYER
  2
19
 70
     0
 62
     7
  6
CONTINUOUS
  0
LAYER
  2
20
 70
     0
 62
     7
  6
CONTINUOUS
  0
LAYER
  2
21
 70
     0
 62
     7
  6
CONTINUOUS
  0
LAYER
  2
22
 70
     0
 62
     7
  6
CONTINUOUS
  0
LAYER
  2
23
 70
     0
 62
     7
  6
CONTINUOUS
  0
LAYER
  2
24
 70
     0
 62
     7
  6
CONTINUOUS
  0
LAYER
  2
25
 70
     0
 62
     7
  6
CONTINUOUS
  0
LAYER
  2
26
 70
     0
 62
     7
  6
CONTINUOUS
  0
LAYER
  2
27
 70
     0
 62
     7
  6
CONTINUOUS
  0
LAYER
  2
28
 70
     0
 62
     7
  6
CONTINUOUS
  0
LAYER
  2
29
 70
     0
 62
     7
  6
CONTINUOUS
  0
LAYER
  2
30
 70
     0
 62
     7
  6
CONTINUOUS
  0
LAYER
  2
31
 70
     0
 62
     7
  6
CONTINUOUS
  0
LAYER
  2
32
 70
     0
 62
     7
  6
CONTINUOUS
  0
LAYER
  2
33
 70
     0
 62
     7
  6
CONTINUOUS
  0
LAYER
  2
34
 70
     0
 62
     7
  6
CONTINUOUS
  0
LAYER
  2
35
 70
     0
 62
     7
  6
CONTINUOUS
  0
LAYER
  2
36
 70
     0
 62
     7
  6
CONTINUOUS
  0
LAYER
  2
37
 70
     0
 62
     7
  6
CONTINUOUS
  0
LAYER
  2
38
 70
     0
 62
     7
  6
CONTINUOUS
  0
LAYER
  2
39
 70
     0
 62
     7
  6
CONTINUOUS
  0
LAYER
  2
40
 70
     0
 62
     7
  6
CONTINUOUS
  0
LAYER
  2
41
 70
     0
 62
     7
  6
CONTINUOUS
  0
LAYER
  2
42
 70
     0
 62
     7
  6
CONTINUOUS
  0
LAYER
  2
43
 70
     0
 62
     7
  6
CONTINUOUS
  0
LAYER
  2
44
 70
     0
 62
     7
  6
CONTINUOUS
  0
LAYER
  2
45
 70
     0
 62
     7
  6
CONTINUOUS
  0
LAYER
  2
46
 70
     0
 62
     7
  6
CONTINUOUS
  0
LAYER
  2
47
 70
     0
 62
     7
  6
CONTINUOUS
  0
LAYER
  2
48
 70
     0
 62
     7
  6
CONTINUOUS
  0
LAYER
  2
49
 70
     0
 62
     7
  6
CONTINUOUS
  0
LAYER
  2
50
 70
     0
 62
     7
  6
CONTINUOUS
  0
LAYER
  2
51
 70
     0
 62
     7
  6
CONTINUOUS
  0
LAYER
  2
52
 70
     0
 62
     7
  6
CONTINUOUS
  0
LAYER
  2
53
 70
     0
 62
     7
  6
CONTINUOUS
  0
LAYER
  2
54
 70
     0
 62
     7
  6
CONTINUOUS
  0
LAYER
  2
55
 70
     0
 62
     7
  6
CONTINUOUS
  0
LAYER
  2
56
 70
     0
 62
     7
  6
CONTINUOUS
  0
LAYER
  2
57
 70
     0
 62
     7
  6
CONTINUOUS
  0
LAYER
  2
58
 70
     0
 62
     7
  6
CONTINUOUS
  0
LAYER
  2
59
 70
     0
 62
     7
  6
CONTINUOUS
  0
LAYER
  2
60
 70
     0
 62
     7
  6
CONTINUOUS
  0
LAYER
  2
61
 70
     0
 62
     7
  6
CONTINUOUS
  0
LAYER
  2
62
 70
     0
 62
     7
  6
CONTINUOUS
  0
LAYER
  2
63
 70
     0
 62
     7
  6
CONTINUOUS
  0
LAYER
  2
64
 70
     0
 62
     7
  6
CONTINUOUS
  0
LAYER
  2
65
 70
     0
 62
     7
  6
CONTINUOUS
  0
LAYER
  2
66
 70
     0
 62
     7
  6
CONTINUOUS
  0
LAYER
  2
67
 70
     0
 62
     7
  6
CONTINUOUS
  0
LAYER
  2
68
 70
     0
 62
     7
  6
CONTINUOUS
  0
LAYER
  2
69
 70
     0
 62
     7
  6
CONTINUOUS
  0
LAYER
  2
70
 70
     0
 62
     7
  6
CONTINUOUS
  0
LAYER
  2
71
 70
     0
 62
     7
  6
CONTINUOUS
  0
LAYER
  2
72
 70
     0
 62
     7
  6
CONTINUOUS
  0
LAYER
  2
73
 70
     0
 62
     7
  6
CONTINUOUS
  0
LAYER
  2
74
 70
     0
 62
     7
  6
CONTINUOUS
  0
LAYER
  2
75
 70
     0
 62
     7
  6
CONTINUOUS
  0
LAYER
  2
76
 70
     0
 62
     7
  6
CONTINUOUS
  0
LAYER
  2
77
 70
     0
 62
     7
  6
CONTINUOUS
  0
LAYER
  2
78
 70
     0
 62
     7
  6
CONTINUOUS
  0
LAYER
  2
79
 70
     0
 62
     7
  6
CONTINUOUS
  0
LAYER
  2
80
 70
     0
 62
     7
  6
CONTINUOUS
  0
LAYER
  2
81
 70
     0
 62
     7
  6
CONTINUOUS
  0
LAYER
  2
82
 70
     0
 62
     7
  6
CONTINUOUS
  0
LAYER
  2
83
 70
     0
 62
     7
  6
CONTINUOUS
  0
LAYER
  2
84
 70
     0
 62
     7
  6
CONTINUOUS
  0
LAYER
  2
85
 70
     0
 62
     7
  6
CONTINUOUS
  0
LAYER
  2
86
 70
     0
 62
     7
  6
CONTINUOUS
  0
LAYER
  2
87
 70
     0
 62
     7
  6
CONTINUOUS
  0
LAYER
  2
88
 70
     0
 62
     7
  6
CONTINUOUS
  0
LAYER
  2
89
 70
     0
 62
     7
  6
CONTINUOUS
  0
LAYER
  2
90
 70
     0
 62
     7
  6
CONTINUOUS
  0
LAYER
  2
91
 70
     0
 62
     7
  6
CONTINUOUS
  0
LAYER
  2
92
 70
     0
 62
     7
  6
CONTINUOUS
  0
LAYER
  2
93
 70
     0
 62
     7
  6
CONTINUOUS
  0
LAYER
  2
94
 70
     0
 62
     7
  6
CONTINUOUS
  0
LAYER
  2
95
 70
     0
 62
     7
  6
CONTINUOUS
  0
LAYER
  2
96
 70
     0
 62
     7
  6
CONTINUOUS
  0
LAYER
  2
97
 70
     0
 62
     7
  6
CONTINUOUS
  0
LAYER
  2
98
 70
     0
 62
     7
  6
CONTINUOUS
  0
LAYER
  2
99
 70
     0
 62
     7
  6
CONTINUOUS
  0
LAYER
  2
100
 70
     0
 62
     7
  6
CONTINUOUS
  0
LAYER
  2
101
 70
     0
 62
     7
  6
CONTINUOUS
  0
LAYER
  2
102
 70
     0
 62
     7
  6
CONTINUOUS
  0
LAYER
  2
103
 70
     0
 62
     7
  6
CONTINUOUS
  0
LAYER
  2
104
 70
     0
 62
     7
  6
CONTINUOUS
  0
LAYER
  2
105
 70
     0
 62
     7
  6
CONTINUOUS
  0
LAYER
  2
106
 70
     0
 62
     7
  6
CONTINUOUS
  0
LAYER
  2
107
 70
     0
 62
     7
  6
CONTINUOUS
  0
LAYER
  2
108
 70
     0
 62
     7
  6
CONTINUOUS
  0
LAYER
  2
109
 70
     0
 62
     7
  6
CONTINUOUS
  0
LAYER
  2
110
 70
     0
 62
     7
  6
CONTINUOUS
  0
LAYER
  2
111
 70
     0
 62
     7
  6
CONTINUOUS
  0
LAYER
  2
112
 70
     0
 62
     7
  6
CONTINUOUS
  0
LAYER
  2
113
 70
     0
 62
     7
  6
CONTINUOUS
  0
LAYER
  2
114
 70
     0
 62
     7
  6
CONTINUOUS
  0
LAYER
  2
115
 70
     0
 62
     7
  6
CONTINUOUS
  0
LAYER
  2
116
 70
     0
 62
     7
  6
CONTINUOUS
  0
LAYER
  2
117
 70
     0
 62
     7
  6
CONTINUOUS
  0
LAYER
  2
118
 70
     0
 62
     7
  6
CONTINUOUS
  0
LAYER
  2
119
 70
     0
 62
     7
  6
CONTINUOUS
  0
LAYER
  2
120
 70
     0
 62
     7
  6
CONTINUOUS
  0
LAYER
  2
121
 70
     0
 62
     7
  6
CONTINUOUS
  0
LAYER
  2
122
 70
     0
 62
     7
  6
CONTINUOUS
  0
LAYER
  2
123
 70
     0
 62
     7
  6
CONTINUOUS
  0
LAYER
  2
124
 70
     0
 62
     7
  6
CONTINUOUS
  0
LAYER
  2
125
 70
     0
 62
     7
  6
CONTINUOUS
  0
LAYER
  2
126
 70
     0
 62
     7
  6
CONTINUOUS
  0
LAYER
  2
127
 70
     0
 62
     7
  6
CONTINUOUS
  0
LAYER
  2
128
 70
     0
 62
     7
  6
CONTINUOUS
  0
ENDTAB
  0
TABLE
  2
STYLE
 70
    68
  0
STYLE
  2
STANDARD
 70
     0
 40
0.0
 41
1.0
 50
0.0
 71
     0
 42
0.2
  3
txt
  4

  0
STYLE
  2
KANJI0
 70
     0
 40
24.0
 41
0.9
 50
0.0
 71
     0
 42
24.0
  3

  4
bigfont
  0
STYLE
  2
KANJI1
 70
     0
 40
24.0
 41
0.9
 50
0.0
 71
     0
 42
24.0
  3

  4
bigfont
  0
STYLE
  2
KANJI2
 70
     0
 40
36.0
 41
0.9
 50
0.0
 71
     0
 42
36.0
  3

  4
bigfont
  0
STYLE
  2
KANJI3
 70
     4
 40
28.0
 41
0.9
 50
0.0
 71
     0
 42
28.0
  3

  4
bigfont
  0
STYLE
  2
KANJI4
 70
     4
 40
24.0
 41
0.9
 50
0.0
 71
     0
 42
24.0
  3

  4
bigfont
  0
STYLE
  2
KANJI5
 70
     0
 40
28.0
 41
0.9
 50
0.0
 71
     0
 42
28.0
  3

  4
bigfont
  0
STYLE
  2
KANJI6
 70
     0
 40
24.0
 41
0.9
 50
0.0
 71
     0
 42
24.0
  3

  4
bigfont
  0
STYLE
  2
KANJI7
 70
     0
 40
24.0
 41
0.857142857
 50
0.0
 71
     0
 42
24.0
  3

  4
bigfont
  0
STYLE
  2
KANJI8
 70
     0
 40
28.0
 41
0.9
 50
0.0
 71
     0
 42
28.0
  3

  4
bigfont
  0
STYLE
  2
KANJI9
 70
     0
 40
22.4
 41
0.9
 50
0.0
 71
     0
 42
22.4
  3

  4
bigfont
  0
STYLE
  2
KANJI10
 70
     0
 40
22.4
 41
0.785714286
 50
0.0
 71
     0
 42
22.4
  3

  4
bigfont
  0
STYLE
  2
KANJI11
 70
     0
 40
22.4
 41
0.8
 50
0.0
 71
     0
 42
22.4
  3

  4
bigfont
  0
STYLE
  2
KANJI12
 70
     0
 40
24.0
 41
0.8
 50
0.0
 71
     0
 42
24.0
  3

  4
bigfont
  0
STYLE
  2
KANJI13
 70
     0
 40
24.0
 41
0.9
 50
0.0
 71
     0
 42
24.0
  3

  4
bigfont
  0
STYLE
  2
KANJI14
 70
     0
 40
19.2
 41
0.777777778
 50
0.0
 71
     0
 42
19.2
  3

  4
bigfont
  0
STYLE
  2
KANJI15
 70
     0
 40
25.6
 41
0.9
 50
0.0
 71
     0
 42
25.6
  3

  4
bigfont
  0
STYLE
  2
KANJI16
 70
     0
 40
30.4
 41
0.9
 50
0.0
 71
     0
 42
30.4
  3

  4
bigfont
  0
STYLE
  2
KANJI17
 70
     0
 40
30.4
 41
0.9
 50
0.0
 71
     0
 42
30.4
  3

  4
bigfont
  0
STYLE
  2
KANJI18
 70
     0
 40
30.4
 41
0.9
 50
0.0
 71
     0
 42
30.4
  3

  4
bigfont
  0
STYLE
  2
KANJI19
 70
     0
 40
30.4
 41
0.9
 50
0.0
 71
     0
 42
30.4
  3

  4
bigfont
  0
STYLE
  2
KANJI20
 70
     0
 40
30.4
 41
0.9
 50
0.0
 71
     0
 42
30.4
  3

  4
bigfont
  0
STYLE
  2
KANJI21
 70
     0
 40
30.4
 41
0.9
 50
0.0
 71
     0
 42
30.4
  3

  4
bigfont
  0
STYLE
  2
KANJI22
 70
     0
 40
30.4
 41
0.9
 50
0.0
 71
     0
 42
30.4
  3

  4
bigfont
  0
STYLE
  2
KANJI23
 70
     0
 40
30.4
 41
0.9
 50
0.0
 71
     0
 42
30.4
  3

  4
bigfont
  0
STYLE
  2
KANJI24
 70
     0
 40
30.4
 41
0.9
 50
0.0
 71
     0
 42
30.4
  3

  4
bigfont
  0
STYLE
  2
KANJI25
 70
     0
 40
30.4
 41
0.9
 50
0.0
 71
     0
 42
30.4
  3

  4
bigfont
  0
STYLE
  2
KANJI26
 70
     0
 40
22.4
 41
0.8
 50
0.0
 71
     0
 42
22.4
  3

  4
bigfont
  0
STYLE
  2
KANJI27
 70
     0
 40
32.0
 41
0.9
 50
0.0
 71
     0
 42
32.0
  3

  4
bigfont
  0
STYLE
  2
KANJI28
 70
     0
 40
28.8
 41
0.857142857
 50
0.0
 71
     0
 42
28.8
  3

  4
bigfont
  0
STYLE
  2
KANJI29
 70
     0
 40
28.0
 41
0.9
 50
0.0
 71
     0
 42
28.0
  3

  4
bigfont
  0
STYLE
  2
KANJI30
 70
     0
 40
24.0
 41
0.9
 50
0.0
 71
     0
 42
24.0
  3

  4
bigfont
  0
STYLE
  2
KANJI31
 70
     0
 40
15.999996636
 41
0.6
 50
0.0
 71
     0
 42
15.999996636
  3

  4
bigfont
  0
STYLE
  2
KANJI32
 70
     0
 40
19.199995963
 41
0.9
 50
0.0
 71
     0
 42
19.199995963
  3

  4
bigfont
  0
STYLE
  2
KANJI33
 70
     0
 40
20.7999984
 41
0.9
 50
0.0
 71
     0
 42
20.7999984
  3

  4
bigfont
  0
STYLE
  2
KANJI34
 70
     0
 40
13.8666656
 41
0.75
 50
0.0
 71
     0
 42
13.8666656
  3

  4
bigfont
  0
STYLE
  2
KANJI35
 70
     0
 40
20.7999984
 41
0.75
 50
0.0
 71
     0
 42
20.7999984
  3

  4
bigfont
  0
STYLE
  2
KANJI36
 70
     0
 40
12.47999904
 41
0.75
 50
0.0
 71
     0
 42
12.47999904
  3

  4
bigfont
  0
STYLE
  2
KANJI37
 70
     0
 40
13.8666656
 41
0.6
 50
0.0
 71
     0
 42
13.8666656
  3

  4
bigfont
  0
STYLE
  2
KANJI38
 70
     0
 40
16.63999872
 41
0.6
 50
0.0
 71
     0
 42
16.63999872
  3

  4
bigfont
  0
STYLE
  2
KANJI39
 70
     0
 40
13.8666656
 41
0.8
 50
0.0
 71
     0
 42
13.8666656
  3

  4
bigfont
  0
STYLE
  2
KANJI40
 70
     0
 40
16.63999872
 41
0.8
 50
0.0
 71
     0
 42
16.63999872
  3

  4
bigfont
  0
STYLE
  2
KANJI41
 70
     0
 40
69.333328
 41
0.9
 50
0.0
 71
     0
 42
69.333328
  3

  4
bigfont
  0
STYLE
  2
KANJI42
 70
     0
 40
23.999994954
 41
0.9
 50
0.0
 71
     0
 42
23.999994954
  3

  4
bigfont
  0
STYLE
  2
KANJI43
 70
     0
 40
24.2666648
 41
0.42031746
 50
0.0
 71
     0
 42
24.2666648
  3

  4
bigfont
  0
STYLE
  2
KANJI44
 70
     0
 40
41.5999968
 41
0.9
 50
0.0
 71
     0
 42
41.5999968
  3

  4
bigfont
  0
STYLE
  2
KANJI45
 70
     0
 40
28.8
 41
0.857222222
 50
0.0
 71
     0
 42
28.8
  3

  4
bigfont
  0
STYLE
  2
KANJI46
 70
     0
 40
36.0
 41
0.666666667
 50
0.0
 71
     0
 42
36.0
  3

  4
bigfont
  0
STYLE
  2
KANJI47
 70
     0
 40
40.0
 41
1.0
 50
0.0
 71
     0
 42
40.0
  3

  4
bigfont
  0
STYLE
  2
KANJI48
 70
     0
 40
40.0
 41
1.0
 50
0.0
 71
     0
 42
40.0
  3

  4
bigfont
  0
STYLE
  2
KANJI49
 70
     0
 40
24.0
 41
0.833333333
 50
0.0
 71
     0
 42
24.0
  3

  4
bigfont
  0
STYLE
  2
KANJI50
 70
     0
 40
40.0
 41
0.8
 50
0.0
 71
     0
 42
40.0
  3

  4
bigfont
  0
STYLE
  2
KANJI51
 70
     0
 40
27.9993
 41
0.9
 50
0.0
 71
     0
 42
27.9993
  3

  4
bigfont
  0
STYLE
  2
KANJI52
 70
     0
 40
23.9994
 41
0.9
 50
0.0
 71
     0
 42
23.9994
  3

  4
bigfont
  0
STYLE
  2
KANJI53
 70
     0
 40
28.0
 41
0.914285714
 50
0.0
 71
     0
 42
28.0
  3

  4
bigfont
  0
STYLE
  2
KANJI54
 70
     0
 40
28.0
 41
0.793650794
 50
0.0
 71
     0
 42
28.0
  3

  4
bigfont
  0
STYLE
  2
KANJI55
 70
     0
 40
28.0
 41
0.9
 50
0.0
 71
     0
 42
28.0
  3

  4
bigfont
  0
STYLE
  2
KANJI56
 70
     0
 40
32.0
 41
0.75
 50
0.0
 71
     0
 42
32.0
  3

  4
bigfont
  0
STYLE
  2
KANJI57
 70
     0
 40
28.0
 41
0.771428571
 50
0.0
 71
     0
 42
28.0
  3

  4
bigfont
  0
STYLE
  2
KANJI58
 70
     0
 40
28.8
 41
0.833333333
 50
0.0
 71
     0
 42
28.8
  3

  4
bigfont
  0
STYLE
  2
KANJI59
 70
     0
 40
20.7999984
 41
0.75
 50
0.0
 71
     0
 42
20.7999984
  3

  4
bigfont
  0
STYLE
  2
KANJI60
 70
     0
 40
24.0
 41
0.9
 50
0.0
 71
     0
 42
24.0
  3

  4
bigfont
  0
STYLE
  2
KANJI61
 70
     0
 40
28.0
 41
0.571428571
 50
0.0
 71
     0
 42
28.0
  3

  4
bigfont
  0
STYLE
  2
KANJI62
 70
     0
 40
25.6
 41
0.9375
 50
0.0
 71
     0
 42
25.6
  3

  4
bigfont
  0
STYLE
  2
KANJI63
 70
     0
 40
24.0
 41
0.5
 50
0.0
 71
     0
 42
24.0
  3

  4
bigfont
  0
STYLE
  2
KANJI64
 70
     0
 40
24.0
 41
0.9
 50
0.0
 71
     0
 42
24.0
  3

  4
bigfont
  0
STYLE
  2
KANJI65
 70
     0
 40
24.0
 41
0.9
 50
0.0
 71
     0
 42
24.0
  3

  4
bigfont
  0
STYLE
  2
KANJI66
 70
     0
 40
11.313708499
 41
1.0
 50
0.0
 71
     0
 42
11.313708499
  3

  4
bigfont
  0
ENDTAB
  0
TABLE
  2
VIEW
 70
     0
  0
ENDTAB
  0
ENDSEC
  0
SECTION
  2
BLOCKS
  0
ENDSEC
  0
SECTION
  2
ENTITIES
  0
LINE
  8
0
  6
CONTINUOUS
 62
     1
 10
640.0
 20
720.0
 11
1880.0
 21
720.0
  0
LINE
  8
0
  6
CONTINUOUS
 62
     1
 10
640.0
 20
664.0
 11
1880.0
 21
664.0
  0
LINE
  8
0
  6
CONTINUOUS
 62
     1
 10
1880.0
 20
720.0
 11
1880.0
 21
328.0
  0
LINE
  8
0
  6
CONTINUOUS
 62
     1
 10
640.0
 20
328.0
 11
1880.0
 21
328.0
  0
LINE
  8
0
  6
CONTINUOUS
 62
     1
 10
640.0
 20
720.0
 11
640.0
 21
328.0
  0
LINE
  8
0
  6
CONTINUOUS
 62
     1
 10
920.0
 20
720.0
 11
920.0
 21
328.0
  0
LINE
  8
0
  6
CONTINUOUS
 62
     2
 10
1080.0
 20
720.0
 11
1080.0
 21
328.0
  0
LINE
  8
0
  6
CONTINUOUS
 62
     2
 10
1240.0
 20
720.0
 11
1240.0
 21
328.0
  0
LINE
  8
0
  6
CONTINUOUS
 62
     2
 10
1400.0
 20
720.0
 11
1400.0
 21
328.0
  0
LINE
  8
0
  6
CONTINUOUS
 62
     2
 10
1560.0
 20
720.0
 11
1560.0
 21
328.0
  0
LINE
  8
0
  6
CONTINUOUS
 62
     2
 10
1720.0
 20
720.0
 11
1720.0
 21
328.0
  0
LINE
  8
0
  6
CONTINUOUS
 62
     2
 10
640.0
 20
384.0
 11
1880.0
 21
384.0
  0
LINE
  8
0
  6
CONTINUOUS
 62
     2
 10
640.0
 20
608.0
 11
1880.0
 21
608.0
  0
LINE
  8
0
  6
CONTINUOUS
 62
     2
 10
640.0
 20
552.0
 11
1880.0
 21
552.0
  0
LINE
  8
0
  6
CONTINUOUS
 62
     2
 10
640.0
 20
496.0
 11
1880.0
 21
496.0
  0
LINE
  8
0
  6
CONTINUOUS
 62
     2
 10
640.0
 20
440.0
 11
1880.0
 21
440.0
  0
CIRCLE
  8
0
  6
CONTINUOUS
 62
     1
 10
665.0
 20
1300.0
 40
22.5
  0
CIRCLE
  8
0
  6
CONTINUOUS
 62
     1
 10
665.0
 20
1300.0
 40
45.0
  0
CIRCLE
  8
0
  6
CONTINUOUS
 62
     1
 10
665.0
 20
1300.0
 40
55.0
  0
LINE
  8
0
  6
CONTINUOUS
 62
     1
 10
630.0
 20
1400.0
 11
653.0
 21
1381.5
  0
LINE
  8
0
  6
CONTINUOUS
 62
     1
 10
630.0
 20
1346.5
 11
630.0
 21
1400.0
  0
LINE
  8
0
  6
CONTINUOUS
 62
     1
 10
653.0
 20
1356.5
 11
653.0
 21
1381.5
  0
LINE
  8
0
  6
CONTINUOUS
 62
     1
 10
595.0
 20
1200.0
 11
630.0
 21
1200.0
  0
LINE
  8
0
  6
CONTINUOUS
 62
     1
 10
630.0
 20
1200.0
 11
653.0
 21
1218.5
  0
LINE
  8
0
  6
CONTINUOUS
 62
     1
 10
630.0
 20
1253.5
 11
630.0
 21
1200.0
  0
LINE
  8
0
  6
CONTINUOUS
 62
     1
 10
653.0
 20
1243.5
 11
653.0
 21
1218.5
  0
LINE
  8
0
  6
CONTINUOUS
 62
     1
 10
855.0
 20
1200.0
 11
825.0
 21
1218.5
  0
LINE
  8
0
  6
CONTINUOUS
 62
     1
 10
653.0
 20
1218.5
 11
825.0
 21
1218.5
  0
LINE
  8
0
  6
CONTINUOUS
 62
     1
 10
855.0
 20
1200.0
 11
895.0
 21
1200.0
  0
LINE
  8
0
  6
CONTINUOUS
 62
     1
 10
825.0
 20
1300.0
 11
825.0
 21
1218.5
  0
LINE
  8
0
  6
LTYPE1
 62
     2
 10
665.0
 20
1230.398877817
 11
665.0
 21
1367.366558854
  0
LINE
  8
0
  6
CONTINUOUS
 62
     1
 10
1354.149691586
 20
1371.691148475
 11
1359.725406547
 21
1392.5
  0
LINE
  8
0
  6
CONTINUOUS
 62
     1
 10
1359.725406547
 20
1392.5
 11
1365.084390396
 21
1372.5
  0
LINE
  8
0
  6
CONTINUOUS
 62
     1
 10
1339.149691586
 20
1371.591148475
 11
1354.149691586
 21
1371.591148475
  0
LINE
  8
0
  6
CONTINUOUS
 62
     1
 10
1342.957868375
 20
1371.679113682
 11
1342.957868375
 21
1372.879113682
  0
POINT
  8
0
  6
CONTINUOUS
 62
     1
 10
1342.957868375
 20
1372.879113682
  0
LINE
  8
0
  6
CONTINUOUS
 62
     1
 10
1342.957868375
 20
1372.879113682
 11
1350.857868375
 21
1372.879113682
  0
POINT
  8
0
  6
CONTINUOUS
 62
     1
 10
1350.857868375
 20
1372.879113682
  0
LINE
  8
0
  6
CONTINUOUS
 62
     1
 10
1350.857868375
 20
1372.879113682
 11
1350.857868375
 21
1371.979113682
  0
LINE
  8
0
  6
CONTINUOUS
 62
     1
 10
1433.0
 20
1300.0
 11
1433.0
 21
1230.0
  0
LINE
  8
0
  6
CONTINUOUS
 62
     1
 10
895.0
 20
1300.0
 11
895.0
 21
1200.0
  0
LINE
  8
0
  6
CONTINUOUS
 62
     1
 10
1354.149691586
 20
1228.308851525
 11
1359.725406547
 21
1207.5
  0
LINE
  8
0
  6
CONTINUOUS
 62
     1
 10
1359.725406547
 20
1207.5
 11
1365.084390396
 21
1227.5
  0
LINE
  8
0
  6
CONTINUOUS
 62
     1
 10
1339.149691586
 20
1228.408851525
 11
1354.149691586
 21
1228.408851525
  0
LINE
  8
0
  6
CONTINUOUS
 62
     1
 10
1342.957868375
 20
1228.320886318
 11
1342.957868375
 21
1227.120886318
  0
POINT
  8
0
  6
CONTINUOUS
 62
     1
 10
1342.957868375
 20
1227.120886318
  0
LINE
  8
0
  6
CONTINUOUS
 62
     1
 10
1342.957868375
 20
1227.120886318
 11
1350.857868375
 21
1227.120886318
  0
POINT
  8
0
  6
CONTINUOUS
 62
     1
 10
1350.857868375
 20
1227.120886318
  0
LINE
  8
0
  6
CONTINUOUS
 62
     1
 10
1350.857868375
 20
1227.120886318
 11
1350.857868375
 21
1228.020886318
  0
CIRCLE
  8
0
  6
CONTINUOUS
 62
     1
 10
1133.3
 20
1300.0
 40
19.5
  0
LINE
  8
0
  6
CONTINUOUS
 62
     1
 10
1113.3
 20
1320.0
 11
1153.3
 21
1320.0
  0
LINE
  8
0
  6
CONTINUOUS
 62
     1
 10
1153.3
 20
1280.0
 11
1153.3
 21
1320.0
  0
LINE
  8
0
  6
CONTINUOUS
 62
     1
 10
1113.3
 20
1280.0
 11
1153.3
 21
1280.0
  0
LINE
  8
0
  6
CONTINUOUS
 62
     1
 10
1113.3
 20
1280.0
 11
1113.3
 21
1320.0
  0
LINE
  8
0
  6
LTYPE2
 62
     2
 10
1133.3
 20
1274.9
 11
1133.3
 21
1324.8
  0
LINE
  8
0
  6
CONTINUOUS
 62
     1
 10
1342.957868375
 20
1370.0
 11
1342.957868375
 21
1300.0
  0
LINE
  8
0
  6
CONTINUOUS
 62
     1
 10
1354.149691586
 20
1371.691148475
 11
1354.149691586
 21
1300.0
  0
LINE
  8
0
  6
CONTINUOUS
 62
     1
 10
1350.857868375
 20
1371.979113682
 11
1350.857868375
 21
1300.0
  0
LINE
  8
0
  6
CONTINUOUS
 62
     1
 10
1359.725406547
 20
1392.5
 11
1359.725406547
 21
1300.0
  0
LINE
  8
0
  6
CONTINUOUS
 62
     1
 10
1365.754263377
 20
1370.0
 11
1365.754263377
 21
1300.0
  0
LINE
  8
0
  6
CONTINUOUS
 62
     1
 10
1398.0
 20
1300.0
 11
1398.0
 21
1230.0
  0
LINE
  8
0
  6
LTYPE1
 62
     2
 10
473.0
 20
1195.0
 11
416.0
 21
1195.0
  0
LINE
  8
0
  6
CONTINUOUS
 62
     1
 10
440.0
 20
1195.0
 11
440.0
 21
1184.05046
  0
LINE
  8
0
  6
CONTINUOUS
 62
     1
 10
440.0
 20
1195.0
 11
440.0
 21
1205.94954
  0
LINE
  8
0
  6
CONTINUOUS
 62
     1
 10
431.9789
 20
1186.73198
 11
433.527076294
 21
1184.05046
  0
LINE
  8
0
  6
CONTINUOUS
 62
     1
 10
431.9789
 20
1195.0
 11
431.9789
 21
1186.73198
  0
LINE
  8
0
  6
CONTINUOUS
 62
     1
 10
431.9789
 20
1203.26802
 11
433.527076294
 21
1205.94954
  0
LINE
  8
0
  6
CONTINUOUS
 62
     1
 10
431.9789
 20
1195.0
 11
431.9789
 21
1203.26802
  0
ARC
  8
0
  6
CONTINUOUS
 62
     1
 10
442.433121693
 20
1195.0
 40
10.454221693
 50
148.419912243
 51
211.580087757
  0
ARC
  8
0
  6
CONTINUOUS
 62
     1
 10
435.172013606
 20
1186.787845
 40
3.193602261
 50
121.002313915
 51
182.989498403
  0
LINE
  8
0
  6
CONTINUOUS
 62
     1
 10
431.9789
 20
1203.26802
 11
433.527076294
 21
1205.94954
  0
ARC
  8
0
  6
CONTINUOUS
 62
     1
 10
435.172013606
 20
1203.212155
 40
3.193602261
 50
177.010501597
 51
238.997686085
  0
LINE
  8
0
  6
CONTINUOUS
 62
     1
 10
440.0
 20
1184.05046
 11
433.527076294
 21
1184.05046
  0
LINE
  8
0
  6
CONTINUOUS
 62
     1
 10
440.0
 20
1189.52523
 11
433.527076294
 21
1189.52523
  0
LINE
  8
0
  6
CONTINUOUS
 62
     1
 10
440.0
 20
1200.47477
 11
433.527076294
 21
1200.47477
  0
LINE
  8
0
  6
CONTINUOUS
 62
     1
 10
440.0
 20
1205.94954
 11
433.527076294
 21
1205.94954
  0
LINE
  8
6
  6
CONTINUOUS
 62
     2
 10
665.0
 20
1218.398877817
 11
665.0
 21
1026.0
  0
LINE
  8
6
  6
CONTINUOUS
 62
     2
 10
665.0
 20
1038.0
 11
684.318516526
 21
1032.823619098
  0
LINE
  8
6
  6
CONTINUOUS
 62
     2
 10
665.0
 20
1038.0
 11
684.318516526
 21
1043.176380902
  0
LINE
  8
6
  6
CONTINUOUS
 62
     2
 10
665.0
 20
1038.0
 11
1433.0
 21
1038.0
  0
LINE
  8
6
  6
CONTINUOUS
 62
     2
 10
1433.0
 20
1038.0
 11
1413.681483474
 21
1043.176380902
  0
LINE
  8
6
  6
CONTINUOUS
 62
     2
 10
1433.0
 20
1038.0
 11
1413.681483474
 21
1032.823619098
  0
LINE
  8
6
  6
CONTINUOUS
 62
     2
 10
1433.0
 20
1218.0
 11
1433.0
 21
1026.0
  0
TEXT
  8
6
  6
CONTINUOUS
 62
     2
 10
1038.2
 20
1046.0
 30
2.4
 40
24.0
  1
Ｃ
 50
0.0
 41
0.9
 51
0.0
  7
KANJI0
  0
LINE
  8
6
  6
CONTINUOUS
 62
     2
 10
1433.0
 20
1038.0
 11
1483.000190206
 21
1038.0
  0
TEXT
  8
6
  6
CONTINUOUS
 62
     2
 10
1399.200095103
 20
991.0
 30
2.4
 40
24.0
  1
ｍｉｎ．Ｐ
 50
0.0
 41
0.9
 51
0.0
  7
KANJI0
  0
LINE
  8
6
  6
CONTINUOUS
 62
     2
 10
1080.0
 20
1230.0
 11
1085.176380902
 21
1249.318516526
  0
LINE
  8
6
  6
CONTINUOUS
 62
     2
 10
1080.0
 20
1230.0
 11
1074.823619098
 21
1249.318516526
  0
LINE
  8
6
  6
CONTINUOUS
 62
     2
 10
1080.0
 20
1230.0
 11
1080.0
 21
1370.0
  0
LINE
  8
6
  6
CONTINUOUS
 62
     2
 10
1080.0
 20
1370.0
 11
1074.823619098
 21
1350.681483474
  0
LINE
  8
6
  6
CONTINUOUS
 62
     2
 10
1080.0
 20
1370.0
 11
1085.176380902
 21
1350.681483474
  0
TEXT
  8
6
  6
CONTINUOUS
 62
     2
 10
1072.0
 20
1253.2
 30
2.4
 40
24.0
  1
φ１４０
 50
90.0
 41
0.9
 51
0.0
  7
KANJI0
  0
LINE
  8
6
  6
CONTINUOUS
 62
     2
 10
1400.0
 20
1392.5
 11
1399.5
 21
1392.5
  0
LINE
  8
0
  6
LTYPE1
 62
     2
 10
1583.000190206
 20
1134.0
 11
1583.000190206
 21
1354.5
  0
LINE
  8
0
  6
LTYPE1
 62
     2
 10
1636.0
 20
1300.0
 11
416.0
 21
1300.0
  0
LINE
  8
0
  6
CONTINUOUS
 62
     1
 10
1483.0
 20
1347.5
 11
1623.000190206
 21
1347.5
  0
LINE
  8
0
  6
CONTINUOUS
 62
     1
 10
1623.000190206
 20
1347.5
 11
1633.000190206
 21
1337.5
  0
LINE
  8
0
  6
CONTINUOUS
 62
     1
 10
1483.0
 20
1252.5
 11
1623.000190206
 21
1252.5
  0
LINE
  8
0
  6
CONTINUOUS
 62
     1
 10
1633.000190206
 20
1262.5
 11
1633.000190206
 21
1337.5
  0
LINE
  8
0
  6
CONTINUOUS
 62
     1
 10
1623.000190206
 20
1252.5
 11
1633.000190206
 21
1262.5
  0
CIRCLE
  8
0
  6
CONTINUOUS
 62
     1
 10
1583.000190206
 20
1300.0
 40
22.5
  0
LINE
  8
6
  6
CONTINUOUS
 62
     2
 10
1483.000190206
 20
1038.0
 11
1502.318706732
 21
1032.823619098
  0
LINE
  8
6
  6
CONTINUOUS
 62
     2
 10
1483.000190206
 20
1038.0
 11
1502.318706732
 21
1043.176380902
  0
LINE
  8
6
  6
CONTINUOUS
 62
     2
 10
1483.000190206
 20
1038.0
 11
1583.000190206
 21
1038.0
  0
LINE
  8
6
  6
CONTINUOUS
 62
     2
 10
1583.000190206
 20
1038.0
 11
1563.68167368
 21
1043.176380902
  0
LINE
  8
6
  6
CONTINUOUS
 62
     2
 10
1583.000190206
 20
1038.0
 11
1563.68167368
 21
1032.823619098
  0
LINE
  8
6
  6
CONTINUOUS
 62
     2
 10
1583.000190206
 20
1122.0
 11
1583.000190206
 21
1026.0
  0
TEXT
  8
6
  6
CONTINUOUS
 62
     2
 10
1498.200190206
 20
1046.0
 30
2.4
 40
24.0
  1
１００
 50
0.0
 41
0.9
 51
0.0
  7
KANJI0
  0
LINE
  8
0
  6
CONTINUOUS
 62
     1
 10
1623.000190206
 20
1347.5
 11
1623.000190206
 21
1340.388736054
  0
LINE
  8
0
  6
CONTINUOUS
 62
     1
 10
1623.000190206
 20
1340.388736054
 11
1633.000190206
 21
1327.747752752
  0
LINE
  8
0
  6
CONTINUOUS
 62
     1
 10
1623.000190206
 20
1340.388736054
 11
1493.0
 21
1340.388736054
  0
LINE
  8
0
  6
CONTINUOUS
 62
     1
 10
1623.000190206
 20
1252.5
 11
1623.000190206
 21
1259.611263946
  0
LINE
  8
0
  6
CONTINUOUS
 62
     1
 10
1623.000190206
 20
1259.611263946
 11
1633.000190206
 21
1272.252247248
  0
LINE
  8
0
  6
CONTINUOUS
 62
     1
 10
1623.000190206
 20
1259.611263946
 11
1493.0
 21
1259.611263946
  0
LINE
  8
0
  6
CONTINUOUS
 62
     1
 10
1493.0
 20
1340.388736054
 11
1493.0
 21
1259.611263946
  0
LINE
  8
6
  6
CONTINUOUS
 62
     2
 10
665.0
 20
1026.0
 11
665.0
 21
966.5
  0
LINE
  8
6
  6
CONTINUOUS
 62
     2
 10
665.0
 20
978.5
 11
645.681483474
 21
983.676380902
  0
LINE
  8
6
  6
CONTINUOUS
 62
     2
 10
665.0
 20
978.5
 11
645.681483474
 21
973.323619098
  0
LINE
  8
6
  6
CONTINUOUS
 62
     2
 10
665.0
 20
978.5
 11
440.0
 21
978.5
  0
LINE
  8
6
  6
CONTINUOUS
 62
     2
 10
440.0
 20
978.5
 11
459.318516526
 21
973.323619098
  0
LINE
  8
6
  6
CONTINUOUS
 62
     2
 10
440.0
 20
978.5
 11
459.318516526
 21
983.676380902
  0
TEXT
  8
6
  6
CONTINUOUS
 62
     2
 10
517.7
 20
986.5
 30
2.4
 40
24.0
  1
２２５
 50
0.0
 41
0.9
 51
0.0
  7
KANJI0
  0
LINE
  8
6
  6
CONTINUOUS
 62
     2
 10
665.0
 20
978.5
 11
684.318516526
 21
973.323619098
  0
LINE
  8
6
  6
CONTINUOUS
 62
     2
 10
665.0
 20
978.5
 11
684.318516526
 21
983.676380902
  0
LINE
  8
6
  6
CONTINUOUS
 62
     2
 10
665.0
 20
978.5
 11
1583.000190206
 21
978.5
  0
LINE
  8
6
  6
CONTINUOUS
 62
     2
 10
1583.000190206
 20
978.5
 11
1563.68167368
 21
983.676380902
  0
LINE
  8
6
  6
CONTINUOUS
 62
     2
 10
1583.000190206
 20
978.5
 11
1563.68167368
 21
973.323619098
  0
LINE
  8
6
  6
CONTINUOUS
 62
     2
 10
1583.000190206
 20
1026.0
 11
1583.000190206
 21
966.5
  0
TEXT
  8
6
  6
CONTINUOUS
 62
     2
 10
1065.200095103
 20
986.5
 30
2.4
 40
24.0
  1
ｍｉｎ．Ｌ
 50
0.0
 41
0.9
 51
0.0
  7
KANJI0
  0
LINE
  8
6
  6
CONTINUOUS
 62
     2
 10
1583.000190206
 20
921.0
 11
1563.68167368
 21
926.176380902
  0
LINE
  8
6
  6
CONTINUOUS
 62
     2
 10
1583.000190206
 20
921.0
 11
1563.68167368
 21
915.823619098
  0
LINE
  8
6
  6
CONTINUOUS
 62
     2
 10
1583.000190206
 20
966.5
 11
1583.000190206
 21
909.0
  0
TEXT
  8
6
  6
CONTINUOUS
 62
     2
 10
940.700095103
 20
929.0
 30
2.4
 40
24.0
  1
ｍｉｎ．ＡＬ
 50
0.0
 41
0.9
 51
0.0
  7
KANJI0
  0
LINE
  8
6
  6
CONTINUOUS
 62
     2
 10
1583.000190206
 20
921.0
 11
1602.318706732
 21
915.823619098
  0
LINE
  8
6
  6
CONTINUOUS
 62
     2
 10
1583.000190206
 20
921.0
 11
1602.318706732
 21
926.176380902
  0
LINE
  8
6
  6
CONTINUOUS
 62
     2
 10
1583.000190206
 20
921.0
 11
1633.000190206
 21
921.0
  0
LINE
  8
6
  6
CONTINUOUS
 62
     2
 10
1633.000190206
 20
921.0
 11
1613.68167368
 21
926.176380902
  0
LINE
  8
6
  6
CONTINUOUS
 62
     2
 10
1633.000190206
 20
921.0
 11
1613.68167368
 21
915.823619098
  0
LINE
  8
6
  6
CONTINUOUS
 62
     2
 10
1633.000190206
 20
1250.5
 11
1633.000190206
 21
909.0
  0
TEXT
  8
6
  6
CONTINUOUS
 62
     2
 10
1585.200190206
 20
929.0
 30
2.4
 40
24.0
  1
５０
 50
0.0
 41
0.9
 51
0.0
  7
KANJI0
  0
LINE
  8
6
  6
CONTINUOUS
 62
     2
 10
1347.725406547
 20
1392.5
 11
1215.0
 21
1392.5
  0
LINE
  8
6
  6
CONTINUOUS
 62
     2
 10
1227.0
 20
1392.5
 11
1221.823619098
 21
1373.181483474
  0
LINE
  8
6
  6
CONTINUOUS
 62
     2
 10
1227.0
 20
1392.5
 11
1232.176380902
 21
1373.181483474
  0
LINE
  8
6
  6
CONTINUOUS
 62
     2
 10
1227.0
 20
1392.5
 11
1227.0
 21
1207.5
  0
LINE
  8
6
  6
CONTINUOUS
 62
     2
 10
1227.0
 20
1207.5
 11
1232.176380902
 21
1226.818516526
  0
LINE
  8
6
  6
CONTINUOUS
 62
     2
 10
1227.0
 20
1207.5
 11
1221.823619098
 21
1226.818516526
  0
LINE
  8
6
  6
CONTINUOUS
 62
     2
 10
1347.725406547
 20
1207.5
 11
1215.0
 21
1207.5
  0
TEXT
  8
6
  6
CONTINUOUS
 62
     2
 10
1219.0
 20
1253.2
 30
2.4
 40
24.0
  1
φ１８５
 50
90.0
 41
0.9
 51
0.0
  7
KANJI0
  0
LINE
  8
0
  6
CONTINUOUS
 62
     1
 10
1483.0
 20
1672.5
 11
1493.0
 21
1672.5
  0
LINE
  8
0
  6
CONTINUOUS
 62
     1
 10
1493.0
 20
1672.5
 11
1493.0
 21
1650.0
  0
LINE
  8
0
  6
CONTINUOUS
 62
     1
 10
1493.0
 20
1650.0
 11
1633.000190206
 21
1650.0
  0
LINE
  8
0
  6
CONTINUOUS
 62
     1
 10
1633.000190206
 20
1600.0
 11
1633.000190206
 21
1650.0
  0
LINE
  8
0
  6
CONTINUOUS
 62
     1
 10
1493.0
 20
1600.0
 11
1633.000190206
 21
1600.0
  0
LINE
  8
0
  6
CONTINUOUS
 62
     1
 10
1493.0
 20
1600.0
 11
1493.0
 21
1577.5
  0
LINE
  8
0
  6
LTYPE3
 62
     2
 10
1605.500190206
 20
1600.0
 11
1605.500190206
 21
1650.0
  0
LINE
  8
0
  6
LTYPE3
 62
     2
 10
1560.500190206
 20
1600.0
 11
1560.500190206
 21
1650.0
  0
LINE
  8
0
  6
CONTINUOUS
 62
     1
 10
1623.000190206
 20
1600.0
 11
1623.000190206
 21
1650.0
  0
LINE
  8
0
  6
LTYPE1
 62
     2
 10
1583.000190206
 20
1568.5
 11
1583.000190206
 21
1679.5
  0
LINE
  8
6
  6
CONTINUOUS
 62
     2
 10
1560.500190206
 20
1588.0
 11
1560.500190206
 21
1536.0
  0
LINE
  8
6
  6
CONTINUOUS
 62
     2
 10
1560.500190206
 20
1548.0
 11
1541.18167368
 21
1553.176380902
  0
LINE
  8
6
  6
CONTINUOUS
 62
     2
 10
1560.500190206
 20
1548.0
 11
1541.18167368
 21
1542.823619098
  0
LINE
  8
6
  6
CONTINUOUS
 62
     2
 10
1530.500190206
 20
1548.0
 11
1777.100190206
 21
1548.0
  0
LINE
  8
6
  6
CONTINUOUS
 62
     2
 10
1605.500190206
 20
1548.0
 11
1624.818706732
 21
1542.823619098
  0
LINE
  8
6
  6
CONTINUOUS
 62
     2
 10
1605.500190206
 20
1548.0
 11
1624.818706732
 21
1553.176380902
  0
LINE
  8
6
  6
CONTINUOUS
 62
     2
 10
1605.500190206
 20
1588.0
 11
1605.500190206
 21
1536.0
  0
TEXT
  8
6
  6
CONTINUOUS
 62
     2
 10
1635.500190206
 20
1556.0
 30
2.4
 40
24.0
  1
φ４５Ｈ１０
 50
0.0
 41
0.9
 51
0.0
  7
KANJI0
  0
LINE
  8
6
  6
CONTINUOUS
 62
     2
 10
1493.0
 20
1565.5
 11
1493.0
 21
1478.0
  0
LINE
  8
6
  6
CONTINUOUS
 62
     2
 10
1493.0
 20
1490.0
 11
1512.318516526
 21
1484.823619098
  0
LINE
  8
6
  6
CONTINUOUS
 62
     2
 10
1493.0
 20
1490.0
 11
1512.318516526
 21
1495.176380902
  0
LINE
  8
6
  6
CONTINUOUS
 62
     2
 10
1493.0
 20
1490.0
 11
1583.000190206
 21
1490.0
  0
LINE
  8
6
  6
CONTINUOUS
 62
     2
 10
1583.000190206
 20
1490.0
 11
1563.68167368
 21
1495.176380902
  0
LINE
  8
6
  6
CONTINUOUS
 62
     2
 10
1583.000190206
 20
1490.0
 11
1563.68167368
 21
1484.823619098
  0
LINE
  8
6
  6
CONTINUOUS
 62
     2
 10
1583.000190206
 20
1556.5
 11
1583.000190206
 21
1478.0
  0
TEXT
  8
6
  6
CONTINUOUS
 62
     2
 10
1515.200095103
 20
1498.0
 30
2.4
 40
24.0
  1
９０
 50
0.0
 41
0.9
 51
0.0
  7
KANJI0
  0
LINE
  8
6
  6
CONTINUOUS
 62
     2
 10
1645.000190206
 20
1600.0
 11
1706.000190206
 21
1600.0
  0
LINE
  8
6
  6
CONTINUOUS
 62
     2
 10
1694.000190206
 20
1600.0
 11
1699.176571108
 21
1619.318516526
  0
LINE
  8
6
  6
CONTINUOUS
 62
     2
 10
1694.000190206
 20
1600.0
 11
1688.823809304
 21
1619.318516526
  0
LINE
  8
6
  6
CONTINUOUS
 62
     2
 10
1694.000190206
 20
1600.0
 11
1694.000190206
 21
1650.0
  0
LINE
  8
6
  6
CONTINUOUS
 62
     2
 10
1694.000190206
 20
1650.0
 11
1688.823809304
 21
1630.681483474
  0
LINE
  8
6
  6
CONTINUOUS
 62
     2
 10
1694.000190206
 20
1650.0
 11
1699.176571108
 21
1630.681483474
  0
LINE
  8
6
  6
CONTINUOUS
 62
     2
 10
1645.000190206
 20
1650.0
 11
1706.000190206
 21
1650.0
  0
TEXT
  8
6
  6
CONTINUOUS
 62
     2
 10
1686.000190206
 20
1602.2
 30
2.4
 40
24.0
  1
５０
 50
90.0
 41
0.9
 51
0.0
  7
KANJI0
  0
LINE
  8
0
  6
LTYPE1
 62
     2
 10
1359.000190206
 20
1625.0
 11
1647.000190206
 21
1625.0
  0
TEXT
  8
0
  6
CONTINUOUS
 62
     2
 10
968.0
 20
621.4
 30
2.4
 40
24.0
  1
３００
 50
0.0
 41
0.9
 51
0.0
  7
KANJI1
  0
TEXT
  8
0
  6
CONTINUOUS
 62
     2
 10
968.0
 20
565.4
 30
2.4
 40
24.0
  1
５００
 50
0.0
 41
0.9
 51
0.0
  7
KANJI1
  0
TEXT
  8
0
  6
CONTINUOUS
 62
     2
 10
1445.6
 20
625.0
 30
2.4
 40
24.0
  1
７３０
 50
0.0
 41
0.9
 51
0.0
  7
KANJI1
  0
TEXT
  8
0
  6
CONTINUOUS
 62
     2
 10
1619.8
 20
625.0
 30
2.4
 40
24.0
  1
５０
 50
0.0
 41
0.9
 51
0.0
  7
KANJI1
  0
TEXT
  8
0
  6
CONTINUOUS
 62
     2
 10
1445.6
 20
569.0
 30
2.4
 40
24.0
  1
９３０
 50
0.0
 41
0.9
 51
0.0
  7
KANJI1
  0
TEXT
  8
0
  6
CONTINUOUS
 62
     2
 10
1262.0
 20
567.6
 30
2.4
 40
24.0
  1
１１４２
 50
0.0
 41
0.9
 51
0.0
  7
KANJI1
  0
LINE
  8
0
  6
CONTINUOUS
 62
     1
 10
1339.149691586
 20
1312.0
 11
1339.149691586
 21
1300.0
  0
LINE
  8
0
  6
CONTINUOUS
 62
     1
 10
1339.149691586
 20
1371.591148475
 11
1339.149691586
 21
1300.0
  0
LINE
  8
0
  6
CONTINUOUS
 62
     1
 10
1483.000190206
 20
1577.5
 11
1493.0
 21
1577.5
  0
LINE
  8
0
  6
CONTINUOUS
 62
     1
 10
1433.0
 20
1255.5
 11
1483.0
 21
1255.5
  0
POINT
  8
0
  6
CONTINUOUS
 62
     1
 10
721.0
 20
1300.0
  0
LINE
  8
0
  6
CONTINUOUS
 62
     1
 10
595.0
 20
1165.0
 11
595.0
 21
1407.5
  0
LINE
  8
6
  6
CONTINUOUS
 62
     2
 10
1483.000190206
 20
1250.8
 11
1483.000190206
 21
1026.0
  0
TEXT
  8
0
  6
CONTINUOUS
 62
     2
 10
1594.8
 20
569.0
 30
2.4
 40
24.0
  1
１１２
 50
0.0
 41
0.9
 51
0.0
  7
KANJI1
  0
LINE
  8
0
  6
CONTINUOUS
 62
     1
 10
595.0
 20
1165.0
 11
440.0
 21
1165.0
  0
LINE
  8
6
  6
CONTINUOUS
 62
     2
 10
440.0
 20
1153.0
 11
440.0
 21
906.1
  0
LINE
  8
6
  6
CONTINUOUS
 62
     2
 10
440.0
 20
921.0
 11
1583.000190206
 21
921.0
  0
LINE
  8
6
  6
CONTINUOUS
 62
     2
 10
440.0
 20
921.0
 11
462.216294005
 21
915.047161963
  0
LINE
  8
6
  6
CONTINUOUS
 62
     2
 10
440.0
 20
921.0
 11
462.216294005
 21
926.952838037
  0
LINE
  8
0
  6
CONTINUOUS
 62
     1
 10
778.0
 20
1351.305778818
 11
768.0
 21
1361.305778818
  0
ARC
  8
0
  6
CONTINUOUS
 62
     1
 10
766.0
 20
1349.63644216
 40
3.0
 50
180.0
 51
270.0
  0
ARC
  8
0
  6
CONTINUOUS
 62
     1
 10
766.0
 20
1346.194983542
 40
3.0
 50
180.0
 51
270.0
  0
ARC
  8
0
  6
CONTINUOUS
 62
     1
 10
766.0
 20
1345.334618887
 40
3.0
 50
180.0
 51
270.0
  0
LINE
  8
0
  6
CONTINUOUS
 62
     1
 10
886.0
 20
1361.305778818
 11
876.0
 21
1351.305778818
  0
LINE
  8
0
  6
CONTINUOUS
 62
     1
 10
778.0
 20
1351.305778818
 11
876.0
 21
1351.305778818
  0
ARC
  8
0
  6
CONTINUOUS
 62
     1
 10
888.0
 20
1349.63644216
 40
3.0
 50
270.0
 51
0.0
  0
ARC
  8
0
  6
CONTINUOUS
 62
     1
 10
888.0
 20
1346.194983542
 40
3.0
 50
270.0
 51
0.0
  0
ARC
  8
0
  6
CONTINUOUS
 62
     1
 10
888.0
 20
1345.334618887
 40
3.0
 50
270.0
 51
0.0
  0
LINE
  8
0
  6
CONTINUOUS
 62
     1
 10
765.507319827
 20
1346.63644216
 11
888.0
 21
1346.63644216
  0
LINE
  8
0
  6
CONTINUOUS
 62
     1
 10
765.607319827
 20
1343.194983542
 11
888.0
 21
1343.194983542
  0
LINE
  8
0
  6
CONTINUOUS
 62
     1
 10
765.607319827
 20
1342.334618887
 11
888.0
 21
1342.334618887
  0
LINE
  8
0
  6
CONTINUOUS
 62
     1
 10
896.0
 20
1345.266636349
 11
896.0
 21
1402.13271812
  0
LINE
  8
0
  6
CONTINUOUS
 62
     1
 10
891.0
 20
1345.266636349
 11
896.0
 21
1345.266636349
  0
LINE
  8
0
  6
CONTINUOUS
 62
     1
 10
891.0
 20
1402.13271812
 11
896.0
 21
1402.13271812
  0
LINE
  8
0
  6
CONTINUOUS
 62
     1
 10
891.0
 20
1369.366636349
 11
896.0
 21
1369.366636349
  0
LINE
  8
0
  6
CONTINUOUS
 62
     1
 10
853.0
 20
1318.657620342
 11
891.0
 21
1318.657620342
  0
LINE
  8
0
  6
CONTINUOUS
 62
     1
 10
896.0
 20
1389.848877817
 11
896.0
 21
1362.148877817
  0
LINE
  8
0
  6
LTYPE1
 62
     2
 10
869.737645868
 20
1375.998877817
 11
949.0
 21
1375.998877817
  0
LINE
  8
0
  6
CONTINUOUS
 62
     1
 10
653.0
 20
1381.5
 11
763.0
 21
1381.5
  0
LINE
  8
0
  6
CONTINUOUS
 62
     1
 10
763.0
 20
1317.957620342
 11
853.0
 21
1317.957620342
  0
LINE
  8
0
  6
CONTINUOUS
 62
     1
 10
855.0
 20
1318.657620342
 11
855.0
 21
1200.0
  0
LINE
  8
0
  6
CONTINUOUS
 62
     1
 10
895.0
 20
1345.266636349
 11
895.0
 21
1200.0
  0
LINE
  8
0
  6
CONTINUOUS
 62
     1
 10
2540.0
 20
1028.0
 11
3240.0
 21
1028.0
  0
LINE
  8
0
  6
CONTINUOUS
 62
     1
 10
2540.0
 20
2116.0
 11
3240.0
 21
2116.0
  0
LINE
  8
0
  6
CONTINUOUS
 62
     1
 10
2540.0
 20
2116.0
 11
2540.0
 21
1028.0
  0
TEXT
  8
0
  6
CONTINUOUS
 62
     2
 10
2640.0
 20
2057.6
 30
22.79952
 40
36.0
  1
マイティシリンダ仕様
 50
0.0
 41
0.9
 51
0.0
  7
KANJI2
  0
TEXT
  8
0
  6
CONTINUOUS
 62
     2
 10
2572.6
 20
1552.0
 30
17.6
 40
28.0
  1
モ　トル仕様
 50
0.0
 41
0.9
 51
0.0
  7
KANJI3
  0
TEXT
  8
0
  6
CONTINUOUS
 62
     2
 10
2570.8
 20
1248.0
 30
1.371428571
 40
24.0
  1
ブレ　キ
 50
0.0
 41
0.9
 51
0.0
  7
KANJI4
  0
LINE
  8
0
  6
CONTINUOUS
 62
     2
 10
2570.4
 20
1192.8
 11
2570.4
 21
1176.0
  0
LINE
  8
0
  6
CONTINUOUS
 62
     2
 10
2570.4
 20
1507.2
 11
2570.4
 21
1488.8
  0
TEXT
  8
0
  6
CONTINUOUS
 62
     2
 10
2999.2
 20
1658.4
 30
11.36
 40
28.0
  1
推力リミッタ
 50
0.0
 41
0.9
 51
0.0
  7
KANJI5
  0
TEXT
  8
0
  6
CONTINUOUS
 62
     2
 10
3211.2
 20
1546.4
 30
17.571428571
 40
24.0
  1
Ｐ
 50
0.0
 41
0.9
 51
0.0
  7
KANJI6
  0
TEXT
  8
0
  6
CONTINUOUS
 62
     2
 10
3078.4
 20
1546.4
 30
1.6
 40
24.0
  1
ＫＷ
 50
0.0
 41
0.857142857
 51
0.0
  7
KANJI7
  0
TEXT
  8
0
  6
CONTINUOUS
 62
     2
 10
3171.2
 20
1546.4
 30
20.5
 40
28.0
  1
４
 50
0.0
 41
0.9
 51
0.0
  7
KANJI8
  0
TEXT
  8
0
  6
CONTINUOUS
 62
     2
 10
2954.4
 20
1604.8
 30
0.8
 40
22.4
  1
マンセル
 50
0.0
 41
0.9
 51
0.0
  7
KANJI9
  0
TEXT
  8
0
  6
CONTINUOUS
 62
     2
 10
3048.0
 20
1606.4
 30
0.32
 40
22.4
  1
７．５ＧＹ５／４．５
 50
0.0
 41
0.785714286
 51
0.0
  7
KANJI10
  0
TEXT
  8
0
  6
CONTINUOUS
 62
     2
 10
2948.0
 20
1211.2
 30
2.4
 40
22.4
  1
スプリング制動式電磁ブレーキ
 50
0.0
 41
0.8
 51
0.0
  7
KANJI11
  0
TEXT
  8
0
  6
CONTINUOUS
 62
     2
 10
3212.0
 20
1490.4
 30
0.288
 40
24.0
  1
Ｖ
 50
0.0
 41
0.8
 51
0.0
  7
KANJI12
  0
TEXT
  8
0
  6
CONTINUOUS
 62
     2
 10
3197.6
 20
1434.4
 30
0.288
 40
24.0
  1
Ｈｚ
 50
0.0
 41
0.8
 51
0.0
  7
KANJI12
  0
TEXT
  8
0
  6
CONTINUOUS
 62
     2
 10
3039.8
 20
1434.2
 30
2.4
 40
24.0
  1
５０／６０
 50
0.0
 41
0.9
 51
0.0
  7
KANJI1
  0
TEXT
  8
0
  6
CONTINUOUS
 62
     2
 10
3213.8
 20
1380.2
 30
2.4
 40
24.0
  1
Ａ
 50
0.0
 41
0.9
 51
0.0
  7
KANJI1
  0
TEXT
  8
0
  6
CONTINUOUS
 62
     2
 10
3087.8
 20
1326.2
 30
2.4
 40
24.0
  1
Ｅ
 50
0.0
 41
0.9
 51
0.0
  7
KANJI1
  0
LINE
  8
0
  6
CONTINUOUS
 62
     2
 10
2540.0
 20
1140.0
 11
3240.0
 21
1140.0
  0
LINE
  8
0
  6
CONTINUOUS
 62
     2
 10
2540.0
 20
1084.0
 11
3240.0
 21
1084.0
  0
LINE
  8
0
  6
CONTINUOUS
 62
     2
 10
2604.0
 20
1196.0
 11
3240.0
 21
1196.0
  0
LINE
  8
0
  6
CONTINUOUS
 62
     2
 10
2604.0
 20
1588.0
 11
2604.0
 21
1140.0
  0
LINE
  8
0
  6
CONTINUOUS
 62
     2
 10
2540.0
 20
1252.0
 11
3240.0
 21
1252.0
  0
LINE
  8
0
  6
CONTINUOUS
 62
     2
 10
2604.0
 20
1308.0
 11
3240.0
 21
1308.0
  0
LINE
  8
0
  6
CONTINUOUS
 62
     2
 10
2604.0
 20
1364.0
 11
3240.0
 21
1364.0
  0
LINE
  8
0
  6
CONTINUOUS
 62
     2
 10
2604.0
 20
1420.0
 11
3240.0
 21
1420.0
  0
LINE
  8
0
  6
CONTINUOUS
 62
     2
 10
2540.0
 20
1700.0
 11
3240.0
 21
1700.0
  0
LINE
  8
0
  6
CONTINUOUS
 62
     2
 10
2540.0
 20
1644.0
 11
3240.0
 21
1644.0
  0
LINE
  8
0
  6
CONTINUOUS
 62
     2
 10
2540.0
 20
1588.0
 11
3240.0
 21
1588.0
  0
LINE
  8
0
  6
CONTINUOUS
 62
     2
 10
2940.0
 20
2036.0
 11
2940.0
 21
1028.0
  0
LINE
  8
0
  6
CONTINUOUS
 62
     2
 10
2604.0
 20
1476.0
 11
3240.0
 21
1476.0
  0
LINE
  8
0
  6
CONTINUOUS
 62
     2
 10
2604.0
 20
1532.0
 11
3240.0
 21
1532.0
  0
LINE
  8
0
  6
CONTINUOUS
 62
     2
 10
2540.0
 20
1980.0
 11
3240.0
 21
1980.0
  0
LINE
  8
0
  6
CONTINUOUS
 62
     2
 10
2540.0
 20
1924.0
 11
3240.0
 21
1924.0
  0
LINE
  8
0
  6
CONTINUOUS
 62
     2
 10
2540.0
 20
1868.0
 11
3240.0
 21
1868.0
  0
LINE
  8
0
  6
CONTINUOUS
 62
     2
 10
2540.0
 20
1812.0
 11
3240.0
 21
1812.0
  0
LINE
  8
0
  6
CONTINUOUS
 62
     2
 10
2540.0
 20
1756.0
 11
3240.0
 21
1756.0
  0
LINE
  8
0
  6
CONTINUOUS
 62
     2
 10
2540.0
 20
2036.0
 11
3240.0
 21
2036.0
  0
TEXT
  8
0
  6
CONTINUOUS
 62
     2
 10
940.8
 20
680.0
 30
2.4
 40
24.0
  1
ストローク
 50
0.0
 41
0.9
 51
0.0
  7
KANJI1
  0
TEXT
  8
0
  6
CONTINUOUS
 62
     2
 10
1094.4
 20
678.4
 30
0.0
 40
24.0
  1
ｍｉｎ　
 50
0.0
 41
0.9
 51
0.0
  7
KANJI13
  0
TEXT
  8
0
  6
CONTINUOUS
 62
     2
 10
1254.4
 20
678.4
 30
0.0
 40
24.0
  1
ｍｉｎ　
 50
0.0
 41
0.9
 51
0.0
  7
KANJI13
  0
TEXT
  8
0
  6
CONTINUOUS
 62
     2
 10
1574.4
 20
678.4
 30
0.0
 40
24.0
  1
ｍｉｎ　
 50
0.0
 41
0.9
 51
0.0
  7
KANJI13
  0
TEXT
  8
0
  6
CONTINUOUS
 62
     2
 10
1823.0
 20
681.8
 30
0.0
 40
19.2
  1
（ｋｇ）
 50
0.0
 41
0.777777778
 51
0.0
  7
KANJI14
  0
TEXT
  8
0
  6
CONTINUOUS
 62
     2
 10
1727.0
 20
679.0
 30
2.56
 40
25.6
  1
概算重量
 50
0.0
 41
0.9
 51
0.0
  7
KANJI15
  0
TEXT
  8
0
  6
CONTINUOUS
 62
     2
 10
696.0
 20
680.0
 30
2.56
 40
25.6
  1
形
 50
0.0
 41
0.9
 51
0.0
  7
KANJI15
  0
TEXT
  8
0
  6
CONTINUOUS
 62
     2
 10
852.0
 20
680.0
 30
2.56
 40
25.6
  1
式
 50
0.0
 41
0.9
 51
0.0
  7
KANJI15
  0
TEXT
  8
0
  6
CONTINUOUS
 62
     2
 10
2600.0
 20
1994.4
 30
240.594285714
 40
30.4
  1
形式
 50
0.0
 41
0.9
 51
0.0
  7
KANJI16
  0
TEXT
  8
0
  6
CONTINUOUS
 62
     2
 10
2600.0
 20
1938.4
 30
240.594285714
 40
30.4
  1
推力
 50
0.0
 41
0.9
 51
0.0
  7
KANJI16
  0
TEXT
  8
0
  6
CONTINUOUS
 62
     2
 10
2600.0
 20
1882.4
 30
39.628571429
 40
30.4
  1
ストローク
 50
0.0
 41
0.9
 51
0.0
  7
KANJI17
  0
TEXT
  8
0
  6
CONTINUOUS
 62
     2
 10
2600.0
 20
1826.4
 30
61.957805714
 40
30.4
  1
公称速度
 50
0.0
 41
0.9
 51
0.0
  7
KANJI18
  0
TEXT
  8
0
  6
CONTINUOUS
 62
     2
 10
2576.0
 20
1770.4
 30
2.605714286
 40
30.4
  1
ピストンロッド回転トルク
 50
0.0
 41
0.9
 51
0.0
  7
KANJI19
  0
TEXT
  8
0
  6
CONTINUOUS
 62
     2
 10
2600.0
 20
1714.4
 30
240.594285714
 40
30.4
  1
構造
 50
0.0
 41
0.9
 51
0.0
  7
KANJI16
  0
TEXT
  8
0
  6
CONTINUOUS
 62
     2
 10
2600.0
 20
1658.4
 30
17.298468571
 40
30.4
  1
過負荷安全装置
 50
0.0
 41
0.9
 51
0.0
  7
KANJI20
  0
TEXT
  8
0
  6
CONTINUOUS
 62
     2
 10
2600.0
 20
1602.4
 30
106.617142857
 40
30.4
  1
塗装色
 50
0.0
 41
0.9
 51
0.0
  7
KANJI21
  0
TEXT
  8
0
  6
CONTINUOUS
 62
     2
 10
2640.0
 20
1546.4
 30
26.6
 40
30.4
  1
出力　極数
 50
0.0
 41
0.9
 51
0.0
  7
KANJI22
  0
TEXT
  8
0
  6
CONTINUOUS
 62
     2
 10
2640.0
 20
1490.4
 30
44.586377143
 40
30.4
  1
電源電圧
 50
0.0
 41
0.9
 51
0.0
  7
KANJI23
  0
TEXT
  8
0
  6
CONTINUOUS
 62
     2
 10
2640.0
 20
1434.4
 30
80.56
 40
30.4
  1
周波数
 50
0.0
 41
0.9
 51
0.0
  7
KANJI24
  0
TEXT
  8
0
  6
CONTINUOUS
 62
     2
 10
2640.0
 20
1378.4
 30
188.48
 40
30.4
  1
電流
 50
0.0
 41
0.9
 51
0.0
  7
KANJI25
  0
TEXT
  8
0
  6
CONTINUOUS
 62
     2
 10
2640.0
 20
1322.4
 30
80.56
 40
30.4
  1
絶縁級
 50
0.0
 41
0.9
 51
0.0
  7
KANJI24
  0
TEXT
  8
0
  6
CONTINUOUS
 62
     2
 10
2640.0
 20
1210.4
 30
188.48
 40
30.4
  1
形式
 50
0.0
 41
0.9
 51
0.0
  7
KANJI25
  0
TEXT
  8
0
  6
CONTINUOUS
 62
     2
 10
2640.0
 20
1154.4
 30
44.586377143
 40
30.4
  1
操作方式
 50
0.0
 41
0.9
 51
0.0
  7
KANJI23
  0
TEXT
  8
0
  6
CONTINUOUS
 62
     2
 10
2600.0
 20
1098.4
 30
106.617142857
 40
30.4
  1
付属品
 50
0.0
 41
0.9
 51
0.0
  7
KANJI21
  0
TEXT
  8
0
  6
CONTINUOUS
 62
     2
 10
2600.0
 20
1042.4
 30
240.594285714
 40
30.4
  1
台数
 50
0.0
 41
0.9
 51
0.0
  7
KANJI16
  0
TEXT
  8
0
  6
CONTINUOUS
 62
     2
 10
3190.8
 20
1885.6
 30
0.1792
 40
22.4
  1
ｍｍ
 50
0.0
 41
0.8
 51
0.0
  7
KANJI26
  0
TEXT
  8
0
  6
CONTINUOUS
 62
     2
 10
3130.8
 20
1832.0
 30
0.1792
 40
22.4
  1
ｍｍ／ｓｅｃ
 50
0.0
 41
0.8
 51
0.0
  7
KANJI26
  0
TEXT
  8
0
  6
CONTINUOUS
 62
     2
 10
2432.0
 20
901.6
 30
16.0
 40
32.0
  1
特記事項
 50
0.0
 41
0.9
 51
0.0
  7
KANJI27
  0
TEXT
  8
0
  6
CONTINUOUS
 62
     2
 10
2320.0
 20
837.6
 30
8.228571429
 40
28.8
  1
１。運転時は必ずピストンロッドの回転防止を行って下さい。
 50
0.0
 41
0.857142857
 51
0.0
  7
KANJI28
  0
TEXT
  8
0
  6
CONTINUOUS
 62
     2
 10
1176.0
 20
680.0
 30
2.8
 40
28.0
  1
ＡＬ
 50
0.0
 41
0.9
 51
0.0
  7
KANJI29
  0
TEXT
  8
0
  6
CONTINUOUS
 62
     2
 10
1336.0
 20
680.0
 30
2.8
 40
28.0
  1
Ｌ
 50
0.0
 41
0.9
 51
0.0
  7
KANJI29
  0
TEXT
  8
0
  6
CONTINUOUS
 62
     2
 10
1472.0
 20
680.0
 30
2.8
 40
28.0
  1
Ｃ
 50
0.0
 41
0.9
 51
0.0
  7
KANJI29
  0
TEXT
  8
0
  6
CONTINUOUS
 62
     2
 10
1656.0
 20
680.0
 30
2.8
 40
28.0
  1
Ｐ
 50
0.0
 41
0.9
 51
0.0
  7
KANJI29
  0
LINE
  8
0
  6
CONTINUOUS
 62
     1
 10
1467.000190206
 20
1577.5
 11
1467.000190206
 21
1617.5
  0
LINE
  8
0
  6
CONTINUOUS
 62
     1
 10
1437.335399739
 20
1717.5
 11
1431.97641589
 21
1697.5
  0
LINE
  8
0
  6
CONTINUOUS
 62
     1
 10
1437.335399739
 20
1532.5
 11
1431.97641589
 21
1552.5
  0
LINE
  8
0
  6
CONTINUOUS
 62
     1
 10
1431.97641589
 20
1697.5
 11
1431.97641589
 21
1625.0
  0
LINE
  8
0
  6
CONTINUOUS
 62
     1
 10
1437.335399739
 20
1717.5
 11
1437.335399739
 21
1625.0
  0
LINE
  8
0
  6
LTYPE4
 62
     2
 10
1365.084390396
 20
1697.5
 11
1431.97641589
 21
1697.5
  0
LINE
  8
0
  6
LTYPE4
 62
     2
 10
1365.084390396
 20
1552.5
 11
1431.97641589
 21
1552.5
  0
LINE
  8
0
  6
LTYPE4
 62
     2
 10
1359.725406547
 20
1717.5
 11
1437.335399739
 21
1717.5
  0
LINE
  8
0
  6
LTYPE4
 62
     2
 10
1359.725406547
 20
1532.5
 11
1437.335399739
 21
1532.5
  0
LINE
  8
0
  6
CONTINUOUS
 62
     1
 10
1455.057868375
 20
1673.379113682
 11
1455.057868375
 21
1675.279113682
  0
POINT
  8
0
  6
CONTINUOUS
 62
     1
 10
1455.057868375
 20
1675.279113682
  0
LINE
  8
0
  6
CONTINUOUS
 62
     1
 10
1455.057868375
 20
1675.279113682
 11
1463.257868375
 21
1675.279113682
  0
POINT
  8
0
  6
CONTINUOUS
 62
     1
 10
1463.257868375
 20
1675.279113682
  0
LINE
  8
0
  6
CONTINUOUS
 62
     1
 10
1463.257868375
 20
1675.279113682
 11
1463.257868375
 21
1673.579113682
  0
LINE
  8
0
  6
CONTINUOUS
 62
     1
 10
1455.357868375
 20
1673.517376915
 11
1451.9
 21
1673.517376915
  0
LINE
  8
0
  6
CONTINUOUS
 62
     1
 10
1467.0
 20
1673.517376915
 11
1463.057868375
 21
1673.517376915
  0
LINE
  8
0
  6
CONTINUOUS
 62
     1
 10
1466.9
 20
1579.482623085
 11
1451.9
 21
1579.482623085
  0
LINE
  8
0
  6
CONTINUOUS
 62
     1
 10
1455.057868375
 20
1579.620886318
 11
1455.057868375
 21
1577.720886318
  0
POINT
  8
0
  6
CONTINUOUS
 62
     1
 10
1455.057868375
 20
1577.720886318
  0
LINE
  8
0
  6
CONTINUOUS
 62
     1
 10
1455.057868375
 20
1577.720886318
 11
1463.257868375
 21
1577.720886318
  0
POINT
  8
0
  6
CONTINUOUS
 62
     1
 10
1463.257868375
 20
1577.720886318
  0
LINE
  8
0
  6
CONTINUOUS
 62
     1
 10
1463.257868375
 20
1577.720886318
 11
1463.257868375
 21
1579.420886318
  0
LINE
  8
0
  6
CONTINUOUS
 62
     1
 10
1451.8
 20
1673.517376915
 11
1437.335399739
 21
1717.5
  0
LINE
  8
0
  6
CONTINUOUS
 62
     1
 10
1451.8
 20
1579.482623085
 11
1437.335399739
 21
1532.5
  0
LINE
  8
0
  6
CONTINUOUS
 62
     1
 10
1451.8
 20
1673.517376915
 11
1451.8
 21
1625.0
  0
LINE
  8
0
  6
CONTINUOUS
 62
     1
 10
1463.257868375
 20
1675.279113682
 11
1463.257868375
 21
1625.0
  0
LINE
  8
0
  6
CONTINUOUS
 62
     1
 10
1455.057868375
 20
1673.517376915
 11
1455.057868375
 21
1625.0
  0
LINE
  8
0
  6
CONTINUOUS
 62
     1
 10
1437.335399739
 20
1392.5
 11
1431.97641589
 21
1372.5
  0
LINE
  8
0
  6
CONTINUOUS
 62
     1
 10
1431.97641589
 20
1372.5
 11
1431.97641589
 21
1300.0
  0
LINE
  8
0
  6
CONTINUOUS
 62
     1
 10
1437.335399739
 20
1392.5
 11
1437.335399739
 21
1300.0
  0
LINE
  8
0
  6
CONTINUOUS
 62
     1
 10
1455.057868375
 20
1348.379113682
 11
1455.057868375
 21
1350.279113682
  0
POINT
  8
0
  6
CONTINUOUS
 62
     1
 10
1455.057868375
 20
1350.279113682
  0
LINE
  8
0
  6
CONTINUOUS
 62
     1
 10
1455.057868375
 20
1350.279113682
 11
1463.257868375
 21
1350.279113682
  0
POINT
  8
0
  6
CONTINUOUS
 62
     1
 10
1463.257868375
 20
1350.279113682
  0
LINE
  8
0
  6
CONTINUOUS
 62
     1
 10
1463.257868375
 20
1350.279113682
 11
1463.257868375
 21
1348.579113682
  0
LINE
  8
0
  6
CONTINUOUS
 62
     1
 10
1455.357868375
 20
1348.517376915
 11
1451.9
 21
1348.517376915
  0
LINE
  8
0
  6
CONTINUOUS
 62
     1
 10
1451.8
 20
1348.517376915
 11
1437.335399739
 21
1392.5
  0
LINE
  8
0
  6
CONTINUOUS
 62
     1
 10
1451.8
 20
1348.517376915
 11
1451.8
 21
1300.0
  0
LINE
  8
0
  6
CONTINUOUS
 62
     1
 10
1463.257868375
 20
1350.279113682
 11
1463.257868375
 21
1300.0
  0
LINE
  8
0
  6
CONTINUOUS
 62
     1
 10
1455.057868375
 20
1348.517376915
 11
1455.057868375
 21
1300.0
  0
LINE
  8
0
  6
CONTINUOUS
 62
     1
 10
1467.0
 20
1348.517376915
 11
1463.057868375
 21
1348.517376915
  0
LINE
  8
0
  6
CONTINUOUS
 62
     1
 10
1437.335399739
 20
1207.5
 11
1431.97641589
 21
1227.5
  0
LINE
  8
0
  6
CONTINUOUS
 62
     1
 10
1466.9
 20
1254.482623085
 11
1451.9
 21
1254.482623085
  0
LINE
  8
0
  6
CONTINUOUS
 62
     1
 10
1455.057868375
 20
1254.620886318
 11
1455.057868375
 21
1252.720886318
  0
POINT
  8
0
  6
CONTINUOUS
 62
     1
 10
1455.057868375
 20
1252.720886318
  0
LINE
  8
0
  6
CONTINUOUS
 62
     1
 10
1455.057868375
 20
1252.720886318
 11
1463.257868375
 21
1252.720886318
  0
POINT
  8
0
  6
CONTINUOUS
 62
     1
 10
1463.257868375
 20
1252.720886318
  0
LINE
  8
0
  6
CONTINUOUS
 62
     1
 10
1463.257868375
 20
1252.720886318
 11
1463.257868375
 21
1254.420886318
  0
LINE
  8
0
  6
CONTINUOUS
 62
     1
 10
1451.8
 20
1254.482623085
 11
1437.335399739
 21
1207.5
  0
LINE
  8
0
  6
LTYPE4
 62
     2
 10
1359.725406547
 20
1392.5
 11
1437.335399739
 21
1392.5
  0
LINE
  8
0
  6
LTYPE4
 62
     2
 10
1359.725406547
 20
1207.5
 11
1437.335399739
 21
1207.5
  0
LINE
  8
0
  6
LTYPE4
 62
     2
 10
1365.084390396
 20
1372.5
 11
1431.97641589
 21
1372.5
  0
LINE
  8
0
  6
LTYPE4
 62
     2
 10
1365.084390396
 20
1227.5
 11
1431.97641589
 21
1227.5
  0
LINE
  8
0
  6
CONTINUOUS
 62
     2
 10
1138.0
 20
1317.4
 11
1209.0
 21
1448.9
  0
LINE
  8
0
  6
CONTINUOUS
 62
     2
 10
1209.0
 20
1448.9
 11
1284.0
 21
1448.9
  0
LINE
  8
0
  6
CONTINUOUS
 62
     2
 10
1138.0
 20
1317.4
 11
1151.733041598
 21
1331.93972381
  0
LINE
  8
0
  6
CONTINUOUS
 62
     2
 10
1138.0
 20
1317.4
 11
1142.62330099
 21
1336.858290982
  0
TEXT
  8
0
  6
CONTINUOUS
 62
     2
 10
1210.5
 20
1460.1
 30
0.0
 40
24.0
  1
給脂口
 50
0.0
 41
0.9
 51
0.0
  7
KANJI13
  0
LINE
  8
0
  6
LTYPE2
 62
     2
 10
1301.149691586
 20
1140.5
 11
1301.149691586
 21
1205.8
  0
LINE
  8
0
  6
CONTINUOUS
 62
     1
 10
1466.999190206
 20
1141.5
 11
1466.999190206
 21
1300.0
  0
LINE
  8
0
  6
CONTINUOUS
 62
     1
 10
1482.999190206
 20
1291.5
 11
1482.999190206
 21
1300.0
  0
LINE
  8
0
  6
CONTINUOUS
 62
     1
 10
1466.999190206
 20
1300.0
 11
1482.999190206
 21
1300.0
  0
LINE
  8
0
  6
CONTINUOUS
 62
     1
 10
1482.999190206
 20
1141.5
 11
1482.999190206
 21
1300.0
  0
LINE
  8
6
  6
CONTINUOUS
 62
     2
 10
1648.0
 20
1300.0
 11
1687.5
 21
1300.0
  0
LINE
  8
6
  6
CONTINUOUS
 62
     2
 10
1675.5
 20
1300.0
 11
1670.323619098
 21
1280.681483474
  0
LINE
  8
6
  6
CONTINUOUS
 62
     2
 10
1675.5
 20
1300.0
 11
1680.676380902
 21
1280.681483474
  0
LINE
  8
0
  6
CONTINUOUS
 62
     1
 10
1483.0
 20
1360.0
 11
1483.0
 21
1252.5
  0
LINE
  8
0
  6
CONTINUOUS
 62
     1
 10
1483.0
 20
1360.0
 11
1467.0
 21
1360.0
  0
LINE
  8
0
  6
CONTINUOUS
 62
     1
 10
1467.0
 20
1300.0
 11
1467.0
 21
1360.0
  0
LINE
  8
0
  6
CONTINUOUS
 62
     1
 10
1483.0
 20
1690.0
 11
1483.0
 21
1560.0
  0
LINE
  8
0
  6
CONTINUOUS
 62
     1
 10
1467.000190206
 20
1560.0
 11
1483.0
 21
1560.0
  0
LINE
  8
0
  6
CONTINUOUS
 62
     1
 10
1467.000190206
 20
1560.0
 11
1467.000190206
 21
1617.5
  0
LINE
  8
0
  6
CONTINUOUS
 62
     1
 10
1467.0
 20
1690.0
 11
1467.0
 21
1587.5
  0
LINE
  8
0
  6
CONTINUOUS
 62
     1
 10
1467.0
 20
1690.0
 11
1483.0
 21
1690.0
  0
LINE
  8
0
  6
CONTINUOUS
 62
     1
 10
1431.97641589
 20
1552.5
 11
1431.97641589
 21
1625.0
  0
LINE
  8
0
  6
CONTINUOUS
 62
     1
 10
1437.335399739
 20
1532.5
 11
1437.335399739
 21
1625.0
  0
LINE
  8
0
  6
CONTINUOUS
 62
     1
 10
1451.8
 20
1576.482623085
 11
1451.8
 21
1625.0
  0
LINE
  8
0
  6
CONTINUOUS
 62
     1
 10
1463.257868375
 20
1574.720886318
 11
1463.257868375
 21
1625.0
  0
LINE
  8
0
  6
CONTINUOUS
 62
     1
 10
1455.057868375
 20
1576.482623085
 11
1455.057868375
 21
1625.0
  0
LINE
  8
0
  6
CONTINUOUS
 62
     1
 10
1339.149691586
 20
1380.0
 11
1339.149691586
 21
1259.5
  0
LINE
  8
0
  6
CONTINUOUS
 62
     1
 10
1323.149691586
 20
1380.0
 11
1339.149691586
 21
1380.0
  0
LINE
  8
0
  6
CONTINUOUS
 62
     1
 10
1263.149691586
 20
1380.0
 11
1279.149691586
 21
1380.0
  0
LINE
  8
0
  6
CONTINUOUS
 62
     1
 10
1339.149691586
 20
1230.0
 11
1433.0
 21
1230.0
  0
LINE
  8
0
  6
CONTINUOUS
 62
     1
 10
1280.149691586
 20
1370.0
 11
1323.149691586
 21
1370.0
  0
LINE
  8
0
  6
CONTINUOUS
 62
     1
 10
1236.149691586
 20
1197.5
 11
1366.149691586
 21
1197.5
  0
LINE
  8
0
  6
CONTINUOUS
 62
     1
 10
1373.849691586
 20
1190.5
 11
1373.849691586
 21
1165.1
  0
LINE
  8
0
  6
CONTINUOUS
 62
     1
 10
1348.449691586
 20
1190.5
 11
1373.849691586
 21
1190.5
  0
LINE
  8
0
  6
CONTINUOUS
 62
     1
 10
1236.149691586
 20
1191.5
 11
1236.149691586
 21
1197.5
  0
LINE
  8
0
  6
CONTINUOUS
 62
     1
 10
1236.149691586
 20
1191.5
 11
1366.149691586
 21
1191.5
  0
LINE
  8
0
  6
CONTINUOUS
 62
     1
 10
1366.149691586
 20
1191.5
 11
1366.149691586
 21
1197.5
  0
LINE
  8
0
  6
CONTINUOUS
 62
     1
 10
1348.449691586
 20
1165.1
 11
1373.849691586
 21
1165.1
  0
LINE
  8
0
  6
CONTINUOUS
 62
     1
 10
1279.749691586
 20
1191.5
 11
1279.749691586
 21
1151.5
  0
LINE
  8
0
  6
CONTINUOUS
 62
     1
 10
1348.449691586
 20
1191.5
 11
1348.449691586
 21
1151.5
  0
LINE
  8
0
  6
LTYPE3
 62
     2
 10
1284.849691586
 20
1160.73
 11
1279.849691586
 21
1160.73
  0
LINE
  8
0
  6
LTYPE3
 62
     2
 10
1284.849691586
 20
1161.885
 11
1279.849691586
 21
1161.885
  0
LINE
  8
0
  6
LTYPE3
 62
     2
 10
1284.849691586
 20
1181.67
 11
1279.849691586
 21
1181.67
  0
LINE
  8
0
  6
LTYPE3
 62
     2
 10
1284.849691586
 20
1180.515
 11
1279.849691586
 21
1180.515
  0
LINE
  8
0
  6
LTYPE3
 62
     2
 10
1284.849691586
 20
1181.67
 11
1279.849691586
 21
1181.67
  0
LINE
  8
0
  6
LTYPE2
 62
     2
 10
1358.149691586
 20
1176.6875
 11
1358.149691586
 21
1136.7
  0
LINE
  8
0
  6
CONTINUOUS
 62
     1
 10
1228.449691586
 20
1190.5
 11
1228.449691586
 21
1165.1
  0
LINE
  8
0
  6
CONTINUOUS
 62
     1
 10
1253.849691586
 20
1190.5
 11
1228.449691586
 21
1190.5
  0
LINE
  8
0
  6
CONTINUOUS
 62
     1
 10
1253.849691586
 20
1165.1
 11
1228.449691586
 21
1165.1
  0
LINE
  8
0
  6
CONTINUOUS
 62
     1
 10
1253.849691586
 20
1191.5
 11
1253.849691586
 21
1151.5
  0
LINE
  8
0
  6
CONTINUOUS
 62
     1
 10
1285.149691586
 20
1136.5
 11
1285.149691586
 21
1151.5
  0
LINE
  8
0
  6
CONTINUOUS
 62
     1
 10
1285.149691586
 20
1136.5
 11
1317.149691586
 21
1136.5
  0
LINE
  8
0
  6
CONTINUOUS
 62
     1
 10
1317.149691586
 20
1136.5
 11
1317.149691586
 21
1151.5
  0
LINE
  8
0
  6
LTYPE5
 62
     2
 10
1284.849691586
 20
1170.2
 11
1275.749691586
 21
1170.2
  0
LINE
  8
0
  6
CONTINUOUS
 62
     1
 10
1389.149691586
 20
1141.5
 11
1403.006098046
 21
1133.5
  0
LINE
  8
0
  6
LTYPE3
 62
     2
 10
1389.149691586
 20
1143.5
 11
1439.149691586
 21
1143.5
  0
LINE
  8
0
  6
CONTINUOUS
 62
     1
 10
1403.006098046
 20
1133.5
 11
1425.293285125
 21
1133.5
  0
LINE
  8
0
  6
LTYPE3
 62
     2
 10
1389.149691586
 20
1155.5
 11
1439.149691586
 21
1155.5
  0
LINE
  8
0
  6
CONTINUOUS
 62
     1
 10
1389.149691586
 20
1157.5
 11
1403.006098046
 21
1165.5
  0
LINE
  8
0
  6
CONTINUOUS
 62
     1
 10
1403.006098046
 20
1165.5
 11
1425.293285125
 21
1165.5
  0
LINE
  8
0
  6
CONTINUOUS
 62
     1
 10
1439.149691586
 20
1157.5
 11
1425.293285125
 21
1165.5
  0
LINE
  8
0
  6
CONTINUOUS
 62
     1
 10
1439.149691586
 20
1141.5
 11
1439.149691586
 21
1157.5
  0
LINE
  8
0
  6
CONTINUOUS
 62
     1
 10
1439.149691586
 20
1141.5
 11
1425.293285125
 21
1133.5
  0
LINE
  8
0
  6
CONTINUOUS
 62
     1
 10
1425.293285125
 20
1133.5
 11
1425.293285125
 21
1165.5
  0
LINE
  8
0
  6
CONTINUOUS
 62
     1
 10
1403.006098046
 20
1133.5
 11
1425.293285125
 21
1133.5
  0
LINE
  8
0
  6
CONTINUOUS
 62
     1
 10
1403.006098046
 20
1133.5
 11
1403.006098046
 21
1165.5
  0
LINE
  8
0
  6
CONTINUOUS
 62
     1
 10
1389.149691586
 20
1141.5
 11
1389.149691586
 21
1157.5
  0
CIRCLE
  8
0
  6
CONTINUOUS
 62
     2
 10
1414.149691586
 20
1149.5
 40
5.0
  0
CIRCLE
  8
0
  6
CONTINUOUS
 62
     2
 10
1414.149691586
 20
1149.5
 40
4.0
  0
LINE
  8
0
  6
LTYPE2
 62
     2
 10
1414.149691586
 20
1139.5
 11
1414.149691586
 21
1159.5
  0
LINE
  8
0
  6
CONTINUOUS
 62
     1
 10
1348.449691586
 20
1155.5
 11
1389.149691586
 21
1155.5
  0
LINE
  8
0
  6
CONTINUOUS
 62
     1
 10
1317.149691586
 20
1143.5
 11
1389.149691586
 21
1143.5
  0
LINE
  8
0
  6
CONTINUOUS
 62
     1
 10
1253.849691586
 20
1157.5
 11
1348.449691586
 21
1157.5
  0
LINE
  8
0
  6
CONTINUOUS
 62
     1
 10
1253.849691586
 20
1151.5
 11
1348.449691586
 21
1151.5
  0
LINE
  8
0
  6
CONTINUOUS
 62
     1
 10
1439.149691586
 20
1155.5
 11
1466.925190206
 21
1155.5
  0
LINE
  8
0
  6
CONTINUOUS
 62
     1
 10
1439.149691586
 20
1143.5
 11
1466.925190206
 21
1143.5
  0
LINE
  8
0
  6
CONTINUOUS
 62
     1
 10
1466.999190206
 20
1136.5
 11
1482.999190206
 21
1136.5
  0
LINE
  8
0
  6
CONTINUOUS
 62
     1
 10
1482.999190206
 20
1149.5
 11
1482.999190206
 21
1156.99406
  0
LINE
  8
0
  6
CONTINUOUS
 62
     1
 10
1482.999190206
 20
1149.5
 11
1482.999190206
 21
1142.00594
  0
LINE
  8
0
  6
CONTINUOUS
 62
     1
 10
1488.499090206
 20
1155.15878
 11
1487.439490804
 21
1156.99406
  0
LINE
  8
0
  6
CONTINUOUS
 62
     1
 10
1488.499090206
 20
1149.5
 11
1488.499090206
 21
1155.15878
  0
LINE
  8
0
  6
CONTINUOUS
 62
     1
 10
1488.499090206
 20
1143.84122
 11
1487.439490804
 21
1142.00594
  0
LINE
  8
0
  6
CONTINUOUS
 62
     1
 10
1488.499090206
 20
1149.5
 11
1488.499090206
 21
1143.84122
  0
ARC
  8
0
  6
CONTINUOUS
 62
     1
 10
1481.344034869
 20
1149.5
 40
7.155055337
 50
328.419912243
 51
31.580087757
  0
ARC
  8
0
  6
CONTINUOUS
 62
     1
 10
1486.31366644
 20
1155.120545
 40
2.185758211
 50
301.002313915
 51
2.989498403
  0
LINE
  8
0
  6
CONTINUOUS
 62
     1
 10
1488.499090206
 20
1143.84122
 11
1487.439490804
 21
1142.00594
  0
ARC
  8
0
  6
CONTINUOUS
 62
     1
 10
1486.31366644
 20
1143.879455
 40
2.185758211
 50
357.010501597
 51
58.997686085
  0
LINE
  8
0
  6
CONTINUOUS
 62
     1
 10
1482.999190206
 20
1156.99406
 11
1487.439490804
 21
1156.99406
  0
LINE
  8
0
  6
CONTINUOUS
 62
     1
 10
1482.999190206
 20
1153.24703
 11
1487.439490804
 21
1153.24703
  0
LINE
  8
0
  6
CONTINUOUS
 62
     1
 10
1482.999190206
 20
1145.75297
 11
1487.439490804
 21
1145.75297
  0
LINE
  8
0
  6
CONTINUOUS
 62
     1
 10
1482.999190206
 20
1142.00594
 11
1487.439490804
 21
1142.00594
  0
LINE
  8
0
  6
CONTINUOUS
 62
     1
 10
1488.499090206
 20
1145.5
 11
1493.499090206
 21
1145.5
  0
LINE
  8
0
  6
CONTINUOUS
 62
     1
 10
1488.499090206
 20
1153.5
 11
1493.499090206
 21
1153.5
  0
LINE
  8
0
  6
CONTINUOUS
 62
     1
 10
1493.499090206
 20
1145.5
 11
1493.499090206
 21
1153.5
  0
LINE
  8
0
  6
CONTINUOUS
 62
     2
 10
1488.499090206
 20
1152.7
 11
1493.499090206
 21
1152.7
  0
LINE
  8
0
  6
CONTINUOUS
 62
     2
 10
1488.499090206
 20
1146.3
 11
1493.499090206
 21
1146.3
  0
LINE
  8
0
  6
CONTINUOUS
 62
     1
 10
1263.149691586
 20
1197.5
 11
1263.149691586
 21
1380.0
  0
LINE
  8
0
  6
CONTINUOUS
 62
     1
 10
1279.149691586
 20
1197.5
 11
1279.149691586
 21
1380.0
  0
LINE
  8
0
  6
CONTINUOUS
 62
     1
 10
1323.149691586
 20
1197.5
 11
1323.149691586
 21
1380.0
  0
LINE
  8
0
  6
CONTINUOUS
 62
     1
 10
1339.149691586
 20
1197.5
 11
1339.149691586
 21
1380.0
  0
LINE
  8
6
  6
CONTINUOUS
 62
     2
 10
1675.5
 20
1295.0
 11
1675.5
 21
1133.5
  0
LINE
  8
6
  6
CONTINUOUS
 62
     2
 10
1675.5
 20
1133.5
 11
1680.676380902
 21
1152.818516526
  0
LINE
  8
6
  6
CONTINUOUS
 62
     2
 10
1675.5
 20
1133.5
 11
1670.323619098
 21
1152.818516526
  0
LINE
  8
6
  6
CONTINUOUS
 62
     2
 10
1433.6
 20
1133.5
 11
1687.5
 21
1133.5
  0
TEXT
  8
6
  6
CONTINUOUS
 62
     2
 10
1667.5
 20
1180.25
 30
1.6
 40
24.0
  1
１６８
 50
90.0
 41
0.9
 51
0.0
  7
KANJI30
  0
LINE
  8
0
  6
CONTINUOUS
 62
     1
 10
1279.149691586
 20
1230.0
 11
1323.149691586
 21
1230.0
  0
LINE
  8
0
  6
CONTINUOUS
 62
     1
 10
595.0
 20
1400.0
 11
630.0
 21
1400.0
  0
LINE
  8
1
  6
CONTINUOUS
 62
     2
 10
819.0
 20
1359.466558854
 11
807.528561983
 21
1343.083454453
  0
LINE
  8
1
  6
CONTINUOUS
 62
     2
 10
819.0
 20
1359.466558854
 11
817.25699546
 21
1339.542655242
  0
TEXT
  8
0
  6
CONTINUOUS
 62
     2
 10
744.0
 20
1080.2
 30
0.0
 40
24.0
  1
推力リミッタ
 50
0.0
 41
0.9
 51
0.0
  7
KANJI13
  0
LINE
  8
6
  6
CONTINUOUS
 62
     2
 10
716.01036957
 20
1076.5
 11
881.5
 21
1076.5
  0
LINE
  8
1
  6
CONTINUOUS
 62
     2
 10
819.0
 20
1359.466558854
 11
716.01036957
 21
1076.5
  0
LINE
  8
0
  6
CONTINUOUS
 62
     4
 10
3248.0
 20
-56.0
 11
2456.0
 21
-56.0
  0
LINE
  8
0
  6
CONTINUOUS
 62
     4
 10
3248.0
 20
-136.0
 11
2456.0
 21
-136.0
  0
TEXT
  8
0
  6
CONTINUOUS
 62
     4
 10
175.999994954
 20
135.99999159
 30
1.599999664
 40
15.999996636
  1
ＰＡＲＴＳ　ＬＩＳＴ
 50
0.0
 41
0.6
 51
0.0
  7
KANJI31
  0
TEXT
  8
0
  6
CONTINUOUS
 62
     4
 10
535.999919262
 20
135.99999159
 30
1.599999664
 40
15.999996636
  1
Ｎ０．
 50
0.0
 41
0.6
 51
0.0
  7
KANJI31
  0
TEXT
  8
0
  6
CONTINUOUS
 62
     4
 10
175.999994954
 20
111.999996636
 30
1.919999596
 40
19.199995963
  1
部品表
 50
0.0
 41
0.9
 51
0.0
  7
KANJI32
  0
TEXT
  8
0
  6
CONTINUOUS
 62
     4
 10
535.999919262
 20
111.999996636
 30
1.919999596
 40
19.199995963
  1
項番
 50
0.0
 41
0.9
 51
0.0
  7
KANJI32
  0
TEXT
  8
0
  6
CONTINUOUS
 62
     4
 10
2370.9334008
 20
2254.9333328
 30
2.07999984
 40
20.7999984
  1
ＩＳＯ
 50
0.0
 41
0.9
 51
0.0
  7
KANJI33
  0
TEXT
  8
0
  6
CONTINUOUS
 62
     4
 10
2433.333396
 20
2254.9333328
 30
1.38666656
 40
13.8666656
  1
ＭＥＴＲＩＣ　ＳＣＲＥＷ　ＴＨＲＥＡＤ
 50
0.0
 41
0.75
 51
0.0
  7
KANJI34
  0
TEXT
  8
0
  6
CONTINUOUS
 62
     4
 10
2668.72004456
 20
2254.9333328
 30
1.38666656
 40
13.8666656
  1
ＩＳＯ
 50
0.0
 41
0.75
 51
0.0
  7
KANJI34
  0
TEXT
  8
0
  6
CONTINUOUS
 62
     4
 10
2866.32002936
 20
2254.9333328
 30
2.07999984
 40
20.7999984
  1
３
 50
0.0
 41
0.75
 51
0.0
  7
KANJI35
  0
TEXT
  8
0
  6
CONTINUOUS
 62
     4
 10
2883.65336136
 20
2254.9333328
 30
1.38666656
 40
13.8666656
  1
ＲＤ　ＡＮＧＬＥ　ＰＲＯＪＥＣＴＩＯＮ　第３角法
 50
0.0
 41
0.75
 51
0.0
  7
KANJI34
  0
TEXT
  8
0
  6
CONTINUOUS
 62
     4
 10
2706.85337496
 20
2254.9333328
 30
1.247999904
 40
12.47999904
  1
メートルネジ使用
 50
0.0
 41
0.75
 51
0.0
  7
KANJI36
  0
TEXT
  8
0
  6
CONTINUOUS
 62
     4
 10
2187.2000816
 20
245.0666552
 30
1.38666656
 40
13.8666656
  1
ＤＲＡＷＮ
 50
0.0
 41
0.6
 51
0.0
  7
KANJI37
  0
TEXT
  8
0
  6
CONTINUOUS
 62
     4
 10
2187.2000816
 20
300.5333176
 30
1.38666656
 40
13.8666656
  1
ＤＥＳＩＧＮ
 50
0.0
 41
0.6
 51
0.0
  7
KANJI37
  0
TEXT
  8
0
  6
CONTINUOUS
 62
     4
 10
2187.2000816
 20
355.99998
 30
1.38666656
 40
13.8666656
  1
ＣＨＥＣＫ
 50
0.0
 41
0.6
 51
0.0
  7
KANJI37
  0
TEXT
  8
0
  6
CONTINUOUS
 62
     4
 10
2187.2000816
 20
411.4666424
 30
1.38666656
 40
13.8666656
  1
ＣＯＤＥ
 50
0.0
 41
0.6
 51
0.0
  7
KANJI37
  0
LINE
  8
0
  6
CONTINUOUS
 62
     4
 10
2173.333416
 20
324.7999824
 11
2426.4000632
 21
324.7999824
  0
LINE
  8
0
  6
CONTINUOUS
 62
     4
 10
2173.333416
 20
269.33332
 11
2426.4000632
 21
269.33332
  0
LINE
  8
0
  6
CONTINUOUS
 62
     4
 10
2173.333416
 20
380.2666448
 11
2426.4000632
 21
380.2666448
  0
TEXT
  8
0
  6
CONTINUOUS
 62
     4
 10
2187.2000816
 20
279.7333192
 30
1.663999872
 40
16.63999872
  1
設計
 50
0.0
 41
0.6
 51
0.0
  7
KANJI38
  0
TEXT
  8
0
  6
CONTINUOUS
 62
     4
 10
2187.2000816
 20
335.1999816
 30
1.663999872
 40
16.63999872
  1
検図
 50
0.0
 41
0.6
 51
0.0
  7
KANJI38
  0
TEXT
  8
0
  6
CONTINUOUS
 62
     4
 10
2187.2000816
 20
390.666644
 30
1.663999872
 40
16.63999872
  1
分類
 50
0.0
 41
0.6
 51
0.0
  7
KANJI38
  0
LINE
  8
0
  6
CONTINUOUS
 62
     4
 10
2426.4000632
 20
269.33332
 11
3241.0666672
 21
269.33332
  0
TEXT
  8
0
  6
CONTINUOUS
 62
     4
 10
2440.2667288
 20
245.0666552
 30
1.38666656
 40
13.8666656
  1
ＤＲＡＷＩＮＧ　ＮＯ．
 50
0.0
 41
0.8
 51
0.0
  7
KANJI39
  0
TEXT
  8
0
  6
CONTINUOUS
 62
     4
 10
2440.2667288
 20
355.99998
 30
1.38666656
 40
13.8666656
  1
ＴＹＰＥ
 50
0.0
 41
0.8
 51
0.0
  7
KANJI39
  0
TEXT
  8
0
  6
CONTINUOUS
 62
     4
 10
2440.2667288
 20
220.7999904
 30
1.663999872
 40
16.63999872
  1
図　面　番　号
 50
0.0
 41
0.8
 51
0.0
  7
KANJI40
  0
TEXT
  8
0
  6
CONTINUOUS
 62
     4
 10
2440.2667288
 20
276.2666528
 30
1.663999872
 40
16.63999872
  1
製番
 50
0.0
 41
0.8
 51
0.0
  7
KANJI40
  0
TEXT
  8
0
  6
CONTINUOUS
 62
     4
 10
2440.2667288
 20
331.7333152
 30
1.663999872
 40
16.63999872
  1
機種
 50
0.0
 41
0.8
 51
0.0
  7
KANJI40
  0
LINE
  8
0
  6
CONTINUOUS
 62
     4
 10
2173.333416
 20
158.3999952
 11
2426.4000632
 21
158.3999952
  0
LINE
  8
0
  6
CONTINUOUS
 62
     4
 10
2173.333416
 20
213.8666576
 11
2426.4000632
 21
213.8666576
  0
TEXT
  8
0
  6
CONTINUOUS
 62
     4
 10
2187.2000816
 20
134.1333304
 30
1.38666656
 40
13.8666656
  1
ＳＣＡＬＥ
 50
0.0
 41
0.6
 51
0.0
  7
KANJI37
  0
TEXT
  8
0
  6
CONTINUOUS
 62
     4
 10
2187.2000816
 20
189.5999928
 30
1.38666656
 40
13.8666656
  1
ＤＡＴＥ
 50
0.0
 41
0.6
 51
0.0
  7
KANJI37
  0
TEXT
  8
0
  6
CONTINUOUS
 62
     4
 10
2187.2000816
 20
113.333332
 30
1.663999872
 40
16.63999872
  1
尺度
 50
0.0
 41
0.6
 51
0.0
  7
KANJI38
  0
TEXT
  8
0
  6
CONTINUOUS
 62
     4
 10
2187.2000816
 20
168.7999944
 30
1.663999872
 40
16.63999872
  1
日付
 50
0.0
 41
0.6
 51
0.0
  7
KANJI38
  0
TEXT
  8
0
  6
CONTINUOUS
 62
     4
 10
2187.2000816
 20
224.2666568
 30
1.663999872
 40
16.63999872
  1
作図
 50
0.0
 41
0.6
 51
0.0
  7
KANJI38
  0
LINE
  8
0
  6
CONTINUOUS
 62
     4
 10
1781.6001128
 20
102.9333328
 11
1781.6001128
 21
158.3999952
  0
LINE
  8
0
  6
CONTINUOUS
 62
     4
 10
1844.000108
 20
102.9333328
 11
1844.000108
 21
158.3999952
  0
TEXT
  8
0
  6
CONTINUOUS
 62
     4
 10
1802.4001112
 20
134.1333304
 30
1.38666656
 40
13.8666656
  1
ＢＹ
 50
0.0
 41
0.6
 51
0.0
  7
KANJI37
  0
TEXT
  8
0
  6
CONTINUOUS
 62
     4
 10
1954.9334328
 20
134.1333304
 30
1.38666656
 40
13.8666656
  1
ＤＥＳＣＲＩＰＴＩＯＮ
 50
0.0
 41
0.6
 51
0.0
  7
KANJI37
  0
TEXT
  8
0
  6
CONTINUOUS
 62
     4
 10
1802.4001112
 20
113.333332
 30
1.663999872
 40
16.63999872
  1
担当
 50
0.0
 41
0.6
 51
0.0
  7
KANJI38
  0
TEXT
  8
0
  6
CONTINUOUS
 62
     4
 10
1975.7334312
 20
113.333332
 30
1.663999872
 40
16.63999872
  1
記　　　　事
 50
0.0
 41
0.6
 51
0.0
  7
KANJI38
  0
LINE
  8
0
  6
CONTINUOUS
 62
     4
 10
1655.0667892
 20
147.999996
 11
1632.5334576
 21
113.333332
  0
TEXT
  8
0
  6
CONTINUOUS
 62
     4
 10
1712.2667848
 20
134.1333304
 30
1.38666656
 40
13.8666656
  1
ＤＡＴＥ
 50
0.0
 41
0.6
 51
0.0
  7
KANJI37
  0
TEXT
  8
0
  6
CONTINUOUS
 62
     4
 10
1722.666784
 20
113.333332
 30
1.663999872
 40
16.63999872
  1
日付
 50
0.0
 41
0.6
 51
0.0
  7
KANJI38
  0
LINE
  8
0
  6
CONTINUOUS
 62
     4
 10
1632.5334576
 20
113.333332
 11
1677.6001208
 21
113.333332
  0
LINE
  8
0
  6
CONTINUOUS
 62
     4
 10
1684.5334536
 20
102.9333328
 11
1684.5334536
 21
158.3999952
  0
LINE
  8
0
  6
CONTINUOUS
 62
     4
 10
1655.0667892
 20
147.999996
 11
1677.6001208
 21
113.333332
  0
LINE
  8
0
  6
CONTINUOUS
 62
     4
 10
2426.4000632
 20
189.5999928
 11
3241.0666672
 21
189.5999928
  0
LINE
  8
0
  6
CONTINUOUS
 62
     4
 10
2426.4000632
 20
102.9333328
 11
2426.4000632
 21
435.7333072
  0
LINE
  8
0
  6
LTYPE3
 62
     4
 10
3008.8000184
 20
199.999992
 11
3008.8000184
 21
255.4666544
  0
LINE
  8
0
  6
LTYPE3
 62
     4
 10
2960.2666888
 20
199.999992
 11
2960.2666888
 21
255.4666544
  0
LINE
  8
0
  6
LTYPE3
 62
     4
 10
2911.7333592
 20
199.999992
 11
2911.7333592
 21
255.4666544
  0
LINE
  8
0
  6
LTYPE3
 62
     4
 10
2863.2000296
 20
199.999992
 11
2863.2000296
 21
255.4666544
  0
LINE
  8
0
  6
LTYPE3
 62
     4
 10
2814.6667
 20
199.999992
 11
2814.6667
 21
255.4666544
  0
LINE
  8
0
  6
LTYPE3
 62
     4
 10
2766.1333704
 20
199.999992
 11
2766.1333704
 21
255.4666544
  0
LINE
  8
0
  6
LTYPE3
 62
     4
 10
2717.6000408
 20
199.999992
 11
2717.6000408
 21
255.4666544
  0
LINE
  8
0
  6
LTYPE3
 62
     4
 10
2669.0667112
 20
199.999992
 11
2669.0667112
 21
255.4666544
  0
LINE
  8
0
  6
LTYPE3
 62
     4
 10
2669.0667112
 20
255.4666544
 11
3008.8000184
 21
255.4666544
  0
LINE
  8
0
  6
LTYPE3
 62
     4
 10
2669.0667112
 20
199.999992
 11
3008.8000184
 21
199.999992
  0
LINE
  8
0
  6
CONTINUOUS
 62
     4
 10
3036.5333496
 20
229.4666564
 11
3050.4000152
 21
229.4666564
  0
LINE
  8
0
  6
CONTINUOUS
 62
     4
 10
3123.2000096
 20
208.666658
 11
3074.66668
 21
208.666658
  0
LINE
  8
0
  6
CONTINUOUS
 62
     4
 10
3074.66668
 20
208.666658
 11
3098.9333448
 21
250.2666548
  0
LINE
  8
0
  6
CONTINUOUS
 62
     4
 10
3098.9333448
 20
250.2666548
 11
3123.2000096
 21
208.666658
  0
LINE
  8
0
  6
CONTINUOUS
 62
     4
 10
3241.0666672
 20
491.1999696
 11
3241.0666672
 21
546.666632
  0
TEXT
  8
0
  6
CONTINUOUS
 62
     4
 10
3130.1333424
 20
26.666672
 30
6.9333328
 40
69.333328
  1
／
 50
0.0
 41
0.9
 51
0.0
  7
KANJI41
  0
TEXT
  8
0
  6
CONTINUOUS
 62
     4
 10
2786.9333688
 20
355.99998
 30
1.38666656
 40
13.8666656
  1
ＴＩＴＬＥ
 50
0.0
 41
0.8
 51
0.0
  7
KANJI39
  0
TEXT
  8
0
  6
CONTINUOUS
 62
     4
 10
2786.9333688
 20
331.7333152
 30
1.663999872
 40
16.63999872
  1
名称
 50
0.0
 41
0.8
 51
0.0
  7
KANJI40
  0
LINE
  8
0
  6
CONTINUOUS
 62
     6
 10
152.0
 20
96.0
 11
152.0
 21
2248.0
  0
LINE
  8
0
  6
CONTINUOUS
 62
     6
 10
152.0
 20
2248.0
 11
3248.0
 21
2248.0
  0
LINE
  8
0
  6
CONTINUOUS
 62
     6
 10
3248.0
 20
2248.0
 11
3248.0
 21
96.0
  0
LINE
  8
0
  6
CONTINUOUS
 62
     6
 10
3248.0
 20
96.0
 11
152.0
 21
96.0
  0
LINE
  8
0
  6
CONTINUOUS
 62
     6
 10
679.999888985
 20
103.999998318
 11
679.999888985
 21
215.999974769
  0
LINE
  8
0
  6
CONTINUOUS
 62
     6
 10
159.999998318
 20
215.999974769
 11
679.999888985
 21
215.999974769
  0
LINE
  8
0
  6
CONTINUOUS
 62
     6
 10
159.999998318
 20
103.999998318
 11
679.999888985
 21
103.999998318
  0
LINE
  8
0
  6
CONTINUOUS
 62
     6
 10
159.999998318
 20
103.999998318
 11
159.999998318
 21
215.999974769
  0
LINE
  8
0
  6
CONTINUOUS
 62
     6
 10
519.999922626
 20
103.999998318
 11
519.999922626
 21
215.999974769
  0
LINE
  8
0
  6
CONTINUOUS
 62
     6
 10
159.999998318
 20
159.999986544
 11
679.999888985
 21
159.999986544
  0
TEXT
  8
0
  6
CONTINUOUS
 62
     3
 10
175.999994954
 20
175.999983179
 30
2.399999495
 40
23.999994954
  1
ＰＬ
 50
0.0
 41
0.9
 51
0.0
  7
KANJI42
  0
LINE
  8
0
  6
CONTINUOUS
 62
     6
 10
1625.6001248
 20
102.9333328
 11
1625.6001248
 21
158.3999952
  0
LINE
  8
0
  6
CONTINUOUS
 62
     6
 10
1625.6001248
 20
158.3999952
 11
2173.333416
 21
158.3999952
  0
LINE
  8
0
  6
CONTINUOUS
 62
     6
 10
1625.6001248
 20
102.9333328
 11
3241.0666672
 21
102.9333328
  0
LINE
  8
0
  6
CONTINUOUS
 62
     6
 10
2718.20670742
 20
139.67999664
 11
2695.32670918
 21
139.67999664
  0
LINE
  8
0
  6
CONTINUOUS
 62
     6
 10
2718.20670742
 20
143.83999632
 11
2695.32670918
 21
143.83999632
  0
LINE
  8
0
  6
CONTINUOUS
 62
     6
 10
2718.20670742
 20
139.67999664
 11
2741.08670566
 21
139.67999664
  0
LINE
  8
0
  6
CONTINUOUS
 62
     6
 10
2718.20670742
 20
143.83999632
 11
2741.08670566
 21
143.83999632
  0
LINE
  8
0
  6
CONTINUOUS
 62
     6
 10
2741.08670566
 20
143.83999632
 11
2741.08670566
 21
139.67999664
  0
ARC
  8
0
  6
CONTINUOUS
 62
     6
 10
2746.28670526
 20
141.75999648
 40
20.7999984
 50
185.739170477
 51
90.0
  0
ARC
  8
0
  6
CONTINUOUS
 62
     6
 10
2746.28670526
 20
141.75999648
 40
24.95999808
 50
184.780191847
 51
90.0
  0
LINE
  8
0
  6
CONTINUOUS
 62
     6
 10
2695.32670918
 20
139.67999664
 11
2695.32670918
 21
143.83999632
  0
TEXT
  8
0
  6
CONTINUOUS
 62
     6
 10
2433.333396
 20
134.1333304
 30
0.0
 40
24.2666648
  1
ＵＮＩＴＥＣ　ＩＮＤＵＳＴＲＹ　ＣＯ．，ＬＴＤ．
 50
0.0
 41
0.42031746
 51
0.0
  7
KANJI43
  0
LINE
  8
0
  6
CONTINUOUS
 62
     6
 10
2715.08670766
 20
166.71999456
 11
2690.12670958
 21
166.71999456
  0
LINE
  8
0
  6
CONTINUOUS
 62
     6
 10
2721.32670718
 20
166.71999456
 11
2746.28670526
 21
166.71999456
  0
ARC
  8
0
  6
CONTINUOUS
 62
     6
 10
2690.12670958
 20
141.75999648
 40
20.7999984
 50
90.0
 51
354.260829523
  0
ARC
  8
0
  6
CONTINUOUS
 62
     6
 10
2690.12670958
 20
141.75999648
 40
24.95999808
 50
90.0
 51
355.219808153
  0
LINE
  8
0
  6
CONTINUOUS
 62
     6
 10
2715.08670766
 20
166.71999456
 11
2715.08670766
 21
162.55999488
  0
LINE
  8
0
  6
CONTINUOUS
 62
     6
 10
2690.12670958
 20
162.55999488
 11
2715.08670766
 21
162.55999488
  0
LINE
  8
0
  6
CONTINUOUS
 62
     6
 10
2721.32670718
 20
166.71999456
 11
2721.32670718
 21
162.55999488
  0
LINE
  8
0
  6
CONTINUOUS
 62
     6
 10
2746.28670526
 20
162.55999488
 11
2721.32670718
 21
162.55999488
  0
TEXT
  8
0
  6
CONTINUOUS
 62
     6
 10
2773.67336982
 20
125.11999776
 30
4.15999968
 40
41.5999968
  1
ユニテック工業株式会社
 50
0.0
 41
0.9
 51
0.0
  7
KANJI44
  0
TEXT
  8
0
  6
CONTINUOUS
 62
     2
 10
2320.0
 20
785.2
 30
8.208
 40
28.8
  1
２。モートル：全閉自冷かご形３０分定格
 50
0.0
 41
0.857222222
 51
0.0
  7
KANJI45
  0
TEXT
  8
0
  6
CONTINUOUS
 62
     3
 10
2292.0
 20
112.0
 30
2.4
 40
36.0
  1
１／８
 50
0.0
 41
0.666666667
 51
0.0
  7
KANJI46
  0
TEXT
  8
0
  6
CONTINUOUS
 62
     3
 10
2910.0
 20
280.0
 30
20.0
 40
40.0
  1
外形寸法図
 50
0.0
 41
1.0
 51
0.0
  7
KANJI47
  0
TEXT
  8
0
  6
CONTINUOUS
 62
     3
 10
2862.0
 20
328.0
 30
5.714285714
 40
40.0
  1
マイティシリンダ
 50
0.0
 41
1.0
 51
0.0
  7
KANJI48
  0
LINE
  8
6
  6
CONTINUOUS
 62
     2
 10
1741.500190206
 20
1347.5
 11
1736.323809304
 21
1328.181483474
  0
LINE
  8
6
  6
CONTINUOUS
 62
     2
 10
1741.500190206
 20
1347.5
 11
1746.676571108
 21
1328.181483474
  0
LINE
  8
6
  6
CONTINUOUS
 62
     2
 10
1741.500190206
 20
1347.5
 11
1741.500190206
 21
1252.5
  0
LINE
  8
6
  6
CONTINUOUS
 62
     2
 10
1741.500190206
 20
1252.5
 11
1746.676571108
 21
1271.818516526
  0
LINE
  8
6
  6
CONTINUOUS
 62
     2
 10
1741.500190206
 20
1252.5
 11
1736.323809304
 21
1271.818516526
  0
TEXT
  8
6
  6
CONTINUOUS
 62
     2
 10
1733.500190206
 20
1265.2
 30
2.4
 40
24.0
  1
φ９５
 50
90.0
 41
0.9
 51
0.0
  7
KANJI0
  0
LINE
  8
6
  6
CONTINUOUS
 62
     2
 10
1632.500190206
 20
1252.5
 11
1753.500190206
 21
1252.5
  0
LINE
  8
6
  6
CONTINUOUS
 62
     2
 10
1631.500190206
 20
1347.5
 11
1753.500190206
 21
1347.5
  0
TEXT
  8
0
  6
CONTINUOUS
 62
     2
 10
3016.8
 20
1491.2
 30
2.4
 40
24.0
  1
　　　／　
 50
0.0
 41
0.9
 51
0.0
  7
KANJI1
  0
TEXT
  8
0
  6
CONTINUOUS
 62
     2
 10
3010.0
 20
1385.0
 30
2.4
 40
24.0
  1
　　　／
 50
0.0
 41
0.9
 51
0.0
  7
KANJI1
  0
TEXT
  8
0
  6
CONTINUOUS
 62
     2
 10
1101.2
 20
622.0
 30
2.4
 40
24.0
  1
１１０５
 50
0.0
 41
0.9
 51
0.0
  7
KANJI1
  0
TEXT
  8
0
  6
CONTINUOUS
 62
     2
 10
1286.0
 20
623.6
 30
2.4
 40
24.0
  1
８８０
 50
0.0
 41
0.9
 51
0.0
  7
KANJI1
  0
TEXT
  8
0
  6
CONTINUOUS
 62
     2
 10
1101.2
 20
566.0
 30
2.4
 40
24.0
  1
１３６７
 50
0.0
 41
0.9
 51
0.0
  7
KANJI1
  0
TEXT
  8
0
  6
CONTINUOUS
 62
     2
 10
944.5
 20
453.4
 30
2.4
 40
24.0
  1
１０００
 50
0.0
 41
0.9
 51
0.0
  7
KANJI1
  0
TEXT
  8
0
  6
CONTINUOUS
 62
     2
 10
1421.6
 20
457.0
 30
2.4
 40
24.0
  1
１４７０
 50
0.0
 41
0.9
 51
0.0
  7
KANJI1
  0
TEXT
  8
0
  6
CONTINUOUS
 62
     2
 10
1595.8
 20
457.0
 30
2.4
 40
24.0
  1
２３１
 50
0.0
 41
0.9
 51
0.0
  7
KANJI1
  0
TEXT
  8
0
  6
CONTINUOUS
 62
     2
 10
968.0
 20
509.4
 30
2.4
 40
24.0
  1
７００
 50
0.0
 41
0.9
 51
0.0
  7
KANJI1
  0
TEXT
  8
0
  6
CONTINUOUS
 62
     2
 10
1101.2
 20
510.0
 30
2.4
 40
24.0
  1
１６４３
 50
0.0
 41
0.9
 51
0.0
  7
KANJI1
  0
TEXT
  8
0
  6
CONTINUOUS
 62
     2
 10
1594.8
 20
513.0
 30
2.4
 40
24.0
  1
１４８
 50
0.0
 41
0.9
 51
0.0
  7
KANJI1
  0
TEXT
  8
0
  6
CONTINUOUS
 62
     2
 10
1101.2
 20
454.0
 30
2.4
 40
24.0
  1
２０２６
 50
0.0
 41
0.9
 51
0.0
  7
KANJI1
  0
TEXT
  8
0
  6
CONTINUOUS
 62
     2
 10
1262.0
 20
455.6
 30
2.4
 40
24.0
  1
１８０１
 50
0.0
 41
0.9
 51
0.0
  7
KANJI1
  0
TEXT
  8
0
  6
CONTINUOUS
 62
     2
 10
1262.0
 20
511.6
 30
2.4
 40
24.0
  1
１４１８
 50
0.0
 41
0.9
 51
0.0
  7
KANJI1
  0
TEXT
  8
0
  6
CONTINUOUS
 62
     2
 10
1420.6
 20
513.0
 30
2.4
 40
24.0
  1
１１７０
 50
0.0
 41
0.9
 51
0.0
  7
KANJI1
  0
TEXT
  8
0
  6
CONTINUOUS
 62
     2
 10
2978.0
 20
1993.2
 30
1.6
 40
24.0
  1
ＭＣＬＥ８－　　ＪＬ
 50
0.0
 41
0.833333333
 51
0.0
  7
KANJI49
  0
TEXT
  8
0
  6
CONTINUOUS
 62
     2
 10
2960.8
 20
1826.2
 30
2.4
 40
24.0
  1
１２．５／１５
 50
0.0
 41
0.9
 51
0.0
  7
KANJI1
  0
TEXT
  8
0
  6
CONTINUOUS
 62
     2
 10
2985.8
 20
1548.2
 30
2.4
 40
24.0
  1
１．５
 50
0.0
 41
0.9
 51
0.0
  7
KANJI1
  0
TEXT
  8
0
  6
CONTINUOUS
 62
     2
 10
666.0
 20
452.8
 30
1.6
 40
24.0
  1
ＭＣＬＥ８－１０ＪＬ
 50
0.0
 41
0.833333333
 51
0.0
  7
KANJI49
  0
TEXT
  8
0
  6
CONTINUOUS
 62
     3
 10
2628.5333816
 20
207.999992
 30
17.333333333
 40
40.0
  1
Ａ３００１１２５
 50
0.0
 41
0.8
 51
0.0
  7
KANJI50
  0
TEXT
  8
0
  6
CONTINUOUS
 62
     2
 10
1188.275240468
 20
1967.133058
 30
2.79993
 40
27.9993
  1
注意：サーマルリレー等の選定は、上記の値を参照下さい。
 50
0.0
 41
0.9
 51
0.0
  7
KANJI51
  0
LINE
  8
0
  6
CONTINUOUS
 62
     2
 10
1172.275640468
 20
1959.133258
 11
1924.256840468
 21
1959.133258
  0
LINE
  8
0
  6
CONTINUOUS
 62
     1
 10
1958.85602
 20
2220.793375
 11
1958.85602
 21
2012.798575
  0
LINE
  8
0
  6
CONTINUOUS
 62
     2
 10
1838.85902
 20
2220.793375
 11
1838.85902
 21
2012.798575
  0
LINE
  8
0
  6
CONTINUOUS
 62
     2
 10
1718.86202
 20
2220.793375
 11
1718.86202
 21
2012.798575
  0
LINE
  8
0
  6
CONTINUOUS
 62
     1
 10
1558.86602
 20
2220.793375
 11
1558.86602
 21
2012.798575
  0
LINE
  8
0
  6
CONTINUOUS
 62
     1
 10
1558.86602
 20
2220.793375
 11
1958.85602
 21
2220.793375
  0
LINE
  8
0
  6
CONTINUOUS
 62
     1
 10
1558.86602
 20
2156.794975
 11
1958.85602
 21
2156.794975
  0
LINE
  8
0
  6
CONTINUOUS
 62
     2
 10
1558.86602
 20
2108.796175
 11
1958.85602
 21
2108.796175
  0
LINE
  8
0
  6
CONTINUOUS
 62
     2
 10
1558.86602
 20
2060.797375
 11
1958.85602
 21
2060.797375
  0
LINE
  8
0
  6
CONTINUOUS
 62
     1
 10
1558.86602
 20
2012.798575
 11
1958.85602
 21
2012.798575
  0
TEXT
  8
0
  6
CONTINUOUS
 62
     2
 10
1854.85862
 20
2192.794075
 30
2.39994
 40
23.9994
  1
起動電流
 50
0.0
 41
0.9
 51
0.0
  7
KANJI52
  0
TEXT
  8
0
  6
CONTINUOUS
 62
     2
 10
1854.85862
 20
2164.794775
 30
2.39994
 40
23.9994
  1
　　　Ａ
 50
0.0
 41
0.9
 51
0.0
  7
KANJI52
  0
TEXT
  8
0
  6
CONTINUOUS
 62
     2
 10
1734.86162
 20
2192.794075
 30
2.39994
 40
23.9994
  1
定格電流
 50
0.0
 41
0.9
 51
0.0
  7
KANJI52
  0
TEXT
  8
0
  6
CONTINUOUS
 62
     2
 10
1734.86162
 20
2164.794775
 30
2.39994
 40
23.9994
  1
　　　Ａ
 50
0.0
 41
0.9
 51
0.0
  7
KANJI52
  0
TEXT
  8
0
  6
CONTINUOUS
 62
     2
 10
1572.46568
 20
2192.794075
 30
2.39994
 40
23.9994
  1
電圧／周波数
 50
0.0
 41
0.9
 51
0.0
  7
KANJI52
  0
TEXT
  8
0
  6
CONTINUOUS
 62
     2
 10
1572.46568
 20
2164.794775
 30
2.39994
 40
23.9994
  1
　Ｖ／Ｈｚ
 50
0.0
 41
0.9
 51
0.0
  7
KANJI52
  0
LINE
  8
0
  6
CONTINUOUS
 62
     1
 10
1478.86802
 20
2220.793375
 11
1478.86802
 21
2012.798575
  0
LINE
  8
0
  6
CONTINUOUS
 62
     2
 10
1358.87102
 20
2220.793375
 11
1358.87102
 21
2012.798575
  0
LINE
  8
0
  6
CONTINUOUS
 62
     2
 10
1238.87402
 20
2220.793375
 11
1238.87402
 21
2012.798575
  0
LINE
  8
0
  6
CONTINUOUS
 62
     1
 10
1078.87802
 20
2220.793375
 11
1078.87802
 21
2012.798575
  0
LINE
  8
0
  6
CONTINUOUS
 62
     1
 10
1078.87802
 20
2220.793375
 11
1478.86802
 21
2220.793375
  0
LINE
  8
0
  6
CONTINUOUS
 62
     1
 10
1078.87802
 20
2156.794975
 11
1478.86802
 21
2156.794975
  0
LINE
  8
0
  6
CONTINUOUS
 62
     2
 10
1078.87802
 20
2108.796175
 11
1478.86802
 21
2108.796175
  0
LINE
  8
0
  6
CONTINUOUS
 62
     2
 10
1078.87802
 20
2060.797375
 11
1478.86802
 21
2060.797375
  0
LINE
  8
0
  6
CONTINUOUS
 62
     1
 10
1078.87802
 20
2012.798575
 11
1478.86802
 21
2012.798575
  0
TEXT
  8
0
  6
CONTINUOUS
 62
     2
 10
1374.87062
 20
2192.794075
 30
2.39994
 40
23.9994
  1
起動電流
 50
0.0
 41
0.9
 51
0.0
  7
KANJI52
  0
TEXT
  8
0
  6
CONTINUOUS
 62
     2
 10
1374.87062
 20
2164.794775
 30
2.39994
 40
23.9994
  1
　　　Ａ
 50
0.0
 41
0.9
 51
0.0
  7
KANJI52
  0
TEXT
  8
0
  6
CONTINUOUS
 62
     2
 10
1254.87362
 20
2192.794075
 30
2.39994
 40
23.9994
  1
定格電流
 50
0.0
 41
0.9
 51
0.0
  7
KANJI52
  0
TEXT
  8
0
  6
CONTINUOUS
 62
     2
 10
1254.87362
 20
2164.794775
 30
2.39994
 40
23.9994
  1
　　　Ａ
 50
0.0
 41
0.9
 51
0.0
  7
KANJI52
  0
TEXT
  8
0
  6
CONTINUOUS
 62
     2
 10
1092.47768
 20
2192.794075
 30
2.39994
 40
23.9994
  1
電圧／周波数
 50
0.0
 41
0.9
 51
0.0
  7
KANJI52
  0
TEXT
  8
0
  6
CONTINUOUS
 62
     2
 10
1092.47768
 20
2164.794775
 30
2.39994
 40
23.9994
  1
　Ｖ／Ｈｚ
 50
0.0
 41
0.9
 51
0.0
  7
KANJI52
  0
LINE
  8
0
  6
CONTINUOUS
 62
     1
 10
778.0
 20
1429.944375069
 11
768.0
 21
1419.944375069
  0
LINE
  8
0
  6
CONTINUOUS
 62
     1
 10
768.0
 20
1361.305778818
 11
768.0
 21
1419.944375069
  0
ARC
  8
0
  6
CONTINUOUS
 62
     1
 10
766.0
 20
1430.466558854
 40
3.0
 50
90.0
 51
180.0
  0
LINE
  8
0
  6
CONTINUOUS
 62
     1
 10
778.0
 20
1429.944375069
 11
876.0
 21
1429.944375069
  0
LINE
  8
0
  6
CONTINUOUS
 62
     1
 10
766.0
 20
1433.466558854
 11
888.0
 21
1433.466558854
  0
LINE
  8
0
  6
CONTINUOUS
 62
     1
 10
763.0
 20
1300.0
 11
763.0
 21
1430.0
  0
LINE
  8
0
  6
CONTINUOUS
 62
     1
 10
886.0
 20
1361.305778818
 11
886.0
 21
1419.944375069
  0
LINE
  8
0
  6
CONTINUOUS
 62
     1
 10
891.0
 20
1318.657620342
 11
891.0
 21
1430.466558854
  0
LINE
  8
0
  6
CONTINUOUS
 62
     1
 10
886.0
 20
1419.944375069
 11
876.0
 21
1429.944375069
  0
ARC
  8
0
  6
CONTINUOUS
 62
     1
 10
888.0
 20
1430.466558854
 40
3.0
 50
0.0
 51
90.0
  0
TEXT
  8
0
  6
CONTINUOUS
 62
     2
 10
1092.47768
 20
2120.795875
 30
2.39994
 40
23.9994
  1
２００／５０
 50
0.0
 41
0.9
 51
0.0
  7
KANJI52
  0
TEXT
  8
0
  6
CONTINUOUS
 62
     2
 10
1092.47768
 20
2072.797075
 30
2.39994
 40
23.9994
  1
２００／６０
 50
0.0
 41
0.9
 51
0.0
  7
KANJI52
  0
TEXT
  8
0
  6
CONTINUOUS
 62
     2
 10
1092.47768
 20
2024.798275
 30
2.39994
 40
23.9994
  1
２２０／６０
 50
0.0
 41
0.9
 51
0.0
  7
KANJI52
  0
TEXT
  8
0
  6
CONTINUOUS
 62
     2
 10
1572.46568
 20
2120.795875
 30
2.39994
 40
23.9994
  1
４００／５０
 50
0.0
 41
0.9
 51
0.0
  7
KANJI52
  0
TEXT
  8
0
  6
CONTINUOUS
 62
     2
 10
1572.46568
 20
2072.797075
 30
2.39994
 40
23.9994
  1
４００／６０
 50
0.0
 41
0.9
 51
0.0
  7
KANJI52
  0
TEXT
  8
0
  6
CONTINUOUS
 62
     2
 10
1572.46568
 20
2024.798275
 30
2.39994
 40
23.9994
  1
４４０／６０
 50
0.0
 41
0.9
 51
0.0
  7
KANJI52
  0
TEXT
  8
0
  6
CONTINUOUS
 62
     2
 10
1374.87062
 20
2120.795875
 30
2.39994
 40
23.9994
  1
４４．０
 50
0.0
 41
0.9
 51
0.0
  7
KANJI52
  0
TEXT
  8
0
  6
CONTINUOUS
 62
     2
 10
1254.87362
 20
2120.795875
 30
2.39994
 40
23.9994
  1
　６．８
 50
0.0
 41
0.9
 51
0.0
  7
KANJI52
  0
TEXT
  8
0
  6
CONTINUOUS
 62
     2
 10
1254.87362
 20
2072.797075
 30
2.39994
 40
23.9994
  1
　６．３
 50
0.0
 41
0.9
 51
0.0
  7
KANJI52
  0
TEXT
  8
0
  6
CONTINUOUS
 62
     2
 10
1254.87362
 20
2024.798275
 30
2.39994
 40
23.9994
  1
　６．０
 50
0.0
 41
0.9
 51
0.0
  7
KANJI52
  0
TEXT
  8
0
  6
CONTINUOUS
 62
     2
 10
1734.86162
 20
2120.795875
 30
2.39994
 40
23.9994
  1
　３．４
 50
0.0
 41
0.9
 51
0.0
  7
KANJI52
  0
TEXT
  8
0
  6
CONTINUOUS
 62
     2
 10
1734.86162
 20
2072.797075
 30
2.39994
 40
23.9994
  1
　３．２
 50
0.0
 41
0.9
 51
0.0
  7
KANJI52
  0
TEXT
  8
0
  6
CONTINUOUS
 62
     2
 10
1734.86162
 20
2024.798275
 30
2.39994
 40
23.9994
  1
　３．０
 50
0.0
 41
0.9
 51
0.0
  7
KANJI52
  0
TEXT
  8
0
  6
CONTINUOUS
 62
     2
 10
1374.87062
 20
2072.797075
 30
2.39994
 40
23.9994
  1
３８．０
 50
0.0
 41
0.9
 51
0.0
  7
KANJI52
  0
TEXT
  8
0
  6
CONTINUOUS
 62
     2
 10
1374.87062
 20
2024.798275
 30
2.39994
 40
23.9994
  1
４１．８
 50
0.0
 41
0.9
 51
0.0
  7
KANJI52
  0
TEXT
  8
0
  6
CONTINUOUS
 62
     2
 10
1854.85862
 20
2120.795875
 30
2.39994
 40
23.9994
  1
２２．０
 50
0.0
 41
0.9
 51
0.0
  7
KANJI52
  0
TEXT
  8
0
  6
CONTINUOUS
 62
     2
 10
1853.992019532
 20
2069.130492
 30
2.39994
 40
23.9994
  1
１９．０
 50
0.0
 41
0.9
 51
0.0
  7
KANJI52
  0
TEXT
  8
0
  6
CONTINUOUS
 62
     2
 10
1855.991969532
 20
2023.798292
 30
2.39994
 40
23.9994
  1
２０．９
 50
0.0
 41
0.9
 51
0.0
  7
KANJI52
  0
LINE
  8
0
  6
CONTINUOUS
 62
     1
 10
457.0
 20
1165.0
 11
457.0
 21
1409.0
  0
LINE
  8
0
  6
CONTINUOUS
 62
     1
 10
440.0
 20
1165.0
 11
440.0
 21
1409.0
  0
LINE
  8
0
  6
CONTINUOUS
 62
     1
 10
595.0
 20
1404.15
 11
595.0
 21
1409.0
  0
LINE
  8
0
  6
CONTINUOUS
 62
     1
 10
595.0
 20
1406.0
 11
595.0
 21
1409.0
  0
LINE
  8
0
  6
CONTINUOUS
 62
     1
 10
595.0
 20
1406.0
 11
595.0
 21
1409.0
  0
LINE
  8
0
  6
LTYPE1
 62
     2
 10
473.0
 20
1405.0
 11
416.0
 21
1405.0
  0
LINE
  8
0
  6
CONTINUOUS
 62
     1
 10
431.9789
 20
1413.26802
 11
433.527076294
 21
1415.94954
  0
LINE
  8
0
  6
CONTINUOUS
 62
     1
 10
431.9789
 20
1405.0
 11
431.9789
 21
1413.26802
  0
LINE
  8
0
  6
CONTINUOUS
 62
     1
 10
431.9789
 20
1396.73198
 11
433.527076294
 21
1394.05046
  0
LINE
  8
0
  6
CONTINUOUS
 62
     1
 10
431.9789
 20
1405.0
 11
431.9789
 21
1396.73198
  0
ARC
  8
0
  6
CONTINUOUS
 62
     1
 10
442.433121693
 20
1405.0
 40
10.454221693
 50
148.419912243
 51
211.580087757
  0
ARC
  8
0
  6
CONTINUOUS
 62
     1
 10
435.172013606
 20
1413.212155
 40
3.193602261
 50
177.010501597
 51
238.997686085
  0
LINE
  8
0
  6
CONTINUOUS
 62
     1
 10
431.9789
 20
1396.73198
 11
433.527076294
 21
1394.05046
  0
ARC
  8
0
  6
CONTINUOUS
 62
     1
 10
435.172013606
 20
1396.787845
 40
3.193602261
 50
121.002313915
 51
182.989498403
  0
LINE
  8
0
  6
CONTINUOUS
 62
     1
 10
440.0
 20
1415.94954
 11
433.527076294
 21
1415.94954
  0
LINE
  8
0
  6
CONTINUOUS
 62
     1
 10
440.0
 20
1410.47477
 11
433.527076294
 21
1410.47477
  0
LINE
  8
0
  6
CONTINUOUS
 62
     1
 10
440.0
 20
1399.52523
 11
433.527076294
 21
1399.52523
  0
LINE
  8
0
  6
CONTINUOUS
 62
     1
 10
440.0
 20
1394.05046
 11
433.527076294
 21
1394.05046
  0
LINE
  8
0
  6
CONTINUOUS
 62
     2
 10
2002.8
 20
1053.7
 11
2022.118516526
 21
1048.523619098
  0
LINE
  8
0
  6
CONTINUOUS
 62
     2
 10
2002.8
 20
1053.7
 11
2022.118516526
 21
1058.876380902
  0
LINE
  8
0
  6
CONTINUOUS
 62
     2
 10
2002.8
 20
1053.7
 11
2262.8
 21
1053.7
  0
LINE
  8
0
  6
CONTINUOUS
 62
     2
 10
2262.8
 20
1053.7
 11
2243.481483474
 21
1058.876380902
  0
LINE
  8
0
  6
CONTINUOUS
 62
     2
 10
2262.8
 20
1053.7
 11
2243.481483474
 21
1048.523619098
  0
TEXT
  8
0
  6
CONTINUOUS
 62
     2
 10
2098.8
 20
1061.7
 30
1.6
 40
24.0
  1
２６０
 50
0.0
 41
0.9
 51
0.0
  7
KANJI30
  0
LINE
  8
0
  6
CONTINUOUS
 62
     2
 10
1992.8
 20
958.7
 11
2012.118516526
 21
953.523619098
  0
LINE
  8
0
  6
CONTINUOUS
 62
     2
 10
1992.8
 20
958.7
 11
2012.118516526
 21
963.876380902
  0
LINE
  8
0
  6
CONTINUOUS
 62
     2
 10
1992.8
 20
958.7
 11
2272.8
 21
958.7
  0
LINE
  8
0
  6
CONTINUOUS
 62
     2
 10
2272.8
 20
958.7
 11
2253.481483474
 21
963.876380902
  0
LINE
  8
0
  6
CONTINUOUS
 62
     2
 10
2272.8
 20
958.7
 11
2253.481483474
 21
953.523619098
  0
TEXT
  8
0
  6
CONTINUOUS
 62
     2
 10
2098.8
 20
966.7
 30
1.6
 40
24.0
  1
２８０
 50
0.0
 41
0.9
 51
0.0
  7
KANJI30
  0
LINE
  8
1
  6
CONTINUOUS
 62
     2
 10
2355.307300983
 20
1163.0
 11
2360.483681885
 21
1182.318516526
  0
LINE
  8
1
  6
CONTINUOUS
 62
     2
 10
2355.307300983
 20
1163.0
 11
2350.130920081
 21
1182.318516526
  0
LINE
  8
1
  6
CONTINUOUS
 62
     2
 10
2355.307300983
 20
1163.0
 11
2355.307300983
 21
1298.0
  0
LINE
  8
1
  6
CONTINUOUS
 62
     2
 10
2355.307300983
 20
1298.0
 11
2350.130920081
 21
1278.681483474
  0
LINE
  8
1
  6
CONTINUOUS
 62
     2
 10
2355.307300983
 20
1298.0
 11
2360.483681885
 21
1278.681483474
  0
LINE
  8
1
  6
CONTINUOUS
 62
     2
 10
2280.8
 20
1298.0
 11
2371.307300983
 21
1298.0
  0
TEXT
  8
1
  6
CONTINUOUS
 62
     2
 10
2347.307300983
 20
1189.7
 30
2.4
 40
28.0
  1
１３５
 50
90.0
 41
0.914285714
 51
0.0
  7
KANJI53
  0
LINE
  8
1
  6
CONTINUOUS
 62
     2
 10
1900.0
 20
1320.5
 11
1905.176380902
 21
1339.818516526
  0
LINE
  8
1
  6
CONTINUOUS
 62
     2
 10
1900.0
 20
1320.5
 11
1894.823619098
 21
1339.818516526
  0
LINE
  8
1
  6
CONTINUOUS
 62
     2
 10
1900.0
 20
1320.5
 11
1900.0
 21
1275.5
  0
LINE
  8
1
  6
CONTINUOUS
 62
     2
 10
1900.0
 20
1275.5
 11
1894.823619098
 21
1256.181483474
  0
LINE
  8
1
  6
CONTINUOUS
 62
     2
 10
1900.0
 20
1275.5
 11
1905.176380902
 21
1256.181483474
  0
LINE
  8
1
  6
CONTINUOUS
 62
     2
 10
1984.8
 20
1275.5
 11
1884.0
 21
1275.5
  0
LINE
  8
0
  6
CONTINUOUS
 62
     6
 10
3241.0666672
 20
102.9333328
 11
3241.0666672
 21
546.666632
  0
TEXT
  8
0
  6
CONTINUOUS
 62
     2
 10
2544.0
 20
336.0
 30
0.0
 40
28.0
  1
ＭＣＬＥ８－ＪＬ
 50
0.0
 41
0.793650794
 51
0.0
  7
KANJI54
  0
TEXT
  8
0
  6
CONTINUOUS
 62
     2
 10
2960.8
 20
1774.5
 30
2.4
 40
24.0
  1
２１６Ｎ　（２２ｋｇｍ）
 50
0.0
 41
0.9
 51
0.0
  7
KANJI1
  0
TEXT
  8
0
  6
CONTINUOUS
 62
     2
 10
2950.8
 20
1932.5
 30
2.4
 40
24.0
  1
７８．４ＫＮ　（８ｔｏｎ）
 50
0.0
 41
0.9
 51
0.0
  7
KANJI1
  0
LINE
  8
1
  6
CONTINUOUS
 62
     2
 10
991.2
 20
1230.0
 11
969.9
 21
1230.0
  0
LINE
  8
0
  6
CONTINUOUS
 62
     1
 10
946.0
 20
1400.0
 11
946.0
 21
1200.0
  0
LINE
  8
0
  6
CONTINUOUS
 62
     1
 10
895.0
 20
1200.0
 11
946.0
 21
1200.0
  0
LINE
  8
0
  6
CONTINUOUS
 62
     1
 10
895.0
 20
1400.0
 11
946.0
 21
1400.0
  0
LINE
  8
0
  6
CONTINUOUS
 62
     1
 10
961.0
 20
1384.0
 11
961.0
 21
1216.0
  0
LINE
  8
0
  6
CONTINUOUS
 62
     1
 10
946.0
 20
1384.0
 11
961.0
 21
1384.0
  0
LINE
  8
0
  6
CONTINUOUS
 62
     1
 10
946.0
 20
1216.0
 11
961.0
 21
1216.0
  0
LINE
  8
1
  6
CONTINUOUS
 62
     2
 10
987.9
 20
1370.0
 11
961.0
 21
1370.0
  0
LINE
  8
0
  6
LTYPE1
 62
     2
 10
861.0
 20
1387.5
 11
962.0
 21
1387.5
  0
LINE
  8
0
  6
LTYPE1
 62
     2
 10
865.0
 20
1212.5
 11
965.0
 21
1212.5
  0
LINE
  8
0
  6
CONTINUOUS
 62
     1
 10
946.0
 20
1380.0
 11
961.0
 21
1380.0
  0
LINE
  8
0
  6
CONTINUOUS
 62
     1
 10
946.0
 20
1220.0
 11
961.0
 21
1220.0
  0
LINE
  8
0
  6
CONTINUOUS
 62
     1
 10
946.0
 20
1296.0
 11
961.0
 21
1296.0
  0
LINE
  8
0
  6
CONTINUOUS
 62
     1
 10
946.0
 20
1304.0
 11
961.0
 21
1304.0
  0
LINE
  8
0
  6
CONTINUOUS
 62
     1
 10
940.274192965
 20
1141.5
 11
954.130599426
 21
1133.5
  0
LINE
  8
0
  6
LTYPE3
 62
     2
 10
940.274192965
 20
1143.5
 11
990.274192965
 21
1143.5
  0
LINE
  8
0
  6
CONTINUOUS
 62
     1
 10
954.130599426
 20
1133.5
 11
976.417786504
 21
1133.5
  0
LINE
  8
0
  6
LTYPE3
 62
     2
 10
940.274192965
 20
1155.5
 11
990.274192965
 21
1155.5
  0
LINE
  8
0
  6
CONTINUOUS
 62
     1
 10
940.274192965
 20
1157.5
 11
954.130599426
 21
1165.5
  0
LINE
  8
0
  6
CONTINUOUS
 62
     1
 10
954.130599426
 20
1165.5
 11
976.417786504
 21
1165.5
  0
LINE
  8
0
  6
CONTINUOUS
 62
     1
 10
990.274192965
 20
1157.5
 11
976.417786504
 21
1165.5
  0
LINE
  8
0
  6
CONTINUOUS
 62
     1
 10
990.274192965
 20
1141.5
 11
990.274192965
 21
1157.5
  0
LINE
  8
0
  6
CONTINUOUS
 62
     1
 10
990.274192965
 20
1141.5
 11
976.417786504
 21
1133.5
  0
LINE
  8
0
  6
CONTINUOUS
 62
     1
 10
976.417786504
 20
1133.5
 11
976.417786504
 21
1165.5
  0
LINE
  8
0
  6
CONTINUOUS
 62
     1
 10
954.130599426
 20
1133.5
 11
976.417786504
 21
1133.5
  0
LINE
  8
0
  6
CONTINUOUS
 62
     1
 10
954.130599426
 20
1133.5
 11
954.130599426
 21
1165.5
  0
LINE
  8
0
  6
CONTINUOUS
 62
     1
 10
940.274192965
 20
1141.5
 11
940.274192965
 21
1157.5
  0
CIRCLE
  8
0
  6
CONTINUOUS
 62
     2
 10
965.274192965
 20
1149.5
 40
5.0
  0
CIRCLE
  8
0
  6
CONTINUOUS
 62
     2
 10
965.274192965
 20
1149.5
 40
4.0
  0
LINE
  8
0
  6
LTYPE2
 62
     2
 10
965.274192965
 20
1139.5
 11
965.274192965
 21
1159.5
  0
LINE
  8
0
  6
CONTINUOUS
 62
     1
 10
933.274192965
 20
1155.5
 11
940.274192965
 21
1155.5
  0
LINE
  8
0
  6
CONTINUOUS
 62
     1
 10
940.274192965
 20
1143.5
 11
933.274192965
 21
1143.5
  0
POINT
  8
0
  6
CONTINUOUS
 62
     1
 10
933.274192965
 20
1143.5
  0
LINE
  8
0
  6
LTYPE4
 62
     2
 10
933.274192965
 20
1189.5
 11
901.274192965
 21
1189.5
  0
LINE
  8
0
  6
LTYPE4
 62
     2
 10
933.274192965
 20
1136.5
 11
933.274192965
 21
1189.5
  0
LINE
  8
0
  6
LTYPE4
 62
     2
 10
891.274192965
 20
1171.5
 11
901.274192965
 21
1171.5
  0
LINE
  8
0
  6
LTYPE4
 62
     2
 10
875.274192965
 20
1164.5
 11
891.274192965
 21
1164.5
  0
LINE
  8
0
  6
LTYPE4
 62
     2
 10
872.774192965
 20
1177.5
 11
872.774192965
 21
1167.7
  0
LINE
  8
0
  6
LTYPE4
 62
     2
 10
872.774192965
 20
1167.7
 11
867.159833611
 21
1167.7
  0
LINE
  8
0
  6
LTYPE4
 62
     2
 10
865.774192965
 20
1170.1
 11
867.159833611
 21
1167.7
  0
LINE
  8
0
  6
LTYPE4
 62
     2
 10
865.774192965
 20
1177.5
 11
865.774192965
 21
1170.1
  0
LINE
  8
0
  6
LTYPE4
 62
     2
 10
872.774192965
 20
1172.6
 11
867.159833611
 21
1172.6
  0
ARC
  8
0
  6
LTYPE4
 62
     2
 10
868.632076797
 20
1170.15
 40
2.858321186
 50
121.002313915
 51
182.989498403
  0
LINE
  8
0
  6
LTYPE4
 62
     2
 10
875.274192965
 20
1168.3
 11
872.774192965
 21
1168.3
  0
LINE
  8
0
  6
LTYPE4
 62
     2
 10
875.274192965
 20
1177.5
 11
872.774192969
 21
1175.000000004
  0
LINE
  8
0
  6
LTYPE4
 62
     2
 10
891.274192965
 20
1183.5
 11
901.274192965
 21
1183.5
  0
LINE
  8
0
  6
LTYPE4
 62
     2
 10
872.774192969
 20
1177.5
 11
875.274192965
 21
1179.999999996
  0
LINE
  8
0
  6
LTYPE4
 62
     2
 10
875.274192965
 20
1164.5
 11
875.274192965
 21
1197.5
  0
LINE
  8
0
  6
LTYPE4
 62
     2
 10
891.274192965
 20
1164.5
 11
891.274192965
 21
1191.5
  0
LINE
  8
0
  6
LTYPE4
 62
     2
 10
865.774192965
 20
1177.5
 11
865.774192965
 21
1184.9
  0
LINE
  8
0
  6
LTYPE4
 62
     2
 10
872.774192965
 20
1177.5
 11
872.774192965
 21
1187.3
  0
LINE
  8
0
  6
LTYPE4
 62
     2
 10
872.774192965
 20
1187.3
 11
867.159833611
 21
1187.3
  0
LINE
  8
0
  6
LTYPE4
 62
     2
 10
865.774192965
 20
1184.9
 11
867.159833611
 21
1187.3
  0
LINE
  8
0
  6
LTYPE4
 62
     2
 10
872.774192965
 20
1182.4
 11
867.159833611
 21
1182.4
  0
LINE
  8
0
  6
LTYPE4
 62
     2
 10
865.774192965
 20
1184.9
 11
867.159833611
 21
1187.3
  0
ARC
  8
0
  6
LTYPE4
 62
     2
 10
868.632076797
 20
1184.85
 40
2.858321186
 50
177.010501597
 51
238.997686085
  0
LINE
  8
0
  6
LTYPE4
 62
     2
 10
875.274192965
 20
1186.7
 11
872.774192965
 21
1186.7
  0
ARC
  8
0
  6
LTYPE4
 62
     2
 10
875.130875765
 20
1177.5
 40
9.3566828
 50
148.419912243
 51
211.580087757
  0
LINE
  8
0
  6
LTYPE4
 62
     2
 10
901.274192965
 20
1136.5
 11
933.274192965
 21
1136.5
  0
LINE
  8
0
  6
LTYPE4
 62
     2
 10
898.774192965
 20
1149.5
 11
898.774192965
 21
1139.7
  0
LINE
  8
0
  6
LTYPE4
 62
     2
 10
898.774192965
 20
1139.7
 11
893.159833611
 21
1139.7
  0
LINE
  8
0
  6
LTYPE4
 62
     2
 10
891.774192965
 20
1142.1
 11
893.159833611
 21
1139.7
  0
LINE
  8
0
  6
LTYPE4
 62
     2
 10
891.774192965
 20
1149.5
 11
891.774192965
 21
1142.1
  0
LINE
  8
0
  6
LTYPE4
 62
     2
 10
898.774192965
 20
1144.6
 11
893.159833611
 21
1144.6
  0
ARC
  8
0
  6
LTYPE4
 62
     2
 10
894.632076797
 20
1142.15
 40
2.858321186
 50
121.002313915
 51
182.989498403
  0
LINE
  8
0
  6
LTYPE4
 62
     2
 10
901.274192965
 20
1140.3
 11
898.774192965
 21
1140.3
  0
LINE
  8
0
  6
LTYPE4
 62
     2
 10
898.774192965
 20
1149.5
 11
898.774192965
 21
1159.3
  0
LINE
  8
0
  6
LTYPE4
 62
     2
 10
898.774192965
 20
1159.3
 11
893.159833611
 21
1159.3
  0
LINE
  8
0
  6
LTYPE4
 62
     2
 10
891.774192965
 20
1156.9
 11
893.159833611
 21
1159.3
  0
LINE
  8
0
  6
LTYPE4
 62
     2
 10
891.774192965
 20
1149.5
 11
891.774192965
 21
1156.9
  0
LINE
  8
0
  6
LTYPE4
 62
     2
 10
898.774192965
 20
1154.4
 11
893.159833611
 21
1154.4
  0
LINE
  8
0
  6
LTYPE4
 62
     2
 10
891.774192965
 20
1156.9
 11
893.159833611
 21
1159.3
  0
ARC
  8
0
  6
LTYPE4
 62
     2
 10
894.632076797
 20
1156.85
 40
2.858321186
 50
177.010501597
 51
238.997686085
  0
LINE
  8
0
  6
LTYPE4
 62
     2
 10
898.774192969
 20
1149.5
 11
901.274192965
 21
1151.999999996
  0
LINE
  8
0
  6
LTYPE4
 62
     2
 10
901.274192965
 20
1158.7
 11
898.774192965
 21
1158.7
  0
ARC
  8
0
  6
LTYPE4
 62
     2
 10
901.130875765
 20
1149.5
 40
9.3566828
 50
148.419912243
 51
211.580087757
  0
LINE
  8
0
  6
LTYPE4
 62
     2
 10
901.274192965
 20
1149.5
 11
898.774192969
 21
1147.000000004
  0
LINE
  8
0
  6
LTYPE4
 62
     2
 10
901.274192965
 20
1136.5
 11
901.274192965
 21
1189.5
  0
LINE
  8
0
  6
LTYPE4
 62
     2
 10
983.149691586
 20
1197.5
 11
875.274192965
 21
1197.5
  0
LINE
  8
0
  6
LTYPE4
 62
     2
 10
983.149691586
 20
1191.5
 11
875.274192965
 21
1191.5
  0
LINE
  8
0
  6
LTYPE4
 62
     2
 10
983.149691586
 20
1380.0
 11
967.149691586
 21
1380.0
  0
LINE
  8
0
  6
LTYPE4
 62
     2
 10
967.149691586
 20
1197.5
 11
967.149691586
 21
1380.0
  0
LINE
  8
0
  6
LTYPE4
 62
     2
 10
983.149691586
 20
1191.5
 11
983.149691586
 21
1380.0
  0
LINE
  8
0
  6
CONTINUOUS
 62
     1
 10
990.274192965
 20
1143.5
 11
1285.149691586
 21
1143.5
  0
LINE
  8
0
  6
CONTINUOUS
 62
     1
 10
990.274192965
 20
1155.5
 11
1253.849691586
 21
1155.5
  0
LINE
  8
0
  6
LTYPE4
 62
     2
 10
933.274192965
 20
1183.5
 11
1232.149691586
 21
1183.5
  0
LINE
  8
0
  6
LTYPE4
 62
     2
 10
933.274192965
 20
1171.5
 11
1232.149691586
 21
1171.5
  0
LINE
  8
0
  6
LTYPE1
 62
     2
 10
843.649691586
 20
1177.5
 11
1262.149691586
 21
1177.5
  0
LINE
  8
0
  6
LTYPE5
 62
     2
 10
887.149691586
 20
1149.5
 11
1503.149691586
 21
1149.5
  0
TEXT
  8
0
  6
CONTINUOUS
 62
     2
 10
3004.0
 20
1154.4
 30
16.0
 40
28.0
  1
同時切り
 50
0.0
 41
0.9
 51
0.0
  7
KANJI55
  0
TEXT
  8
0
  6
CONTINUOUS
 62
     3
 10
2619.5
 20
280.0
 30
2.4
 40
32.0
  1
Ｓ
 50
0.0
 41
0.75
 51
0.0
  7
KANJI56
  0
CIRCLE
  8
0
  6
CONTINUOUS
 62
     3
 10
2630.5
 20
296.5
 40
21.708293346
  0
TEXT
  8
0
  6
CONTINUOUS
 62
     3
 10
2262.6667112
 20
227.999992
 30
24.0
 40
28.0
  1
岡田
 50
0.0
 41
0.771428571
 51
0.0
  7
KANJI57
  0
TEXT
  8
0
  6
CONTINUOUS
 62
     2
 10
1778.8
 20
624.4
 30
2.4
 40
24.0
  1
２０３
 50
0.0
 41
0.9
 51
0.0
  7
KANJI1
  0
TEXT
  8
0
  6
CONTINUOUS
 62
     2
 10
1778.8
 20
568.4
 30
2.4
 40
24.0
  1
２１４
 50
0.0
 41
0.9
 51
0.0
  7
KANJI1
  0
TEXT
  8
0
  6
CONTINUOUS
 62
     2
 10
1778.8
 20
512.4
 30
2.4
 40
24.0
  1
２２５
 50
0.0
 41
0.9
 51
0.0
  7
KANJI1
  0
TEXT
  8
0
  6
CONTINUOUS
 62
     2
 10
1778.8
 20
456.4
 30
2.4
 40
24.0
  1
２４４
 50
0.0
 41
0.9
 51
0.0
  7
KANJI1
  0
TEXT
  8
0
  6
CONTINUOUS
 62
     2
 10
666.0
 20
396.8
 30
1.6
 40
24.0
  1
ＭＣＬＥ８－　　ＪＬ
 50
0.0
 41
0.833333333
 51
0.0
  7
KANJI49
  0
TEXT
  8
0
  6
CONTINUOUS
 62
     2
 10
666.0
 20
340.8
 30
1.6
 40
24.0
  1
ＭＣＬＥ８－　　ＪＬ
 50
0.0
 41
0.833333333
 51
0.0
  7
KANJI49
  0
TEXT
  8
0
  6
CONTINUOUS
 62
     2
 10
666.0
 20
508.8
 30
1.6
 40
24.0
  1
ＭＣＬＥ８－　７ＪＬ
 50
0.0
 41
0.833333333
 51
0.0
  7
KANJI49
  0
TEXT
  8
0
  6
CONTINUOUS
 62
     2
 10
666.0
 20
564.8
 30
1.6
 40
24.0
  1
ＭＣＬＥ８－　５ＪＬ
 50
0.0
 41
0.833333333
 51
0.0
  7
KANJI49
  0
TEXT
  8
0
  6
CONTINUOUS
 62
     2
 10
666.0
 20
620.8
 30
1.6
 40
24.0
  1
ＭＣＬＥ８－　３ＪＬ
 50
0.0
 41
0.833333333
 51
0.0
  7
KANJI49
  0
TEXT
  8
0
  6
CONTINUOUS
 62
     2
 10
2999.2
 20
1715.2
 30
20.5
 40
28.0
  1
全閉屋外形
 50
0.0
 41
0.9
 51
0.0
  7
KANJI8
  0
LINE
  8
0
  6
CONTINUOUS
 62
     6
 10
2173.333416
 20
102.9333328
 11
2173.333416
 21
491.1999696
  0
TEXT
  8
0
  6
CONTINUOUS
 62
     4
 10
2198.0
 20
444.0
 30
0.8
 40
28.8
  1
ご注文主
 50
0.0
 41
0.833333333
 51
0.0
  7
KANJI58
  0
LINE
  8
0
  6
CONTINUOUS
 62
     6
 10
2173.333416
 20
546.666632
 11
3241.0666672
 21
546.666632
  0
LINE
  8
0
  6
CONTINUOUS
 62
     6
 10
2173.333416
 20
491.1999696
 11
2173.333416
 21
546.666632
  0
LINE
  8
0
  6
CONTINUOUS
 62
     4
 10
2322.0
 20
435.7333072
 11
2322.0
 21
546.666632
  0
TEXT
  8
0
  6
CONTINUOUS
 62
     4
 10
2198.0
 20
499.4666624
 30
0.8
 40
28.8
  1
ご用途
 50
0.0
 41
0.833333333
 51
0.0
  7
KANJI58
  0
LINE
  8
0
  6
CONTINUOUS
 62
     4
 10
2173.333416
 20
491.1999696
 11
3241.0666672
 21
491.1999696
  0
LINE
  8
0
  6
CONTINUOUS
 62
     4
 10
2426.4000632
 20
380.2666448
 11
3241.0666672
 21
380.2666448
  0
LINE
  8
0
  6
CONTINUOUS
 62
     4
 10
2426.4000632
 20
324.7999824
 11
2766.1333704
 21
324.7999824
  0
TEXT
  8
0
  6
CONTINUOUS
 62
     4
 10
2440.2667288
 20
300.5333176
 30
1.38666656
 40
13.8666656
  1
ＭＦＧ．ＮＯ．
 50
0.0
 41
0.8
 51
0.0
  7
KANJI39
  0
LINE
  8
0
  6
CONTINUOUS
 62
     4
 10
2250.8
 20
435.7333072
 11
3241.0666672
 21
435.7333072
  0
LINE
  8
0
  6
CONTINUOUS
 62
     4
 10
2173.333416
 20
435.7333072
 11
2291.8
 21
435.7333072
  0
LINE
  8
0
  6
CONTINUOUS
 62
     4
 10
47.9333328
 20
101.9333328
 11
131.1333264
 21
101.9333328
  0
LINE
  8
0
  6
CONTINUOUS
 62
     4
 10
47.9333328
 20
143.5333296
 11
131.1333264
 21
143.5333296
  0
LINE
  8
0
  6
CONTINUOUS
 62
     4
 10
47.9333328
 20
185.1333264
 11
131.1333264
 21
185.1333264
  0
LINE
  8
0
  6
CONTINUOUS
 62
     4
 10
47.9333328
 20
226.7333232
 11
131.1333264
 21
226.7333232
  0
LINE
  8
0
  6
CONTINUOUS
 62
     4
 10
47.9333328
 20
268.33332
 11
131.1333264
 21
268.33332
  0
LINE
  8
0
  6
CONTINUOUS
 62
     4
 10
47.9333328
 20
309.9333168
 11
131.1333264
 21
309.9333168
  0
LINE
  8
0
  6
CONTINUOUS
 62
     4
 10
47.9333328
 20
351.5333136
 11
131.1333264
 21
351.5333136
  0
LINE
  8
0
  6
CONTINUOUS
 62
     4
 10
47.9333328
 20
393.1333104
 11
131.1333264
 21
393.1333104
  0
LINE
  8
0
  6
CONTINUOUS
 62
     4
 10
47.9333328
 20
434.7333072
 11
131.1333264
 21
434.7333072
  0
LINE
  8
0
  6
CONTINUOUS
 62
     4
 10
47.9333328
 20
476.333304
 11
131.1333264
 21
476.333304
  0
LINE
  8
0
  6
CONTINUOUS
 62
     4
 10
131.1333264
 20
101.9333328
 11
131.1333264
 21
476.333304
  0
LINE
  8
0
  6
CONTINUOUS
 62
     4
 10
89.5333296
 20
101.9333328
 11
89.5333296
 21
434.7333072
  0
TEXT
  8
0
  6
CONTINUOUS
 62
     4
 10
62.14666504
 20
114.0666652
 30
2.07999984
 40
20.7999984
  1
計
 50
0.0
 41
0.75
 51
0.0
  7
KANJI59
  0
TEXT
  8
0
  6
CONTINUOUS
 62
     4
 10
62.14666504
 20
197.95999208
 30
2.07999984
 40
20.7999984
  1
設
 50
0.0
 41
0.75
 51
0.0
  7
KANJI59
  0
TEXT
  8
0
  6
CONTINUOUS
 62
     4
 10
62.14666504
 20
238.8666556
 30
2.07999984
 40
20.7999984
  1
管
 50
0.0
 41
0.75
 51
0.0
  7
KANJI59
  0
TEXT
  8
0
  6
CONTINUOUS
 62
     4
 10
62.14666504
 20
280.4666524
 30
2.07999984
 40
20.7999984
  1
製
 50
0.0
 41
0.75
 51
0.0
  7
KANJI59
  0
TEXT
  8
0
  6
CONTINUOUS
 62
     4
 10
62.14666504
 20
322.0666492
 30
2.07999984
 40
20.7999984
  1
資
 50
0.0
 41
0.75
 51
0.0
  7
KANJI59
  0
TEXT
  8
0
  6
CONTINUOUS
 62
     4
 10
62.14666504
 20
363.666646
 30
2.07999984
 40
20.7999984
  1
営
 50
0.0
 41
0.75
 51
0.0
  7
KANJI59
  0
TEXT
  8
0
  6
CONTINUOUS
 62
     4
 10
62.14666504
 20
405.2666428
 30
2.07999984
 40
20.7999984
  1
客
 50
0.0
 41
0.75
 51
0.0
  7
KANJI59
  0
TEXT
  8
0
  6
CONTINUOUS
 62
     4
 10
61.7999984
 20
448.5999728
 30
2.07999984
 40
20.7999984
  1
出　図
 50
0.0
 41
0.75
 51
0.0
  7
KANJI59
  0
LINE
  8
0
  6
CONTINUOUS
 62
     4
 10
47.9333328
 20
101.9333328
 11
47.9333328
 21
476.333304
  0
TEXT
  8
0
  6
CONTINUOUS
 62
     2
 10
1867.000190206
 20
54.5
 30
0.8
 40
24.0
  1
２００１．０４．１２　変更書替
 50
0.0
 41
0.9
 51
0.0
  7
KANJI60
  0
TEXT
  8
0
  6
CONTINUOUS
 62
     4
 10
210.4000632
 20
40.7333072
 30
0.8
 40
24.0
  1
ＦＤ　Ｎｏ．ＭＣ１６
 50
0.0
 41
0.9
 51
0.0
  7
KANJI60
  0
TEXT
  8
0
  6
CONTINUOUS
 62
     2
 10
2320.0
 20
735.6
 30
8.228571429
 40
28.8
  1
３。ＬＳユニット
 50
0.0
 41
0.857142857
 51
0.0
  7
KANJI28
  0
TEXT
  8
0
  6
CONTINUOUS
 62
     2
 10
2320.0
 20
683.2
 30
8.208
 40
28.8
  1
　　リミットＳＷ：１ＬＳ１Ｊ×２ヶ（山武）
 50
0.0
 41
0.857222222
 51
0.0
  7
KANJI45
  0
TEXT
  8
0
  6
CONTINUOUS
 62
     2
 10
2320.0
 20
629.2
 30
8.208
 40
28.8
  1
　　ストローク７００ｍｍ以上の場合２ロッド方式となります。
 50
0.0
 41
0.857222222
 51
0.0
  7
KANJI45
  0
LINE
  8
0
  6
CONTINUOUS
 62
     1
 10
961.0
 20
1370.0
 11
1263.149691586
 21
1370.0
  0
LINE
  8
0
  6
CONTINUOUS
 62
     1
 10
961.0
 20
1230.0
 11
1263.149691586
 21
1230.0
  0
LINE
  8
0
  6
LTYPE3
 62
     2
 10
2222.8
 20
1275.5
 11
2222.8
 21
1320.5
  0
LINE
  8
0
  6
LTYPE3
 62
     2
 10
2222.8
 20
1320.5
 11
2272.8
 21
1320.5
  0
LINE
  8
0
  6
LTYPE3
 62
     2
 10
2222.8
 20
1275.5
 11
2272.8
 21
1275.5
  0
LINE
  8
0
  6
CONTINUOUS
 62
     1
 10
2272.8
 20
1253.0
 11
2272.8
 21
1343.0
  0
LINE
  8
0
  6
LTYPE1
 62
     2
 10
1957.3
 20
1298.0
 11
2296.8
 21
1298.0
  0
ARC
  8
0
  6
CONTINUOUS
 62
     1
 10
2014.8
 20
1175.0
 40
12.0
 50
180.0
 51
270.0
  0
ARC
  8
0
  6
CONTINUOUS
 62
     1
 10
2250.8
 20
1175.0
 40
12.0
 50
270.0
 51
0.0
  0
LINE
  8
0
  6
LTYPE3
 62
     2
 10
2042.8
 20
1275.5
 11
2042.8
 21
1320.5
  0
LINE
  8
0
  6
LTYPE3
 62
     2
 10
2042.8
 20
1320.5
 11
1992.8
 21
1320.5
  0
LINE
  8
0
  6
LTYPE3
 62
     2
 10
2042.8
 20
1275.5
 11
1992.8
 21
1275.5
  0
LINE
  8
0
  6
CONTINUOUS
 62
     2
 10
2002.8
 20
1163.0
 11
2002.8
 21
1041.7
  0
LINE
  8
0
  6
CONTINUOUS
 62
     2
 10
2262.8
 20
1163.0
 11
2262.8
 21
1041.7
  0
LINE
  8
0
  6
CONTINUOUS
 62
     2
 10
1992.8
 20
1241.0
 11
1992.8
 21
946.7
  0
LINE
  8
0
  6
CONTINUOUS
 62
     2
 10
2272.8
 20
1241.0
 11
2272.8
 21
946.7
  0
LINE
  8
0
  6
CONTINUOUS
 62
     1
 10
2002.8
 20
1175.0
 11
2002.8
 21
1252.125113365
  0
LINE
  8
0
  6
CONTINUOUS
 62
     1
 10
2262.8
 20
1175.0
 11
2262.8
 21
1252.125113365
  0
LINE
  8
0
  6
CONTINUOUS
 62
     1
 10
2054.8
 20
1159.0
 11
2054.8
 21
1159.1
  0
LINE
  8
0
  6
CONTINUOUS
 62
     1
 10
2170.8
 20
1159.0
 11
2170.8
 21
1159.1
  0
LINE
  8
1
  6
CONTINUOUS
 62
     2
 10
2258.800043158
 20
1163.0
 11
2371.307300983
 21
1163.0
  0
LINE
  8
1
  6
CONTINUOUS
 62
     2
 10
1984.8
 20
1320.5
 11
1884.0
 21
1320.5
  0
LINE
  8
1
  6
CONTINUOUS
 62
     2
 10
1984.8
 20
1275.5
 11
1884.0
 21
1275.5
  0
LINE
  8
0
  6
CONTINUOUS
 62
     1
 10
2117.8
 20
1139.5
 11
2147.8
 21
1139.5
  0
LINE
  8
0
  6
LTYPE5
 62
     2
 10
2101.9
 20
1152.5
 11
2163.9
 21
1152.5
  0
CIRCLE
  8
0
  6
CONTINUOUS
 62
     1
 10
2132.8
 20
1152.5
 40
6.49995
  0
LINE
  8
0
  6
CONTINUOUS
 62
     1
 10
2139.29995
 20
1156.24703
 11
2139.29995
 21
1148.75297
  0
LINE
  8
0
  6
CONTINUOUS
 62
     1
 10
2139.29995
 20
1148.75297
 11
2132.8
 21
1145.00594
  0
LINE
  8
0
  6
CONTINUOUS
 62
     1
 10
2126.30005
 20
1156.24703
 11
2126.30005
 21
1148.75297
  0
LINE
  8
0
  6
CONTINUOUS
 62
     1
 10
2126.30005
 20
1148.75297
 11
2132.8
 21
1145.00594
  0
LINE
  8
0
  6
CONTINUOUS
 62
     1
 10
2139.29995
 20
1156.24703
 11
2132.8
 21
1159.99406
  0
LINE
  8
0
  6
CONTINUOUS
 62
     1
 10
2126.30005
 20
1156.24703
 11
2132.8
 21
1159.99406
  0
LINE
  8
0
  6
CONTINUOUS
 62
     1
 10
2215.3
 20
1193.5
 11
2215.3
 21
1199.5
  0
LINE
  8
0
  6
CONTINUOUS
 62
     1
 10
2050.3
 20
1193.5
 11
2050.3
 21
1199.5
  0
LINE
  8
0
  6
CONTINUOUS
 62
     1
 10
2094.8
 20
1193.5
 11
2054.8
 21
1193.5
  0
LINE
  8
0
  6
CONTINUOUS
 62
     1
 10
2054.8
 20
1193.5
 11
2054.8
 21
1193.6
  0
LINE
  8
0
  6
CONTINUOUS
 62
     1
 10
2054.8
 20
1153.5
 11
2054.8
 21
1154.5
  0
LINE
  8
0
  6
CONTINUOUS
 62
     1
 10
2054.8
 20
1153.5
 11
2054.8
 21
1193.5
  0
LINE
  8
0
  6
CONTINUOUS
 62
     1
 10
2094.8
 20
1193.5
 11
2094.8
 21
1153.5
  0
LINE
  8
0
  6
CONTINUOUS
 62
     1
 10
2104.05
 20
1149.0
 11
2104.05
 21
1156.0
  0
LINE
  8
0
  6
LTYPE2
 62
     2
 10
2074.8
 20
1136.9
 11
2074.8
 21
1194.9
  0
LINE
  8
0
  6
LTYPE2
 62
     2
 10
2089.9
 20
1196.9
 11
2089.9
 21
1149.9
  0
LINE
  8
0
  6
LTYPE2
 62
     2
 10
2059.7
 20
1150.9
 11
2059.7
 21
1197.9
  0
LINE
  8
0
  6
CONTINUOUS
 62
     1
 10
2117.8
 20
1140.5
 11
2117.8
 21
1148.5
  0
LINE
  8
0
  6
CONTINUOUS
 62
     1
 10
2117.8
 20
1148.5
 11
2104.05
 21
1148.5
  0
LINE
  8
0
  6
CONTINUOUS
 62
     1
 10
2094.8
 20
1150.5
 11
2082.3
 21
1150.5
  0
LINE
  8
0
  6
CONTINUOUS
 62
     1
 10
2104.05
 20
1148.4
 11
2094.8
 21
1150.5
  0
LINE
  8
0
  6
LTYPE2
 62
     2
 10
2112.8
 20
1139.3
 11
2112.8
 21
1158.5
  0
LINE
  8
0
  6
CONTINUOUS
 62
     1
 10
2082.3
 20
1150.5
 11
2067.3
 21
1150.5
  0
ARC
  8
0
  6
CONTINUOUS
 62
     1
 10
2064.1
 20
1169.7
 40
2.0
 50
180.0
 51
270.0
  0
LINE
  8
0
  6
CONTINUOUS
 62
     1
 10
2085.5
 20
1167.7
 11
2064.1
 21
1167.7
  0
ARC
  8
0
  6
CONTINUOUS
 62
     1
 10
2085.5
 20
1169.7
 40
2.0
 50
270.0
 51
360.0
  0
LINE
  8
0
  6
CONTINUOUS
 62
     1
 10
2087.5
 20
1169.7
 11
2087.5
 21
1191.1
  0
ARC
  8
0
  6
CONTINUOUS
 62
     1
 10
2085.5
 20
1191.1
 40
2.0
 50
0.0
 51
90.0
  0
LINE
  8
0
  6
CONTINUOUS
 62
     1
 10
2062.1
 20
1169.7
 11
2062.1
 21
1191.1
  0
LINE
  8
0
  6
CONTINUOUS
 62
     1
 10
2085.5
 20
1193.1
 11
2064.1
 21
1193.1
  0
ARC
  8
0
  6
CONTINUOUS
 62
     1
 10
2064.1
 20
1191.1
 40
2.0
 50
90.0
 51
180.0
  0
LINE
  8
0
  6
LTYPE2
 62
     2
 10
2060.7
 20
1180.4
 11
2089.1
 21
1180.4
  0
LINE
  8
0
  6
CONTINUOUS
 62
     1
 10
2082.3
 20
1140.5
 11
2082.3
 21
1167.7
  0
LINE
  8
0
  6
CONTINUOUS
 62
     1
 10
2067.3
 20
1158.5
 11
2054.8
 21
1158.5
  0
LINE
  8
0
  6
CONTINUOUS
 62
     1
 10
2094.8
 20
1158.5
 11
2082.2
 21
1158.5
  0
LINE
  8
0
  6
CONTINUOUS
 62
     1
 10
2067.2
 20
1153.5
 11
2054.8
 21
1153.5
  0
LINE
  8
0
  6
CONTINUOUS
 62
     1
 10
2094.8
 20
1153.5
 11
2082.3
 21
1153.5
  0
LINE
  8
0
  6
CONTINUOUS
 62
     1
 10
2210.8
 20
1193.5
 11
2170.8
 21
1193.5
  0
LINE
  8
0
  6
CONTINUOUS
 62
     1
 10
2170.8
 20
1193.5
 11
2170.8
 21
1193.6
  0
LINE
  8
0
  6
CONTINUOUS
 62
     1
 10
2170.8
 20
1153.5
 11
2170.8
 21
1154.5
  0
LINE
  8
0
  6
CONTINUOUS
 62
     1
 10
2170.8
 20
1153.5
 11
2170.8
 21
1193.5
  0
LINE
  8
0
  6
CONTINUOUS
 62
     1
 10
2210.8
 20
1193.5
 11
2210.8
 21
1153.5
  0
LINE
  8
0
  6
CONTINUOUS
 62
     1
 10
2210.8
 20
1153.5
 11
2170.8
 21
1153.5
  0
LINE
  8
0
  6
CONTINUOUS
 62
     1
 10
2210.8
 20
1158.5
 11
2170.8
 21
1158.5
  0
LINE
  8
0
  6
CONTINUOUS
 62
     1
 10
2198.3
 20
1140.5
 11
2198.3
 21
1153.5
  0
LINE
  8
0
  6
CONTINUOUS
 62
     1
 10
2183.3
 20
1140.5
 11
2183.3
 21
1153.5
  0
CIRCLE
  8
0
  6
CONTINUOUS
 62
     1
 10
2190.8
 20
1171.9
 40
9.36
  0
LINE
  8
0
  6
CONTINUOUS
 62
     1
 10
2161.55
 20
1149.0
 11
2161.55
 21
1156.0
  0
LINE
  8
0
  6
LTYPE2
 62
     2
 10
2190.8
 20
1136.9
 11
2190.8
 21
1194.9
  0
LINE
  8
0
  6
LTYPE2
 62
     2
 10
2203.8
 20
1171.9
 11
2177.8
 21
1171.9
  0
LINE
  8
0
  6
LTYPE2
 62
     2
 10
2205.9
 20
1196.9
 11
2205.9
 21
1149.9
  0
LINE
  8
0
  6
LTYPE2
 62
     2
 10
2175.7
 20
1150.9
 11
2175.7
 21
1197.9
  0
LINE
  8
0
  6
LTYPE2
 62
     2
 10
2152.8
 20
1136.9
 11
2152.8
 21
1158.5
  0
CIRCLE
  8
0
  6
CONTINUOUS
 62
     2
 10
2190.8
 20
1171.9
 40
10.47
  0
LINE
  8
0
  6
CONTINUOUS
 62
     1
 10
2147.8
 20
1140.5
 11
2147.8
 21
1149.0
  0
LINE
  8
0
  6
CONTINUOUS
 62
     1
 10
2147.8
 20
1148.5
 11
2161.55
 21
1148.5
  0
LINE
  8
0
  6
CONTINUOUS
 62
     1
 10
2170.8
 20
1150.5
 11
2183.3
 21
1150.5
  0
LINE
  8
0
  6
CONTINUOUS
 62
     1
 10
2161.55
 20
1148.4
 11
2170.8
 21
1150.5
  0
LINE
  8
0
  6
CONTINUOUS
 62
     1
 10
2147.8
 20
1140.5
 11
2198.3
 21
1140.5
  0
LINE
  8
0
  6
CONTINUOUS
 62
     1
 10
2067.3
 20
1140.5
 11
2067.3
 21
1167.7
  0
LINE
  8
0
  6
CONTINUOUS
 62
     1
 10
2117.8
 20
1140.5
 11
2067.3
 21
1140.5
  0
LINE
  8
0
  6
CONTINUOUS
 62
     1
 10
2116.8
 20
1139.5
 11
2148.8
 21
1139.5
  0
LINE
  8
0
  6
LTYPE5
 62
     2
 10
2044.8
 20
1152.5
 11
2221.8
 21
1152.5
  0
LINE
  8
0
  6
CONTINUOUS
 62
     1
 10
2112.64375
 20
1156.0
 11
2104.05
 21
1156.0
  0
LINE
  8
0
  6
CONTINUOUS
 62
     1
 10
2114.83125
 20
1149.0
 11
2104.05
 21
1149.0
  0
LINE
  8
0
  6
CONTINUOUS
 62
     1
 10
2161.55
 20
1149.0
 11
2150.76875
 21
1149.0
  0
LINE
  8
0
  6
CONTINUOUS
 62
     1
 10
2161.55
 20
1156.0
 11
2152.8
 21
1156.0
  0
LINE
  8
0
  6
LTYPE3
 62
     2
 10
2144.05
 20
1149.0
 11
2144.05
 21
1156.0
  0
LINE
  8
0
  6
LTYPE3
 62
     2
 10
2152.8
 20
1156.0
 11
2144.05
 21
1156.0
  0
LINE
  8
0
  6
LTYPE3
 62
     2
 10
2150.73125
 20
1149.0
 11
2144.05
 21
1149.0
  0
LINE
  8
0
  6
LTYPE3
 62
     2
 10
2121.55
 20
1149.0
 11
2121.55
 21
1156.0
  0
LINE
  8
0
  6
LTYPE3
 62
     2
 10
2121.55
 20
1156.0
 11
2112.64375
 21
1156.0
  0
LINE
  8
0
  6
LTYPE3
 62
     2
 10
2121.55
 20
1149.0
 11
2114.83125
 21
1149.0
  0
CIRCLE
  8
0
  6
CONTINUOUS
 62
     1
 10
2132.8
 20
1152.5
 40
4.0
  0
CIRCLE
  8
0
  6
CONTINUOUS
 62
     2
 10
2132.8
 20
1152.5
 40
3.2
  0
LINE
  8
0
  6
CONTINUOUS
 62
     1
 10
2054.8
 20
1163.0
 11
2017.8
 21
1163.0
  0
LINE
  8
0
  6
CONTINUOUS
 62
     1
 10
2210.8
 20
1163.0
 11
2247.8
 21
1163.0
  0
LINE
  8
0
  6
CONTINUOUS
 62
     1
 10
2050.3
 20
1199.5
 11
2092.994331984
 21
1199.5
  0
LINE
  8
0
  6
CONTINUOUS
 62
     1
 10
2050.3
 20
1193.5
 11
2095.374898785
 21
1193.5
  0
LINE
  8
0
  6
CONTINUOUS
 62
     1
 10
2172.605668016
 20
1199.5
 11
2215.3
 21
1199.5
  0
LINE
  8
0
  6
CONTINUOUS
 62
     1
 10
2170.225101215
 20
1193.5
 11
2215.3
 21
1193.5
  0
LINE
  8
0
  6
CONTINUOUS
 62
     1
 10
2195.3
 20
1358.0
 11
2070.3
 21
1358.0
  0
LINE
  8
0
  6
CONTINUOUS
 62
     1
 10
2195.3
 20
1263.0
 11
2195.3
 21
1358.0
  0
LINE
  8
0
  6
CONTINUOUS
 62
     1
 10
2195.3
 20
1263.0
 11
2148.8
 21
1139.5
  0
LINE
  8
0
  6
CONTINUOUS
 62
     1
 10
2070.3
 20
1263.0
 11
2116.8
 21
1139.5
  0
LINE
  8
0
  6
CONTINUOUS
 62
     1
 10
2070.3
 20
1263.0
 11
2070.3
 21
1358.0
  0
CIRCLE
  8
0
  6
CONTINUOUS
 62
     1
 10
2132.8
 20
1298.0
 40
47.5
  0
LINE
  8
0
  6
CONTINUOUS
 62
     1
 10
2107.8
 20
1257.5
 11
2107.8
 21
1338.5
  0
ARC
  8
0
  6
CONTINUOUS
 62
     1
 10
2132.8
 20
1298.0
 40
37.5
 50
47.202598162
 51
132.273689006
  0
LINE
  8
0
  6
CONTINUOUS
 62
     1
 10
2157.8
 20
1259.0
 11
2157.8
 21
1338.0
  0
ARC
  8
0
  6
CONTINUOUS
 62
     1
 10
2132.8
 20
1298.0
 40
37.5
 50
227.202598162
 51
312.220833136
  0
LINE
  8
0
  6
LTYPE3
 62
     2
 10
2157.8
 20
1275.5
 11
2107.8
 21
1275.5
  0
LINE
  8
0
  6
LTYPE3
 62
     2
 10
2157.8
 20
1320.5
 11
2107.8
 21
1320.5
  0
CIRCLE
  8
0
  6
CONTINUOUS
 62
     1
 10
2132.8
 20
1298.0
 40
47.5
  0
LINE
  8
0
  6
LTYPE3
 62
     2
 10
2042.8
 20
1320.5
 11
1992.8
 21
1320.5
  0
LINE
  8
0
  6
LTYPE3
 62
     2
 10
2042.8
 20
1275.5
 11
2042.8
 21
1320.5
  0
ARC
  8
0
  6
CONTINUOUS
 62
     1
 10
2070.634520095
 20
1400.125917906
 40
3.0
 50
325.0
 51
55.0
  0
LINE
  8
0
  6
CONTINUOUS
 62
     1
 10
2034.264679345
 20
1429.25467833
 11
2072.355249404
 21
1402.583374039
  0
ARC
  8
0
  6
CONTINUOUS
 62
     1
 10
2033.691102908
 20
1428.435526285
 40
1.0
 50
55.0
 51
145.0
  0
ARC
  8
0
  6
CONTINUOUS
 62
     1
 10
2031.151221555
 20
1426.551646589
 40
1.0
 50
55.0
 51
145.0
  0
ARC
  8
0
  6
CONTINUOUS
 62
     1
 10
2015.571182206
 20
1321.487321655
 40
3.0
 50
235.0
 51
325.0
  0
LINE
  8
0
  6
CONTINUOUS
 62
     1
 10
1975.759882837
 20
1345.701169812
 11
2013.850452896
 21
1319.029865522
  0
ARC
  8
0
  6
CONTINUOUS
 62
     1
 10
1976.333459273
 20
1346.520321856
 40
1.0
 50
145.0
 51
235.0
  0
ARC
  8
0
  6
CONTINUOUS
 62
     1
 10
1977.235036538
 20
1349.551354426
 40
1.0
 50
145.0
 51
235.0
  0
LINE
  8
0
  6
CONTINUOUS
 62
     1
 10
1979.855643058
 20
1342.83328763
 11
2038.360439566
 21
1426.386796148
  0
LINE
  8
0
  6
CONTINUOUS
 62
     1
 10
1981.084371125
 20
1341.972922976
 11
2039.589167633
 21
1425.526431493
  0
LINE
  8
0
  6
CONTINUOUS
 62
     1
 10
2073.091976228
 20
1398.405188597
 11
2018.028638338
 21
1319.766592346
  0
LINE
  8
0
  6
CONTINUOUS
 62
     1
 10
1976.415884494
 20
1350.124930862
 11
2030.332069511
 21
1427.125223025
  0
LINE
  8
0
  6
CONTINUOUS
 62
     1
 10
1975.514307229
 20
1347.093898293
 11
2032.871950864
 21
1429.009102722
  0
LINE
  8
0
  6
LTYPE2
 62
     2
 10
1974.532174803
 20
1353.885467765
 11
1989.850318031
 21
1343.159588405
  0
LINE
  8
0
  6
LTYPE2
 62
     2
 10
2026.154054074
 20
1427.609151751
 11
2041.472197302
 21
1416.883272391
  0
LINE
  8
0
  6
LTYPE1
 62
     2
 10
2139.458322994
 20
1293.337792048
 11
1996.458322994
 21
1393.467470012
  0
LINE
  8
6
  6
CONTINUOUS
 62
     2
 10
1980.8
 20
1320.5
 11
1924.8
 21
1320.5
  0
LINE
  8
0
  6
LTYPE1
 62
     2
 10
2012.848183048
 20
1357.697752135
 11
2036.192744008
 21
1391.037240338
  0
ARC
  8
0
  6
CONTINUOUS
 62
     1
 10
2132.8
 20
1298.0
 40
92.5
 50
300.640663456
 51
239.359336544
  0
CIRCLE
  8
0
  6
CONTINUOUS
 62
     2
 10
2024.262354132
 20
1373.998877817
 40
10.4775
  0
CIRCLE
  8
0
  6
CONTINUOUS
 62
     2
 10
2024.262354132
 20
1373.998877817
 40
9.3155
  0
LINE
  8
0
  6
CONTINUOUS
 62
     1
 10
1992.8
 20
1253.0
 11
1992.8
 21
1333.769551323
  0
LINE
  8
0
  6
CONTINUOUS
 62
     1
 10
595.0
 20
1665.0
 11
545.0
 21
1665.0
  0
LINE
  8
0
  6
LTYPE1
 62
     2
 10
466.0
 20
1461.0
 11
418.0
 21
1461.0
  0
CIRCLE
  8
0
  6
CONTINUOUS
 62
     1
 10
565.0
 20
1695.0
 40
17.5
  0
LINE
  8
0
  6
CONTINUOUS
 62
     1
 10
565.0
 20
1665.0
 11
580.0
 21
1665.0
  0
LINE
  8
0
  6
CONTINUOUS
 62
     1
 10
565.0
 20
1676.0
 11
578.751706485
 21
1676.0
  0
LINE
  8
0
  6
CONTINUOUS
 62
     1
 10
578.751706485
 20
1676.0
 11
565.0
 21
1677.5
  0
LINE
  8
0
  6
CONTINUOUS
 62
     1
 10
579.689625645
 20
1667.735028154
 11
578.751706485
 21
1676.0
  0
LINE
  8
0
  6
CONTINUOUS
 62
     1
 10
580.0
 20
1665.0
 11
579.689625645
 21
1667.735028154
  0
ARC
  8
0
  6
CONTINUOUS
 62
     1
 10
581.297773229
 20
1667.927087564
 40
1.6
 50
120.593314844
 51
186.768821444
  0
ARC
  8
0
  6
CONTINUOUS
 62
     1
 10
565.0
 20
1695.0
 40
30.0
 50
301.047754584
 51
0.0
  0
LINE
  8
0
  6
CONTINUOUS
 62
     1
 10
565.0
 20
1665.0
 11
550.0
 21
1665.0
  0
LINE
  8
0
  6
CONTINUOUS
 62
     1
 10
565.0
 20
1676.0
 11
551.248293515
 21
1676.0
  0
LINE
  8
0
  6
CONTINUOUS
 62
     1
 10
551.248293515
 20
1676.0
 11
565.0
 21
1677.5
  0
LINE
  8
0
  6
CONTINUOUS
 62
     1
 10
550.310374355
 20
1667.735028154
 11
551.248293515
 21
1676.0
  0
LINE
  8
0
  6
CONTINUOUS
 62
     1
 10
550.0
 20
1665.0
 11
550.310374355
 21
1667.735028154
  0
ARC
  8
0
  6
CONTINUOUS
 62
     1
 10
548.702226771
 20
1667.927087564
 40
1.6
 50
353.231178556
 51
59.406685156
  0
ARC
  8
0
  6
CONTINUOUS
 62
     1
 10
565.0
 20
1695.0
 40
30.0
 50
0.0
 51
239.0231413
  0
LINE
  8
0
  6
LTYPE1
 62
     2
 10
565.0
 20
1616.8
 11
565.0
 21
1731.8
  0
LINE
  8
0
  6
CONTINUOUS
 62
     1
 10
572.0
 20
1596.0
 11
572.0
 21
1665.0
  0
ARC
  8
0
  6
CONTINUOUS
 62
     1
 10
566.0
 20
1596.0
 40
6.0
 50
270.0
 51
0.0
  0
ARC
  8
0
  6
CONTINUOUS
 62
     1
 10
539.0
 20
1596.0
 40
6.0
 50
270.0
 51
0.0
  0
LINE
  8
0
  6
CONTINUOUS
 62
     1
 10
545.0
 20
1596.0
 11
545.0
 21
1665.0
  0
LINE
  8
0
  6
CONTINUOUS
 62
     1
 10
566.0
 20
1590.0
 11
440.0
 21
1590.0
  0
LINE
  8
0
  6
CONTINUOUS
 62
     1
 10
440.0
 20
1419.5
 11
440.0
 21
1590.0
  0
LINE
  8
0
  6
CONTINUOUS
 62
     1
 10
595.0
 20
1409.0
 11
595.0
 21
1656.0
  0
LINE
  8
0
  6
CONTINUOUS
 62
     1
 10
595.0
 20
1409.0
 11
595.0
 21
1656.0
  0
LINE
  8
0
  6
CONTINUOUS
 62
     1
 10
595.0
 20
1409.0
 11
595.0
 21
1656.0
  0
LINE
  8
0
  6
CONTINUOUS
 62
     1
 10
562.0
 20
1540.0
 11
491.0
 21
1540.0
  0
LINE
  8
0
  6
CONTINUOUS
 62
     1
 10
562.0
 20
1540.0
 11
562.0
 21
1420.0
  0
LINE
  8
0
  6
CONTINUOUS
 62
     1
 10
491.0
 20
1420.0
 11
491.0
 21
1540.0
  0
LINE
  8
0
  6
LTYPE1
 62
     2
 10
567.0
 20
1430.0
 11
543.2
 21
1430.0
  0
LINE
  8
0
  6
LTYPE1
 62
     2
 10
513.2
 20
1530.0
 11
486.2
 21
1530.0
  0
LINE
  8
0
  6
LTYPE1
 62
     2
 10
567.2
 20
1530.0
 11
539.2
 21
1530.0
  0
LINE
  8
0
  6
LTYPE1
 62
     2
 10
552.0
 20
1441.8
 11
552.0
 21
1420.0
  0
LINE
  8
0
  6
LTYPE1
 62
     2
 10
552.0
 20
1540.0
 11
552.0
 21
1517.8
  0
LINE
  8
0
  6
LTYPE1
 62
     2
 10
501.0
 20
1518.8
 11
501.0
 21
1540.0
  0
LINE
  8
0
  6
LTYPE1
 62
     2
 10
501.0
 20
1420.0
 11
501.0
 21
1440.8
  0
LINE
  8
0
  6
LTYPE1
 62
     2
 10
513.2
 20
1430.0
 11
488.2
 21
1430.0
  0
LINE
  8
0
  6
CONTINUOUS
 62
     1
 10
595.0
 20
1431.0
 11
595.0
 21
1631.0
  0
LINE
  8
6
  6
CONTINUOUS
 62
     2
 10
595.0
 20
1670.0
 11
595.0
 21
1811.0
  0
LINE
  8
0
  6
LTYPE1
 62
     2
 10
603.0
 20
1695.0
 11
596.0
 21
1695.0
  0
LINE
  8
0
  6
CONTINUOUS
 62
     1
 10
440.0
 20
1330.0
 11
440.0
 21
1590.0
  0
LINE
  8
0
  6
CONTINUOUS
 62
     1
 10
457.0
 20
1310.0
 11
457.0
 21
1590.0
  0
LINE
  8
0
  6
CONTINUOUS
 62
     1
 10
595.0
 20
1305.0
 11
595.0
 21
1665.0
  0
LINE
  8
1
  6
CONTINUOUS
 62
     2
 10
501.0
 20
1453.0
 11
482.080264544
 21
1446.515895569
  0
LINE
  8
1
  6
CONTINUOUS
 62
     2
 10
501.0
 20
1453.0
 11
487.857080677
 21
1437.924733114
  0
LINE
  8
1
  6
CONTINUOUS
 62
     2
 10
501.0
 20
1453.0
 11
385.0
 21
1375.0
  0
LINE
  8
0
  6
CONTINUOUS
 62
     1
 10
390.0
 20
1511.0
 11
390.0
 21
1551.0
  0
LINE
  8
0
  6
CONTINUOUS
 62
     1
 10
432.0
 20
1492.0
 11
432.0
 21
1570.0
  0
LINE
  8
0
  6
CONTINUOUS
 62
     1
 10
432.0
 20
1551.0
 11
390.0
 21
1551.0
  0
LINE
  8
0
  6
CONTINUOUS
 62
     1
 10
432.0
 20
1511.0
 11
390.0
 21
1511.0
  0
LINE
  8
0
  6
CONTINUOUS
 62
     1
 10
440.0
 20
1570.0
 11
432.0
 21
1570.0
  0
LINE
  8
0
  6
CONTINUOUS
 62
     1
 10
440.0
 20
1492.0
 11
432.0
 21
1492.0
  0
LINE
  8
0
  6
CONTINUOUS
 62
     1
 10
440.0
 20
1490.0
 11
434.0
 21
1490.0
  0
LINE
  8
0
  6
CONTINUOUS
 62
     1
 10
434.0
 20
1424.0
 11
434.0
 21
1490.0
  0
LINE
  8
0
  6
CONTINUOUS
 62
     1
 10
440.0
 20
1424.0
 11
434.0
 21
1424.0
  0
LINE
  8
0
  6
LTYPE1
 62
     2
 10
466.0
 20
1461.0
 11
427.6
 21
1461.0
  0
LINE
  8
0
  6
LTYPE1
 62
     2
 10
1009.6
 20
1531.0
 11
377.5
 21
1531.0
  0
LINE
  8
1
  6
CONTINUOUS
 62
     2
 10
595.0
 20
1791.8
 11
595.0
 21
1817.5
  0
LINE
  8
1
  6
CONTINUOUS
 62
     2
 10
595.0
 20
1801.5
 11
575.681483474
 21
1806.676380902
  0
LINE
  8
1
  6
CONTINUOUS
 62
     2
 10
595.0
 20
1801.5
 11
575.681483474
 21
1796.323619098
  0
LINE
  8
1
  6
CONTINUOUS
 62
     2
 10
595.0
 20
1801.5
 11
390.0
 21
1801.5
  0
LINE
  8
1
  6
CONTINUOUS
 62
     2
 10
390.0
 20
1801.5
 11
409.318516526
 21
1796.323619098
  0
LINE
  8
1
  6
CONTINUOUS
 62
     2
 10
390.0
 20
1801.5
 11
409.318516526
 21
1806.676380902
  0
LINE
  8
1
  6
CONTINUOUS
 62
     2
 10
390.0
 20
1559.0
 11
390.0
 21
1817.5
  0
TEXT
  8
1
  6
CONTINUOUS
 62
     3
 10
451.7
 20
1809.5
 30
2.4
 40
28.0
  1
２０５
 50
0.0
 41
0.914285714
 51
0.0
  7
KANJI53
  0
LINE
  8
0
  6
LTYPE1
 62
     2
 10
603.0
 20
1695.0
 11
529.0
 21
1695.0
  0
LINE
  8
1
  6
CONTINUOUS
 62
     2
 10
977.6
 20
1535.5
 11
989.80839642
 21
1551.341561061
  0
LINE
  8
1
  6
CONTINUOUS
 62
     2
 10
977.6
 20
1535.5
 11
980.252000908
 21
1555.323392525
  0
LINE
  8
1
  6
CONTINUOUS
 62
     2
 10
977.6
 20
1535.5
 11
1020.6
 21
1638.7
  0
LINE
  8
0
  6
CONTINUOUS
 62
     1
 10
603.0
 20
1641.0
 11
595.0
 21
1641.0
  0
LINE
  8
0
  6
CONTINUOUS
 62
     1
 10
615.0
 20
1431.0
 11
615.0
 21
1631.0
  0
LINE
  8
0
  6
CONTINUOUS
 62
     1
 10
603.0
 20
1421.0
 11
603.0
 21
1641.0
  0
LINE
  8
0
  6
CONTINUOUS
 62
     1
 10
603.0
 20
1421.0
 11
595.0
 21
1421.0
  0
LINE
  8
0
  6
CONTINUOUS
 62
     1
 10
617.5
 20
1482.564
 11
623.114359354
 21
1482.564
  0
LINE
  8
0
  6
CONTINUOUS
 62
     1
 10
624.5
 20
1480.164
 11
623.114359354
 21
1482.564
  0
LINE
  8
0
  6
CONTINUOUS
 62
     1
 10
624.5
 20
1472.764
 11
624.5
 21
1480.164
  0
LINE
  8
0
  6
CONTINUOUS
 62
     1
 10
617.5
 20
1477.664
 11
623.114359354
 21
1477.664
  0
ARC
  8
0
  6
CONTINUOUS
 62
     1
 10
615.1433172
 20
1472.764
 40
9.3566828
 50
328.419912243
 51
31.580087757
  0
LINE
  8
0
  6
CONTINUOUS
 62
     1
 10
624.5
 20
1480.164
 11
623.114359354
 21
1482.564
  0
ARC
  8
0
  6
CONTINUOUS
 62
     1
 10
621.642116168
 20
1480.114
 40
2.858321186
 50
301.002313915
 51
2.989498403
  0
LINE
  8
0
  6
CONTINUOUS
 62
     1
 10
617.5
 20
1462.964
 11
623.114359354
 21
1462.964
  0
LINE
  8
0
  6
CONTINUOUS
 62
     1
 10
624.5
 20
1465.364
 11
623.114359354
 21
1462.964
  0
LINE
  8
0
  6
CONTINUOUS
 62
     1
 10
624.5
 20
1472.764
 11
624.5
 21
1465.364
  0
LINE
  8
0
  6
CONTINUOUS
 62
     1
 10
617.5
 20
1467.864
 11
623.114359354
 21
1467.864
  0
ARC
  8
0
  6
CONTINUOUS
 62
     1
 10
621.642116168
 20
1465.414
 40
2.858321186
 50
357.010501597
 51
58.997686085
  0
LINE
  8
0
  6
CONTINUOUS
 62
     1
 10
617.5
 20
1472.764
 11
617.5
 21
1482.564
  0
LINE
  8
0
  6
CONTINUOUS
 62
     1
 10
617.499999996
 20
1472.764
 11
615.0
 21
1475.263999996
  0
LINE
  8
0
  6
CONTINUOUS
 62
     1
 10
615.0
 20
1481.964
 11
617.5
 21
1481.964
  0
LINE
  8
0
  6
CONTINUOUS
 62
     1
 10
617.5
 20
1472.764
 11
617.5
 21
1462.964
  0
LINE
  8
0
  6
CONTINUOUS
 62
     1
 10
615.0
 20
1463.564
 11
617.5
 21
1463.564
  0
LINE
  8
0
  6
CONTINUOUS
 62
     1
 10
615.0
 20
1472.764
 11
617.499999996
 21
1470.264000004
  0
LINE
  8
0
  6
CONTINUOUS
 62
     1
 10
617.5
 20
1599.236
 11
623.114359354
 21
1599.236
  0
LINE
  8
0
  6
CONTINUOUS
 62
     1
 10
624.5
 20
1596.836
 11
623.114359354
 21
1599.236
  0
LINE
  8
0
  6
CONTINUOUS
 62
     1
 10
624.5
 20
1589.436
 11
624.5
 21
1596.836
  0
LINE
  8
0
  6
CONTINUOUS
 62
     1
 10
617.5
 20
1594.336
 11
623.114359354
 21
1594.336
  0
ARC
  8
0
  6
CONTINUOUS
 62
     1
 10
615.1433172
 20
1589.436
 40
9.3566828
 50
328.419912243
 51
31.580087757
  0
ARC
  8
0
  6
CONTINUOUS
 62
     1
 10
621.642116168
 20
1596.786
 40
2.858321186
 50
301.002313915
 51
2.989498403
  0
LINE
  8
0
  6
CONTINUOUS
 62
     1
 10
617.5
 20
1579.636
 11
623.114359354
 21
1579.636
  0
LINE
  8
0
  6
CONTINUOUS
 62
     1
 10
624.5
 20
1582.036
 11
623.114359354
 21
1579.636
  0
LINE
  8
0
  6
CONTINUOUS
 62
     1
 10
624.5
 20
1589.436
 11
624.5
 21
1582.036
  0
LINE
  8
0
  6
CONTINUOUS
 62
     1
 10
617.5
 20
1584.536
 11
623.114359354
 21
1584.536
  0
LINE
  8
0
  6
CONTINUOUS
 62
     1
 10
624.5
 20
1582.036
 11
623.114359354
 21
1579.636
  0
ARC
  8
0
  6
CONTINUOUS
 62
     1
 10
621.642116168
 20
1582.086
 40
2.858321186
 50
357.010501597
 51
58.997686085
  0
LINE
  8
0
  6
CONTINUOUS
 62
     1
 10
617.5
 20
1589.436
 11
617.5
 21
1599.236
  0
LINE
  8
0
  6
CONTINUOUS
 62
     1
 10
617.5
 20
1589.436
 11
617.5
 21
1579.636
  0
LINE
  8
0
  6
CONTINUOUS
 62
     1
 10
615.0
 20
1598.636
 11
617.5
 21
1598.636
  0
LINE
  8
0
  6
CONTINUOUS
 62
     1
 10
615.0
 20
1589.436
 11
617.499999996
 21
1591.935999996
  0
LINE
  8
0
  6
CONTINUOUS
 62
     1
 10
617.499999996
 20
1589.436
 11
615.0
 21
1586.936000004
  0
LINE
  8
0
  6
CONTINUOUS
 62
     1
 10
615.0
 20
1580.236
 11
617.5
 21
1580.236
  0
LINE
  8
0
  6
CONTINUOUS
 62
     1
 10
615.0
 20
1631.0
 11
603.0
 21
1631.0
  0
LINE
  8
0
  6
CONTINUOUS
 62
     1
 10
615.0
 20
1431.0
 11
603.0
 21
1431.0
  0
LINE
  8
0
  6
CONTINUOUS
 62
     1
 10
825.0
 20
1591.1
 11
678.0
 21
1591.1
  0
LINE
  8
0
  6
CONTINUOUS
 62
     1
 10
825.0
 20
1571.1
 11
678.0
 21
1571.1
  0
LINE
  8
0
  6
CONTINUOUS
 62
     1
 10
825.0
 20
1551.1
 11
678.0
 21
1551.1
  0
LINE
  8
0
  6
CONTINUOUS
 62
     1
 10
825.0
 20
1511.1
 11
678.0
 21
1511.1
  0
LINE
  8
0
  6
CONTINUOUS
 62
     1
 10
825.0
 20
1491.1
 11
678.0
 21
1491.1
  0
LINE
  8
0
  6
CONTINUOUS
 62
     1
 10
825.0
 20
1471.1
 11
678.0
 21
1471.1
  0
LINE
  8
0
  6
CONTINUOUS
 62
     1
 10
825.0
 20
1451.1
 11
678.0
 21
1451.1
  0
LINE
  8
0
  6
CONTINUOUS
 62
     1
 10
959.741517274
 20
1547.048101266
 11
959.741517274
 21
1478.048101266
  0
POINT
  8
0
  6
CONTINUOUS
 62
     1
 10
959.741517274
 20
1478.048101266
  0
LINE
  8
0
  6
CONTINUOUS
 62
     1
 10
959.741517274
 20
1478.048101266
 11
964.741517274
 21
1478.048101266
  0
POINT
  8
0
  6
CONTINUOUS
 62
     1
 10
964.741517274
 20
1478.048101266
  0
LINE
  8
0
  6
CONTINUOUS
 62
     1
 10
964.741517274
 20
1478.048101266
 11
964.741517274
 21
1547.048101266
  0
LINE
  8
0
  6
CONTINUOUS
 62
     1
 10
959.741517274
 20
1547.048101266
 11
969.541517274
 21
1547.048101266
  0
LINE
  8
0
  6
CONTINUOUS
 62
     1
 10
969.541517274
 20
1515.151898734
 11
969.541517274
 21
1547.048101266
  0
LINE
  8
0
  6
CONTINUOUS
 62
     1
 10
964.741517274
 20
1515.151898734
 11
969.541517274
 21
1515.151898734
  0
LINE
  8
0
  6
CONTINUOUS
 62
     1
 10
959.741517274
 20
1535.3
 11
953.041517274
 21
1535.3
  0
LINE
  8
0
  6
CONTINUOUS
 62
     1
 10
959.741517274
 20
1526.9
 11
953.041517274
 21
1526.9
  0
LINE
  8
0
  6
CONTINUOUS
 62
     1
 10
964.741517274
 20
1490.85
 11
970.141517274
 21
1490.85
  0
POINT
  8
0
  6
CONTINUOUS
 62
     1
 10
970.141517274
 20
1490.85
  0
LINE
  8
0
  6
CONTINUOUS
 62
     1
 10
970.141517274
 20
1490.85
 11
970.141517274
 21
1482.05
  0
POINT
  8
0
  6
CONTINUOUS
 62
     1
 10
970.141517274
 20
1482.05
  0
LINE
  8
0
  6
CONTINUOUS
 62
     1
 10
970.141517274
 20
1482.05
 11
964.841517274
 21
1482.05
  0
LINE
  8
0
  6
CONTINUOUS
 62
     1
 10
959.741517274
 20
1488.05
 11
950.841517274
 21
1488.05
  0
LINE
  8
0
  6
CONTINUOUS
 62
     1
 10
959.741517274
 20
1484.95
 11
950.541517274
 21
1484.95
  0
LINE
  8
0
  6
CONTINUOUS
 62
     1
 10
969.541517274
 20
1544.5
 11
973.0
 21
1544.5
  0
LINE
  8
0
  6
CONTINUOUS
 62
     1
 10
973.0
 20
1544.5
 11
973.0
 21
1539.9
  0
LINE
  8
0
  6
CONTINUOUS
 62
     1
 10
969.541517274
 20
1539.9
 11
973.0
 21
1539.9
  0
LINE
  8
0
  6
CONTINUOUS
 62
     1
 10
969.541517274
 20
1517.7
 11
973.0
 21
1517.7
  0
LINE
  8
0
  6
CONTINUOUS
 62
     1
 10
973.0
 20
1517.7
 11
973.0
 21
1522.3
  0
LINE
  8
0
  6
CONTINUOUS
 62
     1
 10
969.541517274
 20
1522.3
 11
973.0
 21
1522.3
  0
LINE
  8
0
  6
CONTINUOUS
 62
     1
 10
969.541517274
 20
1528.8
 11
973.0
 21
1528.8
  0
LINE
  8
0
  6
CONTINUOUS
 62
     1
 10
973.0
 20
1528.8
 11
973.0
 21
1533.4
  0
LINE
  8
0
  6
CONTINUOUS
 62
     1
 10
969.541517274
 20
1533.4
 11
973.0
 21
1533.4
  0
LINE
  8
0
  6
LTYPE1
 62
     2
 10
945.841517274
 20
1486.55
 11
975.841517274
 21
1486.55
  0
LINE
  8
0
  6
CONTINUOUS
 62
     1
 10
825.0
 20
1611.1
 11
678.0
 21
1611.1
  0
LINE
  8
0
  6
CONTINUOUS
 62
     1
 10
822.5
 20
1719.1
 11
674.5
 21
1645.1
  0
LINE
  8
0
  6
CONTINUOUS
 62
     1
 10
826.972135955
 20
1710.15572809
 11
678.972135955
 21
1636.15572809
  0
ARC
  8
0
  6
CONTINUOUS
 62
     1
 10
796.5
 20
1643.1
 40
10.0
 50
270.0
 51
0.0
  0
ARC
  8
0
  6
CONTINUOUS
 62
     1
 10
796.5
 20
1709.1
 40
10.0
 50
0.0
 51
90.0
  0
LINE
  8
0
  6
CONTINUOUS
 62
     1
 10
796.5
 20
1719.1
 11
706.5
 21
1719.1
  0
ARC
  8
0
  6
CONTINUOUS
 62
     1
 10
706.5
 20
1709.1
 40
10.0
 50
90.0
 51
180.0
  0
LINE
  8
0
  6
CONTINUOUS
 62
     1
 10
796.5
 20
1633.1
 11
706.5
 21
1633.1
  0
ARC
  8
0
  6
CONTINUOUS
 62
     1
 10
706.5
 20
1643.1
 40
10.0
 50
180.0
 51
270.0
  0
LINE
  8
0
  6
CONTINUOUS
 62
     1
 10
674.5
 20
1645.1
 11
678.972135955
 21
1636.15572809
  0
LINE
  8
0
  6
CONTINUOUS
 62
     1
 10
696.5
 20
1656.01572809
 11
696.5
 21
1709.1
  0
LINE
  8
0
  6
CONTINUOUS
 62
     1
 10
696.5
 20
1643.1
 11
696.5
 21
1645.01572809
  0
LINE
  8
0
  6
CONTINUOUS
 62
     1
 10
806.5
 20
1643.1
 11
806.5
 21
1699.01572809
  0
LINE
  8
0
  6
CONTINUOUS
 62
     1
 10
822.712135955
 20
1719.89572809
 11
827.512135955
 21
1710.69572809
  0
LINE
  8
0
  6
LTYPE1
 62
     2
 10
751.5
 20
1619.85
 11
751.5
 21
1728.9
  0
LINE
  8
0
  6
CONTINUOUS
 62
     1
 10
835.0
 20
1631.1
 11
930.814388593
 21
1631.1
  0
ARC
  8
0
  6
CONTINUOUS
 62
     1
 10
928.814388593
 20
1616.1
 40
15.0
 50
10.945397096
 51
90.0
  0
ARC
  8
0
  6
CONTINUOUS
 62
     1
 10
928.923513917
 20
1618.793940371
 40
15.0
 50
10.945397096
 51
90.0
  0
LINE
  8
0
  6
CONTINUOUS
 62
     1
 10
835.0
 20
1633.6
 11
930.814388593
 21
1633.6
  0
ARC
  8
0
  6
CONTINUOUS
 62
     1
 10
543.0
 20
1531.1
 40
410.0
 50
347.629566941
 51
12.370433059
  0
LINE
  8
0
  6
CONTINUOUS
 62
     1
 10
835.0
 20
1621.8
 11
668.0
 21
1621.8
  0
LINE
  8
0
  6
CONTINUOUS
 62
     1
 10
668.0
 20
1440.4
 11
668.0
 21
1621.8
  0
LINE
  8
0
  6
CONTINUOUS
 62
     1
 10
786.4
 20
1633.1
 11
786.4
 21
1621.8
  0
LINE
  8
0
  6
CONTINUOUS
 62
     1
 10
716.6
 20
1633.1
 11
716.6
 21
1621.8
  0
ARC
  8
0
  6
CONTINUOUS
 62
     1
 10
942.874980463
 20
1541.1
 40
10.0
 50
1.432543738
 51
90.0
  0
ARC
  8
0
  6
CONTINUOUS
 62
     1
 10
942.874980463
 20
1521.1
 40
10.0
 50
270.0
 51
358.567456262
  0
LINE
  8
0
  6
CONTINUOUS
 62
     1
 10
942.874999151
 20
1551.1
 11
835.0
 21
1551.1
  0
LINE
  8
0
  6
CONTINUOUS
 62
     1
 10
835.0
 20
1511.1
 11
943.374999151
 21
1511.1
  0
LINE
  8
0
  6
CONTINUOUS
 62
     1
 10
835.0
 20
1430.9
 11
930.814388593
 21
1430.9
  0
ARC
  8
0
  6
CONTINUOUS
 62
     1
 10
928.814388593
 20
1445.9
 40
15.0
 50
270.0
 51
349.054602904
  0
ARC
  8
0
  6
CONTINUOUS
 62
     1
 10
928.923513917
 20
1443.206059629
 40
15.0
 50
270.0
 51
349.054602904
  0
ARC
  8
0
  6
CONTINUOUS
 62
     1
 10
543.0
 20
1530.9
 40
410.0
 50
347.629566941
 51
12.370433059
  0
LINE
  8
0
  6
CONTINUOUS
 62
     1
 10
835.0
 20
1440.2
 11
668.0
 21
1440.2
  0
LINE
  8
0
  6
CONTINUOUS
 62
     1
 10
835.0
 20
1428.4
 11
835.0
 21
1633.6
  0
LINE
  8
0
  6
CONTINUOUS
 62
     1
 10
835.0
 20
1428.4
 11
930.814388593
 21
1428.4
  0
LINE
  8
0
  6
CONTINUOUS
 62
     1
 10
615.0
 20
1613.77572809
 11
667.672135955
 21
1613.77572809
  0
LINE
  8
0
  6
CONTINUOUS
 62
     1
 10
615.0
 20
1448.42427191
 11
667.672135955
 21
1448.42427191
  0
LINE
  8
1
  6
CONTINUOUS
 62
     2
 10
977.6
 20
1535.5
 11
1020.6
 21
1638.7
  0
TEXT
  8
0
  6
CONTINUOUS
 62
     2
 10
1020.6
 20
1646.7
 30
0.0
 40
24.0
  1
ブレーキ開放装置
 50
0.0
 41
0.9
 51
0.0
  7
KANJI13
  0
LINE
  8
0
  6
CONTINUOUS
 62
     2
 10
1020.6
 20
1638.7
 11
1201.6
 21
1638.7
  0
LINE
  8
1
  6
CONTINUOUS
 62
     2
 10
595.0
 20
1797.5
 11
595.0
 21
1817.5
  0
LINE
  8
1
  6
CONTINUOUS
 62
     2
 10
595.0
 20
1801.5
 11
614.318516526
 21
1796.323619098
  0
LINE
  8
1
  6
CONTINUOUS
 62
     2
 10
595.0
 20
1801.5
 11
614.318516526
 21
1806.676380902
  0
LINE
  8
1
  6
CONTINUOUS
 62
     2
 10
595.0
 20
1801.5
 11
973.0
 21
1801.5
  0
LINE
  8
1
  6
CONTINUOUS
 62
     2
 10
973.0
 20
1801.5
 11
953.681483474
 21
1806.676380902
  0
LINE
  8
1
  6
CONTINUOUS
 62
     2
 10
973.0
 20
1801.5
 11
953.681483474
 21
1796.323619098
  0
LINE
  8
1
  6
CONTINUOUS
 62
     2
 10
973.0
 20
1552.5
 11
973.0
 21
1817.5
  0
TEXT
  8
1
  6
CONTINUOUS
 62
     3
 10
743.2
 20
1809.5
 30
2.4
 40
28.0
  1
３７８
 50
0.0
 41
0.914285714
 51
0.0
  7
KANJI53
  0
TEXT
  8
1
  6
CONTINUOUS
 62
     3
 10
937.5
 20
1864.1
 30
2.4
 40
24.0
  1
ＰＦ３／４
 50
0.0
 41
0.9
 51
0.0
  7
KANJI1
  0
LINE
  8
1
  6
CONTINUOUS
 62
     2
 10
402.5
 20
1551.1
 11
400.922114377
 21
1571.037659766
  0
LINE
  8
1
  6
CONTINUOUS
 62
     2
 10
402.5
 20
1551.1
 11
391.164681083
 21
1567.577577038
  0
TEXT
  8
0
  6
CONTINUOUS
 62
     2
 10
218.775
 20
1702.705
 30
0.0
 40
24.0
  1
手動軸カバー
 50
0.0
 41
0.9
 51
0.0
  7
KANJI13
  0
LINE
  8
1
  6
CONTINUOUS
 62
     2
 10
402.5
 20
1551.1
 11
352.5
 21
1692.1
  0
LINE
  8
1
  6
CONTINUOUS
 62
     2
 10
352.5
 20
1692.1
 11
215.9
 21
1692.1
  0
LINE
  8
0
  6
CONTINUOUS
 62
     1
 10
491.0
 20
1420.0
 11
562.3
 21
1420.0
  0
LINE
  8
0
  6
LTYPE5
 62
     2
 10
1985.8
 20
1529.0
 11
2290.8
 21
1529.0
  0
ARC
  8
0
  6
CONTINUOUS
 62
     1
 10
2132.8
 20
1529.0
 40
125.0
 50
280.557968545
 51
0.0
  0
CIRCLE
  8
0
  6
CONTINUOUS
 62
     1
 10
2132.8
 20
1529.0
 40
20.0
  0
ARC
  8
0
  6
CONTINUOUS
 62
     1
 10
2047.8
 20
1529.0
 40
20.0
 50
90.0
 51
270.0
  0
ARC
  8
0
  6
CONTINUOUS
 62
     1
 10
2175.3
 20
1455.387840678
 40
20.0
 50
210.0
 51
30.0
  0
ARC
  8
0
  6
CONTINUOUS
 62
     1
 10
2175.3
 20
1602.612159322
 40
20.0
 50
330.0
 51
150.0
  0
LINE
  8
0
  6
CONTINUOUS
 62
     1
 10
2047.8
 20
1549.0
 11
2121.252994616
 21
1549.0
  0
LINE
  8
0
  6
CONTINUOUS
 62
     1
 10
2157.979491924
 20
1612.612159322
 11
2121.252994616
 21
1549.0
  0
LINE
  8
0
  6
CONTINUOUS
 62
     1
 10
2047.8
 20
1509.0
 11
2121.252994616
 21
1509.0
  0
LINE
  8
0
  6
CONTINUOUS
 62
     1
 10
2157.979491924
 20
1445.387840678
 11
2121.252994616
 21
1509.0
  0
CIRCLE
  8
0
  6
CONTINUOUS
 62
     1
 10
2192.8
 20
1529.0
 40
10.0
  0
LINE
  8
0
  6
CONTINUOUS
 62
     2
 10
2192.8
 20
1544.0
 11
2192.8
 21
1514.0
  0
LINE
  8
0
  6
CONTINUOUS
 62
     1
 10
2136.133333333
 20
1509.279734056
 11
2194.466666667
 21
1519.139867028
  0
LINE
  8
0
  6
CONTINUOUS
 62
     1
 10
2136.133333333
 20
1548.720265944
 11
2194.466666667
 21
1538.860132972
  0
LINE
  8
0
  6
CONTINUOUS
 62
     1
 10
2192.620508076
 20
1592.612159322
 11
2164.510211838
 21
1543.923698023
  0
LINE
  8
0
  6
CONTINUOUS
 62
     1
 10
2192.620508076
 20
1465.387840678
 11
2164.510211838
 21
1514.076301977
  0
ARC
  8
0
  6
CONTINUOUS
 62
     1
 10
2208.813978978
 20
1605.013978978
 40
7.75
 50
294.214141675
 51
155.785858325
  0
LINE
  8
0
  6
CONTINUOUS
 62
     2
 10
2202.8
 20
1599.0
 11
2215.745832412
 21
1611.945832412
  0
ARC
  8
0
  6
CONTINUOUS
 62
     2
 10
2132.8
 20
1529.0
 40
107.5
 50
38.280925788
 51
51.325228591
  0
ARC
  8
0
  6
CONTINUOUS
 62
     1
 10
2208.813978978
 20
1452.986021022
 40
7.75
 50
204.214141675
 51
65.785858325
  0
LINE
  8
0
  6
CONTINUOUS
 62
     2
 10
2202.8
 20
1459.0
 11
2215.745832412
 21
1446.054167588
  0
ARC
  8
0
  6
CONTINUOUS
 62
     2
 10
2132.8
 20
1529.0
 40
107.5
 50
308.674771409
 51
321.719074212
  0
ARC
  8
0
  6
CONTINUOUS
 62
     1
 10
2056.786021022
 20
1605.013978978
 40
7.75
 50
24.214141675
 51
245.785858325
  0
LINE
  8
0
  6
CONTINUOUS
 62
     2
 10
2062.8
 20
1599.0
 11
2049.854167588
 21
1611.945832412
  0
ARC
  8
0
  6
CONTINUOUS
 62
     2
 10
2132.8
 20
1529.0
 40
107.5
 50
128.674771409
 51
141.719074212
  0
ARC
  8
0
  6
CONTINUOUS
 62
     1
 10
2056.786021022
 20
1452.986021022
 40
7.75
 50
114.214141675
 51
335.785858325
  0
LINE
  8
0
  6
CONTINUOUS
 62
     2
 10
2062.8
 20
1459.0
 11
2049.854167588
 21
1446.054167588
  0
ARC
  8
0
  6
CONTINUOUS
 62
     2
 10
2132.8
 20
1529.0
 40
107.5
 50
218.280925788
 51
231.325228591
  0
ARC
  8
0
  6
CONTINUOUS
 62
     1
 10
2132.8
 20
1529.0
 40
105.0
 50
272.980462591
 51
0.0
  0
ARC
  8
0
  6
CONTINUOUS
 62
     1
 10
2132.8
 20
1529.0
 40
105.0
 50
0.0
 51
226.520053773
  0
CIRCLE
  8
0
  6
CONTINUOUS
 62
     1
 10
2132.8
 20
1544.0
 40
4.0
  0
CIRCLE
  8
0
  6
CONTINUOUS
 62
     1
 10
2132.8
 20
1529.0
 40
4.0
  0
CIRCLE
  8
0
  6
CONTINUOUS
 62
     1
 10
2117.8
 20
1529.0
 40
4.0
  0
CIRCLE
  8
0
  6
CONTINUOUS
 62
     1
 10
2132.8
 20
1514.0
 40
4.0
  0
CIRCLE
  8
0
  6
CONTINUOUS
 62
     1
 10
2147.8
 20
1529.0
 40
4.0
  0
ARC
  8
0
  6
CONTINUOUS
 62
     1
 10
2132.8
 20
1529.0
 40
105.0
 50
226.520053773
 51
272.980462591
  0
ARC
  8
0
  6
CONTINUOUS
 62
     1
 10
2132.8
 20
1529.0
 40
150.0
 50
109.471220634
 51
150.073565133
  0
ARC
  8
0
  6
CONTINUOUS
 62
     1
 10
2132.8
 20
1529.0
 40
150.0
 50
29.926434867
 51
70.528779366
  0
LINE
  8
0
  6
CONTINUOUS
 62
     1
 10
2262.8
 20
1283.874886635
 11
2262.8
 21
1603.833147735
  0
LINE
  8
0
  6
CONTINUOUS
 62
     1
 10
2002.8
 20
1335.434666527
 11
2002.8
 21
1603.833147735
  0
LINE
  8
0
  6
CONTINUOUS
 62
     1
 10
2002.8
 20
1328.225525817
 11
2002.8
 21
1547.533147735
  0
LINE
  8
0
  6
CONTINUOUS
 62
     1
 10
2002.8
 20
1538.0
 11
1995.2
 21
1538.0
  0
LINE
  8
0
  6
LTYPE1
 62
     2
 10
2017.4
 20
1528.0
 11
1990.4
 21
1528.0
  0
LINE
  8
0
  6
CONTINUOUS
 62
     1
 10
1995.2
 20
1418.0
 11
1995.2
 21
1538.0
  0
LINE
  8
0
  6
LTYPE1
 62
     2
 10
2017.4
 20
1428.0
 11
1992.4
 21
1428.0
  0
LINE
  8
0
  6
CONTINUOUS
 62
     1
 10
2002.8
 20
1418.0
 11
1995.2
 21
1418.0
  0
LINE
  8
0
  6
CONTINUOUS
 62
     1
 10
2262.8
 20
1538.0
 11
2270.4
 21
1538.0
  0
LINE
  8
0
  6
LTYPE1
 62
     2
 10
2248.2
 20
1528.0
 11
2275.2
 21
1528.0
  0
LINE
  8
0
  6
CONTINUOUS
 62
     1
 10
2270.4
 20
1418.0
 11
2270.4
 21
1538.0
  0
LINE
  8
0
  6
LTYPE1
 62
     2
 10
2248.2
 20
1428.0
 11
2273.2
 21
1428.0
  0
LINE
  8
0
  6
CONTINUOUS
 62
     1
 10
2262.8
 20
1418.0
 11
2270.4
 21
1418.0
  0
LINE
  8
1
  6
CONTINUOUS
 62
     2
 10
2343.107300983
 20
1298.0
 11
2371.307300983
 21
1298.0
  0
LINE
  8
1
  6
CONTINUOUS
 62
     2
 10
2355.307300983
 20
1298.0
 11
2360.483681885
 21
1317.318516526
  0
LINE
  8
1
  6
CONTINUOUS
 62
     2
 10
2355.307300983
 20
1298.0
 11
2350.130920081
 21
1317.318516526
  0
LINE
  8
1
  6
CONTINUOUS
 62
     2
 10
2355.307300983
 20
1298.0
 11
2355.307300983
 21
1529.0
  0
LINE
  8
1
  6
CONTINUOUS
 62
     2
 10
2355.307300983
 20
1529.0
 11
2350.130920081
 21
1509.681483474
  0
LINE
  8
1
  6
CONTINUOUS
 62
     2
 10
2355.307300983
 20
1529.0
 11
2360.483681885
 21
1509.681483474
  0
LINE
  8
1
  6
CONTINUOUS
 62
     2
 10
2292.844591814
 20
1529.0
 11
2371.307300983
 21
1529.0
  0
TEXT
  8
1
  6
CONTINUOUS
 62
     3
 10
2347.307300983
 20
1372.7
 30
2.4
 40
28.0
  1
２３１
 50
90.0
 41
0.914285714
 51
0.0
  7
KANJI53
  0
LINE
  8
1
  6
CONTINUOUS
 62
     2
 10
2346.407300983
 20
1529.0
 11
2371.307300983
 21
1529.0
  0
TEXT
  8
1
  6
CONTINUOUS
 62
     3
 10
1892.8
 20
1002.5
 30
2.4
 40
28.0
  1
φ４５Ｈ１０深５０
 50
90.0
 41
0.914285714
 51
0.0
  7
KANJI53
  0
LINE
  8
1
  6
CONTINUOUS
 62
     2
 10
1900.0
 20
1275.5
 11
1900.0
 21
997.8
  0
LINE
  8
1
  6
CONTINUOUS
 62
     2
 10
1900.0
 20
1351.8
 11
1900.0
 21
1320.5
  0
LINE
  8
1
  6
CONTINUOUS
 62
     2
 10
2022.007300983
 20
1373.4
 11
2004.951266672
 21
1383.844696912
  0
LINE
  8
1
  6
CONTINUOUS
 62
     2
 10
2022.007300983
 20
1373.4
 11
2002.013993526
 21
1373.917355705
  0
LINE
  8
1
  6
CONTINUOUS
 62
     2
 10
2022.007300983
 20
1373.4
 11
1898.307300983
 21
1410.0
  0
LINE
  8
1
  6
CONTINUOUS
 62
     2
 10
1898.307300983
 20
1410.0
 11
1780.707300983
 21
1410.0
  0
TEXT
  8
1
  6
CONTINUOUS
 62
     3
 10
1780.707300983
 20
1418.0
 30
2.4
 40
24.0
  1
ＰＦ１／２
 50
0.0
 41
0.9
 51
0.0
  7
KANJI1
  0
TEXT
  8
0
  6
CONTINUOUS
 62
     3
 10
2239.4667112
 20
169.599992
 30
2.4
 40
28.0
  1
２００１．０４．２３
 50
0.0
 41
0.571428571
 51
0.0
  7
KANJI61
  0
POLYLINE
  8
0
  6
CONTINUOUS
 62
     1
 66
     1
  0
VERTEX
  8
0
  6
CONTINUOUS
 62
     1
 10
841.5
 20
1653.0
  0
VERTEX
  8
0
  6
CONTINUOUS
 62
     1
 10
841.5
 20
1693.0
  0
VERTEX
  8
0
  6
CONTINUOUS
 62
     1
 10
806.5
 20
1693.0
  0
SEQEND
  0
LINE
  8
1
  6
CONTINUOUS
 62
     2
 10
841.5
 20
1673.0
 11
854.769399065
 21
1687.964058556
  0
LINE
  8
1
  6
CONTINUOUS
 62
     2
 10
841.5
 20
1673.0
 11
845.509607405
 21
1692.593954385
  0
LINE
  8
0
  6
CONTINUOUS
 62
     1
 10
841.5
 20
1653.0
 11
806.5
 21
1653.0
  0
LINE
  8
0
  6
LTYPE1
 62
     2
 10
856.4000632
 20
1673.0
 11
796.552135955
 21
1673.0
  0
LINE
  8
1
  6
CONTINUOUS
 62
     2
 10
933.05
 20
1856.1
 11
1055.1
 21
1856.1
  0
LINE
  8
1
  6
CONTINUOUS
 62
     2
 10
841.5
 20
1673.0
 11
933.05
 21
1856.1
  0
LINE
  8
0
  6
CONTINUOUS
 62
     1
 10
2082.8
 20
1648.2
 11
2082.8
 21
1711.0
  0
LINE
  8
0
  6
CONTINUOUS
 62
     1
 10
2176.8
 20
1717.0
 11
2088.800030518
 21
1717.0
  0
ARC
  8
0
  6
CONTINUOUS
 62
     1
 10
2088.8
 20
1711.0
 40
6.0
 50
89.999708579
 51
180.0
  0
ARC
  8
0
  6
CONTINUOUS
 62
     1
 10
2088.8
 20
1706.705692517
 40
6.0
 50
90.0
 51
180.0
  0
LINE
  8
0
  6
CONTINUOUS
 62
     1
 10
2088.8
 20
1712.705692517
 11
2176.8
 21
1712.705692517
  0
ARC
  8
0
  6
CONTINUOUS
 62
     1
 10
2176.8
 20
1706.705692517
 40
6.0
 50
0.0
 51
90.0
  0
ARC
  8
0
  6
CONTINUOUS
 62
     1
 10
2176.8
 20
1711.0
 40
6.0
 50
0.0
 51
90.0
  0
LINE
  8
0
  6
CONTINUOUS
 62
     1
 10
2182.8
 20
1647.7
 11
2182.8
 21
1711.0
  0
LINE
  8
0
  6
CONTINUOUS
 62
     1
 10
2172.8
 20
1642.2
 11
2172.8
 21
1703.705692517
  0
ARC
  8
0
  6
CONTINUOUS
 62
     1
 10
2169.8
 20
1703.705692517
 40
3.0
 50
0.0
 51
90.0
  0
LINE
  8
0
  6
CONTINUOUS
 62
     1
 10
2095.8
 20
1706.705692517
 11
2169.8
 21
1706.705692517
  0
LINE
  8
0
  6
CONTINUOUS
 62
     1
 10
2092.8
 20
1642.2
 11
2092.8
 21
1703.705692517
  0
ARC
  8
0
  6
CONTINUOUS
 62
     1
 10
2095.8
 20
1703.705692517
 40
3.0
 50
90.0
 51
180.0
  0
ARC
  8
0
  6
CONTINUOUS
 62
     1
 10
2088.8
 20
1647.7
 40
6.0
 50
180.0
 51
270.0
  0
LINE
  8
0
  6
CONTINUOUS
 62
     1
 10
2092.8
 20
1641.7
 11
2088.8
 21
1641.7
  0
ARC
  8
0
  6
CONTINUOUS
 62
     1
 10
2095.8
 20
1641.7
 40
3.0
 50
180.0
 51
270.0
  0
ARC
  8
0
  6
CONTINUOUS
 62
     1
 10
2169.8
 20
1641.7
 40
3.0
 50
270.0
 51
0.0
  0
ARC
  8
0
  6
CONTINUOUS
 62
     1
 10
2176.8
 20
1647.7
 40
6.0
 50
270.0
 51
0.0
  0
LINE
  8
0
  6
CONTINUOUS
 62
     1
 10
2172.8
 20
1641.7
 11
2176.8
 21
1641.7
  0
LINE
  8
0
  6
CONTINUOUS
 62
     1
 10
2095.8
 20
1638.7
 11
2169.8
 21
1638.7
  0
CIRCLE
  8
0
  6
CONTINUOUS
 62
     1
 10
2132.8
 20
1671.0
 40
20.0
  0
CIRCLE
  8
0
  6
CONTINUOUS
 62
     2
 10
2132.8
 20
1671.0
 40
13.5
  0
CIRCLE
  8
0
  6
CONTINUOUS
 62
     2
 10
2132.8
 20
1671.0
 40
15.0
  0
LINE
  8
0
  6
LTYPE2
 62
     2
 10
2102.3
 20
1671.0
 11
2161.8
 21
1671.0
  0
ARC
  8
0
  6
CONTINUOUS
 62
     1
 10
2132.8
 20
1529.0
 40
125.0
 50
112.973900526
 51
280.557968545
  0
ARC
  8
0
  6
CONTINUOUS
 62
     1
 10
2132.8
 20
1529.0
 40
125.0
 50
0.0
 51
67.026099473
  0
LINE
  8
0
  6
CONTINUOUS
 62
     1
 10
2152.8
 20
1632.07764064
 11
2152.8
 21
1638.7
  0
LINE
  8
0
  6
CONTINUOUS
 62
     1
 10
2112.8
 20
1632.07764064
 11
2112.8
 21
1638.7
  0
LINE
  8
0
  6
CONTINUOUS
 62
     2
 10
2351.307300983
 20
1529.0
 11
2367.307300983
 21
1529.0
  0
LINE
  8
0
  6
CONTINUOUS
 62
     2
 10
2355.307300983
 20
1529.0
 11
2360.483681885
 21
1548.318516526
  0
LINE
  8
0
  6
CONTINUOUS
 62
     2
 10
2355.307300983
 20
1529.0
 11
2350.130920081
 21
1548.318516526
  0
LINE
  8
0
  6
CONTINUOUS
 62
     2
 10
2355.307300983
 20
1529.0
 11
2355.307300983
 21
1717.0
  0
LINE
  8
0
  6
CONTINUOUS
 62
     2
 10
2355.307300983
 20
1717.0
 11
2350.130920081
 21
1697.681483474
  0
LINE
  8
0
  6
CONTINUOUS
 62
     2
 10
2355.307300983
 20
1717.0
 11
2360.483681885
 21
1697.681483474
  0
LINE
  8
0
  6
CONTINUOUS
 62
     2
 10
2184.800043158
 20
1717.0
 11
2367.307300983
 21
1717.0
  0
TEXT
  8
0
  6
CONTINUOUS
 62
     3
 10
2351.307300983
 20
1587.0
 30
0.0
 40
25.6
  1
１８８
 50
90.0
 41
0.9375
 51
0.0
  7
KANJI62
  0
LINE
  8
0
  6
CONTINUOUS
 62
     2
 10
2336.304410065
 20
1717.0
 11
2425.800043158
 21
1717.0
  0
LINE
  8
0
  6
CONTINUOUS
 62
     2
 10
2413.800043158
 20
1717.0
 11
2408.623662256
 21
1697.681483474
  0
LINE
  8
0
  6
CONTINUOUS
 62
     2
 10
2413.800043158
 20
1717.0
 11
2418.97642406
 21
1697.681483474
  0
LINE
  8
0
  6
CONTINUOUS
 62
     2
 10
2413.800043158
 20
1717.0
 11
2413.800043158
 21
1163.0
  0
LINE
  8
0
  6
CONTINUOUS
 62
     2
 10
2413.800043158
 20
1163.0
 11
2418.97642406
 21
1182.318516526
  0
LINE
  8
0
  6
CONTINUOUS
 62
     2
 10
2413.800043158
 20
1163.0
 11
2408.623662256
 21
1182.318516526
  0
LINE
  8
0
  6
CONTINUOUS
 62
     2
 10
2346.304410065
 20
1163.0
 11
2425.800043158
 21
1163.0
  0
TEXT
  8
0
  6
CONTINUOUS
 62
     3
 10
2409.800043158
 20
1404.0
 30
0.0
 40
25.6
  1
５５４
 50
90.0
 41
0.9375
 51
0.0
  7
KANJI62
  0
LINE
  8
0
  6
LTYPE5
 62
     2
 10
2132.8
 20
1113.0
 11
2132.8
 21
1725.205692517
  0
ARC
  8
0
  6
CONTINUOUS
 62
     1
 10
2132.8
 20
1298.0
 40
100.0
 50
295.414174699
 51
246.312473663
  0
LINE
  8
0
  6
CONTINUOUS
 62
     1
 10
2031.836443723
 20
1313.760586696
 11
2020.978095714
 21
1321.363683824
  0
LINE
  8
0
  6
CONTINUOUS
 62
     1
 10
1992.8
 20
1253.0
 11
2045.998781971
 21
1248.345709664
  0
LINE
  8
0
  6
CONTINUOUS
 62
     1
 10
2272.8
 20
1253.0
 11
2219.601218029
 21
1248.345709664
  0
LINE
  8
0
  6
CONTINUOUS
 62
     1
 10
2272.8
 20
1343.0
 11
2219.601218029
 21
1347.654290336
  0
POLYLINE
  8
0
  6
CONTINUOUS
 62
     1
 66
     1
  0
VERTEX
  8
0
  6
CONTINUOUS
 62
     1
 10
2085.458322994
 20
1386.083855605
  0
VERTEX
  8
0
  6
CONTINUOUS
 62
     1
 10
2072.599974985
 20
1395.08736781
  0
VERTEX
  8
0
  6
CONTINUOUS
 62
     1
 10
2020.404519278
 20
1320.54453178
  0
SEQEND
  0
TEXT
  8
0
  6
CONTINUOUS
 62
     3
 10
2375.0
 20
338.0
 30
0.0
 40
24.0
  1
７／２
 50
0.0
 41
0.5
 51
0.0
  7
KANJI63
  0
TEXT
  8
0
  6
CONTINUOUS
 62
     2
 10
2263.0
 20
339.9333248
 30
24.0
 40
24.0
  1
田口
 50
0.0
 41
0.9
 51
0.0
  7
KANJI64
  0
POLYLINE
  8
0
  6
CONTINUOUS
 62
     4
 66
     1
  0
VERTEX
  8
0
  6
CONTINUOUS
 62
     4
 10
1655.0667892
 20
198.999996
  0
VERTEX
  8
0
  6
CONTINUOUS
 62
     4
 10
1632.5334576
 20
164.333332
  0
VERTEX
  8
0
  6
CONTINUOUS
 62
     4
 10
1677.6001208
 20
164.333332
  0
SEQEND
  0
LINE
  8
0
  6
CONTINUOUS
 62
     4
 10
1655.0667892
 20
198.999996
 11
1677.6001208
 21
164.333332
  0
TEXT
  8
0
  6
CONTINUOUS
 62
     3
 10
1648.0
 20
166.6
 30
0.0
 40
24.0
  1
１
 50
0.0
 41
0.5
 51
0.0
  7
KANJI63
  0
TEXT
  8
0
  6
CONTINUOUS
 62
     3
 10
1688.0
 20
162.6
 30
0.0
 40
24.0
  1
２００２．１０．１６　岡田　寸法変更
 50
0.0
 41
0.5
 51
0.0
  7
KANJI63
  0
TEXT
  8
0
  6
CONTINUOUS
 62
     3
 10
3092.0
 20
209.6
 30
0.0
 40
24.0
  1
１
 50
0.0
 41
0.5
 51
0.0
  7
KANJI63
  0
LINE
  8
1
  6
CONTINUOUS
 62
     2
 10
385.0
 20
1375.0
 11
304.2
 21
1375.0
  0
TEXT
  8
1
  6
CONTINUOUS
 62
     3
 10
304.2
 20
1383.0
 30
4.0
 40
24.0
  1
点検口
 50
0.0
 41
0.9
 51
0.0
  7
KANJI65
  0
LINE
  8
0
  6
CONTINUOUS
 62
     3
 10
2336.3
 20
1552.8
 11
2312.3
 21
1566.656406461
  0
LINE
  8
0
  6
CONTINUOUS
 62
     3
 10
2312.3
 20
1566.656406461
 11
2336.3
 21
1580.512812921
  0
LINE
  8
0
  6
CONTINUOUS
 62
     3
 10
2336.3
 20
1580.512812921
 11
2336.3
 21
1552.8
  0
TEXT
  8
0
  6
CONTINUOUS
 62
     3
 10
2333.956854249
 20
1560.999552211
 30
0.0
 40
11.313708499
  1
１
 50
90.0
 41
1.0
 51
0.0
  7
KANJI66
  0
LINE
  8
0
  6
CONTINUOUS
 62
     3
 10
2394.6
 20
1365.4
 11
2370.6
 21
1379.256406461
  0
LINE
  8
0
  6
CONTINUOUS
 62
     3
 10
2370.6
 20
1379.256406461
 11
2394.6
 21
1393.112812921
  0
LINE
  8
0
  6
CONTINUOUS
 62
     3
 10
2394.6
 20
1393.112812921
 11
2394.6
 21
1365.4
  0
TEXT
  8
0
  6
CONTINUOUS
 62
     3
 10
2392.256854249
 20
1373.599552211
 30
0.0
 40
11.313708499
  1
１
 50
90.0
 41
1.0
 51
0.0
  7
KANJI66
  0
ENDSEC
  0
EOF
