  0
SECTION
  2
HEADER
  9
$EXTMIN
 10
0.0
 20
0.0
 30
0.0
  9
$EXTMAX
 10
3360.0
 20
2376.0
 30
0.0
  9
$LIMMIN
 10
0.0
 20
0.0
  9
$LIMMAX
 10
3360.0
 20
2376.0
  9
$LTSCALE
 40
1.0
  9
$PDMODE
 70
     0
  0
ENDSEC
  0
SECTION
  2
TABLES
  0
TABLE
  2
LTYPE
 70
     6
  0
LTYPE
  2
LTYPE0
 70
    64
  3
CENTER
 72
    65
 73
     4
 40
120.0
 49
84.0
 49
-12.0
 49
12.0
 49
-12.0
  0
LTYPE
  2
CONTINUOUS
 70
    64
  3
Solid line
 72
    65
 73
     0
 40
0.0
  0
LTYPE
  2
LTYPE2
 70
    64
  3
CENTER
 72
    65
 73
     4
 40
80.0
 49
56.0
 49
-8.0
 49
8.0
 49
-8.0
  0
LTYPE
  2
LTYPE3
 70
    64
  3
HIDDEN
 72
    65
 73
     2
 40
24.0
 49
14.4
 49
-9.6
  0
LTYPE
  2
LTYPE4
 70
    64
  3
PHANTOM
 72
    65
 73
     6
 40
120.0
 49
90.0
 49
-6.0
 49
6.0
 49
-6.0
 49
6.0
 49
-6.0
  0
LTYPE
  2
LTYPE5
 70
    64
  3
CENTER
 72
    65
 73
     4
 40
160.0
 49
112.0
 49
-16.0
 49
16.0
 49
-16.0
  0
ENDTAB
  0
TABLE
  2
LAYER
 70
   128
  0
LAYER
  2
0
 70
     0
 62
     7
  6
CONTINUOUS
  0
LAYER
  2
2
 70
     0
 62
     7
  6
CONTINUOUS
  0
LAYER
  2
3
 70
     0
 62
     7
  6
CONTINUOUS
  0
LAYER
  2
4
 70
     0
 62
     7
  6
CONTINUOUS
  0
LAYER
  2
5
 70
     0
 62
     7
  6
CONTINUOUS
  0
LAYER
  2
6
 70
     0
 62
     7
  6
CONTINUOUS
  0
LAYER
  2
7
 70
     0
 62
     7
  6
CONTINUOUS
  0
LAYER
  2
8
 70
     0
 62
     7
  6
CONTINUOUS
  0
LAYER
  2
9
 70
     0
 62
     7
  6
CONTINUOUS
  0
LAYER
  2
10
 70
     0
 62
     7
  6
CONTINUOUS
  0
LAYER
  2
11
 70
     0
 62
     7
  6
CONTINUOUS
  0
LAYER
  2
12
 70
     0
 62
     7
  6
CONTINUOUS
  0
LAYER
  2
13
 70
     0
 62
     7
  6
CONTINUOUS
  0
LAYER
  2
14
 70
     0
 62
     7
  6
CONTINUOUS
  0
LAYER
  2
15
 70
     0
 62
     7
  6
CONTINUOUS
  0
LAYER
  2
16
 70
     0
 62
     7
  6
CONTINUOUS
  0
LAYER
  2
17
 70
     0
 62
     7
  6
CONTINUOUS
  0
LAYER
  2
18
 70
     0
 62
     7
  6
CONTINUOUS
  0
LAYER
  2
19
 70
     0
 62
     7
  6
CONTINUOUS
  0
LAYER
  2
20
 70
     0
 62
     7
  6
CONTINUOUS
  0
LAYER
  2
21
 70
     0
 62
     7
  6
CONTINUOUS
  0
LAYER
  2
22
 70
     0
 62
     7
  6
CONTINUOUS
  0
LAYER
  2
23
 70
     0
 62
     7
  6
CONTINUOUS
  0
LAYER
  2
24
 70
     0
 62
     7
  6
CONTINUOUS
  0
LAYER
  2
25
 70
     0
 62
     7
  6
CONTINUOUS
  0
LAYER
  2
26
 70
     0
 62
     7
  6
CONTINUOUS
  0
LAYER
  2
27
 70
     0
 62
     7
  6
CONTINUOUS
  0
LAYER
  2
28
 70
     0
 62
     7
  6
CONTINUOUS
  0
LAYER
  2
29
 70
     0
 62
     7
  6
CONTINUOUS
  0
LAYER
  2
30
 70
     0
 62
     7
  6
CONTINUOUS
  0
LAYER
  2
31
 70
     0
 62
     7
  6
CONTINUOUS
  0
LAYER
  2
32
 70
     0
 62
     7
  6
CONTINUOUS
  0
LAYER
  2
33
 70
     0
 62
     7
  6
CONTINUOUS
  0
LAYER
  2
34
 70
     0
 62
     7
  6
CONTINUOUS
  0
LAYER
  2
35
 70
     0
 62
     7
  6
CONTINUOUS
  0
LAYER
  2
36
 70
     0
 62
     7
  6
CONTINUOUS
  0
LAYER
  2
37
 70
     0
 62
     7
  6
CONTINUOUS
  0
LAYER
  2
38
 70
     0
 62
     7
  6
CONTINUOUS
  0
LAYER
  2
39
 70
     0
 62
     7
  6
CONTINUOUS
  0
LAYER
  2
40
 70
     0
 62
     7
  6
CONTINUOUS
  0
LAYER
  2
41
 70
     0
 62
     7
  6
CONTINUOUS
  0
LAYER
  2
42
 70
     0
 62
     7
  6
CONTINUOUS
  0
LAYER
  2
43
 70
     0
 62
     7
  6
CONTINUOUS
  0
LAYER
  2
44
 70
     0
 62
     7
  6
CONTINUOUS
  0
LAYER
  2
45
 70
     0
 62
     7
  6
CONTINUOUS
  0
LAYER
  2
46
 70
     0
 62
     7
  6
CONTINUOUS
  0
LAYER
  2
47
 70
     0
 62
     7
  6
CONTINUOUS
  0
LAYER
  2
48
 70
     0
 62
     7
  6
CONTINUOUS
  0
LAYER
  2
49
 70
     0
 62
     7
  6
CONTINUOUS
  0
LAYER
  2
50
 70
     0
 62
     7
  6
CONTINUOUS
  0
LAYER
  2
51
 70
     0
 62
     7
  6
CONTINUOUS
  0
LAYER
  2
52
 70
     0
 62
     7
  6
CONTINUOUS
  0
LAYER
  2
53
 70
     0
 62
     7
  6
CONTINUOUS
  0
LAYER
  2
54
 70
     0
 62
     7
  6
CONTINUOUS
  0
LAYER
  2
55
 70
     0
 62
     7
  6
CONTINUOUS
  0
LAYER
  2
56
 70
     0
 62
     7
  6
CONTINUOUS
  0
LAYER
  2
57
 70
     0
 62
     7
  6
CONTINUOUS
  0
LAYER
  2
58
 70
     0
 62
     7
  6
CONTINUOUS
  0
LAYER
  2
59
 70
     0
 62
     7
  6
CONTINUOUS
  0
LAYER
  2
60
 70
     0
 62
     7
  6
CONTINUOUS
  0
LAYER
  2
61
 70
     0
 62
     7
  6
CONTINUOUS
  0
LAYER
  2
62
 70
     0
 62
     7
  6
CONTINUOUS
  0
LAYER
  2
63
 70
     0
 62
     7
  6
CONTINUOUS
  0
LAYER
  2
64
 70
     0
 62
     7
  6
CONTINUOUS
  0
LAYER
  2
65
 70
     0
 62
     7
  6
CONTINUOUS
  0
LAYER
  2
66
 70
     0
 62
     7
  6
CONTINUOUS
  0
LAYER
  2
67
 70
     0
 62
     7
  6
CONTINUOUS
  0
LAYER
  2
68
 70
     0
 62
     7
  6
CONTINUOUS
  0
LAYER
  2
69
 70
     0
 62
     7
  6
CONTINUOUS
  0
LAYER
  2
70
 70
     0
 62
     7
  6
CONTINUOUS
  0
LAYER
  2
71
 70
     0
 62
     7
  6
CONTINUOUS
  0
LAYER
  2
72
 70
     0
 62
     7
  6
CONTINUOUS
  0
LAYER
  2
73
 70
     0
 62
     7
  6
CONTINUOUS
  0
LAYER
  2
74
 70
     0
 62
     7
  6
CONTINUOUS
  0
LAYER
  2
75
 70
     0
 62
     7
  6
CONTINUOUS
  0
LAYER
  2
76
 70
     0
 62
     7
  6
CONTINUOUS
  0
LAYER
  2
77
 70
     0
 62
     7
  6
CONTINUOUS
  0
LAYER
  2
78
 70
     0
 62
     7
  6
CONTINUOUS
  0
LAYER
  2
79
 70
     0
 62
     7
  6
CONTINUOUS
  0
LAYER
  2
80
 70
     0
 62
     7
  6
CONTINUOUS
  0
LAYER
  2
81
 70
     0
 62
     7
  6
CONTINUOUS
  0
LAYER
  2
82
 70
     0
 62
     7
  6
CONTINUOUS
  0
LAYER
  2
83
 70
     0
 62
     7
  6
CONTINUOUS
  0
LAYER
  2
84
 70
     0
 62
     7
  6
CONTINUOUS
  0
LAYER
  2
85
 70
     0
 62
     7
  6
CONTINUOUS
  0
LAYER
  2
86
 70
     0
 62
     7
  6
CONTINUOUS
  0
LAYER
  2
87
 70
     0
 62
     7
  6
CONTINUOUS
  0
LAYER
  2
88
 70
     0
 62
     7
  6
CONTINUOUS
  0
LAYER
  2
89
 70
     0
 62
     7
  6
CONTINUOUS
  0
LAYER
  2
90
 70
     0
 62
     7
  6
CONTINUOUS
  0
LAYER
  2
91
 70
     0
 62
     7
  6
CONTINUOUS
  0
LAYER
  2
92
 70
     0
 62
     7
  6
CONTINUOUS
  0
LAYER
  2
93
 70
     0
 62
     7
  6
CONTINUOUS
  0
LAYER
  2
94
 70
     0
 62
     7
  6
CONTINUOUS
  0
LAYER
  2
95
 70
     0
 62
     7
  6
CONTINUOUS
  0
LAYER
  2
96
 70
     0
 62
     7
  6
CONTINUOUS
  0
LAYER
  2
97
 70
     0
 62
     7
  6
CONTINUOUS
  0
LAYER
  2
98
 70
     0
 62
     7
  6
CONTINUOUS
  0
LAYER
  2
99
 70
     0
 62
     7
  6
CONTINUOUS
  0
LAYER
  2
100
 70
     0
 62
     7
  6
CONTINUOUS
  0
LAYER
  2
101
 70
     0
 62
     7
  6
CONTINUOUS
  0
LAYER
  2
102
 70
     0
 62
     7
  6
CONTINUOUS
  0
LAYER
  2
103
 70
     0
 62
     7
  6
CONTINUOUS
  0
LAYER
  2
104
 70
     0
 62
     7
  6
CONTINUOUS
  0
LAYER
  2
105
 70
     0
 62
     7
  6
CONTINUOUS
  0
LAYER
  2
106
 70
     0
 62
     7
  6
CONTINUOUS
  0
LAYER
  2
107
 70
     0
 62
     7
  6
CONTINUOUS
  0
LAYER
  2
108
 70
     0
 62
     7
  6
CONTINUOUS
  0
LAYER
  2
109
 70
     0
 62
     7
  6
CONTINUOUS
  0
LAYER
  2
110
 70
     0
 62
     7
  6
CONTINUOUS
  0
LAYER
  2
111
 70
     0
 62
     7
  6
CONTINUOUS
  0
LAYER
  2
112
 70
     0
 62
     7
  6
CONTINUOUS
  0
LAYER
  2
113
 70
     0
 62
     7
  6
CONTINUOUS
  0
LAYER
  2
114
 70
     0
 62
     7
  6
CONTINUOUS
  0
LAYER
  2
115
 70
     0
 62
     7
  6
CONTINUOUS
  0
LAYER
  2
116
 70
     0
 62
     7
  6
CONTINUOUS
  0
LAYER
  2
117
 70
     0
 62
     7
  6
CONTINUOUS
  0
LAYER
  2
118
 70
     0
 62
     7
  6
CONTINUOUS
  0
LAYER
  2
119
 70
     0
 62
     7
  6
CONTINUOUS
  0
LAYER
  2
120
 70
     0
 62
     7
  6
CONTINUOUS
  0
LAYER
  2
121
 70
     0
 62
     7
  6
CONTINUOUS
  0
LAYER
  2
122
 70
     0
 62
     7
  6
CONTINUOUS
  0
LAYER
  2
123
 70
     0
 62
     7
  6
CONTINUOUS
  0
LAYER
  2
124
 70
     0
 62
     7
  6
CONTINUOUS
  0
LAYER
  2
125
 70
     0
 62
     7
  6
CONTINUOUS
  0
LAYER
  2
126
 70
     0
 62
     7
  6
CONTINUOUS
  0
LAYER
  2
127
 70
     0
 62
     7
  6
CONTINUOUS
  0
LAYER
  2
128
 70
     0
 62
     7
  6
CONTINUOUS
  0
ENDTAB
  0
TABLE
  2
STYLE
 70
    62
  0
STYLE
  2
STANDARD
 70
     0
 40
0.0
 41
1.0
 50
0.0
 71
     0
 42
0.2
  3
txt
  4

  0
STYLE
  2
KANJI0
 70
     0
 40
24.0
 41
0.9
 50
0.0
 71
     0
 42
24.0
  3

  4
bigfont
  0
STYLE
  2
KANJI1
 70
     0
 40
24.0
 41
0.9
 50
0.0
 71
     0
 42
24.0
  3

  4
bigfont
  0
STYLE
  2
KANJI2
 70
     0
 40
24.0
 41
0.9
 50
0.0
 71
     0
 42
24.0
  3

  4
bigfont
  0
STYLE
  2
KANJI3
 70
     0
 40
36.0
 41
0.9
 50
0.0
 71
     0
 42
36.0
  3

  4
bigfont
  0
STYLE
  2
KANJI4
 70
     4
 40
28.0
 41
0.9
 50
0.0
 71
     0
 42
28.0
  3

  4
bigfont
  0
STYLE
  2
KANJI5
 70
     4
 40
24.0
 41
0.9
 50
0.0
 71
     0
 42
24.0
  3

  4
bigfont
  0
STYLE
  2
KANJI6
 70
     0
 40
28.0
 41
0.9
 50
0.0
 71
     0
 42
28.0
  3

  4
bigfont
  0
STYLE
  2
KANJI7
 70
     0
 40
24.0
 41
0.9
 50
0.0
 71
     0
 42
24.0
  3

  4
bigfont
  0
STYLE
  2
KANJI8
 70
     0
 40
24.0
 41
0.857142857
 50
0.0
 71
     0
 42
24.0
  3

  4
bigfont
  0
STYLE
  2
KANJI9
 70
     0
 40
28.0
 41
0.9
 50
0.0
 71
     0
 42
28.0
  3

  4
bigfont
  0
STYLE
  2
KANJI10
 70
     0
 40
22.4
 41
0.9
 50
0.0
 71
     0
 42
22.4
  3

  4
bigfont
  0
STYLE
  2
KANJI11
 70
     0
 40
22.4
 41
0.785714286
 50
0.0
 71
     0
 42
22.4
  3

  4
bigfont
  0
STYLE
  2
KANJI12
 70
     0
 40
22.4
 41
0.8
 50
0.0
 71
     0
 42
22.4
  3

  4
bigfont
  0
STYLE
  2
KANJI13
 70
     0
 40
24.0
 41
0.8
 50
0.0
 71
     0
 42
24.0
  3

  4
bigfont
  0
STYLE
  2
KANJI14
 70
     0
 40
24.0
 41
0.9
 50
0.0
 71
     0
 42
24.0
  3

  4
bigfont
  0
STYLE
  2
KANJI15
 70
     0
 40
19.2
 41
0.777777778
 50
0.0
 71
     0
 42
19.2
  3

  4
bigfont
  0
STYLE
  2
KANJI16
 70
     0
 40
25.6
 41
0.9
 50
0.0
 71
     0
 42
25.6
  3

  4
bigfont
  0
STYLE
  2
KANJI17
 70
     0
 40
30.4
 41
0.9
 50
0.0
 71
     0
 42
30.4
  3

  4
bigfont
  0
STYLE
  2
KANJI18
 70
     0
 40
30.4
 41
0.9
 50
0.0
 71
     0
 42
30.4
  3

  4
bigfont
  0
STYLE
  2
KANJI19
 70
     0
 40
30.4
 41
0.9
 50
0.0
 71
     0
 42
30.4
  3

  4
bigfont
  0
STYLE
  2
KANJI20
 70
     0
 40
30.4
 41
0.9
 50
0.0
 71
     0
 42
30.4
  3

  4
bigfont
  0
STYLE
  2
KANJI21
 70
     0
 40
30.4
 41
0.9
 50
0.0
 71
     0
 42
30.4
  3

  4
bigfont
  0
STYLE
  2
KANJI22
 70
     0
 40
30.4
 41
0.9
 50
0.0
 71
     0
 42
30.4
  3

  4
bigfont
  0
STYLE
  2
KANJI23
 70
     0
 40
30.4
 41
0.9
 50
0.0
 71
     0
 42
30.4
  3

  4
bigfont
  0
STYLE
  2
KANJI24
 70
     0
 40
30.4
 41
0.9
 50
0.0
 71
     0
 42
30.4
  3

  4
bigfont
  0
STYLE
  2
KANJI25
 70
     0
 40
30.4
 41
0.9
 50
0.0
 71
     0
 42
30.4
  3

  4
bigfont
  0
STYLE
  2
KANJI26
 70
     0
 40
30.4
 41
0.9
 50
0.0
 71
     0
 42
30.4
  3

  4
bigfont
  0
STYLE
  2
KANJI27
 70
     0
 40
22.4
 41
0.8
 50
0.0
 71
     0
 42
22.4
  3

  4
bigfont
  0
STYLE
  2
KANJI28
 70
     0
 40
32.0
 41
0.9
 50
0.0
 71
     0
 42
32.0
  3

  4
bigfont
  0
STYLE
  2
KANJI29
 70
     0
 40
28.8
 41
0.857142857
 50
0.0
 71
     0
 42
28.8
  3

  4
bigfont
  0
STYLE
  2
KANJI30
 70
     0
 40
28.0
 41
0.9
 50
0.0
 71
     0
 42
28.0
  3

  4
bigfont
  0
STYLE
  2
KANJI31
 70
     0
 40
28.0
 41
0.9
 50
0.0
 71
     0
 42
28.0
  3

  4
bigfont
  0
STYLE
  2
KANJI32
 70
     0
 40
28.0
 41
0.571428571
 50
0.0
 71
     0
 42
28.0
  3

  4
bigfont
  0
STYLE
  2
KANJI33
 70
     0
 40
15.999996636
 41
0.6
 50
0.0
 71
     0
 42
15.999996636
  3

  4
bigfont
  0
STYLE
  2
KANJI34
 70
     0
 40
19.199995963
 41
0.9
 50
0.0
 71
     0
 42
19.199995963
  3

  4
bigfont
  0
STYLE
  2
KANJI35
 70
     0
 40
20.7999984
 41
0.9
 50
0.0
 71
     0
 42
20.7999984
  3

  4
bigfont
  0
STYLE
  2
KANJI36
 70
     0
 40
13.8666656
 41
0.75
 50
0.0
 71
     0
 42
13.8666656
  3

  4
bigfont
  0
STYLE
  2
KANJI37
 70
     0
 40
20.7999984
 41
0.75
 50
0.0
 71
     0
 42
20.7999984
  3

  4
bigfont
  0
STYLE
  2
KANJI38
 70
     0
 40
12.47999904
 41
0.75
 50
0.0
 71
     0
 42
12.47999904
  3

  4
bigfont
  0
STYLE
  2
KANJI39
 70
     0
 40
13.8666656
 41
0.6
 50
0.0
 71
     0
 42
13.8666656
  3

  4
bigfont
  0
STYLE
  2
KANJI40
 70
     0
 40
16.63999872
 41
0.6
 50
0.0
 71
     0
 42
16.63999872
  3

  4
bigfont
  0
STYLE
  2
KANJI41
 70
     0
 40
13.8666656
 41
0.8
 50
0.0
 71
     0
 42
13.8666656
  3

  4
bigfont
  0
STYLE
  2
KANJI42
 70
     0
 40
16.63999872
 41
0.8
 50
0.0
 71
     0
 42
16.63999872
  3

  4
bigfont
  0
STYLE
  2
KANJI43
 70
     0
 40
20.7999984
 41
0.75
 50
0.0
 71
     0
 42
20.7999984
  3

  4
bigfont
  0
STYLE
  2
KANJI44
 70
     0
 40
69.333328
 41
0.9
 50
0.0
 71
     0
 42
69.333328
  3

  4
bigfont
  0
STYLE
  2
KANJI45
 70
     0
 40
23.999994954
 41
0.9
 50
0.0
 71
     0
 42
23.999994954
  3

  4
bigfont
  0
STYLE
  2
KANJI46
 70
     0
 40
24.2666648
 41
0.42031746
 50
0.0
 71
     0
 42
24.2666648
  3

  4
bigfont
  0
STYLE
  2
KANJI47
 70
     0
 40
41.5999968
 41
0.9
 50
0.0
 71
     0
 42
41.5999968
  3

  4
bigfont
  0
STYLE
  2
KANJI48
 70
     0
 40
28.8
 41
0.857222222
 50
0.0
 71
     0
 42
28.8
  3

  4
bigfont
  0
STYLE
  2
KANJI49
 70
     0
 40
36.0
 41
0.666666667
 50
0.0
 71
     0
 42
36.0
  3

  4
bigfont
  0
STYLE
  2
KANJI50
 70
     0
 40
40.0
 41
0.8
 50
0.0
 71
     0
 42
40.0
  3

  4
bigfont
  0
STYLE
  2
KANJI51
 70
     0
 40
28.0
 41
0.793650794
 50
0.0
 71
     0
 42
28.0
  3

  4
bigfont
  0
STYLE
  2
KANJI52
 70
     0
 40
32.0
 41
0.75
 50
0.0
 71
     0
 42
32.0
  3

  4
bigfont
  0
STYLE
  2
KANJI53
 70
     0
 40
40.0
 41
1.0
 50
0.0
 71
     0
 42
40.0
  3

  4
bigfont
  0
STYLE
  2
KANJI54
 70
     0
 40
40.0
 41
1.0
 50
0.0
 71
     0
 42
40.0
  3

  4
bigfont
  0
STYLE
  2
KANJI55
 70
     0
 40
24.0
 41
0.833333333
 50
0.0
 71
     0
 42
24.0
  3

  4
bigfont
  0
STYLE
  2
KANJI56
 70
     0
 40
28.0
 41
0.857142857
 50
0.0
 71
     0
 42
28.0
  3

  4
bigfont
  0
STYLE
  2
KANJI57
 70
     0
 40
28.0
 41
0.914285714
 50
0.0
 71
     0
 42
28.0
  3

  4
bigfont
  0
STYLE
  2
KANJI58
 70
     0
 40
24.0
 41
0.9
 50
0.0
 71
     0
 42
24.0
  3

  4
bigfont
  0
STYLE
  2
KANJI59
 70
     0
 40
23.9994
 41
0.9
 50
0.0
 71
     0
 42
23.9994
  3

  4
bigfont
  0
STYLE
  2
KANJI60
 70
     0
 40
27.9993
 41
0.9
 50
0.0
 71
     0
 42
27.9993
  3

  4
bigfont
  0
ENDTAB
  0
TABLE
  2
VIEW
 70
     0
  0
ENDTAB
  0
ENDSEC
  0
SECTION
  2
BLOCKS
  0
ENDSEC
  0
SECTION
  2
ENTITIES
  0
LINE
  8
0
  6
LTYPE0
 62
     2
 10
470.0
 20
1429.0
 11
416.0
 21
1429.0
  0
LINE
  8
0
  6
CONTINUOUS
 62
     1
 10
640.0
 20
720.0
 11
1880.0
 21
720.0
  0
LINE
  8
0
  6
CONTINUOUS
 62
     1
 10
640.0
 20
664.0
 11
1880.0
 21
664.0
  0
LINE
  8
0
  6
CONTINUOUS
 62
     1
 10
1880.0
 20
720.0
 11
1880.0
 21
328.0
  0
LINE
  8
0
  6
CONTINUOUS
 62
     1
 10
640.0
 20
328.0
 11
1880.0
 21
328.0
  0
LINE
  8
0
  6
CONTINUOUS
 62
     1
 10
640.0
 20
720.0
 11
640.0
 21
328.0
  0
LINE
  8
0
  6
CONTINUOUS
 62
     1
 10
920.0
 20
720.0
 11
920.0
 21
328.0
  0
LINE
  8
0
  6
CONTINUOUS
 62
     2
 10
1080.0
 20
720.0
 11
1080.0
 21
328.0
  0
LINE
  8
0
  6
CONTINUOUS
 62
     2
 10
1240.0
 20
720.0
 11
1240.0
 21
328.0
  0
LINE
  8
0
  6
CONTINUOUS
 62
     2
 10
1400.0
 20
720.0
 11
1400.0
 21
328.0
  0
LINE
  8
0
  6
CONTINUOUS
 62
     2
 10
1560.0
 20
720.0
 11
1560.0
 21
328.0
  0
LINE
  8
0
  6
CONTINUOUS
 62
     2
 10
1720.0
 20
720.0
 11
1720.0
 21
328.0
  0
LINE
  8
0
  6
CONTINUOUS
 62
     2
 10
640.0
 20
384.0
 11
1880.0
 21
384.0
  0
LINE
  8
0
  6
CONTINUOUS
 62
     2
 10
640.0
 20
608.0
 11
1880.0
 21
608.0
  0
LINE
  8
0
  6
CONTINUOUS
 62
     2
 10
640.0
 20
552.0
 11
1880.0
 21
552.0
  0
LINE
  8
0
  6
CONTINUOUS
 62
     2
 10
640.0
 20
496.0
 11
1880.0
 21
496.0
  0
LINE
  8
0
  6
CONTINUOUS
 62
     2
 10
640.0
 20
440.0
 11
1880.0
 21
440.0
  0
CIRCLE
  8
0
  6
CONTINUOUS
 62
     1
 10
665.0
 20
1300.0
 40
22.5
  0
CIRCLE
  8
0
  6
CONTINUOUS
 62
     1
 10
665.0
 20
1300.0
 40
45.0
  0
CIRCLE
  8
0
  6
CONTINUOUS
 62
     1
 10
665.0
 20
1300.0
 40
55.0
  0
LINE
  8
0
  6
CONTINUOUS
 62
     1
 10
630.0
 20
1400.0
 11
653.0
 21
1381.5
  0
LINE
  8
0
  6
CONTINUOUS
 62
     1
 10
630.0
 20
1346.5
 11
630.0
 21
1400.0
  0
LINE
  8
0
  6
CONTINUOUS
 62
     1
 10
653.0
 20
1356.5
 11
653.0
 21
1381.5
  0
LINE
  8
0
  6
CONTINUOUS
 62
     1
 10
595.0
 20
1200.0
 11
630.0
 21
1200.0
  0
LINE
  8
0
  6
CONTINUOUS
 62
     1
 10
630.0
 20
1200.0
 11
653.0
 21
1218.5
  0
LINE
  8
0
  6
CONTINUOUS
 62
     1
 10
630.0
 20
1253.5
 11
630.0
 21
1200.0
  0
LINE
  8
0
  6
CONTINUOUS
 62
     1
 10
653.0
 20
1243.5
 11
653.0
 21
1218.5
  0
LINE
  8
0
  6
CONTINUOUS
 62
     1
 10
855.0
 20
1200.0
 11
825.0
 21
1218.5
  0
LINE
  8
0
  6
CONTINUOUS
 62
     1
 10
653.0
 20
1218.5
 11
825.0
 21
1218.5
  0
LINE
  8
0
  6
CONTINUOUS
 62
     1
 10
855.0
 20
1200.0
 11
895.0
 21
1200.0
  0
LINE
  8
0
  6
CONTINUOUS
 62
     1
 10
825.0
 20
1300.0
 11
825.0
 21
1218.5
  0
LINE
  8
0
  6
LTYPE0
 62
     2
 10
665.0
 20
1230.398877817
 11
665.0
 21
1367.366558854
  0
LINE
  8
0
  6
CONTINUOUS
 62
     1
 10
932.0
 20
1300.0
 11
932.0
 21
1400.0
  0
LINE
  8
0
  6
CONTINUOUS
 62
     1
 10
909.0
 20
1300.0
 11
909.0
 21
1400.0
  0
LINE
  8
0
  6
CONTINUOUS
 62
     1
 10
935.0
 20
1387.5
 11
935.0
 21
1398.44954
  0
LINE
  8
0
  6
CONTINUOUS
 62
     1
 10
935.0
 20
1387.5
 11
935.0
 21
1376.55046
  0
LINE
  8
0
  6
CONTINUOUS
 62
     1
 10
932.0
 20
1398.25
 11
935.0
 21
1398.25
  0
LINE
  8
0
  6
CONTINUOUS
 62
     1
 10
932.0
 20
1387.5
 11
935.000254073
 21
1390.500254073
  0
LINE
  8
0
  6
CONTINUOUS
 62
     1
 10
935.000254073
 20
1387.5
 11
932.0
 21
1384.499745927
  0
LINE
  8
0
  6
CONTINUOUS
 62
     1
 10
932.0
 20
1376.75
 11
935.0
 21
1376.75
  0
LINE
  8
0
  6
CONTINUOUS
 62
     1
 10
935.0
 20
1398.25
 11
946.3
 21
1398.25
  0
LINE
  8
0
  6
CONTINUOUS
 62
     1
 10
946.3
 20
1387.5
 11
946.3
 21
1398.25
  0
LINE
  8
0
  6
CONTINUOUS
 62
     1
 10
946.3
 20
1398.25
 11
947.0
 21
1397.037564435
  0
LINE
  8
0
  6
CONTINUOUS
 62
     1
 10
947.0
 20
1387.5
 11
947.0
 21
1397.037564435
  0
LINE
  8
0
  6
CONTINUOUS
 62
     1
 10
935.0
 20
1376.75
 11
946.3
 21
1376.75
  0
LINE
  8
0
  6
CONTINUOUS
 62
     1
 10
946.3
 20
1387.5
 11
946.3
 21
1376.75
  0
LINE
  8
0
  6
CONTINUOUS
 62
     1
 10
946.3
 20
1376.75
 11
947.0
 21
1377.962435565
  0
LINE
  8
0
  6
CONTINUOUS
 62
     1
 10
947.0
 20
1387.5
 11
947.0
 21
1377.962435565
  0
LINE
  8
0
  6
LTYPE0
 62
     2
 10
895.0
 20
1387.5
 11
958.7
 21
1387.5
  0
LINE
  8
0
  6
CONTINUOUS
 62
     1
 10
1354.149691586
 20
1371.691148475
 11
1359.725406547
 21
1392.5
  0
LINE
  8
0
  6
CONTINUOUS
 62
     1
 10
1359.725406547
 20
1392.5
 11
1365.084390396
 21
1372.5
  0
LINE
  8
0
  6
CONTINUOUS
 62
     1
 10
1339.149691586
 20
1371.591148475
 11
1354.149691586
 21
1371.591148475
  0
LINE
  8
0
  6
CONTINUOUS
 62
     1
 10
1342.957868375
 20
1371.679113682
 11
1342.957868375
 21
1372.879113682
  0
POINT
  8
0
  6
CONTINUOUS
 62
     1
 10
1342.957868375
 20
1372.879113682
  0
LINE
  8
0
  6
CONTINUOUS
 62
     1
 10
1342.957868375
 20
1372.879113682
 11
1350.857868375
 21
1372.879113682
  0
POINT
  8
0
  6
CONTINUOUS
 62
     1
 10
1350.857868375
 20
1372.879113682
  0
LINE
  8
0
  6
CONTINUOUS
 62
     1
 10
1350.857868375
 20
1372.879113682
 11
1350.857868375
 21
1371.979113682
  0
LINE
  8
0
  6
CONTINUOUS
 62
     1
 10
1433.0
 20
1300.0
 11
1433.0
 21
1230.0
  0
LINE
  8
0
  6
CONTINUOUS
 62
     1
 10
932.0
 20
1300.0
 11
932.0
 21
1200.0
  0
LINE
  8
0
  6
CONTINUOUS
 62
     1
 10
909.0
 20
1300.0
 11
909.0
 21
1200.0
  0
LINE
  8
0
  6
CONTINUOUS
 62
     1
 10
895.0
 20
1200.0
 11
932.0
 21
1200.0
  0
LINE
  8
0
  6
CONTINUOUS
 62
     1
 10
895.0
 20
1300.0
 11
895.0
 21
1200.0
  0
LINE
  8
0
  6
CONTINUOUS
 62
     1
 10
935.0
 20
1212.5
 11
935.0
 21
1201.55046
  0
LINE
  8
0
  6
CONTINUOUS
 62
     1
 10
935.0
 20
1212.5
 11
935.0
 21
1223.44954
  0
LINE
  8
0
  6
CONTINUOUS
 62
     1
 10
932.0
 20
1201.75
 11
935.0
 21
1201.75
  0
LINE
  8
0
  6
CONTINUOUS
 62
     1
 10
932.0
 20
1212.5
 11
935.000254073
 21
1209.499745927
  0
LINE
  8
0
  6
CONTINUOUS
 62
     1
 10
935.000254073
 20
1212.5
 11
932.0
 21
1215.500254073
  0
LINE
  8
0
  6
CONTINUOUS
 62
     1
 10
932.0
 20
1223.25
 11
935.0
 21
1223.25
  0
LINE
  8
0
  6
CONTINUOUS
 62
     1
 10
935.0
 20
1201.75
 11
946.3
 21
1201.75
  0
LINE
  8
0
  6
CONTINUOUS
 62
     1
 10
946.3
 20
1212.5
 11
946.3
 21
1201.75
  0
LINE
  8
0
  6
CONTINUOUS
 62
     1
 10
946.3
 20
1201.75
 11
947.0
 21
1202.962435565
  0
LINE
  8
0
  6
CONTINUOUS
 62
     1
 10
947.0
 20
1212.5
 11
947.0
 21
1202.962435565
  0
LINE
  8
0
  6
CONTINUOUS
 62
     1
 10
935.0
 20
1223.25
 11
946.3
 21
1223.25
  0
LINE
  8
0
  6
CONTINUOUS
 62
     1
 10
946.3
 20
1212.5
 11
946.3
 21
1223.25
  0
LINE
  8
0
  6
CONTINUOUS
 62
     1
 10
946.3
 20
1223.25
 11
947.0
 21
1222.037564435
  0
LINE
  8
0
  6
CONTINUOUS
 62
     1
 10
947.0
 20
1212.5
 11
947.0
 21
1222.037564435
  0
LINE
  8
0
  6
LTYPE0
 62
     2
 10
895.0
 20
1212.5
 11
958.7
 21
1212.5
  0
LINE
  8
0
  6
CONTINUOUS
 62
     1
 10
1354.149691586
 20
1228.308851525
 11
1359.725406547
 21
1207.5
  0
LINE
  8
0
  6
CONTINUOUS
 62
     1
 10
1359.725406547
 20
1207.5
 11
1365.084390396
 21
1227.5
  0
LINE
  8
0
  6
CONTINUOUS
 62
     1
 10
1339.149691586
 20
1228.408851525
 11
1354.149691586
 21
1228.408851525
  0
LINE
  8
0
  6
CONTINUOUS
 62
     1
 10
1342.957868375
 20
1228.320886318
 11
1342.957868375
 21
1227.120886318
  0
POINT
  8
0
  6
CONTINUOUS
 62
     1
 10
1342.957868375
 20
1227.120886318
  0
LINE
  8
0
  6
CONTINUOUS
 62
     1
 10
1342.957868375
 20
1227.120886318
 11
1350.857868375
 21
1227.120886318
  0
POINT
  8
0
  6
CONTINUOUS
 62
     1
 10
1350.857868375
 20
1227.120886318
  0
LINE
  8
0
  6
CONTINUOUS
 62
     1
 10
1350.857868375
 20
1227.120886318
 11
1350.857868375
 21
1228.020886318
  0
CIRCLE
  8
0
  6
CONTINUOUS
 62
     1
 10
1133.3
 20
1300.0
 40
19.5
  0
LINE
  8
0
  6
CONTINUOUS
 62
     1
 10
1113.3
 20
1320.0
 11
1153.3
 21
1320.0
  0
LINE
  8
0
  6
CONTINUOUS
 62
     1
 10
1153.3
 20
1280.0
 11
1153.3
 21
1320.0
  0
LINE
  8
0
  6
CONTINUOUS
 62
     1
 10
1113.3
 20
1280.0
 11
1153.3
 21
1280.0
  0
LINE
  8
0
  6
CONTINUOUS
 62
     1
 10
1113.3
 20
1280.0
 11
1113.3
 21
1320.0
  0
LINE
  8
0
  6
LTYPE2
 62
     2
 10
1133.3
 20
1274.9
 11
1133.3
 21
1324.8
  0
LINE
  8
0
  6
CONTINUOUS
 62
     1
 10
1342.957868375
 20
1370.0
 11
1342.957868375
 21
1300.0
  0
LINE
  8
0
  6
CONTINUOUS
 62
     1
 10
1354.149691586
 20
1371.691148475
 11
1354.149691586
 21
1300.0
  0
LINE
  8
0
  6
CONTINUOUS
 62
     1
 10
1350.857868375
 20
1371.979113682
 11
1350.857868375
 21
1300.0
  0
LINE
  8
0
  6
CONTINUOUS
 62
     1
 10
1359.725406547
 20
1392.5
 11
1359.725406547
 21
1300.0
  0
LINE
  8
0
  6
CONTINUOUS
 62
     1
 10
1365.754263377
 20
1370.0
 11
1365.754263377
 21
1300.0
  0
LINE
  8
0
  6
CONTINUOUS
 62
     1
 10
1398.0
 20
1300.0
 11
1398.0
 21
1230.0
  0
LINE
  8
0
  6
LTYPE0
 62
     2
 10
473.0
 20
1195.0
 11
416.0
 21
1195.0
  0
LINE
  8
0
  6
CONTINUOUS
 62
     1
 10
440.0
 20
1195.0
 11
440.0
 21
1184.05046
  0
LINE
  8
0
  6
CONTINUOUS
 62
     1
 10
440.0
 20
1195.0
 11
440.0
 21
1205.94954
  0
LINE
  8
0
  6
CONTINUOUS
 62
     1
 10
431.9789
 20
1186.73198
 11
433.527076294
 21
1184.05046
  0
LINE
  8
0
  6
CONTINUOUS
 62
     1
 10
431.9789
 20
1195.0
 11
431.9789
 21
1186.73198
  0
LINE
  8
0
  6
CONTINUOUS
 62
     1
 10
431.9789
 20
1203.26802
 11
433.527076294
 21
1205.94954
  0
LINE
  8
0
  6
CONTINUOUS
 62
     1
 10
431.9789
 20
1195.0
 11
431.9789
 21
1203.26802
  0
ARC
  8
0
  6
CONTINUOUS
 62
     1
 10
442.433121693
 20
1195.0
 40
10.454221693
 50
148.419912243
 51
211.580087757
  0
ARC
  8
0
  6
CONTINUOUS
 62
     1
 10
435.172013606
 20
1186.787845
 40
3.193602261
 50
121.002313915
 51
182.989498403
  0
LINE
  8
0
  6
CONTINUOUS
 62
     1
 10
431.9789
 20
1203.26802
 11
433.527076294
 21
1205.94954
  0
ARC
  8
0
  6
CONTINUOUS
 62
     1
 10
435.172013606
 20
1203.212155
 40
3.193602261
 50
177.010501597
 51
238.997686085
  0
LINE
  8
0
  6
CONTINUOUS
 62
     1
 10
440.0
 20
1184.05046
 11
433.527076294
 21
1184.05046
  0
LINE
  8
0
  6
CONTINUOUS
 62
     1
 10
440.0
 20
1189.52523
 11
433.527076294
 21
1189.52523
  0
LINE
  8
0
  6
CONTINUOUS
 62
     1
 10
440.0
 20
1200.47477
 11
433.527076294
 21
1200.47477
  0
LINE
  8
0
  6
CONTINUOUS
 62
     1
 10
440.0
 20
1205.94954
 11
433.527076294
 21
1205.94954
  0
LINE
  8
6
  6
CONTINUOUS
 62
     2
 10
665.0
 20
1218.398877817
 11
665.0
 21
1026.0
  0
LINE
  8
6
  6
CONTINUOUS
 62
     2
 10
665.0
 20
1038.0
 11
684.318516526
 21
1032.823619098
  0
LINE
  8
6
  6
CONTINUOUS
 62
     2
 10
665.0
 20
1038.0
 11
684.318516526
 21
1043.176380902
  0
LINE
  8
6
  6
CONTINUOUS
 62
     2
 10
665.0
 20
1038.0
 11
1433.0
 21
1038.0
  0
LINE
  8
6
  6
CONTINUOUS
 62
     2
 10
1433.0
 20
1038.0
 11
1413.681483474
 21
1043.176380902
  0
LINE
  8
6
  6
CONTINUOUS
 62
     2
 10
1433.0
 20
1038.0
 11
1413.681483474
 21
1032.823619098
  0
LINE
  8
6
  6
CONTINUOUS
 62
     2
 10
1433.0
 20
1218.0
 11
1433.0
 21
1026.0
  0
TEXT
  8
6
  6
CONTINUOUS
 62
     2
 10
1038.2
 20
1046.0
 30
2.4
 40
24.0
  1
Ｃ
 50
0.0
 41
0.9
 51
0.0
  7
KANJI0
  0
LINE
  8
6
  6
CONTINUOUS
 62
     2
 10
1433.0
 20
1038.0
 11
1483.000190206
 21
1038.0
  0
TEXT
  8
6
  6
CONTINUOUS
 62
     2
 10
1399.200095103
 20
991.0
 30
2.4
 40
24.0
  1
ｍｉｎ．Ｐ
 50
0.0
 41
0.9
 51
0.0
  7
KANJI0
  0
LINE
  8
6
  6
CONTINUOUS
 62
     2
 10
1080.0
 20
1230.0
 11
1085.176380902
 21
1249.318516526
  0
LINE
  8
6
  6
CONTINUOUS
 62
     2
 10
1080.0
 20
1230.0
 11
1074.823619098
 21
1249.318516526
  0
LINE
  8
6
  6
CONTINUOUS
 62
     2
 10
1080.0
 20
1230.0
 11
1080.0
 21
1370.0
  0
LINE
  8
6
  6
CONTINUOUS
 62
     2
 10
1080.0
 20
1370.0
 11
1074.823619098
 21
1350.681483474
  0
LINE
  8
6
  6
CONTINUOUS
 62
     2
 10
1080.0
 20
1370.0
 11
1085.176380902
 21
1350.681483474
  0
TEXT
  8
6
  6
CONTINUOUS
 62
     2
 10
1072.0
 20
1253.2
 30
2.4
 40
24.0
  1
φ１４０
 50
90.0
 41
0.9
 51
0.0
  7
KANJI0
  0
LINE
  8
6
  6
CONTINUOUS
 62
     2
 10
1400.0
 20
1392.5
 11
1399.5
 21
1392.5
  0
LINE
  8
0
  6
LTYPE0
 62
     2
 10
1583.000190206
 20
1134.0
 11
1583.000190206
 21
1354.5
  0
LINE
  8
0
  6
LTYPE0
 62
     2
 10
1636.0
 20
1300.0
 11
416.0
 21
1300.0
  0
LINE
  8
0
  6
CONTINUOUS
 62
     1
 10
1483.0
 20
1347.5
 11
1623.000190206
 21
1347.5
  0
LINE
  8
0
  6
CONTINUOUS
 62
     1
 10
1623.000190206
 20
1347.5
 11
1633.000190206
 21
1337.5
  0
LINE
  8
0
  6
CONTINUOUS
 62
     1
 10
1483.0
 20
1252.5
 11
1623.000190206
 21
1252.5
  0
LINE
  8
0
  6
CONTINUOUS
 62
     1
 10
1633.000190206
 20
1262.5
 11
1633.000190206
 21
1337.5
  0
LINE
  8
0
  6
CONTINUOUS
 62
     1
 10
1623.000190206
 20
1252.5
 11
1633.000190206
 21
1262.5
  0
CIRCLE
  8
0
  6
CONTINUOUS
 62
     1
 10
1583.000190206
 20
1300.0
 40
22.5
  0
LINE
  8
6
  6
CONTINUOUS
 62
     2
 10
1483.000190206
 20
1038.0
 11
1502.318706732
 21
1032.823619098
  0
LINE
  8
6
  6
CONTINUOUS
 62
     2
 10
1483.000190206
 20
1038.0
 11
1502.318706732
 21
1043.176380902
  0
LINE
  8
6
  6
CONTINUOUS
 62
     2
 10
1483.000190206
 20
1038.0
 11
1583.000190206
 21
1038.0
  0
LINE
  8
6
  6
CONTINUOUS
 62
     2
 10
1583.000190206
 20
1038.0
 11
1563.68167368
 21
1043.176380902
  0
LINE
  8
6
  6
CONTINUOUS
 62
     2
 10
1583.000190206
 20
1038.0
 11
1563.68167368
 21
1032.823619098
  0
LINE
  8
6
  6
CONTINUOUS
 62
     2
 10
1583.000190206
 20
1122.0
 11
1583.000190206
 21
1026.0
  0
TEXT
  8
6
  6
CONTINUOUS
 62
     2
 10
1498.200190206
 20
1046.0
 30
2.4
 40
24.0
  1
１００
 50
0.0
 41
0.9
 51
0.0
  7
KANJI0
  0
LINE
  8
0
  6
CONTINUOUS
 62
     1
 10
1623.000190206
 20
1347.5
 11
1623.000190206
 21
1340.388736054
  0
LINE
  8
0
  6
CONTINUOUS
 62
     1
 10
1623.000190206
 20
1340.388736054
 11
1633.000190206
 21
1327.747752752
  0
LINE
  8
0
  6
CONTINUOUS
 62
     1
 10
1623.000190206
 20
1340.388736054
 11
1493.0
 21
1340.388736054
  0
LINE
  8
0
  6
CONTINUOUS
 62
     1
 10
1623.000190206
 20
1252.5
 11
1623.000190206
 21
1259.611263946
  0
LINE
  8
0
  6
CONTINUOUS
 62
     1
 10
1623.000190206
 20
1259.611263946
 11
1633.000190206
 21
1272.252247248
  0
LINE
  8
0
  6
CONTINUOUS
 62
     1
 10
1623.000190206
 20
1259.611263946
 11
1493.0
 21
1259.611263946
  0
LINE
  8
0
  6
CONTINUOUS
 62
     1
 10
1493.0
 20
1340.388736054
 11
1493.0
 21
1259.611263946
  0
LINE
  8
6
  6
CONTINUOUS
 62
     2
 10
665.0
 20
1026.0
 11
665.0
 21
966.5
  0
LINE
  8
6
  6
CONTINUOUS
 62
     2
 10
665.0
 20
978.5
 11
645.681483474
 21
983.676380902
  0
LINE
  8
6
  6
CONTINUOUS
 62
     2
 10
665.0
 20
978.5
 11
645.681483474
 21
973.323619098
  0
LINE
  8
6
  6
CONTINUOUS
 62
     2
 10
665.0
 20
978.5
 11
440.0
 21
978.5
  0
LINE
  8
6
  6
CONTINUOUS
 62
     2
 10
440.0
 20
978.5
 11
459.318516526
 21
973.323619098
  0
LINE
  8
6
  6
CONTINUOUS
 62
     2
 10
440.0
 20
978.5
 11
459.318516526
 21
983.676380902
  0
TEXT
  8
6
  6
CONTINUOUS
 62
     2
 10
517.7
 20
986.5
 30
2.4
 40
24.0
  1
２２５
 50
0.0
 41
0.9
 51
0.0
  7
KANJI0
  0
LINE
  8
6
  6
CONTINUOUS
 62
     2
 10
665.0
 20
978.5
 11
684.318516526
 21
973.323619098
  0
LINE
  8
6
  6
CONTINUOUS
 62
     2
 10
665.0
 20
978.5
 11
684.318516526
 21
983.676380902
  0
LINE
  8
6
  6
CONTINUOUS
 62
     2
 10
665.0
 20
978.5
 11
1583.000190206
 21
978.5
  0
LINE
  8
6
  6
CONTINUOUS
 62
     2
 10
1583.000190206
 20
978.5
 11
1563.68167368
 21
983.676380902
  0
LINE
  8
6
  6
CONTINUOUS
 62
     2
 10
1583.000190206
 20
978.5
 11
1563.68167368
 21
973.323619098
  0
LINE
  8
6
  6
CONTINUOUS
 62
     2
 10
1583.000190206
 20
1026.0
 11
1583.000190206
 21
966.5
  0
TEXT
  8
6
  6
CONTINUOUS
 62
     2
 10
1065.200095103
 20
986.5
 30
2.4
 40
24.0
  1
ｍｉｎ．Ｌ
 50
0.0
 41
0.9
 51
0.0
  7
KANJI0
  0
LINE
  8
6
  6
CONTINUOUS
 62
     2
 10
1583.000190206
 20
921.0
 11
1563.68167368
 21
926.176380902
  0
LINE
  8
6
  6
CONTINUOUS
 62
     2
 10
1583.000190206
 20
921.0
 11
1563.68167368
 21
915.823619098
  0
LINE
  8
6
  6
CONTINUOUS
 62
     2
 10
1583.000190206
 20
966.5
 11
1583.000190206
 21
909.0
  0
TEXT
  8
6
  6
CONTINUOUS
 62
     2
 10
940.700095103
 20
929.0
 30
2.4
 40
24.0
  1
ｍｉｎ．ＡＬ
 50
0.0
 41
0.9
 51
0.0
  7
KANJI0
  0
LINE
  8
6
  6
CONTINUOUS
 62
     2
 10
1583.000190206
 20
921.0
 11
1602.318706732
 21
915.823619098
  0
LINE
  8
6
  6
CONTINUOUS
 62
     2
 10
1583.000190206
 20
921.0
 11
1602.318706732
 21
926.176380902
  0
LINE
  8
6
  6
CONTINUOUS
 62
     2
 10
1583.000190206
 20
921.0
 11
1633.000190206
 21
921.0
  0
LINE
  8
6
  6
CONTINUOUS
 62
     2
 10
1633.000190206
 20
921.0
 11
1613.68167368
 21
926.176380902
  0
LINE
  8
6
  6
CONTINUOUS
 62
     2
 10
1633.000190206
 20
921.0
 11
1613.68167368
 21
915.823619098
  0
LINE
  8
6
  6
CONTINUOUS
 62
     2
 10
1633.000190206
 20
1250.5
 11
1633.000190206
 21
909.0
  0
TEXT
  8
6
  6
CONTINUOUS
 62
     2
 10
1585.200190206
 20
929.0
 30
2.4
 40
24.0
  1
５０
 50
0.0
 41
0.9
 51
0.0
  7
KANJI0
  0
LINE
  8
6
  6
CONTINUOUS
 62
     2
 10
595.0
 20
1851.5
 11
614.318516526
 21
1846.323619098
  0
LINE
  8
6
  6
CONTINUOUS
 62
     2
 10
595.0
 20
1851.5
 11
614.318516526
 21
1856.676380902
  0
LINE
  8
6
  6
CONTINUOUS
 62
     2
 10
1347.725406547
 20
1392.5
 11
1215.0
 21
1392.5
  0
LINE
  8
6
  6
CONTINUOUS
 62
     2
 10
1227.0
 20
1392.5
 11
1221.823619098
 21
1373.181483474
  0
LINE
  8
6
  6
CONTINUOUS
 62
     2
 10
1227.0
 20
1392.5
 11
1232.176380902
 21
1373.181483474
  0
LINE
  8
6
  6
CONTINUOUS
 62
     2
 10
1227.0
 20
1392.5
 11
1227.0
 21
1207.5
  0
LINE
  8
6
  6
CONTINUOUS
 62
     2
 10
1227.0
 20
1207.5
 11
1232.176380902
 21
1226.818516526
  0
LINE
  8
6
  6
CONTINUOUS
 62
     2
 10
1227.0
 20
1207.5
 11
1221.823619098
 21
1226.818516526
  0
LINE
  8
6
  6
CONTINUOUS
 62
     2
 10
1347.725406547
 20
1207.5
 11
1215.0
 21
1207.5
  0
TEXT
  8
6
  6
CONTINUOUS
 62
     2
 10
1219.0
 20
1253.2
 30
2.4
 40
24.0
  1
φ１８５
 50
90.0
 41
0.9
 51
0.0
  7
KANJI0
  0
CIRCLE
  8
0
  6
CONTINUOUS
 62
     1
 10
2179.5
 20
1300.0
 40
47.5
  0
LINE
  8
0
  6
LTYPE0
 62
     2
 10
2346.3
 20
1300.0
 11
2008.3
 21
1300.0
  0
LINE
  8
0
  6
LTYPE3
 62
     2
 10
2089.5
 20
1322.5
 11
2039.5
 21
1322.5
  0
LINE
  8
0
  6
LTYPE3
 62
     2
 10
2089.5
 20
1277.5
 11
2039.5
 21
1277.5
  0
LINE
  8
0
  6
LTYPE3
 62
     2
 10
2089.5
 20
1277.5
 11
2089.5
 21
1322.5
  0
LINE
  8
0
  6
CONTINUOUS
 62
     1
 10
2039.5
 20
1250.0
 11
2105.127626097
 21
1245.0
  0
LINE
  8
0
  6
CONTINUOUS
 62
     1
 10
2154.5
 20
1259.5
 11
2154.5
 21
1340.5
  0
LINE
  8
0
  6
CONTINUOUS
 62
     1
 10
2204.5
 20
1261.0
 11
2204.5
 21
1340.0
  0
ARC
  8
0
  6
CONTINUOUS
 62
     1
 10
2179.5
 20
1300.0
 40
37.5
 50
47.202598162
 51
132.273689006
  0
ARC
  8
0
  6
CONTINUOUS
 62
     1
 10
2179.5
 20
1300.0
 40
37.5
 50
227.202598162
 51
312.220833136
  0
LINE
  8
0
  6
LTYPE3
 62
     2
 10
2204.5
 20
1277.5
 11
2154.5
 21
1277.5
  0
LINE
  8
0
  6
LTYPE3
 62
     2
 10
2204.5
 20
1322.5
 11
2154.5
 21
1322.5
  0
LINE
  8
0
  6
CONTINUOUS
 62
     1
 10
2049.5
 20
1180.0
 11
2049.5
 21
1249.0
  0
ARC
  8
0
  6
CONTINUOUS
 62
     1
 10
2064.5
 20
1180.0
 40
15.0
 50
180.0
 51
270.0
  0
LINE
  8
0
  6
CONTINUOUS
 62
     1
 10
2117.00566924
 20
1393.810759633
 11
2067.104519278
 21
1322.54453178
  0
ARC
  8
0
  6
CONTINUOUS
 62
     1
 10
2117.334520095
 20
1402.125917906
 40
3.0
 50
325.0
 51
55.0
  0
LINE
  8
0
  6
CONTINUOUS
 62
     1
 10
2080.964679345
 20
1431.25467833
 11
2119.055249404
 21
1404.583374039
  0
ARC
  8
0
  6
CONTINUOUS
 62
     1
 10
2080.391102908
 20
1430.435526285
 40
1.0
 50
55.0
 51
145.0
  0
ARC
  8
0
  6
CONTINUOUS
 62
     1
 10
2077.851221555
 20
1428.551646589
 40
1.0
 50
55.0
 51
145.0
  0
ARC
  8
0
  6
CONTINUOUS
 62
     1
 10
2062.271182206
 20
1323.487321655
 40
3.0
 50
235.0
 51
325.0
  0
LINE
  8
0
  6
CONTINUOUS
 62
     1
 10
2022.459882837
 20
1347.701169812
 11
2060.550452896
 21
1321.029865522
  0
ARC
  8
0
  6
CONTINUOUS
 62
     1
 10
2023.033459273
 20
1348.520321856
 40
1.0
 50
145.0
 51
235.0
  0
ARC
  8
0
  6
CONTINUOUS
 62
     1
 10
2023.935036538
 20
1351.551354426
 40
1.0
 50
145.0
 51
235.0
  0
LINE
  8
0
  6
CONTINUOUS
 62
     1
 10
2026.555643058
 20
1344.83328763
 11
2085.060439566
 21
1428.386796148
  0
LINE
  8
0
  6
CONTINUOUS
 62
     1
 10
2027.784371125
 20
1343.972922976
 11
2086.289167633
 21
1427.526431493
  0
LINE
  8
0
  6
CONTINUOUS
 62
     1
 10
2119.791976228
 20
1400.405188597
 11
2064.728638338
 21
1321.766592346
  0
LINE
  8
0
  6
CONTINUOUS
 62
     1
 10
2023.115884494
 20
1352.124930862
 11
2077.032069511
 21
1429.125223025
  0
LINE
  8
0
  6
CONTINUOUS
 62
     1
 10
2022.214307229
 20
1349.093898293
 11
2079.571950864
 21
1431.009102722
  0
LINE
  8
0
  6
LTYPE2
 62
     2
 10
2021.232174803
 20
1355.885467765
 11
2036.550318031
 21
1345.159588405
  0
LINE
  8
0
  6
LTYPE2
 62
     2
 10
2072.854054074
 20
1429.609151751
 11
2088.172197302
 21
1418.883272391
  0
LINE
  8
0
  6
CONTINUOUS
 62
     1
 10
2039.5
 20
1250.0
 11
2039.5
 21
1337.225525817
  0
LINE
  8
0
  6
CONTINUOUS
 62
     1
 10
2139.110225663
 20
1383.216080952
 11
2119.299974985
 21
1397.08736781
  0
LINE
  8
0
  6
LTYPE0
 62
     2
 10
2186.158322994
 20
1295.337792048
 11
2043.158322994
 21
1395.467470012
  0
LINE
  8
0
  6
CONTINUOUS
 62
     1
 10
2088.488346391
 20
1308.792189428
 11
2067.678095714
 21
1323.363683824
  0
LINE
  8
0
  6
LTYPE3
 62
     2
 10
2269.5
 20
1277.5
 11
2319.5
 21
1277.5
  0
LINE
  8
0
  6
CONTINUOUS
 62
     1
 10
2319.5
 20
1250.0
 11
2253.872373903
 21
1245.0
  0
LINE
  8
0
  6
CONTINUOUS
 62
     1
 10
2309.5
 20
1180.0
 11
2309.5
 21
1249.0
  0
ARC
  8
0
  6
CONTINUOUS
 62
     1
 10
2294.5
 20
1180.0
 40
15.0
 50
270.0
 51
0.0
  0
LINE
  8
0
  6
LTYPE3
 62
     2
 10
2269.5
 20
1322.5
 11
2319.5
 21
1322.5
  0
LINE
  8
0
  6
LTYPE3
 62
     2
 10
2269.5
 20
1277.5
 11
2269.5
 21
1322.5
  0
LINE
  8
0
  6
CONTINUOUS
 62
     1
 10
2319.5
 20
1350.0
 11
2253.872373903
 21
1355.0
  0
LINE
  8
0
  6
CONTINUOUS
 62
     1
 10
2319.5
 20
1250.0
 11
2319.5
 21
1350.0
  0
LINE
  8
0
  6
LTYPE0
 62
     2
 10
2240.5
 20
1429.0
 11
2110.5
 21
1429.0
  0
LINE
  8
6
  6
CONTINUOUS
 62
     2
 10
2027.5
 20
1277.5
 11
1971.5
 21
1277.5
  0
LINE
  8
6
  6
CONTINUOUS
 62
     2
 10
1983.5
 20
1277.5
 11
1978.323619098
 21
1258.181483474
  0
LINE
  8
6
  6
CONTINUOUS
 62
     2
 10
1983.5
 20
1277.5
 11
1988.676380902
 21
1258.181483474
  0
LINE
  8
6
  6
CONTINUOUS
 62
     2
 10
1983.5
 20
1247.5
 11
1983.5
 21
1494.1
  0
LINE
  8
6
  6
CONTINUOUS
 62
     2
 10
1983.5
 20
1322.5
 11
1988.676380902
 21
1341.818516526
  0
LINE
  8
6
  6
CONTINUOUS
 62
     2
 10
1983.5
 20
1322.5
 11
1978.323619098
 21
1341.818516526
  0
LINE
  8
6
  6
CONTINUOUS
 62
     2
 10
2027.5
 20
1322.5
 11
1971.5
 21
1322.5
  0
LINE
  8
6
  6
CONTINUOUS
 62
     2
 10
1917.5
 20
1300.0
 11
1922.676380902
 21
1319.318516526
  0
LINE
  8
6
  6
CONTINUOUS
 62
     2
 10
1917.5
 20
1300.0
 11
1912.323619098
 21
1319.318516526
  0
LINE
  8
6
  6
CONTINUOUS
 62
     2
 10
1996.3
 20
1300.0
 11
1905.5
 21
1300.0
  0
LINE
  8
0
  6
CONTINUOUS
 62
     1
 10
1483.0
 20
1672.5
 11
1493.0
 21
1672.5
  0
LINE
  8
0
  6
CONTINUOUS
 62
     1
 10
1493.0
 20
1672.5
 11
1493.0
 21
1650.0
  0
LINE
  8
0
  6
CONTINUOUS
 62
     1
 10
1493.0
 20
1650.0
 11
1633.000190206
 21
1650.0
  0
LINE
  8
0
  6
CONTINUOUS
 62
     1
 10
1633.000190206
 20
1600.0
 11
1633.000190206
 21
1650.0
  0
LINE
  8
0
  6
CONTINUOUS
 62
     1
 10
1493.0
 20
1600.0
 11
1633.000190206
 21
1600.0
  0
LINE
  8
0
  6
CONTINUOUS
 62
     1
 10
1493.0
 20
1600.0
 11
1493.0
 21
1577.5
  0
LINE
  8
0
  6
LTYPE3
 62
     2
 10
1605.500190206
 20
1600.0
 11
1605.500190206
 21
1650.0
  0
LINE
  8
0
  6
LTYPE3
 62
     2
 10
1560.500190206
 20
1600.0
 11
1560.500190206
 21
1650.0
  0
LINE
  8
0
  6
CONTINUOUS
 62
     1
 10
1623.000190206
 20
1600.0
 11
1623.000190206
 21
1650.0
  0
LINE
  8
0
  6
LTYPE0
 62
     2
 10
1583.000190206
 20
1568.5
 11
1583.000190206
 21
1679.5
  0
LINE
  8
6
  6
CONTINUOUS
 62
     2
 10
1560.500190206
 20
1588.0
 11
1560.500190206
 21
1536.0
  0
LINE
  8
6
  6
CONTINUOUS
 62
     2
 10
1560.500190206
 20
1548.0
 11
1541.18167368
 21
1553.176380902
  0
LINE
  8
6
  6
CONTINUOUS
 62
     2
 10
1560.500190206
 20
1548.0
 11
1541.18167368
 21
1542.823619098
  0
LINE
  8
6
  6
CONTINUOUS
 62
     2
 10
1530.500190206
 20
1548.0
 11
1777.100190206
 21
1548.0
  0
LINE
  8
6
  6
CONTINUOUS
 62
     2
 10
1605.500190206
 20
1548.0
 11
1624.818706732
 21
1542.823619098
  0
LINE
  8
6
  6
CONTINUOUS
 62
     2
 10
1605.500190206
 20
1548.0
 11
1624.818706732
 21
1553.176380902
  0
LINE
  8
6
  6
CONTINUOUS
 62
     2
 10
1605.500190206
 20
1588.0
 11
1605.500190206
 21
1536.0
  0
TEXT
  8
6
  6
CONTINUOUS
 62
     2
 10
1635.500190206
 20
1556.0
 30
2.4
 40
24.0
  1
φ４５Ｈ１０
 50
0.0
 41
0.9
 51
0.0
  7
KANJI0
  0
LINE
  8
6
  6
CONTINUOUS
 62
     2
 10
1493.0
 20
1565.5
 11
1493.0
 21
1478.0
  0
LINE
  8
6
  6
CONTINUOUS
 62
     2
 10
1493.0
 20
1490.0
 11
1512.318516526
 21
1484.823619098
  0
LINE
  8
6
  6
CONTINUOUS
 62
     2
 10
1493.0
 20
1490.0
 11
1512.318516526
 21
1495.176380902
  0
LINE
  8
6
  6
CONTINUOUS
 62
     2
 10
1493.0
 20
1490.0
 11
1583.000190206
 21
1490.0
  0
LINE
  8
6
  6
CONTINUOUS
 62
     2
 10
1583.000190206
 20
1490.0
 11
1563.68167368
 21
1495.176380902
  0
LINE
  8
6
  6
CONTINUOUS
 62
     2
 10
1583.000190206
 20
1490.0
 11
1563.68167368
 21
1484.823619098
  0
LINE
  8
6
  6
CONTINUOUS
 62
     2
 10
1583.000190206
 20
1556.5
 11
1583.000190206
 21
1478.0
  0
TEXT
  8
6
  6
CONTINUOUS
 62
     2
 10
1515.200095103
 20
1498.0
 30
2.4
 40
24.0
  1
９０
 50
0.0
 41
0.9
 51
0.0
  7
KANJI0
  0
LINE
  8
6
  6
CONTINUOUS
 62
     2
 10
1645.000190206
 20
1600.0
 11
1706.000190206
 21
1600.0
  0
LINE
  8
6
  6
CONTINUOUS
 62
     2
 10
1694.000190206
 20
1600.0
 11
1699.176571108
 21
1619.318516526
  0
LINE
  8
6
  6
CONTINUOUS
 62
     2
 10
1694.000190206
 20
1600.0
 11
1688.823809304
 21
1619.318516526
  0
LINE
  8
6
  6
CONTINUOUS
 62
     2
 10
1694.000190206
 20
1600.0
 11
1694.000190206
 21
1650.0
  0
LINE
  8
6
  6
CONTINUOUS
 62
     2
 10
1694.000190206
 20
1650.0
 11
1688.823809304
 21
1630.681483474
  0
LINE
  8
6
  6
CONTINUOUS
 62
     2
 10
1694.000190206
 20
1650.0
 11
1699.176571108
 21
1630.681483474
  0
LINE
  8
6
  6
CONTINUOUS
 62
     2
 10
1645.000190206
 20
1650.0
 11
1706.000190206
 21
1650.0
  0
TEXT
  8
6
  6
CONTINUOUS
 62
     2
 10
1686.000190206
 20
1602.2
 30
2.4
 40
24.0
  1
５０
 50
90.0
 41
0.9
 51
0.0
  7
KANJI0
  0
LINE
  8
0
  6
LTYPE0
 62
     2
 10
1359.000190206
 20
1625.0
 11
1647.000190206
 21
1625.0
  0
TEXT
  8
0
  6
CONTINUOUS
 62
     2
 10
968.0
 20
621.4
 30
2.4
 40
24.0
  1
３００
 50
0.0
 41
0.9
 51
0.0
  7
KANJI1
  0
TEXT
  8
0
  6
CONTINUOUS
 62
     2
 10
968.0
 20
565.4
 30
2.4
 40
24.0
  1
５００
 50
0.0
 41
0.9
 51
0.0
  7
KANJI1
  0
TEXT
  8
0
  6
CONTINUOUS
 62
     2
 10
1445.6
 20
625.0
 30
2.4
 40
24.0
  1
７３０
 50
0.0
 41
0.9
 51
0.0
  7
KANJI1
  0
TEXT
  8
0
  6
CONTINUOUS
 62
     2
 10
1619.8
 20
625.0
 30
2.4
 40
24.0
  1
５０
 50
0.0
 41
0.9
 51
0.0
  7
KANJI1
  0
TEXT
  8
0
  6
CONTINUOUS
 62
     2
 10
1445.6
 20
569.0
 30
2.4
 40
24.0
  1
９３０
 50
0.0
 41
0.9
 51
0.0
  7
KANJI1
  0
TEXT
  8
0
  6
CONTINUOUS
 62
     2
 10
1262.0
 20
567.6
 30
2.4
 40
24.0
  1
１１４２
 50
0.0
 41
0.9
 51
0.0
  7
KANJI1
  0
LINE
  8
0
  6
CONTINUOUS
 62
     1
 10
1339.149691586
 20
1312.0
 11
1339.149691586
 21
1300.0
  0
LINE
  8
0
  6
CONTINUOUS
 62
     1
 10
1339.149691586
 20
1371.591148475
 11
1339.149691586
 21
1300.0
  0
LINE
  8
0
  6
CONTINUOUS
 62
     1
 10
1483.000190206
 20
1577.5
 11
1493.0
 21
1577.5
  0
LINE
  8
0
  6
CONTINUOUS
 62
     1
 10
1433.0
 20
1255.5
 11
1483.0
 21
1255.5
  0
LINE
  8
0
  6
LTYPE0
 62
     2
 10
2059.548183048
 20
1359.697752135
 11
2082.892744008
 21
1393.037240338
  0
POINT
  8
0
  6
CONTINUOUS
 62
     1
 10
721.0
 20
1300.0
  0
LINE
  8
0
  6
CONTINUOUS
 62
     1
 10
595.0
 20
1165.0
 11
595.0
 21
1407.5
  0
LINE
  8
0
  6
CONTINUOUS
 62
     2
 10
1917.5
 20
1300.0
 11
1912.323619098
 21
1280.681483474
  0
LINE
  8
0
  6
CONTINUOUS
 62
     2
 10
1917.5
 20
1300.0
 11
1922.676380902
 21
1280.681483474
  0
LINE
  8
0
  6
CONTINUOUS
 62
     2
 10
1917.5
 20
1300.0
 11
1917.5
 21
1165.0
  0
LINE
  8
0
  6
CONTINUOUS
 62
     2
 10
1917.5
 20
1165.0
 11
1922.676380902
 21
1184.318516526
  0
LINE
  8
0
  6
CONTINUOUS
 62
     2
 10
1917.5
 20
1165.0
 11
1912.323619098
 21
1184.318516526
  0
LINE
  8
0
  6
CONTINUOUS
 62
     2
 10
2052.5
 20
1165.0
 11
1905.5
 21
1165.0
  0
TEXT
  8
0
  6
CONTINUOUS
 62
     2
 10
1909.5
 20
1198.5
 30
1.6
 40
24.0
  1
１３５
 50
90.0
 41
0.9
 51
0.0
  7
KANJI2
  0
LINE
  8
0
  6
CONTINUOUS
 62
     2
 10
1905.5
 20
1165.0
 11
1831.0
 21
1165.0
  0
LINE
  8
0
  6
CONTINUOUS
 62
     2
 10
1843.0
 20
1165.0
 11
1848.176380902
 21
1184.318516526
  0
LINE
  8
0
  6
CONTINUOUS
 62
     2
 10
1843.0
 20
1165.0
 11
1837.823619098
 21
1184.318516526
  0
LINE
  8
6
  6
CONTINUOUS
 62
     2
 10
1483.000190206
 20
1250.8
 11
1483.000190206
 21
1026.0
  0
TEXT
  8
0
  6
CONTINUOUS
 62
     2
 10
1594.8
 20
569.0
 30
2.4
 40
24.0
  1
１１２
 50
0.0
 41
0.9
 51
0.0
  7
KANJI1
  0
LINE
  8
0
  6
CONTINUOUS
 62
     1
 10
595.0
 20
1165.0
 11
440.0
 21
1165.0
  0
LINE
  8
6
  6
CONTINUOUS
 62
     2
 10
440.0
 20
1153.0
 11
440.0
 21
906.1
  0
LINE
  8
6
  6
CONTINUOUS
 62
     2
 10
440.0
 20
921.0
 11
1583.000190206
 21
921.0
  0
LINE
  8
6
  6
CONTINUOUS
 62
     2
 10
440.0
 20
921.0
 11
462.216294005
 21
915.047161963
  0
LINE
  8
6
  6
CONTINUOUS
 62
     2
 10
440.0
 20
921.0
 11
462.216294005
 21
926.952838037
  0
LINE
  8
0
  6
CONTINUOUS
 62
     1
 10
778.0
 20
1429.944375069
 11
768.0
 21
1419.944375069
  0
LINE
  8
0
  6
CONTINUOUS
 62
     1
 10
768.0
 20
1361.305778818
 11
768.0
 21
1419.944375069
  0
LINE
  8
0
  6
CONTINUOUS
 62
     1
 10
778.0
 20
1351.305778818
 11
768.0
 21
1361.305778818
  0
ARC
  8
0
  6
CONTINUOUS
 62
     1
 10
766.0
 20
1430.466558854
 40
3.0
 50
90.0
 51
180.0
  0
ARC
  8
0
  6
CONTINUOUS
 62
     1
 10
766.0
 20
1349.63644216
 40
3.0
 50
180.0
 51
270.0
  0
ARC
  8
0
  6
CONTINUOUS
 62
     1
 10
766.0
 20
1346.194983542
 40
3.0
 50
180.0
 51
270.0
  0
ARC
  8
0
  6
CONTINUOUS
 62
     1
 10
766.0
 20
1345.334618887
 40
3.0
 50
180.0
 51
270.0
  0
LINE
  8
0
  6
CONTINUOUS
 62
     1
 10
886.0
 20
1361.305778818
 11
886.0
 21
1419.944375069
  0
LINE
  8
0
  6
CONTINUOUS
 62
     1
 10
891.0
 20
1318.657620342
 11
891.0
 21
1430.466558854
  0
ARC
  8
0
  6
CONTINUOUS
 62
     1
 10
888.0
 20
1430.466558854
 40
3.0
 50
0.0
 51
90.0
  0
LINE
  8
0
  6
CONTINUOUS
 62
     1
 10
886.0
 20
1419.944375069
 11
876.0
 21
1429.944375069
  0
LINE
  8
0
  6
CONTINUOUS
 62
     1
 10
778.0
 20
1429.944375069
 11
876.0
 21
1429.944375069
  0
LINE
  8
0
  6
CONTINUOUS
 62
     1
 10
886.0
 20
1361.305778818
 11
876.0
 21
1351.305778818
  0
LINE
  8
0
  6
CONTINUOUS
 62
     1
 10
778.0
 20
1351.305778818
 11
876.0
 21
1351.305778818
  0
LINE
  8
0
  6
CONTINUOUS
 62
     1
 10
766.0
 20
1433.466558854
 11
888.0
 21
1433.466558854
  0
ARC
  8
0
  6
CONTINUOUS
 62
     1
 10
888.0
 20
1349.63644216
 40
3.0
 50
270.0
 51
0.0
  0
ARC
  8
0
  6
CONTINUOUS
 62
     1
 10
888.0
 20
1346.194983542
 40
3.0
 50
270.0
 51
0.0
  0
ARC
  8
0
  6
CONTINUOUS
 62
     1
 10
888.0
 20
1345.334618887
 40
3.0
 50
270.0
 51
0.0
  0
LINE
  8
0
  6
CONTINUOUS
 62
     1
 10
765.507319827
 20
1346.63644216
 11
888.0
 21
1346.63644216
  0
LINE
  8
0
  6
CONTINUOUS
 62
     1
 10
765.607319827
 20
1343.194983542
 11
888.0
 21
1343.194983542
  0
LINE
  8
0
  6
CONTINUOUS
 62
     1
 10
765.607319827
 20
1342.334618887
 11
888.0
 21
1342.334618887
  0
LINE
  8
0
  6
CONTINUOUS
 62
     1
 10
896.0
 20
1345.266636349
 11
896.0
 21
1402.13271812
  0
LINE
  8
0
  6
CONTINUOUS
 62
     1
 10
891.0
 20
1345.266636349
 11
896.0
 21
1345.266636349
  0
LINE
  8
0
  6
CONTINUOUS
 62
     1
 10
891.0
 20
1402.13271812
 11
896.0
 21
1402.13271812
  0
LINE
  8
0
  6
CONTINUOUS
 62
     1
 10
891.0
 20
1369.366636349
 11
896.0
 21
1369.366636349
  0
LINE
  8
0
  6
CONTINUOUS
 62
     1
 10
853.0
 20
1318.657620342
 11
891.0
 21
1318.657620342
  0
LINE
  8
0
  6
CONTINUOUS
 62
     1
 10
896.0
 20
1389.848877817
 11
896.0
 21
1362.148877817
  0
LINE
  8
0
  6
LTYPE0
 62
     2
 10
869.737645868
 20
1375.998877817
 11
949.0
 21
1375.998877817
  0
LINE
  8
0
  6
CONTINUOUS
 62
     1
 10
763.0
 20
1300.0
 11
763.0
 21
1430.0
  0
LINE
  8
0
  6
CONTINUOUS
 62
     1
 10
653.0
 20
1381.5
 11
763.0
 21
1381.5
  0
LINE
  8
0
  6
CONTINUOUS
 62
     1
 10
763.0
 20
1317.957620342
 11
853.0
 21
1317.957620342
  0
LINE
  8
0
  6
CONTINUOUS
 62
     1
 10
855.0
 20
1318.657620342
 11
855.0
 21
1200.0
  0
LINE
  8
0
  6
CONTINUOUS
 62
     1
 10
895.0
 20
1345.266636349
 11
895.0
 21
1200.0
  0
LINE
  8
0
  6
CONTINUOUS
 62
     1
 10
896.0
 20
1400.0
 11
932.0
 21
1400.0
  0
LINE
  8
0
  6
CONTINUOUS
 62
     2
 10
1023.5
 20
1537.2
 11
1021.1
 21
1537.2
  0
LINE
  8
0
  6
CONTINUOUS
 62
     1
 10
2540.0
 20
1028.0
 11
3240.0
 21
1028.0
  0
LINE
  8
0
  6
CONTINUOUS
 62
     1
 10
2540.0
 20
2116.0
 11
3240.0
 21
2116.0
  0
LINE
  8
0
  6
CONTINUOUS
 62
     1
 10
2540.0
 20
2116.0
 11
2540.0
 21
1028.0
  0
TEXT
  8
0
  6
CONTINUOUS
 62
     2
 10
2640.0
 20
2057.6
 30
22.79952
 40
36.0
  1
マイティシリンダ仕様
 50
0.0
 41
0.9
 51
0.0
  7
KANJI3
  0
TEXT
  8
0
  6
CONTINUOUS
 62
     2
 10
2572.6
 20
1552.0
 30
17.6
 40
28.0
  1
モ　トル仕様
 50
0.0
 41
0.9
 51
0.0
  7
KANJI4
  0
TEXT
  8
0
  6
CONTINUOUS
 62
     2
 10
2570.8
 20
1248.0
 30
1.371428571
 40
24.0
  1
ブレ　キ
 50
0.0
 41
0.9
 51
0.0
  7
KANJI5
  0
LINE
  8
0
  6
CONTINUOUS
 62
     2
 10
2570.4
 20
1192.8
 11
2570.4
 21
1176.0
  0
LINE
  8
0
  6
CONTINUOUS
 62
     2
 10
2570.4
 20
1507.2
 11
2570.4
 21
1488.8
  0
TEXT
  8
0
  6
CONTINUOUS
 62
     2
 10
2999.2
 20
1658.4
 30
11.36
 40
28.0
  1
推力リミッタ
 50
0.0
 41
0.9
 51
0.0
  7
KANJI6
  0
TEXT
  8
0
  6
CONTINUOUS
 62
     2
 10
3211.2
 20
1546.4
 30
17.571428571
 40
24.0
  1
Ｐ
 50
0.0
 41
0.9
 51
0.0
  7
KANJI7
  0
TEXT
  8
0
  6
CONTINUOUS
 62
     2
 10
3078.4
 20
1546.4
 30
1.6
 40
24.0
  1
ＫＷ
 50
0.0
 41
0.857142857
 51
0.0
  7
KANJI8
  0
TEXT
  8
0
  6
CONTINUOUS
 62
     2
 10
3171.2
 20
1546.4
 30
20.5
 40
28.0
  1
４
 50
0.0
 41
0.9
 51
0.0
  7
KANJI9
  0
TEXT
  8
0
  6
CONTINUOUS
 62
     2
 10
2954.4
 20
1604.8
 30
0.8
 40
22.4
  1
マンセル
 50
0.0
 41
0.9
 51
0.0
  7
KANJI10
  0
TEXT
  8
0
  6
CONTINUOUS
 62
     2
 10
3048.0
 20
1606.4
 30
0.32
 40
22.4
  1
７．５ＧＹ５／４．５
 50
0.0
 41
0.785714286
 51
0.0
  7
KANJI11
  0
TEXT
  8
0
  6
CONTINUOUS
 62
     2
 10
2948.0
 20
1211.2
 30
2.4
 40
22.4
  1
スプリング制動式電磁ブレーキ
 50
0.0
 41
0.8
 51
0.0
  7
KANJI12
  0
TEXT
  8
0
  6
CONTINUOUS
 62
     2
 10
3212.0
 20
1490.4
 30
0.288
 40
24.0
  1
Ｖ
 50
0.0
 41
0.8
 51
0.0
  7
KANJI13
  0
TEXT
  8
0
  6
CONTINUOUS
 62
     2
 10
3197.6
 20
1434.4
 30
0.288
 40
24.0
  1
Ｈｚ
 50
0.0
 41
0.8
 51
0.0
  7
KANJI13
  0
TEXT
  8
0
  6
CONTINUOUS
 62
     2
 10
3039.8
 20
1434.2
 30
2.4
 40
24.0
  1
５０／６０
 50
0.0
 41
0.9
 51
0.0
  7
KANJI1
  0
TEXT
  8
0
  6
CONTINUOUS
 62
     2
 10
3213.8
 20
1380.2
 30
2.4
 40
24.0
  1
Ａ
 50
0.0
 41
0.9
 51
0.0
  7
KANJI1
  0
TEXT
  8
0
  6
CONTINUOUS
 62
     2
 10
3087.8
 20
1326.2
 30
2.4
 40
24.0
  1
Ｅ
 50
0.0
 41
0.9
 51
0.0
  7
KANJI1
  0
LINE
  8
0
  6
CONTINUOUS
 62
     2
 10
2540.0
 20
1140.0
 11
3240.0
 21
1140.0
  0
LINE
  8
0
  6
CONTINUOUS
 62
     2
 10
2540.0
 20
1084.0
 11
3240.0
 21
1084.0
  0
LINE
  8
0
  6
CONTINUOUS
 62
     2
 10
2604.0
 20
1196.0
 11
3240.0
 21
1196.0
  0
LINE
  8
0
  6
CONTINUOUS
 62
     2
 10
2604.0
 20
1588.0
 11
2604.0
 21
1140.0
  0
LINE
  8
0
  6
CONTINUOUS
 62
     2
 10
2540.0
 20
1252.0
 11
3240.0
 21
1252.0
  0
LINE
  8
0
  6
CONTINUOUS
 62
     2
 10
2604.0
 20
1308.0
 11
3240.0
 21
1308.0
  0
LINE
  8
0
  6
CONTINUOUS
 62
     2
 10
2604.0
 20
1364.0
 11
3240.0
 21
1364.0
  0
LINE
  8
0
  6
CONTINUOUS
 62
     2
 10
2604.0
 20
1420.0
 11
3240.0
 21
1420.0
  0
LINE
  8
0
  6
CONTINUOUS
 62
     2
 10
2540.0
 20
1700.0
 11
3240.0
 21
1700.0
  0
LINE
  8
0
  6
CONTINUOUS
 62
     2
 10
2540.0
 20
1644.0
 11
3240.0
 21
1644.0
  0
LINE
  8
0
  6
CONTINUOUS
 62
     2
 10
2540.0
 20
1588.0
 11
3240.0
 21
1588.0
  0
LINE
  8
0
  6
CONTINUOUS
 62
     2
 10
2940.0
 20
2036.0
 11
2940.0
 21
1028.0
  0
LINE
  8
0
  6
CONTINUOUS
 62
     2
 10
2604.0
 20
1476.0
 11
3240.0
 21
1476.0
  0
LINE
  8
0
  6
CONTINUOUS
 62
     2
 10
2604.0
 20
1532.0
 11
3240.0
 21
1532.0
  0
LINE
  8
0
  6
CONTINUOUS
 62
     2
 10
2540.0
 20
1980.0
 11
3240.0
 21
1980.0
  0
LINE
  8
0
  6
CONTINUOUS
 62
     2
 10
2540.0
 20
1924.0
 11
3240.0
 21
1924.0
  0
LINE
  8
0
  6
CONTINUOUS
 62
     2
 10
2540.0
 20
1868.0
 11
3240.0
 21
1868.0
  0
LINE
  8
0
  6
CONTINUOUS
 62
     2
 10
2540.0
 20
1812.0
 11
3240.0
 21
1812.0
  0
LINE
  8
0
  6
CONTINUOUS
 62
     2
 10
2540.0
 20
1756.0
 11
3240.0
 21
1756.0
  0
LINE
  8
0
  6
CONTINUOUS
 62
     2
 10
2540.0
 20
2036.0
 11
3240.0
 21
2036.0
  0
TEXT
  8
0
  6
CONTINUOUS
 62
     2
 10
940.8
 20
680.0
 30
2.4
 40
24.0
  1
ストローク
 50
0.0
 41
0.9
 51
0.0
  7
KANJI1
  0
TEXT
  8
0
  6
CONTINUOUS
 62
     2
 10
1094.4
 20
678.4
 30
0.0
 40
24.0
  1
ｍｉｎ　
 50
0.0
 41
0.9
 51
0.0
  7
KANJI14
  0
TEXT
  8
0
  6
CONTINUOUS
 62
     2
 10
1254.4
 20
678.4
 30
0.0
 40
24.0
  1
ｍｉｎ　
 50
0.0
 41
0.9
 51
0.0
  7
KANJI14
  0
TEXT
  8
0
  6
CONTINUOUS
 62
     2
 10
1574.4
 20
678.4
 30
0.0
 40
24.0
  1
ｍｉｎ　
 50
0.0
 41
0.9
 51
0.0
  7
KANJI14
  0
TEXT
  8
0
  6
CONTINUOUS
 62
     2
 10
1823.0
 20
681.8
 30
0.0
 40
19.2
  1
（ｋｇ）
 50
0.0
 41
0.777777778
 51
0.0
  7
KANJI15
  0
TEXT
  8
0
  6
CONTINUOUS
 62
     2
 10
1727.0
 20
679.0
 30
2.56
 40
25.6
  1
概算重量
 50
0.0
 41
0.9
 51
0.0
  7
KANJI16
  0
TEXT
  8
0
  6
CONTINUOUS
 62
     2
 10
696.0
 20
680.0
 30
2.56
 40
25.6
  1
形
 50
0.0
 41
0.9
 51
0.0
  7
KANJI16
  0
TEXT
  8
0
  6
CONTINUOUS
 62
     2
 10
852.0
 20
680.0
 30
2.56
 40
25.6
  1
式
 50
0.0
 41
0.9
 51
0.0
  7
KANJI16
  0
TEXT
  8
0
  6
CONTINUOUS
 62
     2
 10
2600.0
 20
1994.4
 30
240.594285714
 40
30.4
  1
形式
 50
0.0
 41
0.9
 51
0.0
  7
KANJI17
  0
TEXT
  8
0
  6
CONTINUOUS
 62
     2
 10
2600.0
 20
1938.4
 30
240.594285714
 40
30.4
  1
推力
 50
0.0
 41
0.9
 51
0.0
  7
KANJI17
  0
TEXT
  8
0
  6
CONTINUOUS
 62
     2
 10
2600.0
 20
1882.4
 30
39.628571429
 40
30.4
  1
ストローク
 50
0.0
 41
0.9
 51
0.0
  7
KANJI18
  0
TEXT
  8
0
  6
CONTINUOUS
 62
     2
 10
2600.0
 20
1826.4
 30
61.957805714
 40
30.4
  1
公称速度
 50
0.0
 41
0.9
 51
0.0
  7
KANJI19
  0
TEXT
  8
0
  6
CONTINUOUS
 62
     2
 10
2576.0
 20
1770.4
 30
2.605714286
 40
30.4
  1
ピストンロッド回転トルク
 50
0.0
 41
0.9
 51
0.0
  7
KANJI20
  0
TEXT
  8
0
  6
CONTINUOUS
 62
     2
 10
2600.0
 20
1714.4
 30
240.594285714
 40
30.4
  1
構造
 50
0.0
 41
0.9
 51
0.0
  7
KANJI17
  0
TEXT
  8
0
  6
CONTINUOUS
 62
     2
 10
2600.0
 20
1658.4
 30
17.298468571
 40
30.4
  1
過負荷安全装置
 50
0.0
 41
0.9
 51
0.0
  7
KANJI21
  0
TEXT
  8
0
  6
CONTINUOUS
 62
     2
 10
2600.0
 20
1602.4
 30
106.617142857
 40
30.4
  1
塗装色
 50
0.0
 41
0.9
 51
0.0
  7
KANJI22
  0
TEXT
  8
0
  6
CONTINUOUS
 62
     2
 10
2640.0
 20
1546.4
 30
26.6
 40
30.4
  1
出力　極数
 50
0.0
 41
0.9
 51
0.0
  7
KANJI23
  0
TEXT
  8
0
  6
CONTINUOUS
 62
     2
 10
2640.0
 20
1490.4
 30
44.586377143
 40
30.4
  1
電源電圧
 50
0.0
 41
0.9
 51
0.0
  7
KANJI24
  0
TEXT
  8
0
  6
CONTINUOUS
 62
     2
 10
2640.0
 20
1434.4
 30
80.56
 40
30.4
  1
周波数
 50
0.0
 41
0.9
 51
0.0
  7
KANJI25
  0
TEXT
  8
0
  6
CONTINUOUS
 62
     2
 10
2640.0
 20
1378.4
 30
188.48
 40
30.4
  1
電流
 50
0.0
 41
0.9
 51
0.0
  7
KANJI26
  0
TEXT
  8
0
  6
CONTINUOUS
 62
     2
 10
2640.0
 20
1322.4
 30
80.56
 40
30.4
  1
絶縁級
 50
0.0
 41
0.9
 51
0.0
  7
KANJI25
  0
TEXT
  8
0
  6
CONTINUOUS
 62
     2
 10
2640.0
 20
1210.4
 30
188.48
 40
30.4
  1
形式
 50
0.0
 41
0.9
 51
0.0
  7
KANJI26
  0
TEXT
  8
0
  6
CONTINUOUS
 62
     2
 10
2640.0
 20
1154.4
 30
44.586377143
 40
30.4
  1
操作方式
 50
0.0
 41
0.9
 51
0.0
  7
KANJI24
  0
TEXT
  8
0
  6
CONTINUOUS
 62
     2
 10
2600.0
 20
1098.4
 30
106.617142857
 40
30.4
  1
付属品
 50
0.0
 41
0.9
 51
0.0
  7
KANJI22
  0
TEXT
  8
0
  6
CONTINUOUS
 62
     2
 10
2600.0
 20
1042.4
 30
240.594285714
 40
30.4
  1
台数
 50
0.0
 41
0.9
 51
0.0
  7
KANJI17
  0
TEXT
  8
0
  6
CONTINUOUS
 62
     2
 10
3190.8
 20
1885.6
 30
0.1792
 40
22.4
  1
ｍｍ
 50
0.0
 41
0.8
 51
0.0
  7
KANJI27
  0
TEXT
  8
0
  6
CONTINUOUS
 62
     2
 10
3130.8
 20
1832.0
 30
0.1792
 40
22.4
  1
ｍｍ／ｓｅｃ
 50
0.0
 41
0.8
 51
0.0
  7
KANJI27
  0
TEXT
  8
0
  6
CONTINUOUS
 62
     2
 10
2432.0
 20
901.6
 30
16.0
 40
32.0
  1
特記事項
 50
0.0
 41
0.9
 51
0.0
  7
KANJI28
  0
TEXT
  8
0
  6
CONTINUOUS
 62
     2
 10
2320.0
 20
837.6
 30
8.228571429
 40
28.8
  1
１。運転時は必ずピストンロッドの回転防止を行って下さい。
 50
0.0
 41
0.857142857
 51
0.0
  7
KANJI29
  0
TEXT
  8
0
  6
CONTINUOUS
 62
     2
 10
1176.0
 20
680.0
 30
2.8
 40
28.0
  1
ＡＬ
 50
0.0
 41
0.9
 51
0.0
  7
KANJI30
  0
TEXT
  8
0
  6
CONTINUOUS
 62
     2
 10
1336.0
 20
680.0
 30
2.8
 40
28.0
  1
Ｌ
 50
0.0
 41
0.9
 51
0.0
  7
KANJI30
  0
TEXT
  8
0
  6
CONTINUOUS
 62
     2
 10
1472.0
 20
680.0
 30
2.8
 40
28.0
  1
Ｃ
 50
0.0
 41
0.9
 51
0.0
  7
KANJI30
  0
TEXT
  8
0
  6
CONTINUOUS
 62
     2
 10
1656.0
 20
680.0
 30
2.8
 40
28.0
  1
Ｐ
 50
0.0
 41
0.9
 51
0.0
  7
KANJI30
  0
TEXT
  8
0
  6
CONTINUOUS
 62
     2
 10
2999.2
 20
1715.2
 30
20.5
 40
28.0
  1
全閉屋外形
 50
0.0
 41
0.9
 51
0.0
  7
KANJI9
  0
TEXT
  8
0
  6
CONTINUOUS
 62
     2
 10
3004.0
 20
1154.4
 30
16.0
 40
28.0
  1
　別切り
 50
0.0
 41
0.9
 51
0.0
  7
KANJI31
  0
LINE
  8
0
  6
CONTINUOUS
 62
     1
 10
1467.000190206
 20
1577.5
 11
1467.000190206
 21
1617.5
  0
LINE
  8
0
  6
CONTINUOUS
 62
     1
 10
1437.335399739
 20
1717.5
 11
1431.97641589
 21
1697.5
  0
LINE
  8
0
  6
CONTINUOUS
 62
     1
 10
1437.335399739
 20
1532.5
 11
1431.97641589
 21
1552.5
  0
LINE
  8
0
  6
CONTINUOUS
 62
     1
 10
1431.97641589
 20
1697.5
 11
1431.97641589
 21
1625.0
  0
LINE
  8
0
  6
CONTINUOUS
 62
     1
 10
1437.335399739
 20
1717.5
 11
1437.335399739
 21
1625.0
  0
LINE
  8
0
  6
LTYPE4
 62
     2
 10
1365.084390396
 20
1697.5
 11
1431.97641589
 21
1697.5
  0
LINE
  8
0
  6
LTYPE4
 62
     2
 10
1365.084390396
 20
1552.5
 11
1431.97641589
 21
1552.5
  0
LINE
  8
0
  6
LTYPE4
 62
     2
 10
1359.725406547
 20
1717.5
 11
1437.335399739
 21
1717.5
  0
LINE
  8
0
  6
LTYPE4
 62
     2
 10
1359.725406547
 20
1532.5
 11
1437.335399739
 21
1532.5
  0
LINE
  8
0
  6
CONTINUOUS
 62
     1
 10
1455.057868375
 20
1673.379113682
 11
1455.057868375
 21
1675.279113682
  0
POINT
  8
0
  6
CONTINUOUS
 62
     1
 10
1455.057868375
 20
1675.279113682
  0
LINE
  8
0
  6
CONTINUOUS
 62
     1
 10
1455.057868375
 20
1675.279113682
 11
1463.257868375
 21
1675.279113682
  0
POINT
  8
0
  6
CONTINUOUS
 62
     1
 10
1463.257868375
 20
1675.279113682
  0
LINE
  8
0
  6
CONTINUOUS
 62
     1
 10
1463.257868375
 20
1675.279113682
 11
1463.257868375
 21
1673.579113682
  0
LINE
  8
0
  6
CONTINUOUS
 62
     1
 10
1455.357868375
 20
1673.517376915
 11
1451.9
 21
1673.517376915
  0
LINE
  8
0
  6
CONTINUOUS
 62
     1
 10
1467.0
 20
1673.517376915
 11
1463.057868375
 21
1673.517376915
  0
LINE
  8
0
  6
CONTINUOUS
 62
     1
 10
1466.9
 20
1579.482623085
 11
1451.9
 21
1579.482623085
  0
LINE
  8
0
  6
CONTINUOUS
 62
     1
 10
1455.057868375
 20
1579.620886318
 11
1455.057868375
 21
1577.720886318
  0
POINT
  8
0
  6
CONTINUOUS
 62
     1
 10
1455.057868375
 20
1577.720886318
  0
LINE
  8
0
  6
CONTINUOUS
 62
     1
 10
1455.057868375
 20
1577.720886318
 11
1463.257868375
 21
1577.720886318
  0
POINT
  8
0
  6
CONTINUOUS
 62
     1
 10
1463.257868375
 20
1577.720886318
  0
LINE
  8
0
  6
CONTINUOUS
 62
     1
 10
1463.257868375
 20
1577.720886318
 11
1463.257868375
 21
1579.420886318
  0
LINE
  8
0
  6
CONTINUOUS
 62
     1
 10
1451.8
 20
1673.517376915
 11
1437.335399739
 21
1717.5
  0
LINE
  8
0
  6
CONTINUOUS
 62
     1
 10
1451.8
 20
1579.482623085
 11
1437.335399739
 21
1532.5
  0
LINE
  8
0
  6
CONTINUOUS
 62
     1
 10
1451.8
 20
1673.517376915
 11
1451.8
 21
1625.0
  0
LINE
  8
0
  6
CONTINUOUS
 62
     1
 10
1463.257868375
 20
1675.279113682
 11
1463.257868375
 21
1625.0
  0
LINE
  8
0
  6
CONTINUOUS
 62
     1
 10
1455.057868375
 20
1673.517376915
 11
1455.057868375
 21
1625.0
  0
LINE
  8
0
  6
CONTINUOUS
 62
     1
 10
1437.335399739
 20
1392.5
 11
1431.97641589
 21
1372.5
  0
LINE
  8
0
  6
CONTINUOUS
 62
     1
 10
1431.97641589
 20
1372.5
 11
1431.97641589
 21
1300.0
  0
LINE
  8
0
  6
CONTINUOUS
 62
     1
 10
1437.335399739
 20
1392.5
 11
1437.335399739
 21
1300.0
  0
LINE
  8
0
  6
CONTINUOUS
 62
     1
 10
1455.057868375
 20
1348.379113682
 11
1455.057868375
 21
1350.279113682
  0
POINT
  8
0
  6
CONTINUOUS
 62
     1
 10
1455.057868375
 20
1350.279113682
  0
LINE
  8
0
  6
CONTINUOUS
 62
     1
 10
1455.057868375
 20
1350.279113682
 11
1463.257868375
 21
1350.279113682
  0
POINT
  8
0
  6
CONTINUOUS
 62
     1
 10
1463.257868375
 20
1350.279113682
  0
LINE
  8
0
  6
CONTINUOUS
 62
     1
 10
1463.257868375
 20
1350.279113682
 11
1463.257868375
 21
1348.579113682
  0
LINE
  8
0
  6
CONTINUOUS
 62
     1
 10
1455.357868375
 20
1348.517376915
 11
1451.9
 21
1348.517376915
  0
LINE
  8
0
  6
CONTINUOUS
 62
     1
 10
1451.8
 20
1348.517376915
 11
1437.335399739
 21
1392.5
  0
LINE
  8
0
  6
CONTINUOUS
 62
     1
 10
1451.8
 20
1348.517376915
 11
1451.8
 21
1300.0
  0
LINE
  8
0
  6
CONTINUOUS
 62
     1
 10
1463.257868375
 20
1350.279113682
 11
1463.257868375
 21
1300.0
  0
LINE
  8
0
  6
CONTINUOUS
 62
     1
 10
1455.057868375
 20
1348.517376915
 11
1455.057868375
 21
1300.0
  0
LINE
  8
0
  6
CONTINUOUS
 62
     1
 10
1467.0
 20
1348.517376915
 11
1463.057868375
 21
1348.517376915
  0
LINE
  8
0
  6
CONTINUOUS
 62
     1
 10
1437.335399739
 20
1207.5
 11
1431.97641589
 21
1227.5
  0
LINE
  8
0
  6
CONTINUOUS
 62
     1
 10
1466.9
 20
1254.482623085
 11
1451.9
 21
1254.482623085
  0
LINE
  8
0
  6
CONTINUOUS
 62
     1
 10
1455.057868375
 20
1254.620886318
 11
1455.057868375
 21
1252.720886318
  0
POINT
  8
0
  6
CONTINUOUS
 62
     1
 10
1455.057868375
 20
1252.720886318
  0
LINE
  8
0
  6
CONTINUOUS
 62
     1
 10
1455.057868375
 20
1252.720886318
 11
1463.257868375
 21
1252.720886318
  0
POINT
  8
0
  6
CONTINUOUS
 62
     1
 10
1463.257868375
 20
1252.720886318
  0
LINE
  8
0
  6
CONTINUOUS
 62
     1
 10
1463.257868375
 20
1252.720886318
 11
1463.257868375
 21
1254.420886318
  0
LINE
  8
0
  6
CONTINUOUS
 62
     1
 10
1451.8
 20
1254.482623085
 11
1437.335399739
 21
1207.5
  0
LINE
  8
0
  6
LTYPE4
 62
     2
 10
1359.725406547
 20
1392.5
 11
1437.335399739
 21
1392.5
  0
LINE
  8
0
  6
LTYPE4
 62
     2
 10
1359.725406547
 20
1207.5
 11
1437.335399739
 21
1207.5
  0
LINE
  8
0
  6
LTYPE4
 62
     2
 10
1365.084390396
 20
1372.5
 11
1431.97641589
 21
1372.5
  0
LINE
  8
0
  6
LTYPE4
 62
     2
 10
1365.084390396
 20
1227.5
 11
1431.97641589
 21
1227.5
  0
LINE
  8
0
  6
CONTINUOUS
 62
     2
 10
1138.0
 20
1317.4
 11
1209.0
 21
1448.9
  0
LINE
  8
0
  6
CONTINUOUS
 62
     2
 10
1209.0
 20
1448.9
 11
1284.0
 21
1448.9
  0
LINE
  8
0
  6
CONTINUOUS
 62
     2
 10
1138.0
 20
1317.4
 11
1151.733041598
 21
1331.93972381
  0
LINE
  8
0
  6
CONTINUOUS
 62
     2
 10
1138.0
 20
1317.4
 11
1142.62330099
 21
1336.858290982
  0
TEXT
  8
0
  6
CONTINUOUS
 62
     2
 10
1210.5
 20
1460.1
 30
0.0
 40
24.0
  1
給脂口
 50
0.0
 41
0.9
 51
0.0
  7
KANJI14
  0
LINE
  8
0
  6
LTYPE2
 62
     2
 10
1301.149691586
 20
1140.5
 11
1301.149691586
 21
1205.8
  0
LINE
  8
0
  6
CONTINUOUS
 62
     1
 10
1466.999190206
 20
1141.5
 11
1466.999190206
 21
1300.0
  0
LINE
  8
0
  6
CONTINUOUS
 62
     1
 10
1482.999190206
 20
1291.5
 11
1482.999190206
 21
1300.0
  0
LINE
  8
0
  6
CONTINUOUS
 62
     1
 10
1466.999190206
 20
1300.0
 11
1482.999190206
 21
1300.0
  0
LINE
  8
0
  6
CONTINUOUS
 62
     1
 10
1482.999190206
 20
1141.5
 11
1482.999190206
 21
1300.0
  0
LINE
  8
0
  6
CONTINUOUS
 62
     1
 10
2164.5
 20
1141.5
 11
2194.5
 21
1141.5
  0
LINE
  8
0
  6
LTYPE5
 62
     2
 10
2148.6
 20
1154.5
 11
2210.6
 21
1154.5
  0
CIRCLE
  8
0
  6
CONTINUOUS
 62
     1
 10
2179.5
 20
1154.5
 40
6.49995
  0
LINE
  8
0
  6
CONTINUOUS
 62
     1
 10
2185.99995
 20
1158.24703
 11
2185.99995
 21
1150.75297
  0
LINE
  8
0
  6
CONTINUOUS
 62
     1
 10
2185.99995
 20
1150.75297
 11
2179.5
 21
1147.00594
  0
LINE
  8
0
  6
CONTINUOUS
 62
     1
 10
2173.00005
 20
1158.24703
 11
2173.00005
 21
1150.75297
  0
LINE
  8
0
  6
CONTINUOUS
 62
     1
 10
2173.00005
 20
1150.75297
 11
2179.5
 21
1147.00594
  0
LINE
  8
0
  6
CONTINUOUS
 62
     1
 10
2185.99995
 20
1158.24703
 11
2179.5
 21
1161.99406
  0
LINE
  8
0
  6
CONTINUOUS
 62
     1
 10
2173.00005
 20
1158.24703
 11
2179.5
 21
1161.99406
  0
LINE
  8
0
  6
CONTINUOUS
 62
     1
 10
2262.0
 20
1195.5
 11
2262.0
 21
1201.5
  0
LINE
  8
0
  6
CONTINUOUS
 62
     1
 10
2097.0
 20
1195.5
 11
2097.0
 21
1201.5
  0
LINE
  8
0
  6
CONTINUOUS
 62
     1
 10
2141.5
 20
1195.5
 11
2101.5
 21
1195.5
  0
LINE
  8
0
  6
CONTINUOUS
 62
     1
 10
2101.5
 20
1195.5
 11
2101.5
 21
1195.6
  0
LINE
  8
0
  6
CONTINUOUS
 62
     1
 10
2101.5
 20
1155.5
 11
2101.5
 21
1156.5
  0
LINE
  8
0
  6
CONTINUOUS
 62
     1
 10
2101.5
 20
1155.5
 11
2101.5
 21
1195.5
  0
LINE
  8
0
  6
CONTINUOUS
 62
     1
 10
2141.5
 20
1195.5
 11
2141.5
 21
1155.5
  0
LINE
  8
0
  6
CONTINUOUS
 62
     1
 10
2150.75
 20
1151.0
 11
2150.75
 21
1158.0
  0
LINE
  8
0
  6
LTYPE2
 62
     2
 10
2121.5
 20
1138.9
 11
2121.5
 21
1196.9
  0
LINE
  8
0
  6
LTYPE2
 62
     2
 10
2136.6
 20
1198.9
 11
2136.6
 21
1151.9
  0
LINE
  8
0
  6
LTYPE2
 62
     2
 10
2106.4
 20
1152.9
 11
2106.4
 21
1199.9
  0
LINE
  8
0
  6
CONTINUOUS
 62
     1
 10
2164.5
 20
1142.5
 11
2164.5
 21
1150.5
  0
LINE
  8
0
  6
CONTINUOUS
 62
     1
 10
2164.5
 20
1150.5
 11
2150.75
 21
1150.5
  0
LINE
  8
0
  6
CONTINUOUS
 62
     1
 10
2141.5
 20
1152.5
 11
2129.0
 21
1152.5
  0
LINE
  8
0
  6
CONTINUOUS
 62
     1
 10
2150.75
 20
1150.4
 11
2141.5
 21
1152.5
  0
LINE
  8
0
  6
LTYPE2
 62
     2
 10
2159.5
 20
1141.3
 11
2159.5
 21
1160.5
  0
LINE
  8
0
  6
CONTINUOUS
 62
     1
 10
2129.0
 20
1152.5
 11
2114.0
 21
1152.5
  0
ARC
  8
0
  6
CONTINUOUS
 62
     1
 10
2110.8
 20
1171.7
 40
2.0
 50
180.0
 51
270.0
  0
LINE
  8
0
  6
CONTINUOUS
 62
     1
 10
2132.2
 20
1169.7
 11
2110.8
 21
1169.7
  0
ARC
  8
0
  6
CONTINUOUS
 62
     1
 10
2132.2
 20
1171.7
 40
2.0
 50
270.0
 51
360.0
  0
LINE
  8
0
  6
CONTINUOUS
 62
     1
 10
2134.2
 20
1171.7
 11
2134.2
 21
1193.1
  0
ARC
  8
0
  6
CONTINUOUS
 62
     1
 10
2132.2
 20
1193.1
 40
2.0
 50
0.0
 51
90.0
  0
LINE
  8
0
  6
CONTINUOUS
 62
     1
 10
2108.8
 20
1171.7
 11
2108.8
 21
1193.1
  0
LINE
  8
0
  6
CONTINUOUS
 62
     1
 10
2132.2
 20
1195.1
 11
2110.8
 21
1195.1
  0
ARC
  8
0
  6
CONTINUOUS
 62
     1
 10
2110.8
 20
1193.1
 40
2.0
 50
90.0
 51
180.0
  0
LINE
  8
0
  6
LTYPE2
 62
     2
 10
2107.4
 20
1182.4
 11
2135.8
 21
1182.4
  0
LINE
  8
0
  6
CONTINUOUS
 62
     1
 10
2129.0
 20
1142.5
 11
2129.0
 21
1169.7
  0
LINE
  8
0
  6
CONTINUOUS
 62
     1
 10
2114.0
 20
1160.5
 11
2101.5
 21
1160.5
  0
LINE
  8
0
  6
CONTINUOUS
 62
     1
 10
2141.5
 20
1160.5
 11
2128.9
 21
1160.5
  0
LINE
  8
0
  6
CONTINUOUS
 62
     1
 10
2113.9
 20
1155.5
 11
2101.5
 21
1155.5
  0
LINE
  8
0
  6
CONTINUOUS
 62
     1
 10
2141.5
 20
1155.5
 11
2129.0
 21
1155.5
  0
LINE
  8
0
  6
CONTINUOUS
 62
     1
 10
2257.5
 20
1195.5
 11
2217.5
 21
1195.5
  0
LINE
  8
0
  6
CONTINUOUS
 62
     1
 10
2217.5
 20
1195.5
 11
2217.5
 21
1195.6
  0
LINE
  8
0
  6
CONTINUOUS
 62
     1
 10
2217.5
 20
1155.5
 11
2217.5
 21
1156.5
  0
LINE
  8
0
  6
CONTINUOUS
 62
     1
 10
2217.5
 20
1155.5
 11
2217.5
 21
1195.5
  0
LINE
  8
0
  6
CONTINUOUS
 62
     1
 10
2257.5
 20
1195.5
 11
2257.5
 21
1155.5
  0
LINE
  8
0
  6
CONTINUOUS
 62
     1
 10
2257.5
 20
1155.5
 11
2217.5
 21
1155.5
  0
LINE
  8
0
  6
CONTINUOUS
 62
     1
 10
2257.5
 20
1160.5
 11
2217.5
 21
1160.5
  0
LINE
  8
0
  6
CONTINUOUS
 62
     1
 10
2245.0
 20
1142.5
 11
2245.0
 21
1155.5
  0
LINE
  8
0
  6
CONTINUOUS
 62
     1
 10
2230.0
 20
1142.5
 11
2230.0
 21
1155.5
  0
CIRCLE
  8
0
  6
CONTINUOUS
 62
     1
 10
2237.5
 20
1173.9
 40
9.36
  0
LINE
  8
0
  6
CONTINUOUS
 62
     1
 10
2208.25
 20
1151.0
 11
2208.25
 21
1158.0
  0
LINE
  8
0
  6
LTYPE2
 62
     2
 10
2237.5
 20
1138.9
 11
2237.5
 21
1196.9
  0
LINE
  8
0
  6
LTYPE2
 62
     2
 10
2250.5
 20
1173.9
 11
2224.5
 21
1173.9
  0
LINE
  8
0
  6
LTYPE2
 62
     2
 10
2252.6
 20
1198.9
 11
2252.6
 21
1151.9
  0
LINE
  8
0
  6
LTYPE2
 62
     2
 10
2222.4
 20
1152.9
 11
2222.4
 21
1199.9
  0
LINE
  8
0
  6
LTYPE2
 62
     2
 10
2199.5
 20
1138.9
 11
2199.5
 21
1160.5
  0
CIRCLE
  8
0
  6
CONTINUOUS
 62
     2
 10
2237.5
 20
1173.9
 40
10.47
  0
LINE
  8
0
  6
CONTINUOUS
 62
     1
 10
2194.5
 20
1142.5
 11
2194.5
 21
1151.0
  0
LINE
  8
0
  6
CONTINUOUS
 62
     1
 10
2194.5
 20
1150.5
 11
2208.25
 21
1150.5
  0
LINE
  8
0
  6
CONTINUOUS
 62
     1
 10
2217.5
 20
1152.5
 11
2230.0
 21
1152.5
  0
LINE
  8
0
  6
CONTINUOUS
 62
     1
 10
2208.25
 20
1150.4
 11
2217.5
 21
1152.5
  0
LINE
  8
0
  6
CONTINUOUS
 62
     1
 10
2194.5
 20
1142.5
 11
2245.0
 21
1142.5
  0
LINE
  8
0
  6
CONTINUOUS
 62
     1
 10
2114.0
 20
1142.5
 11
2114.0
 21
1169.7
  0
LINE
  8
0
  6
CONTINUOUS
 62
     1
 10
2164.5
 20
1142.5
 11
2114.0
 21
1142.5
  0
LINE
  8
0
  6
CONTINUOUS
 62
     1
 10
2163.5
 20
1141.5
 11
2195.5
 21
1141.5
  0
LINE
  8
0
  6
LTYPE5
 62
     2
 10
2091.5
 20
1154.5
 11
2268.5
 21
1154.5
  0
LINE
  8
0
  6
CONTINUOUS
 62
     1
 10
2159.34375
 20
1158.0
 11
2150.75
 21
1158.0
  0
LINE
  8
0
  6
CONTINUOUS
 62
     1
 10
2161.53125
 20
1151.0
 11
2150.75
 21
1151.0
  0
LINE
  8
0
  6
CONTINUOUS
 62
     1
 10
2208.25
 20
1151.0
 11
2197.46875
 21
1151.0
  0
LINE
  8
0
  6
CONTINUOUS
 62
     1
 10
2208.25
 20
1158.0
 11
2199.5
 21
1158.0
  0
LINE
  8
0
  6
LTYPE3
 62
     2
 10
2190.75
 20
1151.0
 11
2190.75
 21
1158.0
  0
LINE
  8
0
  6
LTYPE3
 62
     2
 10
2199.5
 20
1158.0
 11
2190.75
 21
1158.0
  0
LINE
  8
0
  6
LTYPE3
 62
     2
 10
2197.43125
 20
1151.0
 11
2190.75
 21
1151.0
  0
LINE
  8
0
  6
LTYPE3
 62
     2
 10
2168.25
 20
1151.0
 11
2168.25
 21
1158.0
  0
LINE
  8
0
  6
LTYPE3
 62
     2
 10
2168.25
 20
1158.0
 11
2159.34375
 21
1158.0
  0
LINE
  8
0
  6
LTYPE3
 62
     2
 10
2168.25
 20
1151.0
 11
2161.53125
 21
1151.0
  0
CIRCLE
  8
0
  6
CONTINUOUS
 62
     1
 10
2179.5
 20
1154.5
 40
4.0
  0
CIRCLE
  8
0
  6
CONTINUOUS
 62
     2
 10
2179.5
 20
1154.5
 40
3.2
  0
LINE
  8
0
  6
CONTINUOUS
 62
     1
 10
2101.5
 20
1165.0
 11
2064.5
 21
1165.0
  0
LINE
  8
0
  6
CONTINUOUS
 62
     1
 10
2257.5
 20
1165.0
 11
2294.5
 21
1165.0
  0
LINE
  8
0
  6
CONTINUOUS
 62
     1
 10
2244.5
 20
1360.0
 11
2114.5
 21
1360.0
  0
LINE
  8
0
  6
CONTINUOUS
 62
     1
 10
2114.5
 20
1265.0
 11
2114.5
 21
1360.0
  0
LINE
  8
0
  6
CONTINUOUS
 62
     1
 10
2244.5
 20
1265.0
 11
2244.5
 21
1360.0
  0
LINE
  8
0
  6
CONTINUOUS
 62
     1
 10
2163.5
 20
1141.5
 11
2114.5
 21
1265.0
  0
LINE
  8
0
  6
CONTINUOUS
 62
     1
 10
2195.5
 20
1141.5
 11
2244.5
 21
1265.0
  0
ARC
  8
0
  6
CONTINUOUS
 62
     1
 10
2179.5
 20
1300.0
 40
92.5
 50
300.640663456
 51
239.359336544
  0
ARC
  8
0
  6
CONTINUOUS
 62
     1
 10
2179.5
 20
1300.0
 40
100.0
 50
295.414174699
 51
118.25631605
  0
ARC
  8
0
  6
CONTINUOUS
 62
     1
 10
2179.5
 20
1300.0
 40
100.0
 50
168.690067526
 51
244.071542399
  0
LINE
  8
0
  6
CONTINUOUS
 62
     1
 10
2097.0
 20
1201.5
 11
2139.694331984
 21
1201.5
  0
LINE
  8
0
  6
CONTINUOUS
 62
     1
 10
2097.0
 20
1195.5
 11
2142.074898785
 21
1195.5
  0
LINE
  8
0
  6
CONTINUOUS
 62
     1
 10
2219.305668016
 20
1201.5
 11
2262.0
 21
1201.5
  0
LINE
  8
0
  6
CONTINUOUS
 62
     1
 10
2216.925101215
 20
1195.5
 11
2262.0
 21
1195.5
  0
LINE
  8
6
  6
CONTINUOUS
 62
     2
 10
1648.0
 20
1300.0
 11
1687.5
 21
1300.0
  0
LINE
  8
6
  6
CONTINUOUS
 62
     2
 10
1675.5
 20
1300.0
 11
1670.323619098
 21
1280.681483474
  0
LINE
  8
6
  6
CONTINUOUS
 62
     2
 10
1675.5
 20
1300.0
 11
1680.676380902
 21
1280.681483474
  0
LINE
  8
0
  6
CONTINUOUS
 62
     1
 10
1483.0
 20
1360.0
 11
1483.0
 21
1252.5
  0
LINE
  8
0
  6
CONTINUOUS
 62
     1
 10
1483.0
 20
1360.0
 11
1467.0
 21
1360.0
  0
LINE
  8
0
  6
CONTINUOUS
 62
     1
 10
1467.0
 20
1300.0
 11
1467.0
 21
1360.0
  0
LINE
  8
0
  6
CONTINUOUS
 62
     1
 10
1483.0
 20
1690.0
 11
1483.0
 21
1560.0
  0
LINE
  8
0
  6
CONTINUOUS
 62
     1
 10
1467.000190206
 20
1560.0
 11
1483.0
 21
1560.0
  0
LINE
  8
0
  6
CONTINUOUS
 62
     1
 10
1467.000190206
 20
1560.0
 11
1467.000190206
 21
1617.5
  0
LINE
  8
0
  6
CONTINUOUS
 62
     1
 10
1467.0
 20
1690.0
 11
1467.0
 21
1587.5
  0
LINE
  8
0
  6
CONTINUOUS
 62
     1
 10
1467.0
 20
1690.0
 11
1483.0
 21
1690.0
  0
LINE
  8
0
  6
CONTINUOUS
 62
     1
 10
1431.97641589
 20
1552.5
 11
1431.97641589
 21
1625.0
  0
LINE
  8
0
  6
CONTINUOUS
 62
     1
 10
1437.335399739
 20
1532.5
 11
1437.335399739
 21
1625.0
  0
LINE
  8
0
  6
CONTINUOUS
 62
     1
 10
1451.8
 20
1576.482623085
 11
1451.8
 21
1625.0
  0
LINE
  8
0
  6
CONTINUOUS
 62
     1
 10
1463.257868375
 20
1574.720886318
 11
1463.257868375
 21
1625.0
  0
LINE
  8
0
  6
CONTINUOUS
 62
     1
 10
1455.057868375
 20
1576.482623085
 11
1455.057868375
 21
1625.0
  0
LINE
  8
0
  6
CONTINUOUS
 62
     1
 10
1339.149691586
 20
1380.0
 11
1339.149691586
 21
1259.5
  0
LINE
  8
0
  6
CONTINUOUS
 62
     1
 10
1323.149691586
 20
1380.0
 11
1339.149691586
 21
1380.0
  0
LINE
  8
0
  6
CONTINUOUS
 62
     1
 10
1263.149691586
 20
1380.0
 11
1279.149691586
 21
1380.0
  0
LINE
  8
0
  6
CONTINUOUS
 62
     1
 10
1339.149691586
 20
1230.0
 11
1433.0
 21
1230.0
  0
LINE
  8
0
  6
CONTINUOUS
 62
     1
 10
932.0
 20
1370.0
 11
1262.149691586
 21
1370.0
  0
LINE
  8
0
  6
CONTINUOUS
 62
     1
 10
1280.149691586
 20
1370.0
 11
1323.149691586
 21
1370.0
  0
LINE
  8
0
  6
LTYPE4
 62
     2
 10
967.149691586
 20
1380.0
 11
951.149691586
 21
1380.0
  0
LINE
  8
0
  6
LTYPE0
 62
     2
 10
827.649691586
 20
1177.5
 11
1282.849691586
 21
1177.5
  0
LINE
  8
0
  6
CONTINUOUS
 62
     1
 10
924.274192965
 20
1141.5
 11
938.130599426
 21
1133.5
  0
LINE
  8
0
  6
LTYPE3
 62
     2
 10
924.274192965
 20
1143.5
 11
974.274192965
 21
1143.5
  0
LINE
  8
0
  6
CONTINUOUS
 62
     1
 10
938.130599426
 20
1133.5
 11
960.417786504
 21
1133.5
  0
LINE
  8
0
  6
LTYPE3
 62
     2
 10
924.274192965
 20
1155.5
 11
974.274192965
 21
1155.5
  0
LINE
  8
0
  6
CONTINUOUS
 62
     1
 10
924.274192965
 20
1157.5
 11
938.130599426
 21
1165.5
  0
LINE
  8
0
  6
CONTINUOUS
 62
     1
 10
938.130599426
 20
1165.5
 11
960.417786504
 21
1165.5
  0
LINE
  8
0
  6
CONTINUOUS
 62
     1
 10
974.274192965
 20
1157.5
 11
960.417786504
 21
1165.5
  0
LINE
  8
0
  6
CONTINUOUS
 62
     1
 10
974.274192965
 20
1141.5
 11
974.274192965
 21
1157.5
  0
LINE
  8
0
  6
CONTINUOUS
 62
     1
 10
974.274192965
 20
1141.5
 11
960.417786504
 21
1133.5
  0
LINE
  8
0
  6
CONTINUOUS
 62
     1
 10
960.417786504
 20
1133.5
 11
960.417786504
 21
1165.5
  0
LINE
  8
0
  6
CONTINUOUS
 62
     1
 10
938.130599426
 20
1133.5
 11
960.417786504
 21
1133.5
  0
LINE
  8
0
  6
CONTINUOUS
 62
     1
 10
938.130599426
 20
1133.5
 11
938.130599426
 21
1165.5
  0
LINE
  8
0
  6
CONTINUOUS
 62
     1
 10
924.274192965
 20
1141.5
 11
924.274192965
 21
1157.5
  0
CIRCLE
  8
0
  6
CONTINUOUS
 62
     2
 10
949.274192965
 20
1149.5
 40
5.0
  0
CIRCLE
  8
0
  6
CONTINUOUS
 62
     2
 10
949.274192965
 20
1149.5
 40
4.0
  0
LINE
  8
0
  6
LTYPE2
 62
     2
 10
949.274192965
 20
1139.5
 11
949.274192965
 21
1159.5
  0
POINT
  8
0
  6
CONTINUOUS
 62
     1
 10
917.274192965
 20
1143.5
  0
LINE
  8
0
  6
LTYPE4
 62
     2
 10
917.274192965
 20
1189.5
 11
885.274192965
 21
1189.5
  0
LINE
  8
0
  6
LTYPE4
 62
     2
 10
917.274192965
 20
1136.5
 11
917.274192965
 21
1189.5
  0
LINE
  8
0
  6
LTYPE4
 62
     2
 10
875.274192965
 20
1171.5
 11
885.274192965
 21
1171.5
  0
LINE
  8
0
  6
LTYPE4
 62
     2
 10
859.274192965
 20
1164.5
 11
875.274192965
 21
1164.5
  0
LINE
  8
0
  6
LTYPE4
 62
     2
 10
856.774192965
 20
1177.5
 11
856.774192965
 21
1167.7
  0
LINE
  8
0
  6
LTYPE4
 62
     2
 10
856.774192965
 20
1167.7
 11
851.159833611
 21
1167.7
  0
LINE
  8
0
  6
LTYPE4
 62
     2
 10
849.774192965
 20
1170.1
 11
851.159833611
 21
1167.7
  0
LINE
  8
0
  6
LTYPE4
 62
     2
 10
849.774192965
 20
1177.5
 11
849.774192965
 21
1170.1
  0
LINE
  8
0
  6
LTYPE4
 62
     2
 10
856.774192965
 20
1172.6
 11
851.159833611
 21
1172.6
  0
ARC
  8
0
  6
LTYPE4
 62
     2
 10
852.632076797
 20
1170.15
 40
2.858321186
 50
121.002313915
 51
182.989498403
  0
LINE
  8
0
  6
LTYPE4
 62
     2
 10
859.274192965
 20
1168.3
 11
856.774192965
 21
1168.3
  0
LINE
  8
0
  6
LTYPE4
 62
     2
 10
859.274192965
 20
1177.5
 11
856.774192969
 21
1175.000000004
  0
LINE
  8
0
  6
LTYPE4
 62
     2
 10
875.274192965
 20
1183.5
 11
885.274192965
 21
1183.5
  0
LINE
  8
0
  6
LTYPE4
 62
     2
 10
856.774192969
 20
1177.5
 11
859.274192965
 21
1179.999999996
  0
LINE
  8
0
  6
LTYPE4
 62
     2
 10
859.274192965
 20
1164.5
 11
859.274192965
 21
1197.5
  0
LINE
  8
0
  6
LTYPE4
 62
     2
 10
875.274192965
 20
1164.5
 11
875.274192965
 21
1191.5
  0
LINE
  8
0
  6
LTYPE4
 62
     2
 10
849.774192965
 20
1177.5
 11
849.774192965
 21
1184.9
  0
LINE
  8
0
  6
LTYPE4
 62
     2
 10
856.774192965
 20
1177.5
 11
856.774192965
 21
1187.3
  0
LINE
  8
0
  6
LTYPE4
 62
     2
 10
856.774192965
 20
1187.3
 11
851.159833611
 21
1187.3
  0
LINE
  8
0
  6
LTYPE4
 62
     2
 10
849.774192965
 20
1184.9
 11
851.159833611
 21
1187.3
  0
LINE
  8
0
  6
LTYPE4
 62
     2
 10
856.774192965
 20
1182.4
 11
851.159833611
 21
1182.4
  0
LINE
  8
0
  6
LTYPE4
 62
     2
 10
849.774192965
 20
1184.9
 11
851.159833611
 21
1187.3
  0
ARC
  8
0
  6
LTYPE4
 62
     2
 10
852.632076797
 20
1184.85
 40
2.858321186
 50
177.010501597
 51
238.997686085
  0
LINE
  8
0
  6
LTYPE4
 62
     2
 10
859.274192965
 20
1186.7
 11
856.774192965
 21
1186.7
  0
ARC
  8
0
  6
LTYPE4
 62
     2
 10
859.130875765
 20
1177.5
 40
9.3566828
 50
148.419912243
 51
211.580087757
  0
LINE
  8
0
  6
LTYPE4
 62
     2
 10
885.274192965
 20
1136.5
 11
917.274192965
 21
1136.5
  0
LINE
  8
0
  6
LTYPE4
 62
     2
 10
882.774192965
 20
1149.5
 11
882.774192965
 21
1139.7
  0
LINE
  8
0
  6
LTYPE4
 62
     2
 10
882.774192965
 20
1139.7
 11
877.159833611
 21
1139.7
  0
LINE
  8
0
  6
LTYPE4
 62
     2
 10
875.774192965
 20
1142.1
 11
877.159833611
 21
1139.7
  0
LINE
  8
0
  6
LTYPE4
 62
     2
 10
875.774192965
 20
1149.5
 11
875.774192965
 21
1142.1
  0
LINE
  8
0
  6
LTYPE4
 62
     2
 10
882.774192965
 20
1144.6
 11
877.159833611
 21
1144.6
  0
ARC
  8
0
  6
LTYPE4
 62
     2
 10
878.632076797
 20
1142.15
 40
2.858321186
 50
121.002313915
 51
182.989498403
  0
LINE
  8
0
  6
LTYPE4
 62
     2
 10
885.274192965
 20
1140.3
 11
882.774192965
 21
1140.3
  0
LINE
  8
0
  6
LTYPE4
 62
     2
 10
882.774192965
 20
1149.5
 11
882.774192965
 21
1159.3
  0
LINE
  8
0
  6
LTYPE4
 62
     2
 10
882.774192965
 20
1159.3
 11
877.159833611
 21
1159.3
  0
LINE
  8
0
  6
LTYPE4
 62
     2
 10
875.774192965
 20
1156.9
 11
877.159833611
 21
1159.3
  0
LINE
  8
0
  6
LTYPE4
 62
     2
 10
875.774192965
 20
1149.5
 11
875.774192965
 21
1156.9
  0
LINE
  8
0
  6
LTYPE4
 62
     2
 10
882.774192965
 20
1154.4
 11
877.159833611
 21
1154.4
  0
LINE
  8
0
  6
LTYPE4
 62
     2
 10
875.774192965
 20
1156.9
 11
877.159833611
 21
1159.3
  0
ARC
  8
0
  6
LTYPE4
 62
     2
 10
878.632076797
 20
1156.85
 40
2.858321186
 50
177.010501597
 51
238.997686085
  0
LINE
  8
0
  6
LTYPE4
 62
     2
 10
882.774192969
 20
1149.5
 11
885.274192965
 21
1151.999999996
  0
LINE
  8
0
  6
LTYPE4
 62
     2
 10
885.274192965
 20
1158.7
 11
882.774192965
 21
1158.7
  0
ARC
  8
0
  6
LTYPE4
 62
     2
 10
885.130875765
 20
1149.5
 40
9.3566828
 50
148.419912243
 51
211.580087757
  0
LINE
  8
0
  6
LTYPE4
 62
     2
 10
885.274192965
 20
1149.5
 11
882.774192969
 21
1147.000000004
  0
LINE
  8
0
  6
LTYPE4
 62
     2
 10
885.274192965
 20
1136.5
 11
885.274192965
 21
1189.5
  0
LINE
  8
0
  6
CONTINUOUS
 62
     1
 10
917.274192965
 20
1155.5
 11
924.274192965
 21
1155.5
  0
LINE
  8
0
  6
CONTINUOUS
 62
     1
 10
924.274192965
 20
1143.5
 11
917.274192965
 21
1143.5
  0
LINE
  8
0
  6
CONTINUOUS
 62
     1
 10
974.274192965
 20
1155.5
 11
1253.849691586
 21
1155.5
  0
LINE
  8
0
  6
CONTINUOUS
 62
     1
 10
974.274192965
 20
1143.5
 11
1285.149691586
 21
1143.5
  0
LINE
  8
0
  6
LTYPE4
 62
     2
 10
917.274192965
 20
1171.5
 11
1238.449691586
 21
1171.5
  0
LINE
  8
0
  6
LTYPE4
 62
     2
 10
917.274192965
 20
1183.5
 11
1238.449691586
 21
1183.5
  0
LINE
  8
0
  6
LTYPE5
 62
     2
 10
855.149691586
 20
1149.5
 11
1498.649691586
 21
1149.5
  0
LINE
  8
0
  6
LTYPE4
 62
     2
 10
967.149691586
 20
1197.5
 11
859.274192965
 21
1197.5
  0
LINE
  8
0
  6
LTYPE4
 62
     2
 10
967.149691586
 20
1191.5
 11
859.274192965
 21
1191.5
  0
LINE
  8
0
  6
LTYPE4
 62
     2
 10
951.149691586
 20
1197.5
 11
951.149691586
 21
1380.0
  0
LINE
  8
0
  6
LTYPE4
 62
     2
 10
967.149691586
 20
1191.5
 11
967.149691586
 21
1380.0
  0
LINE
  8
0
  6
CONTINUOUS
 62
     1
 10
1236.149691586
 20
1197.5
 11
1366.149691586
 21
1197.5
  0
LINE
  8
0
  6
CONTINUOUS
 62
     1
 10
1373.849691586
 20
1190.5
 11
1373.849691586
 21
1165.1
  0
LINE
  8
0
  6
CONTINUOUS
 62
     1
 10
1348.449691586
 20
1190.5
 11
1373.849691586
 21
1190.5
  0
LINE
  8
0
  6
CONTINUOUS
 62
     1
 10
1236.149691586
 20
1191.5
 11
1236.149691586
 21
1197.5
  0
LINE
  8
0
  6
CONTINUOUS
 62
     1
 10
1236.149691586
 20
1191.5
 11
1366.149691586
 21
1191.5
  0
LINE
  8
0
  6
CONTINUOUS
 62
     1
 10
1366.149691586
 20
1191.5
 11
1366.149691586
 21
1197.5
  0
LINE
  8
0
  6
CONTINUOUS
 62
     1
 10
1348.449691586
 20
1165.1
 11
1373.849691586
 21
1165.1
  0
LINE
  8
0
  6
CONTINUOUS
 62
     1
 10
1279.749691586
 20
1191.5
 11
1279.749691586
 21
1151.5
  0
LINE
  8
0
  6
CONTINUOUS
 62
     1
 10
1348.449691586
 20
1191.5
 11
1348.449691586
 21
1151.5
  0
LINE
  8
0
  6
LTYPE3
 62
     2
 10
1284.849691586
 20
1160.73
 11
1279.849691586
 21
1160.73
  0
LINE
  8
0
  6
LTYPE3
 62
     2
 10
1284.849691586
 20
1161.885
 11
1279.849691586
 21
1161.885
  0
LINE
  8
0
  6
LTYPE3
 62
     2
 10
1284.849691586
 20
1181.67
 11
1279.849691586
 21
1181.67
  0
LINE
  8
0
  6
LTYPE3
 62
     2
 10
1284.849691586
 20
1180.515
 11
1279.849691586
 21
1180.515
  0
LINE
  8
0
  6
LTYPE3
 62
     2
 10
1284.849691586
 20
1181.67
 11
1279.849691586
 21
1181.67
  0
LINE
  8
0
  6
LTYPE2
 62
     2
 10
1358.149691586
 20
1176.6875
 11
1358.149691586
 21
1136.7
  0
LINE
  8
0
  6
CONTINUOUS
 62
     1
 10
1228.449691586
 20
1190.5
 11
1228.449691586
 21
1165.1
  0
LINE
  8
0
  6
CONTINUOUS
 62
     1
 10
1253.849691586
 20
1190.5
 11
1228.449691586
 21
1190.5
  0
LINE
  8
0
  6
CONTINUOUS
 62
     1
 10
1253.849691586
 20
1165.1
 11
1228.449691586
 21
1165.1
  0
LINE
  8
0
  6
CONTINUOUS
 62
     1
 10
1253.849691586
 20
1191.5
 11
1253.849691586
 21
1151.5
  0
LINE
  8
0
  6
CONTINUOUS
 62
     1
 10
1285.149691586
 20
1136.5
 11
1285.149691586
 21
1151.5
  0
LINE
  8
0
  6
CONTINUOUS
 62
     1
 10
1285.149691586
 20
1136.5
 11
1317.149691586
 21
1136.5
  0
LINE
  8
0
  6
CONTINUOUS
 62
     1
 10
1317.149691586
 20
1136.5
 11
1317.149691586
 21
1151.5
  0
LINE
  8
0
  6
LTYPE5
 62
     2
 10
1284.849691586
 20
1170.2
 11
1275.749691586
 21
1170.2
  0
LINE
  8
0
  6
CONTINUOUS
 62
     1
 10
1389.149691586
 20
1141.5
 11
1403.006098046
 21
1133.5
  0
LINE
  8
0
  6
LTYPE3
 62
     2
 10
1389.149691586
 20
1143.5
 11
1439.149691586
 21
1143.5
  0
LINE
  8
0
  6
CONTINUOUS
 62
     1
 10
1403.006098046
 20
1133.5
 11
1425.293285125
 21
1133.5
  0
LINE
  8
0
  6
LTYPE3
 62
     2
 10
1389.149691586
 20
1155.5
 11
1439.149691586
 21
1155.5
  0
LINE
  8
0
  6
CONTINUOUS
 62
     1
 10
1389.149691586
 20
1157.5
 11
1403.006098046
 21
1165.5
  0
LINE
  8
0
  6
CONTINUOUS
 62
     1
 10
1403.006098046
 20
1165.5
 11
1425.293285125
 21
1165.5
  0
LINE
  8
0
  6
CONTINUOUS
 62
     1
 10
1439.149691586
 20
1157.5
 11
1425.293285125
 21
1165.5
  0
LINE
  8
0
  6
CONTINUOUS
 62
     1
 10
1439.149691586
 20
1141.5
 11
1439.149691586
 21
1157.5
  0
LINE
  8
0
  6
CONTINUOUS
 62
     1
 10
1439.149691586
 20
1141.5
 11
1425.293285125
 21
1133.5
  0
LINE
  8
0
  6
CONTINUOUS
 62
     1
 10
1425.293285125
 20
1133.5
 11
1425.293285125
 21
1165.5
  0
LINE
  8
0
  6
CONTINUOUS
 62
     1
 10
1403.006098046
 20
1133.5
 11
1425.293285125
 21
1133.5
  0
LINE
  8
0
  6
CONTINUOUS
 62
     1
 10
1403.006098046
 20
1133.5
 11
1403.006098046
 21
1165.5
  0
LINE
  8
0
  6
CONTINUOUS
 62
     1
 10
1389.149691586
 20
1141.5
 11
1389.149691586
 21
1157.5
  0
CIRCLE
  8
0
  6
CONTINUOUS
 62
     2
 10
1414.149691586
 20
1149.5
 40
5.0
  0
CIRCLE
  8
0
  6
CONTINUOUS
 62
     2
 10
1414.149691586
 20
1149.5
 40
4.0
  0
LINE
  8
0
  6
LTYPE2
 62
     2
 10
1414.149691586
 20
1139.5
 11
1414.149691586
 21
1159.5
  0
LINE
  8
0
  6
CONTINUOUS
 62
     1
 10
1348.449691586
 20
1155.5
 11
1389.149691586
 21
1155.5
  0
LINE
  8
0
  6
CONTINUOUS
 62
     1
 10
1317.149691586
 20
1143.5
 11
1389.149691586
 21
1143.5
  0
LINE
  8
0
  6
CONTINUOUS
 62
     1
 10
1253.849691586
 20
1157.5
 11
1348.449691586
 21
1157.5
  0
LINE
  8
0
  6
CONTINUOUS
 62
     1
 10
1253.849691586
 20
1151.5
 11
1348.449691586
 21
1151.5
  0
LINE
  8
0
  6
CONTINUOUS
 62
     1
 10
1439.149691586
 20
1155.5
 11
1466.925190206
 21
1155.5
  0
LINE
  8
0
  6
CONTINUOUS
 62
     1
 10
1439.149691586
 20
1143.5
 11
1466.925190206
 21
1143.5
  0
LINE
  8
0
  6
CONTINUOUS
 62
     1
 10
1466.999190206
 20
1136.5
 11
1482.999190206
 21
1136.5
  0
LINE
  8
0
  6
CONTINUOUS
 62
     1
 10
1482.999190206
 20
1149.5
 11
1482.999190206
 21
1156.99406
  0
LINE
  8
0
  6
CONTINUOUS
 62
     1
 10
1482.999190206
 20
1149.5
 11
1482.999190206
 21
1142.00594
  0
LINE
  8
0
  6
CONTINUOUS
 62
     1
 10
1488.499090206
 20
1155.15878
 11
1487.439490804
 21
1156.99406
  0
LINE
  8
0
  6
CONTINUOUS
 62
     1
 10
1488.499090206
 20
1149.5
 11
1488.499090206
 21
1155.15878
  0
LINE
  8
0
  6
CONTINUOUS
 62
     1
 10
1488.499090206
 20
1143.84122
 11
1487.439490804
 21
1142.00594
  0
LINE
  8
0
  6
CONTINUOUS
 62
     1
 10
1488.499090206
 20
1149.5
 11
1488.499090206
 21
1143.84122
  0
ARC
  8
0
  6
CONTINUOUS
 62
     1
 10
1481.344034869
 20
1149.5
 40
7.155055337
 50
328.419912243
 51
31.580087757
  0
ARC
  8
0
  6
CONTINUOUS
 62
     1
 10
1486.31366644
 20
1155.120545
 40
2.185758211
 50
301.002313915
 51
2.989498403
  0
LINE
  8
0
  6
CONTINUOUS
 62
     1
 10
1488.499090206
 20
1143.84122
 11
1487.439490804
 21
1142.00594
  0
ARC
  8
0
  6
CONTINUOUS
 62
     1
 10
1486.31366644
 20
1143.879455
 40
2.185758211
 50
357.010501597
 51
58.997686085
  0
LINE
  8
0
  6
CONTINUOUS
 62
     1
 10
1482.999190206
 20
1156.99406
 11
1487.439490804
 21
1156.99406
  0
LINE
  8
0
  6
CONTINUOUS
 62
     1
 10
1482.999190206
 20
1153.24703
 11
1487.439490804
 21
1153.24703
  0
LINE
  8
0
  6
CONTINUOUS
 62
     1
 10
1482.999190206
 20
1145.75297
 11
1487.439490804
 21
1145.75297
  0
LINE
  8
0
  6
CONTINUOUS
 62
     1
 10
1482.999190206
 20
1142.00594
 11
1487.439490804
 21
1142.00594
  0
LINE
  8
0
  6
CONTINUOUS
 62
     1
 10
1488.499090206
 20
1145.5
 11
1493.499090206
 21
1145.5
  0
LINE
  8
0
  6
CONTINUOUS
 62
     1
 10
1488.499090206
 20
1153.5
 11
1493.499090206
 21
1153.5
  0
LINE
  8
0
  6
CONTINUOUS
 62
     1
 10
1493.499090206
 20
1145.5
 11
1493.499090206
 21
1153.5
  0
LINE
  8
0
  6
CONTINUOUS
 62
     2
 10
1488.499090206
 20
1152.7
 11
1493.499090206
 21
1152.7
  0
LINE
  8
0
  6
CONTINUOUS
 62
     2
 10
1488.499090206
 20
1146.3
 11
1493.499090206
 21
1146.3
  0
LINE
  8
0
  6
CONTINUOUS
 62
     1
 10
1263.149691586
 20
1197.5
 11
1263.149691586
 21
1380.0
  0
LINE
  8
0
  6
CONTINUOUS
 62
     1
 10
1279.149691586
 20
1197.5
 11
1279.149691586
 21
1380.0
  0
LINE
  8
0
  6
CONTINUOUS
 62
     1
 10
1323.149691586
 20
1197.5
 11
1323.149691586
 21
1380.0
  0
LINE
  8
0
  6
CONTINUOUS
 62
     1
 10
1339.149691586
 20
1197.5
 11
1339.149691586
 21
1380.0
  0
LINE
  8
6
  6
CONTINUOUS
 62
     2
 10
1675.5
 20
1295.0
 11
1675.5
 21
1133.5
  0
LINE
  8
6
  6
CONTINUOUS
 62
     2
 10
1675.5
 20
1133.5
 11
1680.676380902
 21
1152.818516526
  0
LINE
  8
6
  6
CONTINUOUS
 62
     2
 10
1675.5
 20
1133.5
 11
1670.323619098
 21
1152.818516526
  0
LINE
  8
6
  6
CONTINUOUS
 62
     2
 10
1433.6
 20
1133.5
 11
1687.5
 21
1133.5
  0
TEXT
  8
6
  6
CONTINUOUS
 62
     2
 10
1667.5
 20
1180.25
 30
1.6
 40
24.0
  1
１６８
 50
90.0
 41
0.9
 51
0.0
  7
KANJI2
  0
LINE
  8
0
  6
CONTINUOUS
 62
     1
 10
1279.149691586
 20
1230.0
 11
1323.149691586
 21
1230.0
  0
LINE
  8
0
  6
CONTINUOUS
 62
     1
 10
932.0
 20
1230.0
 11
1263.149691586
 21
1230.0
  0
LINE
  8
0
  6
LTYPE5
 62
     2
 10
2179.5
 20
1126.0
 11
2179.5
 21
1771.0
  0
LINE
  8
0
  6
LTYPE0
 62
     2
 10
2333.5
 20
1531.0
 11
2022.5
 21
1531.0
  0
LINE
  8
6
  6
CONTINUOUS
 62
     2
 10
2010.5
 20
1531.0
 11
1905.5
 21
1531.0
  0
LINE
  8
6
  6
CONTINUOUS
 62
     2
 10
1917.5
 20
1531.0
 11
1912.323619098
 21
1511.681483474
  0
LINE
  8
6
  6
CONTINUOUS
 62
     2
 10
1917.5
 20
1531.0
 11
1922.676380902
 21
1511.681483474
  0
LINE
  8
6
  6
CONTINUOUS
 62
     2
 10
1917.5
 20
1531.0
 11
1917.5
 21
1240.0
  0
LINE
  8
6
  6
CONTINUOUS
 62
     2
 10
1917.5
 20
1531.0
 11
1922.676380902
 21
1550.318516526
  0
LINE
  8
6
  6
CONTINUOUS
 62
     2
 10
1917.5
 20
1531.0
 11
1912.323619098
 21
1550.318516526
  0
TEXT
  8
6
  6
CONTINUOUS
 62
     2
 10
1909.5
 20
1390.7
 30
2.4
 40
24.0
  1
２３１
 50
90.0
 41
0.9
 51
0.0
  7
KANJI0
  0
LINE
  8
0
  6
CONTINUOUS
 62
     1
 10
595.0
 20
1665.0
 11
545.0
 21
1665.0
  0
LINE
  8
0
  6
LTYPE0
 62
     2
 10
466.0
 20
1461.0
 11
418.0
 21
1461.0
  0
CIRCLE
  8
0
  6
CONTINUOUS
 62
     1
 10
565.0
 20
1695.0
 40
17.5
  0
LINE
  8
0
  6
CONTINUOUS
 62
     1
 10
565.0
 20
1665.0
 11
580.0
 21
1665.0
  0
LINE
  8
0
  6
CONTINUOUS
 62
     1
 10
565.0
 20
1676.0
 11
578.751706485
 21
1676.0
  0
LINE
  8
0
  6
CONTINUOUS
 62
     1
 10
578.751706485
 20
1676.0
 11
565.0
 21
1677.5
  0
LINE
  8
0
  6
CONTINUOUS
 62
     1
 10
579.689625645
 20
1667.735028154
 11
578.751706485
 21
1676.0
  0
LINE
  8
0
  6
CONTINUOUS
 62
     1
 10
580.0
 20
1665.0
 11
579.689625645
 21
1667.735028154
  0
ARC
  8
0
  6
CONTINUOUS
 62
     1
 10
581.297773229
 20
1667.927087564
 40
1.6
 50
120.593314844
 51
186.768821444
  0
ARC
  8
0
  6
CONTINUOUS
 62
     1
 10
565.0
 20
1695.0
 40
30.0
 50
301.047754584
 51
0.0
  0
LINE
  8
0
  6
CONTINUOUS
 62
     1
 10
565.0
 20
1665.0
 11
550.0
 21
1665.0
  0
LINE
  8
0
  6
CONTINUOUS
 62
     1
 10
565.0
 20
1676.0
 11
551.248293515
 21
1676.0
  0
LINE
  8
0
  6
CONTINUOUS
 62
     1
 10
551.248293515
 20
1676.0
 11
565.0
 21
1677.5
  0
LINE
  8
0
  6
CONTINUOUS
 62
     1
 10
550.310374355
 20
1667.735028154
 11
551.248293515
 21
1676.0
  0
LINE
  8
0
  6
CONTINUOUS
 62
     1
 10
550.0
 20
1665.0
 11
550.310374355
 21
1667.735028154
  0
ARC
  8
0
  6
CONTINUOUS
 62
     1
 10
548.702226771
 20
1667.927087564
 40
1.6
 50
353.231178556
 51
59.406685156
  0
ARC
  8
0
  6
CONTINUOUS
 62
     1
 10
565.0
 20
1695.0
 40
30.0
 50
0.0
 51
239.0231413
  0
LINE
  8
0
  6
LTYPE0
 62
     2
 10
565.0
 20
1616.8
 11
565.0
 21
1731.8
  0
LINE
  8
0
  6
LTYPE0
 62
     2
 10
603.0
 20
1695.0
 11
529.0
 21
1695.0
  0
LINE
  8
0
  6
CONTINUOUS
 62
     1
 10
572.0
 20
1596.0
 11
572.0
 21
1665.0
  0
ARC
  8
0
  6
CONTINUOUS
 62
     1
 10
566.0
 20
1596.0
 40
6.0
 50
270.0
 51
0.0
  0
ARC
  8
0
  6
CONTINUOUS
 62
     1
 10
539.0
 20
1596.0
 40
6.0
 50
270.0
 51
0.0
  0
LINE
  8
0
  6
CONTINUOUS
 62
     1
 10
545.0
 20
1596.0
 11
545.0
 21
1665.0
  0
LINE
  8
0
  6
CONTINUOUS
 62
     1
 10
566.0
 20
1590.0
 11
440.0
 21
1590.0
  0
LINE
  8
0
  6
CONTINUOUS
 62
     2
 10
426.0
 20
1550.5
 11
427.527539708
 21
1570.441580239
  0
LINE
  8
0
  6
CONTINUOUS
 62
     2
 10
426.0
 20
1550.5
 11
417.352098073
 21
1568.533684933
  0
LINE
  8
6
  6
CONTINUOUS
 62
     2
 10
500.0
 20
1457.0
 11
480.406045615
 21
1452.990392595
  0
LINE
  8
6
  6
CONTINUOUS
 62
     2
 10
500.0
 20
1457.0
 11
370.0
 21
1392.0
  0
LINE
  8
6
  6
CONTINUOUS
 62
     2
 10
370.0
 20
1392.0
 11
300.4
 21
1392.0
  0
TEXT
  8
6
  6
CONTINUOUS
 62
     2
 10
300.4
 20
1400.0
 30
2.4
 40
24.0
  1
点検口
 50
0.0
 41
0.9
 51
0.0
  7
KANJI1
  0
LINE
  8
0
  6
CONTINUOUS
 62
     1
 10
457.0
 20
1165.0
 11
457.0
 21
1590.0
  0
LINE
  8
0
  6
CONTINUOUS
 62
     1
 10
440.0
 20
1165.0
 11
440.0
 21
1590.0
  0
LINE
  8
0
  6
LTYPE0
 62
     2
 10
1001.6
 20
1531.0
 11
369.5
 21
1531.0
  0
LINE
  8
0
  6
CONTINUOUS
 62
     1
 10
440.0
 20
1419.5
 11
440.0
 21
1590.0
  0
LINE
  8
0
  6
CONTINUOUS
 62
     1
 10
595.0
 20
1419.5
 11
595.0
 21
1665.0
  0
LINE
  8
0
  6
CONTINUOUS
 62
     1
 10
595.0
 20
1404.15
 11
595.0
 21
1656.0
  0
LINE
  8
0
  6
CONTINUOUS
 62
     1
 10
595.0
 20
1406.0
 11
595.0
 21
1656.0
  0
LINE
  8
0
  6
CONTINUOUS
 62
     1
 10
595.0
 20
1406.0
 11
606.0
 21
1406.0
  0
LINE
  8
0
  6
CONTINUOUS
 62
     1
 10
611.0
 20
1406.0
 11
611.0
 21
1656.0
  0
LINE
  8
0
  6
CONTINUOUS
 62
     1
 10
595.0
 20
1406.0
 11
611.0
 21
1406.0
  0
LINE
  8
0
  6
CONTINUOUS
 62
     1
 10
661.0
 20
1426.0
 11
661.0
 21
1636.0
  0
LINE
  8
0
  6
CONTINUOUS
 62
     1
 10
661.0
 20
1426.0
 11
611.0
 21
1426.0
  0
LINE
  8
0
  6
CONTINUOUS
 62
     1
 10
661.0
 20
1636.0
 11
611.0
 21
1636.0
  0
LINE
  8
0
  6
CONTINUOUS
 62
     1
 10
661.0
 20
1426.0
 11
661.0
 21
1636.0
  0
LINE
  8
0
  6
LTYPE2
 62
     2
 10
755.0
 20
1630.843067336
 11
755.0
 21
1671.143067336
  0
LINE
  8
0
  6
CONTINUOUS
 62
     1
 10
845.0
 20
1679.0
 11
845.0
 21
1719.0
  0
LINE
  8
0
  6
CONTINUOUS
 62
     1
 10
845.0
 20
1719.0
 11
819.3
 21
1719.0
  0
LINE
  8
0
  6
CONTINUOUS
 62
     1
 10
845.0
 20
1679.0
 11
819.3
 21
1679.0
  0
ARC
  8
0
  6
CONTINUOUS
 62
     1
 10
813.3
 20
1673.7
 40
6.0
 50
270.0
 51
0.0
  0
LINE
  8
0
  6
LTYPE2
 62
     2
 10
849.256580424
 20
1699.0
 11
809.756580424
 21
1699.0
  0
ARC
  8
0
  6
CONTINUOUS
 62
     1
 10
699.819480257
 20
1673.7
 40
6.0
 50
190.033164511
 51
270.0
  0
LINE
  8
0
  6
CONTINUOUS
 62
     1
 10
813.661039485
 20
1667.7
 11
699.819480257
 21
1667.7
  0
ARC
  8
0
  6
CONTINUOUS
 62
     1
 10
699.819480257
 20
1736.0
 40
6.0
 50
90.0
 51
180.0
  0
LINE
  8
0
  6
CONTINUOUS
 62
     1
 10
818.108952959
 20
1742.0
 11
699.819480257
 21
1742.0
  0
LINE
  8
0
  6
CONTINUOUS
 62
     1
 10
829.377020398
 20
1741.498824355
 11
827.2
 21
1746.0
  0
LINE
  8
0
  6
CONTINUOUS
 62
     1
 10
827.2
 20
1746.0
 11
681.801684551
 21
1675.6772391
  0
LINE
  8
0
  6
CONTINUOUS
 62
     1
 10
829.377020398
 20
1741.498824355
 11
683.97870495
 21
1671.176063455
  0
LINE
  8
0
  6
CONTINUOUS
 62
     1
 10
681.801684551
 20
1675.6772391
 11
683.97870495
 21
1671.176063455
  0
LINE
  8
0
  6
CONTINUOUS
 62
     1
 10
693.819480257
 20
1682.676063455
 11
693.819480257
 21
1736.0
  0
LINE
  8
0
  6
CONTINUOUS
 62
     1
 10
694.47870495
 20
1675.676063455
 11
694.47870495
 21
1672.676063455
  0
LINE
  8
0
  6
CONTINUOUS
 62
     1
 10
819.3
 20
1673.7
 11
819.3
 21
1735.5
  0
LINE
  8
0
  6
CONTINUOUS
 62
     1
 10
1044.5
 20
1522.3
 11
1050.4
 21
1522.3
  0
LINE
  8
0
  6
CONTINUOUS
 62
     1
 10
1044.5
 20
1539.7
 11
1050.4
 21
1539.7
  0
LINE
  8
0
  6
CONTINUOUS
 62
     1
 10
1058.0
 20
1521.0
 11
1058.0
 21
1530.9
  0
LINE
  8
0
  6
CONTINUOUS
 62
     1
 10
1051.4
 20
1521.0
 11
1058.0
 21
1521.0
  0
LINE
  8
0
  6
CONTINUOUS
 62
     1
 10
1051.4
 20
1526.0
 11
1058.0
 21
1526.0
  0
LINE
  8
0
  6
CONTINUOUS
 62
     1
 10
1058.0
 20
1541.0
 11
1058.0
 21
1531.1
  0
LINE
  8
0
  6
CONTINUOUS
 62
     1
 10
1051.4
 20
1541.0
 11
1058.0
 21
1541.0
  0
LINE
  8
0
  6
CONTINUOUS
 62
     1
 10
1051.4
 20
1536.0
 11
1058.0
 21
1536.0
  0
LINE
  8
0
  6
CONTINUOUS
 62
     1
 10
1044.5
 20
1492.3
 11
1050.4
 21
1492.3
  0
LINE
  8
0
  6
CONTINUOUS
 62
     1
 10
1044.5
 20
1488.5
 11
1050.4
 21
1488.5
  0
LINE
  8
0
  6
CONTINUOUS
 62
     1
 10
1059.9
 20
1500.4
 11
1059.9
 21
1480.4
  0
LINE
  8
0
  6
CONTINUOUS
 62
     1
 10
1054.9
 20
1480.4
 11
1059.9
 21
1480.4
  0
LINE
  8
0
  6
CONTINUOUS
 62
     1
 10
1054.9
 20
1500.4
 11
1059.9
 21
1500.4
  0
LINE
  8
0
  6
CONTINUOUS
 62
     1
 10
1050.4
 20
1551.0
 11
1054.9
 21
1551.0
  0
LINE
  8
0
  6
CONTINUOUS
 62
     1
 10
1054.9
 20
1480.4
 11
1054.9
 21
1551.0
  0
LINE
  8
0
  6
LTYPE2
 62
     2
 10
1036.4
 20
1490.4
 11
1066.7
 21
1490.4
  0
LINE
  8
0
  6
CONTINUOUS
 62
     1
 10
1050.4
 20
1551.0
 11
1050.4
 21
1485.4
  0
LINE
  8
0
  6
CONTINUOUS
 62
     1
 10
1054.9
 20
1485.4
 11
1050.4
 21
1485.4
  0
LINE
  8
0
  6
CONTINUOUS
 62
     1
 10
1048.4
 20
1497.4
 11
1048.4
 21
1482.4
  0
LINE
  8
0
  6
CONTINUOUS
 62
     1
 10
1045.9
 20
1496.9
 11
1045.9
 21
1482.4
  0
LINE
  8
0
  6
CONTINUOUS
 62
     1
 10
661.0
 20
1636.0
 11
674.125
 21
1653.5
  0
ARC
  8
0
  6
CONTINUOUS
 62
     1
 10
1022.720549228
 20
1626.0
 40
20.0
 50
9.12031501
 51
90.0
  0
LINE
  8
0
  6
CONTINUOUS
 62
     1
 10
1022.720549228
 20
1646.0
 11
888.0
 21
1646.0
  0
ARC
  8
0
  6
CONTINUOUS
 62
     1
 10
1022.720549228
 20
1436.0
 40
20.0
 50
270.0
 51
350.87968499
  0
LINE
  8
0
  6
CONTINUOUS
 62
     1
 10
938.0
 20
1646.0
 11
938.0
 21
1416.0
  0
LINE
  8
0
  6
CONTINUOUS
 62
     1
 10
888.0
 20
1646.0
 11
880.5
 21
1653.5
  0
LINE
  8
0
  6
CONTINUOUS
 62
     1
 10
674.125
 20
1653.5
 11
880.5
 21
1653.5
  0
LINE
  8
0
  6
CONTINUOUS
 62
     1
 10
661.0
 20
1633.5
 11
888.0
 21
1633.5
  0
LINE
  8
0
  6
CONTINUOUS
 62
     1
 10
661.0
 20
1618.5
 11
888.0
 21
1618.5
  0
LINE
  8
0
  6
CONTINUOUS
 62
     1
 10
661.0
 20
1603.5
 11
888.0
 21
1603.5
  0
LINE
  8
0
  6
CONTINUOUS
 62
     1
 10
661.0
 20
1588.5
 11
888.0
 21
1588.5
  0
LINE
  8
0
  6
CONTINUOUS
 62
     1
 10
661.0
 20
1573.5
 11
888.0
 21
1573.5
  0
LINE
  8
0
  6
CONTINUOUS
 62
     1
 10
661.0
 20
1558.5
 11
888.0
 21
1558.5
  0
LINE
  8
0
  6
CONTINUOUS
 62
     1
 10
661.0
 20
1543.5
 11
888.0
 21
1543.5
  0
LINE
  8
0
  6
CONTINUOUS
 62
     1
 10
670.375
 20
1648.5
 11
885.5
 21
1648.5
  0
LINE
  8
0
  6
CONTINUOUS
 62
     1
 10
775.0
 20
1653.5
 11
775.0
 21
1667.7
  0
LINE
  8
0
  6
CONTINUOUS
 62
     1
 10
735.0
 20
1653.5
 11
735.0
 21
1667.7
  0
LINE
  8
0
  6
CONTINUOUS
 62
     1
 10
661.0
 20
1426.0
 11
674.125
 21
1408.5
  0
LINE
  8
0
  6
CONTINUOUS
 62
     1
 10
661.0
 20
1443.5
 11
888.0
 21
1443.5
  0
LINE
  8
0
  6
CONTINUOUS
 62
     1
 10
661.0
 20
1458.5
 11
888.0
 21
1458.5
  0
LINE
  8
0
  6
CONTINUOUS
 62
     1
 10
661.0
 20
1473.5
 11
888.0
 21
1473.5
  0
LINE
  8
0
  6
CONTINUOUS
 62
     1
 10
661.0
 20
1488.5
 11
888.0
 21
1488.5
  0
LINE
  8
0
  6
CONTINUOUS
 62
     1
 10
661.0
 20
1503.5
 11
888.0
 21
1503.5
  0
LINE
  8
0
  6
CONTINUOUS
 62
     1
 10
661.0
 20
1518.5
 11
888.0
 21
1518.5
  0
ARC
  8
0
  6
CONTINUOUS
 62
     1
 10
-1450.328453082
 20
1531.0
 40
2494.728453082
 50
357.744769101
 51
2.255230899
  0
LINE
  8
0
  6
CONTINUOUS
 62
     1
 10
595.0
 20
1656.0
 11
611.0
 21
1656.0
  0
LINE
  8
0
  6
CONTINUOUS
 62
     1
 10
595.0
 20
1406.0
 11
595.0
 21
1656.0
  0
LINE
  8
0
  6
CONTINUOUS
 62
     1
 10
595.0
 20
1400.0
 11
630.0
 21
1400.0
  0
LINE
  8
0
  6
CONTINUOUS
 62
     1
 10
674.125
 20
1408.5
 11
763.0
 21
1408.5
  0
LINE
  8
0
  6
CONTINUOUS
 62
     1
 10
670.375
 20
1413.5
 11
763.0
 21
1413.5
  0
LINE
  8
0
  6
CONTINUOUS
 62
     1
 10
661.0
 20
1428.5
 11
763.0
 21
1428.5
  0
LINE
  8
0
  6
CONTINUOUS
 62
     1
 10
888.0
 20
1646.0
 11
888.0
 21
1435.966558854
  0
LINE
  8
0
  6
CONTINUOUS
 62
     1
 10
1022.720549228
 20
1416.0
 11
893.0
 21
1416.0
  0
LINE
  8
1
  6
CONTINUOUS
 62
     2
 10
819.0
 20
1359.466558854
 11
807.528561983
 21
1343.083454453
  0
LINE
  8
1
  6
CONTINUOUS
 62
     2
 10
819.0
 20
1359.466558854
 11
817.25699546
 21
1339.542655242
  0
TEXT
  8
0
  6
CONTINUOUS
 62
     2
 10
744.0
 20
1080.2
 30
0.0
 40
24.0
  1
推力リミッタ
 50
0.0
 41
0.9
 51
0.0
  7
KANJI14
  0
LINE
  8
6
  6
CONTINUOUS
 62
     2
 10
716.01036957
 20
1076.5
 11
881.5
 21
1076.5
  0
LINE
  8
1
  6
CONTINUOUS
 62
     2
 10
819.0
 20
1359.466558854
 11
716.01036957
 21
1076.5
  0
ARC
  8
0
  6
CONTINUOUS
 62
     1
 10
2179.5
 20
1531.0
 40
125.0
 50
280.557968545
 51
0.0
  0
CIRCLE
  8
0
  6
CONTINUOUS
 62
     1
 10
2179.5
 20
1531.0
 40
20.0
  0
CIRCLE
  8
0
  6
CONTINUOUS
 62
     1
 10
2239.5
 20
1531.0
 40
10.0
  0
LINE
  8
0
  6
CONTINUOUS
 62
     2
 10
2239.5
 20
1546.0
 11
2239.5
 21
1516.0
  0
LINE
  8
0
  6
CONTINUOUS
 62
     1
 10
2182.833333333
 20
1511.279734056
 11
2241.166666667
 21
1521.139867028
  0
LINE
  8
0
  6
CONTINUOUS
 62
     1
 10
2182.833333333
 20
1550.720265944
 11
2241.166666667
 21
1540.860132972
  0
LINE
  8
0
  6
CONTINUOUS
 62
     2
 10
2249.5
 20
1601.0
 11
2262.445832412
 21
1613.945832412
  0
ARC
  8
0
  6
CONTINUOUS
 62
     2
 10
2179.5
 20
1531.0
 40
107.5
 50
38.280925788
 51
51.325228591
  0
LINE
  8
0
  6
CONTINUOUS
 62
     2
 10
2249.5
 20
1461.0
 11
2262.445832412
 21
1448.054167588
  0
ARC
  8
0
  6
CONTINUOUS
 62
     2
 10
2179.5
 20
1531.0
 40
107.5
 50
308.674771409
 51
321.719074212
  0
LINE
  8
0
  6
CONTINUOUS
 62
     2
 10
2109.5
 20
1601.0
 11
2096.554167588
 21
1613.945832412
  0
ARC
  8
0
  6
CONTINUOUS
 62
     2
 10
2179.5
 20
1531.0
 40
107.5
 50
128.674771409
 51
141.719074212
  0
LINE
  8
0
  6
CONTINUOUS
 62
     2
 10
2109.5
 20
1461.0
 11
2096.554167588
 21
1448.054167588
  0
ARC
  8
0
  6
CONTINUOUS
 62
     2
 10
2179.5
 20
1531.0
 40
107.5
 50
218.280925788
 51
231.325228591
  0
ARC
  8
0
  6
CONTINUOUS
 62
     1
 10
2179.5
 20
1531.0
 40
125.0
 50
0.0
 51
69.402826706
  0
CIRCLE
  8
0
  6
CONTINUOUS
 62
     1
 10
2179.5
 20
1546.0
 40
4.0
  0
CIRCLE
  8
0
  6
CONTINUOUS
 62
     1
 10
2179.5
 20
1531.0
 40
4.0
  0
CIRCLE
  8
0
  6
CONTINUOUS
 62
     1
 10
2164.5
 20
1531.0
 40
4.0
  0
CIRCLE
  8
0
  6
CONTINUOUS
 62
     1
 10
2179.5
 20
1516.0
 40
4.0
  0
CIRCLE
  8
0
  6
CONTINUOUS
 62
     1
 10
2194.5
 20
1531.0
 40
4.0
  0
ARC
  8
0
  6
CONTINUOUS
 62
     1
 10
2216.5
 20
1732.705692517
 40
3.0
 50
0.0
 51
90.0
  0
ARC
  8
0
  6
CONTINUOUS
 62
     1
 10
2223.5
 20
1735.705692517
 40
6.0
 50
0.0
 51
90.0
  0
ARC
  8
0
  6
CONTINUOUS
 62
     1
 10
2223.5
 20
1740.0
 40
6.0
 50
0.0
 51
90.0
  0
LINE
  8
0
  6
CONTINUOUS
 62
     1
 10
2223.5
 20
1746.0
 11
2179.5
 21
1746.0
  0
LINE
  8
0
  6
CONTINUOUS
 62
     1
 10
2179.5
 20
1741.705692517
 11
2223.5
 21
1741.705692517
  0
LINE
  8
0
  6
CONTINUOUS
 62
     1
 10
2179.5
 20
1735.705692517
 11
2216.5
 21
1735.705692517
  0
ARC
  8
0
  6
CONTINUOUS
 62
     1
 10
2142.5
 20
1732.705692517
 40
3.0
 50
90.0
 51
180.0
  0
ARC
  8
0
  6
CONTINUOUS
 62
     1
 10
2135.5
 20
1735.705692517
 40
6.0
 50
90.0
 51
180.0
  0
ARC
  8
0
  6
CONTINUOUS
 62
     1
 10
2135.5
 20
1740.0
 40
6.0
 50
90.0
 51
180.0
  0
LINE
  8
0
  6
CONTINUOUS
 62
     1
 10
2135.5
 20
1746.0
 11
2179.5
 21
1746.0
  0
LINE
  8
0
  6
CONTINUOUS
 62
     1
 10
2179.5
 20
1741.705692517
 11
2135.5
 21
1741.705692517
  0
LINE
  8
0
  6
CONTINUOUS
 62
     1
 10
2179.5
 20
1735.705692517
 11
2142.5
 21
1735.705692517
  0
ARC
  8
0
  6
CONTINUOUS
 62
     1
 10
2216.5
 20
1670.7
 40
3.0
 50
270.0
 51
0.0
  0
ARC
  8
0
  6
CONTINUOUS
 62
     1
 10
2223.5
 20
1676.7
 40
6.0
 50
270.0
 51
0.0
  0
LINE
  8
0
  6
CONTINUOUS
 62
     1
 10
2219.5
 20
1670.7
 11
2223.5
 21
1670.7
  0
LINE
  8
0
  6
CONTINUOUS
 62
     1
 10
2179.5
 20
1667.7
 11
2216.5
 21
1667.7
  0
ARC
  8
0
  6
CONTINUOUS
 62
     1
 10
2142.5
 20
1670.7
 40
3.0
 50
180.0
 51
270.0
  0
ARC
  8
0
  6
CONTINUOUS
 62
     1
 10
2135.5
 20
1676.7
 40
6.0
 50
180.0
 51
270.0
  0
LINE
  8
0
  6
CONTINUOUS
 62
     1
 10
2139.5
 20
1670.7
 11
2135.5
 21
1670.7
  0
LINE
  8
0
  6
CONTINUOUS
 62
     1
 10
2179.5
 20
1667.7
 11
2142.5
 21
1667.7
  0
LINE
  8
0
  6
CONTINUOUS
 62
     1
 10
2199.5
 20
1652.07764064
 11
2199.5
 21
1667.7
  0
LINE
  8
0
  6
CONTINUOUS
 62
     1
 10
2159.5
 20
1652.07764064
 11
2159.5
 21
1667.7
  0
LINE
  8
0
  6
CONTINUOUS
 62
     1
 10
2229.5
 20
1676.7
 11
2229.5
 21
1740.0
  0
LINE
  8
0
  6
CONTINUOUS
 62
     1
 10
2219.5
 20
1671.2
 11
2219.5
 21
1732.705692517
  0
LINE
  8
0
  6
CONTINUOUS
 62
     1
 10
2139.5
 20
1671.2
 11
2139.5
 21
1732.705692517
  0
LINE
  8
0
  6
CONTINUOUS
 62
     1
 10
2129.5
 20
1677.2
 11
2129.5
 21
1740.0
  0
CIRCLE
  8
0
  6
CONTINUOUS
 62
     1
 10
2179.5
 20
1699.0
 40
20.0
  0
CIRCLE
  8
0
  6
CONTINUOUS
 62
     2
 10
2179.5
 20
1699.0
 40
13.5
  0
CIRCLE
  8
0
  6
CONTINUOUS
 62
     2
 10
2179.5
 20
1699.0
 40
15.0
  0
LINE
  8
0
  6
LTYPE2
 62
     2
 10
2149.0
 20
1699.0
 11
2208.5
 21
1699.0
  0
ARC
  8
0
  6
CONTINUOUS
 62
     1
 10
2179.5
 20
1531.0
 40
125.0
 50
69.402826706
 51
280.557968545
  0
CIRCLE
  8
0
  6
CONTINUOUS
 62
     1
 10
2179.5
 20
1531.0
 40
115.0
  0
ARC
  8
0
  6
CONTINUOUS
 62
     1
 10
2084.5
 20
1531.0
 40
20.0
 50
90.0
 51
270.0
  0
ARC
  8
0
  6
CONTINUOUS
 62
     1
 10
2227.0
 20
1448.72758664
 40
20.0
 50
210.0
 51
30.0
  0
ARC
  8
0
  6
CONTINUOUS
 62
     1
 10
2227.0
 20
1613.27241336
 40
20.0
 50
330.0
 51
150.0
  0
LINE
  8
0
  6
CONTINUOUS
 62
     1
 10
2084.5
 20
1551.0
 11
2167.952994616
 21
1551.0
  0
LINE
  8
0
  6
CONTINUOUS
 62
     1
 10
2209.679491924
 20
1623.27241336
 11
2167.952994616
 21
1551.0
  0
LINE
  8
0
  6
CONTINUOUS
 62
     1
 10
2084.5
 20
1511.0
 11
2167.952994616
 21
1511.0
  0
LINE
  8
0
  6
CONTINUOUS
 62
     1
 10
2209.679491924
 20
1438.72758664
 11
2167.952994616
 21
1511.0
  0
LINE
  8
0
  6
CONTINUOUS
 62
     1
 10
2244.320508076
 20
1603.27241336
 11
2211.210211838
 21
1545.923698023
  0
LINE
  8
0
  6
CONTINUOUS
 62
     1
 10
2244.320508076
 20
1458.72758664
 11
2211.210211838
 21
1516.076301977
  0
CIRCLE
  8
0
  6
LTYPE3
 62
     1
 10
2103.486021022
 20
1454.986021022
 40
7.25
  0
CIRCLE
  8
0
  6
LTYPE3
 62
     1
 10
2255.513978978
 20
1454.986021022
 40
7.25
  0
CIRCLE
  8
0
  6
LTYPE3
 62
     1
 10
2255.513978978
 20
1607.013978978
 40
7.25
  0
CIRCLE
  8
0
  6
LTYPE3
 62
     1
 10
2103.486021022
 20
1607.013978978
 40
7.25
  0
ARC
  8
0
  6
CONTINUOUS
 62
     1
 10
2179.5
 20
1429.0
 40
31.0
 50
222.347409209
 51
317.652590791
  0
LINE
  8
0
  6
CONTINUOUS
 62
     1
 10
562.0
 20
1540.0
 11
491.0
 21
1540.0
  0
LINE
  8
0
  6
CONTINUOUS
 62
     1
 10
562.0
 20
1540.0
 11
562.0
 21
1420.0
  0
LINE
  8
0
  6
CONTINUOUS
 62
     1
 10
562.0
 20
1420.0
 11
491.0
 21
1420.0
  0
LINE
  8
0
  6
CONTINUOUS
 62
     1
 10
491.0
 20
1420.0
 11
491.0
 21
1540.0
  0
LINE
  8
0
  6
LTYPE0
 62
     2
 10
567.0
 20
1430.0
 11
543.2
 21
1430.0
  0
LINE
  8
0
  6
LTYPE0
 62
     2
 10
513.2
 20
1530.0
 11
486.2
 21
1530.0
  0
LINE
  8
0
  6
LTYPE0
 62
     2
 10
567.2
 20
1530.0
 11
539.2
 21
1530.0
  0
LINE
  8
0
  6
LTYPE0
 62
     2
 10
552.0
 20
1441.8
 11
552.0
 21
1420.0
  0
LINE
  8
0
  6
LTYPE0
 62
     2
 10
552.0
 20
1540.0
 11
552.0
 21
1517.8
  0
LINE
  8
0
  6
LTYPE0
 62
     2
 10
501.0
 20
1518.8
 11
501.0
 21
1540.0
  0
LINE
  8
0
  6
LTYPE0
 62
     2
 10
501.0
 20
1420.0
 11
501.0
 21
1440.8
  0
LINE
  8
0
  6
LTYPE0
 62
     2
 10
513.2
 20
1430.0
 11
488.2
 21
1430.0
  0
LINE
  8
6
  6
CONTINUOUS
 62
     2
 10
500.0
 20
1457.0
 11
485.035941444
 21
1443.730600935
  0
LINE
  8
6
  6
CONTINUOUS
 62
     2
 10
595.0
 20
1670.0
 11
595.0
 21
1863.5
  0
LINE
  8
6
  6
CONTINUOUS
 62
     2
 10
1060.0
 20
1851.5
 11
1040.681483474
 21
1856.676380902
  0
LINE
  8
6
  6
CONTINUOUS
 62
     2
 10
1060.0
 20
1851.5
 11
1040.681483474
 21
1846.323619098
  0
LINE
  8
6
  6
CONTINUOUS
 62
     2
 10
1060.0
 20
1566.3
 11
1060.0
 21
1863.5
  0
LINE
  8
0
  6
CONTINUOUS
 62
     2
 10
1820.5
 20
1008.5
 11
1938.1
 21
1008.5
  0
TEXT
  8
0
  6
CONTINUOUS
 62
     2
 10
1820.5
 20
1016.5
 30
2.4
 40
24.0
  1
ＰＦ１／２
 50
0.0
 41
0.9
 51
0.0
  7
KANJI1
  0
CIRCLE
  8
0
  6
CONTINUOUS
 62
     2
 10
2070.962354132
 20
1375.998877817
 40
10.4775
  0
CIRCLE
  8
0
  6
CONTINUOUS
 62
     2
 10
2070.962354132
 20
1375.998877817
 40
9.3155
  0
LINE
  8
1
  6
CONTINUOUS
 62
     2
 10
2069.5
 20
1364.5
 11
2057.954485113
 21
1348.169014543
  0
LINE
  8
1
  6
CONTINUOUS
 62
     2
 10
2069.5
 20
1364.5
 11
2067.666783537
 21
1344.584194282
  0
LINE
  8
1
  6
CONTINUOUS
 62
     2
 10
2069.5
 20
1364.5
 11
1938.1
 21
1008.5
  0
LINE
  8
0
  6
CONTINUOUS
 62
     4
 10
3248.0
 20
-56.0
 11
2456.0
 21
-56.0
  0
LINE
  8
0
  6
CONTINUOUS
 62
     4
 10
3248.0
 20
-136.0
 11
2456.0
 21
-136.0
  0
TEXT
  8
0
  6
CONTINUOUS
 62
     3
 10
2262.6667112
 20
227.999992
 30
2.4
 40
28.0
  1
Ｋ．Ｋ
 50
0.0
 41
0.571428571
 51
0.0
  7
KANJI32
  0
TEXT
  8
0
  6
CONTINUOUS
 62
     4
 10
175.999994954
 20
135.99999159
 30
1.599999664
 40
15.999996636
  1
ＰＡＲＴＳ　ＬＩＳＴ
 50
0.0
 41
0.6
 51
0.0
  7
KANJI33
  0
TEXT
  8
0
  6
CONTINUOUS
 62
     4
 10
535.999919262
 20
135.99999159
 30
1.599999664
 40
15.999996636
  1
Ｎ０．
 50
0.0
 41
0.6
 51
0.0
  7
KANJI33
  0
TEXT
  8
0
  6
CONTINUOUS
 62
     4
 10
175.999994954
 20
111.999996636
 30
1.919999596
 40
19.199995963
  1
部品表
 50
0.0
 41
0.9
 51
0.0
  7
KANJI34
  0
TEXT
  8
0
  6
CONTINUOUS
 62
     4
 10
535.999919262
 20
111.999996636
 30
1.919999596
 40
19.199995963
  1
項番
 50
0.0
 41
0.9
 51
0.0
  7
KANJI34
  0
TEXT
  8
0
  6
CONTINUOUS
 62
     4
 10
2370.9334008
 20
2254.9333328
 30
2.07999984
 40
20.7999984
  1
ＩＳＯ
 50
0.0
 41
0.9
 51
0.0
  7
KANJI35
  0
TEXT
  8
0
  6
CONTINUOUS
 62
     4
 10
2433.333396
 20
2254.9333328
 30
1.38666656
 40
13.8666656
  1
ＭＥＴＲＩＣ　ＳＣＲＥＷ　ＴＨＲＥＡＤ
 50
0.0
 41
0.75
 51
0.0
  7
KANJI36
  0
TEXT
  8
0
  6
CONTINUOUS
 62
     4
 10
2668.72004456
 20
2254.9333328
 30
1.38666656
 40
13.8666656
  1
ＩＳＯ
 50
0.0
 41
0.75
 51
0.0
  7
KANJI36
  0
TEXT
  8
0
  6
CONTINUOUS
 62
     4
 10
2866.32002936
 20
2254.9333328
 30
2.07999984
 40
20.7999984
  1
３
 50
0.0
 41
0.75
 51
0.0
  7
KANJI37
  0
TEXT
  8
0
  6
CONTINUOUS
 62
     4
 10
2883.65336136
 20
2254.9333328
 30
1.38666656
 40
13.8666656
  1
ＲＤ　ＡＮＧＬＥ　ＰＲＯＪＥＣＴＩＯＮ　第３角法
 50
0.0
 41
0.75
 51
0.0
  7
KANJI36
  0
TEXT
  8
0
  6
CONTINUOUS
 62
     4
 10
2706.85337496
 20
2254.9333328
 30
1.247999904
 40
12.47999904
  1
メートルネジ使用
 50
0.0
 41
0.75
 51
0.0
  7
KANJI38
  0
LINE
  8
0
  6
CONTINUOUS
 62
     4
 10
2173.333416
 20
491.1999696
 11
2173.333416
 21
546.666632
  0
TEXT
  8
0
  6
CONTINUOUS
 62
     4
 10
2187.2000816
 20
245.0666552
 30
1.38666656
 40
13.8666656
  1
ＤＲＡＷＮ
 50
0.0
 41
0.6
 51
0.0
  7
KANJI39
  0
TEXT
  8
0
  6
CONTINUOUS
 62
     4
 10
2187.2000816
 20
300.5333176
 30
1.38666656
 40
13.8666656
  1
ＤＥＳＩＧＮ
 50
0.0
 41
0.6
 51
0.0
  7
KANJI39
  0
TEXT
  8
0
  6
CONTINUOUS
 62
     4
 10
2187.2000816
 20
355.99998
 30
1.38666656
 40
13.8666656
  1
ＣＨＥＣＫ
 50
0.0
 41
0.6
 51
0.0
  7
KANJI39
  0
TEXT
  8
0
  6
CONTINUOUS
 62
     4
 10
2187.2000816
 20
411.4666424
 30
1.38666656
 40
13.8666656
  1
ＣＯＤＥ
 50
0.0
 41
0.6
 51
0.0
  7
KANJI39
  0
LINE
  8
0
  6
CONTINUOUS
 62
     4
 10
2173.333416
 20
324.7999824
 11
2426.4000632
 21
324.7999824
  0
LINE
  8
0
  6
CONTINUOUS
 62
     4
 10
2173.333416
 20
269.33332
 11
2426.4000632
 21
269.33332
  0
LINE
  8
0
  6
CONTINUOUS
 62
     4
 10
2173.333416
 20
380.2666448
 11
2426.4000632
 21
380.2666448
  0
LINE
  8
0
  6
CONTINUOUS
 62
     4
 10
2173.333416
 20
435.7333072
 11
3241.0666672
 21
435.7333072
  0
TEXT
  8
0
  6
CONTINUOUS
 62
     4
 10
2187.2000816
 20
279.7333192
 30
1.663999872
 40
16.63999872
  1
設計
 50
0.0
 41
0.6
 51
0.0
  7
KANJI40
  0
TEXT
  8
0
  6
CONTINUOUS
 62
     4
 10
2187.2000816
 20
335.1999816
 30
1.663999872
 40
16.63999872
  1
検図
 50
0.0
 41
0.6
 51
0.0
  7
KANJI40
  0
TEXT
  8
0
  6
CONTINUOUS
 62
     4
 10
2187.2000816
 20
390.666644
 30
1.663999872
 40
16.63999872
  1
分類
 50
0.0
 41
0.6
 51
0.0
  7
KANJI40
  0
LINE
  8
0
  6
CONTINUOUS
 62
     4
 10
2446.85339496
 20
380.2666448
 11
3241.0666672
 21
380.2666448
  0
LINE
  8
0
  6
CONTINUOUS
 62
     4
 10
2426.4000632
 20
269.33332
 11
3241.0666672
 21
269.33332
  0
TEXT
  8
0
  6
CONTINUOUS
 62
     4
 10
2440.2667288
 20
245.0666552
 30
1.38666656
 40
13.8666656
  1
ＤＲＡＷＩＮＧ　ＮＯ．
 50
0.0
 41
0.8
 51
0.0
  7
KANJI41
  0
TEXT
  8
0
  6
CONTINUOUS
 62
     4
 10
2440.2667288
 20
300.5333176
 30
1.38666656
 40
13.8666656
  1
ＭＦＧ　ＮＯ．
 50
0.0
 41
0.8
 51
0.0
  7
KANJI41
  0
TEXT
  8
0
  6
CONTINUOUS
 62
     4
 10
2440.2667288
 20
355.99998
 30
1.38666656
 40
13.8666656
  1
ＴＹＰＥ
 50
0.0
 41
0.8
 51
0.0
  7
KANJI41
  0
LINE
  8
0
  6
CONTINUOUS
 62
     4
 10
2447.2000616
 20
324.7999824
 11
2766.1333704
 21
324.7999824
  0
TEXT
  8
0
  6
CONTINUOUS
 62
     4
 10
2440.2667288
 20
220.7999904
 30
1.663999872
 40
16.63999872
  1
図　面　番　号
 50
0.0
 41
0.8
 51
0.0
  7
KANJI42
  0
TEXT
  8
0
  6
CONTINUOUS
 62
     4
 10
2440.2667288
 20
276.2666528
 30
1.663999872
 40
16.63999872
  1
製番
 50
0.0
 41
0.8
 51
0.0
  7
KANJI42
  0
TEXT
  8
0
  6
CONTINUOUS
 62
     4
 10
2440.2667288
 20
331.7333152
 30
1.663999872
 40
16.63999872
  1
機種
 50
0.0
 41
0.8
 51
0.0
  7
KANJI42
  0
LINE
  8
0
  6
CONTINUOUS
 62
     4
 10
2173.333416
 20
158.3999952
 11
2426.4000632
 21
158.3999952
  0
LINE
  8
0
  6
CONTINUOUS
 62
     4
 10
2173.333416
 20
213.8666576
 11
2426.4000632
 21
213.8666576
  0
TEXT
  8
0
  6
CONTINUOUS
 62
     4
 10
2187.2000816
 20
134.1333304
 30
1.38666656
 40
13.8666656
  1
ＳＣＡＬＥ
 50
0.0
 41
0.6
 51
0.0
  7
KANJI39
  0
TEXT
  8
0
  6
CONTINUOUS
 62
     4
 10
2187.2000816
 20
189.5999928
 30
1.38666656
 40
13.8666656
  1
ＤＡＴＥ
 50
0.0
 41
0.6
 51
0.0
  7
KANJI39
  0
TEXT
  8
0
  6
CONTINUOUS
 62
     4
 10
2187.2000816
 20
113.333332
 30
1.663999872
 40
16.63999872
  1
尺度
 50
0.0
 41
0.6
 51
0.0
  7
KANJI40
  0
TEXT
  8
0
  6
CONTINUOUS
 62
     4
 10
2187.2000816
 20
168.7999944
 30
1.663999872
 40
16.63999872
  1
日付
 50
0.0
 41
0.6
 51
0.0
  7
KANJI40
  0
TEXT
  8
0
  6
CONTINUOUS
 62
     4
 10
2187.2000816
 20
224.2666568
 30
1.663999872
 40
16.63999872
  1
作図
 50
0.0
 41
0.6
 51
0.0
  7
KANJI40
  0
LINE
  8
0
  6
CONTINUOUS
 62
     4
 10
1781.6001128
 20
102.9333328
 11
1781.6001128
 21
158.3999952
  0
LINE
  8
0
  6
CONTINUOUS
 62
     4
 10
1844.000108
 20
102.9333328
 11
1844.000108
 21
158.3999952
  0
TEXT
  8
0
  6
CONTINUOUS
 62
     4
 10
1802.4001112
 20
134.1333304
 30
1.38666656
 40
13.8666656
  1
ＢＹ
 50
0.0
 41
0.6
 51
0.0
  7
KANJI39
  0
TEXT
  8
0
  6
CONTINUOUS
 62
     4
 10
1954.9334328
 20
134.1333304
 30
1.38666656
 40
13.8666656
  1
ＤＥＳＣＲＩＰＴＩＯＮ
 50
0.0
 41
0.6
 51
0.0
  7
KANJI39
  0
TEXT
  8
0
  6
CONTINUOUS
 62
     4
 10
1802.4001112
 20
113.333332
 30
1.663999872
 40
16.63999872
  1
担当
 50
0.0
 41
0.6
 51
0.0
  7
KANJI40
  0
TEXT
  8
0
  6
CONTINUOUS
 62
     4
 10
1975.7334312
 20
113.333332
 30
1.663999872
 40
16.63999872
  1
記　　　　事
 50
0.0
 41
0.6
 51
0.0
  7
KANJI40
  0
LINE
  8
0
  6
CONTINUOUS
 62
     4
 10
1655.0667892
 20
147.999996
 11
1632.5334576
 21
113.333332
  0
TEXT
  8
0
  6
CONTINUOUS
 62
     4
 10
1712.2667848
 20
134.1333304
 30
1.38666656
 40
13.8666656
  1
ＤＡＴＥ
 50
0.0
 41
0.6
 51
0.0
  7
KANJI39
  0
TEXT
  8
0
  6
CONTINUOUS
 62
     4
 10
1722.666784
 20
113.333332
 30
1.663999872
 40
16.63999872
  1
日付
 50
0.0
 41
0.6
 51
0.0
  7
KANJI40
  0
LINE
  8
0
  6
CONTINUOUS
 62
     4
 10
1632.5334576
 20
113.333332
 11
1677.6001208
 21
113.333332
  0
LINE
  8
0
  6
CONTINUOUS
 62
     4
 10
1684.5334536
 20
102.9333328
 11
1684.5334536
 21
158.3999952
  0
LINE
  8
0
  6
CONTINUOUS
 62
     4
 10
1655.0667892
 20
147.999996
 11
1677.6001208
 21
113.333332
  0
LINE
  8
0
  6
CONTINUOUS
 62
     4
 10
2426.4000632
 20
189.5999928
 11
3241.0666672
 21
189.5999928
  0
LINE
  8
0
  6
CONTINUOUS
 62
     4
 10
2426.4000632
 20
102.9333328
 11
2426.4000632
 21
435.7333072
  0
LINE
  8
0
  6
LTYPE3
 62
     4
 10
3008.8000184
 20
199.999992
 11
3008.8000184
 21
255.4666544
  0
LINE
  8
0
  6
LTYPE3
 62
     4
 10
2960.2666888
 20
199.999992
 11
2960.2666888
 21
255.4666544
  0
LINE
  8
0
  6
LTYPE3
 62
     4
 10
2911.7333592
 20
199.999992
 11
2911.7333592
 21
255.4666544
  0
LINE
  8
0
  6
LTYPE3
 62
     4
 10
2863.2000296
 20
199.999992
 11
2863.2000296
 21
255.4666544
  0
LINE
  8
0
  6
LTYPE3
 62
     4
 10
2814.6667
 20
199.999992
 11
2814.6667
 21
255.4666544
  0
LINE
  8
0
  6
LTYPE3
 62
     4
 10
2766.1333704
 20
199.999992
 11
2766.1333704
 21
255.4666544
  0
LINE
  8
0
  6
LTYPE3
 62
     4
 10
2717.6000408
 20
199.999992
 11
2717.6000408
 21
255.4666544
  0
LINE
  8
0
  6
LTYPE3
 62
     4
 10
2669.0667112
 20
199.999992
 11
2669.0667112
 21
255.4666544
  0
LINE
  8
0
  6
LTYPE3
 62
     4
 10
2669.0667112
 20
255.4666544
 11
3008.8000184
 21
255.4666544
  0
LINE
  8
0
  6
LTYPE3
 62
     4
 10
2669.0667112
 20
199.999992
 11
3008.8000184
 21
199.999992
  0
LINE
  8
0
  6
CONTINUOUS
 62
     4
 10
3036.5333496
 20
229.4666564
 11
3050.4000152
 21
229.4666564
  0
LINE
  8
0
  6
CONTINUOUS
 62
     4
 10
3123.2000096
 20
208.666658
 11
3074.66668
 21
208.666658
  0
LINE
  8
0
  6
CONTINUOUS
 62
     4
 10
3074.66668
 20
208.666658
 11
3098.9333448
 21
250.2666548
  0
LINE
  8
0
  6
CONTINUOUS
 62
     4
 10
3098.9333448
 20
250.2666548
 11
3123.2000096
 21
208.666658
  0
LINE
  8
0
  6
CONTINUOUS
 62
     4
 10
3241.0666672
 20
491.1999696
 11
3241.0666672
 21
546.666632
  0
LINE
  8
0
  6
CONTINUOUS
 62
     4
 10
2173.333416
 20
546.666632
 11
3241.0666672
 21
546.666632
  0
LINE
  8
0
  6
CONTINUOUS
 62
     4
 10
3254.9333328
 20
102.9333328
 11
3338.1333264
 21
102.9333328
  0
LINE
  8
0
  6
CONTINUOUS
 62
     4
 10
3254.9333328
 20
144.5333296
 11
3338.1333264
 21
144.5333296
  0
LINE
  8
0
  6
CONTINUOUS
 62
     4
 10
3254.9333328
 20
186.1333264
 11
3338.1333264
 21
186.1333264
  0
LINE
  8
0
  6
CONTINUOUS
 62
     4
 10
3254.9333328
 20
227.7333232
 11
3338.1333264
 21
227.7333232
  0
LINE
  8
0
  6
CONTINUOUS
 62
     4
 10
3254.9333328
 20
269.33332
 11
3338.1333264
 21
269.33332
  0
LINE
  8
0
  6
CONTINUOUS
 62
     4
 10
3254.9333328
 20
310.9333168
 11
3338.1333264
 21
310.9333168
  0
LINE
  8
0
  6
CONTINUOUS
 62
     4
 10
3254.9333328
 20
352.5333136
 11
3338.1333264
 21
352.5333136
  0
LINE
  8
0
  6
CONTINUOUS
 62
     4
 10
3254.9333328
 20
394.1333104
 11
3338.1333264
 21
394.1333104
  0
LINE
  8
0
  6
CONTINUOUS
 62
     4
 10
3254.9333328
 20
435.7333072
 11
3338.1333264
 21
435.7333072
  0
LINE
  8
0
  6
CONTINUOUS
 62
     4
 10
3254.9333328
 20
477.333304
 11
3338.1333264
 21
477.333304
  0
LINE
  8
0
  6
CONTINUOUS
 62
     4
 10
3338.1333264
 20
102.9333328
 11
3338.1333264
 21
477.333304
  0
LINE
  8
0
  6
CONTINUOUS
 62
     4
 10
3296.5333296
 20
102.9333328
 11
3296.5333296
 21
435.7333072
  0
TEXT
  8
0
  6
CONTINUOUS
 62
     4
 10
3269.14666504
 20
115.0666652
 30
2.07999984
 40
20.7999984
  1
計
 50
0.0
 41
0.75
 51
0.0
  7
KANJI43
  0
TEXT
  8
0
  6
CONTINUOUS
 62
     4
 10
3269.14666504
 20
198.95999208
 30
2.07999984
 40
20.7999984
  1
設
 50
0.0
 41
0.75
 51
0.0
  7
KANJI43
  0
TEXT
  8
0
  6
CONTINUOUS
 62
     4
 10
3269.14666504
 20
239.8666556
 30
2.07999984
 40
20.7999984
  1
管
 50
0.0
 41
0.75
 51
0.0
  7
KANJI43
  0
TEXT
  8
0
  6
CONTINUOUS
 62
     4
 10
3269.14666504
 20
281.4666524
 30
2.07999984
 40
20.7999984
  1
製
 50
0.0
 41
0.75
 51
0.0
  7
KANJI43
  0
TEXT
  8
0
  6
CONTINUOUS
 62
     4
 10
3269.14666504
 20
323.0666492
 30
2.07999984
 40
20.7999984
  1
資
 50
0.0
 41
0.75
 51
0.0
  7
KANJI43
  0
TEXT
  8
0
  6
CONTINUOUS
 62
     4
 10
3269.14666504
 20
364.666646
 30
2.07999984
 40
20.7999984
  1
営
 50
0.0
 41
0.75
 51
0.0
  7
KANJI43
  0
TEXT
  8
0
  6
CONTINUOUS
 62
     4
 10
3269.14666504
 20
406.2666428
 30
2.07999984
 40
20.7999984
  1
客
 50
0.0
 41
0.75
 51
0.0
  7
KANJI43
  0
TEXT
  8
0
  6
CONTINUOUS
 62
     4
 10
3268.7999984
 20
449.5999728
 30
2.07999984
 40
20.7999984
  1
出　図
 50
0.0
 41
0.75
 51
0.0
  7
KANJI43
  0
LINE
  8
0
  6
CONTINUOUS
 62
     4
 10
3254.9333328
 20
102.9333328
 11
3254.9333328
 21
477.333304
  0
TEXT
  8
0
  6
CONTINUOUS
 62
     4
 10
3130.1333424
 20
26.666672
 30
6.9333328
 40
69.333328
  1
／
 50
0.0
 41
0.9
 51
0.0
  7
KANJI44
  0
TEXT
  8
0
  6
CONTINUOUS
 62
     4
 10
2786.9333688
 20
355.99998
 30
1.38666656
 40
13.8666656
  1
ＴＩＴＬＥ
 50
0.0
 41
0.8
 51
0.0
  7
KANJI41
  0
TEXT
  8
0
  6
CONTINUOUS
 62
     4
 10
2786.9333688
 20
331.7333152
 30
1.663999872
 40
16.63999872
  1
名称
 50
0.0
 41
0.8
 51
0.0
  7
KANJI42
  0
LINE
  8
0
  6
CONTINUOUS
 62
     6
 10
152.0
 20
96.0
 11
152.0
 21
2248.0
  0
LINE
  8
0
  6
CONTINUOUS
 62
     6
 10
152.0
 20
2248.0
 11
3248.0
 21
2248.0
  0
LINE
  8
0
  6
CONTINUOUS
 62
     6
 10
3248.0
 20
2248.0
 11
3248.0
 21
96.0
  0
LINE
  8
0
  6
CONTINUOUS
 62
     6
 10
3248.0
 20
96.0
 11
152.0
 21
96.0
  0
LINE
  8
0
  6
CONTINUOUS
 62
     6
 10
679.999888985
 20
103.999998318
 11
679.999888985
 21
215.999974769
  0
LINE
  8
0
  6
CONTINUOUS
 62
     6
 10
159.999998318
 20
215.999974769
 11
679.999888985
 21
215.999974769
  0
LINE
  8
0
  6
CONTINUOUS
 62
     6
 10
159.999998318
 20
103.999998318
 11
679.999888985
 21
103.999998318
  0
LINE
  8
0
  6
CONTINUOUS
 62
     6
 10
159.999998318
 20
103.999998318
 11
159.999998318
 21
215.999974769
  0
LINE
  8
0
  6
CONTINUOUS
 62
     6
 10
519.999922626
 20
103.999998318
 11
519.999922626
 21
215.999974769
  0
LINE
  8
0
  6
CONTINUOUS
 62
     6
 10
159.999998318
 20
159.999986544
 11
679.999888985
 21
159.999986544
  0
TEXT
  8
0
  6
CONTINUOUS
 62
     3
 10
175.999994954
 20
175.999983179
 30
2.399999495
 40
23.999994954
  1
ＰＬ
 50
0.0
 41
0.9
 51
0.0
  7
KANJI45
  0
LINE
  8
0
  6
CONTINUOUS
 62
     6
 10
1625.6001248
 20
102.9333328
 11
1625.6001248
 21
158.3999952
  0
LINE
  8
0
  6
CONTINUOUS
 62
     6
 10
1625.6001248
 20
158.3999952
 11
2173.333416
 21
158.3999952
  0
LINE
  8
0
  6
CONTINUOUS
 62
     6
 10
1625.6001248
 20
102.9333328
 11
3241.0666672
 21
102.9333328
  0
LINE
  8
0
  6
CONTINUOUS
 62
     6
 10
2173.333416
 20
102.9333328
 11
2173.333416
 21
491.1999696
  0
LINE
  8
0
  6
CONTINUOUS
 62
     6
 10
2718.20670742
 20
139.67999664
 11
2695.32670918
 21
139.67999664
  0
LINE
  8
0
  6
CONTINUOUS
 62
     6
 10
2718.20670742
 20
143.83999632
 11
2695.32670918
 21
143.83999632
  0
LINE
  8
0
  6
CONTINUOUS
 62
     6
 10
2718.20670742
 20
139.67999664
 11
2741.08670566
 21
139.67999664
  0
LINE
  8
0
  6
CONTINUOUS
 62
     6
 10
2718.20670742
 20
143.83999632
 11
2741.08670566
 21
143.83999632
  0
LINE
  8
0
  6
CONTINUOUS
 62
     6
 10
2741.08670566
 20
143.83999632
 11
2741.08670566
 21
139.67999664
  0
ARC
  8
0
  6
CONTINUOUS
 62
     6
 10
2746.28670526
 20
141.75999648
 40
20.7999984
 50
185.739170477
 51
90.0
  0
ARC
  8
0
  6
CONTINUOUS
 62
     6
 10
2746.28670526
 20
141.75999648
 40
24.95999808
 50
184.780191847
 51
90.0
  0
LINE
  8
0
  6
CONTINUOUS
 62
     6
 10
2695.32670918
 20
139.67999664
 11
2695.32670918
 21
143.83999632
  0
TEXT
  8
0
  6
CONTINUOUS
 62
     6
 10
2433.333396
 20
134.1333304
 30
0.0
 40
24.2666648
  1
ＵＮＩＴＥＣ　ＩＮＤＵＳＴＲＹ　ＣＯ．，ＬＴＤ．
 50
0.0
 41
0.42031746
 51
0.0
  7
KANJI46
  0
LINE
  8
0
  6
CONTINUOUS
 62
     6
 10
2715.08670766
 20
166.71999456
 11
2690.12670958
 21
166.71999456
  0
LINE
  8
0
  6
CONTINUOUS
 62
     6
 10
2721.32670718
 20
166.71999456
 11
2746.28670526
 21
166.71999456
  0
ARC
  8
0
  6
CONTINUOUS
 62
     6
 10
2690.12670958
 20
141.75999648
 40
20.7999984
 50
90.0
 51
354.260829523
  0
ARC
  8
0
  6
CONTINUOUS
 62
     6
 10
2690.12670958
 20
141.75999648
 40
24.95999808
 50
90.0
 51
355.219808153
  0
LINE
  8
0
  6
CONTINUOUS
 62
     6
 10
2715.08670766
 20
166.71999456
 11
2715.08670766
 21
162.55999488
  0
LINE
  8
0
  6
CONTINUOUS
 62
     6
 10
2690.12670958
 20
162.55999488
 11
2715.08670766
 21
162.55999488
  0
LINE
  8
0
  6
CONTINUOUS
 62
     6
 10
2721.32670718
 20
166.71999456
 11
2721.32670718
 21
162.55999488
  0
LINE
  8
0
  6
CONTINUOUS
 62
     6
 10
2746.28670526
 20
162.55999488
 11
2721.32670718
 21
162.55999488
  0
TEXT
  8
0
  6
CONTINUOUS
 62
     6
 10
2773.67336982
 20
125.11999776
 30
4.15999968
 40
41.5999968
  1
ユニテック工業株式会社
 50
0.0
 41
0.9
 51
0.0
  7
KANJI47
  0
LINE
  8
0
  6
CONTINUOUS
 62
     6
 10
2173.333416
 20
491.1999696
 11
3241.0666672
 21
491.1999696
  0
LINE
  8
0
  6
CONTINUOUS
 62
     6
 10
3241.0666672
 20
102.9333328
 11
3241.0666672
 21
491.1999696
  0
TEXT
  8
0
  6
CONTINUOUS
 62
     2
 10
2320.0
 20
785.2
 30
8.208
 40
28.8
  1
２。モートル：全閉自冷かご形３０分定格
 50
0.0
 41
0.857222222
 51
0.0
  7
KANJI48
  0
TEXT
  8
0
  6
CONTINUOUS
 62
     2
 10
2320.0
 20
734.4
 30
8.208
 40
28.8
  1
３。ＬＳユニット
 50
0.0
 41
0.857222222
 51
0.0
  7
KANJI48
  0
TEXT
  8
0
  6
CONTINUOUS
 62
     2
 10
2320.0
 20
688.6
 30
8.208
 40
28.8
  1
　　リミットＳＷ：１ＬＳ１Ｊ　Ｘ　２ケ（山武）
 50
0.0
 41
0.857222222
 51
0.0
  7
KANJI48
  0
TEXT
  8
0
  6
CONTINUOUS
 62
     2
 10
2320.0
 20
647.8
 30
8.208
 40
28.8
  1
　　ストローク７００ｍｍ以上の場合２ロッド方式となります。
 50
0.0
 41
0.857222222
 51
0.0
  7
KANJI48
  0
TEXT
  8
0
  6
CONTINUOUS
 62
     3
 10
2239.4667112
 20
169.599992
 30
2.4
 40
28.0
  1
９９．０７．０６
 50
0.0
 41
0.571428571
 51
0.0
  7
KANJI32
  0
TEXT
  8
0
  6
CONTINUOUS
 62
     3
 10
2292.0
 20
112.0
 30
2.4
 40
36.0
  1
１／８
 50
0.0
 41
0.666666667
 51
0.0
  7
KANJI49
  0
TEXT
  8
0
  6
CONTINUOUS
 62
     3
 10
2628.5333816
 20
207.999992
 30
17.333333333
 40
40.0
  1
Ａ３００１１２４
 50
0.0
 41
0.8
 51
0.0
  7
KANJI50
  0
TEXT
  8
0
  6
CONTINUOUS
 62
     2
 10
2544.0
 20
336.0
 30
0.0
 40
28.0
  1
ＭＣＬＧ８－ＪＬ
 50
0.0
 41
0.793650794
 51
0.0
  7
KANJI51
  0
TEXT
  8
0
  6
CONTINUOUS
 62
     3
 10
2618.5
 20
275.0
 30
2.4
 40
32.0
  1
Ｓ
 50
0.0
 41
0.75
 51
0.0
  7
KANJI52
  0
CIRCLE
  8
0
  6
CONTINUOUS
 62
     3
 10
2629.5
 20
291.5
 40
21.708293346
  0
TEXT
  8
0
  6
CONTINUOUS
 62
     3
 10
2910.0
 20
280.0
 30
20.0
 40
40.0
  1
外形寸法図
 50
0.0
 41
1.0
 51
0.0
  7
KANJI53
  0
TEXT
  8
0
  6
CONTINUOUS
 62
     3
 10
2862.0
 20
328.0
 30
5.714285714
 40
40.0
  1
マイティシリンダ
 50
0.0
 41
1.0
 51
0.0
  7
KANJI54
  0
ARC
  8
0
  6
CONTINUOUS
 62
     1
 10
2179.5
 20
1534.7
 40
150.0
 50
116.704852248
 51
150.427488945
  0
LINE
  8
0
  6
CONTINUOUS
 62
     1
 10
2112.090801815
 20
1668.7
 11
2129.5
 21
1668.7
  0
LINE
  8
0
  6
CONTINUOUS
 62
     1
 10
2049.5
 20
1390.225525817
 11
2049.5
 21
1609.533147735
  0
ARC
  8
0
  6
CONTINUOUS
 62
     1
 10
2179.5
 20
1534.7
 40
150.0
 50
29.572511055
 51
63.295147752
  0
LINE
  8
0
  6
CONTINUOUS
 62
     1
 10
2246.909198185
 20
1668.7
 11
2229.5
 21
1668.7
  0
LINE
  8
0
  6
CONTINUOUS
 62
     1
 10
2309.5
 20
1350.761874274
 11
2309.5
 21
1609.533147735
  0
LINE
  8
0
  6
CONTINUOUS
 62
     1
 10
2041.9
 20
1420.0
 11
2041.9
 21
1540.0
  0
LINE
  8
0
  6
LTYPE0
 62
     2
 10
2064.1
 20
1530.0
 11
2037.1
 21
1530.0
  0
LINE
  8
0
  6
LTYPE0
 62
     2
 10
2064.1
 20
1430.0
 11
2039.1
 21
1430.0
  0
LINE
  8
0
  6
CONTINUOUS
 62
     1
 10
2049.5
 20
1420.0
 11
2041.9
 21
1420.0
  0
LINE
  8
0
  6
CONTINUOUS
 62
     1
 10
2049.5
 20
1540.0
 11
2041.9
 21
1540.0
  0
LINE
  8
0
  6
CONTINUOUS
 62
     1
 10
2317.1
 20
1420.0
 11
2317.1
 21
1540.0
  0
LINE
  8
0
  6
LTYPE0
 62
     2
 10
2294.9
 20
1530.0
 11
2321.9
 21
1530.0
  0
LINE
  8
0
  6
LTYPE0
 62
     2
 10
2294.9
 20
1430.0
 11
2319.9
 21
1430.0
  0
LINE
  8
0
  6
CONTINUOUS
 62
     1
 10
2309.5
 20
1420.0
 11
2317.1
 21
1420.0
  0
LINE
  8
0
  6
CONTINUOUS
 62
     1
 10
2309.5
 20
1540.0
 11
2317.1
 21
1540.0
  0
LINE
  8
6
  6
CONTINUOUS
 62
     2
 10
1741.500190206
 20
1347.5
 11
1736.323809304
 21
1328.181483474
  0
LINE
  8
6
  6
CONTINUOUS
 62
     2
 10
1741.500190206
 20
1347.5
 11
1746.676571108
 21
1328.181483474
  0
LINE
  8
6
  6
CONTINUOUS
 62
     2
 10
1741.500190206
 20
1347.5
 11
1741.500190206
 21
1252.5
  0
LINE
  8
6
  6
CONTINUOUS
 62
     2
 10
1741.500190206
 20
1252.5
 11
1746.676571108
 21
1271.818516526
  0
LINE
  8
6
  6
CONTINUOUS
 62
     2
 10
1741.500190206
 20
1252.5
 11
1736.323809304
 21
1271.818516526
  0
TEXT
  8
6
  6
CONTINUOUS
 62
     2
 10
1733.500190206
 20
1265.2
 30
2.4
 40
24.0
  1
φ９５
 50
90.0
 41
0.9
 51
0.0
  7
KANJI0
  0
LINE
  8
6
  6
CONTINUOUS
 62
     2
 10
1632.500190206
 20
1252.5
 11
1753.500190206
 21
1252.5
  0
LINE
  8
6
  6
CONTINUOUS
 62
     2
 10
1631.500190206
 20
1347.5
 11
1753.500190206
 21
1347.5
  0
LINE
  8
6
  6
CONTINUOUS
 62
     2
 10
595.0
 20
1851.5
 11
1060.0
 21
1851.5
  0
LINE
  8
0
  6
CONTINUOUS
 62
     1
 10
385.0
 20
1511.0
 11
385.0
 21
1551.0
  0
LINE
  8
0
  6
CONTINUOUS
 62
     1
 10
440.0
 20
1551.0
 11
385.0
 21
1551.0
  0
LINE
  8
0
  6
CONTINUOUS
 62
     1
 10
440.0
 20
1511.0
 11
385.0
 21
1511.0
  0
TEXT
  8
0
  6
CONTINUOUS
 62
     2
 10
237.775
 20
1702.705
 30
0.0
 40
24.0
  1
手動軸カバー
 50
0.0
 41
0.9
 51
0.0
  7
KANJI14
  0
LINE
  8
0
  6
CONTINUOUS
 62
     2
 10
220.0
 20
1692.136279533
 11
399.443197588
 21
1692.136279533
  0
LINE
  8
0
  6
CONTINUOUS
 62
     2
 10
426.0
 20
1550.5
 11
399.443197588
 21
1692.136279533
  0
LINE
  8
1
  6
CONTINUOUS
 62
     2
 10
595.0
 20
1851.5
 11
575.681483474
 21
1856.676380902
  0
LINE
  8
1
  6
CONTINUOUS
 62
     2
 10
595.0
 20
1851.5
 11
575.681483474
 21
1846.323619098
  0
LINE
  8
1
  6
CONTINUOUS
 62
     2
 10
595.0
 20
1851.5
 11
385.0
 21
1851.5
  0
LINE
  8
1
  6
CONTINUOUS
 62
     2
 10
385.0
 20
1851.5
 11
404.318516526
 21
1846.323619098
  0
LINE
  8
1
  6
CONTINUOUS
 62
     2
 10
385.0
 20
1851.5
 11
404.318516526
 21
1856.676380902
  0
TEXT
  8
1
  6
CONTINUOUS
 62
     2
 10
449.2
 20
1859.5
 30
2.4
 40
24.0
  1
２１０
 50
0.0
 41
0.9
 51
0.0
  7
KANJI1
  0
LINE
  8
0
  6
CONTINUOUS
 62
     2
 10
385.0
 20
1561.0
 11
385.0
 21
1863.0
  0
LINE
  8
1
  6
CONTINUOUS
 62
     2
 10
385.0
 20
1786.5
 11
404.318516526
 21
1781.323619098
  0
LINE
  8
1
  6
CONTINUOUS
 62
     2
 10
385.0
 20
1786.5
 11
404.318516526
 21
1791.676380902
  0
LINE
  8
1
  6
CONTINUOUS
 62
     2
 10
385.0
 20
1786.5
 11
440.0
 21
1786.5
  0
LINE
  8
1
  6
CONTINUOUS
 62
     2
 10
440.0
 20
1786.5
 11
420.681483474
 21
1791.676380902
  0
LINE
  8
1
  6
CONTINUOUS
 62
     2
 10
440.0
 20
1786.5
 11
420.681483474
 21
1781.323619098
  0
LINE
  8
1
  6
CONTINUOUS
 62
     2
 10
440.0
 20
1598.0
 11
440.0
 21
1794.5
  0
TEXT
  8
1
  6
CONTINUOUS
 62
     2
 10
398.0
 20
1794.5
 30
2.4
 40
24.0
  1
５５
 50
0.0
 41
0.9
 51
0.0
  7
KANJI1
  0
LINE
  8
6
  6
CONTINUOUS
 62
     2
 10
1917.5
 20
1746.0
 11
1912.323619098
 21
1726.681483474
  0
LINE
  8
6
  6
CONTINUOUS
 62
     2
 10
1917.5
 20
1746.0
 11
1922.676380902
 21
1726.681483474
  0
LINE
  8
0
  6
CONTINUOUS
 62
     2
 10
1843.0
 20
1746.0
 11
1837.823619098
 21
1726.681483474
  0
LINE
  8
0
  6
CONTINUOUS
 62
     2
 10
1843.0
 20
1746.0
 11
1848.176380902
 21
1726.681483474
  0
LINE
  8
6
  6
CONTINUOUS
 62
     2
 10
1917.5
 20
1531.0
 11
1917.5
 21
1746.0
  0
LINE
  8
6
  6
CONTINUOUS
 62
     2
 10
2123.5
 20
1746.0
 11
1835.0
 21
1746.0
  0
TEXT
  8
6
  6
CONTINUOUS
 62
     2
 10
1969.5
 20
1311.5
 30
2.4
 40
24.0
  1
φ４５Ｈ１０深５０
 50
90.0
 41
0.9
 51
0.0
  7
KANJI0
  0
LINE
  8
0
  6
CONTINUOUS
 62
     2
 10
1843.0
 20
1165.0
 11
1843.0
 21
1746.0
  0
LINE
  8
6
  6
CONTINUOUS
 62
     2
 10
843.000190206
 20
1698.5
 11
856.397725177
 21
1713.349446343
  0
LINE
  8
6
  6
CONTINUOUS
 62
     2
 10
843.000190206
 20
1698.5
 11
847.178072668
 21
1718.058765251
  0
LINE
  8
6
  6
CONTINUOUS
 62
     2
 10
843.000190206
 20
1698.5
 11
878.500190206
 21
1768.0
  0
LINE
  8
6
  6
CONTINUOUS
 62
     2
 10
878.500190206
 20
1768.0
 11
996.100190206
 21
1768.0
  0
TEXT
  8
6
  6
CONTINUOUS
 62
     2
 10
878.500190206
 20
1776.0
 30
2.4
 40
24.0
  1
ＰＦ３／４
 50
0.0
 41
0.9
 51
0.0
  7
KANJI1
  0
TEXT
  8
0
  6
CONTINUOUS
 62
     2
 10
2978.0
 20
1993.2
 30
1.6
 40
24.0
  1
ＭＣＬＧ８－　　ＪＬ
 50
0.0
 41
0.833333333
 51
0.0
  7
KANJI55
  0
TEXT
  8
0
  6
CONTINUOUS
 62
     2
 10
2967.8
 20
1826.2
 30
2.4
 40
24.0
  1
３０／３６
 50
0.0
 41
0.9
 51
0.0
  7
KANJI1
  0
TEXT
  8
0
  6
CONTINUOUS
 62
     2
 10
2985.8
 20
1548.2
 30
2.4
 40
24.0
  1
３．７
 50
0.0
 41
0.9
 51
0.0
  7
KANJI1
  0
TEXT
  8
0
  6
CONTINUOUS
 62
     2
 10
3016.8
 20
1491.2
 30
2.4
 40
24.0
  1
　　　／　
 50
0.0
 41
0.9
 51
0.0
  7
KANJI1
  0
TEXT
  8
0
  6
CONTINUOUS
 62
     2
 10
3010.0
 20
1385.0
 30
2.4
 40
24.0
  1
　　　／
 50
0.0
 41
0.9
 51
0.0
  7
KANJI1
  0
TEXT
  8
0
  6
CONTINUOUS
 62
     2
 10
1101.2
 20
622.0
 30
2.4
 40
24.0
  1
１１０５
 50
0.0
 41
0.9
 51
0.0
  7
KANJI1
  0
TEXT
  8
0
  6
CONTINUOUS
 62
     2
 10
1286.0
 20
623.6
 30
2.4
 40
24.0
  1
８８０
 50
0.0
 41
0.9
 51
0.0
  7
KANJI1
  0
TEXT
  8
0
  6
CONTINUOUS
 62
     2
 10
1778.8
 20
624.4
 30
2.4
 40
24.0
  1
２６１
 50
0.0
 41
0.9
 51
0.0
  7
KANJI1
  0
TEXT
  8
0
  6
CONTINUOUS
 62
     2
 10
1101.2
 20
566.0
 30
2.4
 40
24.0
  1
１３６７
 50
0.0
 41
0.9
 51
0.0
  7
KANJI1
  0
TEXT
  8
0
  6
CONTINUOUS
 62
     2
 10
1778.8
 20
568.4
 30
2.4
 40
24.0
  1
２７２
 50
0.0
 41
0.9
 51
0.0
  7
KANJI1
  0
TEXT
  8
0
  6
CONTINUOUS
 62
     2
 10
944.5
 20
453.4
 30
2.4
 40
24.0
  1
１０００
 50
0.0
 41
0.9
 51
0.0
  7
KANJI1
  0
TEXT
  8
0
  6
CONTINUOUS
 62
     2
 10
1421.6
 20
457.0
 30
2.4
 40
24.0
  1
１４７０
 50
0.0
 41
0.9
 51
0.0
  7
KANJI1
  0
TEXT
  8
0
  6
CONTINUOUS
 62
     2
 10
1595.8
 20
457.0
 30
2.4
 40
24.0
  1
２３１
 50
0.0
 41
0.9
 51
0.0
  7
KANJI1
  0
TEXT
  8
0
  6
CONTINUOUS
 62
     2
 10
968.0
 20
509.4
 30
2.4
 40
24.0
  1
７００
 50
0.0
 41
0.9
 51
0.0
  7
KANJI1
  0
TEXT
  8
0
  6
CONTINUOUS
 62
     2
 10
1101.2
 20
510.0
 30
2.4
 40
24.0
  1
１６４３
 50
0.0
 41
0.9
 51
0.0
  7
KANJI1
  0
TEXT
  8
0
  6
CONTINUOUS
 62
     2
 10
1594.8
 20
513.0
 30
2.4
 40
24.0
  1
１４８
 50
0.0
 41
0.9
 51
0.0
  7
KANJI1
  0
TEXT
  8
0
  6
CONTINUOUS
 62
     2
 10
1101.2
 20
454.0
 30
2.4
 40
24.0
  1
２０２６
 50
0.0
 41
0.9
 51
0.0
  7
KANJI1
  0
TEXT
  8
0
  6
CONTINUOUS
 62
     2
 10
1262.0
 20
455.6
 30
2.4
 40
24.0
  1
１８０１
 50
0.0
 41
0.9
 51
0.0
  7
KANJI1
  0
TEXT
  8
0
  6
CONTINUOUS
 62
     2
 10
1778.8
 20
456.4
 30
2.4
 40
24.0
  1
３０３
 50
0.0
 41
0.9
 51
0.0
  7
KANJI1
  0
TEXT
  8
0
  6
CONTINUOUS
 62
     2
 10
1778.8
 20
512.4
 30
2.4
 40
24.0
  1
２８８
 50
0.0
 41
0.9
 51
0.0
  7
KANJI1
  0
LINE
  8
6
  6
CONTINUOUS
 62
     2
 10
2049.5
 20
989.0
 11
2068.818516526
 21
983.823619098
  0
LINE
  8
6
  6
CONTINUOUS
 62
     2
 10
2049.5
 20
989.0
 11
2068.818516526
 21
994.176380902
  0
LINE
  8
6
  6
CONTINUOUS
 62
     2
 10
2049.5
 20
989.0
 11
2309.5
 21
989.0
  0
LINE
  8
6
  6
CONTINUOUS
 62
     2
 10
2309.5
 20
989.0
 11
2290.181483474
 21
994.176380902
  0
LINE
  8
6
  6
CONTINUOUS
 62
     2
 10
2309.5
 20
989.0
 11
2290.181483474
 21
983.823619098
  0
LINE
  8
6
  6
CONTINUOUS
 62
     2
 10
2039.5
 20
919.0
 11
2058.818516526
 21
913.823619098
  0
LINE
  8
6
  6
CONTINUOUS
 62
     2
 10
2039.5
 20
919.0
 11
2058.818516526
 21
924.176380902
  0
LINE
  8
6
  6
CONTINUOUS
 62
     2
 10
2039.5
 20
919.0
 11
2319.5
 21
919.0
  0
LINE
  8
6
  6
CONTINUOUS
 62
     2
 10
2319.5
 20
919.0
 11
2300.181483474
 21
924.176380902
  0
LINE
  8
6
  6
CONTINUOUS
 62
     2
 10
2319.5
 20
919.0
 11
2300.181483474
 21
913.823619098
  0
TEXT
  8
6
  6
CONTINUOUS
 62
     2
 10
2144.7
 20
927.0
 30
2.4
 40
24.0
  1
２８０
 50
0.0
 41
0.9
 51
0.0
  7
KANJI0
  0
LINE
  8
6
  6
CONTINUOUS
 62
     2
 10
2049.5
 20
1168.0
 11
2049.5
 21
978.5
  0
LINE
  8
6
  6
CONTINUOUS
 62
     2
 10
2039.5
 20
1238.0
 11
2039.5
 21
911.0
  0
LINE
  8
6
  6
CONTINUOUS
 62
     2
 10
2319.5
 20
1238.0
 11
2319.5
 21
911.0
  0
LINE
  8
6
  6
CONTINUOUS
 62
     2
 10
2309.5
 20
1168.0
 11
2309.5
 21
978.5
  0
LINE
  8
1
  6
CONTINUOUS
 62
     2
 10
2179.5
 20
1118.0
 11
2179.5
 21
1052.5
  0
LINE
  8
1
  6
CONTINUOUS
 62
     2
 10
2179.5
 20
1060.5
 11
2160.181483474
 21
1065.676380902
  0
LINE
  8
1
  6
CONTINUOUS
 62
     2
 10
2179.5
 20
1060.5
 11
2160.181483474
 21
1055.323619098
  0
LINE
  8
1
  6
CONTINUOUS
 62
     2
 10
2179.5
 20
1060.5
 11
2019.5
 21
1060.5
  0
LINE
  8
1
  6
CONTINUOUS
 62
     2
 10
2019.5
 20
1060.5
 11
2038.818516526
 21
1055.323619098
  0
LINE
  8
1
  6
CONTINUOUS
 62
     2
 10
2019.5
 20
1060.5
 11
2038.818516526
 21
1065.676380902
  0
LINE
  8
1
  6
CONTINUOUS
 62
     2
 10
2019.5
 20
1342.0
 11
2019.5
 21
1052.5
  0
TEXT
  8
6
  6
CONTINUOUS
 62
     2
 10
2144.7
 20
997.0
 30
2.4
 40
24.0
  1
２６０
 50
0.0
 41
0.9
 51
0.0
  7
KANJI0
  0
TEXT
  8
1
  6
CONTINUOUS
 62
     2
 10
2058.7
 20
1068.5
 30
2.4
 40
24.0
  1
１６０
 50
0.0
 41
0.9
 51
0.0
  7
KANJI1
  0
TEXT
  8
6
  6
CONTINUOUS
 62
     2
 10
768.2
 20
1859.5
 30
2.4
 40
24.0
  1
４６５
 50
0.0
 41
0.9
 51
0.0
  7
KANJI0
  0
TEXT
  8
0
  6
CONTINUOUS
 62
     2
 10
1262.0
 20
511.6
 30
2.4
 40
24.0
  1
１４１８
 50
0.0
 41
0.9
 51
0.0
  7
KANJI1
  0
TEXT
  8
0
  6
CONTINUOUS
 62
     2
 10
1420.6
 20
513.0
 30
2.4
 40
24.0
  1
１１７０
 50
0.0
 41
0.9
 51
0.0
  7
KANJI1
  0
LINE
  8
0
 62
    99
 10
663.0
 20
0.0
 11
663.0
 21
2376.0
  0
LINE
  8
0
 62
    99
 10
0.0
 20
399.0
 11
3360.0
 21
399.0
  0
LINE
  8
0
 62
    99
 10
0.0
 20
344.0
 11
3360.0
 21
344.0
  0
TEXT
  8
0
  6
CONTINUOUS
 62
     2
 10
666.0
 20
620.8
 30
1.6
 40
24.0
  1
ＭＣＬＧ８－　　３ＪＬ
 50
0.0
 41
0.833333333
 51
0.0
  7
KANJI55
  0
TEXT
  8
0
  6
CONTINUOUS
 62
     2
 10
666.0
 20
564.8
 30
1.6
 40
24.0
  1
ＭＣＬＧ８－　　５ＪＬ
 50
0.0
 41
0.833333333
 51
0.0
  7
KANJI55
  0
TEXT
  8
0
  6
CONTINUOUS
 62
     2
 10
666.0
 20
508.8
 30
1.6
 40
24.0
  1
ＭＣＬＧ８－　　７ＪＬ
 50
0.0
 41
0.833333333
 51
0.0
  7
KANJI55
  0
TEXT
  8
0
  6
CONTINUOUS
 62
     2
 10
666.0
 20
452.8
 30
1.6
 40
24.0
  1
ＭＣＬＧ８－　１０ＪＬ
 50
0.0
 41
0.833333333
 51
0.0
  7
KANJI55
  0
TEXT
  8
0
  6
CONTINUOUS
 62
     1
 10
665.0
 20
402.0
 30
2.4
 40
24.0
  1
ＭＣＬＧ８ー　　　ＪＬ
 50
0.0
 41
0.9
 51
0.0
  7
KANJI1
  0
TEXT
  8
0
  6
CONTINUOUS
 62
     1
 10
665.0
 20
344.0
 30
2.4
 40
24.0
  1
ＭＣＬＧ８ー　　　ＪＬ
 50
0.0
 41
0.9
 51
0.0
  7
KANJI1
  0
LINE
  8
0
  6
CONTINUOUS
 62
     1
 10
2373.333416
 20
435.7333072
 11
2373.333416
 21
546.666632
  0
TEXT
  8
0
  6
CONTINUOUS
 62
     1
 10
2199.0
 20
507.0
 30
2.4
 40
28.0
  1
客　先　名
 50
0.0
 41
0.857142857
 51
0.0
  7
KANJI56
  0
TEXT
  8
0
  6
CONTINUOUS
 62
     1
 10
2197.0
 20
446.0
 30
2.4
 40
28.0
  1
御　用　途
 50
0.0
 41
0.857142857
 51
0.0
  7
KANJI56
  0
TEXT
  8
6
  6
CONTINUOUS
 62
     2
 10
1909.5
 20
1612.2
 30
2.4
 40
24.0
  1
１９７
 50
90.0
 41
0.9
 51
0.0
  7
KANJI0
  0
TEXT
  8
0
  6
CONTINUOUS
 62
     2
 10
1835.0
 20
1430.0
 30
1.6
 40
24.0
  1
５６３
 50
90.0
 41
0.9
 51
0.0
  7
KANJI2
  0
TEXT
  8
0
  6
CONTINUOUS
 62
     2
 10
2953.0
 20
1938.0
 30
2.4
 40
24.0
  1
７８．４ＫＮ　（８ｔｏｎ）
 50
0.0
 41
0.9
 51
0.0
  7
KANJI1
  0
TEXT
  8
0
  6
CONTINUOUS
 62
     2
 10
3078.0
 20
1770.0
 30
0.1792
 40
22.4
  1
（　２２　ｋｇｍ）
 50
0.0
 41
0.8
 51
0.0
  7
KANJI27
  0
TEXT
  8
0
  6
CONTINUOUS
 62
     2
 10
2965.0
 20
1770.0
 30
2.4
 40
24.0
  1
２１６Ｎ
 50
0.0
 41
0.9
 51
0.0
  7
KANJI1
  0
LINE
  8
1
  6
CONTINUOUS
 62
     2
 10
1011.0
 20
1647.0
 11
1155.0
 21
1647.0
  0
LINE
  8
1
  6
CONTINUOUS
 62
     2
 10
1139.0
 20
1647.0
 11
1133.823619098
 21
1627.681483474
  0
LINE
  8
1
  6
CONTINUOUS
 62
     2
 10
1139.0
 20
1647.0
 11
1144.176380902
 21
1627.681483474
  0
LINE
  8
1
  6
CONTINUOUS
 62
     2
 10
1139.0
 20
1647.0
 11
1139.0
 21
1416.0
  0
LINE
  8
1
  6
CONTINUOUS
 62
     2
 10
1139.0
 20
1416.0
 11
1144.176380902
 21
1435.318516526
  0
LINE
  8
1
  6
CONTINUOUS
 62
     2
 10
1139.0
 20
1416.0
 11
1133.823619098
 21
1435.318516526
  0
LINE
  8
1
  6
CONTINUOUS
 62
     2
 10
1030.720560018
 20
1416.0
 11
1155.0
 21
1416.0
  0
TEXT
  8
1
  6
CONTINUOUS
 62
     3
 10
1131.0
 20
1490.7
 30
2.4
 40
28.0
  1
２３１
 50
90.0
 41
0.914285714
 51
0.0
  7
KANJI57
  0
LINE
  8
1
  6
CONTINUOUS
 62
     2
 10
1060.720560018
 20
1537.0
 11
1071.863380141
 21
1553.608358128
  0
LINE
  8
1
  6
CONTINUOUS
 62
     2
 10
1060.720560018
 20
1537.0
 11
1062.06634625
 21
1556.954670115
  0
LINE
  8
1
  6
CONTINUOUS
 62
     2
 10
1060.720560018
 20
1537.0
 11
1143.720560018
 21
1780.0
  0
LINE
  8
1
  6
CONTINUOUS
 62
     2
 10
1143.720560018
 20
1780.0
 11
1344.520560018
 21
1780.0
  0
TEXT
  8
1
  6
CONTINUOUS
 62
     3
 10
1143.720560018
 20
1788.0
 30
4.0
 40
24.0
  1
ブレーキ開放装置
 50
0.0
 41
0.9
 51
0.0
  7
KANJI58
  0
LINE
  8
0
  6
CONTINUOUS
 62
     1
 10
2085.210560018
 20
2170.5948
 11
2085.210560018
 21
1962.6
  0
LINE
  8
0
  6
CONTINUOUS
 62
     2
 10
1965.213560018
 20
2170.5948
 11
1965.213560018
 21
1962.6
  0
LINE
  8
0
  6
CONTINUOUS
 62
     2
 10
1845.216560018
 20
2170.5948
 11
1845.216560018
 21
1962.6
  0
LINE
  8
0
  6
CONTINUOUS
 62
     1
 10
1685.220560018
 20
2170.5948
 11
1685.220560018
 21
1962.6
  0
LINE
  8
0
  6
CONTINUOUS
 62
     1
 10
1685.220560018
 20
2170.5948
 11
2085.210560018
 21
2170.5948
  0
LINE
  8
0
  6
CONTINUOUS
 62
     1
 10
1685.220560018
 20
2106.5964
 11
2085.210560018
 21
2106.5964
  0
LINE
  8
0
  6
CONTINUOUS
 62
     2
 10
1685.220560018
 20
2058.5976
 11
2085.210560018
 21
2058.5976
  0
LINE
  8
0
  6
CONTINUOUS
 62
     2
 10
1685.220560018
 20
2010.5988
 11
2085.210560018
 21
2010.5988
  0
LINE
  8
0
  6
CONTINUOUS
 62
     1
 10
1685.220560018
 20
1962.6
 11
2085.210560018
 21
1962.6
  0
TEXT
  8
0
  6
CONTINUOUS
 62
     2
 10
1981.213160018
 20
2142.5955
 30
2.39994
 40
23.9994
  1
起動電流
 50
0.0
 41
0.9
 51
0.0
  7
KANJI59
  0
TEXT
  8
0
  6
CONTINUOUS
 62
     2
 10
1981.213160018
 20
2114.5962
 30
2.39994
 40
23.9994
  1
　　　Ａ
 50
0.0
 41
0.9
 51
0.0
  7
KANJI59
  0
TEXT
  8
0
  6
CONTINUOUS
 62
     2
 10
1861.216160018
 20
2142.5955
 30
2.39994
 40
23.9994
  1
定格電流
 50
0.0
 41
0.9
 51
0.0
  7
KANJI59
  0
TEXT
  8
0
  6
CONTINUOUS
 62
     2
 10
1861.216160018
 20
2114.5962
 30
2.39994
 40
23.9994
  1
　　　Ａ
 50
0.0
 41
0.9
 51
0.0
  7
KANJI59
  0
TEXT
  8
0
  6
CONTINUOUS
 62
     2
 10
1698.820220018
 20
2142.5955
 30
2.39994
 40
23.9994
  1
電圧／周波数
 50
0.0
 41
0.9
 51
0.0
  7
KANJI59
  0
TEXT
  8
0
  6
CONTINUOUS
 62
     2
 10
1698.820220018
 20
2114.5962
 30
2.39994
 40
23.9994
  1
　Ｖ／Ｈｚ
 50
0.0
 41
0.9
 51
0.0
  7
KANJI59
  0
TEXT
  8
0
  6
CONTINUOUS
 62
     2
 10
1698.820220018
 20
2070.5973
 30
2.39994
 40
23.9994
  1
４００／５０
 50
0.0
 41
0.9
 51
0.0
  7
KANJI59
  0
TEXT
  8
0
  6
CONTINUOUS
 62
     2
 10
1698.820220018
 20
2022.5985
 30
2.39994
 40
23.9994
  1
４００／６０
 50
0.0
 41
0.9
 51
0.0
  7
KANJI59
  0
TEXT
  8
0
  6
CONTINUOUS
 62
     2
 10
1698.820220018
 20
1974.5997
 30
2.39994
 40
23.9994
  1
４４０／６０
 50
0.0
 41
0.9
 51
0.0
  7
KANJI59
  0
LINE
  8
0
  6
CONTINUOUS
 62
     1
 10
1605.220560018
 20
2170.5948
 11
1605.220560018
 21
1962.6
  0
LINE
  8
0
  6
CONTINUOUS
 62
     2
 10
1485.223560018
 20
2170.5948
 11
1485.223560018
 21
1962.6
  0
LINE
  8
0
  6
CONTINUOUS
 62
     2
 10
1365.226560018
 20
2170.5948
 11
1365.226560018
 21
1962.6
  0
LINE
  8
0
  6
CONTINUOUS
 62
     1
 10
1205.230560018
 20
2170.5948
 11
1205.230560018
 21
1962.6
  0
LINE
  8
0
  6
CONTINUOUS
 62
     1
 10
1205.230560018
 20
2170.5948
 11
1605.220560018
 21
2170.5948
  0
LINE
  8
0
  6
CONTINUOUS
 62
     1
 10
1205.230560018
 20
2106.5964
 11
1605.220560018
 21
2106.5964
  0
LINE
  8
0
  6
CONTINUOUS
 62
     2
 10
1205.230560018
 20
2058.5976
 11
1605.220560018
 21
2058.5976
  0
LINE
  8
0
  6
CONTINUOUS
 62
     2
 10
1205.230560018
 20
2010.5988
 11
1605.220560018
 21
2010.5988
  0
LINE
  8
0
  6
CONTINUOUS
 62
     1
 10
1205.230560018
 20
1962.6
 11
1605.220560018
 21
1962.6
  0
TEXT
  8
0
  6
CONTINUOUS
 62
     2
 10
1501.223160018
 20
2142.5955
 30
2.39994
 40
23.9994
  1
起動電流
 50
0.0
 41
0.9
 51
0.0
  7
KANJI59
  0
TEXT
  8
0
  6
CONTINUOUS
 62
     2
 10
1501.223160018
 20
2114.5962
 30
2.39994
 40
23.9994
  1
　　　Ａ
 50
0.0
 41
0.9
 51
0.0
  7
KANJI59
  0
TEXT
  8
0
  6
CONTINUOUS
 62
     2
 10
1381.226160018
 20
2142.5955
 30
2.39994
 40
23.9994
  1
定格電流
 50
0.0
 41
0.9
 51
0.0
  7
KANJI59
  0
TEXT
  8
0
  6
CONTINUOUS
 62
     2
 10
1381.226160018
 20
2114.5962
 30
2.39994
 40
23.9994
  1
　　　Ａ
 50
0.0
 41
0.9
 51
0.0
  7
KANJI59
  0
TEXT
  8
0
  6
CONTINUOUS
 62
     2
 10
1218.830220018
 20
2022.5985
 30
2.39994
 40
23.9994
  1
２００／６０
 50
0.0
 41
0.9
 51
0.0
  7
KANJI59
  0
TEXT
  8
0
  6
CONTINUOUS
 62
     2
 10
1218.830220018
 20
2142.5955
 30
2.39994
 40
23.9994
  1
電圧／周波数
 50
0.0
 41
0.9
 51
0.0
  7
KANJI59
  0
TEXT
  8
0
  6
CONTINUOUS
 62
     2
 10
1218.830220018
 20
2114.5962
 30
2.39994
 40
23.9994
  1
　Ｖ／Ｈｚ
 50
0.0
 41
0.9
 51
0.0
  7
KANJI59
  0
TEXT
  8
0
  6
CONTINUOUS
 62
     2
 10
1218.830220018
 20
2070.5973
 30
2.39994
 40
23.9994
  1
２００／５０
 50
0.0
 41
0.9
 51
0.0
  7
KANJI59
  0
TEXT
  8
0
  6
CONTINUOUS
 62
     2
 10
1218.830220018
 20
1974.5997
 30
2.39994
 40
23.9994
  1
２２０／６０
 50
0.0
 41
0.9
 51
0.0
  7
KANJI59
  0
TEXT
  8
0
  6
CONTINUOUS
 62
     2
 10
1307.817780486
 20
1916.934483
 30
2.79993
 40
27.9993
  1
注意：サーマルリレー等の選定は、上記の値を参照下さい。
 50
0.0
 41
0.9
 51
0.0
  7
KANJI60
  0
LINE
  8
0
  6
CONTINUOUS
 62
     2
 10
1291.818180486
 20
1908.934683
 11
2043.799380486
 21
1908.934683
  0
TEXT
  8
0
  6
CONTINUOUS
 62
     2
 10
1381.226160018
 20
2070.5973
 30
2.39994
 40
23.9994
  1
１５．０
 50
0.0
 41
0.9
 51
0.0
  7
KANJI59
  0
TEXT
  8
0
  6
CONTINUOUS
 62
     2
 10
1381.226160018
 20
2022.5985
 30
2.39994
 40
23.9994
  1
１４．０
 50
0.0
 41
0.9
 51
0.0
  7
KANJI59
  0
TEXT
  8
0
  6
CONTINUOUS
 62
     2
 10
1381.226160018
 20
1974.5997
 30
2.39994
 40
23.9994
  1
１３．０
 50
0.0
 41
0.9
 51
0.0
  7
KANJI59
  0
TEXT
  8
0
  6
CONTINUOUS
 62
     2
 10
1501.223160018
 20
2070.5973
 30
2.39994
 40
23.9994
  1
９１．０
 50
0.0
 41
0.9
 51
0.0
  7
KANJI59
  0
TEXT
  8
0
  6
CONTINUOUS
 62
     2
 10
1500.35655955
 20
2018.931917
 30
2.39994
 40
23.9994
  1
８６．０
 50
0.0
 41
0.9
 51
0.0
  7
KANJI59
  0
TEXT
  8
0
  6
CONTINUOUS
 62
     2
 10
1502.35650955
 20
1973.599717
 30
2.39994
 40
23.9994
  1
９４．６
 50
0.0
 41
0.9
 51
0.0
  7
KANJI59
  0
TEXT
  8
0
  6
CONTINUOUS
 62
     2
 10
1861.216160018
 20
2070.5973
 30
2.39994
 40
23.9994
  1
　７．５
 50
0.0
 41
0.9
 51
0.0
  7
KANJI59
  0
TEXT
  8
0
  6
CONTINUOUS
 62
     2
 10
1861.216160018
 20
2022.5985
 30
2.39994
 40
23.9994
  1
　７．０
 50
0.0
 41
0.9
 51
0.0
  7
KANJI59
  0
TEXT
  8
0
  6
CONTINUOUS
 62
     2
 10
1861.216160018
 20
1974.5997
 30
2.39994
 40
23.9994
  1
　６．６
 50
0.0
 41
0.9
 51
0.0
  7
KANJI59
  0
TEXT
  8
0
  6
CONTINUOUS
 62
     2
 10
1981.213160018
 20
2070.5973
 30
2.39994
 40
23.9994
  1
４５．５
 50
0.0
 41
0.9
 51
0.0
  7
KANJI59
  0
TEXT
  8
0
  6
CONTINUOUS
 62
     2
 10
1981.213160018
 20
2022.5985
 30
2.39994
 40
23.9994
  1
４３．０
 50
0.0
 41
0.9
 51
0.0
  7
KANJI59
  0
TEXT
  8
0
  6
CONTINUOUS
 62
     2
 10
1981.213160018
 20
1974.5997
 30
2.39994
 40
23.9994
  1
４７．３
 50
0.0
 41
0.9
 51
0.0
  7
KANJI59
  0
ENDSEC
  0
EOF
