  0
SECTION
  2
HEADER
  9
$EXTMIN
 10
0.0
 20
0.0
 30
0.0
  9
$EXTMAX
 10
3360.0
 20
2376.0
 30
0.0
  9
$LIMMIN
 10
0.0
 20
0.0
  9
$LIMMAX
 10
3360.0
 20
2376.0
  9
$LTSCALE
 40
1.0
  9
$PDMODE
 70
     0
  0
ENDSEC
  0
SECTION
  2
TABLES
  0
TABLE
  2
LTYPE
 70
     6
  0
LTYPE
  2
CONTINUOUS
 70
    64
  3
Solid line
 72
    65
 73
     0
 40
0.0
  0
LTYPE
  2
LTYPE1
 70
    64
  3
CENTER
 72
    65
 73
     4
 40
120.0
 49
84.0
 49
-12.0
 49
12.0
 49
-12.0
  0
LTYPE
  2
LTYPE2
 70
    64
  3
CENTER
 72
    65
 73
     4
 40
80.0
 49
56.0
 49
-8.0
 49
8.0
 49
-8.0
  0
LTYPE
  2
LTYPE3
 70
    64
  3
HIDDEN
 72
    65
 73
     2
 40
24.0
 49
14.4
 49
-9.6
  0
LTYPE
  2
LTYPE4
 70
    64
  3
CENTER
 72
    65
 73
     4
 40
160.0
 49
112.0
 49
-16.0
 49
16.0
 49
-16.0
  0
LTYPE
  2
LTYPE5
 70
    64
  3
PHANTOM
 72
    65
 73
     6
 40
120.0
 49
90.0
 49
-6.0
 49
6.0
 49
-6.0
 49
6.0
 49
-6.0
  0
ENDTAB
  0
TABLE
  2
LAYER
 70
   128
  0
LAYER
  2
0
 70
     0
 62
     7
  6
CONTINUOUS
  0
LAYER
  2
2
 70
     0
 62
     7
  6
CONTINUOUS
  0
LAYER
  2
3
 70
     0
 62
     7
  6
CONTINUOUS
  0
LAYER
  2
4
 70
     0
 62
     7
  6
CONTINUOUS
  0
LAYER
  2
5
 70
     0
 62
     7
  6
CONTINUOUS
  0
LAYER
  2
6
 70
     0
 62
     7
  6
CONTINUOUS
  0
LAYER
  2
7
 70
     0
 62
     7
  6
CONTINUOUS
  0
LAYER
  2
8
 70
     0
 62
     7
  6
CONTINUOUS
  0
LAYER
  2
9
 70
     0
 62
     7
  6
CONTINUOUS
  0
LAYER
  2
10
 70
     0
 62
     7
  6
CONTINUOUS
  0
LAYER
  2
11
 70
     0
 62
     7
  6
CONTINUOUS
  0
LAYER
  2
12
 70
     0
 62
     7
  6
CONTINUOUS
  0
LAYER
  2
13
 70
     0
 62
     7
  6
CONTINUOUS
  0
LAYER
  2
14
 70
     0
 62
     7
  6
CONTINUOUS
  0
LAYER
  2
15
 70
     0
 62
     7
  6
CONTINUOUS
  0
LAYER
  2
16
 70
     0
 62
     7
  6
CONTINUOUS
  0
LAYER
  2
17
 70
     0
 62
     7
  6
CONTINUOUS
  0
LAYER
  2
18
 70
     0
 62
     7
  6
CONTINUOUS
  0
LAYER
  2
19
 70
     0
 62
     7
  6
CONTINUOUS
  0
LAYER
  2
20
 70
     0
 62
     7
  6
CONTINUOUS
  0
LAYER
  2
21
 70
     0
 62
     7
  6
CONTINUOUS
  0
LAYER
  2
22
 70
     0
 62
     7
  6
CONTINUOUS
  0
LAYER
  2
23
 70
     0
 62
     7
  6
CONTINUOUS
  0
LAYER
  2
24
 70
     0
 62
     7
  6
CONTINUOUS
  0
LAYER
  2
25
 70
     0
 62
     7
  6
CONTINUOUS
  0
LAYER
  2
26
 70
     0
 62
     7
  6
CONTINUOUS
  0
LAYER
  2
27
 70
     0
 62
     7
  6
CONTINUOUS
  0
LAYER
  2
28
 70
     0
 62
     7
  6
CONTINUOUS
  0
LAYER
  2
29
 70
     0
 62
     7
  6
CONTINUOUS
  0
LAYER
  2
30
 70
     0
 62
     7
  6
CONTINUOUS
  0
LAYER
  2
31
 70
     0
 62
     7
  6
CONTINUOUS
  0
LAYER
  2
32
 70
     0
 62
     7
  6
CONTINUOUS
  0
LAYER
  2
33
 70
     0
 62
     7
  6
CONTINUOUS
  0
LAYER
  2
34
 70
     0
 62
     7
  6
CONTINUOUS
  0
LAYER
  2
35
 70
     0
 62
     7
  6
CONTINUOUS
  0
LAYER
  2
36
 70
     0
 62
     7
  6
CONTINUOUS
  0
LAYER
  2
37
 70
     0
 62
     7
  6
CONTINUOUS
  0
LAYER
  2
38
 70
     0
 62
     7
  6
CONTINUOUS
  0
LAYER
  2
39
 70
     0
 62
     7
  6
CONTINUOUS
  0
LAYER
  2
40
 70
     0
 62
     7
  6
CONTINUOUS
  0
LAYER
  2
41
 70
     0
 62
     7
  6
CONTINUOUS
  0
LAYER
  2
42
 70
     0
 62
     7
  6
CONTINUOUS
  0
LAYER
  2
43
 70
     0
 62
     7
  6
CONTINUOUS
  0
LAYER
  2
44
 70
     0
 62
     7
  6
CONTINUOUS
  0
LAYER
  2
45
 70
     0
 62
     7
  6
CONTINUOUS
  0
LAYER
  2
46
 70
     0
 62
     7
  6
CONTINUOUS
  0
LAYER
  2
47
 70
     0
 62
     7
  6
CONTINUOUS
  0
LAYER
  2
48
 70
     0
 62
     7
  6
CONTINUOUS
  0
LAYER
  2
49
 70
     0
 62
     7
  6
CONTINUOUS
  0
LAYER
  2
50
 70
     0
 62
     7
  6
CONTINUOUS
  0
LAYER
  2
51
 70
     0
 62
     7
  6
CONTINUOUS
  0
LAYER
  2
52
 70
     0
 62
     7
  6
CONTINUOUS
  0
LAYER
  2
53
 70
     0
 62
     7
  6
CONTINUOUS
  0
LAYER
  2
54
 70
     0
 62
     7
  6
CONTINUOUS
  0
LAYER
  2
55
 70
     0
 62
     7
  6
CONTINUOUS
  0
LAYER
  2
56
 70
     0
 62
     7
  6
CONTINUOUS
  0
LAYER
  2
57
 70
     0
 62
     7
  6
CONTINUOUS
  0
LAYER
  2
58
 70
     0
 62
     7
  6
CONTINUOUS
  0
LAYER
  2
59
 70
     0
 62
     7
  6
CONTINUOUS
  0
LAYER
  2
60
 70
     0
 62
     7
  6
CONTINUOUS
  0
LAYER
  2
61
 70
     0
 62
     7
  6
CONTINUOUS
  0
LAYER
  2
62
 70
     0
 62
     7
  6
CONTINUOUS
  0
LAYER
  2
63
 70
     0
 62
     7
  6
CONTINUOUS
  0
LAYER
  2
64
 70
     0
 62
     7
  6
CONTINUOUS
  0
LAYER
  2
65
 70
     0
 62
     7
  6
CONTINUOUS
  0
LAYER
  2
66
 70
     0
 62
     7
  6
CONTINUOUS
  0
LAYER
  2
67
 70
     0
 62
     7
  6
CONTINUOUS
  0
LAYER
  2
68
 70
     0
 62
     7
  6
CONTINUOUS
  0
LAYER
  2
69
 70
     0
 62
     7
  6
CONTINUOUS
  0
LAYER
  2
70
 70
     0
 62
     7
  6
CONTINUOUS
  0
LAYER
  2
71
 70
     0
 62
     7
  6
CONTINUOUS
  0
LAYER
  2
72
 70
     0
 62
     7
  6
CONTINUOUS
  0
LAYER
  2
73
 70
     0
 62
     7
  6
CONTINUOUS
  0
LAYER
  2
74
 70
     0
 62
     7
  6
CONTINUOUS
  0
LAYER
  2
75
 70
     0
 62
     7
  6
CONTINUOUS
  0
LAYER
  2
76
 70
     0
 62
     7
  6
CONTINUOUS
  0
LAYER
  2
77
 70
     0
 62
     7
  6
CONTINUOUS
  0
LAYER
  2
78
 70
     0
 62
     7
  6
CONTINUOUS
  0
LAYER
  2
79
 70
     0
 62
     7
  6
CONTINUOUS
  0
LAYER
  2
80
 70
     0
 62
     7
  6
CONTINUOUS
  0
LAYER
  2
81
 70
     0
 62
     7
  6
CONTINUOUS
  0
LAYER
  2
82
 70
     0
 62
     7
  6
CONTINUOUS
  0
LAYER
  2
83
 70
     0
 62
     7
  6
CONTINUOUS
  0
LAYER
  2
84
 70
     0
 62
     7
  6
CONTINUOUS
  0
LAYER
  2
85
 70
     0
 62
     7
  6
CONTINUOUS
  0
LAYER
  2
86
 70
     0
 62
     7
  6
CONTINUOUS
  0
LAYER
  2
87
 70
     0
 62
     7
  6
CONTINUOUS
  0
LAYER
  2
88
 70
     0
 62
     7
  6
CONTINUOUS
  0
LAYER
  2
89
 70
     0
 62
     7
  6
CONTINUOUS
  0
LAYER
  2
90
 70
     0
 62
     7
  6
CONTINUOUS
  0
LAYER
  2
91
 70
     0
 62
     7
  6
CONTINUOUS
  0
LAYER
  2
92
 70
     0
 62
     7
  6
CONTINUOUS
  0
LAYER
  2
93
 70
     0
 62
     7
  6
CONTINUOUS
  0
LAYER
  2
94
 70
     0
 62
     7
  6
CONTINUOUS
  0
LAYER
  2
95
 70
     0
 62
     7
  6
CONTINUOUS
  0
LAYER
  2
96
 70
     0
 62
     7
  6
CONTINUOUS
  0
LAYER
  2
97
 70
     0
 62
     7
  6
CONTINUOUS
  0
LAYER
  2
98
 70
     0
 62
     7
  6
CONTINUOUS
  0
LAYER
  2
99
 70
     0
 62
     7
  6
CONTINUOUS
  0
LAYER
  2
100
 70
     0
 62
     7
  6
CONTINUOUS
  0
LAYER
  2
101
 70
     0
 62
     7
  6
CONTINUOUS
  0
LAYER
  2
102
 70
     0
 62
     7
  6
CONTINUOUS
  0
LAYER
  2
103
 70
     0
 62
     7
  6
CONTINUOUS
  0
LAYER
  2
104
 70
     0
 62
     7
  6
CONTINUOUS
  0
LAYER
  2
105
 70
     0
 62
     7
  6
CONTINUOUS
  0
LAYER
  2
106
 70
     0
 62
     7
  6
CONTINUOUS
  0
LAYER
  2
107
 70
     0
 62
     7
  6
CONTINUOUS
  0
LAYER
  2
108
 70
     0
 62
     7
  6
CONTINUOUS
  0
LAYER
  2
109
 70
     0
 62
     7
  6
CONTINUOUS
  0
LAYER
  2
110
 70
     0
 62
     7
  6
CONTINUOUS
  0
LAYER
  2
111
 70
     0
 62
     7
  6
CONTINUOUS
  0
LAYER
  2
112
 70
     0
 62
     7
  6
CONTINUOUS
  0
LAYER
  2
113
 70
     0
 62
     7
  6
CONTINUOUS
  0
LAYER
  2
114
 70
     0
 62
     7
  6
CONTINUOUS
  0
LAYER
  2
115
 70
     0
 62
     7
  6
CONTINUOUS
  0
LAYER
  2
116
 70
     0
 62
     7
  6
CONTINUOUS
  0
LAYER
  2
117
 70
     0
 62
     7
  6
CONTINUOUS
  0
LAYER
  2
118
 70
     0
 62
     7
  6
CONTINUOUS
  0
LAYER
  2
119
 70
     0
 62
     7
  6
CONTINUOUS
  0
LAYER
  2
120
 70
     0
 62
     7
  6
CONTINUOUS
  0
LAYER
  2
121
 70
     0
 62
     7
  6
CONTINUOUS
  0
LAYER
  2
122
 70
     0
 62
     7
  6
CONTINUOUS
  0
LAYER
  2
123
 70
     0
 62
     7
  6
CONTINUOUS
  0
LAYER
  2
124
 70
     0
 62
     7
  6
CONTINUOUS
  0
LAYER
  2
125
 70
     0
 62
     7
  6
CONTINUOUS
  0
LAYER
  2
126
 70
     0
 62
     7
  6
CONTINUOUS
  0
LAYER
  2
127
 70
     0
 62
     7
  6
CONTINUOUS
  0
LAYER
  2
128
 70
     0
 62
     7
  6
CONTINUOUS
  0
ENDTAB
  0
TABLE
  2
STYLE
 70
    63
  0
STYLE
  2
STANDARD
 70
     0
 40
0.0
 41
1.0
 50
0.0
 71
     0
 42
0.2
  3
txt
  4

  0
STYLE
  2
KANJI0
 70
     0
 40
24.0
 41
0.9
 50
0.0
 71
     0
 42
24.0
  3

  4
bigfont
  0
STYLE
  2
KANJI1
 70
     0
 40
36.0
 41
0.9
 50
0.0
 71
     0
 42
36.0
  3

  4
bigfont
  0
STYLE
  2
KANJI2
 70
     4
 40
28.0
 41
0.9
 50
0.0
 71
     0
 42
28.0
  3

  4
bigfont
  0
STYLE
  2
KANJI3
 70
     4
 40
24.0
 41
0.9
 50
0.0
 71
     0
 42
24.0
  3

  4
bigfont
  0
STYLE
  2
KANJI4
 70
     0
 40
28.0
 41
0.9
 50
0.0
 71
     0
 42
28.0
  3

  4
bigfont
  0
STYLE
  2
KANJI5
 70
     0
 40
24.0
 41
0.9
 50
0.0
 71
     0
 42
24.0
  3

  4
bigfont
  0
STYLE
  2
KANJI6
 70
     0
 40
24.0
 41
0.857142857
 50
0.0
 71
     0
 42
24.0
  3

  4
bigfont
  0
STYLE
  2
KANJI7
 70
     0
 40
28.0
 41
0.9
 50
0.0
 71
     0
 42
28.0
  3

  4
bigfont
  0
STYLE
  2
KANJI8
 70
     0
 40
22.4
 41
0.9
 50
0.0
 71
     0
 42
22.4
  3

  4
bigfont
  0
STYLE
  2
KANJI9
 70
     0
 40
22.4
 41
0.785714286
 50
0.0
 71
     0
 42
22.4
  3

  4
bigfont
  0
STYLE
  2
KANJI10
 70
     0
 40
22.4
 41
0.8
 50
0.0
 71
     0
 42
22.4
  3

  4
bigfont
  0
STYLE
  2
KANJI11
 70
     0
 40
24.0
 41
0.8
 50
0.0
 71
     0
 42
24.0
  3

  4
bigfont
  0
STYLE
  2
KANJI12
 70
     0
 40
24.0
 41
0.9
 50
0.0
 71
     0
 42
24.0
  3

  4
bigfont
  0
STYLE
  2
KANJI13
 70
     0
 40
19.2
 41
0.777777778
 50
0.0
 71
     0
 42
19.2
  3

  4
bigfont
  0
STYLE
  2
KANJI14
 70
     0
 40
25.6
 41
0.9
 50
0.0
 71
     0
 42
25.6
  3

  4
bigfont
  0
STYLE
  2
KANJI15
 70
     0
 40
30.4
 41
0.9
 50
0.0
 71
     0
 42
30.4
  3

  4
bigfont
  0
STYLE
  2
KANJI16
 70
     0
 40
30.4
 41
0.9
 50
0.0
 71
     0
 42
30.4
  3

  4
bigfont
  0
STYLE
  2
KANJI17
 70
     0
 40
30.4
 41
0.9
 50
0.0
 71
     0
 42
30.4
  3

  4
bigfont
  0
STYLE
  2
KANJI18
 70
     0
 40
30.4
 41
0.9
 50
0.0
 71
     0
 42
30.4
  3

  4
bigfont
  0
STYLE
  2
KANJI19
 70
     0
 40
30.4
 41
0.9
 50
0.0
 71
     0
 42
30.4
  3

  4
bigfont
  0
STYLE
  2
KANJI20
 70
     0
 40
30.4
 41
0.9
 50
0.0
 71
     0
 42
30.4
  3

  4
bigfont
  0
STYLE
  2
KANJI21
 70
     0
 40
30.4
 41
0.9
 50
0.0
 71
     0
 42
30.4
  3

  4
bigfont
  0
STYLE
  2
KANJI22
 70
     0
 40
30.4
 41
0.9
 50
0.0
 71
     0
 42
30.4
  3

  4
bigfont
  0
STYLE
  2
KANJI23
 70
     0
 40
30.4
 41
0.9
 50
0.0
 71
     0
 42
30.4
  3

  4
bigfont
  0
STYLE
  2
KANJI24
 70
     0
 40
30.4
 41
0.9
 50
0.0
 71
     0
 42
30.4
  3

  4
bigfont
  0
STYLE
  2
KANJI25
 70
     0
 40
22.4
 41
0.8
 50
0.0
 71
     0
 42
22.4
  3

  4
bigfont
  0
STYLE
  2
KANJI26
 70
     0
 40
28.0
 41
0.9
 50
0.0
 71
     0
 42
28.0
  3

  4
bigfont
  0
STYLE
  2
KANJI27
 70
     0
 40
15.999996636
 41
0.6
 50
0.0
 71
     0
 42
15.999996636
  3

  4
bigfont
  0
STYLE
  2
KANJI28
 70
     0
 40
19.199995963
 41
0.9
 50
0.0
 71
     0
 42
19.199995963
  3

  4
bigfont
  0
STYLE
  2
KANJI29
 70
     0
 40
20.7999984
 41
0.9
 50
0.0
 71
     0
 42
20.7999984
  3

  4
bigfont
  0
STYLE
  2
KANJI30
 70
     0
 40
13.8666656
 41
0.75
 50
0.0
 71
     0
 42
13.8666656
  3

  4
bigfont
  0
STYLE
  2
KANJI31
 70
     0
 40
20.7999984
 41
0.75
 50
0.0
 71
     0
 42
20.7999984
  3

  4
bigfont
  0
STYLE
  2
KANJI32
 70
     0
 40
12.47999904
 41
0.75
 50
0.0
 71
     0
 42
12.47999904
  3

  4
bigfont
  0
STYLE
  2
KANJI33
 70
     0
 40
13.8666656
 41
0.6
 50
0.0
 71
     0
 42
13.8666656
  3

  4
bigfont
  0
STYLE
  2
KANJI34
 70
     0
 40
16.63999872
 41
0.6
 50
0.0
 71
     0
 42
16.63999872
  3

  4
bigfont
  0
STYLE
  2
KANJI35
 70
     0
 40
13.8666656
 41
0.9
 50
0.0
 71
     0
 42
13.8666656
  3

  4
bigfont
  0
STYLE
  2
KANJI36
 70
     0
 40
13.8666656
 41
0.8
 50
0.0
 71
     0
 42
13.8666656
  3

  4
bigfont
  0
STYLE
  2
KANJI37
 70
     0
 40
16.63999872
 41
0.9
 50
0.0
 71
     0
 42
16.63999872
  3

  4
bigfont
  0
STYLE
  2
KANJI38
 70
     0
 40
16.63999872
 41
0.8
 50
0.0
 71
     0
 42
16.63999872
  3

  4
bigfont
  0
STYLE
  2
KANJI39
 70
     0
 40
20.7999984
 41
0.75
 50
0.0
 71
     0
 42
20.7999984
  3

  4
bigfont
  0
STYLE
  2
KANJI40
 70
     0
 40
69.333328
 41
0.9
 50
0.0
 71
     0
 42
69.333328
  3

  4
bigfont
  0
STYLE
  2
KANJI41
 70
     0
 40
23.999994954
 41
0.9
 50
0.0
 71
     0
 42
23.999994954
  3

  4
bigfont
  0
STYLE
  2
KANJI42
 70
     0
 40
24.2666648
 41
0.42031746
 50
0.0
 71
     0
 42
24.2666648
  3

  4
bigfont
  0
STYLE
  2
KANJI43
 70
     0
 40
41.5999968
 41
0.9
 50
0.0
 71
     0
 42
41.5999968
  3

  4
bigfont
  0
STYLE
  2
KANJI44
 70
     0
 40
36.0
 41
0.666666667
 50
0.0
 71
     0
 42
36.0
  3

  4
bigfont
  0
STYLE
  2
KANJI45
 70
     0
 40
32.0
 41
0.75
 50
0.0
 71
     0
 42
32.0
  3

  4
bigfont
  0
STYLE
  2
KANJI46
 70
     0
 40
40.0
 41
1.0
 50
0.0
 71
     0
 42
40.0
  3

  4
bigfont
  0
STYLE
  2
KANJI47
 70
     0
 40
40.0
 41
1.0
 50
0.0
 71
     0
 42
40.0
  3

  4
bigfont
  0
STYLE
  2
KANJI48
 70
     0
 40
27.9993
 41
0.9
 50
0.0
 71
     0
 42
27.9993
  3

  4
bigfont
  0
STYLE
  2
KANJI49
 70
     0
 40
23.9994
 41
0.9
 50
0.0
 71
     0
 42
23.9994
  3

  4
bigfont
  0
STYLE
  2
KANJI50
 70
     0
 40
28.0
 41
0.914285714
 50
0.0
 71
     0
 42
28.0
  3

  4
bigfont
  0
STYLE
  2
KANJI51
 70
     0
 40
32.0
 41
0.9
 50
0.0
 71
     0
 42
32.0
  3

  4
bigfont
  0
STYLE
  2
KANJI52
 70
     0
 40
28.8
 41
0.857142857
 50
0.0
 71
     0
 42
28.8
  3

  4
bigfont
  0
STYLE
  2
KANJI53
 70
     0
 40
28.8
 41
0.857222222
 50
0.0
 71
     0
 42
28.8
  3

  4
bigfont
  0
STYLE
  2
KANJI54
 70
     0
 40
24.0
 41
0.766666667
 50
0.0
 71
     0
 42
24.0
  3

  4
bigfont
  0
STYLE
  2
KANJI55
 70
     0
 40
28.0
 41
0.9
 50
0.0
 71
     0
 42
28.0
  3

  4
bigfont
  0
STYLE
  2
KANJI56
 70
     0
 40
24.0
 41
0.833333333
 50
0.0
 71
     0
 42
24.0
  3

  4
bigfont
  0
STYLE
  2
KANJI57
 70
     0
 40
28.0
 41
0.793650794
 50
0.0
 71
     0
 42
28.0
  3

  4
bigfont
  0
STYLE
  2
KANJI58
 70
     0
 40
40.0
 41
0.8
 50
0.0
 71
     0
 42
40.0
  3

  4
bigfont
  0
STYLE
  2
KANJI59
 70
     0
 40
28.0
 41
0.571428571
 50
0.0
 71
     0
 42
28.0
  3

  4
bigfont
  0
STYLE
  2
KANJI60
 70
     0
 40
24.0
 41
1.0
 50
0.0
 71
     0
 42
24.0
  3

  4
bigfont
  0
STYLE
  2
KANJI61
 70
     0
 40
12.0
 41
1.0
 50
0.0
 71
     0
 42
12.0
  3

  4
bigfont
  0
ENDTAB
  0
TABLE
  2
VIEW
 70
     0
  0
ENDTAB
  0
ENDSEC
  0
SECTION
  2
BLOCKS
  0
ENDSEC
  0
SECTION
  2
ENTITIES
  0
LINE
  8
0
  6
CONTINUOUS
 62
     1
 10
611.0
 20
720.0
 11
1851.0
 21
720.0
  0
LINE
  8
0
  6
CONTINUOUS
 62
     1
 10
611.0
 20
664.0
 11
1851.0
 21
664.0
  0
LINE
  8
0
  6
CONTINUOUS
 62
     2
 10
611.0
 20
608.0
 11
1851.0
 21
608.0
  0
LINE
  8
0
  6
CONTINUOUS
 62
     2
 10
611.0
 20
552.0
 11
1851.0
 21
552.0
  0
LINE
  8
0
  6
CONTINUOUS
 62
     2
 10
611.0
 20
496.0
 11
1851.0
 21
496.0
  0
CIRCLE
  8
0
  6
CONTINUOUS
 62
     1
 10
636.0
 20
1300.0
 40
22.5
  0
CIRCLE
  8
0
  6
CONTINUOUS
 62
     1
 10
636.0
 20
1300.0
 40
45.0
  0
CIRCLE
  8
0
  6
CONTINUOUS
 62
     1
 10
636.0
 20
1300.0
 40
55.0
  0
LINE
  8
0
  6
CONTINUOUS
 62
     1
 10
601.0
 20
1400.0
 11
624.0
 21
1381.5
  0
LINE
  8
0
  6
CONTINUOUS
 62
     1
 10
601.0
 20
1346.5
 11
601.0
 21
1400.0
  0
LINE
  8
0
  6
CONTINUOUS
 62
     1
 10
624.0
 20
1356.5
 11
624.0
 21
1381.5
  0
LINE
  8
0
  6
CONTINUOUS
 62
     1
 10
566.0
 20
1200.0
 11
601.0
 21
1200.0
  0
LINE
  8
0
  6
CONTINUOUS
 62
     1
 10
601.0
 20
1200.0
 11
624.0
 21
1218.5
  0
LINE
  8
0
  6
CONTINUOUS
 62
     1
 10
601.0
 20
1253.5
 11
601.0
 21
1200.0
  0
LINE
  8
0
  6
CONTINUOUS
 62
     1
 10
624.0
 20
1243.5
 11
624.0
 21
1218.5
  0
LINE
  8
0
  6
CONTINUOUS
 62
     1
 10
826.0
 20
1200.0
 11
796.0
 21
1218.5
  0
LINE
  8
0
  6
CONTINUOUS
 62
     1
 10
624.0
 20
1218.5
 11
796.0
 21
1218.5
  0
LINE
  8
0
  6
CONTINUOUS
 62
     1
 10
826.0
 20
1200.0
 11
866.0
 21
1200.0
  0
LINE
  8
0
  6
CONTINUOUS
 62
     1
 10
796.0
 20
1300.0
 11
796.0
 21
1218.5
  0
LINE
  8
0
  6
LTYPE1
 62
     2
 10
636.0
 20
1230.398877817
 11
636.0
 21
1367.366558854
  0
LINE
  8
0
  6
CONTINUOUS
 62
     1
 10
866.0
 20
1300.0
 11
866.0
 21
1200.0
  0
CIRCLE
  8
0
  6
CONTINUOUS
 62
     1
 10
1104.3
 20
1300.0
 40
19.5
  0
LINE
  8
0
  6
CONTINUOUS
 62
     1
 10
1084.3
 20
1320.0
 11
1124.3
 21
1320.0
  0
LINE
  8
0
  6
CONTINUOUS
 62
     1
 10
1124.3
 20
1280.0
 11
1124.3
 21
1320.0
  0
LINE
  8
0
  6
CONTINUOUS
 62
     1
 10
1084.3
 20
1280.0
 11
1124.3
 21
1280.0
  0
LINE
  8
0
  6
CONTINUOUS
 62
     1
 10
1084.3
 20
1280.0
 11
1084.3
 21
1320.0
  0
LINE
  8
0
  6
LTYPE2
 62
     2
 10
1104.3
 20
1274.9
 11
1104.3
 21
1324.8
  0
LINE
  8
0
  6
LTYPE3
 62
     2
 10
2060.5
 20
1322.5
 11
2010.5
 21
1322.5
  0
LINE
  8
0
  6
LTYPE3
 62
     2
 10
2060.5
 20
1277.5
 11
2010.5
 21
1277.5
  0
LINE
  8
0
  6
LTYPE3
 62
     2
 10
2060.5
 20
1277.5
 11
2060.5
 21
1322.5
  0
LINE
  8
0
  6
CONTINUOUS
 62
     1
 10
2010.5
 20
1250.0
 11
2076.127626097
 21
1245.0
  0
LINE
  8
0
  6
CONTINUOUS
 62
     1
 10
2020.5
 20
1180.0
 11
2020.5
 21
1249.0
  0
ARC
  8
0
  6
CONTINUOUS
 62
     1
 10
2035.5
 20
1180.0
 40
15.0
 50
180.0
 51
270.0
  0
LINE
  8
0
  6
CONTINUOUS
 62
     1
 10
2088.00566924
 20
1393.810759633
 11
2038.104519278
 21
1322.54453178
  0
ARC
  8
0
  6
CONTINUOUS
 62
     1
 10
2088.334520095
 20
1402.125917906
 40
3.0
 50
325.0
 51
55.0
  0
LINE
  8
0
  6
CONTINUOUS
 62
     1
 10
2051.964679345
 20
1431.25467833
 11
2090.055249404
 21
1404.583374039
  0
ARC
  8
0
  6
CONTINUOUS
 62
     1
 10
2051.391102908
 20
1430.435526285
 40
1.0
 50
55.0
 51
145.0
  0
ARC
  8
0
  6
CONTINUOUS
 62
     1
 10
2048.851221555
 20
1428.551646589
 40
1.0
 50
55.0
 51
145.0
  0
ARC
  8
0
  6
CONTINUOUS
 62
     1
 10
2033.271182206
 20
1323.487321655
 40
3.0
 50
235.0
 51
325.0
  0
LINE
  8
0
  6
CONTINUOUS
 62
     1
 10
1993.459882837
 20
1347.701169812
 11
2031.550452896
 21
1321.029865522
  0
ARC
  8
0
  6
CONTINUOUS
 62
     1
 10
1994.033459273
 20
1348.520321856
 40
1.0
 50
145.0
 51
235.0
  0
ARC
  8
0
  6
CONTINUOUS
 62
     1
 10
1994.935036538
 20
1351.551354426
 40
1.0
 50
145.0
 51
235.0
  0
LINE
  8
0
  6
CONTINUOUS
 62
     1
 10
1997.555643058
 20
1344.83328763
 11
2056.060439566
 21
1428.386796148
  0
LINE
  8
0
  6
CONTINUOUS
 62
     1
 10
1998.784371125
 20
1343.972922976
 11
2057.289167633
 21
1427.526431493
  0
LINE
  8
0
  6
CONTINUOUS
 62
     1
 10
2090.791976228
 20
1400.405188597
 11
2035.728638338
 21
1321.766592346
  0
LINE
  8
0
  6
CONTINUOUS
 62
     1
 10
1994.115884494
 20
1352.124930862
 11
2048.032069511
 21
1429.125223025
  0
LINE
  8
0
  6
CONTINUOUS
 62
     1
 10
1993.214307229
 20
1349.093898293
 11
2050.571950864
 21
1431.009102722
  0
LINE
  8
0
  6
LTYPE2
 62
     2
 10
1992.232174803
 20
1355.885467765
 11
2007.550318031
 21
1345.159588405
  0
LINE
  8
0
  6
LTYPE2
 62
     2
 10
2043.854054074
 20
1429.609151751
 11
2059.172197302
 21
1418.883272391
  0
LINE
  8
0
  6
CONTINUOUS
 62
     1
 10
2010.5
 20
1250.0
 11
2010.5
 21
1337.225525817
  0
LINE
  8
0
  6
CONTINUOUS
 62
     1
 10
2110.110225663
 20
1383.216080952
 11
2090.299974985
 21
1397.08736781
  0
LINE
  8
0
  6
LTYPE1
 62
     2
 10
2157.158322994
 20
1295.337792048
 11
2014.158322994
 21
1395.467470012
  0
LINE
  8
0
  6
CONTINUOUS
 62
     1
 10
2059.488346391
 20
1308.792189428
 11
2038.678095714
 21
1323.363683824
  0
LINE
  8
0
  6
LTYPE3
 62
     2
 10
2240.5
 20
1277.5
 11
2290.5
 21
1277.5
  0
LINE
  8
0
  6
CONTINUOUS
 62
     1
 10
2290.5
 20
1250.0
 11
2224.872373903
 21
1245.0
  0
LINE
  8
0
  6
CONTINUOUS
 62
     1
 10
2280.5
 20
1180.0
 11
2280.5
 21
1249.0
  0
LINE
  8
0
  6
LTYPE3
 62
     2
 10
2240.5
 20
1322.5
 11
2290.5
 21
1322.5
  0
LINE
  8
0
  6
LTYPE3
 62
     2
 10
2240.5
 20
1277.5
 11
2240.5
 21
1322.5
  0
LINE
  8
0
  6
CONTINUOUS
 62
     1
 10
2290.5
 20
1350.0
 11
2224.872373903
 21
1355.0
  0
LINE
  8
0
  6
CONTINUOUS
 62
     1
 10
2290.5
 20
1250.0
 11
2290.5
 21
1350.0
  0
TEXT
  8
0
  6
CONTINUOUS
 62
     2
 10
939.0
 20
621.4
 30
2.4
 40
24.0
  1
３００
 50
0.0
 41
0.9
 51
0.0
  7
KANJI0
  0
TEXT
  8
0
  6
CONTINUOUS
 62
     2
 10
939.0
 20
565.4
 30
2.4
 40
24.0
  1
５００
 50
0.0
 41
0.9
 51
0.0
  7
KANJI0
  0
LINE
  8
0
  6
LTYPE1
 62
     2
 10
2030.548183048
 20
1359.697752135
 11
2053.892744008
 21
1393.037240338
  0
POINT
  8
0
  6
CONTINUOUS
 62
     1
 10
692.0
 20
1300.0
  0
LINE
  8
0
  6
CONTINUOUS
 62
     1
 10
749.0
 20
1351.305778818
 11
739.0
 21
1361.305778818
  0
ARC
  8
0
  6
CONTINUOUS
 62
     1
 10
737.0
 20
1349.63644216
 40
3.0
 50
180.0
 51
270.0
  0
ARC
  8
0
  6
CONTINUOUS
 62
     1
 10
737.0
 20
1346.194983542
 40
3.0
 50
180.0
 51
270.0
  0
ARC
  8
0
  6
CONTINUOUS
 62
     1
 10
737.0
 20
1345.334618887
 40
3.0
 50
180.0
 51
270.0
  0
LINE
  8
0
  6
CONTINUOUS
 62
     1
 10
857.0
 20
1361.305778818
 11
847.0
 21
1351.305778818
  0
LINE
  8
0
  6
CONTINUOUS
 62
     1
 10
749.0
 20
1351.305778818
 11
847.0
 21
1351.305778818
  0
ARC
  8
0
  6
CONTINUOUS
 62
     1
 10
859.0
 20
1349.63644216
 40
3.0
 50
270.0
 51
0.0
  0
ARC
  8
0
  6
CONTINUOUS
 62
     1
 10
859.0
 20
1346.194983542
 40
3.0
 50
270.0
 51
0.0
  0
ARC
  8
0
  6
CONTINUOUS
 62
     1
 10
859.0
 20
1345.334618887
 40
3.0
 50
270.0
 51
0.0
  0
LINE
  8
0
  6
CONTINUOUS
 62
     1
 10
736.507319827
 20
1346.63644216
 11
859.0
 21
1346.63644216
  0
LINE
  8
0
  6
CONTINUOUS
 62
     1
 10
736.607319827
 20
1343.194983542
 11
859.0
 21
1343.194983542
  0
LINE
  8
0
  6
CONTINUOUS
 62
     1
 10
736.607319827
 20
1342.334618887
 11
859.0
 21
1342.334618887
  0
LINE
  8
0
  6
CONTINUOUS
 62
     1
 10
867.0
 20
1345.266636349
 11
867.0
 21
1402.13271812
  0
LINE
  8
0
  6
CONTINUOUS
 62
     1
 10
862.0
 20
1345.266636349
 11
867.0
 21
1345.266636349
  0
LINE
  8
0
  6
CONTINUOUS
 62
     1
 10
862.0
 20
1402.13271812
 11
867.0
 21
1402.13271812
  0
LINE
  8
0
  6
CONTINUOUS
 62
     1
 10
862.0
 20
1369.366636349
 11
867.0
 21
1369.366636349
  0
LINE
  8
0
  6
CONTINUOUS
 62
     1
 10
824.0
 20
1318.657620342
 11
862.0
 21
1318.657620342
  0
LINE
  8
0
  6
CONTINUOUS
 62
     1
 10
867.0
 20
1389.848877817
 11
867.0
 21
1362.148877817
  0
LINE
  8
0
  6
CONTINUOUS
 62
     1
 10
624.0
 20
1381.5
 11
734.0
 21
1381.5
  0
LINE
  8
0
  6
CONTINUOUS
 62
     1
 10
734.0
 20
1317.957620342
 11
824.0
 21
1317.957620342
  0
LINE
  8
0
  6
CONTINUOUS
 62
     1
 10
826.0
 20
1318.657620342
 11
826.0
 21
1200.0
  0
LINE
  8
0
  6
CONTINUOUS
 62
     1
 10
866.0
 20
1345.266636349
 11
866.0
 21
1200.0
  0
LINE
  8
0
  6
CONTINUOUS
 62
     1
 10
2511.0
 20
1028.0
 11
3211.0
 21
1028.0
  0
LINE
  8
0
  6
CONTINUOUS
 62
     1
 10
2511.0
 20
2116.0
 11
3211.0
 21
2116.0
  0
LINE
  8
0
  6
CONTINUOUS
 62
     1
 10
2511.0
 20
2116.0
 11
2511.0
 21
1028.0
  0
TEXT
  8
0
  6
CONTINUOUS
 62
     2
 10
2611.0
 20
2057.6
 30
22.79952
 40
36.0
  1
マイティシリンダ仕様
 50
0.0
 41
0.9
 51
0.0
  7
KANJI1
  0
TEXT
  8
0
  6
CONTINUOUS
 62
     2
 10
2543.6
 20
1552.0
 30
17.6
 40
28.0
  1
モ　トル仕様
 50
0.0
 41
0.9
 51
0.0
  7
KANJI2
  0
TEXT
  8
0
  6
CONTINUOUS
 62
     2
 10
2541.8
 20
1248.0
 30
1.371428571
 40
24.0
  1
ブレ　キ
 50
0.0
 41
0.9
 51
0.0
  7
KANJI3
  0
LINE
  8
0
  6
CONTINUOUS
 62
     2
 10
2541.4
 20
1192.8
 11
2541.4
 21
1176.0
  0
LINE
  8
0
  6
CONTINUOUS
 62
     2
 10
2541.4
 20
1507.2
 11
2541.4
 21
1488.8
  0
TEXT
  8
0
  6
CONTINUOUS
 62
     2
 10
2970.2
 20
1658.4
 30
11.36
 40
28.0
  1
推力リミッタ
 50
0.0
 41
0.9
 51
0.0
  7
KANJI4
  0
TEXT
  8
0
  6
CONTINUOUS
 62
     2
 10
3182.2
 20
1546.4
 30
17.571428571
 40
24.0
  1
Ｐ
 50
0.0
 41
0.9
 51
0.0
  7
KANJI5
  0
TEXT
  8
0
  6
CONTINUOUS
 62
     2
 10
3049.4
 20
1546.4
 30
1.6
 40
24.0
  1
ＫＷ
 50
0.0
 41
0.857142857
 51
0.0
  7
KANJI6
  0
TEXT
  8
0
  6
CONTINUOUS
 62
     2
 10
3142.2
 20
1546.4
 30
20.5
 40
28.0
  1
４
 50
0.0
 41
0.9
 51
0.0
  7
KANJI7
  0
TEXT
  8
0
  6
CONTINUOUS
 62
     2
 10
2925.4
 20
1604.8
 30
0.8
 40
22.4
  1
マンセル
 50
0.0
 41
0.9
 51
0.0
  7
KANJI8
  0
TEXT
  8
0
  6
CONTINUOUS
 62
     2
 10
3019.0
 20
1606.4
 30
0.32
 40
22.4
  1
７．５ＧＹ５／４．５
 50
0.0
 41
0.785714286
 51
0.0
  7
KANJI9
  0
TEXT
  8
0
  6
CONTINUOUS
 62
     2
 10
2919.0
 20
1211.2
 30
2.4
 40
22.4
  1
スプリング制動式電磁ブレーキ
 50
0.0
 41
0.8
 51
0.0
  7
KANJI10
  0
TEXT
  8
0
  6
CONTINUOUS
 62
     2
 10
3183.0
 20
1490.4
 30
0.288
 40
24.0
  1
Ｖ
 50
0.0
 41
0.8
 51
0.0
  7
KANJI11
  0
TEXT
  8
0
  6
CONTINUOUS
 62
     2
 10
3168.6
 20
1434.4
 30
0.288
 40
24.0
  1
Ｈｚ
 50
0.0
 41
0.8
 51
0.0
  7
KANJI11
  0
TEXT
  8
0
  6
CONTINUOUS
 62
     2
 10
3010.8
 20
1434.2
 30
2.4
 40
24.0
  1
５０／６０
 50
0.0
 41
0.9
 51
0.0
  7
KANJI0
  0
TEXT
  8
0
  6
CONTINUOUS
 62
     2
 10
3184.8
 20
1380.2
 30
2.4
 40
24.0
  1
Ａ
 50
0.0
 41
0.9
 51
0.0
  7
KANJI0
  0
TEXT
  8
0
  6
CONTINUOUS
 62
     2
 10
3058.8
 20
1326.2
 30
2.4
 40
24.0
  1
Ｅ
 50
0.0
 41
0.9
 51
0.0
  7
KANJI0
  0
LINE
  8
0
  6
CONTINUOUS
 62
     2
 10
2511.0
 20
1140.0
 11
3211.0
 21
1140.0
  0
LINE
  8
0
  6
CONTINUOUS
 62
     2
 10
2511.0
 20
1084.0
 11
3211.0
 21
1084.0
  0
LINE
  8
0
  6
CONTINUOUS
 62
     2
 10
2575.0
 20
1196.0
 11
3211.0
 21
1196.0
  0
LINE
  8
0
  6
CONTINUOUS
 62
     2
 10
2575.0
 20
1588.0
 11
2575.0
 21
1140.0
  0
LINE
  8
0
  6
CONTINUOUS
 62
     2
 10
2511.0
 20
1252.0
 11
3211.0
 21
1252.0
  0
LINE
  8
0
  6
CONTINUOUS
 62
     2
 10
2575.0
 20
1308.0
 11
3211.0
 21
1308.0
  0
LINE
  8
0
  6
CONTINUOUS
 62
     2
 10
2575.0
 20
1364.0
 11
3211.0
 21
1364.0
  0
LINE
  8
0
  6
CONTINUOUS
 62
     2
 10
2575.0
 20
1420.0
 11
3211.0
 21
1420.0
  0
LINE
  8
0
  6
CONTINUOUS
 62
     2
 10
2511.0
 20
1700.0
 11
3211.0
 21
1700.0
  0
LINE
  8
0
  6
CONTINUOUS
 62
     2
 10
2511.0
 20
1644.0
 11
3211.0
 21
1644.0
  0
LINE
  8
0
  6
CONTINUOUS
 62
     2
 10
2511.0
 20
1588.0
 11
3211.0
 21
1588.0
  0
LINE
  8
0
  6
CONTINUOUS
 62
     2
 10
2911.0
 20
2036.0
 11
2911.0
 21
1028.0
  0
LINE
  8
0
  6
CONTINUOUS
 62
     2
 10
2575.0
 20
1476.0
 11
3211.0
 21
1476.0
  0
LINE
  8
0
  6
CONTINUOUS
 62
     2
 10
2575.0
 20
1532.0
 11
3211.0
 21
1532.0
  0
LINE
  8
0
  6
CONTINUOUS
 62
     2
 10
2511.0
 20
1980.0
 11
3211.0
 21
1980.0
  0
LINE
  8
0
  6
CONTINUOUS
 62
     2
 10
2511.0
 20
1924.0
 11
3211.0
 21
1924.0
  0
LINE
  8
0
  6
CONTINUOUS
 62
     2
 10
2511.0
 20
1868.0
 11
3211.0
 21
1868.0
  0
LINE
  8
0
  6
CONTINUOUS
 62
     2
 10
2511.0
 20
1812.0
 11
3211.0
 21
1812.0
  0
LINE
  8
0
  6
CONTINUOUS
 62
     2
 10
2511.0
 20
1756.0
 11
3211.0
 21
1756.0
  0
LINE
  8
0
  6
CONTINUOUS
 62
     2
 10
2511.0
 20
2036.0
 11
3211.0
 21
2036.0
  0
TEXT
  8
0
  6
CONTINUOUS
 62
     2
 10
911.8
 20
680.0
 30
2.4
 40
24.0
  1
ストローク
 50
0.0
 41
0.9
 51
0.0
  7
KANJI0
  0
TEXT
  8
0
  6
CONTINUOUS
 62
     2
 10
1065.4
 20
678.4
 30
0.0
 40
24.0
  1
ｍｉｎ　
 50
0.0
 41
0.9
 51
0.0
  7
KANJI12
  0
TEXT
  8
0
  6
CONTINUOUS
 62
     2
 10
1225.4
 20
678.4
 30
0.0
 40
24.0
  1
ｍｉｎ　
 50
0.0
 41
0.9
 51
0.0
  7
KANJI12
  0
TEXT
  8
0
  6
CONTINUOUS
 62
     2
 10
1545.4
 20
678.4
 30
0.0
 40
24.0
  1
ｍｉｎ　
 50
0.0
 41
0.9
 51
0.0
  7
KANJI12
  0
TEXT
  8
0
  6
CONTINUOUS
 62
     2
 10
1794.0
 20
681.8
 30
0.0
 40
19.2
  1
（ｋｇ）
 50
0.0
 41
0.777777778
 51
0.0
  7
KANJI13
  0
TEXT
  8
0
  6
CONTINUOUS
 62
     2
 10
1698.0
 20
679.0
 30
2.56
 40
25.6
  1
概算重量
 50
0.0
 41
0.9
 51
0.0
  7
KANJI14
  0
TEXT
  8
0
  6
CONTINUOUS
 62
     2
 10
667.0
 20
680.0
 30
2.56
 40
25.6
  1
形
 50
0.0
 41
0.9
 51
0.0
  7
KANJI14
  0
TEXT
  8
0
  6
CONTINUOUS
 62
     2
 10
823.0
 20
680.0
 30
2.56
 40
25.6
  1
式
 50
0.0
 41
0.9
 51
0.0
  7
KANJI14
  0
TEXT
  8
0
  6
CONTINUOUS
 62
     2
 10
2571.0
 20
1994.4
 30
240.594285714
 40
30.4
  1
形式
 50
0.0
 41
0.9
 51
0.0
  7
KANJI15
  0
TEXT
  8
0
  6
CONTINUOUS
 62
     2
 10
2571.0
 20
1938.4
 30
240.594285714
 40
30.4
  1
推力
 50
0.0
 41
0.9
 51
0.0
  7
KANJI15
  0
TEXT
  8
0
  6
CONTINUOUS
 62
     2
 10
2571.0
 20
1882.4
 30
39.628571429
 40
30.4
  1
ストローク
 50
0.0
 41
0.9
 51
0.0
  7
KANJI16
  0
TEXT
  8
0
  6
CONTINUOUS
 62
     2
 10
2571.0
 20
1826.4
 30
61.957805714
 40
30.4
  1
公称速度
 50
0.0
 41
0.9
 51
0.0
  7
KANJI17
  0
TEXT
  8
0
  6
CONTINUOUS
 62
     2
 10
2547.0
 20
1770.4
 30
2.605714286
 40
30.4
  1
ピストンロッド回転トルク
 50
0.0
 41
0.9
 51
0.0
  7
KANJI18
  0
TEXT
  8
0
  6
CONTINUOUS
 62
     2
 10
2571.0
 20
1714.4
 30
240.594285714
 40
30.4
  1
構造
 50
0.0
 41
0.9
 51
0.0
  7
KANJI15
  0
TEXT
  8
0
  6
CONTINUOUS
 62
     2
 10
2571.0
 20
1658.4
 30
17.298468571
 40
30.4
  1
過負荷安全装置
 50
0.0
 41
0.9
 51
0.0
  7
KANJI19
  0
TEXT
  8
0
  6
CONTINUOUS
 62
     2
 10
2571.0
 20
1602.4
 30
106.617142857
 40
30.4
  1
塗装色
 50
0.0
 41
0.9
 51
0.0
  7
KANJI20
  0
TEXT
  8
0
  6
CONTINUOUS
 62
     2
 10
2611.0
 20
1546.4
 30
26.6
 40
30.4
  1
出力　極数
 50
0.0
 41
0.9
 51
0.0
  7
KANJI21
  0
TEXT
  8
0
  6
CONTINUOUS
 62
     2
 10
2611.0
 20
1490.4
 30
44.586377143
 40
30.4
  1
電源電圧
 50
0.0
 41
0.9
 51
0.0
  7
KANJI22
  0
TEXT
  8
0
  6
CONTINUOUS
 62
     2
 10
2611.0
 20
1434.4
 30
80.56
 40
30.4
  1
周波数
 50
0.0
 41
0.9
 51
0.0
  7
KANJI23
  0
TEXT
  8
0
  6
CONTINUOUS
 62
     2
 10
2611.0
 20
1378.4
 30
188.48
 40
30.4
  1
電流
 50
0.0
 41
0.9
 51
0.0
  7
KANJI24
  0
TEXT
  8
0
  6
CONTINUOUS
 62
     2
 10
2611.0
 20
1322.4
 30
80.56
 40
30.4
  1
絶縁級
 50
0.0
 41
0.9
 51
0.0
  7
KANJI23
  0
TEXT
  8
0
  6
CONTINUOUS
 62
     2
 10
2611.0
 20
1210.4
 30
188.48
 40
30.4
  1
形式
 50
0.0
 41
0.9
 51
0.0
  7
KANJI24
  0
TEXT
  8
0
  6
CONTINUOUS
 62
     2
 10
2611.0
 20
1154.4
 30
44.586377143
 40
30.4
  1
操作方式
 50
0.0
 41
0.9
 51
0.0
  7
KANJI22
  0
TEXT
  8
0
  6
CONTINUOUS
 62
     2
 10
2571.0
 20
1098.4
 30
106.617142857
 40
30.4
  1
付属品
 50
0.0
 41
0.9
 51
0.0
  7
KANJI20
  0
TEXT
  8
0
  6
CONTINUOUS
 62
     2
 10
2571.0
 20
1042.4
 30
240.594285714
 40
30.4
  1
台数
 50
0.0
 41
0.9
 51
0.0
  7
KANJI15
  0
TEXT
  8
0
  6
CONTINUOUS
 62
     2
 10
3161.8
 20
1885.6
 30
0.1792
 40
22.4
  1
ｍｍ
 50
0.0
 41
0.8
 51
0.0
  7
KANJI25
  0
TEXT
  8
0
  6
CONTINUOUS
 62
     2
 10
3101.8
 20
1832.0
 30
0.1792
 40
22.4
  1
ｍｍ／ｓｅｃ
 50
0.0
 41
0.8
 51
0.0
  7
KANJI25
  0
TEXT
  8
0
  6
CONTINUOUS
 62
     2
 10
1147.0
 20
680.0
 30
2.8
 40
28.0
  1
ＡＬ
 50
0.0
 41
0.9
 51
0.0
  7
KANJI26
  0
TEXT
  8
0
  6
CONTINUOUS
 62
     2
 10
1307.0
 20
680.0
 30
2.8
 40
28.0
  1
Ｌ
 50
0.0
 41
0.9
 51
0.0
  7
KANJI26
  0
TEXT
  8
0
  6
CONTINUOUS
 62
     2
 10
1443.0
 20
680.0
 30
2.8
 40
28.0
  1
Ｃ
 50
0.0
 41
0.9
 51
0.0
  7
KANJI26
  0
TEXT
  8
0
  6
CONTINUOUS
 62
     2
 10
1627.0
 20
680.0
 30
2.8
 40
28.0
  1
Ｐ
 50
0.0
 41
0.9
 51
0.0
  7
KANJI26
  0
LINE
  8
0
  6
CONTINUOUS
 62
     1
 10
566.0
 20
1404.15
 11
566.0
 21
1656.0
  0
LINE
  8
0
  6
CONTINUOUS
 62
     1
 10
566.0
 20
1406.0
 11
566.0
 21
1656.0
  0
LINE
  8
0
  6
CONTINUOUS
 62
     1
 10
566.0
 20
1406.0
 11
566.0
 21
1656.0
  0
LINE
  8
0
  6
CONTINUOUS
 62
     1
 10
566.0
 20
1400.0
 11
601.0
 21
1400.0
  0
CIRCLE
  8
0
  6
CONTINUOUS
 62
     2
 10
2041.962354132
 20
1375.998877817
 40
10.4775
  0
CIRCLE
  8
0
  6
CONTINUOUS
 62
     2
 10
2041.962354132
 20
1375.998877817
 40
9.3155
  0
LINE
  8
0
  6
CONTINUOUS
 62
     4
 10
3219.0
 20
-56.0
 11
2427.0
 21
-56.0
  0
LINE
  8
0
  6
CONTINUOUS
 62
     4
 10
3219.0
 20
-136.0
 11
2427.0
 21
-136.0
  0
TEXT
  8
0
  6
CONTINUOUS
 62
     4
 10
146.999994954
 20
135.99999159
 30
1.599999664
 40
15.999996636
  1
ＰＡＲＴＳ　ＬＩＳＴ
 50
0.0
 41
0.6
 51
0.0
  7
KANJI27
  0
TEXT
  8
0
  6
CONTINUOUS
 62
     4
 10
506.999919262
 20
135.99999159
 30
1.599999664
 40
15.999996636
  1
Ｎ０．
 50
0.0
 41
0.6
 51
0.0
  7
KANJI27
  0
TEXT
  8
0
  6
CONTINUOUS
 62
     4
 10
146.999994954
 20
111.999996636
 30
1.919999596
 40
19.199995963
  1
部品表
 50
0.0
 41
0.9
 51
0.0
  7
KANJI28
  0
TEXT
  8
0
  6
CONTINUOUS
 62
     4
 10
506.999919262
 20
111.999996636
 30
1.919999596
 40
19.199995963
  1
項番
 50
0.0
 41
0.9
 51
0.0
  7
KANJI28
  0
TEXT
  8
0
  6
CONTINUOUS
 62
     4
 10
2341.9334008
 20
2254.9333328
 30
2.07999984
 40
20.7999984
  1
ＩＳＯ
 50
0.0
 41
0.9
 51
0.0
  7
KANJI29
  0
TEXT
  8
0
  6
CONTINUOUS
 62
     4
 10
2404.333396
 20
2254.9333328
 30
1.38666656
 40
13.8666656
  1
ＭＥＴＲＩＣ　ＳＣＲＥＷ　ＴＨＲＥＡＤ
 50
0.0
 41
0.75
 51
0.0
  7
KANJI30
  0
TEXT
  8
0
  6
CONTINUOUS
 62
     4
 10
2639.72004456
 20
2254.9333328
 30
1.38666656
 40
13.8666656
  1
ＩＳＯ
 50
0.0
 41
0.75
 51
0.0
  7
KANJI30
  0
TEXT
  8
0
  6
CONTINUOUS
 62
     4
 10
2837.32002936
 20
2254.9333328
 30
2.07999984
 40
20.7999984
  1
３
 50
0.0
 41
0.75
 51
0.0
  7
KANJI31
  0
TEXT
  8
0
  6
CONTINUOUS
 62
     4
 10
2854.65336136
 20
2254.9333328
 30
1.38666656
 40
13.8666656
  1
ＲＤ　ＡＮＧＬＥ　ＰＲＯＪＥＣＴＩＯＮ　第３角法
 50
0.0
 41
0.75
 51
0.0
  7
KANJI30
  0
TEXT
  8
0
  6
CONTINUOUS
 62
     4
 10
2677.85337496
 20
2254.9333328
 30
1.247999904
 40
12.47999904
  1
メートルネジ使用
 50
0.0
 41
0.75
 51
0.0
  7
KANJI32
  0
LINE
  8
0
  6
CONTINUOUS
 62
     4
 10
2213.666744
 20
435.7333072
 11
2213.666744
 21
546.666632
  0
LINE
  8
0
  6
CONTINUOUS
 62
     4
 10
2144.333416
 20
491.1999696
 11
2144.333416
 21
546.666632
  0
TEXT
  8
0
  6
CONTINUOUS
 62
     4
 10
2158.2000816
 20
245.0666552
 30
1.38666656
 40
13.8666656
  1
ＤＲＡＷＮ
 50
0.0
 41
0.6
 51
0.0
  7
KANJI33
  0
TEXT
  8
0
  6
CONTINUOUS
 62
     4
 10
2158.2000816
 20
300.5333176
 30
1.38666656
 40
13.8666656
  1
ＤＥＳＩＧＮ
 50
0.0
 41
0.6
 51
0.0
  7
KANJI33
  0
TEXT
  8
0
  6
CONTINUOUS
 62
     4
 10
2158.2000816
 20
355.99998
 30
1.38666656
 40
13.8666656
  1
ＣＨＥＣＫ
 50
0.0
 41
0.6
 51
0.0
  7
KANJI33
  0
TEXT
  8
0
  6
CONTINUOUS
 62
     4
 10
2158.2000816
 20
411.4666424
 30
1.38666656
 40
13.8666656
  1
ＣＯＤＥ
 50
0.0
 41
0.6
 51
0.0
  7
KANJI33
  0
TEXT
  8
0
  6
CONTINUOUS
 62
     4
 10
2158.2000816
 20
466.9333048
 30
1.38666656
 40
13.8666656
  1
ＮＯ
 50
0.0
 41
0.6
 51
0.0
  7
KANJI33
  0
LINE
  8
0
  6
CONTINUOUS
 62
     4
 10
2144.333416
 20
324.7999824
 11
2397.4000632
 21
324.7999824
  0
LINE
  8
0
  6
CONTINUOUS
 62
     4
 10
2144.333416
 20
269.33332
 11
2397.4000632
 21
269.33332
  0
LINE
  8
0
  6
CONTINUOUS
 62
     4
 10
2144.333416
 20
380.2666448
 11
2397.4000632
 21
380.2666448
  0
LINE
  8
0
  6
CONTINUOUS
 62
     4
 10
2144.333416
 20
435.7333072
 11
3212.0666672
 21
435.7333072
  0
TEXT
  8
0
  6
CONTINUOUS
 62
     4
 10
2158.2000816
 20
279.7333192
 30
1.663999872
 40
16.63999872
  1
設計
 50
0.0
 41
0.6
 51
0.0
  7
KANJI34
  0
TEXT
  8
0
  6
CONTINUOUS
 62
     4
 10
2158.2000816
 20
335.1999816
 30
1.663999872
 40
16.63999872
  1
検図
 50
0.0
 41
0.6
 51
0.0
  7
KANJI34
  0
TEXT
  8
0
  6
CONTINUOUS
 62
     4
 10
2158.2000816
 20
390.666644
 30
1.663999872
 40
16.63999872
  1
分類
 50
0.0
 41
0.6
 51
0.0
  7
KANJI34
  0
TEXT
  8
0
  6
CONTINUOUS
 62
     4
 10
2158.2000816
 20
446.1333064
 30
1.663999872
 40
16.63999872
  1
番号
 50
0.0
 41
0.6
 51
0.0
  7
KANJI34
  0
TEXT
  8
0
  6
CONTINUOUS
 62
     4
 10
2352.3334
 20
466.9333048
 30
1.38666656
 40
13.8666656
  1
ＰＡＲＴＳ　　ＮＡＭＥ
 50
0.0
 41
0.6
 51
0.0
  7
KANJI33
  0
TEXT
  8
0
  6
CONTINUOUS
 62
     4
 10
2331.5334016
 20
442.66664
 30
1.663999872
 40
16.63999872
  1
　　品　　　　　　名
 50
0.0
 41
0.6
 51
0.0
  7
KANJI34
  0
LINE
  8
0
  6
CONTINUOUS
 62
     4
 10
2931.2666888
 20
435.7333072
 11
2931.2666888
 21
546.666632
  0
LINE
  8
0
  6
CONTINUOUS
 62
     4
 10
2837.666696
 20
435.7333072
 11
2837.666696
 21
546.666632
  0
LINE
  8
0
  6
CONTINUOUS
 62
     4
 10
2768.333368
 20
435.7333072
 11
2768.333368
 21
546.666632
  0
LINE
  8
0
  6
CONTINUOUS
 62
     4
 10
2629.666712
 20
435.7333072
 11
2629.666712
 21
546.666632
  0
TEXT
  8
0
  6
CONTINUOUS
 62
     4
 10
2657.4000432
 20
466.9333048
 30
1.38666656
 40
13.8666656
  1
ＭＡＴＥＲＩＡＬ
 50
0.0
 41
0.6
 51
0.0
  7
KANJI33
  0
TEXT
  8
0
  6
CONTINUOUS
 62
     4
 10
2782.2000336
 20
466.9333048
 30
1.38666656
 40
13.8666656
  1
ＱＴＹ
 50
0.0
 41
0.9
 51
0.0
  7
KANJI35
  0
TEXT
  8
0
  6
CONTINUOUS
 62
     4
 10
2848.0666952
 20
466.9333048
 30
1.38666656
 40
13.8666656
  1
ＷＴ／ＯＮＥ
 50
0.0
 41
0.8
 51
0.0
  7
KANJI36
  0
TEXT
  8
0
  6
CONTINUOUS
 62
     4
 10
3028.333348
 20
466.9333048
 30
1.38666656
 40
13.8666656
  1
ＲＥＭＡＲＫＳ
 50
0.0
 41
0.8
 51
0.0
  7
KANJI36
  0
TEXT
  8
0
  6
CONTINUOUS
 62
     4
 10
2650.4667104
 20
446.1333064
 30
1.663999872
 40
16.63999872
  1
　材　　　質
 50
0.0
 41
0.6
 51
0.0
  7
KANJI34
  0
TEXT
  8
0
  6
CONTINUOUS
 62
     4
 10
2782.2000336
 20
442.66664
 30
1.663999872
 40
16.63999872
  1
数量
 50
0.0
 41
0.9
 51
0.0
  7
KANJI37
  0
TEXT
  8
0
  6
CONTINUOUS
 62
     4
 10
2848.0666952
 20
442.66664
 30
1.663999872
 40
16.63999872
  1
重量　（Ｋｇ）
 50
0.0
 41
0.8
 51
0.0
  7
KANJI38
  0
TEXT
  8
0
  6
CONTINUOUS
 62
     4
 10
3021.4000152
 20
442.66664
 30
1.663999872
 40
16.63999872
  1
　　摘　要
 50
0.0
 41
0.8
 51
0.0
  7
KANJI38
  0
LINE
  8
0
  6
CONTINUOUS
 62
     4
 10
2417.85339496
 20
380.2666448
 11
3212.0666672
 21
380.2666448
  0
LINE
  8
0
  6
CONTINUOUS
 62
     4
 10
2397.4000632
 20
269.33332
 11
3212.0666672
 21
269.33332
  0
TEXT
  8
0
  6
CONTINUOUS
 62
     4
 10
2411.2667288
 20
245.0666552
 30
1.38666656
 40
13.8666656
  1
ＤＲＡＷＩＮＧ　ＮＯ．
 50
0.0
 41
0.8
 51
0.0
  7
KANJI36
  0
TEXT
  8
0
  6
CONTINUOUS
 62
     4
 10
2411.2667288
 20
300.5333176
 30
1.38666656
 40
13.8666656
  1
ＭＦＧ　ＮＯ．
 50
0.0
 41
0.8
 51
0.0
  7
KANJI36
  0
TEXT
  8
0
  6
CONTINUOUS
 62
     4
 10
2411.2667288
 20
355.99998
 30
1.38666656
 40
13.8666656
  1
ＴＹＰＥ
 50
0.0
 41
0.8
 51
0.0
  7
KANJI36
  0
LINE
  8
0
  6
CONTINUOUS
 62
     4
 10
2418.2000616
 20
324.7999824
 11
2737.1333704
 21
324.7999824
  0
TEXT
  8
0
  6
CONTINUOUS
 62
     4
 10
2411.2667288
 20
220.7999904
 30
1.663999872
 40
16.63999872
  1
図　面　番　号
 50
0.0
 41
0.8
 51
0.0
  7
KANJI38
  0
TEXT
  8
0
  6
CONTINUOUS
 62
     4
 10
2411.2667288
 20
276.2666528
 30
1.663999872
 40
16.63999872
  1
製番
 50
0.0
 41
0.8
 51
0.0
  7
KANJI38
  0
TEXT
  8
0
  6
CONTINUOUS
 62
     4
 10
2411.2667288
 20
331.7333152
 30
1.663999872
 40
16.63999872
  1
機種
 50
0.0
 41
0.8
 51
0.0
  7
KANJI38
  0
LINE
  8
0
  6
CONTINUOUS
 62
     4
 10
2144.333416
 20
158.3999952
 11
2397.4000632
 21
158.3999952
  0
LINE
  8
0
  6
CONTINUOUS
 62
     4
 10
2144.333416
 20
213.8666576
 11
2397.4000632
 21
213.8666576
  0
TEXT
  8
0
  6
CONTINUOUS
 62
     4
 10
2158.2000816
 20
134.1333304
 30
1.38666656
 40
13.8666656
  1
ＳＣＡＬＥ
 50
0.0
 41
0.6
 51
0.0
  7
KANJI33
  0
TEXT
  8
0
  6
CONTINUOUS
 62
     4
 10
2158.2000816
 20
189.5999928
 30
1.38666656
 40
13.8666656
  1
ＤＡＴＥ
 50
0.0
 41
0.6
 51
0.0
  7
KANJI33
  0
TEXT
  8
0
  6
CONTINUOUS
 62
     4
 10
2158.2000816
 20
113.333332
 30
1.663999872
 40
16.63999872
  1
尺度
 50
0.0
 41
0.6
 51
0.0
  7
KANJI34
  0
TEXT
  8
0
  6
CONTINUOUS
 62
     4
 10
2158.2000816
 20
168.7999944
 30
1.663999872
 40
16.63999872
  1
日付
 50
0.0
 41
0.6
 51
0.0
  7
KANJI34
  0
TEXT
  8
0
  6
CONTINUOUS
 62
     4
 10
2158.2000816
 20
224.2666568
 30
1.663999872
 40
16.63999872
  1
作図
 50
0.0
 41
0.6
 51
0.0
  7
KANJI34
  0
LINE
  8
0
  6
CONTINUOUS
 62
     4
 10
1752.6001128
 20
102.9333328
 11
1752.6001128
 21
158.3999952
  0
LINE
  8
0
  6
CONTINUOUS
 62
     4
 10
1815.000108
 20
102.9333328
 11
1815.000108
 21
158.3999952
  0
TEXT
  8
0
  6
CONTINUOUS
 62
     4
 10
1773.4001112
 20
134.1333304
 30
1.38666656
 40
13.8666656
  1
ＢＹ
 50
0.0
 41
0.6
 51
0.0
  7
KANJI33
  0
TEXT
  8
0
  6
CONTINUOUS
 62
     4
 10
1925.9334328
 20
134.1333304
 30
1.38666656
 40
13.8666656
  1
ＤＥＳＣＲＩＰＴＩＯＮ
 50
0.0
 41
0.6
 51
0.0
  7
KANJI33
  0
TEXT
  8
0
  6
CONTINUOUS
 62
     4
 10
1773.4001112
 20
113.333332
 30
1.663999872
 40
16.63999872
  1
担当
 50
0.0
 41
0.6
 51
0.0
  7
KANJI34
  0
TEXT
  8
0
  6
CONTINUOUS
 62
     4
 10
1946.7334312
 20
113.333332
 30
1.663999872
 40
16.63999872
  1
記　　　　事
 50
0.0
 41
0.6
 51
0.0
  7
KANJI34
  0
LINE
  8
0
  6
CONTINUOUS
 62
     4
 10
1626.0667892
 20
147.999996
 11
1603.5334576
 21
113.333332
  0
TEXT
  8
0
  6
CONTINUOUS
 62
     4
 10
1683.2667848
 20
134.1333304
 30
1.38666656
 40
13.8666656
  1
ＤＡＴＥ
 50
0.0
 41
0.6
 51
0.0
  7
KANJI33
  0
TEXT
  8
0
  6
CONTINUOUS
 62
     4
 10
1693.666784
 20
113.333332
 30
1.663999872
 40
16.63999872
  1
日付
 50
0.0
 41
0.6
 51
0.0
  7
KANJI34
  0
LINE
  8
0
  6
CONTINUOUS
 62
     4
 10
1603.5334576
 20
113.333332
 11
1648.6001208
 21
113.333332
  0
LINE
  8
0
  6
CONTINUOUS
 62
     4
 10
1655.5334536
 20
102.9333328
 11
1655.5334536
 21
158.3999952
  0
LINE
  8
0
  6
CONTINUOUS
 62
     4
 10
1626.0667892
 20
147.999996
 11
1648.6001208
 21
113.333332
  0
LINE
  8
0
  6
CONTINUOUS
 62
     4
 10
2397.4000632
 20
189.5999928
 11
3212.0666672
 21
189.5999928
  0
LINE
  8
0
  6
CONTINUOUS
 62
     4
 10
2397.4000632
 20
102.9333328
 11
2397.4000632
 21
435.7333072
  0
LINE
  8
0
  6
LTYPE3
 62
     4
 10
2979.8000184
 20
199.999992
 11
2979.8000184
 21
255.4666544
  0
LINE
  8
0
  6
LTYPE3
 62
     4
 10
2931.2666888
 20
199.999992
 11
2931.2666888
 21
255.4666544
  0
LINE
  8
0
  6
LTYPE3
 62
     4
 10
2882.7333592
 20
199.999992
 11
2882.7333592
 21
255.4666544
  0
LINE
  8
0
  6
LTYPE3
 62
     4
 10
2834.2000296
 20
199.999992
 11
2834.2000296
 21
255.4666544
  0
LINE
  8
0
  6
LTYPE3
 62
     4
 10
2785.6667
 20
199.999992
 11
2785.6667
 21
255.4666544
  0
LINE
  8
0
  6
LTYPE3
 62
     4
 10
2737.1333704
 20
199.999992
 11
2737.1333704
 21
255.4666544
  0
LINE
  8
0
  6
LTYPE3
 62
     4
 10
2688.6000408
 20
199.999992
 11
2688.6000408
 21
255.4666544
  0
LINE
  8
0
  6
LTYPE3
 62
     4
 10
2640.0667112
 20
199.999992
 11
2640.0667112
 21
255.4666544
  0
LINE
  8
0
  6
LTYPE3
 62
     4
 10
2640.0667112
 20
255.4666544
 11
2979.8000184
 21
255.4666544
  0
LINE
  8
0
  6
LTYPE3
 62
     4
 10
2640.0667112
 20
199.999992
 11
2979.8000184
 21
199.999992
  0
LINE
  8
0
  6
CONTINUOUS
 62
     4
 10
3007.5333496
 20
229.4666564
 11
3021.4000152
 21
229.4666564
  0
LINE
  8
0
  6
CONTINUOUS
 62
     4
 10
3094.2000096
 20
208.666658
 11
3045.66668
 21
208.666658
  0
LINE
  8
0
  6
CONTINUOUS
 62
     4
 10
3045.66668
 20
208.666658
 11
3069.9333448
 21
250.2666548
  0
LINE
  8
0
  6
CONTINUOUS
 62
     4
 10
3069.9333448
 20
250.2666548
 11
3094.2000096
 21
208.666658
  0
LINE
  8
0
  6
CONTINUOUS
 62
     4
 10
3212.0666672
 20
491.1999696
 11
3212.0666672
 21
546.666632
  0
LINE
  8
0
  6
CONTINUOUS
 62
     4
 10
2144.333416
 20
546.666632
 11
3212.0666672
 21
546.666632
  0
LINE
  8
0
  6
CONTINUOUS
 62
     4
 10
3225.9333328
 20
102.9333328
 11
3309.1333264
 21
102.9333328
  0
LINE
  8
0
  6
CONTINUOUS
 62
     4
 10
3225.9333328
 20
144.5333296
 11
3309.1333264
 21
144.5333296
  0
LINE
  8
0
  6
CONTINUOUS
 62
     4
 10
3225.9333328
 20
186.1333264
 11
3309.1333264
 21
186.1333264
  0
LINE
  8
0
  6
CONTINUOUS
 62
     4
 10
3225.9333328
 20
227.7333232
 11
3309.1333264
 21
227.7333232
  0
LINE
  8
0
  6
CONTINUOUS
 62
     4
 10
3225.9333328
 20
269.33332
 11
3309.1333264
 21
269.33332
  0
LINE
  8
0
  6
CONTINUOUS
 62
     4
 10
3225.9333328
 20
310.9333168
 11
3309.1333264
 21
310.9333168
  0
LINE
  8
0
  6
CONTINUOUS
 62
     4
 10
3225.9333328
 20
352.5333136
 11
3309.1333264
 21
352.5333136
  0
LINE
  8
0
  6
CONTINUOUS
 62
     4
 10
3225.9333328
 20
394.1333104
 11
3309.1333264
 21
394.1333104
  0
LINE
  8
0
  6
CONTINUOUS
 62
     4
 10
3225.9333328
 20
435.7333072
 11
3309.1333264
 21
435.7333072
  0
LINE
  8
0
  6
CONTINUOUS
 62
     4
 10
3225.9333328
 20
477.333304
 11
3309.1333264
 21
477.333304
  0
LINE
  8
0
  6
CONTINUOUS
 62
     4
 10
3309.1333264
 20
102.9333328
 11
3309.1333264
 21
477.333304
  0
LINE
  8
0
  6
CONTINUOUS
 62
     4
 10
3267.5333296
 20
102.9333328
 11
3267.5333296
 21
435.7333072
  0
TEXT
  8
0
  6
CONTINUOUS
 62
     4
 10
3240.14666504
 20
115.0666652
 30
2.07999984
 40
20.7999984
  1
計
 50
0.0
 41
0.75
 51
0.0
  7
KANJI39
  0
TEXT
  8
0
  6
CONTINUOUS
 62
     4
 10
3240.14666504
 20
198.95999208
 30
2.07999984
 40
20.7999984
  1
設
 50
0.0
 41
0.75
 51
0.0
  7
KANJI39
  0
TEXT
  8
0
  6
CONTINUOUS
 62
     4
 10
3240.14666504
 20
239.8666556
 30
2.07999984
 40
20.7999984
  1
管
 50
0.0
 41
0.75
 51
0.0
  7
KANJI39
  0
TEXT
  8
0
  6
CONTINUOUS
 62
     4
 10
3240.14666504
 20
281.4666524
 30
2.07999984
 40
20.7999984
  1
製
 50
0.0
 41
0.75
 51
0.0
  7
KANJI39
  0
TEXT
  8
0
  6
CONTINUOUS
 62
     4
 10
3240.14666504
 20
323.0666492
 30
2.07999984
 40
20.7999984
  1
資
 50
0.0
 41
0.75
 51
0.0
  7
KANJI39
  0
TEXT
  8
0
  6
CONTINUOUS
 62
     4
 10
3240.14666504
 20
364.666646
 30
2.07999984
 40
20.7999984
  1
営
 50
0.0
 41
0.75
 51
0.0
  7
KANJI39
  0
TEXT
  8
0
  6
CONTINUOUS
 62
     4
 10
3240.14666504
 20
406.2666428
 30
2.07999984
 40
20.7999984
  1
客
 50
0.0
 41
0.75
 51
0.0
  7
KANJI39
  0
TEXT
  8
0
  6
CONTINUOUS
 62
     4
 10
3239.7999984
 20
449.5999728
 30
2.07999984
 40
20.7999984
  1
出　図
 50
0.0
 41
0.75
 51
0.0
  7
KANJI39
  0
LINE
  8
0
  6
CONTINUOUS
 62
     4
 10
3225.9333328
 20
102.9333328
 11
3225.9333328
 21
477.333304
  0
TEXT
  8
0
  6
CONTINUOUS
 62
     4
 10
3101.1333424
 20
26.666672
 30
6.9333328
 40
69.333328
  1
／
 50
0.0
 41
0.9
 51
0.0
  7
KANJI40
  0
TEXT
  8
0
  6
CONTINUOUS
 62
     4
 10
2757.9333688
 20
355.99998
 30
1.38666656
 40
13.8666656
  1
ＴＩＴＬＥ
 50
0.0
 41
0.8
 51
0.0
  7
KANJI36
  0
TEXT
  8
0
  6
CONTINUOUS
 62
     4
 10
2757.9333688
 20
331.7333152
 30
1.663999872
 40
16.63999872
  1
名称
 50
0.0
 41
0.8
 51
0.0
  7
KANJI38
  0
LINE
  8
0
  6
CONTINUOUS
 62
     6
 10
123.0
 20
96.0
 11
123.0
 21
2248.0
  0
LINE
  8
0
  6
CONTINUOUS
 62
     6
 10
123.0
 20
2248.0
 11
3219.0
 21
2248.0
  0
LINE
  8
0
  6
CONTINUOUS
 62
     6
 10
3219.0
 20
2248.0
 11
3219.0
 21
96.0
  0
LINE
  8
0
  6
CONTINUOUS
 62
     6
 10
3219.0
 20
96.0
 11
123.0
 21
96.0
  0
LINE
  8
0
  6
CONTINUOUS
 62
     6
 10
650.999888985
 20
103.999998318
 11
650.999888985
 21
215.999974769
  0
LINE
  8
0
  6
CONTINUOUS
 62
     6
 10
130.999998318
 20
215.999974769
 11
650.999888985
 21
215.999974769
  0
LINE
  8
0
  6
CONTINUOUS
 62
     6
 10
130.999998318
 20
103.999998318
 11
650.999888985
 21
103.999998318
  0
LINE
  8
0
  6
CONTINUOUS
 62
     6
 10
130.999998318
 20
103.999998318
 11
130.999998318
 21
215.999974769
  0
LINE
  8
0
  6
CONTINUOUS
 62
     6
 10
490.999922626
 20
103.999998318
 11
490.999922626
 21
215.999974769
  0
LINE
  8
0
  6
CONTINUOUS
 62
     6
 10
130.999998318
 20
159.999986544
 11
650.999888985
 21
159.999986544
  0
TEXT
  8
0
  6
CONTINUOUS
 62
     3
 10
146.999994954
 20
175.999983179
 30
2.399999495
 40
23.999994954
  1
ＰＬ
 50
0.0
 41
0.9
 51
0.0
  7
KANJI41
  0
LINE
  8
0
  6
CONTINUOUS
 62
     6
 10
1596.6001248
 20
102.9333328
 11
1596.6001248
 21
158.3999952
  0
LINE
  8
0
  6
CONTINUOUS
 62
     6
 10
1596.6001248
 20
158.3999952
 11
2144.333416
 21
158.3999952
  0
LINE
  8
0
  6
CONTINUOUS
 62
     6
 10
1596.6001248
 20
102.9333328
 11
3212.0666672
 21
102.9333328
  0
LINE
  8
0
  6
CONTINUOUS
 62
     6
 10
2144.333416
 20
102.9333328
 11
2144.333416
 21
491.1999696
  0
LINE
  8
0
  6
CONTINUOUS
 62
     6
 10
2689.20670742
 20
139.67999664
 11
2666.32670918
 21
139.67999664
  0
LINE
  8
0
  6
CONTINUOUS
 62
     6
 10
2689.20670742
 20
143.83999632
 11
2666.32670918
 21
143.83999632
  0
LINE
  8
0
  6
CONTINUOUS
 62
     6
 10
2689.20670742
 20
139.67999664
 11
2712.08670566
 21
139.67999664
  0
LINE
  8
0
  6
CONTINUOUS
 62
     6
 10
2689.20670742
 20
143.83999632
 11
2712.08670566
 21
143.83999632
  0
LINE
  8
0
  6
CONTINUOUS
 62
     6
 10
2712.08670566
 20
143.83999632
 11
2712.08670566
 21
139.67999664
  0
ARC
  8
0
  6
CONTINUOUS
 62
     6
 10
2717.28670526
 20
141.75999648
 40
20.7999984
 50
185.739170477
 51
90.0
  0
ARC
  8
0
  6
CONTINUOUS
 62
     6
 10
2717.28670526
 20
141.75999648
 40
24.95999808
 50
184.780191847
 51
90.0
  0
LINE
  8
0
  6
CONTINUOUS
 62
     6
 10
2666.32670918
 20
139.67999664
 11
2666.32670918
 21
143.83999632
  0
TEXT
  8
0
  6
CONTINUOUS
 62
     6
 10
2404.333396
 20
134.1333304
 30
0.0
 40
24.2666648
  1
ＵＮＩＴＥＣ　ＩＮＤＵＳＴＲＹ　ＣＯ．，ＬＴＤ．
 50
0.0
 41
0.42031746
 51
0.0
  7
KANJI42
  0
LINE
  8
0
  6
CONTINUOUS
 62
     6
 10
2686.08670766
 20
166.71999456
 11
2661.12670958
 21
166.71999456
  0
LINE
  8
0
  6
CONTINUOUS
 62
     6
 10
2692.32670718
 20
166.71999456
 11
2717.28670526
 21
166.71999456
  0
ARC
  8
0
  6
CONTINUOUS
 62
     6
 10
2661.12670958
 20
141.75999648
 40
20.7999984
 50
90.0
 51
354.260829523
  0
ARC
  8
0
  6
CONTINUOUS
 62
     6
 10
2661.12670958
 20
141.75999648
 40
24.95999808
 50
90.0
 51
355.219808153
  0
LINE
  8
0
  6
CONTINUOUS
 62
     6
 10
2686.08670766
 20
166.71999456
 11
2686.08670766
 21
162.55999488
  0
LINE
  8
0
  6
CONTINUOUS
 62
     6
 10
2661.12670958
 20
162.55999488
 11
2686.08670766
 21
162.55999488
  0
LINE
  8
0
  6
CONTINUOUS
 62
     6
 10
2692.32670718
 20
166.71999456
 11
2692.32670718
 21
162.55999488
  0
LINE
  8
0
  6
CONTINUOUS
 62
     6
 10
2717.28670526
 20
162.55999488
 11
2692.32670718
 21
162.55999488
  0
TEXT
  8
0
  6
CONTINUOUS
 62
     6
 10
2744.67336982
 20
125.11999776
 30
4.15999968
 40
41.5999968
  1
ユニテック工業株式会社
 50
0.0
 41
0.9
 51
0.0
  7
KANJI43
  0
LINE
  8
0
  6
CONTINUOUS
 62
     6
 10
2144.333416
 20
491.1999696
 11
3212.0666672
 21
491.1999696
  0
LINE
  8
0
  6
CONTINUOUS
 62
     6
 10
3212.0666672
 20
102.9333328
 11
3212.0666672
 21
491.1999696
  0
TEXT
  8
0
  6
CONTINUOUS
 62
     3
 10
2263.0
 20
112.0
 30
2.4
 40
36.0
  1
１／８
 50
0.0
 41
0.666666667
 51
0.0
  7
KANJI44
  0
TEXT
  8
0
  6
CONTINUOUS
 62
     3
 10
2589.5
 20
275.0
 30
2.4
 40
32.0
  1
Ｓ
 50
0.0
 41
0.75
 51
0.0
  7
KANJI45
  0
CIRCLE
  8
0
  6
CONTINUOUS
 62
     3
 10
2600.5
 20
291.5
 40
21.708293346
  0
TEXT
  8
0
  6
CONTINUOUS
 62
     3
 10
2881.0
 20
280.0
 30
20.0
 40
40.0
  1
外形寸法図
 50
0.0
 41
1.0
 51
0.0
  7
KANJI46
  0
TEXT
  8
0
  6
CONTINUOUS
 62
     3
 10
2833.0
 20
328.0
 30
5.714285714
 40
40.0
  1
マイティシリンダ
 50
0.0
 41
1.0
 51
0.0
  7
KANJI47
  0
TEXT
  8
0
  6
CONTINUOUS
 62
     2
 10
2987.8
 20
1491.2
 30
2.4
 40
24.0
  1
　　　／　
 50
0.0
 41
0.9
 51
0.0
  7
KANJI0
  0
TEXT
  8
0
  6
CONTINUOUS
 62
     2
 10
2981.0
 20
1385.0
 30
2.4
 40
24.0
  1
　　　／
 50
0.0
 41
0.9
 51
0.0
  7
KANJI0
  0
TEXT
  8
0
  6
CONTINUOUS
 62
     2
 10
1159.275240468
 20
1967.133058
 30
2.79993
 40
27.9993
  1
注意：サーマルリレー等の選定は、上記の値を参照下さい。
 50
0.0
 41
0.9
 51
0.0
  7
KANJI48
  0
LINE
  8
0
  6
CONTINUOUS
 62
     2
 10
1143.275640468
 20
1959.133258
 11
1895.256840468
 21
1959.133258
  0
LINE
  8
0
  6
CONTINUOUS
 62
     1
 10
1929.85602
 20
2220.793375
 11
1929.85602
 21
2012.798575
  0
LINE
  8
0
  6
CONTINUOUS
 62
     2
 10
1809.85902
 20
2220.793375
 11
1809.85902
 21
2012.798575
  0
LINE
  8
0
  6
CONTINUOUS
 62
     2
 10
1689.86202
 20
2220.793375
 11
1689.86202
 21
2012.798575
  0
LINE
  8
0
  6
CONTINUOUS
 62
     1
 10
1529.86602
 20
2220.793375
 11
1529.86602
 21
2012.798575
  0
LINE
  8
0
  6
CONTINUOUS
 62
     1
 10
1529.86602
 20
2220.793375
 11
1929.85602
 21
2220.793375
  0
LINE
  8
0
  6
CONTINUOUS
 62
     1
 10
1529.86602
 20
2156.794975
 11
1929.85602
 21
2156.794975
  0
LINE
  8
0
  6
CONTINUOUS
 62
     2
 10
1529.86602
 20
2108.796175
 11
1929.85602
 21
2108.796175
  0
LINE
  8
0
  6
CONTINUOUS
 62
     2
 10
1529.86602
 20
2060.797375
 11
1929.85602
 21
2060.797375
  0
LINE
  8
0
  6
CONTINUOUS
 62
     1
 10
1529.86602
 20
2012.798575
 11
1929.85602
 21
2012.798575
  0
TEXT
  8
0
  6
CONTINUOUS
 62
     2
 10
1825.85862
 20
2192.794075
 30
2.39994
 40
23.9994
  1
起動電流
 50
0.0
 41
0.9
 51
0.0
  7
KANJI49
  0
TEXT
  8
0
  6
CONTINUOUS
 62
     2
 10
1825.85862
 20
2164.794775
 30
2.39994
 40
23.9994
  1
　　　Ａ
 50
0.0
 41
0.9
 51
0.0
  7
KANJI49
  0
TEXT
  8
0
  6
CONTINUOUS
 62
     2
 10
1705.86162
 20
2192.794075
 30
2.39994
 40
23.9994
  1
定格電流
 50
0.0
 41
0.9
 51
0.0
  7
KANJI49
  0
TEXT
  8
0
  6
CONTINUOUS
 62
     2
 10
1705.86162
 20
2164.794775
 30
2.39994
 40
23.9994
  1
　　　Ａ
 50
0.0
 41
0.9
 51
0.0
  7
KANJI49
  0
TEXT
  8
0
  6
CONTINUOUS
 62
     2
 10
1543.46568
 20
2072.797075
 30
2.39994
 40
23.9994
  1
２００／６０
 50
0.0
 41
0.9
 51
0.0
  7
KANJI49
  0
TEXT
  8
0
  6
CONTINUOUS
 62
     2
 10
1543.46568
 20
2192.794075
 30
2.39994
 40
23.9994
  1
電圧／周波数
 50
0.0
 41
0.9
 51
0.0
  7
KANJI49
  0
TEXT
  8
0
  6
CONTINUOUS
 62
     2
 10
1543.46568
 20
2164.794775
 30
2.39994
 40
23.9994
  1
　Ｖ／Ｈｚ
 50
0.0
 41
0.9
 51
0.0
  7
KANJI49
  0
TEXT
  8
0
  6
CONTINUOUS
 62
     2
 10
1543.46568
 20
2120.795875
 30
2.39994
 40
23.9994
  1
２００／５０
 50
0.0
 41
0.9
 51
0.0
  7
KANJI49
  0
TEXT
  8
0
  6
CONTINUOUS
 62
     2
 10
1543.46568
 20
2024.798275
 30
2.39994
 40
23.9994
  1
２２０／６０
 50
0.0
 41
0.9
 51
0.0
  7
KANJI49
  0
LINE
  8
0
  6
CONTINUOUS
 62
     1
 10
1449.86802
 20
2220.793375
 11
1449.86802
 21
2012.798575
  0
LINE
  8
0
  6
CONTINUOUS
 62
     2
 10
1329.87102
 20
2220.793375
 11
1329.87102
 21
2012.798575
  0
LINE
  8
0
  6
CONTINUOUS
 62
     2
 10
1209.87402
 20
2220.793375
 11
1209.87402
 21
2012.798575
  0
LINE
  8
0
  6
CONTINUOUS
 62
     1
 10
1049.87802
 20
2220.793375
 11
1049.87802
 21
2012.798575
  0
LINE
  8
0
  6
CONTINUOUS
 62
     1
 10
1049.87802
 20
2220.793375
 11
1449.86802
 21
2220.793375
  0
LINE
  8
0
  6
CONTINUOUS
 62
     1
 10
1049.87802
 20
2156.794975
 11
1449.86802
 21
2156.794975
  0
LINE
  8
0
  6
CONTINUOUS
 62
     2
 10
1049.87802
 20
2108.796175
 11
1449.86802
 21
2108.796175
  0
LINE
  8
0
  6
CONTINUOUS
 62
     2
 10
1049.87802
 20
2060.797375
 11
1449.86802
 21
2060.797375
  0
LINE
  8
0
  6
CONTINUOUS
 62
     1
 10
1049.87802
 20
2012.798575
 11
1449.86802
 21
2012.798575
  0
TEXT
  8
0
  6
CONTINUOUS
 62
     2
 10
1345.87062
 20
2192.794075
 30
2.39994
 40
23.9994
  1
起動電流
 50
0.0
 41
0.9
 51
0.0
  7
KANJI49
  0
TEXT
  8
0
  6
CONTINUOUS
 62
     2
 10
1345.87062
 20
2164.794775
 30
2.39994
 40
23.9994
  1
　　　Ａ
 50
0.0
 41
0.9
 51
0.0
  7
KANJI49
  0
TEXT
  8
0
  6
CONTINUOUS
 62
     2
 10
1225.87362
 20
2192.794075
 30
2.39994
 40
23.9994
  1
定格電流
 50
0.0
 41
0.9
 51
0.0
  7
KANJI49
  0
TEXT
  8
0
  6
CONTINUOUS
 62
     2
 10
1225.87362
 20
2164.794775
 30
2.39994
 40
23.9994
  1
　　　Ａ
 50
0.0
 41
0.9
 51
0.0
  7
KANJI49
  0
TEXT
  8
0
  6
CONTINUOUS
 62
     2
 10
1063.47768
 20
2192.794075
 30
2.39994
 40
23.9994
  1
電圧／周波数
 50
0.0
 41
0.9
 51
0.0
  7
KANJI49
  0
TEXT
  8
0
  6
CONTINUOUS
 62
     2
 10
1063.47768
 20
2164.794775
 30
2.39994
 40
23.9994
  1
　Ｖ／Ｈｚ
 50
0.0
 41
0.9
 51
0.0
  7
KANJI49
  0
TEXT
  8
0
  6
CONTINUOUS
 62
     2
 10
1063.47768
 20
2120.795875
 30
2.39994
 40
23.9994
  1
４００／５０
 50
0.0
 41
0.9
 51
0.0
  7
KANJI49
  0
TEXT
  8
0
  6
CONTINUOUS
 62
     2
 10
1063.47768
 20
2072.797075
 30
2.39994
 40
23.9994
  1
４００／６０
 50
0.0
 41
0.9
 51
0.0
  7
KANJI49
  0
TEXT
  8
0
  6
CONTINUOUS
 62
     2
 10
1063.47768
 20
2024.798275
 30
2.39994
 40
23.9994
  1
４４０／６０
 50
0.0
 41
0.9
 51
0.0
  7
KANJI49
  0
LINE
  8
0
  6
CONTINUOUS
 62
     1
 10
566.0
 20
1431.0
 11
566.0
 21
1631.0
  0
LINE
  8
0
  6
CONTINUOUS
 62
     1
 10
749.0
 20
1429.944375069
 11
739.0
 21
1419.944375069
  0
LINE
  8
0
  6
CONTINUOUS
 62
     1
 10
739.0
 20
1361.305778818
 11
739.0
 21
1419.944375069
  0
ARC
  8
0
  6
CONTINUOUS
 62
     1
 10
737.0
 20
1430.466558854
 40
3.0
 50
90.0
 51
180.0
  0
LINE
  8
0
  6
CONTINUOUS
 62
     1
 10
749.0
 20
1429.944375069
 11
847.0
 21
1429.944375069
  0
LINE
  8
0
  6
CONTINUOUS
 62
     1
 10
737.0
 20
1433.466558854
 11
859.0
 21
1433.466558854
  0
LINE
  8
0
  6
CONTINUOUS
 62
     1
 10
734.0
 20
1300.0
 11
734.0
 21
1430.0
  0
LINE
  8
0
  6
CONTINUOUS
 62
     1
 10
857.0
 20
1361.305778818
 11
857.0
 21
1419.944375069
  0
LINE
  8
0
  6
CONTINUOUS
 62
     1
 10
862.0
 20
1318.657620342
 11
862.0
 21
1430.466558854
  0
LINE
  8
0
  6
CONTINUOUS
 62
     1
 10
857.0
 20
1419.944375069
 11
847.0
 21
1429.944375069
  0
ARC
  8
0
  6
CONTINUOUS
 62
     1
 10
859.0
 20
1430.466558854
 40
3.0
 50
0.0
 51
90.0
  0
LINE
  8
0
  6
CONTINUOUS
 62
     1
 10
875.0
 20
1230.0
 11
866.0
 21
1230.0
  0
LINE
  8
0
  6
CONTINUOUS
 62
     1
 10
875.0
 20
1370.0
 11
875.0
 21
1230.0
  0
LINE
  8
0
  6
CONTINUOUS
 62
     1
 10
875.0
 20
1370.0
 11
867.0
 21
1370.0
  0
LINE
  8
0
  6
CONTINUOUS
 62
     1
 10
890.0
 20
1367.5
 11
890.0
 21
1232.5
  0
LINE
  8
0
  6
CONTINUOUS
 62
     1
 10
890.0
 20
1367.5
 11
875.0
 21
1367.5
  0
LINE
  8
0
  6
CONTINUOUS
 62
     1
 10
890.0
 20
1232.5
 11
875.0
 21
1232.5
  0
LINE
  8
0
  6
CONTINUOUS
 62
     1
 10
869.0
 20
1212.5
 11
869.0
 21
1201.55046
  0
LINE
  8
0
  6
CONTINUOUS
 62
     1
 10
869.0
 20
1212.5
 11
869.0
 21
1223.44954
  0
LINE
  8
0
  6
CONTINUOUS
 62
     1
 10
866.0
 20
1201.75
 11
869.0
 21
1201.75
  0
LINE
  8
0
  6
CONTINUOUS
 62
     1
 10
866.0
 20
1212.5
 11
869.000254073
 21
1209.499745927
  0
LINE
  8
0
  6
CONTINUOUS
 62
     1
 10
869.000254073
 20
1212.5
 11
866.0
 21
1215.500254073
  0
LINE
  8
0
  6
CONTINUOUS
 62
     1
 10
866.0
 20
1223.25
 11
869.0
 21
1223.25
  0
LINE
  8
0
  6
CONTINUOUS
 62
     1
 10
869.0
 20
1201.75
 11
880.3
 21
1201.75
  0
LINE
  8
0
  6
CONTINUOUS
 62
     1
 10
880.3
 20
1212.5
 11
880.3
 21
1201.75
  0
LINE
  8
0
  6
CONTINUOUS
 62
     1
 10
880.3
 20
1201.75
 11
881.0
 21
1202.962435565
  0
LINE
  8
0
  6
CONTINUOUS
 62
     1
 10
881.0
 20
1212.5
 11
881.0
 21
1202.962435565
  0
LINE
  8
0
  6
CONTINUOUS
 62
     1
 10
869.0
 20
1223.25
 11
880.3
 21
1223.25
  0
LINE
  8
0
  6
CONTINUOUS
 62
     1
 10
880.3
 20
1212.5
 11
880.3
 21
1223.25
  0
LINE
  8
0
  6
CONTINUOUS
 62
     1
 10
880.3
 20
1223.25
 11
881.0
 21
1222.037564435
  0
LINE
  8
0
  6
CONTINUOUS
 62
     1
 10
881.0
 20
1212.5
 11
881.0
 21
1222.037564435
  0
LINE
  8
0
  6
LTYPE1
 62
     2
 10
894.7
 20
1212.5
 11
847.0
 21
1212.5
  0
LINE
  8
0
  6
CONTINUOUS
 62
     1
 10
870.0
 20
1387.5
 11
870.0
 21
1376.55046
  0
LINE
  8
0
  6
CONTINUOUS
 62
     1
 10
870.0
 20
1387.5
 11
870.0
 21
1398.44954
  0
LINE
  8
0
  6
CONTINUOUS
 62
     1
 10
867.0
 20
1376.75
 11
870.0
 21
1376.75
  0
LINE
  8
0
  6
CONTINUOUS
 62
     1
 10
867.0
 20
1387.5
 11
870.000254073
 21
1384.499745927
  0
LINE
  8
0
  6
CONTINUOUS
 62
     1
 10
870.000254073
 20
1387.5
 11
867.0
 21
1390.500254073
  0
LINE
  8
0
  6
CONTINUOUS
 62
     1
 10
867.0
 20
1398.25
 11
870.0
 21
1398.25
  0
LINE
  8
0
  6
CONTINUOUS
 62
     1
 10
870.0
 20
1376.75
 11
881.3
 21
1376.75
  0
LINE
  8
0
  6
CONTINUOUS
 62
     1
 10
881.3
 20
1387.5
 11
881.3
 21
1376.75
  0
LINE
  8
0
  6
CONTINUOUS
 62
     1
 10
881.3
 20
1376.75
 11
882.0
 21
1377.962435565
  0
LINE
  8
0
  6
CONTINUOUS
 62
     1
 10
882.0
 20
1387.5
 11
882.0
 21
1377.962435565
  0
LINE
  8
0
  6
CONTINUOUS
 62
     1
 10
870.0
 20
1398.25
 11
881.3
 21
1398.25
  0
LINE
  8
0
  6
CONTINUOUS
 62
     1
 10
881.3
 20
1387.5
 11
881.3
 21
1398.25
  0
LINE
  8
0
  6
CONTINUOUS
 62
     1
 10
881.3
 20
1398.25
 11
882.0
 21
1397.037564435
  0
LINE
  8
0
  6
CONTINUOUS
 62
     1
 10
882.0
 20
1387.5
 11
882.0
 21
1397.037564435
  0
LINE
  8
0
  6
LTYPE1
 62
     2
 10
895.7
 20
1387.5
 11
862.0
 21
1387.5
  0
LINE
  8
0
  6
CONTINUOUS
 62
     1
 10
566.0
 20
1419.5
 11
566.0
 21
1719.0
  0
LINE
  8
0
  6
CONTINUOUS
 62
     1
 10
2012.9
 20
1474.0
 11
2012.9
 21
1594.0
  0
LINE
  8
0
  6
LTYPE1
 62
     2
 10
2035.1
 20
1584.0
 11
2008.1
 21
1584.0
  0
LINE
  8
0
  6
CONTINUOUS
 62
     1
 10
2020.5
 20
1594.0
 11
2012.9
 21
1594.0
  0
LINE
  8
0
  6
CONTINUOUS
 62
     1
 10
2288.1
 20
1474.0
 11
2288.1
 21
1594.0
  0
LINE
  8
0
  6
LTYPE1
 62
     2
 10
2265.9
 20
1584.0
 11
2292.9
 21
1584.0
  0
LINE
  8
0
  6
CONTINUOUS
 62
     1
 10
2280.5
 20
1594.0
 11
2288.1
 21
1594.0
  0
LINE
  8
0
  6
LTYPE1
 62
     2
 10
2035.1
 20
1484.0
 11
2010.1
 21
1484.0
  0
LINE
  8
0
  6
CONTINUOUS
 62
     1
 10
2020.5
 20
1474.0
 11
2012.9
 21
1474.0
  0
LINE
  8
0
  6
LTYPE1
 62
     2
 10
2265.9
 20
1484.0
 11
2290.9
 21
1484.0
  0
LINE
  8
0
  6
CONTINUOUS
 62
     1
 10
2280.5
 20
1474.0
 11
2288.1
 21
1474.0
  0
LINE
  8
0
  6
CONTINUOUS
 62
     1
 10
2125.5
 20
1272.049150281
 11
2125.5
 21
1327.950849719
  0
LINE
  8
0
  6
CONTINUOUS
 62
     1
 10
2175.5
 20
1272.049150281
 11
2175.5
 21
1327.950849719
  0
CIRCLE
  8
0
  6
CONTINUOUS
 62
     1
 10
2150.5
 20
1300.0
 40
37.5
  0
LINE
  8
0
  6
LTYPE3
 62
     2
 10
2175.5
 20
1317.5
 11
2125.5
 21
1317.5
  0
LINE
  8
0
  6
LTYPE3
 62
     2
 10
2175.5
 20
1282.5
 11
2125.5
 21
1282.5
  0
LINE
  8
1
  6
CONTINUOUS
 62
     2
 10
636.0
 20
1222.398877817
 11
636.0
 21
986.0
  0
LINE
  8
1
  6
CONTINUOUS
 62
     2
 10
636.0
 20
1002.0
 11
655.318516526
 21
996.823619098
  0
LINE
  8
1
  6
CONTINUOUS
 62
     2
 10
636.0
 20
1002.0
 11
655.318516526
 21
1007.176380902
  0
LINE
  8
1
  6
CONTINUOUS
 62
     2
 10
636.0
 20
1002.0
 11
1403.999
 21
1002.0
  0
LINE
  8
1
  6
CONTINUOUS
 62
     2
 10
1403.999
 20
1002.0
 11
1384.680483474
 21
1007.176380902
  0
LINE
  8
1
  6
CONTINUOUS
 62
     2
 10
1403.999
 20
1002.0
 11
1384.680483474
 21
996.823619098
  0
LINE
  8
1
  6
CONTINUOUS
 62
     2
 10
636.0
 20
994.0
 11
636.0
 21
928.0
  0
LINE
  8
0
  6
LTYPE4
 62
     2
 10
2150.5
 20
1135.0
 11
2150.5
 21
1779.75
  0
LINE
  8
1
  6
CONTINUOUS
 62
     2
 10
1403.999
 20
1241.349198201
 11
1403.999
 21
986.0
  0
TEXT
  8
1
  6
CONTINUOUS
 62
     3
 10
884.699595103
 20
889.5
 30
2.4
 40
28.0
  1
ｍｉｎ．ＡＬ
 50
0.0
 41
0.914285714
 51
0.0
  7
KANJI50
  0
TEXT
  8
1
  6
CONTINUOUS
 62
     3
 10
1011.199595103
 20
952.0
 30
2.4
 40
28.0
  1
ｍｉｎ．Ｌ
 50
0.0
 41
0.914285714
 51
0.0
  7
KANJI50
  0
TEXT
  8
1
  6
CONTINUOUS
 62
     3
 10
1007.1995
 20
1010.0
 30
2.4
 40
28.0
  1
Ｃ
 50
0.0
 41
0.914285714
 51
0.0
  7
KANJI50
  0
LINE
  8
1
  6
CONTINUOUS
 62
     2
 10
2020.5
 20
1172.000030518
 11
2020.5
 21
986.0
  0
LINE
  8
1
  6
CONTINUOUS
 62
     2
 10
2020.5
 20
1002.0
 11
2039.818516526
 21
996.823619098
  0
LINE
  8
1
  6
CONTINUOUS
 62
     2
 10
2020.5
 20
1002.0
 11
2039.818516526
 21
1007.176380902
  0
LINE
  8
1
  6
CONTINUOUS
 62
     2
 10
2020.5
 20
1002.0
 11
2280.5
 21
1002.0
  0
LINE
  8
1
  6
CONTINUOUS
 62
     2
 10
2280.5
 20
1002.0
 11
2261.181483474
 21
1007.176380902
  0
LINE
  8
1
  6
CONTINUOUS
 62
     2
 10
2280.5
 20
1002.0
 11
2261.181483474
 21
996.823619098
  0
LINE
  8
1
  6
CONTINUOUS
 62
     2
 10
2280.5
 20
1172.0
 11
2280.5
 21
986.0
  0
TEXT
  8
1
  6
CONTINUOUS
 62
     3
 10
2109.7
 20
1010.0
 30
2.4
 40
28.0
  1
２６０
 50
0.0
 41
0.914285714
 51
0.0
  7
KANJI50
  0
LINE
  8
1
  6
CONTINUOUS
 62
     2
 10
2010.5
 20
1242.0
 11
2010.5
 21
928.0
  0
LINE
  8
1
  6
CONTINUOUS
 62
     2
 10
2010.5
 20
944.0
 11
2029.818516526
 21
938.823619098
  0
LINE
  8
1
  6
CONTINUOUS
 62
     2
 10
2010.5
 20
944.0
 11
2029.818516526
 21
949.176380902
  0
LINE
  8
1
  6
CONTINUOUS
 62
     2
 10
2010.5
 20
944.0
 11
2290.5
 21
944.0
  0
LINE
  8
1
  6
CONTINUOUS
 62
     2
 10
2290.5
 20
944.0
 11
2271.181483474
 21
949.176380902
  0
LINE
  8
1
  6
CONTINUOUS
 62
     2
 10
2290.5
 20
944.0
 11
2271.181483474
 21
938.823619098
  0
LINE
  8
1
  6
CONTINUOUS
 62
     2
 10
2290.5
 20
1242.0
 11
2290.5
 21
928.0
  0
TEXT
  8
1
  6
CONTINUOUS
 62
     3
 10
2109.7
 20
952.0
 30
2.4
 40
28.0
  1
２８０
 50
0.0
 41
0.914285714
 51
0.0
  7
KANJI50
  0
LINE
  8
1
  6
CONTINUOUS
 62
     2
 10
2002.5
 20
1277.5
 11
1951.0
 21
1277.5
  0
LINE
  8
1
  6
CONTINUOUS
 62
     2
 10
1967.0
 20
1277.5
 11
1961.823619098
 21
1258.181483474
  0
LINE
  8
1
  6
CONTINUOUS
 62
     2
 10
1967.0
 20
1277.5
 11
1972.176380902
 21
1258.181483474
  0
LINE
  8
1
  6
CONTINUOUS
 62
     2
 10
1967.0
 20
1247.5
 11
1967.0
 21
1277.5
  0
LINE
  8
1
  6
CONTINUOUS
 62
     2
 10
1967.0
 20
1277.5
 11
1967.0
 21
1322.5
  0
LINE
  8
1
  6
CONTINUOUS
 62
     2
 10
1967.0
 20
1322.5
 11
1967.0
 21
1686.1
  0
LINE
  8
1
  6
CONTINUOUS
 62
     2
 10
1967.0
 20
1322.5
 11
1972.176380902
 21
1341.818516526
  0
LINE
  8
1
  6
CONTINUOUS
 62
     2
 10
1967.0
 20
1322.5
 11
1961.823619098
 21
1341.818516526
  0
LINE
  8
1
  6
CONTINUOUS
 62
     2
 10
2002.5
 20
1322.5
 11
1951.0
 21
1322.5
  0
TEXT
  8
1
  6
CONTINUOUS
 62
     3
 10
1959.0
 20
1352.5
 30
2.4
 40
28.0
  1
φ４５Ｈ１０　　深さ５０
 50
90.0
 41
0.914285714
 51
0.0
  7
KANJI50
  0
LINE
  8
0
  6
LTYPE1
 62
     2
 10
2301.000030518
 20
1300.0
 11
1998.500030518
 21
1300.0
  0
LINE
  8
1
  6
CONTINUOUS
 62
     2
 10
2027.500030518
 20
1165.0
 11
1901.000030518
 21
1165.0
  0
LINE
  8
1
  6
CONTINUOUS
 62
     2
 10
1917.000030518
 20
1165.0
 11
1922.17641142
 21
1184.318516526
  0
LINE
  8
1
  6
CONTINUOUS
 62
     2
 10
1917.000030518
 20
1165.0
 11
1911.823649616
 21
1184.318516526
  0
LINE
  8
1
  6
CONTINUOUS
 62
     2
 10
1917.000030518
 20
1165.0
 11
1917.000030518
 21
1300.0
  0
LINE
  8
1
  6
CONTINUOUS
 62
     2
 10
1917.000030518
 20
1300.0
 11
1911.823649616
 21
1280.681483474
  0
LINE
  8
1
  6
CONTINUOUS
 62
     2
 10
1917.000030518
 20
1300.0
 11
1922.17641142
 21
1280.681483474
  0
LINE
  8
1
  6
CONTINUOUS
 62
     2
 10
1990.500030518
 20
1300.0
 11
1901.000030518
 21
1300.0
  0
TEXT
  8
1
  6
CONTINUOUS
 62
     3
 10
1909.000030518
 20
1191.7
 30
2.4
 40
28.0
  1
１３５
 50
90.0
 41
0.914285714
 51
0.0
  7
KANJI50
  0
LINE
  8
1
  6
CONTINUOUS
 62
     2
 10
2000.1
 20
1584.0
 11
1962.000030518
 21
1584.0
  0
TEXT
  8
0
  6
CONTINUOUS
 62
     3
 10
2403.0
 20
901.6
 30
16.0
 40
32.0
  1
特記事項
 50
0.0
 41
0.9
 51
0.0
  7
KANJI51
  0
TEXT
  8
0
  6
CONTINUOUS
 62
     3
 10
2291.0
 20
837.6
 30
8.228571429
 40
28.8
  1
１。運転時は必ずピストンロッドの回転防止を行って下さい。
 50
0.0
 41
0.857142857
 51
0.0
  7
KANJI52
  0
TEXT
  8
0
  6
CONTINUOUS
 62
     3
 10
2291.0
 20
785.2
 30
8.208
 40
28.8
  1
２。モートル：全閉自冷かご形３０分定格
 50
0.0
 41
0.857222222
 51
0.0
  7
KANJI53
  0
TEXT
  8
0
  6
CONTINUOUS
 62
     2
 10
915.5
 20
509.4
 30
2.4
 40
24.0
  1
１０００
 50
0.0
 41
0.9
 51
0.0
  7
KANJI0
  0
TEXT
  8
0
  6
CONTINUOUS
 62
     2
 10
1257.0
 20
623.6
 30
2.4
 40
24.0
  1
８６５
 50
0.0
 41
0.9
 51
0.0
  7
KANJI0
  0
TEXT
  8
0
  6
CONTINUOUS
 62
     2
 10
1416.6
 20
625.0
 30
2.4
 40
24.0
  1
７４５
 50
0.0
 41
0.9
 51
0.0
  7
KANJI0
  0
TEXT
  8
0
  6
CONTINUOUS
 62
     2
 10
1416.6
 20
569.0
 30
2.4
 40
24.0
  1
９４５
 50
0.0
 41
0.9
 51
0.0
  7
KANJI0
  0
TEXT
  8
0
  6
CONTINUOUS
 62
     2
 10
1391.6
 20
513.0
 30
2.4
 40
24.0
  1
１４８５
 50
0.0
 41
0.9
 51
0.0
  7
KANJI0
  0
TEXT
  8
0
  6
CONTINUOUS
 62
     2
 10
1590.8
 20
625.0
 30
2.4
 40
24.0
  1
５０
 50
0.0
 41
0.9
 51
0.0
  7
KANJI0
  0
LINE
  8
1
  6
CONTINUOUS
 62
     2
 10
1108.5
 20
1319.5
 11
1121.425968938
 21
1334.761694762
  0
LINE
  8
1
  6
CONTINUOUS
 62
     2
 10
1108.5
 20
1319.5
 11
1112.063370087
 21
1339.179999838
  0
LINE
  8
1
  6
CONTINUOUS
 62
     2
 10
1108.5
 20
1319.5
 11
1150.5
 21
1408.5
  0
LINE
  8
1
  6
CONTINUOUS
 62
     2
 10
1150.5
 20
1408.5
 11
1220.1
 21
1408.5
  0
TEXT
  8
1
  6
CONTINUOUS
 62
     3
 10
1150.5
 20
1416.5
 30
2.4
 40
24.0
  1
給脂口
 50
0.0
 41
0.9
 51
0.0
  7
KANJI0
  0
LINE
  8
1
  6
CONTINUOUS
 62
     2
 10
1000.0
 20
1357.0
 11
994.823619098
 21
1337.681483474
  0
LINE
  8
1
  6
CONTINUOUS
 62
     2
 10
1000.0
 20
1357.0
 11
1005.176380902
 21
1337.681483474
  0
LINE
  8
1
  6
CONTINUOUS
 62
     2
 10
1000.0
 20
1357.0
 11
1000.0
 21
1243.0
  0
LINE
  8
1
  6
CONTINUOUS
 62
     2
 10
1000.0
 20
1243.0
 11
1005.176380902
 21
1262.318516526
  0
LINE
  8
1
  6
CONTINUOUS
 62
     2
 10
1000.0
 20
1243.0
 11
994.823619098
 21
1262.318516526
  0
TEXT
  8
1
  6
CONTINUOUS
 62
     3
 10
992.0
 20
1245.2
 30
2.4
 40
28.0
  1
φ１１４
 50
90.0
 41
0.914285714
 51
0.0
  7
KANJI50
  0
TEXT
  8
1
  6
CONTINUOUS
 62
     3
 10
1350.699095103
 20
963.5
 30
2.4
 40
28.0
  1
ｍｉｎ．Ｐ
 50
0.0
 41
0.914285714
 51
0.0
  7
KANJI50
  0
ARC
  8
0
  6
CONTINUOUS
 62
     1
 10
2150.5
 20
1300.0
 40
32.25
 50
39.177393686
 51
140.822606314
  0
ARC
  8
0
  6
CONTINUOUS
 62
     1
 10
2150.5
 20
1300.0
 40
32.25
 50
219.177393686
 51
320.822606314
  0
LINE
  8
0
  6
CONTINUOUS
 62
     1
 10
2188.5
 20
1204.0
 11
2188.5
 21
1204.1
  0
TEXT
  8
0
  6
CONTINUOUS
 62
     2
 10
2970.2
 20
1715.2
 30
20.5
 40
28.0
  1
全閉屋外形
 50
0.0
 41
0.9
 51
0.0
  7
KANJI7
  0
LINE
  8
0
  6
CONTINUOUS
 62
     1
 10
566.0
 20
1165.0
 11
566.0
 21
1407.5
  0
LINE
  8
0
  6
CONTINUOUS
 62
     1
 10
601.0
 20
1400.041
 11
624.0
 21
1381.541
  0
LINE
  8
0
  6
CONTINUOUS
 62
     1
 10
601.0
 20
1346.541
 11
601.0
 21
1400.041
  0
LINE
  8
0
  6
CONTINUOUS
 62
     1
 10
749.0
 20
1429.985375069
 11
739.0
 21
1419.985375069
  0
LINE
  8
0
  6
CONTINUOUS
 62
     1
 10
739.0
 20
1361.346778818
 11
739.0
 21
1419.985375069
  0
ARC
  8
0
  6
CONTINUOUS
 62
     1
 10
737.0
 20
1430.507558854
 40
3.0
 50
90.0
 51
180.0
  0
LINE
  8
0
  6
CONTINUOUS
 62
     1
 10
857.0
 20
1361.346778818
 11
857.0
 21
1419.985375069
  0
LINE
  8
0
  6
CONTINUOUS
 62
     1
 10
862.0
 20
1318.698620342
 11
862.0
 21
1430.507558854
  0
ARC
  8
0
  6
CONTINUOUS
 62
     1
 10
859.0
 20
1430.507558854
 40
3.0
 50
0.0
 51
90.0
  0
LINE
  8
0
  6
CONTINUOUS
 62
     1
 10
857.0
 20
1419.985375069
 11
847.0
 21
1429.985375069
  0
LINE
  8
0
  6
CONTINUOUS
 62
     1
 10
749.0
 20
1429.985375069
 11
847.0
 21
1429.985375069
  0
LINE
  8
0
  6
CONTINUOUS
 62
     1
 10
737.0
 20
1433.507558854
 11
859.0
 21
1433.507558854
  0
LINE
  8
0
  6
CONTINUOUS
 62
     1
 10
867.0
 20
1345.307636349
 11
867.0
 21
1402.17371812
  0
LINE
  8
0
  6
CONTINUOUS
 62
     1
 10
862.0
 20
1402.17371812
 11
867.0
 21
1402.17371812
  0
LINE
  8
0
  6
CONTINUOUS
 62
     1
 10
734.0
 20
1300.041
 11
734.0
 21
1430.041
  0
LINE
  8
0
  6
CONTINUOUS
 62
     1
 10
566.0
 20
1400.041
 11
601.0
 21
1400.041
  0
LINE
  8
0
  6
CONTINUOUS
 62
     1
 10
566.0
 20
1406.0
 11
577.0
 21
1406.0
  0
LINE
  8
0
  6
CONTINUOUS
 62
     1
 10
955.5
 20
1522.3
 11
961.4
 21
1522.3
  0
LINE
  8
0
  6
CONTINUOUS
 62
     1
 10
955.5
 20
1539.7
 11
961.4
 21
1539.7
  0
LINE
  8
0
  6
CONTINUOUS
 62
     1
 10
969.0
 20
1521.0
 11
969.0
 21
1530.9
  0
LINE
  8
0
  6
CONTINUOUS
 62
     1
 10
962.4
 20
1521.0
 11
969.0
 21
1521.0
  0
LINE
  8
0
  6
CONTINUOUS
 62
     1
 10
962.4
 20
1526.0
 11
969.0
 21
1526.0
  0
LINE
  8
0
  6
CONTINUOUS
 62
     1
 10
969.0
 20
1541.0
 11
969.0
 21
1531.1
  0
LINE
  8
0
  6
CONTINUOUS
 62
     1
 10
962.4
 20
1541.0
 11
969.0
 21
1541.0
  0
LINE
  8
0
  6
CONTINUOUS
 62
     1
 10
962.4
 20
1536.0
 11
969.0
 21
1536.0
  0
LINE
  8
0
  6
LTYPE2
 62
     2
 10
763.5
 20
1612.843067336
 11
763.5
 21
1653.143067336
  0
LINE
  8
0
  6
CONTINUOUS
 62
     1
 10
853.5
 20
1661.0
 11
853.5
 21
1701.0
  0
LINE
  8
0
  6
CONTINUOUS
 62
     1
 10
853.5
 20
1701.0
 11
827.8
 21
1701.0
  0
LINE
  8
0
  6
CONTINUOUS
 62
     1
 10
853.5
 20
1661.0
 11
827.8
 21
1661.0
  0
ARC
  8
0
  6
CONTINUOUS
 62
     1
 10
821.8
 20
1655.7
 40
6.0
 50
270.0
 51
0.0
  0
ARC
  8
0
  6
CONTINUOUS
 62
     1
 10
708.319480257
 20
1655.7
 40
6.0
 50
190.033164511
 51
270.0
  0
LINE
  8
0
  6
CONTINUOUS
 62
     1
 10
566.0
 20
1656.0
 11
582.0
 21
1656.0
  0
LINE
  8
0
  6
CONTINUOUS
 62
     1
 10
582.0
 20
1406.0
 11
582.0
 21
1656.0
  0
LINE
  8
0
  6
CONTINUOUS
 62
     1
 10
566.0
 20
1406.0
 11
582.0
 21
1406.0
  0
LINE
  8
0
  6
CONTINUOUS
 62
     1
 10
632.0
 20
1426.0
 11
632.0
 21
1636.0
  0
LINE
  8
0
  6
CONTINUOUS
 62
     1
 10
632.0
 20
1426.0
 11
582.0
 21
1426.0
  0
LINE
  8
0
  6
CONTINUOUS
 62
     1
 10
632.0
 20
1636.0
 11
582.0
 21
1636.0
  0
ARC
  8
0
  6
CONTINUOUS
 62
     1
 10
928.720549228
 20
1616.0
 40
20.0
 50
9.12031501
 51
90.0
  0
ARC
  8
0
  6
CONTINUOUS
 62
     1
 10
928.720549228
 20
1446.0
 40
20.0
 50
270.0
 51
350.87968499
  0
ARC
  8
0
  6
CONTINUOUS
 62
     1
 10
399.25
 20
1531.0
 40
556.25
 50
350.879686542
 51
9.120316562
  0
LINE
  8
0
  6
CONTINUOUS
 62
     1
 10
632.0
 20
1631.0
 11
799.0
 21
1631.0
  0
LINE
  8
0
  6
CONTINUOUS
 62
     1
 10
632.0
 20
1626.0
 11
799.0
 21
1626.0
  0
LINE
  8
0
  6
CONTINUOUS
 62
     1
 10
632.0
 20
1611.0
 11
799.0
 21
1611.0
  0
LINE
  8
0
  6
CONTINUOUS
 62
     1
 10
632.0
 20
1596.0
 11
799.0
 21
1596.0
  0
LINE
  8
0
  6
CONTINUOUS
 62
     1
 10
928.720560018
 20
1636.0
 11
799.0
 21
1636.0
  0
LINE
  8
0
  6
CONTINUOUS
 62
     1
 10
632.0
 20
1581.0
 11
799.0
 21
1581.0
  0
LINE
  8
0
  6
CONTINUOUS
 62
     1
 10
632.0
 20
1566.0
 11
799.0
 21
1566.0
  0
LINE
  8
0
  6
CONTINUOUS
 62
     1
 10
632.0
 20
1551.0
 11
799.0
 21
1551.0
  0
LINE
  8
0
  6
CONTINUOUS
 62
     1
 10
632.0
 20
1536.0
 11
799.0
 21
1536.0
  0
LINE
  8
0
  6
CONTINUOUS
 62
     1
 10
632.0
 20
1521.0
 11
799.0
 21
1521.0
  0
LINE
  8
0
  6
CONTINUOUS
 62
     1
 10
632.0
 20
1506.0
 11
799.0
 21
1506.0
  0
LINE
  8
0
  6
CONTINUOUS
 62
     1
 10
632.0
 20
1491.0
 11
799.0
 21
1491.0
  0
LINE
  8
0
  6
CONTINUOUS
 62
     1
 10
632.0
 20
1476.0
 11
799.0
 21
1476.0
  0
LINE
  8
0
  6
CONTINUOUS
 62
     1
 10
632.0
 20
1461.0
 11
799.0
 21
1461.0
  0
LINE
  8
0
  6
CONTINUOUS
 62
     1
 10
632.0
 20
1446.0
 11
799.0
 21
1446.0
  0
LINE
  8
0
  6
CONTINUOUS
 62
     1
 10
822.161039485
 20
1649.7
 11
708.319480257
 21
1649.7
  0
ARC
  8
0
  6
CONTINUOUS
 62
     1
 10
708.319480257
 20
1718.0
 40
6.0
 50
90.0
 51
180.0
  0
LINE
  8
0
  6
CONTINUOUS
 62
     1
 10
826.608952959
 20
1724.0
 11
708.319480257
 21
1724.0
  0
LINE
  8
0
  6
CONTINUOUS
 62
     1
 10
827.8
 20
1655.7
 11
827.8
 21
1715.372990042
  0
LINE
  8
0
  6
CONTINUOUS
 62
     1
 10
783.5
 20
1631.0
 11
783.5
 21
1649.7
  0
LINE
  8
0
  6
CONTINUOUS
 62
     1
 10
743.5
 20
1631.0
 11
743.5
 21
1649.7
  0
LINE
  8
0
  6
CONTINUOUS
 62
     1
 10
837.877020398
 20
1723.498824355
 11
835.7
 21
1728.0
  0
LINE
  8
0
  6
CONTINUOUS
 62
     1
 10
835.7
 20
1728.0
 11
690.301684551
 21
1657.6772391
  0
LINE
  8
0
  6
CONTINUOUS
 62
     1
 10
837.877020398
 20
1723.498824355
 11
692.47870495
 21
1653.176063455
  0
LINE
  8
0
  6
CONTINUOUS
 62
     1
 10
690.301684551
 20
1657.6772391
 11
692.47870495
 21
1653.176063455
  0
LINE
  8
0
  6
CONTINUOUS
 62
     1
 10
702.319480257
 20
1664.676063455
 11
702.319480257
 21
1718.0
  0
LINE
  8
0
  6
CONTINUOUS
 62
     1
 10
702.97870495
 20
1657.676063455
 11
702.97870495
 21
1654.676063455
  0
LINE
  8
0
  6
CONTINUOUS
 62
     1
 10
955.5
 20
1492.3
 11
961.4
 21
1492.3
  0
LINE
  8
0
  6
CONTINUOUS
 62
     1
 10
955.5
 20
1488.5
 11
961.4
 21
1488.5
  0
LINE
  8
0
  6
CONTINUOUS
 62
     1
 10
970.9
 20
1500.4
 11
970.9
 21
1480.4
  0
LINE
  8
0
  6
CONTINUOUS
 62
     1
 10
965.9
 20
1480.4
 11
970.9
 21
1480.4
  0
LINE
  8
0
  6
CONTINUOUS
 62
     1
 10
965.9
 20
1500.4
 11
970.9
 21
1500.4
  0
LINE
  8
0
  6
CONTINUOUS
 62
     1
 10
961.4
 20
1551.0
 11
965.9
 21
1551.0
  0
LINE
  8
0
  6
CONTINUOUS
 62
     1
 10
965.9
 20
1480.4
 11
965.9
 21
1551.0
  0
LINE
  8
0
  6
CONTINUOUS
 62
     1
 10
961.4
 20
1551.0
 11
961.4
 21
1485.4
  0
LINE
  8
0
  6
CONTINUOUS
 62
     1
 10
965.9
 20
1485.4
 11
961.4
 21
1485.4
  0
LINE
  8
0
  6
CONTINUOUS
 62
     1
 10
959.4
 20
1497.4
 11
959.4
 21
1482.4
  0
LINE
  8
0
  6
CONTINUOUS
 62
     1
 10
956.9
 20
1496.9
 11
956.9
 21
1482.4
  0
LINE
  8
0
  6
CONTINUOUS
 62
     1
 10
799.0
 20
1431.0
 11
799.0
 21
1431.0
  0
LINE
  8
0
  6
CONTINUOUS
 62
     1
 10
632.0
 20
1431.0
 11
734.040692358
 21
1431.0
  0
LINE
  8
0
  6
CONTINUOUS
 62
     1
 10
928.720560018
 20
1426.0
 11
862.0
 21
1426.0
  0
LINE
  8
0
  6
CONTINUOUS
 62
     1
 10
849.0
 20
1636.0
 11
849.0
 21
1433.507558854
  0
LINE
  8
0
  6
CONTINUOUS
 62
     1
 10
799.0
 20
1636.0
 11
799.0
 21
1433.507558854
  0
LINE
  8
0
  6
LTYPE2
 62
     2
 10
890.0
 20
1681.0
 11
818.256580424
 21
1681.0
  0
LINE
  8
1
  6
CONTINUOUS
 62
     2
 10
882.0
 20
1384.0
 11
900.447820371
 21
1376.274851227
  0
LINE
  8
1
  6
CONTINUOUS
 62
     2
 10
882.0
 20
1384.0
 11
901.838855472
 21
1386.5337351
  0
LINE
  8
1
  6
CONTINUOUS
 62
     2
 10
882.0
 20
1384.0
 11
941.0
 21
1376.0
  0
LINE
  8
1
  6
CONTINUOUS
 62
     2
 10
941.0
 20
1376.0
 11
1058.6
 21
1376.0
  0
TEXT
  8
1
  6
CONTINUOUS
 62
     3
 10
941.0
 20
1384.0
 30
2.4
 40
24.0
  1
ＰＦ１／２
 50
0.0
 41
0.9
 51
0.0
  7
KANJI0
  0
LINE
  8
1
  6
CONTINUOUS
 62
     2
 10
753.0
 20
1361.0
 11
748.399465422
 21
1341.536313772
  0
LINE
  8
1
  6
CONTINUOUS
 62
     2
 10
753.0
 20
1361.0
 11
758.747663298
 21
1341.843685986
  0
LINE
  8
1
  6
CONTINUOUS
 62
     2
 10
753.0
 20
1361.0
 11
762.0
 21
1058.0
  0
LINE
  8
1
  6
CONTINUOUS
 62
     2
 10
762.0
 20
1058.0
 11
903.6
 21
1058.0
  0
TEXT
  8
1
  6
CONTINUOUS
 62
     3
 10
762.0
 20
1066.0
 30
2.4
 40
24.0
  1
推力リミッタ
 50
0.0
 41
0.9
 51
0.0
  7
KANJI0
  0
LINE
  8
1
  6
CONTINUOUS
 62
     2
 10
636.0
 20
1007.0
 11
636.0
 21
986.0
  0
LINE
  8
1
  6
CONTINUOUS
 62
     2
 10
636.0
 20
954.0
 11
636.0
 21
928.0
  0
LINE
  8
1
  6
CONTINUOUS
 62
     2
 10
636.0
 20
958.0
 11
636.0
 21
928.0
  0
LINE
  8
0
  6
LTYPE4
 62
     2
 10
2150.5
 20
1446.0
 11
2150.5
 21
1460.0
  0
LINE
  8
0
  6
LTYPE4
 62
     2
 10
2003.5
 20
1531.0
 11
2308.5
 21
1531.0
  0
LINE
  8
0
  6
CONTINUOUS
 62
     1
 10
2280.5
 20
1345.874886635
 11
2280.5
 21
1460.0
  0
LINE
  8
0
  6
CONTINUOUS
 62
     1
 10
2280.5
 20
1400.0
 11
2280.5
 21
1605.833147735
  0
LINE
  8
0
  6
CONTINUOUS
 62
     1
 10
2020.5
 20
1397.434666527
 11
2020.5
 21
1460.0
  0
LINE
  8
0
  6
CONTINUOUS
 62
     1
 10
2020.5
 20
1400.0
 11
2020.5
 21
1605.833147735
  0
LINE
  8
0
  6
LTYPE1
 62
     2
 10
2150.5
 20
1400.0
 11
2150.5
 21
1457.1
  0
ARC
  8
0
  6
CONTINUOUS
 62
     1
 10
2150.5
 20
1531.0
 40
125.0
 50
280.557968545
 51
0.0
  0
ARC
  8
0
  6
CONTINUOUS
 62
     1
 10
2187.5
 20
1714.705692517
 40
3.0
 50
0.0
 51
90.0
  0
ARC
  8
0
  6
CONTINUOUS
 62
     1
 10
2194.5
 20
1717.705692517
 40
6.0
 50
0.0
 51
90.0
  0
ARC
  8
0
  6
CONTINUOUS
 62
     1
 10
2194.5
 20
1722.0
 40
6.0
 50
0.0
 51
90.0
  0
LINE
  8
0
  6
CONTINUOUS
 62
     1
 10
2194.5
 20
1728.0
 11
2150.5
 21
1728.0
  0
LINE
  8
0
  6
CONTINUOUS
 62
     1
 10
2150.5
 20
1723.705692517
 11
2194.5
 21
1723.705692517
  0
LINE
  8
0
  6
CONTINUOUS
 62
     1
 10
2150.5
 20
1717.705692517
 11
2187.5
 21
1717.705692517
  0
ARC
  8
0
  6
CONTINUOUS
 62
     1
 10
2113.5
 20
1714.705692517
 40
3.0
 50
90.0
 51
180.0
  0
ARC
  8
0
  6
CONTINUOUS
 62
     1
 10
2106.5
 20
1717.705692517
 40
6.0
 50
90.0
 51
180.0
  0
ARC
  8
0
  6
CONTINUOUS
 62
     1
 10
2106.5
 20
1722.0
 40
6.0
 50
90.0
 51
180.0
  0
LINE
  8
0
  6
CONTINUOUS
 62
     1
 10
2106.5
 20
1728.0
 11
2150.5
 21
1728.0
  0
LINE
  8
0
  6
CONTINUOUS
 62
     1
 10
2150.5
 20
1723.705692517
 11
2106.5
 21
1723.705692517
  0
LINE
  8
0
  6
CONTINUOUS
 62
     1
 10
2150.5
 20
1717.705692517
 11
2113.5
 21
1717.705692517
  0
CIRCLE
  8
0
  6
CONTINUOUS
 62
     1
 10
2150.5
 20
1531.0
 40
20.0
  0
ARC
  8
0
  6
CONTINUOUS
 62
     1
 10
2065.5
 20
1531.0
 40
20.0
 50
90.0
 51
270.0
  0
ARC
  8
0
  6
CONTINUOUS
 62
     1
 10
2193.0
 20
1457.387840678
 40
20.0
 50
210.0
 51
30.0
  0
ARC
  8
0
  6
CONTINUOUS
 62
     1
 10
2193.0
 20
1604.612159322
 40
20.0
 50
330.0
 51
150.0
  0
LINE
  8
0
  6
CONTINUOUS
 62
     1
 10
2065.5
 20
1551.0
 11
2138.952994616
 21
1551.0
  0
LINE
  8
0
  6
CONTINUOUS
 62
     1
 10
2175.679491924
 20
1614.612159322
 11
2138.952994616
 21
1551.0
  0
LINE
  8
0
  6
CONTINUOUS
 62
     1
 10
2065.5
 20
1511.0
 11
2138.952994616
 21
1511.0
  0
LINE
  8
0
  6
CONTINUOUS
 62
     1
 10
2175.679491924
 20
1447.387840678
 11
2138.952994616
 21
1511.0
  0
CIRCLE
  8
0
  6
CONTINUOUS
 62
     1
 10
2210.5
 20
1531.0
 40
10.0
  0
LINE
  8
0
  6
CONTINUOUS
 62
     2
 10
2210.5
 20
1546.0
 11
2210.5
 21
1516.0
  0
LINE
  8
0
  6
CONTINUOUS
 62
     1
 10
2153.833333333
 20
1511.279734056
 11
2212.166666667
 21
1521.139867028
  0
LINE
  8
0
  6
CONTINUOUS
 62
     1
 10
2153.833333333
 20
1550.720265944
 11
2212.166666667
 21
1540.860132972
  0
LINE
  8
0
  6
CONTINUOUS
 62
     1
 10
2210.320508076
 20
1594.612159322
 11
2182.210211838
 21
1545.923698023
  0
LINE
  8
0
  6
CONTINUOUS
 62
     1
 10
2210.320508076
 20
1467.387840678
 11
2182.210211838
 21
1516.076301977
  0
ARC
  8
0
  6
CONTINUOUS
 62
     1
 10
2226.513978978
 20
1607.013978978
 40
7.75
 50
294.214141675
 51
155.785858325
  0
LINE
  8
0
  6
CONTINUOUS
 62
     2
 10
2220.5
 20
1601.0
 11
2233.445832412
 21
1613.945832412
  0
ARC
  8
0
  6
CONTINUOUS
 62
     2
 10
2150.5
 20
1531.0
 40
107.5
 50
38.280925788
 51
51.325228591
  0
ARC
  8
0
  6
CONTINUOUS
 62
     1
 10
2226.513978978
 20
1454.986021022
 40
7.75
 50
204.214141675
 51
65.785858325
  0
LINE
  8
0
  6
CONTINUOUS
 62
     2
 10
2220.5
 20
1461.0
 11
2233.445832412
 21
1448.054167588
  0
ARC
  8
0
  6
CONTINUOUS
 62
     2
 10
2150.5
 20
1531.0
 40
107.5
 50
308.674771409
 51
321.719074212
  0
ARC
  8
0
  6
CONTINUOUS
 62
     1
 10
2074.486021022
 20
1607.013978978
 40
7.75
 50
24.214141675
 51
245.785858325
  0
LINE
  8
0
  6
CONTINUOUS
 62
     2
 10
2080.5
 20
1601.0
 11
2067.554167588
 21
1613.945832412
  0
ARC
  8
0
  6
CONTINUOUS
 62
     2
 10
2150.5
 20
1531.0
 40
107.5
 50
128.674771409
 51
141.719074212
  0
ARC
  8
0
  6
CONTINUOUS
 62
     1
 10
2074.486021022
 20
1454.986021022
 40
7.75
 50
114.214141675
 51
335.785858325
  0
LINE
  8
0
  6
CONTINUOUS
 62
     2
 10
2080.5
 20
1461.0
 11
2067.554167588
 21
1448.054167588
  0
ARC
  8
0
  6
CONTINUOUS
 62
     2
 10
2150.5
 20
1531.0
 40
107.5
 50
218.280925788
 51
231.325228591
  0
ARC
  8
0
  6
CONTINUOUS
 62
     1
 10
2150.5
 20
1531.0
 40
105.0
 50
272.980462591
 51
0.0
  0
ARC
  8
0
  6
CONTINUOUS
 62
     1
 10
2150.5
 20
1531.0
 40
105.0
 50
0.0
 51
226.520053773
  0
ARC
  8
0
  6
CONTINUOUS
 62
     1
 10
2187.5
 20
1652.7
 40
3.0
 50
270.0
 51
0.0
  0
ARC
  8
0
  6
CONTINUOUS
 62
     1
 10
2194.5
 20
1658.7
 40
6.0
 50
270.0
 51
0.0
  0
LINE
  8
0
  6
CONTINUOUS
 62
     1
 10
2190.5
 20
1652.7
 11
2194.5
 21
1652.7
  0
LINE
  8
0
  6
CONTINUOUS
 62
     1
 10
2150.5
 20
1649.7
 11
2187.5
 21
1649.7
  0
ARC
  8
0
  6
CONTINUOUS
 62
     1
 10
2113.5
 20
1652.7
 40
3.0
 50
180.0
 51
270.0
  0
ARC
  8
0
  6
CONTINUOUS
 62
     1
 10
2106.5
 20
1658.7
 40
6.0
 50
180.0
 51
270.0
  0
LINE
  8
0
  6
CONTINUOUS
 62
     1
 10
2110.5
 20
1652.7
 11
2106.5
 21
1652.7
  0
LINE
  8
0
  6
CONTINUOUS
 62
     1
 10
2150.5
 20
1649.7
 11
2113.5
 21
1649.7
  0
LINE
  8
0
  6
CONTINUOUS
 62
     1
 10
2170.5
 20
1634.07764064
 11
2170.5
 21
1649.7
  0
LINE
  8
0
  6
CONTINUOUS
 62
     1
 10
2130.5
 20
1634.07764064
 11
2130.5
 21
1649.7
  0
LINE
  8
0
  6
CONTINUOUS
 62
     1
 10
2200.5
 20
1658.7
 11
2200.5
 21
1722.0
  0
LINE
  8
0
  6
CONTINUOUS
 62
     1
 10
2190.5
 20
1653.2
 11
2190.5
 21
1714.705692517
  0
LINE
  8
0
  6
CONTINUOUS
 62
     1
 10
2110.5
 20
1653.2
 11
2110.5
 21
1714.705692517
  0
LINE
  8
0
  6
CONTINUOUS
 62
     1
 10
2100.5
 20
1659.2
 11
2100.5
 21
1722.0
  0
CIRCLE
  8
0
  6
CONTINUOUS
 62
     1
 10
2150.5
 20
1681.0
 40
20.0
  0
CIRCLE
  8
0
  6
CONTINUOUS
 62
     2
 10
2150.5
 20
1681.0
 40
13.5
  0
CIRCLE
  8
0
  6
CONTINUOUS
 62
     2
 10
2150.5
 20
1681.0
 40
15.0
  0
LINE
  8
0
  6
LTYPE2
 62
     2
 10
2120.0
 20
1681.0
 11
2179.5
 21
1681.0
  0
CIRCLE
  8
0
  6
CONTINUOUS
 62
     1
 10
2150.5
 20
1546.0
 40
4.0
  0
CIRCLE
  8
0
  6
CONTINUOUS
 62
     1
 10
2150.5
 20
1531.0
 40
4.0
  0
CIRCLE
  8
0
  6
CONTINUOUS
 62
     1
 10
2135.5
 20
1531.0
 40
4.0
  0
CIRCLE
  8
0
  6
CONTINUOUS
 62
     1
 10
2150.5
 20
1516.0
 40
4.0
  0
CIRCLE
  8
0
  6
CONTINUOUS
 62
     1
 10
2165.5
 20
1531.0
 40
4.0
  0
ARC
  8
0
  6
CONTINUOUS
 62
     1
 10
2150.5
 20
1531.0
 40
125.0
 50
0.0
 51
72.687211164
  0
ARC
  8
0
  6
CONTINUOUS
 62
     1
 10
2150.5
 20
1531.0
 40
125.0
 50
255.145173981
 51
280.557968545
  0
ARC
  8
0
  6
CONTINUOUS
 62
     1
 10
2150.5
 20
1531.0
 40
105.0
 50
226.520053773
 51
230.380400035
  0
ARC
  8
0
  6
CONTINUOUS
 62
     1
 10
2150.5
 20
1531.0
 40
105.0
 50
230.452016046
 51
272.980462591
  0
ARC
  8
0
  6
CONTINUOUS
 62
     1
 10
2150.5
 20
1531.0
 40
125.0
 50
107.31277541
 51
254.909933906
  0
LINE
  8
1
  6
CONTINUOUS
 62
     2
 10
1930.000030518
 20
1300.0
 11
1901.000030518
 21
1300.0
  0
LINE
  8
1
  6
CONTINUOUS
 62
     2
 10
1917.000030518
 20
1300.0
 11
1922.17641142
 21
1319.318516526
  0
LINE
  8
1
  6
CONTINUOUS
 62
     2
 10
1917.000030518
 20
1300.0
 11
1911.823649616
 21
1319.318516526
  0
LINE
  8
1
  6
CONTINUOUS
 62
     2
 10
1917.000030518
 20
1300.0
 11
1917.000030518
 21
1531.0
  0
LINE
  8
1
  6
CONTINUOUS
 62
     2
 10
1917.000030518
 20
1531.0
 11
1911.823649616
 21
1511.681483474
  0
LINE
  8
1
  6
CONTINUOUS
 62
     2
 10
1917.000030518
 20
1531.0
 11
1922.17641142
 21
1511.681483474
  0
LINE
  8
1
  6
CONTINUOUS
 62
     2
 10
2024.000030518
 20
1531.0
 11
1901.000030518
 21
1531.0
  0
TEXT
  8
1
  6
CONTINUOUS
 62
     3
 10
1909.000030518
 20
1374.7
 30
2.4
 40
28.0
  1
２３１
 50
90.0
 41
0.914285714
 51
0.0
  7
KANJI50
  0
LINE
  8
1
  6
CONTINUOUS
 62
     2
 10
1917.000030518
 20
1531.0
 11
1901.000030518
 21
1531.0
  0
LINE
  8
1
  6
CONTINUOUS
 62
     2
 10
1917.000030518
 20
1531.0
 11
1922.17641142
 21
1550.318516526
  0
LINE
  8
1
  6
CONTINUOUS
 62
     2
 10
1917.000030518
 20
1531.0
 11
1911.823649616
 21
1550.318516526
  0
LINE
  8
1
  6
CONTINUOUS
 62
     2
 10
1917.000030518
 20
1531.0
 11
1917.000030518
 21
1728.0
  0
LINE
  8
1
  6
CONTINUOUS
 62
     2
 10
1917.000030518
 20
1728.0
 11
1911.823649616
 21
1708.681483474
  0
LINE
  8
1
  6
CONTINUOUS
 62
     2
 10
1917.000030518
 20
1728.0
 11
1922.17641142
 21
1708.681483474
  0
LINE
  8
1
  6
CONTINUOUS
 62
     2
 10
2098.5
 20
1728.0
 11
1901.000030518
 21
1728.0
  0
TEXT
  8
1
  6
CONTINUOUS
 62
     3
 10
1909.000030518
 20
1588.7
 30
2.4
 40
28.0
  1
１９７
 50
90.0
 41
0.914285714
 51
0.0
  7
KANJI50
  0
LINE
  8
0
  6
CONTINUOUS
 62
     1
 10
2280.5
 20
1350.761874274
 11
2280.5
 21
1605.833147735
  0
ARC
  8
0
  6
CONTINUOUS
 62
     1
 10
2150.5
 20
1531.0
 40
150.0
 50
29.926434867
 51
70.528779366
  0
ARC
  8
0
  6
CONTINUOUS
 62
     1
 10
2150.5
 20
1531.0
 40
150.0
 50
109.471220634
 51
150.073565133
  0
LINE
  8
0
  6
CONTINUOUS
 62
     1
 10
2020.5
 20
1389.805352832
 11
2020.5
 21
1605.833147735
  0
LINE
  8
1
  6
CONTINUOUS
 62
     2
 10
1960.5
 20
1728.0
 11
1823.5
 21
1728.0
  0
LINE
  8
1
  6
CONTINUOUS
 62
     2
 10
1839.5
 20
1728.0
 11
1834.323619098
 21
1708.681483474
  0
LINE
  8
1
  6
CONTINUOUS
 62
     2
 10
1839.5
 20
1728.0
 11
1844.676380902
 21
1708.681483474
  0
LINE
  8
1
  6
CONTINUOUS
 62
     2
 10
1839.5
 20
1728.0
 11
1839.5
 21
1165.0
  0
LINE
  8
1
  6
CONTINUOUS
 62
     2
 10
1839.5
 20
1165.0
 11
1844.676380902
 21
1184.318516526
  0
LINE
  8
1
  6
CONTINUOUS
 62
     2
 10
1839.5
 20
1165.0
 11
1834.323619098
 21
1184.318516526
  0
LINE
  8
1
  6
CONTINUOUS
 62
     2
 10
1952.5
 20
1165.0
 11
1823.5
 21
1165.0
  0
TEXT
  8
1
  6
CONTINUOUS
 62
     3
 10
1831.5
 20
1405.7
 30
2.4
 40
28.0
  1
５６３
 50
90.0
 41
0.914285714
 51
0.0
  7
KANJI50
  0
LINE
  8
1
  6
CONTINUOUS
 62
     2
 10
936.720560018
 20
1636.0
 11
1055.5
 21
1636.0
  0
LINE
  8
1
  6
CONTINUOUS
 62
     2
 10
1039.5
 20
1636.0
 11
1034.323619098
 21
1616.681483474
  0
LINE
  8
1
  6
CONTINUOUS
 62
     2
 10
1039.5
 20
1636.0
 11
1044.676380902
 21
1616.681483474
  0
LINE
  8
1
  6
CONTINUOUS
 62
     2
 10
1039.5
 20
1636.0
 11
1039.5
 21
1426.0
  0
LINE
  8
1
  6
CONTINUOUS
 62
     2
 10
1039.5
 20
1426.0
 11
1044.676380902
 21
1445.318516526
  0
LINE
  8
1
  6
CONTINUOUS
 62
     2
 10
1039.5
 20
1426.0
 11
1034.323619098
 21
1445.318516526
  0
LINE
  8
1
  6
CONTINUOUS
 62
     2
 10
936.720560018
 20
1426.0
 11
1055.5
 21
1426.0
  0
TEXT
  8
1
  6
CONTINUOUS
 62
     3
 10
1031.5
 20
1476.2
 30
2.4
 40
28.0
  1
φ２１０
 50
90.0
 41
0.914285714
 51
0.0
  7
KANJI50
  0
LINE
  8
1
  6
CONTINUOUS
 62
     2
 10
566.0
 20
1727.0
 11
566.0
 21
1813.0
  0
LINE
  8
1
  6
CONTINUOUS
 62
     2
 10
566.0
 20
1799.0
 11
566.0
 21
1813.0
  0
LINE
  8
1
  6
CONTINUOUS
 62
     2
 10
566.0
 20
1797.0
 11
585.318516526
 21
1791.823619098
  0
LINE
  8
1
  6
CONTINUOUS
 62
     2
 10
566.0
 20
1797.0
 11
585.318516526
 21
1802.176380902
  0
LINE
  8
1
  6
CONTINUOUS
 62
     2
 10
566.0
 20
1797.0
 11
970.9
 21
1797.0
  0
LINE
  8
1
  6
CONTINUOUS
 62
     2
 10
970.9
 20
1797.0
 11
951.581483474
 21
1802.176380902
  0
LINE
  8
1
  6
CONTINUOUS
 62
     2
 10
970.9
 20
1797.0
 11
951.581483474
 21
1791.823619098
  0
TEXT
  8
1
  6
CONTINUOUS
 62
     3
 10
727.65
 20
1805.0
 30
2.4
 40
28.0
  1
４０５
 50
0.0
 41
0.914285714
 51
0.0
  7
KANJI50
  0
TEXT
  8
0
  6
CONTINUOUS
 62
     2
 10
2924.0
 20
1938.4
 30
2.4
 40
24.0
  1
５８．８ＫＮ（６ｔｏｎ）
 50
0.0
 41
0.9
 51
0.0
  7
KANJI0
  0
TEXT
  8
0
  6
CONTINUOUS
 62
     2
 10
2956.8
 20
1826.2
 30
2.4
 40
24.0
  1
２５／３０
 50
0.0
 41
0.9
 51
0.0
  7
KANJI0
  0
TEXT
  8
0
  6
CONTINUOUS
 62
     2
 10
2923.8
 20
1769.2
 30
2.4
 40
24.0
  1
１１８Ｎ．ｍ（１２ｋｇ．ｍ）
 50
0.0
 41
0.766666667
 51
0.0
  7
KANJI54
  0
TEXT
  8
0
  6
CONTINUOUS
 62
     2
 10
2956.8
 20
1548.2
 30
2.4
 40
24.0
  1
２．２
 50
0.0
 41
0.9
 51
0.0
  7
KANJI0
  0
TEXT
  8
0
  6
CONTINUOUS
 62
     2
 10
2975.0
 20
1154.4
 30
16.0
 40
28.0
  1
別切リ
 50
0.0
 41
0.9
 51
0.0
  7
KANJI55
  0
LINE
  8
0
  6
CONTINUOUS
 62
     1
 10
611.0
 20
440.0
 11
1851.0
 21
440.0
  0
LINE
  8
0
  6
CONTINUOUS
 62
     1
 10
611.0
 20
720.0
 11
611.0
 21
440.0
  0
LINE
  8
0
  6
CONTINUOUS
 62
     1
 10
891.0
 20
720.0
 11
891.0
 21
440.0
  0
LINE
  8
0
  6
CONTINUOUS
 62
     2
 10
1051.0
 20
720.0
 11
1051.0
 21
440.0
  0
LINE
  8
0
  6
CONTINUOUS
 62
     2
 10
1211.0
 20
720.0
 11
1211.0
 21
440.0
  0
LINE
  8
0
  6
CONTINUOUS
 62
     2
 10
1371.0
 20
720.0
 11
1371.0
 21
440.0
  0
LINE
  8
0
  6
CONTINUOUS
 62
     2
 10
1531.0
 20
720.0
 11
1531.0
 21
440.0
  0
LINE
  8
0
  6
CONTINUOUS
 62
     2
 10
1691.0
 20
720.0
 11
1691.0
 21
440.0
  0
LINE
  8
0
  6
CONTINUOUS
 62
     1
 10
1851.0
 20
720.0
 11
1851.0
 21
440.0
  0
TEXT
  8
0
  6
CONTINUOUS
 62
     2
 10
1749.8
 20
624.4
 30
2.4
 40
24.0
  1
１９４
 50
0.0
 41
0.9
 51
0.0
  7
KANJI0
  0
TEXT
  8
0
  6
CONTINUOUS
 62
     2
 10
1705.86162
 20
2120.795875
 30
2.39994
 40
23.9994
  1
　９．４
 50
0.0
 41
0.9
 51
0.0
  7
KANJI49
  0
TEXT
  8
0
  6
CONTINUOUS
 62
     2
 10
1825.85862
 20
2120.795875
 30
2.39994
 40
23.9994
  1
６０．４
 50
0.0
 41
0.9
 51
0.0
  7
KANJI49
  0
TEXT
  8
0
  6
CONTINUOUS
 62
     2
 10
1705.86162
 20
2072.797075
 30
2.39994
 40
23.9994
  1
　８．８
 50
0.0
 41
0.9
 51
0.0
  7
KANJI49
  0
TEXT
  8
0
  6
CONTINUOUS
 62
     2
 10
1705.86162
 20
2024.798275
 30
2.39994
 40
23.9994
  1
　８．３
 50
0.0
 41
0.9
 51
0.0
  7
KANJI49
  0
TEXT
  8
0
  6
CONTINUOUS
 62
     2
 10
1824.992019532
 20
2069.130492
 30
2.39994
 40
23.9994
  1
５２．４
 50
0.0
 41
0.9
 51
0.0
  7
KANJI49
  0
TEXT
  8
0
  6
CONTINUOUS
 62
     2
 10
1826.991969532
 20
2023.798292
 30
2.39994
 40
23.9994
  1
５７．６
 50
0.0
 41
0.9
 51
0.0
  7
KANJI49
  0
TEXT
  8
0
  6
CONTINUOUS
 62
     2
 10
1225.87362
 20
2120.795875
 30
2.39994
 40
23.9994
  1
　４．７
 50
0.0
 41
0.9
 51
0.0
  7
KANJI49
  0
TEXT
  8
0
  6
CONTINUOUS
 62
     2
 10
1225.87362
 20
2072.797075
 30
2.39994
 40
23.9994
  1
　４．４
 50
0.0
 41
0.9
 51
0.0
  7
KANJI49
  0
TEXT
  8
0
  6
CONTINUOUS
 62
     2
 10
1225.87362
 20
2024.798275
 30
2.39994
 40
23.9994
  1
　４．２
 50
0.0
 41
0.9
 51
0.0
  7
KANJI49
  0
TEXT
  8
0
  6
CONTINUOUS
 62
     2
 10
1345.87062
 20
2120.795875
 30
2.39994
 40
23.9994
  1
３０．２
 50
0.0
 41
0.9
 51
0.0
  7
KANJI49
  0
TEXT
  8
0
  6
CONTINUOUS
 62
     2
 10
1345.87062
 20
2072.797075
 30
2.39994
 40
23.9994
  1
２６．２
 50
0.0
 41
0.9
 51
0.0
  7
KANJI49
  0
TEXT
  8
0
  6
CONTINUOUS
 62
     2
 10
1345.87062
 20
2024.798275
 30
2.39994
 40
23.9994
  1
２８．８
 50
0.0
 41
0.9
 51
0.0
  7
KANJI49
  0
LINE
  8
0
  6
CONTINUOUS
 62
     1
 10
1403.999
 20
1243.0
 11
890.0
 21
1243.0
  0
LINE
  8
0
  6
CONTINUOUS
 62
     1
 10
2265.5
 20
1165.0
 11
2035.5
 21
1165.0
  0
ARC
  8
0
  6
CONTINUOUS
 62
     1
 10
2265.5
 20
1180.0
 40
15.0
 50
270.0
 51
0.0
  0
ARC
  8
0
  6
CONTINUOUS
 62
     1
 10
2150.5
 20
1300.0
 40
100.0
 50
171.74368395
 51
269.721867333
  0
CIRCLE
  8
0
  6
CONTINUOUS
 62
     1
 10
2150.5
 20
1300.0
 40
92.5
  0
ARC
  8
0
  6
CONTINUOUS
 62
     1
 10
2150.5
 20
1300.0
 40
100.0
 50
268.567903816
 51
118.25631605
  0
CIRCLE
  8
0
  6
CONTINUOUS
 62
     1
 10
2150.5
 20
1300.0
 40
57.0
  0
LINE
  8
1
  6
CONTINUOUS
 62
     2
 10
970.9
 20
1561.0
 11
970.9
 21
1813.0
  0
LINE
  8
1
  6
CONTINUOUS
 62
     2
 10
971.5
 20
1538.0
 11
984.693269401
 21
1553.031222256
  0
LINE
  8
1
  6
CONTINUOUS
 62
     2
 10
971.5
 20
1538.0
 11
975.410095332
 21
1557.614055024
  0
LINE
  8
1
  6
CONTINUOUS
 62
     2
 10
971.5
 20
1538.0
 11
1049.5
 21
1696.0
  0
LINE
  8
1
  6
CONTINUOUS
 62
     2
 10
1049.5
 20
1696.0
 11
1239.1
 21
1696.0
  0
TEXT
  8
1
  6
CONTINUOUS
 62
     3
 10
1049.5
 20
1704.0
 30
2.4
 40
24.0
  1
ブレーキ開放装置
 50
0.0
 41
0.9
 51
0.0
  7
KANJI0
  0
LINE
  8
0
  6
CONTINUOUS
 62
     1
 10
1457.999190206
 20
1301.5
 11
1457.999190206
 21
1310.0
  0
CIRCLE
  8
0
  6
CONTINUOUS
 62
     1
 10
1527.999190206
 20
1300.0
 40
17.5
  0
LINE
  8
0
  6
CONTINUOUS
 62
     1
 10
1463.0
 20
1300.0
 11
1463.0
 21
1330.388736054
  0
LINE
  8
0
  6
CONTINUOUS
 62
     1
 10
1463.0
 20
1300.0
 11
1463.0
 21
1269.611263946
  0
LINE
  8
0
  6
CONTINUOUS
 62
     1
 10
1458.0
 20
1662.5
 11
1463.0
 21
1662.5
  0
LINE
  8
0
  6
CONTINUOUS
 62
     1
 10
1458.0
 20
1587.5
 11
1463.0
 21
1587.5
  0
LINE
  8
0
  6
LTYPE1
 62
     2
 10
1528.000190206
 20
1584.5
 11
1528.000190206
 21
1662.5
  0
LINE
  8
0
  6
LTYPE1
 62
     2
 10
1527.999190206
 20
1323.5
 11
1527.999190206
 21
1273.5
  0
LINE
  8
1
  6
CONTINUOUS
 62
     2
 10
1563.999190206
 20
1337.5
 11
1663.499190206
 21
1337.5
  0
LINE
  8
1
  6
CONTINUOUS
 62
     2
 10
1647.499190206
 20
1337.5
 11
1642.322809304
 21
1318.181483474
  0
LINE
  8
1
  6
CONTINUOUS
 62
     2
 10
1647.499190206
 20
1337.5
 11
1652.675571108
 21
1318.181483474
  0
LINE
  8
1
  6
CONTINUOUS
 62
     2
 10
1647.499190206
 20
1337.5
 11
1647.499190206
 21
1262.5
  0
LINE
  8
1
  6
CONTINUOUS
 62
     2
 10
1647.499190206
 20
1262.5
 11
1652.675571108
 21
1281.818516526
  0
LINE
  8
1
  6
CONTINUOUS
 62
     2
 10
1647.499190206
 20
1262.5
 11
1642.322809304
 21
1281.818516526
  0
LINE
  8
1
  6
CONTINUOUS
 62
     2
 10
1563.999190206
 20
1262.5
 11
1663.499190206
 21
1262.5
  0
TEXT
  8
1
  6
CONTINUOUS
 62
     3
 10
1639.499190206
 20
1273.2
 30
2.4
 40
28.0
  1
７５
 50
90.0
 41
0.914285714
 51
0.0
  7
KANJI50
  0
LINE
  8
1
  6
CONTINUOUS
 62
     2
 10
1510.500190206
 20
1519.0
 11
1491.18167368
 21
1524.176380902
  0
LINE
  8
1
  6
CONTINUOUS
 62
     2
 10
1510.500190206
 20
1519.0
 11
1491.18167368
 21
1513.823619098
  0
LINE
  8
1
  6
CONTINUOUS
 62
     2
 10
1480.500190206
 20
1519.0
 11
1510.500190206
 21
1519.0
  0
LINE
  8
1
  6
CONTINUOUS
 62
     2
 10
1510.500190206
 20
1519.0
 11
1545.500190206
 21
1519.0
  0
LINE
  8
1
  6
CONTINUOUS
 62
     2
 10
1545.500190206
 20
1519.0
 11
1741.100190206
 21
1519.0
  0
LINE
  8
1
  6
CONTINUOUS
 62
     2
 10
1545.500190206
 20
1519.0
 11
1564.818706732
 21
1513.823619098
  0
LINE
  8
1
  6
CONTINUOUS
 62
     2
 10
1545.500190206
 20
1519.0
 11
1564.818706732
 21
1524.176380902
  0
TEXT
  8
1
  6
CONTINUOUS
 62
     3
 10
1575.500190206
 20
1527.0
 30
2.4
 40
28.0
  1
φ３５Ｈ１０
 50
0.0
 41
0.914285714
 51
0.0
  7
KANJI50
  0
LINE
  8
1
  6
CONTINUOUS
 62
     2
 10
1528.000190206
 20
1576.5
 11
1528.000190206
 21
1436.5
  0
LINE
  8
1
  6
CONTINUOUS
 62
     2
 10
1528.000190206
 20
1452.5
 11
1508.68167368
 21
1457.676380902
  0
LINE
  8
1
  6
CONTINUOUS
 62
     2
 10
1528.000190206
 20
1452.5
 11
1508.68167368
 21
1447.323619098
  0
LINE
  8
1
  6
CONTINUOUS
 62
     2
 10
1528.000190206
 20
1452.5
 11
1463.0
 21
1452.5
  0
LINE
  8
1
  6
CONTINUOUS
 62
     2
 10
1463.0
 20
1452.5
 11
1482.318516526
 21
1447.323619098
  0
LINE
  8
1
  6
CONTINUOUS
 62
     2
 10
1463.0
 20
1452.5
 11
1482.318516526
 21
1457.676380902
  0
LINE
  8
1
  6
CONTINUOUS
 62
     2
 10
1463.0
 20
1579.5
 11
1463.0
 21
1436.5
  0
TEXT
  8
1
  6
CONTINUOUS
 62
     3
 10
1468.700095103
 20
1460.5
 30
2.4
 40
28.0
  1
６５
 50
0.0
 41
0.914285714
 51
0.0
  7
KANJI50
  0
LINE
  8
0
  6
CONTINUOUS
 62
     1
 10
1463.0
 20
1605.0
 11
1566.000190206
 21
1605.0
  0
LINE
  8
0
  6
CONTINUOUS
 62
     1
 10
1463.0
 20
1645.0
 11
1566.000190206
 21
1645.0
  0
LINE
  8
0
  6
CONTINUOUS
 62
     1
 10
1463.0
 20
1605.0
 11
1463.0
 21
1587.5
  0
LINE
  8
0
  6
CONTINUOUS
 62
     1
 10
1556.000190206
 20
1605.0
 11
1556.000190206
 21
1645.0
  0
LINE
  8
0
  6
CONTINUOUS
 62
     1
 10
1566.000190206
 20
1605.0
 11
1566.000190206
 21
1645.0
  0
LINE
  8
1
  6
CONTINUOUS
 62
     2
 10
1574.000190206
 20
1605.0
 11
1663.499190206
 21
1605.0
  0
LINE
  8
1
  6
CONTINUOUS
 62
     2
 10
1647.499190206
 20
1605.0
 11
1652.675571108
 21
1624.318516526
  0
LINE
  8
1
  6
CONTINUOUS
 62
     2
 10
1647.499190206
 20
1605.0
 11
1642.322809304
 21
1624.318516526
  0
LINE
  8
1
  6
CONTINUOUS
 62
     2
 10
1647.499190206
 20
1605.0
 11
1647.499190206
 21
1645.0
  0
LINE
  8
1
  6
CONTINUOUS
 62
     2
 10
1647.499190206
 20
1645.0
 11
1642.322809304
 21
1625.681483474
  0
LINE
  8
1
  6
CONTINUOUS
 62
     2
 10
1647.499190206
 20
1645.0
 11
1652.675571108
 21
1625.681483474
  0
LINE
  8
1
  6
CONTINUOUS
 62
     2
 10
1574.000190206
 20
1645.0
 11
1663.499190206
 21
1645.0
  0
TEXT
  8
1
  6
CONTINUOUS
 62
     3
 10
1639.499190206
 20
1598.2
 30
2.4
 40
28.0
  1
４０
 50
90.0
 41
0.914285714
 51
0.0
  7
KANJI50
  0
LINE
  8
0
  6
CONTINUOUS
 62
     1
 10
1458.0
 20
1337.5
 11
1560.999190206
 21
1337.5
  0
LINE
  8
0
  6
CONTINUOUS
 62
     1
 10
1565.999190206
 20
1332.5
 11
1565.999190206
 21
1300.0
  0
LINE
  8
0
  6
CONTINUOUS
 62
     1
 10
1560.999190206
 20
1337.5
 11
1565.999190206
 21
1332.5
  0
LINE
  8
0
  6
CONTINUOUS
 62
     1
 10
1565.999190206
 20
1267.5
 11
1565.999190206
 21
1300.0
  0
LINE
  8
0
  6
CONTINUOUS
 62
     1
 10
1457.999190206
 20
1262.5
 11
1560.999190206
 21
1262.5
  0
LINE
  8
0
  6
CONTINUOUS
 62
     1
 10
1565.999190206
 20
1267.5
 11
1560.999190206
 21
1262.5
  0
LINE
  8
0
  6
CONTINUOUS
 62
     1
 10
1560.999190206
 20
1330.388736054
 11
1463.0
 21
1330.388736054
  0
LINE
  8
0
  6
CONTINUOUS
 62
     1
 10
1560.999190206
 20
1337.5
 11
1560.999190206
 21
1330.388736054
  0
LINE
  8
0
  6
CONTINUOUS
 62
     1
 10
1560.999190206
 20
1269.611263946
 11
1463.0
 21
1269.611263946
  0
LINE
  8
0
  6
CONTINUOUS
 62
     1
 10
1560.999190206
 20
1262.5
 11
1560.999190206
 21
1269.611263946
  0
LINE
  8
0
  6
CONTINUOUS
 62
     1
 10
1560.999190206
 20
1269.611263946
 11
1565.699190206
 21
1274.311263946
  0
LINE
  8
0
  6
CONTINUOUS
 62
     1
 10
1560.999190206
 20
1330.388736054
 11
1565.699190206
 21
1325.688736054
  0
LINE
  8
0
  6
LTYPE3
 62
     2
 10
1510.500190206
 20
1605.0
 11
1510.500190206
 21
1645.0
  0
LINE
  8
0
  6
LTYPE3
 62
     2
 10
1545.500190206
 20
1605.0
 11
1545.500190206
 21
1645.0
  0
LINE
  8
1
  6
CONTINUOUS
 62
     2
 10
1545.500190206
 20
1598.5
 11
1545.500190206
 21
1503.0
  0
LINE
  8
1
  6
CONTINUOUS
 62
     2
 10
1510.500190206
 20
1596.8
 11
1510.500190206
 21
1503.0
  0
LINE
  8
0
  6
CONTINUOUS
 62
     1
 10
1345.149691586
 20
1360.67377156
 11
1350.725406547
 21
1381.482623085
  0
LINE
  8
0
  6
CONTINUOUS
 62
     1
 10
1330.149691586
 20
1360.57377156
 11
1345.149691586
 21
1360.57377156
  0
LINE
  8
0
  6
CONTINUOUS
 62
     1
 10
1350.725406547
 20
1381.482623085
 11
1356.084390396
 21
1361.482623085
  0
LINE
  8
6
  6
CONTINUOUS
 62
     2
 10
1391.0
 20
1381.482623085
 11
1390.5
 21
1381.482623085
  0
LINE
  8
0
  6
CONTINUOUS
 62
     1
 10
1428.335399739
 20
1381.482623085
 11
1422.97641589
 21
1361.482623085
  0
LINE
  8
0
  6
LTYPE5
 62
     2
 10
1350.725406547
 20
1381.482623085
 11
1428.335399739
 21
1381.482623085
  0
LINE
  8
0
  6
LTYPE5
 62
     2
 10
1356.084390396
 20
1361.482623085
 11
1422.97641589
 21
1361.482623085
  0
LINE
  8
0
  6
CONTINUOUS
 62
     1
 10
1446.357868375
 20
1337.5
 11
1442.9
 21
1337.5
  0
LINE
  8
0
  6
CONTINUOUS
 62
     1
 10
1442.8
 20
1337.5
 11
1428.335399739
 21
1381.482623085
  0
LINE
  8
0
  6
CONTINUOUS
 62
     1
 10
1458.0
 20
1337.5
 11
1454.057868375
 21
1337.5
  0
LINE
  8
0
  6
CONTINUOUS
 62
     1
 10
1388.999
 20
1300.0
 11
1388.999
 21
1243.0
  0
LINE
  8
0
  6
CONTINUOUS
 62
     1
 10
1457.999190206
 20
1262.5
 11
1442.999190206
 21
1262.5
  0
LINE
  8
0
  6
CONTINUOUS
 62
     1
 10
1446.057868375
 20
1337.661736767
 11
1446.057868375
 21
1339.561736767
  0
POINT
  8
0
  6
CONTINUOUS
 62
     1
 10
1446.057868375
 20
1339.561736767
  0
LINE
  8
0
  6
CONTINUOUS
 62
     1
 10
1446.057868375
 20
1339.561736767
 11
1454.257868375
 21
1339.561736767
  0
POINT
  8
0
  6
CONTINUOUS
 62
     1
 10
1454.257868375
 20
1339.561736767
  0
LINE
  8
0
  6
CONTINUOUS
 62
     1
 10
1454.257868375
 20
1339.561736767
 11
1454.257868375
 21
1337.861736767
  0
LINE
  8
0
  6
CONTINUOUS
 62
     1
 10
1345.248881792
 20
1236.32622844
 11
1350.824596753
 21
1215.517376915
  0
LINE
  8
0
  6
CONTINUOUS
 62
     1
 10
1350.824596753
 20
1215.517376915
 11
1356.183580602
 21
1235.517376915
  0
LINE
  8
0
  6
CONTINUOUS
 62
     1
 10
1330.248881792
 20
1236.42622844
 11
1345.248881792
 21
1236.42622844
  0
LINE
  8
0
  6
CONTINUOUS
 62
     1
 10
1428.434589945
 20
1215.517376915
 11
1423.075606097
 21
1235.517376915
  0
LINE
  8
0
  6
CONTINUOUS
 62
     1
 10
1457.999190206
 20
1262.5
 11
1442.999190206
 21
1262.5
  0
LINE
  8
0
  6
CONTINUOUS
 62
     1
 10
1446.157058582
 20
1262.638263233
 11
1446.157058582
 21
1260.738263233
  0
POINT
  8
0
  6
CONTINUOUS
 62
     1
 10
1446.157058582
 20
1260.738263233
  0
LINE
  8
0
  6
CONTINUOUS
 62
     1
 10
1446.157058582
 20
1260.738263233
 11
1454.357058582
 21
1260.738263233
  0
POINT
  8
0
  6
CONTINUOUS
 62
     1
 10
1454.357058582
 20
1260.738263233
  0
LINE
  8
0
  6
CONTINUOUS
 62
     1
 10
1454.357058582
 20
1260.738263233
 11
1454.357058582
 21
1262.438263233
  0
LINE
  8
0
  6
CONTINUOUS
 62
     1
 10
1442.899190206
 20
1262.5
 11
1428.434589945
 21
1215.517376915
  0
LINE
  8
0
  6
LTYPE5
 62
     2
 10
1350.824596753
 20
1215.517376915
 11
1428.434589945
 21
1215.517376915
  0
LINE
  8
0
  6
LTYPE5
 62
     2
 10
1356.183580602
 20
1235.517376915
 11
1423.075606097
 21
1235.517376915
  0
LINE
  8
0
  6
CONTINUOUS
 62
     1
 10
1350.725406547
 20
1381.482623085
 11
1350.725406547
 21
1300.0
  0
LINE
  8
0
  6
CONTINUOUS
 62
     1
 10
1356.754263377
 20
1358.982623085
 11
1356.754263377
 21
1300.0
  0
LINE
  8
0
  6
CONTINUOUS
 62
     1
 10
1422.97641589
 20
1361.482623085
 11
1422.97641589
 21
1300.0
  0
LINE
  8
0
  6
CONTINUOUS
 62
     1
 10
1428.335399739
 20
1381.482623085
 11
1428.335399739
 21
1300.0
  0
LINE
  8
0
  6
CONTINUOUS
 62
     1
 10
1442.8
 20
1337.5
 11
1442.8
 21
1300.0
  0
LINE
  8
0
  6
CONTINUOUS
 62
     1
 10
1446.057868375
 20
1337.5
 11
1446.057868375
 21
1300.0
  0
LINE
  8
0
  6
CONTINUOUS
 62
     1
 10
1454.257868375
 20
1339.561736767
 11
1454.257868375
 21
1300.0
  0
LINE
  8
0
  6
CONTINUOUS
 62
     1
 10
1458.0
 20
1337.5
 11
1458.0
 21
1262.5
  0
LINE
  8
0
  6
CONTINUOUS
 62
     1
 10
1412.04171708
 20
1360.67377156
 11
1417.617432042
 21
1381.482623085
  0
LINE
  8
0
  6
CONTINUOUS
 62
     1
 10
1397.04171708
 20
1360.57377156
 11
1412.04171708
 21
1360.57377156
  0
LINE
  8
0
  6
CONTINUOUS
 62
     1
 10
1417.617432042
 20
1381.482623085
 11
1422.97641589
 21
1361.482623085
  0
LINE
  8
0
  6
CONTINUOUS
 62
     1
 10
1412.04171708
 20
1360.67377156
 11
1412.04171708
 21
1300.0
  0
LINE
  8
0
  6
CONTINUOUS
 62
     1
 10
1417.617432042
 20
1381.482623085
 11
1417.617432042
 21
1300.0
  0
LINE
  8
0
  6
CONTINUOUS
 62
     1
 10
1423.646288871
 20
1358.982623085
 11
1423.646288871
 21
1300.0
  0
LINE
  8
0
  6
CONTINUOUS
 62
     1
 10
1412.140907287
 20
1236.32622844
 11
1417.716622248
 21
1215.517376915
  0
LINE
  8
0
  6
CONTINUOUS
 62
     1
 10
1417.716622248
 20
1215.517376915
 11
1423.075606097
 21
1235.517376915
  0
LINE
  8
0
  6
CONTINUOUS
 62
     1
 10
1397.140907287
 20
1236.42622844
 11
1412.140907287
 21
1236.42622844
  0
LINE
  8
0
  6
CONTINUOUS
 62
     1
 10
1403.999
 20
1262.5
 11
1457.999190206
 21
1262.5
  0
LINE
  8
0
  6
CONTINUOUS
 62
     1
 10
1403.999
 20
1300.0
 11
1403.999
 21
1243.0
  0
LINE
  8
0
  6
CONTINUOUS
 62
     1
 10
1345.149691586
 20
1360.67377156
 11
1345.149691586
 21
1243.0
  0
LINE
  8
0
  6
CONTINUOUS
 62
     1
 10
1345.149691586
 20
1357.0
 11
1270.149691586
 21
1357.0
  0
LINE
  8
0
  6
LTYPE1
 62
     2
 10
1395.924393903
 20
1625.982623085
 11
1597.424393903
 21
1625.982623085
  0
LINE
  8
0
  6
CONTINUOUS
 62
     1
 10
1425.259603436
 20
1710.46524617
 11
1419.900619588
 21
1690.46524617
  0
LINE
  8
0
  6
LTYPE5
 62
     2
 10
1353.008594093
 20
1690.46524617
 11
1419.900619588
 21
1690.46524617
  0
LINE
  8
0
  6
LTYPE5
 62
     2
 10
1347.649610244
 20
1710.46524617
 11
1425.259603436
 21
1710.46524617
  0
LINE
  8
0
  6
CONTINUOUS
 62
     1
 10
1442.982072072
 20
1663.344359852
 11
1442.982072072
 21
1665.244359852
  0
POINT
  8
0
  6
CONTINUOUS
 62
     1
 10
1442.982072072
 20
1665.244359852
  0
LINE
  8
0
  6
CONTINUOUS
 62
     1
 10
1442.982072072
 20
1665.244359852
 11
1451.182072072
 21
1665.244359852
  0
POINT
  8
0
  6
CONTINUOUS
 62
     1
 10
1451.182072072
 20
1665.244359852
  0
LINE
  8
0
  6
CONTINUOUS
 62
     1
 10
1451.182072072
 20
1665.244359852
 11
1451.182072072
 21
1663.544359852
  0
LINE
  8
0
  6
CONTINUOUS
 62
     1
 10
1439.724203697
 20
1663.482623085
 11
1425.259603436
 21
1710.46524617
  0
LINE
  8
0
  6
CONTINUOUS
 62
     1
 10
1425.259603436
 20
1541.5
 11
1419.900619588
 21
1561.5
  0
LINE
  8
0
  6
LTYPE5
 62
     2
 10
1353.008594093
 20
1561.5
 11
1419.900619588
 21
1561.5
  0
LINE
  8
0
  6
CONTINUOUS
 62
     1
 10
1442.982072072
 20
1588.620886318
 11
1442.982072072
 21
1586.720886318
  0
POINT
  8
0
  6
CONTINUOUS
 62
     1
 10
1442.982072072
 20
1586.720886318
  0
LINE
  8
0
  6
CONTINUOUS
 62
     1
 10
1442.982072072
 20
1586.720886318
 11
1451.182072073
 21
1586.720886318
  0
POINT
  8
0
  6
CONTINUOUS
 62
     1
 10
1451.182072073
 20
1586.720886318
  0
LINE
  8
0
  6
CONTINUOUS
 62
     1
 10
1451.182072073
 20
1586.720886318
 11
1451.182072073
 21
1588.420886318
  0
LINE
  8
0
  6
CONTINUOUS
 62
     1
 10
1439.724203697
 20
1588.482623085
 11
1425.259603436
 21
1541.5
  0
LINE
  8
0
  6
CONTINUOUS
 62
     1
 10
1419.900619588
 20
1690.46524617
 11
1419.900619588
 21
1625.982623085
  0
LINE
  8
0
  6
CONTINUOUS
 62
     1
 10
1425.259603436
 20
1710.46524617
 11
1425.259603436
 21
1625.982623085
  0
LINE
  8
0
  6
CONTINUOUS
 62
     1
 10
1439.724203697
 20
1663.482623085
 11
1439.724203697
 21
1625.982623085
  0
LINE
  8
0
  6
CONTINUOUS
 62
     1
 10
1442.982072072
 20
1665.244359852
 11
1442.982072072
 21
1625.982623085
  0
LINE
  8
0
  6
CONTINUOUS
 62
     1
 10
1451.182072072
 20
1665.244359852
 11
1451.182072072
 21
1625.982623085
  0
LINE
  8
0
  6
CONTINUOUS
 62
     1
 10
1419.900619588
 20
1561.5
 11
1419.900619588
 21
1625.982623085
  0
LINE
  8
0
  6
CONTINUOUS
 62
     1
 10
1425.259603436
 20
1541.5
 11
1425.259603436
 21
1625.982623085
  0
LINE
  8
0
  6
CONTINUOUS
 62
     1
 10
1439.724203697
 20
1588.482623085
 11
1439.724203697
 21
1625.982623085
  0
LINE
  8
0
  6
CONTINUOUS
 62
     1
 10
1442.982072072
 20
1586.720886318
 11
1442.982072072
 21
1625.982623085
  0
LINE
  8
0
  6
CONTINUOUS
 62
     1
 10
1451.182072073
 20
1586.720886318
 11
1451.182072073
 21
1625.982623085
  0
LINE
  8
0
  6
LTYPE5
 62
     2
 10
1347.649610244
 20
1541.5
 11
1425.259603436
 21
1541.5
  0
LINE
  8
0
  6
CONTINUOUS
 62
     1
 10
1458.0
 20
1663.482623085
 11
1458.0
 21
1588.482623085
  0
LINE
  8
0
  6
CONTINUOUS
 62
     1
 10
1463.0
 20
1662.5
 11
1463.0
 21
1602.5
  0
LINE
  8
0
  6
CONTINUOUS
 62
     1
 10
1458.0
 20
1663.482623085
 11
1451.182072073
 21
1663.482623085
  0
LINE
  8
0
  6
CONTINUOUS
 62
     1
 10
1458.0
 20
1588.482623085
 11
1451.182072073
 21
1588.482623085
  0
LINE
  8
1
  6
CONTINUOUS
 62
     2
 10
1403.999
 20
1254.5
 11
1403.999
 21
1017.0
  0
LINE
  8
1
  6
CONTINUOUS
 62
     2
 10
1403.999
 20
1254.5
 11
1403.999
 21
1017.0
  0
LINE
  8
0
  6
CONTINUOUS
 62
     1
 10
1333.075606097
 20
1357.0
 11
894.0
 21
1357.0
  0
LINE
  8
1
  6
CONTINUOUS
 62
     2
 10
1342.725406547
 20
1381.482623085
 11
1270.999
 21
1381.482623085
  0
LINE
  8
1
  6
CONTINUOUS
 62
     2
 10
1286.999
 20
1381.482623085
 11
1281.822619098
 21
1362.164106559
  0
LINE
  8
1
  6
CONTINUOUS
 62
     2
 10
1286.999
 20
1381.482623085
 11
1292.175380902
 21
1362.164106559
  0
LINE
  8
1
  6
CONTINUOUS
 62
     2
 10
1286.999
 20
1381.482623085
 11
1286.999
 21
1215.517376915
  0
LINE
  8
1
  6
CONTINUOUS
 62
     2
 10
1286.999
 20
1215.517376915
 11
1292.175380902
 21
1234.835893441
  0
LINE
  8
1
  6
CONTINUOUS
 62
     2
 10
1286.999
 20
1215.517376915
 11
1281.822619098
 21
1234.835893441
  0
LINE
  8
1
  6
CONTINUOUS
 62
     2
 10
1342.824596753
 20
1215.517376915
 11
1270.999
 21
1215.517376915
  0
TEXT
  8
1
  6
CONTINUOUS
 62
     3
 10
1278.999
 20
1243.7
 30
2.4
 40
28.0
  1
φ１５０
 50
90.0
 41
0.914285714
 51
0.0
  7
KANJI50
  0
LINE
  8
0
  6
LTYPE1
 62
     2
 10
1246.824596753
 20
1300.0
 11
1020.999
 21
1300.0
  0
LINE
  8
0
  6
LTYPE1
 62
     2
 10
1597.0
 20
1300.0
 11
1294.824596753
 21
1300.0
  0
LINE
  8
1
  6
CONTINUOUS
 62
     2
 10
1458.0
 20
1254.5
 11
1458.0
 21
986.0
  0
LINE
  8
1
  6
CONTINUOUS
 62
     2
 10
1458.0
 20
1002.0
 11
1438.681483474
 21
1007.176380902
  0
LINE
  8
1
  6
CONTINUOUS
 62
     2
 10
1458.0
 20
1002.0
 11
1438.681483474
 21
996.823619098
  0
LINE
  8
1
  6
CONTINUOUS
 62
     2
 10
1458.0
 20
1002.0
 11
1403.999
 21
1002.0
  0
LINE
  8
1
  6
CONTINUOUS
 62
     2
 10
1403.999
 20
1002.0
 11
1423.317516526
 21
996.823619098
  0
LINE
  8
1
  6
CONTINUOUS
 62
     2
 10
1403.999
 20
1002.0
 11
1423.317516526
 21
1007.176380902
  0
LINE
  8
1
  6
CONTINUOUS
 62
     2
 10
1403.999
 20
1006.5
 11
1403.999
 21
986.0
  0
LINE
  8
1
  6
CONTINUOUS
 62
     2
 10
1458.0
 20
1008.0
 11
1458.0
 21
986.0
  0
LINE
  8
1
  6
CONTINUOUS
 62
     2
 10
1458.0
 20
1002.0
 11
1477.318516526
 21
996.823619098
  0
LINE
  8
1
  6
CONTINUOUS
 62
     2
 10
1458.0
 20
1002.0
 11
1477.318516526
 21
1007.176380902
  0
LINE
  8
1
  6
CONTINUOUS
 62
     2
 10
1458.0
 20
1002.0
 11
1527.999190206
 21
1002.0
  0
LINE
  8
1
  6
CONTINUOUS
 62
     2
 10
1527.999190206
 20
1002.0
 11
1508.68067368
 21
1007.176380902
  0
LINE
  8
1
  6
CONTINUOUS
 62
     2
 10
1527.999190206
 20
1002.0
 11
1508.68067368
 21
996.823619098
  0
LINE
  8
1
  6
CONTINUOUS
 62
     2
 10
1527.999190206
 20
1270.0
 11
1527.999190206
 21
986.0
  0
TEXT
  8
1
  6
CONTINUOUS
 62
     3
 10
1466.199595103
 20
1010.0
 30
2.4
 40
28.0
  1
７０
 50
0.0
 41
0.914285714
 51
0.0
  7
KANJI50
  0
LINE
  8
1
  6
CONTINUOUS
 62
     2
 10
636.0
 20
964.0
 11
636.0
 21
928.0
  0
LINE
  8
1
  6
CONTINUOUS
 62
     2
 10
636.0
 20
944.0
 11
655.318516526
 21
938.823619098
  0
LINE
  8
1
  6
CONTINUOUS
 62
     2
 10
636.0
 20
944.0
 11
655.318516526
 21
949.176380902
  0
LINE
  8
1
  6
CONTINUOUS
 62
     2
 10
636.0
 20
944.0
 11
1527.999190206
 21
944.0
  0
LINE
  8
1
  6
CONTINUOUS
 62
     2
 10
1527.999190206
 20
944.0
 11
1508.68067368
 21
949.176380902
  0
LINE
  8
1
  6
CONTINUOUS
 62
     2
 10
1527.999190206
 20
944.0
 11
1508.68067368
 21
938.823619098
  0
LINE
  8
1
  6
CONTINUOUS
 62
     2
 10
1527.999190206
 20
1011.0
 11
1527.999190206
 21
928.0
  0
LINE
  8
1
  6
CONTINUOUS
 62
     2
 10
1527.999190206
 20
877.0
 11
1508.68067368
 21
882.176380902
  0
LINE
  8
1
  6
CONTINUOUS
 62
     2
 10
1527.999190206
 20
877.0
 11
1508.68067368
 21
871.823619098
  0
LINE
  8
1
  6
CONTINUOUS
 62
     2
 10
1527.999190206
 20
955.437619725
 11
1527.999190206
 21
861.0
  0
LINE
  8
1
  6
CONTINUOUS
 62
     2
 10
1527.999190206
 20
898.0
 11
1527.999190206
 21
861.0
  0
LINE
  8
1
  6
CONTINUOUS
 62
     2
 10
1565.999190206
 20
1254.5
 11
1565.999190206
 21
861.0
  0
TEXT
  8
1
  6
CONTINUOUS
 62
     3
 10
1566.199190206
 20
885.0
 30
2.4
 40
28.0
  1
３８
 50
0.0
 41
0.914285714
 51
0.0
  7
KANJI50
  0
LINE
  8
1
  6
CONTINUOUS
 62
     2
 10
1527.999190206
 20
877.0
 11
1624.999190206
 21
877.0
  0
LINE
  8
1
  6
CONTINUOUS
 62
     2
 10
1565.999190206
 20
877.0
 11
1585.317706732
 21
882.176380902
  0
LINE
  8
1
  6
CONTINUOUS
 62
     2
 10
1565.999190206
 20
877.0
 11
1585.317706732
 21
871.823619098
  0
CIRCLE
  8
0
  6
CONTINUOUS
 62
     1
 10
2150.5
 20
1300.0
 40
75.0
  0
TEXT
  8
0
  6
CONTINUOUS
 62
     2
 10
2949.0
 20
1993.2
 30
1.6
 40
24.0
  1
ＭＣＬＦ６－　　　Ｊ　　　
 50
0.0
 41
0.833333333
 51
0.0
  7
KANJI56
  0
TEXT
  8
0
  6
CONTINUOUS
 62
     3
 10
2515.0
 20
336.0
 30
0.0
 40
28.0
  1
ＭＣＬＦ６－Ｊ
 50
0.0
 41
0.793650794
 51
0.0
  7
KANJI57
  0
TEXT
  8
0
  6
CONTINUOUS
 62
     3
 10
2599.5333816
 20
207.999992
 30
17.333333333
 40
40.0
  1
Ａ３００１４４９
 50
0.0
 41
0.8
 51
0.0
  7
KANJI58
  0
TEXT
  8
0
  6
CONTINUOUS
 62
     3
 10
2233.6667112
 20
227.999992
 30
2.4
 40
28.0
  1
岡　　田
 50
0.0
 41
0.571428571
 51
0.0
  7
KANJI59
  0
TEXT
  8
0
  6
CONTINUOUS
 62
     3
 10
2210.4667112
 20
169.599992
 30
2.4
 40
28.0
  1
０１．０１．２５
 50
0.0
 41
0.571428571
 51
0.0
  7
KANJI59
  0
TEXT
  8
0
  6
CONTINUOUS
 62
     2
 10
637.0
 20
620.8
 30
1.6
 40
24.0
  1
ＭＣＬＦ６－　３Ｊ
 50
0.0
 41
0.833333333
 51
0.0
  7
KANJI56
  0
TEXT
  8
0
  6
CONTINUOUS
 62
     2
 10
637.0
 20
564.8
 30
1.6
 40
24.0
  1
ＭＣＬＦ６－　５Ｊ
 50
0.0
 41
0.833333333
 51
0.0
  7
KANJI56
  0
TEXT
  8
0
  6
CONTINUOUS
 62
     2
 10
637.0
 20
508.8
 30
1.6
 40
24.0
  1
ＭＣＬＦ６－１０Ｊ
 50
0.0
 41
0.833333333
 51
0.0
  7
KANJI56
  0
TEXT
  8
0
  6
CONTINUOUS
 62
     2
 10
637.0
 20
452.8
 30
1.6
 40
24.0
  1
ＭＣＬＦ６－　　Ｊ
 50
0.0
 41
0.833333333
 51
0.0
  7
KANJI56
  0
TEXT
  8
0
  6
CONTINUOUS
 62
     2
 10
1565.8
 20
569.0
 30
2.4
 40
24.0
  1
１１２
 50
0.0
 41
0.9
 51
0.0
  7
KANJI0
  0
TEXT
  8
0
  6
CONTINUOUS
 62
     2
 10
1565.8
 20
513.0
 30
2.4
 40
24.0
  1
２３１
 50
0.0
 41
0.9
 51
0.0
  7
KANJI0
  0
TEXT
  8
0
  6
CONTINUOUS
 62
     2
 10
1233.0
 20
567.6
 30
2.4
 40
24.0
  1
１１２７
 50
0.0
 41
0.9
 51
0.0
  7
KANJI0
  0
TEXT
  8
0
  6
CONTINUOUS
 62
     2
 10
1233.0
 20
511.6
 30
2.4
 40
24.0
  1
１７８６
 50
0.0
 41
0.9
 51
0.0
  7
KANJI0
  0
TEXT
  8
0
  6
CONTINUOUS
 62
     2
 10
1749.8
 20
568.4
 30
2.4
 40
24.0
  1
２０３
 50
0.0
 41
0.9
 51
0.0
  7
KANJI0
  0
TEXT
  8
0
  6
CONTINUOUS
 62
     2
 10
1749.8
 20
512.4
 30
2.4
 40
24.0
  1
２２６
 50
0.0
 41
0.9
 51
0.0
  7
KANJI0
  0
LINE
  8
0
  6
CONTINUOUS
 62
     1
 10
566.0
 20
1719.0
 11
516.0
 21
1719.0
  0
CIRCLE
  8
0
  6
CONTINUOUS
 62
     1
 10
536.0
 20
1749.0
 40
17.5
  0
LINE
  8
0
  6
CONTINUOUS
 62
     1
 10
536.0
 20
1719.0
 11
551.0
 21
1719.0
  0
LINE
  8
0
  6
CONTINUOUS
 62
     1
 10
536.0
 20
1730.0
 11
549.751706485
 21
1730.0
  0
LINE
  8
0
  6
CONTINUOUS
 62
     1
 10
549.751706485
 20
1730.0
 11
536.0
 21
1731.5
  0
LINE
  8
0
  6
CONTINUOUS
 62
     1
 10
550.689625645
 20
1721.735028154
 11
549.751706485
 21
1730.0
  0
LINE
  8
0
  6
CONTINUOUS
 62
     1
 10
536.0
 20
1719.0
 11
521.0
 21
1719.0
  0
LINE
  8
0
  6
CONTINUOUS
 62
     1
 10
536.0
 20
1730.0
 11
522.248293515
 21
1730.0
  0
LINE
  8
0
  6
CONTINUOUS
 62
     1
 10
522.248293515
 20
1730.0
 11
536.0
 21
1731.5
  0
LINE
  8
0
  6
CONTINUOUS
 62
     1
 10
521.310374355
 20
1721.735028154
 11
522.248293515
 21
1730.0
  0
LINE
  8
0
  6
CONTINUOUS
 62
     1
 10
521.0
 20
1719.0
 11
521.310374355
 21
1721.735028154
  0
ARC
  8
0
  6
CONTINUOUS
 62
     1
 10
519.702226771
 20
1721.927087564
 40
1.6
 50
353.231178556
 51
59.406685156
  0
ARC
  8
0
  6
CONTINUOUS
 62
     1
 10
536.0
 20
1749.0
 40
30.0
 50
0.0
 51
239.0231413
  0
LINE
  8
0
  6
LTYPE1
 62
     2
 10
536.0
 20
1670.8
 11
536.0
 21
1785.8
  0
LINE
  8
0
  6
CONTINUOUS
 62
     1
 10
543.0
 20
1650.0
 11
543.0
 21
1719.0
  0
ARC
  8
0
  6
CONTINUOUS
 62
     1
 10
510.0
 20
1650.0
 40
6.0
 50
270.0
 51
0.0
  0
LINE
  8
0
  6
CONTINUOUS
 62
     1
 10
516.0
 20
1650.0
 11
516.0
 21
1719.0
  0
LINE
  8
0
  6
LTYPE1
 62
     2
 10
558.6
 20
1749.0
 11
508.0
 21
1749.0
  0
LINE
  8
0
  6
LTYPE1
 62
     2
 10
574.0
 20
1695.0
 11
500.0
 21
1695.0
  0
LINE
  8
0
  6
LTYPE1
 62
     2
 10
444.0
 20
1195.0
 11
387.0
 21
1195.0
  0
LINE
  8
0
  6
CONTINUOUS
 62
     1
 10
411.0
 20
1195.0
 11
411.0
 21
1184.05046
  0
LINE
  8
0
  6
CONTINUOUS
 62
     1
 10
411.0
 20
1195.0
 11
411.0
 21
1205.94954
  0
LINE
  8
0
  6
CONTINUOUS
 62
     1
 10
402.9789
 20
1186.73198
 11
404.527076294
 21
1184.05046
  0
LINE
  8
0
  6
CONTINUOUS
 62
     1
 10
402.9789
 20
1195.0
 11
402.9789
 21
1186.73198
  0
LINE
  8
0
  6
CONTINUOUS
 62
     1
 10
402.9789
 20
1203.26802
 11
404.527076294
 21
1205.94954
  0
LINE
  8
0
  6
CONTINUOUS
 62
     1
 10
402.9789
 20
1195.0
 11
402.9789
 21
1203.26802
  0
ARC
  8
0
  6
CONTINUOUS
 62
     1
 10
413.433121693
 20
1195.0
 40
10.454221693
 50
148.419912243
 51
211.580087757
  0
ARC
  8
0
  6
CONTINUOUS
 62
     1
 10
406.172013606
 20
1186.787845
 40
3.193602261
 50
121.002313915
 51
182.989498403
  0
LINE
  8
0
  6
CONTINUOUS
 62
     1
 10
402.9789
 20
1203.26802
 11
404.527076294
 21
1205.94954
  0
ARC
  8
0
  6
CONTINUOUS
 62
     1
 10
406.172013606
 20
1203.212155
 40
3.193602261
 50
177.010501597
 51
238.997686085
  0
LINE
  8
0
  6
CONTINUOUS
 62
     1
 10
411.0
 20
1184.05046
 11
404.527076294
 21
1184.05046
  0
LINE
  8
0
  6
CONTINUOUS
 62
     1
 10
411.0
 20
1189.52523
 11
404.527076294
 21
1189.52523
  0
LINE
  8
0
  6
CONTINUOUS
 62
     1
 10
411.0
 20
1200.47477
 11
404.527076294
 21
1200.47477
  0
LINE
  8
0
  6
CONTINUOUS
 62
     1
 10
411.0
 20
1205.94954
 11
404.527076294
 21
1205.94954
  0
LINE
  8
0
  6
CONTINUOUS
 62
     1
 10
411.0
 20
1419.5
 11
411.0
 21
1590.0
  0
LINE
  8
0
  6
CONTINUOUS
 62
     1
 10
428.0
 20
1165.0
 11
428.0
 21
1644.0
  0
LINE
  8
0
  6
CONTINUOUS
 62
     1
 10
411.0
 20
1165.0
 11
411.0
 21
1644.0
  0
LINE
  8
0
  6
LTYPE1
 62
     2
 10
441.0
 20
1483.0
 11
387.0
 21
1483.0
  0
LINE
  8
0
  6
CONTINUOUS
 62
     1
 10
537.00001079
 20
1644.0
 11
411.0
 21
1644.0
  0
ARC
  8
0
  6
CONTINUOUS
 62
     1
 10
537.0
 20
1650.0
 40
6.0
 50
270.000103033
 51
0.0
  0
LINE
  8
0
  6
CONTINUOUS
 62
     1
 10
566.0
 20
1165.0
 11
411.0
 21
1165.0
  0
LINE
  8
0
  6
CONTINUOUS
 62
     1
 10
433.0
 20
1463.5
 11
433.0
 21
1583.5
  0
LINE
  8
0
  6
CONTINUOUS
 62
     1
 10
523.0
 20
1583.5
 11
433.0
 21
1583.5
  0
LINE
  8
0
  6
CONTINUOUS
 62
     1
 10
523.0
 20
1463.5
 11
523.0
 21
1583.5
  0
LINE
  8
0
  6
CONTINUOUS
 62
     1
 10
523.0
 20
1463.5
 11
433.0
 21
1463.5
  0
LINE
  8
0
  6
LTYPE1
 62
     2
 10
452.0
 20
1473.5
 11
436.0
 21
1473.5
  0
LINE
  8
0
  6
LTYPE1
 62
     2
 10
443.0
 20
1463.5
 11
443.0
 21
1482.0
  0
LINE
  8
0
  6
LTYPE1
 62
     2
 10
443.0
 20
1563.0
 11
443.0
 21
1583.5
  0
LINE
  8
0
  6
LTYPE1
 62
     2
 10
452.0
 20
1573.5
 11
435.0
 21
1573.5
  0
LINE
  8
0
  6
LTYPE1
 62
     2
 10
520.0
 20
1573.5
 11
506.0
 21
1573.5
  0
LINE
  8
0
  6
LTYPE1
 62
     2
 10
513.0
 20
1567.0
 11
513.0
 21
1583.5
  0
LINE
  8
0
  6
LTYPE1
 62
     2
 10
513.0
 20
1463.5
 11
513.0
 21
1480.0
  0
LINE
  8
0
  6
LTYPE1
 62
     2
 10
521.0
 20
1473.5
 11
506.0
 21
1473.5
  0
LINE
  8
1
  6
CONTINUOUS
 62
     2
 10
361.0
 20
1797.0
 11
380.318516526
 21
1791.823619098
  0
LINE
  8
1
  6
CONTINUOUS
 62
     2
 10
361.0
 20
1797.0
 11
380.318516526
 21
1802.176380902
  0
LINE
  8
1
  6
CONTINUOUS
 62
     2
 10
361.0
 20
1797.0
 11
566.0
 21
1797.0
  0
LINE
  8
1
  6
CONTINUOUS
 62
     2
 10
566.0
 20
1797.0
 11
546.681483474
 21
1802.176380902
  0
LINE
  8
1
  6
CONTINUOUS
 62
     2
 10
566.0
 20
1797.0
 11
546.681483474
 21
1791.823619098
  0
LINE
  8
1
  6
CONTINUOUS
 62
     2
 10
566.0
 20
1791.0
 11
566.0
 21
1813.0
  0
TEXT
  8
1
  6
CONTINUOUS
 62
     3
 10
422.7
 20
1805.0
 30
2.4
 40
28.0
  1
２０５
 50
0.0
 41
0.914285714
 51
0.0
  7
KANJI50
  0
ARC
  8
0
  6
CONTINUOUS
 62
     1
 10
552.297773229
 20
1721.927087564
 40
1.6
 50
120.593314844
 51
186.768821444
  0
ARC
  8
0
  6
CONTINUOUS
 62
     1
 10
536.0
 20
1749.0
 40
30.0
 50
301.047754584
 51
0.0
  0
LINE
  8
0
  6
CONTINUOUS
 62
     1
 10
551.0
 20
1719.0
 11
550.689625645
 21
1721.735028154
  0
LINE
  8
1
  6
CONTINUOUS
 62
     2
 10
636.0
 20
1026.0
 11
636.0
 21
986.0
  0
LINE
  8
1
  6
CONTINUOUS
 62
     2
 10
636.0
 20
1002.0
 11
616.681483474
 21
1007.176380902
  0
LINE
  8
1
  6
CONTINUOUS
 62
     2
 10
636.0
 20
1002.0
 11
616.681483474
 21
996.823619098
  0
LINE
  8
1
  6
CONTINUOUS
 62
     2
 10
636.0
 20
1002.0
 11
566.0
 21
1002.0
  0
LINE
  8
1
  6
CONTINUOUS
 62
     2
 10
566.0
 20
1002.0
 11
585.318516526
 21
996.823619098
  0
LINE
  8
1
  6
CONTINUOUS
 62
     2
 10
566.0
 20
1002.0
 11
585.318516526
 21
1007.176380902
  0
LINE
  8
1
  6
CONTINUOUS
 62
     2
 10
566.0
 20
1157.0
 11
566.0
 21
986.0
  0
TEXT
  8
1
  6
CONTINUOUS
 62
     3
 10
574.2
 20
1010.0
 30
2.4
 40
28.0
  1
７０
 50
0.0
 41
0.914285714
 51
0.0
  7
KANJI50
  0
LINE
  8
1
  6
CONTINUOUS
 62
     2
 10
566.0
 20
1024.0
 11
566.0
 21
986.0
  0
LINE
  8
1
  6
CONTINUOUS
 62
     2
 10
566.0
 20
1002.0
 11
546.681483474
 21
1007.176380902
  0
LINE
  8
1
  6
CONTINUOUS
 62
     2
 10
566.0
 20
1002.0
 11
546.681483474
 21
996.823619098
  0
LINE
  8
1
  6
CONTINUOUS
 62
     2
 10
566.0
 20
1002.0
 11
411.0
 21
1002.0
  0
LINE
  8
1
  6
CONTINUOUS
 62
     2
 10
411.0
 20
1002.0
 11
430.318516526
 21
996.823619098
  0
LINE
  8
1
  6
CONTINUOUS
 62
     2
 10
411.0
 20
1002.0
 11
430.318516526
 21
1007.176380902
  0
LINE
  8
1
  6
CONTINUOUS
 62
     2
 10
411.0
 20
1003.0
 11
411.0
 21
986.0
  0
TEXT
  8
1
  6
CONTINUOUS
 62
     3
 10
447.7
 20
1010.0
 30
2.4
 40
28.0
  1
１５５
 50
0.0
 41
0.914285714
 51
0.0
  7
KANJI50
  0
LINE
  8
1
  6
CONTINUOUS
 62
     2
 10
636.0
 20
958.0
 11
636.0
 21
928.0
  0
LINE
  8
1
  6
CONTINUOUS
 62
     2
 10
636.0
 20
944.0
 11
616.681483474
 21
949.176380902
  0
LINE
  8
1
  6
CONTINUOUS
 62
     2
 10
636.0
 20
944.0
 11
616.681483474
 21
938.823619098
  0
LINE
  8
1
  6
CONTINUOUS
 62
     2
 10
636.0
 20
944.0
 11
411.0
 21
944.0
  0
LINE
  8
1
  6
CONTINUOUS
 62
     2
 10
411.0
 20
944.0
 11
430.318516526
 21
938.823619098
  0
LINE
  8
1
  6
CONTINUOUS
 62
     2
 10
411.0
 20
944.0
 11
430.318516526
 21
949.176380902
  0
LINE
  8
1
  6
CONTINUOUS
 62
     2
 10
411.0
 20
941.0
 11
411.0
 21
960.0
  0
TEXT
  8
1
  6
CONTINUOUS
 62
     3
 10
482.7
 20
952.0
 30
2.4
 40
28.0
  1
２２５
 50
0.0
 41
0.914285714
 51
0.0
  7
KANJI50
  0
LINE
  8
1
  6
CONTINUOUS
 62
     2
 10
411.0
 20
1157.0
 11
411.0
 21
861.0
  0
LINE
  8
1
  6
CONTINUOUS
 62
     2
 10
411.0
 20
877.0
 11
430.318516526
 21
871.823619098
  0
LINE
  8
1
  6
CONTINUOUS
 62
     2
 10
411.0
 20
877.0
 11
430.318516526
 21
882.176380902
  0
LINE
  8
1
  6
CONTINUOUS
 62
     2
 10
411.0
 20
877.0
 11
1507.999190206
 21
877.0
  0
TEXT
  8
0
  6
CONTINUOUS
 62
     2
 10
1072.2
 20
622.0
 30
2.4
 40
24.0
  1
１０９０
 50
0.0
 41
0.9
 51
0.0
  7
KANJI0
  0
TEXT
  8
0
  6
CONTINUOUS
 62
     2
 10
1072.2
 20
566.0
 30
2.4
 40
24.0
  1
１３５２
 50
0.0
 41
0.9
 51
0.0
  7
KANJI0
  0
TEXT
  8
0
  6
CONTINUOUS
 62
     2
 10
1072.2
 20
510.0
 30
2.4
 40
24.0
  1
２０１１
 50
0.0
 41
0.9
 51
0.0
  7
KANJI0
  0
LINE
  8
0
  6
LTYPE1
 62
     2
 10
948.999
 20
1300.0
 11
393.0
 21
1300.0
  0
LINE
  8
0
  6
CONTINUOUS
 62
     4
 10
1626.0667892
 20
203.4666584
 11
1603.5334576
 21
168.7999944
  0
LINE
  8
0
  6
CONTINUOUS
 62
     4
 10
1603.5334576
 20
168.7999944
 11
1648.6001208
 21
168.7999944
  0
LINE
  8
0
  6
CONTINUOUS
 62
     4
 10
1626.0667892
 20
203.4666584
 11
1648.6001208
 21
168.7999944
  0
TEXT
  8
0
  6
CONTINUOUS
 62
     2
 10
1614.6001248
 20
168.3999952
 30
2.4
 40
24.0
  1
１
 50
0.0
 41
1.0
 51
0.0
  7
KANJI60
  0
TEXT
  8
0
  6
CONTINUOUS
 62
     2
 10
1658.6001248
 20
169.3999952
 30
2.4
 40
24.0
  1
２００１．１０．１１　岡田　寸法変更
 50
0.0
 41
1.0
 51
0.0
  7
KANJI60
  0
LINE
  8
0
  6
CONTINUOUS
 62
     4
 10
1179.833457
 20
656.4333268
 11
1168.5667912
 21
639.0999948
  0
LINE
  8
0
  6
CONTINUOUS
 62
     4
 10
1168.5667912
 20
639.0999948
 11
1191.1001228
 21
639.0999948
  0
LINE
  8
0
  6
CONTINUOUS
 62
     4
 10
1179.833457
 20
656.4333268
 11
1191.1001228
 21
639.0999948
  0
TEXT
  8
0
  6
CONTINUOUS
 62
     2
 10
1174.1001248
 20
638.8999952
 30
1.2
 40
12.0
  1
１
 50
0.0
 41
1.0
 51
0.0
  7
KANJI61
  0
LINE
  8
0
  6
CONTINUOUS
 62
     4
 10
1179.833457
 20
600.4333268
 11
1168.5667912
 21
583.0999948
  0
LINE
  8
0
  6
CONTINUOUS
 62
     4
 10
1168.5667912
 20
583.0999948
 11
1191.1001228
 21
583.0999948
  0
LINE
  8
0
  6
CONTINUOUS
 62
     4
 10
1179.833457
 20
600.4333268
 11
1191.1001228
 21
583.0999948
  0
TEXT
  8
0
  6
CONTINUOUS
 62
     2
 10
1174.1001248
 20
582.8999952
 30
1.2
 40
12.0
  1
１
 50
0.0
 41
1.0
 51
0.0
  7
KANJI61
  0
LINE
  8
0
  6
CONTINUOUS
 62
     4
 10
1179.833457
 20
544.4333268
 11
1168.5667912
 21
527.0999948
  0
LINE
  8
0
  6
CONTINUOUS
 62
     4
 10
1168.5667912
 20
527.0999948
 11
1191.1001228
 21
527.0999948
  0
LINE
  8
0
  6
CONTINUOUS
 62
     4
 10
1179.833457
 20
544.4333268
 11
1191.1001228
 21
527.0999948
  0
TEXT
  8
0
  6
CONTINUOUS
 62
     2
 10
1174.1001248
 20
526.8999952
 30
1.2
 40
12.0
  1
１
 50
0.0
 41
1.0
 51
0.0
  7
KANJI61
  0
LINE
  8
0
  6
CONTINUOUS
 62
     4
 10
582.833457
 20
985.4333268
 11
571.5667912
 21
968.0999948
  0
LINE
  8
0
  6
CONTINUOUS
 62
     4
 10
571.5667912
 20
968.0999948
 11
594.1001228
 21
968.0999948
  0
LINE
  8
0
  6
CONTINUOUS
 62
     4
 10
582.833457
 20
985.4333268
 11
594.1001228
 21
968.0999948
  0
TEXT
  8
0
  6
CONTINUOUS
 62
     2
 10
577.1001248
 20
967.8999952
 30
1.2
 40
12.0
  1
１
 50
0.0
 41
1.0
 51
0.0
  7
KANJI61
  0
LINE
  8
0
  6
CONTINUOUS
 62
     4
 10
521.833457
 20
1846.4333268
 11
510.5667912
 21
1829.0999948
  0
LINE
  8
0
  6
CONTINUOUS
 62
     4
 10
510.5667912
 20
1829.0999948
 11
533.1001228
 21
1829.0999948
  0
LINE
  8
0
  6
CONTINUOUS
 62
     4
 10
521.833457
 20
1846.4333268
 11
533.1001228
 21
1829.0999948
  0
TEXT
  8
0
  6
CONTINUOUS
 62
     2
 10
516.1001248
 20
1828.8999952
 30
1.2
 40
12.0
  1
１
 50
0.0
 41
1.0
 51
0.0
  7
KANJI61
  0
LINE
  8
0
  6
CONTINUOUS
 62
     1
 10
361.0
 20
1511.0
 11
361.0
 21
1551.0
  0
LINE
  8
0
  6
CONTINUOUS
 62
     1
 10
411.0
 20
1551.0
 11
361.0
 21
1551.0
  0
LINE
  8
0
  6
CONTINUOUS
 62
     1
 10
411.0
 20
1511.0
 11
361.0
 21
1511.0
  0
LINE
  8
1
  6
CONTINUOUS
 62
     2
 10
361.0
 20
1521.8
 11
349.063053755
 21
1505.752903243
  0
LINE
  8
1
  6
CONTINUOUS
 62
     2
 10
361.0
 20
1521.8
 11
358.685849686
 21
1501.934333429
  0
LINE
  8
1
  6
CONTINUOUS
 62
     2
 10
361.0
 20
1521.8
 11
335.880952381
 21
1458.5
  0
TEXT
  8
1
  6
CONTINUOUS
 62
     3
 10
256.9
 20
1467.5
 30
2.4
 40
24.0
  1
手動軸
 50
0.0
 41
0.9
 51
0.0
  7
KANJI0
  0
TEXT
  8
0
  6
CONTINUOUS
 62
     3
 10
261.0
 20
1427.5
 30
2.4
 40
24.0
  1
□１２
 50
0.0
 41
0.9
 51
0.0
  7
KANJI0
  0
LINE
  8
1
  6
CONTINUOUS
 62
     2
 10
335.880952381
 20
1458.5
 11
253.0
 21
1458.5
  0
LINE
  8
0
  6
LTYPE1
 62
     2
 10
982.5
 20
1531.0
 11
366.4
 21
1531.0
  0
LINE
  8
1
  6
CONTINUOUS
 62
     2
 10
361.0
 20
1566.55
 11
361.0
 21
1813.0
  0
ENDSEC
  0
EOF
