  0
SECTION
  2
HEADER
  9
$EXTMIN
 10
0.0
 20
0.0
 30
0.0
  9
$EXTMAX
 10
3360.0
 20
2376.0
 30
0.0
  9
$LIMMIN
 10
0.0
 20
0.0
  9
$LIMMAX
 10
3360.0
 20
2376.0
  9
$LTSCALE
 40
1.0
  9
$PDMODE
 70
     0
  0
ENDSEC
  0
SECTION
  2
TABLES
  0
TABLE
  2
LTYPE
 70
     5
  0
LTYPE
  2
CONTINUOUS
 70
    64
  3
Solid line
 72
    65
 73
     0
 40
0.0
  0
LTYPE
  2
LTYPE1
 70
    64
  3
CENTER
 72
    65
 73
     4
 40
120.0
 49
84.0
 49
-12.0
 49
12.0
 49
-12.0
  0
LTYPE
  2
LTYPE2
 70
    64
  3
CENTER
 72
    65
 73
     4
 40
80.0
 49
56.0
 49
-8.0
 49
8.0
 49
-8.0
  0
LTYPE
  2
LTYPE3
 70
    64
  3
HIDDEN
 72
    65
 73
     2
 40
24.0
 49
14.4
 49
-9.6
  0
LTYPE
  2
LTYPE4
 70
    64
  3
CENTER
 72
    65
 73
     4
 40
160.0
 49
112.0
 49
-16.0
 49
16.0
 49
-16.0
  0
ENDTAB
  0
TABLE
  2
LAYER
 70
   128
  0
LAYER
  2
0
 70
     0
 62
     7
  6
CONTINUOUS
  0
LAYER
  2
2
 70
     0
 62
     7
  6
CONTINUOUS
  0
LAYER
  2
3
 70
     0
 62
     7
  6
CONTINUOUS
  0
LAYER
  2
4
 70
     0
 62
     7
  6
CONTINUOUS
  0
LAYER
  2
5
 70
     0
 62
     7
  6
CONTINUOUS
  0
LAYER
  2
6
 70
     0
 62
     7
  6
CONTINUOUS
  0
LAYER
  2
7
 70
     0
 62
     7
  6
CONTINUOUS
  0
LAYER
  2
8
 70
     0
 62
     7
  6
CONTINUOUS
  0
LAYER
  2
9
 70
     0
 62
     7
  6
CONTINUOUS
  0
LAYER
  2
10
 70
     0
 62
     7
  6
CONTINUOUS
  0
LAYER
  2
11
 70
     0
 62
     7
  6
CONTINUOUS
  0
LAYER
  2
12
 70
     0
 62
     7
  6
CONTINUOUS
  0
LAYER
  2
13
 70
     0
 62
     7
  6
CONTINUOUS
  0
LAYER
  2
14
 70
     0
 62
     7
  6
CONTINUOUS
  0
LAYER
  2
15
 70
     0
 62
     7
  6
CONTINUOUS
  0
LAYER
  2
16
 70
     0
 62
     7
  6
CONTINUOUS
  0
LAYER
  2
17
 70
     0
 62
     7
  6
CONTINUOUS
  0
LAYER
  2
18
 70
     0
 62
     7
  6
CONTINUOUS
  0
LAYER
  2
19
 70
     0
 62
     7
  6
CONTINUOUS
  0
LAYER
  2
20
 70
     0
 62
     7
  6
CONTINUOUS
  0
LAYER
  2
21
 70
     0
 62
     7
  6
CONTINUOUS
  0
LAYER
  2
22
 70
     0
 62
     7
  6
CONTINUOUS
  0
LAYER
  2
23
 70
     0
 62
     7
  6
CONTINUOUS
  0
LAYER
  2
24
 70
     0
 62
     7
  6
CONTINUOUS
  0
LAYER
  2
25
 70
     0
 62
     7
  6
CONTINUOUS
  0
LAYER
  2
26
 70
     0
 62
     7
  6
CONTINUOUS
  0
LAYER
  2
27
 70
     0
 62
     7
  6
CONTINUOUS
  0
LAYER
  2
28
 70
     0
 62
     7
  6
CONTINUOUS
  0
LAYER
  2
29
 70
     0
 62
     7
  6
CONTINUOUS
  0
LAYER
  2
30
 70
     0
 62
     7
  6
CONTINUOUS
  0
LAYER
  2
31
 70
     0
 62
     7
  6
CONTINUOUS
  0
LAYER
  2
32
 70
     0
 62
     7
  6
CONTINUOUS
  0
LAYER
  2
33
 70
     0
 62
     7
  6
CONTINUOUS
  0
LAYER
  2
34
 70
     0
 62
     7
  6
CONTINUOUS
  0
LAYER
  2
35
 70
     0
 62
     7
  6
CONTINUOUS
  0
LAYER
  2
36
 70
     0
 62
     7
  6
CONTINUOUS
  0
LAYER
  2
37
 70
     0
 62
     7
  6
CONTINUOUS
  0
LAYER
  2
38
 70
     0
 62
     7
  6
CONTINUOUS
  0
LAYER
  2
39
 70
     0
 62
     7
  6
CONTINUOUS
  0
LAYER
  2
40
 70
     0
 62
     7
  6
CONTINUOUS
  0
LAYER
  2
41
 70
     0
 62
     7
  6
CONTINUOUS
  0
LAYER
  2
42
 70
     0
 62
     7
  6
CONTINUOUS
  0
LAYER
  2
43
 70
     0
 62
     7
  6
CONTINUOUS
  0
LAYER
  2
44
 70
     0
 62
     7
  6
CONTINUOUS
  0
LAYER
  2
45
 70
     0
 62
     7
  6
CONTINUOUS
  0
LAYER
  2
46
 70
     0
 62
     7
  6
CONTINUOUS
  0
LAYER
  2
47
 70
     0
 62
     7
  6
CONTINUOUS
  0
LAYER
  2
48
 70
     0
 62
     7
  6
CONTINUOUS
  0
LAYER
  2
49
 70
     0
 62
     7
  6
CONTINUOUS
  0
LAYER
  2
50
 70
     0
 62
     7
  6
CONTINUOUS
  0
LAYER
  2
51
 70
     0
 62
     7
  6
CONTINUOUS
  0
LAYER
  2
52
 70
     0
 62
     7
  6
CONTINUOUS
  0
LAYER
  2
53
 70
     0
 62
     7
  6
CONTINUOUS
  0
LAYER
  2
54
 70
     0
 62
     7
  6
CONTINUOUS
  0
LAYER
  2
55
 70
     0
 62
     7
  6
CONTINUOUS
  0
LAYER
  2
56
 70
     0
 62
     7
  6
CONTINUOUS
  0
LAYER
  2
57
 70
     0
 62
     7
  6
CONTINUOUS
  0
LAYER
  2
58
 70
     0
 62
     7
  6
CONTINUOUS
  0
LAYER
  2
59
 70
     0
 62
     7
  6
CONTINUOUS
  0
LAYER
  2
60
 70
     0
 62
     7
  6
CONTINUOUS
  0
LAYER
  2
61
 70
     0
 62
     7
  6
CONTINUOUS
  0
LAYER
  2
62
 70
     0
 62
     7
  6
CONTINUOUS
  0
LAYER
  2
63
 70
     0
 62
     7
  6
CONTINUOUS
  0
LAYER
  2
64
 70
     0
 62
     7
  6
CONTINUOUS
  0
LAYER
  2
65
 70
     0
 62
     7
  6
CONTINUOUS
  0
LAYER
  2
66
 70
     0
 62
     7
  6
CONTINUOUS
  0
LAYER
  2
67
 70
     0
 62
     7
  6
CONTINUOUS
  0
LAYER
  2
68
 70
     0
 62
     7
  6
CONTINUOUS
  0
LAYER
  2
69
 70
     0
 62
     7
  6
CONTINUOUS
  0
LAYER
  2
70
 70
     0
 62
     7
  6
CONTINUOUS
  0
LAYER
  2
71
 70
     0
 62
     7
  6
CONTINUOUS
  0
LAYER
  2
72
 70
     0
 62
     7
  6
CONTINUOUS
  0
LAYER
  2
73
 70
     0
 62
     7
  6
CONTINUOUS
  0
LAYER
  2
74
 70
     0
 62
     7
  6
CONTINUOUS
  0
LAYER
  2
75
 70
     0
 62
     7
  6
CONTINUOUS
  0
LAYER
  2
76
 70
     0
 62
     7
  6
CONTINUOUS
  0
LAYER
  2
77
 70
     0
 62
     7
  6
CONTINUOUS
  0
LAYER
  2
78
 70
     0
 62
     7
  6
CONTINUOUS
  0
LAYER
  2
79
 70
     0
 62
     7
  6
CONTINUOUS
  0
LAYER
  2
80
 70
     0
 62
     7
  6
CONTINUOUS
  0
LAYER
  2
81
 70
     0
 62
     7
  6
CONTINUOUS
  0
LAYER
  2
82
 70
     0
 62
     7
  6
CONTINUOUS
  0
LAYER
  2
83
 70
     0
 62
     7
  6
CONTINUOUS
  0
LAYER
  2
84
 70
     0
 62
     7
  6
CONTINUOUS
  0
LAYER
  2
85
 70
     0
 62
     7
  6
CONTINUOUS
  0
LAYER
  2
86
 70
     0
 62
     7
  6
CONTINUOUS
  0
LAYER
  2
87
 70
     0
 62
     7
  6
CONTINUOUS
  0
LAYER
  2
88
 70
     0
 62
     7
  6
CONTINUOUS
  0
LAYER
  2
89
 70
     0
 62
     7
  6
CONTINUOUS
  0
LAYER
  2
90
 70
     0
 62
     7
  6
CONTINUOUS
  0
LAYER
  2
91
 70
     0
 62
     7
  6
CONTINUOUS
  0
LAYER
  2
92
 70
     0
 62
     7
  6
CONTINUOUS
  0
LAYER
  2
93
 70
     0
 62
     7
  6
CONTINUOUS
  0
LAYER
  2
94
 70
     0
 62
     7
  6
CONTINUOUS
  0
LAYER
  2
95
 70
     0
 62
     7
  6
CONTINUOUS
  0
LAYER
  2
96
 70
     0
 62
     7
  6
CONTINUOUS
  0
LAYER
  2
97
 70
     0
 62
     7
  6
CONTINUOUS
  0
LAYER
  2
98
 70
     0
 62
     7
  6
CONTINUOUS
  0
LAYER
  2
99
 70
     0
 62
     7
  6
CONTINUOUS
  0
LAYER
  2
100
 70
     0
 62
     7
  6
CONTINUOUS
  0
LAYER
  2
101
 70
     0
 62
     7
  6
CONTINUOUS
  0
LAYER
  2
102
 70
     0
 62
     7
  6
CONTINUOUS
  0
LAYER
  2
103
 70
     0
 62
     7
  6
CONTINUOUS
  0
LAYER
  2
104
 70
     0
 62
     7
  6
CONTINUOUS
  0
LAYER
  2
105
 70
     0
 62
     7
  6
CONTINUOUS
  0
LAYER
  2
106
 70
     0
 62
     7
  6
CONTINUOUS
  0
LAYER
  2
107
 70
     0
 62
     7
  6
CONTINUOUS
  0
LAYER
  2
108
 70
     0
 62
     7
  6
CONTINUOUS
  0
LAYER
  2
109
 70
     0
 62
     7
  6
CONTINUOUS
  0
LAYER
  2
110
 70
     0
 62
     7
  6
CONTINUOUS
  0
LAYER
  2
111
 70
     0
 62
     7
  6
CONTINUOUS
  0
LAYER
  2
112
 70
     0
 62
     7
  6
CONTINUOUS
  0
LAYER
  2
113
 70
     0
 62
     7
  6
CONTINUOUS
  0
LAYER
  2
114
 70
     0
 62
     7
  6
CONTINUOUS
  0
LAYER
  2
115
 70
     0
 62
     7
  6
CONTINUOUS
  0
LAYER
  2
116
 70
     0
 62
     7
  6
CONTINUOUS
  0
LAYER
  2
117
 70
     0
 62
     7
  6
CONTINUOUS
  0
LAYER
  2
118
 70
     0
 62
     7
  6
CONTINUOUS
  0
LAYER
  2
119
 70
     0
 62
     7
  6
CONTINUOUS
  0
LAYER
  2
120
 70
     0
 62
     7
  6
CONTINUOUS
  0
LAYER
  2
121
 70
     0
 62
     7
  6
CONTINUOUS
  0
LAYER
  2
122
 70
     0
 62
     7
  6
CONTINUOUS
  0
LAYER
  2
123
 70
     0
 62
     7
  6
CONTINUOUS
  0
LAYER
  2
124
 70
     0
 62
     7
  6
CONTINUOUS
  0
LAYER
  2
125
 70
     0
 62
     7
  6
CONTINUOUS
  0
LAYER
  2
126
 70
     0
 62
     7
  6
CONTINUOUS
  0
LAYER
  2
127
 70
     0
 62
     7
  6
CONTINUOUS
  0
LAYER
  2
128
 70
     0
 62
     7
  6
CONTINUOUS
  0
ENDTAB
  0
TABLE
  2
STYLE
 70
    63
  0
STYLE
  2
STANDARD
 70
     0
 40
0.0
 41
1.0
 50
0.0
 71
     0
 42
0.2
  3
txt
  4

  0
STYLE
  2
KANJI0
 70
     0
 40
24.0
 41
0.9
 50
0.0
 71
     0
 42
24.0
  3

  4
bigfont
  0
STYLE
  2
KANJI1
 70
     0
 40
36.0
 41
0.9
 50
0.0
 71
     0
 42
36.0
  3

  4
bigfont
  0
STYLE
  2
KANJI2
 70
     4
 40
28.0
 41
0.9
 50
0.0
 71
     0
 42
28.0
  3

  4
bigfont
  0
STYLE
  2
KANJI3
 70
     4
 40
24.0
 41
0.9
 50
0.0
 71
     0
 42
24.0
  3

  4
bigfont
  0
STYLE
  2
KANJI4
 70
     0
 40
28.0
 41
0.9
 50
0.0
 71
     0
 42
28.0
  3

  4
bigfont
  0
STYLE
  2
KANJI5
 70
     0
 40
24.0
 41
0.9
 50
0.0
 71
     0
 42
24.0
  3

  4
bigfont
  0
STYLE
  2
KANJI6
 70
     0
 40
24.0
 41
0.857142857
 50
0.0
 71
     0
 42
24.0
  3

  4
bigfont
  0
STYLE
  2
KANJI7
 70
     0
 40
28.0
 41
0.9
 50
0.0
 71
     0
 42
28.0
  3

  4
bigfont
  0
STYLE
  2
KANJI8
 70
     0
 40
22.4
 41
0.9
 50
0.0
 71
     0
 42
22.4
  3

  4
bigfont
  0
STYLE
  2
KANJI9
 70
     0
 40
22.4
 41
0.785714286
 50
0.0
 71
     0
 42
22.4
  3

  4
bigfont
  0
STYLE
  2
KANJI10
 70
     0
 40
22.4
 41
0.8
 50
0.0
 71
     0
 42
22.4
  3

  4
bigfont
  0
STYLE
  2
KANJI11
 70
     0
 40
24.0
 41
0.8
 50
0.0
 71
     0
 42
24.0
  3

  4
bigfont
  0
STYLE
  2
KANJI12
 70
     0
 40
24.0
 41
0.9
 50
0.0
 71
     0
 42
24.0
  3

  4
bigfont
  0
STYLE
  2
KANJI13
 70
     0
 40
19.2
 41
0.777777778
 50
0.0
 71
     0
 42
19.2
  3

  4
bigfont
  0
STYLE
  2
KANJI14
 70
     0
 40
25.6
 41
0.9
 50
0.0
 71
     0
 42
25.6
  3

  4
bigfont
  0
STYLE
  2
KANJI15
 70
     0
 40
30.4
 41
0.9
 50
0.0
 71
     0
 42
30.4
  3

  4
bigfont
  0
STYLE
  2
KANJI16
 70
     0
 40
30.4
 41
0.9
 50
0.0
 71
     0
 42
30.4
  3

  4
bigfont
  0
STYLE
  2
KANJI17
 70
     0
 40
30.4
 41
0.9
 50
0.0
 71
     0
 42
30.4
  3

  4
bigfont
  0
STYLE
  2
KANJI18
 70
     0
 40
30.4
 41
0.9
 50
0.0
 71
     0
 42
30.4
  3

  4
bigfont
  0
STYLE
  2
KANJI19
 70
     0
 40
30.4
 41
0.9
 50
0.0
 71
     0
 42
30.4
  3

  4
bigfont
  0
STYLE
  2
KANJI20
 70
     0
 40
30.4
 41
0.9
 50
0.0
 71
     0
 42
30.4
  3

  4
bigfont
  0
STYLE
  2
KANJI21
 70
     0
 40
30.4
 41
0.9
 50
0.0
 71
     0
 42
30.4
  3

  4
bigfont
  0
STYLE
  2
KANJI22
 70
     0
 40
30.4
 41
0.9
 50
0.0
 71
     0
 42
30.4
  3

  4
bigfont
  0
STYLE
  2
KANJI23
 70
     0
 40
30.4
 41
0.9
 50
0.0
 71
     0
 42
30.4
  3

  4
bigfont
  0
STYLE
  2
KANJI24
 70
     0
 40
30.4
 41
0.9
 50
0.0
 71
     0
 42
30.4
  3

  4
bigfont
  0
STYLE
  2
KANJI25
 70
     0
 40
22.4
 41
0.8
 50
0.0
 71
     0
 42
22.4
  3

  4
bigfont
  0
STYLE
  2
KANJI26
 70
     0
 40
28.0
 41
0.9
 50
0.0
 71
     0
 42
28.0
  3

  4
bigfont
  0
STYLE
  2
KANJI27
 70
     0
 40
15.999996636
 41
0.6
 50
0.0
 71
     0
 42
15.999996636
  3

  4
bigfont
  0
STYLE
  2
KANJI28
 70
     0
 40
19.199995963
 41
0.9
 50
0.0
 71
     0
 42
19.199995963
  3

  4
bigfont
  0
STYLE
  2
KANJI29
 70
     0
 40
20.7999984
 41
0.9
 50
0.0
 71
     0
 42
20.7999984
  3

  4
bigfont
  0
STYLE
  2
KANJI30
 70
     0
 40
13.8666656
 41
0.75
 50
0.0
 71
     0
 42
13.8666656
  3

  4
bigfont
  0
STYLE
  2
KANJI31
 70
     0
 40
20.7999984
 41
0.75
 50
0.0
 71
     0
 42
20.7999984
  3

  4
bigfont
  0
STYLE
  2
KANJI32
 70
     0
 40
12.47999904
 41
0.75
 50
0.0
 71
     0
 42
12.47999904
  3

  4
bigfont
  0
STYLE
  2
KANJI33
 70
     0
 40
13.8666656
 41
0.6
 50
0.0
 71
     0
 42
13.8666656
  3

  4
bigfont
  0
STYLE
  2
KANJI34
 70
     0
 40
16.63999872
 41
0.6
 50
0.0
 71
     0
 42
16.63999872
  3

  4
bigfont
  0
STYLE
  2
KANJI35
 70
     0
 40
13.8666656
 41
0.9
 50
0.0
 71
     0
 42
13.8666656
  3

  4
bigfont
  0
STYLE
  2
KANJI36
 70
     0
 40
13.8666656
 41
0.8
 50
0.0
 71
     0
 42
13.8666656
  3

  4
bigfont
  0
STYLE
  2
KANJI37
 70
     0
 40
16.63999872
 41
0.9
 50
0.0
 71
     0
 42
16.63999872
  3

  4
bigfont
  0
STYLE
  2
KANJI38
 70
     0
 40
16.63999872
 41
0.8
 50
0.0
 71
     0
 42
16.63999872
  3

  4
bigfont
  0
STYLE
  2
KANJI39
 70
     0
 40
20.7999984
 41
0.75
 50
0.0
 71
     0
 42
20.7999984
  3

  4
bigfont
  0
STYLE
  2
KANJI40
 70
     0
 40
69.333328
 41
0.9
 50
0.0
 71
     0
 42
69.333328
  3

  4
bigfont
  0
STYLE
  2
KANJI41
 70
     0
 40
23.999994954
 41
0.9
 50
0.0
 71
     0
 42
23.999994954
  3

  4
bigfont
  0
STYLE
  2
KANJI42
 70
     0
 40
24.2666648
 41
0.42031746
 50
0.0
 71
     0
 42
24.2666648
  3

  4
bigfont
  0
STYLE
  2
KANJI43
 70
     0
 40
41.5999968
 41
0.9
 50
0.0
 71
     0
 42
41.5999968
  3

  4
bigfont
  0
STYLE
  2
KANJI44
 70
     0
 40
36.0
 41
0.666666667
 50
0.0
 71
     0
 42
36.0
  3

  4
bigfont
  0
STYLE
  2
KANJI45
 70
     0
 40
32.0
 41
0.75
 50
0.0
 71
     0
 42
32.0
  3

  4
bigfont
  0
STYLE
  2
KANJI46
 70
     0
 40
40.0
 41
1.0
 50
0.0
 71
     0
 42
40.0
  3

  4
bigfont
  0
STYLE
  2
KANJI47
 70
     0
 40
40.0
 41
1.0
 50
0.0
 71
     0
 42
40.0
  3

  4
bigfont
  0
STYLE
  2
KANJI48
 70
     0
 40
27.9993
 41
0.9
 50
0.0
 71
     0
 42
27.9993
  3

  4
bigfont
  0
STYLE
  2
KANJI49
 70
     0
 40
23.9994
 41
0.9
 50
0.0
 71
     0
 42
23.9994
  3

  4
bigfont
  0
STYLE
  2
KANJI50
 70
     0
 40
28.0
 41
0.914285714
 50
0.0
 71
     0
 42
28.0
  3

  4
bigfont
  0
STYLE
  2
KANJI51
 70
     0
 40
32.0
 41
0.9
 50
0.0
 71
     0
 42
32.0
  3

  4
bigfont
  0
STYLE
  2
KANJI52
 70
     0
 40
28.8
 41
0.857142857
 50
0.0
 71
     0
 42
28.8
  3

  4
bigfont
  0
STYLE
  2
KANJI53
 70
     0
 40
28.8
 41
0.857222222
 50
0.0
 71
     0
 42
28.8
  3

  4
bigfont
  0
STYLE
  2
KANJI54
 70
     0
 40
24.0
 41
0.833333333
 50
0.0
 71
     0
 42
24.0
  3

  4
bigfont
  0
STYLE
  2
KANJI55
 70
     0
 40
24.0
 41
0.766666667
 50
0.0
 71
     0
 42
24.0
  3

  4
bigfont
  0
STYLE
  2
KANJI56
 70
     0
 40
28.0
 41
0.9
 50
0.0
 71
     0
 42
28.0
  3

  4
bigfont
  0
STYLE
  2
KANJI57
 70
     0
 40
28.0
 41
0.793650794
 50
0.0
 71
     0
 42
28.0
  3

  4
bigfont
  0
STYLE
  2
KANJI58
 70
     0
 40
28.0
 41
0.571428571
 50
0.0
 71
     0
 42
28.0
  3

  4
bigfont
  0
STYLE
  2
KANJI59
 70
     0
 40
40.0
 41
0.8
 50
0.0
 71
     0
 42
40.0
  3

  4
bigfont
  0
STYLE
  2
KANJI60
 70
     0
 40
24.0
 41
1.0
 50
0.0
 71
     0
 42
24.0
  3

  4
bigfont
  0
STYLE
  2
KANJI61
 70
     0
 40
12.0
 41
1.0
 50
0.0
 71
     0
 42
12.0
  3

  4
bigfont
  0
ENDTAB
  0
TABLE
  2
VIEW
 70
     0
  0
ENDTAB
  0
ENDSEC
  0
SECTION
  2
BLOCKS
  0
ENDSEC
  0
SECTION
  2
ENTITIES
  0
LINE
  8
0
  6
CONTINUOUS
 62
     1
 10
640.0
 20
720.0
 11
1880.0
 21
720.0
  0
LINE
  8
0
  6
CONTINUOUS
 62
     1
 10
640.0
 20
664.0
 11
1880.0
 21
664.0
  0
LINE
  8
0
  6
CONTINUOUS
 62
     2
 10
640.0
 20
608.0
 11
1880.0
 21
608.0
  0
LINE
  8
0
  6
CONTINUOUS
 62
     2
 10
640.0
 20
552.0
 11
1880.0
 21
552.0
  0
LINE
  8
0
  6
CONTINUOUS
 62
     2
 10
640.0
 20
496.0
 11
1880.0
 21
496.0
  0
CIRCLE
  8
0
  6
CONTINUOUS
 62
     1
 10
665.0
 20
1300.0
 40
22.5
  0
CIRCLE
  8
0
  6
CONTINUOUS
 62
     1
 10
665.0
 20
1300.0
 40
45.0
  0
CIRCLE
  8
0
  6
CONTINUOUS
 62
     1
 10
665.0
 20
1300.0
 40
55.0
  0
LINE
  8
0
  6
CONTINUOUS
 62
     1
 10
630.0
 20
1400.0
 11
653.0
 21
1381.5
  0
LINE
  8
0
  6
CONTINUOUS
 62
     1
 10
630.0
 20
1346.5
 11
630.0
 21
1400.0
  0
LINE
  8
0
  6
CONTINUOUS
 62
     1
 10
653.0
 20
1356.5
 11
653.0
 21
1381.5
  0
LINE
  8
0
  6
CONTINUOUS
 62
     1
 10
595.0
 20
1200.0
 11
630.0
 21
1200.0
  0
LINE
  8
0
  6
CONTINUOUS
 62
     1
 10
630.0
 20
1200.0
 11
653.0
 21
1218.5
  0
LINE
  8
0
  6
CONTINUOUS
 62
     1
 10
630.0
 20
1253.5
 11
630.0
 21
1200.0
  0
LINE
  8
0
  6
CONTINUOUS
 62
     1
 10
653.0
 20
1243.5
 11
653.0
 21
1218.5
  0
LINE
  8
0
  6
CONTINUOUS
 62
     1
 10
855.0
 20
1200.0
 11
825.0
 21
1218.5
  0
LINE
  8
0
  6
CONTINUOUS
 62
     1
 10
653.0
 20
1218.5
 11
825.0
 21
1218.5
  0
LINE
  8
0
  6
CONTINUOUS
 62
     1
 10
855.0
 20
1200.0
 11
895.0
 21
1200.0
  0
LINE
  8
0
  6
CONTINUOUS
 62
     1
 10
825.0
 20
1300.0
 11
825.0
 21
1218.5
  0
LINE
  8
0
  6
LTYPE1
 62
     2
 10
665.0
 20
1230.398877817
 11
665.0
 21
1367.366558854
  0
LINE
  8
0
  6
CONTINUOUS
 62
     1
 10
895.0
 20
1300.0
 11
895.0
 21
1200.0
  0
CIRCLE
  8
0
  6
CONTINUOUS
 62
     1
 10
1133.3
 20
1300.0
 40
19.5
  0
LINE
  8
0
  6
CONTINUOUS
 62
     1
 10
1113.3
 20
1320.0
 11
1153.3
 21
1320.0
  0
LINE
  8
0
  6
CONTINUOUS
 62
     1
 10
1153.3
 20
1280.0
 11
1153.3
 21
1320.0
  0
LINE
  8
0
  6
CONTINUOUS
 62
     1
 10
1113.3
 20
1280.0
 11
1153.3
 21
1280.0
  0
LINE
  8
0
  6
CONTINUOUS
 62
     1
 10
1113.3
 20
1280.0
 11
1113.3
 21
1320.0
  0
LINE
  8
0
  6
LTYPE2
 62
     2
 10
1133.3
 20
1274.9
 11
1133.3
 21
1324.8
  0
LINE
  8
6
  6
CONTINUOUS
 62
     2
 10
1400.0
 20
1392.5
 11
1399.5
 21
1392.5
  0
LINE
  8
0
  6
LTYPE3
 62
     2
 10
2089.5
 20
1322.5
 11
2039.5
 21
1322.5
  0
LINE
  8
0
  6
LTYPE3
 62
     2
 10
2089.5
 20
1277.5
 11
2039.5
 21
1277.5
  0
LINE
  8
0
  6
LTYPE3
 62
     2
 10
2089.5
 20
1277.5
 11
2089.5
 21
1322.5
  0
LINE
  8
0
  6
CONTINUOUS
 62
     1
 10
2039.5
 20
1250.0
 11
2105.127626097
 21
1245.0
  0
LINE
  8
0
  6
CONTINUOUS
 62
     1
 10
2049.5
 20
1180.0
 11
2049.5
 21
1249.0
  0
ARC
  8
0
  6
CONTINUOUS
 62
     1
 10
2064.5
 20
1180.0
 40
15.0
 50
180.0
 51
270.0
  0
LINE
  8
0
  6
CONTINUOUS
 62
     1
 10
2117.00566924
 20
1393.810759633
 11
2067.104519278
 21
1322.54453178
  0
ARC
  8
0
  6
CONTINUOUS
 62
     1
 10
2117.334520095
 20
1402.125917906
 40
3.0
 50
325.0
 51
55.0
  0
LINE
  8
0
  6
CONTINUOUS
 62
     1
 10
2080.964679345
 20
1431.25467833
 11
2119.055249404
 21
1404.583374039
  0
ARC
  8
0
  6
CONTINUOUS
 62
     1
 10
2080.391102908
 20
1430.435526285
 40
1.0
 50
55.0
 51
145.0
  0
ARC
  8
0
  6
CONTINUOUS
 62
     1
 10
2077.851221555
 20
1428.551646589
 40
1.0
 50
55.0
 51
145.0
  0
ARC
  8
0
  6
CONTINUOUS
 62
     1
 10
2062.271182206
 20
1323.487321655
 40
3.0
 50
235.0
 51
325.0
  0
LINE
  8
0
  6
CONTINUOUS
 62
     1
 10
2022.459882837
 20
1347.701169812
 11
2060.550452896
 21
1321.029865522
  0
ARC
  8
0
  6
CONTINUOUS
 62
     1
 10
2023.033459273
 20
1348.520321856
 40
1.0
 50
145.0
 51
235.0
  0
ARC
  8
0
  6
CONTINUOUS
 62
     1
 10
2023.935036538
 20
1351.551354426
 40
1.0
 50
145.0
 51
235.0
  0
LINE
  8
0
  6
CONTINUOUS
 62
     1
 10
2026.555643058
 20
1344.83328763
 11
2085.060439566
 21
1428.386796148
  0
LINE
  8
0
  6
CONTINUOUS
 62
     1
 10
2027.784371125
 20
1343.972922976
 11
2086.289167633
 21
1427.526431493
  0
LINE
  8
0
  6
CONTINUOUS
 62
     1
 10
2119.791976228
 20
1400.405188597
 11
2064.728638338
 21
1321.766592346
  0
LINE
  8
0
  6
CONTINUOUS
 62
     1
 10
2023.115884494
 20
1352.124930862
 11
2077.032069511
 21
1429.125223025
  0
LINE
  8
0
  6
CONTINUOUS
 62
     1
 10
2022.214307229
 20
1349.093898293
 11
2079.571950864
 21
1431.009102722
  0
LINE
  8
0
  6
LTYPE2
 62
     2
 10
2021.232174803
 20
1355.885467765
 11
2036.550318031
 21
1345.159588405
  0
LINE
  8
0
  6
LTYPE2
 62
     2
 10
2072.854054074
 20
1429.609151751
 11
2088.172197302
 21
1418.883272391
  0
LINE
  8
0
  6
CONTINUOUS
 62
     1
 10
2039.5
 20
1250.0
 11
2039.5
 21
1337.225525817
  0
LINE
  8
0
  6
CONTINUOUS
 62
     1
 10
2139.110225663
 20
1383.216080952
 11
2119.299974985
 21
1397.08736781
  0
LINE
  8
0
  6
LTYPE1
 62
     2
 10
2186.158322994
 20
1295.337792048
 11
2043.158322994
 21
1395.467470012
  0
LINE
  8
0
  6
CONTINUOUS
 62
     1
 10
2088.488346391
 20
1308.792189428
 11
2067.678095714
 21
1323.363683824
  0
LINE
  8
0
  6
LTYPE3
 62
     2
 10
2269.5
 20
1277.5
 11
2319.5
 21
1277.5
  0
LINE
  8
0
  6
CONTINUOUS
 62
     1
 10
2319.5
 20
1250.0
 11
2253.872373903
 21
1245.0
  0
LINE
  8
0
  6
CONTINUOUS
 62
     1
 10
2309.5
 20
1180.0
 11
2309.5
 21
1249.0
  0
ARC
  8
0
  6
CONTINUOUS
 62
     1
 10
2294.5
 20
1180.0
 40
15.0
 50
270.0
 51
0.0
  0
LINE
  8
0
  6
LTYPE3
 62
     2
 10
2269.5
 20
1322.5
 11
2319.5
 21
1322.5
  0
LINE
  8
0
  6
LTYPE3
 62
     2
 10
2269.5
 20
1277.5
 11
2269.5
 21
1322.5
  0
LINE
  8
0
  6
CONTINUOUS
 62
     1
 10
2319.5
 20
1350.0
 11
2253.872373903
 21
1355.0
  0
LINE
  8
0
  6
CONTINUOUS
 62
     1
 10
2319.5
 20
1250.0
 11
2319.5
 21
1350.0
  0
TEXT
  8
0
  6
CONTINUOUS
 62
     2
 10
968.0
 20
621.4
 30
2.4
 40
24.0
  1
３００
 50
0.0
 41
0.9
 51
0.0
  7
KANJI0
  0
TEXT
  8
0
  6
CONTINUOUS
 62
     2
 10
968.0
 20
565.4
 30
2.4
 40
24.0
  1
５００
 50
0.0
 41
0.9
 51
0.0
  7
KANJI0
  0
LINE
  8
0
  6
LTYPE1
 62
     2
 10
2059.548183048
 20
1359.697752135
 11
2082.892744008
 21
1393.037240338
  0
POINT
  8
0
  6
CONTINUOUS
 62
     1
 10
721.0
 20
1300.0
  0
LINE
  8
0
  6
CONTINUOUS
 62
     1
 10
778.0
 20
1351.305778818
 11
768.0
 21
1361.305778818
  0
ARC
  8
0
  6
CONTINUOUS
 62
     1
 10
766.0
 20
1349.63644216
 40
3.0
 50
180.0
 51
270.0
  0
ARC
  8
0
  6
CONTINUOUS
 62
     1
 10
766.0
 20
1346.194983542
 40
3.0
 50
180.0
 51
270.0
  0
ARC
  8
0
  6
CONTINUOUS
 62
     1
 10
766.0
 20
1345.334618887
 40
3.0
 50
180.0
 51
270.0
  0
LINE
  8
0
  6
CONTINUOUS
 62
     1
 10
886.0
 20
1361.305778818
 11
876.0
 21
1351.305778818
  0
LINE
  8
0
  6
CONTINUOUS
 62
     1
 10
778.0
 20
1351.305778818
 11
876.0
 21
1351.305778818
  0
ARC
  8
0
  6
CONTINUOUS
 62
     1
 10
888.0
 20
1349.63644216
 40
3.0
 50
270.0
 51
0.0
  0
ARC
  8
0
  6
CONTINUOUS
 62
     1
 10
888.0
 20
1346.194983542
 40
3.0
 50
270.0
 51
0.0
  0
ARC
  8
0
  6
CONTINUOUS
 62
     1
 10
888.0
 20
1345.334618887
 40
3.0
 50
270.0
 51
0.0
  0
LINE
  8
0
  6
CONTINUOUS
 62
     1
 10
765.507319827
 20
1346.63644216
 11
888.0
 21
1346.63644216
  0
LINE
  8
0
  6
CONTINUOUS
 62
     1
 10
765.607319827
 20
1343.194983542
 11
888.0
 21
1343.194983542
  0
LINE
  8
0
  6
CONTINUOUS
 62
     1
 10
765.607319827
 20
1342.334618887
 11
888.0
 21
1342.334618887
  0
LINE
  8
0
  6
CONTINUOUS
 62
     1
 10
896.0
 20
1345.266636349
 11
896.0
 21
1402.13271812
  0
LINE
  8
0
  6
CONTINUOUS
 62
     1
 10
891.0
 20
1345.266636349
 11
896.0
 21
1345.266636349
  0
LINE
  8
0
  6
CONTINUOUS
 62
     1
 10
891.0
 20
1402.13271812
 11
896.0
 21
1402.13271812
  0
LINE
  8
0
  6
CONTINUOUS
 62
     1
 10
891.0
 20
1369.366636349
 11
896.0
 21
1369.366636349
  0
LINE
  8
0
  6
CONTINUOUS
 62
     1
 10
853.0
 20
1318.657620342
 11
891.0
 21
1318.657620342
  0
LINE
  8
0
  6
CONTINUOUS
 62
     1
 10
896.0
 20
1389.848877817
 11
896.0
 21
1362.148877817
  0
LINE
  8
0
  6
CONTINUOUS
 62
     1
 10
653.0
 20
1381.5
 11
763.0
 21
1381.5
  0
LINE
  8
0
  6
CONTINUOUS
 62
     1
 10
763.0
 20
1317.957620342
 11
853.0
 21
1317.957620342
  0
LINE
  8
0
  6
CONTINUOUS
 62
     1
 10
855.0
 20
1318.657620342
 11
855.0
 21
1200.0
  0
LINE
  8
0
  6
CONTINUOUS
 62
     1
 10
895.0
 20
1345.266636349
 11
895.0
 21
1200.0
  0
LINE
  8
0
  6
CONTINUOUS
 62
     1
 10
2540.0
 20
1028.0
 11
3240.0
 21
1028.0
  0
LINE
  8
0
  6
CONTINUOUS
 62
     1
 10
2540.0
 20
2116.0
 11
3240.0
 21
2116.0
  0
LINE
  8
0
  6
CONTINUOUS
 62
     1
 10
2540.0
 20
2116.0
 11
2540.0
 21
1028.0
  0
TEXT
  8
0
  6
CONTINUOUS
 62
     2
 10
2640.0
 20
2057.6
 30
22.79952
 40
36.0
  1
マイティシリンダ仕様
 50
0.0
 41
0.9
 51
0.0
  7
KANJI1
  0
TEXT
  8
0
  6
CONTINUOUS
 62
     2
 10
2572.6
 20
1552.0
 30
17.6
 40
28.0
  1
モ　トル仕様
 50
0.0
 41
0.9
 51
0.0
  7
KANJI2
  0
TEXT
  8
0
  6
CONTINUOUS
 62
     2
 10
2570.8
 20
1248.0
 30
1.371428571
 40
24.0
  1
ブレ　キ
 50
0.0
 41
0.9
 51
0.0
  7
KANJI3
  0
LINE
  8
0
  6
CONTINUOUS
 62
     2
 10
2570.4
 20
1192.8
 11
2570.4
 21
1176.0
  0
LINE
  8
0
  6
CONTINUOUS
 62
     2
 10
2570.4
 20
1507.2
 11
2570.4
 21
1488.8
  0
TEXT
  8
0
  6
CONTINUOUS
 62
     2
 10
2999.2
 20
1658.4
 30
11.36
 40
28.0
  1
推力リミッタ
 50
0.0
 41
0.9
 51
0.0
  7
KANJI4
  0
TEXT
  8
0
  6
CONTINUOUS
 62
     2
 10
3211.2
 20
1546.4
 30
17.571428571
 40
24.0
  1
Ｐ
 50
0.0
 41
0.9
 51
0.0
  7
KANJI5
  0
TEXT
  8
0
  6
CONTINUOUS
 62
     2
 10
3078.4
 20
1546.4
 30
1.6
 40
24.0
  1
ＫＷ
 50
0.0
 41
0.857142857
 51
0.0
  7
KANJI6
  0
TEXT
  8
0
  6
CONTINUOUS
 62
     2
 10
3171.2
 20
1546.4
 30
20.5
 40
28.0
  1
４
 50
0.0
 41
0.9
 51
0.0
  7
KANJI7
  0
TEXT
  8
0
  6
CONTINUOUS
 62
     2
 10
2954.4
 20
1604.8
 30
0.8
 40
22.4
  1
マンセル
 50
0.0
 41
0.9
 51
0.0
  7
KANJI8
  0
TEXT
  8
0
  6
CONTINUOUS
 62
     2
 10
3048.0
 20
1606.4
 30
0.32
 40
22.4
  1
７．５ＧＹ５／４．５
 50
0.0
 41
0.785714286
 51
0.0
  7
KANJI9
  0
TEXT
  8
0
  6
CONTINUOUS
 62
     2
 10
2948.0
 20
1211.2
 30
2.4
 40
22.4
  1
スプリング制動式電磁ブレーキ
 50
0.0
 41
0.8
 51
0.0
  7
KANJI10
  0
TEXT
  8
0
  6
CONTINUOUS
 62
     2
 10
3212.0
 20
1490.4
 30
0.288
 40
24.0
  1
Ｖ
 50
0.0
 41
0.8
 51
0.0
  7
KANJI11
  0
TEXT
  8
0
  6
CONTINUOUS
 62
     2
 10
3197.6
 20
1434.4
 30
0.288
 40
24.0
  1
Ｈｚ
 50
0.0
 41
0.8
 51
0.0
  7
KANJI11
  0
TEXT
  8
0
  6
CONTINUOUS
 62
     2
 10
3039.8
 20
1434.2
 30
2.4
 40
24.0
  1
５０／６０
 50
0.0
 41
0.9
 51
0.0
  7
KANJI0
  0
TEXT
  8
0
  6
CONTINUOUS
 62
     2
 10
3213.8
 20
1380.2
 30
2.4
 40
24.0
  1
Ａ
 50
0.0
 41
0.9
 51
0.0
  7
KANJI0
  0
TEXT
  8
0
  6
CONTINUOUS
 62
     2
 10
3087.8
 20
1326.2
 30
2.4
 40
24.0
  1
Ｅ
 50
0.0
 41
0.9
 51
0.0
  7
KANJI0
  0
LINE
  8
0
  6
CONTINUOUS
 62
     2
 10
2540.0
 20
1140.0
 11
3240.0
 21
1140.0
  0
LINE
  8
0
  6
CONTINUOUS
 62
     2
 10
2540.0
 20
1084.0
 11
3240.0
 21
1084.0
  0
LINE
  8
0
  6
CONTINUOUS
 62
     2
 10
2604.0
 20
1196.0
 11
3240.0
 21
1196.0
  0
LINE
  8
0
  6
CONTINUOUS
 62
     2
 10
2604.0
 20
1588.0
 11
2604.0
 21
1140.0
  0
LINE
  8
0
  6
CONTINUOUS
 62
     2
 10
2540.0
 20
1252.0
 11
3240.0
 21
1252.0
  0
LINE
  8
0
  6
CONTINUOUS
 62
     2
 10
2604.0
 20
1308.0
 11
3240.0
 21
1308.0
  0
LINE
  8
0
  6
CONTINUOUS
 62
     2
 10
2604.0
 20
1364.0
 11
3240.0
 21
1364.0
  0
LINE
  8
0
  6
CONTINUOUS
 62
     2
 10
2604.0
 20
1420.0
 11
3240.0
 21
1420.0
  0
LINE
  8
0
  6
CONTINUOUS
 62
     2
 10
2540.0
 20
1700.0
 11
3240.0
 21
1700.0
  0
LINE
  8
0
  6
CONTINUOUS
 62
     2
 10
2540.0
 20
1644.0
 11
3240.0
 21
1644.0
  0
LINE
  8
0
  6
CONTINUOUS
 62
     2
 10
2540.0
 20
1588.0
 11
3240.0
 21
1588.0
  0
LINE
  8
0
  6
CONTINUOUS
 62
     2
 10
2940.0
 20
2036.0
 11
2940.0
 21
1028.0
  0
LINE
  8
0
  6
CONTINUOUS
 62
     2
 10
2604.0
 20
1476.0
 11
3240.0
 21
1476.0
  0
LINE
  8
0
  6
CONTINUOUS
 62
     2
 10
2604.0
 20
1532.0
 11
3240.0
 21
1532.0
  0
LINE
  8
0
  6
CONTINUOUS
 62
     2
 10
2540.0
 20
1980.0
 11
3240.0
 21
1980.0
  0
LINE
  8
0
  6
CONTINUOUS
 62
     2
 10
2540.0
 20
1924.0
 11
3240.0
 21
1924.0
  0
LINE
  8
0
  6
CONTINUOUS
 62
     2
 10
2540.0
 20
1868.0
 11
3240.0
 21
1868.0
  0
LINE
  8
0
  6
CONTINUOUS
 62
     2
 10
2540.0
 20
1812.0
 11
3240.0
 21
1812.0
  0
LINE
  8
0
  6
CONTINUOUS
 62
     2
 10
2540.0
 20
1756.0
 11
3240.0
 21
1756.0
  0
LINE
  8
0
  6
CONTINUOUS
 62
     2
 10
2540.0
 20
2036.0
 11
3240.0
 21
2036.0
  0
TEXT
  8
0
  6
CONTINUOUS
 62
     2
 10
940.8
 20
680.0
 30
2.4
 40
24.0
  1
ストローク
 50
0.0
 41
0.9
 51
0.0
  7
KANJI0
  0
TEXT
  8
0
  6
CONTINUOUS
 62
     2
 10
1094.4
 20
678.4
 30
0.0
 40
24.0
  1
ｍｉｎ　
 50
0.0
 41
0.9
 51
0.0
  7
KANJI12
  0
TEXT
  8
0
  6
CONTINUOUS
 62
     2
 10
1254.4
 20
678.4
 30
0.0
 40
24.0
  1
ｍｉｎ　
 50
0.0
 41
0.9
 51
0.0
  7
KANJI12
  0
TEXT
  8
0
  6
CONTINUOUS
 62
     2
 10
1574.4
 20
678.4
 30
0.0
 40
24.0
  1
ｍｉｎ　
 50
0.0
 41
0.9
 51
0.0
  7
KANJI12
  0
TEXT
  8
0
  6
CONTINUOUS
 62
     2
 10
1823.0
 20
681.8
 30
0.0
 40
19.2
  1
（ｋｇ）
 50
0.0
 41
0.777777778
 51
0.0
  7
KANJI13
  0
TEXT
  8
0
  6
CONTINUOUS
 62
     2
 10
1727.0
 20
679.0
 30
2.56
 40
25.6
  1
概算重量
 50
0.0
 41
0.9
 51
0.0
  7
KANJI14
  0
TEXT
  8
0
  6
CONTINUOUS
 62
     2
 10
696.0
 20
680.0
 30
2.56
 40
25.6
  1
形
 50
0.0
 41
0.9
 51
0.0
  7
KANJI14
  0
TEXT
  8
0
  6
CONTINUOUS
 62
     2
 10
852.0
 20
680.0
 30
2.56
 40
25.6
  1
式
 50
0.0
 41
0.9
 51
0.0
  7
KANJI14
  0
TEXT
  8
0
  6
CONTINUOUS
 62
     2
 10
2600.0
 20
1994.4
 30
240.594285714
 40
30.4
  1
形式
 50
0.0
 41
0.9
 51
0.0
  7
KANJI15
  0
TEXT
  8
0
  6
CONTINUOUS
 62
     2
 10
2600.0
 20
1938.4
 30
240.594285714
 40
30.4
  1
推力
 50
0.0
 41
0.9
 51
0.0
  7
KANJI15
  0
TEXT
  8
0
  6
CONTINUOUS
 62
     2
 10
2600.0
 20
1882.4
 30
39.628571429
 40
30.4
  1
ストローク
 50
0.0
 41
0.9
 51
0.0
  7
KANJI16
  0
TEXT
  8
0
  6
CONTINUOUS
 62
     2
 10
2600.0
 20
1826.4
 30
61.957805714
 40
30.4
  1
公称速度
 50
0.0
 41
0.9
 51
0.0
  7
KANJI17
  0
TEXT
  8
0
  6
CONTINUOUS
 62
     2
 10
2576.0
 20
1770.4
 30
2.605714286
 40
30.4
  1
ピストンロッド回転トルク
 50
0.0
 41
0.9
 51
0.0
  7
KANJI18
  0
TEXT
  8
0
  6
CONTINUOUS
 62
     2
 10
2600.0
 20
1714.4
 30
240.594285714
 40
30.4
  1
構造
 50
0.0
 41
0.9
 51
0.0
  7
KANJI15
  0
TEXT
  8
0
  6
CONTINUOUS
 62
     2
 10
2600.0
 20
1658.4
 30
17.298468571
 40
30.4
  1
過負荷安全装置
 50
0.0
 41
0.9
 51
0.0
  7
KANJI19
  0
TEXT
  8
0
  6
CONTINUOUS
 62
     2
 10
2600.0
 20
1602.4
 30
106.617142857
 40
30.4
  1
塗装色
 50
0.0
 41
0.9
 51
0.0
  7
KANJI20
  0
TEXT
  8
0
  6
CONTINUOUS
 62
     2
 10
2640.0
 20
1546.4
 30
26.6
 40
30.4
  1
出力　極数
 50
0.0
 41
0.9
 51
0.0
  7
KANJI21
  0
TEXT
  8
0
  6
CONTINUOUS
 62
     2
 10
2640.0
 20
1490.4
 30
44.586377143
 40
30.4
  1
電源電圧
 50
0.0
 41
0.9
 51
0.0
  7
KANJI22
  0
TEXT
  8
0
  6
CONTINUOUS
 62
     2
 10
2640.0
 20
1434.4
 30
80.56
 40
30.4
  1
周波数
 50
0.0
 41
0.9
 51
0.0
  7
KANJI23
  0
TEXT
  8
0
  6
CONTINUOUS
 62
     2
 10
2640.0
 20
1378.4
 30
188.48
 40
30.4
  1
電流
 50
0.0
 41
0.9
 51
0.0
  7
KANJI24
  0
TEXT
  8
0
  6
CONTINUOUS
 62
     2
 10
2640.0
 20
1322.4
 30
80.56
 40
30.4
  1
絶縁級
 50
0.0
 41
0.9
 51
0.0
  7
KANJI23
  0
TEXT
  8
0
  6
CONTINUOUS
 62
     2
 10
2640.0
 20
1210.4
 30
188.48
 40
30.4
  1
形式
 50
0.0
 41
0.9
 51
0.0
  7
KANJI24
  0
TEXT
  8
0
  6
CONTINUOUS
 62
     2
 10
2640.0
 20
1154.4
 30
44.586377143
 40
30.4
  1
操作方式
 50
0.0
 41
0.9
 51
0.0
  7
KANJI22
  0
TEXT
  8
0
  6
CONTINUOUS
 62
     2
 10
2600.0
 20
1098.4
 30
106.617142857
 40
30.4
  1
付属品
 50
0.0
 41
0.9
 51
0.0
  7
KANJI20
  0
TEXT
  8
0
  6
CONTINUOUS
 62
     2
 10
2600.0
 20
1042.4
 30
240.594285714
 40
30.4
  1
台数
 50
0.0
 41
0.9
 51
0.0
  7
KANJI15
  0
TEXT
  8
0
  6
CONTINUOUS
 62
     2
 10
3190.8
 20
1885.6
 30
0.1792
 40
22.4
  1
ｍｍ
 50
0.0
 41
0.8
 51
0.0
  7
KANJI25
  0
TEXT
  8
0
  6
CONTINUOUS
 62
     2
 10
3130.8
 20
1832.0
 30
0.1792
 40
22.4
  1
ｍｍ／ｓｅｃ
 50
0.0
 41
0.8
 51
0.0
  7
KANJI25
  0
TEXT
  8
0
  6
CONTINUOUS
 62
     2
 10
1176.0
 20
680.0
 30
2.8
 40
28.0
  1
ＡＬ
 50
0.0
 41
0.9
 51
0.0
  7
KANJI26
  0
TEXT
  8
0
  6
CONTINUOUS
 62
     2
 10
1336.0
 20
680.0
 30
2.8
 40
28.0
  1
Ｌ
 50
0.0
 41
0.9
 51
0.0
  7
KANJI26
  0
TEXT
  8
0
  6
CONTINUOUS
 62
     2
 10
1472.0
 20
680.0
 30
2.8
 40
28.0
  1
Ｃ
 50
0.0
 41
0.9
 51
0.0
  7
KANJI26
  0
TEXT
  8
0
  6
CONTINUOUS
 62
     2
 10
1656.0
 20
680.0
 30
2.8
 40
28.0
  1
Ｐ
 50
0.0
 41
0.9
 51
0.0
  7
KANJI26
  0
LINE
  8
0
  6
CONTINUOUS
 62
     1
 10
1466.999190206
 20
1300.0
 11
1482.999190206
 21
1300.0
  0
LINE
  8
0
  6
CONTINUOUS
 62
     1
 10
2101.5
 20
1165.0
 11
2064.5
 21
1165.0
  0
LINE
  8
0
  6
CONTINUOUS
 62
     1
 10
2257.5
 20
1165.0
 11
2294.5
 21
1165.0
  0
LINE
  8
0
  6
CONTINUOUS
 62
     1
 10
595.0
 20
1404.15
 11
595.0
 21
1656.0
  0
LINE
  8
0
  6
CONTINUOUS
 62
     1
 10
595.0
 20
1406.0
 11
595.0
 21
1656.0
  0
LINE
  8
0
  6
CONTINUOUS
 62
     1
 10
595.0
 20
1406.0
 11
595.0
 21
1656.0
  0
LINE
  8
0
  6
CONTINUOUS
 62
     1
 10
595.0
 20
1400.0
 11
630.0
 21
1400.0
  0
CIRCLE
  8
0
  6
CONTINUOUS
 62
     2
 10
2070.962354132
 20
1375.998877817
 40
10.4775
  0
CIRCLE
  8
0
  6
CONTINUOUS
 62
     2
 10
2070.962354132
 20
1375.998877817
 40
9.3155
  0
LINE
  8
0
  6
CONTINUOUS
 62
     4
 10
3248.0
 20
-56.0
 11
2456.0
 21
-56.0
  0
LINE
  8
0
  6
CONTINUOUS
 62
     4
 10
3248.0
 20
-136.0
 11
2456.0
 21
-136.0
  0
TEXT
  8
0
  6
CONTINUOUS
 62
     4
 10
175.999994954
 20
135.99999159
 30
1.599999664
 40
15.999996636
  1
ＰＡＲＴＳ　ＬＩＳＴ
 50
0.0
 41
0.6
 51
0.0
  7
KANJI27
  0
TEXT
  8
0
  6
CONTINUOUS
 62
     4
 10
535.999919262
 20
135.99999159
 30
1.599999664
 40
15.999996636
  1
Ｎ０．
 50
0.0
 41
0.6
 51
0.0
  7
KANJI27
  0
TEXT
  8
0
  6
CONTINUOUS
 62
     4
 10
175.999994954
 20
111.999996636
 30
1.919999596
 40
19.199995963
  1
部品表
 50
0.0
 41
0.9
 51
0.0
  7
KANJI28
  0
TEXT
  8
0
  6
CONTINUOUS
 62
     4
 10
535.999919262
 20
111.999996636
 30
1.919999596
 40
19.199995963
  1
項番
 50
0.0
 41
0.9
 51
0.0
  7
KANJI28
  0
TEXT
  8
0
  6
CONTINUOUS
 62
     4
 10
2370.9334008
 20
2254.9333328
 30
2.07999984
 40
20.7999984
  1
ＩＳＯ
 50
0.0
 41
0.9
 51
0.0
  7
KANJI29
  0
TEXT
  8
0
  6
CONTINUOUS
 62
     4
 10
2433.333396
 20
2254.9333328
 30
1.38666656
 40
13.8666656
  1
ＭＥＴＲＩＣ　ＳＣＲＥＷ　ＴＨＲＥＡＤ
 50
0.0
 41
0.75
 51
0.0
  7
KANJI30
  0
TEXT
  8
0
  6
CONTINUOUS
 62
     4
 10
2668.72004456
 20
2254.9333328
 30
1.38666656
 40
13.8666656
  1
ＩＳＯ
 50
0.0
 41
0.75
 51
0.0
  7
KANJI30
  0
TEXT
  8
0
  6
CONTINUOUS
 62
     4
 10
2866.32002936
 20
2254.9333328
 30
2.07999984
 40
20.7999984
  1
３
 50
0.0
 41
0.75
 51
0.0
  7
KANJI31
  0
TEXT
  8
0
  6
CONTINUOUS
 62
     4
 10
2883.65336136
 20
2254.9333328
 30
1.38666656
 40
13.8666656
  1
ＲＤ　ＡＮＧＬＥ　ＰＲＯＪＥＣＴＩＯＮ　第３角法
 50
0.0
 41
0.75
 51
0.0
  7
KANJI30
  0
TEXT
  8
0
  6
CONTINUOUS
 62
     4
 10
2706.85337496
 20
2254.9333328
 30
1.247999904
 40
12.47999904
  1
メートルネジ使用
 50
0.0
 41
0.75
 51
0.0
  7
KANJI32
  0
LINE
  8
0
  6
CONTINUOUS
 62
     4
 10
2242.666744
 20
435.7333072
 11
2242.666744
 21
546.666632
  0
LINE
  8
0
  6
CONTINUOUS
 62
     4
 10
2173.333416
 20
491.1999696
 11
2173.333416
 21
546.666632
  0
TEXT
  8
0
  6
CONTINUOUS
 62
     4
 10
2187.2000816
 20
245.0666552
 30
1.38666656
 40
13.8666656
  1
ＤＲＡＷＮ
 50
0.0
 41
0.6
 51
0.0
  7
KANJI33
  0
TEXT
  8
0
  6
CONTINUOUS
 62
     4
 10
2187.2000816
 20
300.5333176
 30
1.38666656
 40
13.8666656
  1
ＤＥＳＩＧＮ
 50
0.0
 41
0.6
 51
0.0
  7
KANJI33
  0
TEXT
  8
0
  6
CONTINUOUS
 62
     4
 10
2187.2000816
 20
355.99998
 30
1.38666656
 40
13.8666656
  1
ＣＨＥＣＫ
 50
0.0
 41
0.6
 51
0.0
  7
KANJI33
  0
TEXT
  8
0
  6
CONTINUOUS
 62
     4
 10
2187.2000816
 20
411.4666424
 30
1.38666656
 40
13.8666656
  1
ＣＯＤＥ
 50
0.0
 41
0.6
 51
0.0
  7
KANJI33
  0
TEXT
  8
0
  6
CONTINUOUS
 62
     4
 10
2187.2000816
 20
466.9333048
 30
1.38666656
 40
13.8666656
  1
ＮＯ
 50
0.0
 41
0.6
 51
0.0
  7
KANJI33
  0
LINE
  8
0
  6
CONTINUOUS
 62
     4
 10
2173.333416
 20
324.7999824
 11
2426.4000632
 21
324.7999824
  0
LINE
  8
0
  6
CONTINUOUS
 62
     4
 10
2173.333416
 20
269.33332
 11
2426.4000632
 21
269.33332
  0
LINE
  8
0
  6
CONTINUOUS
 62
     4
 10
2173.333416
 20
380.2666448
 11
2426.4000632
 21
380.2666448
  0
LINE
  8
0
  6
CONTINUOUS
 62
     4
 10
2173.333416
 20
435.7333072
 11
3241.0666672
 21
435.7333072
  0
TEXT
  8
0
  6
CONTINUOUS
 62
     4
 10
2187.2000816
 20
279.7333192
 30
1.663999872
 40
16.63999872
  1
設計
 50
0.0
 41
0.6
 51
0.0
  7
KANJI34
  0
TEXT
  8
0
  6
CONTINUOUS
 62
     4
 10
2187.2000816
 20
335.1999816
 30
1.663999872
 40
16.63999872
  1
検図
 50
0.0
 41
0.6
 51
0.0
  7
KANJI34
  0
TEXT
  8
0
  6
CONTINUOUS
 62
     4
 10
2187.2000816
 20
390.666644
 30
1.663999872
 40
16.63999872
  1
分類
 50
0.0
 41
0.6
 51
0.0
  7
KANJI34
  0
TEXT
  8
0
  6
CONTINUOUS
 62
     4
 10
2187.2000816
 20
446.1333064
 30
1.663999872
 40
16.63999872
  1
番号
 50
0.0
 41
0.6
 51
0.0
  7
KANJI34
  0
TEXT
  8
0
  6
CONTINUOUS
 62
     4
 10
2381.3334
 20
466.9333048
 30
1.38666656
 40
13.8666656
  1
ＰＡＲＴＳ　　ＮＡＭＥ
 50
0.0
 41
0.6
 51
0.0
  7
KANJI33
  0
TEXT
  8
0
  6
CONTINUOUS
 62
     4
 10
2360.5334016
 20
442.66664
 30
1.663999872
 40
16.63999872
  1
　　品　　　　　　名
 50
0.0
 41
0.6
 51
0.0
  7
KANJI34
  0
LINE
  8
0
  6
CONTINUOUS
 62
     4
 10
2960.2666888
 20
435.7333072
 11
2960.2666888
 21
546.666632
  0
LINE
  8
0
  6
CONTINUOUS
 62
     4
 10
2866.666696
 20
435.7333072
 11
2866.666696
 21
546.666632
  0
LINE
  8
0
  6
CONTINUOUS
 62
     4
 10
2797.333368
 20
435.7333072
 11
2797.333368
 21
546.666632
  0
LINE
  8
0
  6
CONTINUOUS
 62
     4
 10
2658.666712
 20
435.7333072
 11
2658.666712
 21
546.666632
  0
TEXT
  8
0
  6
CONTINUOUS
 62
     4
 10
2686.4000432
 20
466.9333048
 30
1.38666656
 40
13.8666656
  1
ＭＡＴＥＲＩＡＬ
 50
0.0
 41
0.6
 51
0.0
  7
KANJI33
  0
TEXT
  8
0
  6
CONTINUOUS
 62
     4
 10
2811.2000336
 20
466.9333048
 30
1.38666656
 40
13.8666656
  1
ＱＴＹ
 50
0.0
 41
0.9
 51
0.0
  7
KANJI35
  0
TEXT
  8
0
  6
CONTINUOUS
 62
     4
 10
2877.0666952
 20
466.9333048
 30
1.38666656
 40
13.8666656
  1
ＷＴ／ＯＮＥ
 50
0.0
 41
0.8
 51
0.0
  7
KANJI36
  0
TEXT
  8
0
  6
CONTINUOUS
 62
     4
 10
3057.333348
 20
466.9333048
 30
1.38666656
 40
13.8666656
  1
ＲＥＭＡＲＫＳ
 50
0.0
 41
0.8
 51
0.0
  7
KANJI36
  0
TEXT
  8
0
  6
CONTINUOUS
 62
     4
 10
2679.4667104
 20
446.1333064
 30
1.663999872
 40
16.63999872
  1
　材　　　質
 50
0.0
 41
0.6
 51
0.0
  7
KANJI34
  0
TEXT
  8
0
  6
CONTINUOUS
 62
     4
 10
2811.2000336
 20
442.66664
 30
1.663999872
 40
16.63999872
  1
数量
 50
0.0
 41
0.9
 51
0.0
  7
KANJI37
  0
TEXT
  8
0
  6
CONTINUOUS
 62
     4
 10
2877.0666952
 20
442.66664
 30
1.663999872
 40
16.63999872
  1
重量　（Ｋｇ）
 50
0.0
 41
0.8
 51
0.0
  7
KANJI38
  0
TEXT
  8
0
  6
CONTINUOUS
 62
     4
 10
3050.4000152
 20
442.66664
 30
1.663999872
 40
16.63999872
  1
　　摘　要
 50
0.0
 41
0.8
 51
0.0
  7
KANJI38
  0
LINE
  8
0
  6
CONTINUOUS
 62
     4
 10
2446.85339496
 20
380.2666448
 11
3241.0666672
 21
380.2666448
  0
LINE
  8
0
  6
CONTINUOUS
 62
     4
 10
2426.4000632
 20
269.33332
 11
3241.0666672
 21
269.33332
  0
TEXT
  8
0
  6
CONTINUOUS
 62
     4
 10
2440.2667288
 20
245.0666552
 30
1.38666656
 40
13.8666656
  1
ＤＲＡＷＩＮＧ　ＮＯ．
 50
0.0
 41
0.8
 51
0.0
  7
KANJI36
  0
TEXT
  8
0
  6
CONTINUOUS
 62
     4
 10
2440.2667288
 20
300.5333176
 30
1.38666656
 40
13.8666656
  1
ＭＦＧ　ＮＯ．
 50
0.0
 41
0.8
 51
0.0
  7
KANJI36
  0
TEXT
  8
0
  6
CONTINUOUS
 62
     4
 10
2440.2667288
 20
355.99998
 30
1.38666656
 40
13.8666656
  1
ＴＹＰＥ
 50
0.0
 41
0.8
 51
0.0
  7
KANJI36
  0
LINE
  8
0
  6
CONTINUOUS
 62
     4
 10
2447.2000616
 20
324.7999824
 11
2766.1333704
 21
324.7999824
  0
TEXT
  8
0
  6
CONTINUOUS
 62
     4
 10
2440.2667288
 20
220.7999904
 30
1.663999872
 40
16.63999872
  1
図　面　番　号
 50
0.0
 41
0.8
 51
0.0
  7
KANJI38
  0
TEXT
  8
0
  6
CONTINUOUS
 62
     4
 10
2440.2667288
 20
276.2666528
 30
1.663999872
 40
16.63999872
  1
製番
 50
0.0
 41
0.8
 51
0.0
  7
KANJI38
  0
TEXT
  8
0
  6
CONTINUOUS
 62
     4
 10
2440.2667288
 20
331.7333152
 30
1.663999872
 40
16.63999872
  1
機種
 50
0.0
 41
0.8
 51
0.0
  7
KANJI38
  0
LINE
  8
0
  6
CONTINUOUS
 62
     4
 10
2173.333416
 20
158.3999952
 11
2426.4000632
 21
158.3999952
  0
LINE
  8
0
  6
CONTINUOUS
 62
     4
 10
2173.333416
 20
213.8666576
 11
2426.4000632
 21
213.8666576
  0
TEXT
  8
0
  6
CONTINUOUS
 62
     4
 10
2187.2000816
 20
134.1333304
 30
1.38666656
 40
13.8666656
  1
ＳＣＡＬＥ
 50
0.0
 41
0.6
 51
0.0
  7
KANJI33
  0
TEXT
  8
0
  6
CONTINUOUS
 62
     4
 10
2187.2000816
 20
189.5999928
 30
1.38666656
 40
13.8666656
  1
ＤＡＴＥ
 50
0.0
 41
0.6
 51
0.0
  7
KANJI33
  0
TEXT
  8
0
  6
CONTINUOUS
 62
     4
 10
2187.2000816
 20
113.333332
 30
1.663999872
 40
16.63999872
  1
尺度
 50
0.0
 41
0.6
 51
0.0
  7
KANJI34
  0
TEXT
  8
0
  6
CONTINUOUS
 62
     4
 10
2187.2000816
 20
168.7999944
 30
1.663999872
 40
16.63999872
  1
日付
 50
0.0
 41
0.6
 51
0.0
  7
KANJI34
  0
TEXT
  8
0
  6
CONTINUOUS
 62
     4
 10
2187.2000816
 20
224.2666568
 30
1.663999872
 40
16.63999872
  1
作図
 50
0.0
 41
0.6
 51
0.0
  7
KANJI34
  0
LINE
  8
0
  6
CONTINUOUS
 62
     4
 10
1781.6001128
 20
102.9333328
 11
1781.6001128
 21
158.3999952
  0
LINE
  8
0
  6
CONTINUOUS
 62
     4
 10
1844.000108
 20
102.9333328
 11
1844.000108
 21
158.3999952
  0
TEXT
  8
0
  6
CONTINUOUS
 62
     4
 10
1802.4001112
 20
134.1333304
 30
1.38666656
 40
13.8666656
  1
ＢＹ
 50
0.0
 41
0.6
 51
0.0
  7
KANJI33
  0
TEXT
  8
0
  6
CONTINUOUS
 62
     4
 10
1954.9334328
 20
134.1333304
 30
1.38666656
 40
13.8666656
  1
ＤＥＳＣＲＩＰＴＩＯＮ
 50
0.0
 41
0.6
 51
0.0
  7
KANJI33
  0
TEXT
  8
0
  6
CONTINUOUS
 62
     4
 10
1802.4001112
 20
113.333332
 30
1.663999872
 40
16.63999872
  1
担当
 50
0.0
 41
0.6
 51
0.0
  7
KANJI34
  0
TEXT
  8
0
  6
CONTINUOUS
 62
     4
 10
1975.7334312
 20
113.333332
 30
1.663999872
 40
16.63999872
  1
記　　　　事
 50
0.0
 41
0.6
 51
0.0
  7
KANJI34
  0
LINE
  8
0
  6
CONTINUOUS
 62
     4
 10
1655.0667892
 20
147.999996
 11
1632.5334576
 21
113.333332
  0
TEXT
  8
0
  6
CONTINUOUS
 62
     4
 10
1712.2667848
 20
134.1333304
 30
1.38666656
 40
13.8666656
  1
ＤＡＴＥ
 50
0.0
 41
0.6
 51
0.0
  7
KANJI33
  0
TEXT
  8
0
  6
CONTINUOUS
 62
     4
 10
1722.666784
 20
113.333332
 30
1.663999872
 40
16.63999872
  1
日付
 50
0.0
 41
0.6
 51
0.0
  7
KANJI34
  0
LINE
  8
0
  6
CONTINUOUS
 62
     4
 10
1632.5334576
 20
113.333332
 11
1677.6001208
 21
113.333332
  0
LINE
  8
0
  6
CONTINUOUS
 62
     4
 10
1684.5334536
 20
102.9333328
 11
1684.5334536
 21
158.3999952
  0
LINE
  8
0
  6
CONTINUOUS
 62
     4
 10
1655.0667892
 20
147.999996
 11
1677.6001208
 21
113.333332
  0
LINE
  8
0
  6
CONTINUOUS
 62
     4
 10
2426.4000632
 20
189.5999928
 11
3241.0666672
 21
189.5999928
  0
LINE
  8
0
  6
CONTINUOUS
 62
     4
 10
2426.4000632
 20
102.9333328
 11
2426.4000632
 21
435.7333072
  0
LINE
  8
0
  6
LTYPE3
 62
     4
 10
3008.8000184
 20
199.999992
 11
3008.8000184
 21
255.4666544
  0
LINE
  8
0
  6
LTYPE3
 62
     4
 10
2960.2666888
 20
199.999992
 11
2960.2666888
 21
255.4666544
  0
LINE
  8
0
  6
LTYPE3
 62
     4
 10
2911.7333592
 20
199.999992
 11
2911.7333592
 21
255.4666544
  0
LINE
  8
0
  6
LTYPE3
 62
     4
 10
2863.2000296
 20
199.999992
 11
2863.2000296
 21
255.4666544
  0
LINE
  8
0
  6
LTYPE3
 62
     4
 10
2814.6667
 20
199.999992
 11
2814.6667
 21
255.4666544
  0
LINE
  8
0
  6
LTYPE3
 62
     4
 10
2766.1333704
 20
199.999992
 11
2766.1333704
 21
255.4666544
  0
LINE
  8
0
  6
LTYPE3
 62
     4
 10
2717.6000408
 20
199.999992
 11
2717.6000408
 21
255.4666544
  0
LINE
  8
0
  6
LTYPE3
 62
     4
 10
2669.0667112
 20
199.999992
 11
2669.0667112
 21
255.4666544
  0
LINE
  8
0
  6
LTYPE3
 62
     4
 10
2669.0667112
 20
255.4666544
 11
3008.8000184
 21
255.4666544
  0
LINE
  8
0
  6
LTYPE3
 62
     4
 10
2669.0667112
 20
199.999992
 11
3008.8000184
 21
199.999992
  0
LINE
  8
0
  6
CONTINUOUS
 62
     4
 10
3036.5333496
 20
229.4666564
 11
3050.4000152
 21
229.4666564
  0
LINE
  8
0
  6
CONTINUOUS
 62
     4
 10
3123.2000096
 20
208.666658
 11
3074.66668
 21
208.666658
  0
LINE
  8
0
  6
CONTINUOUS
 62
     4
 10
3074.66668
 20
208.666658
 11
3098.9333448
 21
250.2666548
  0
LINE
  8
0
  6
CONTINUOUS
 62
     4
 10
3098.9333448
 20
250.2666548
 11
3123.2000096
 21
208.666658
  0
LINE
  8
0
  6
CONTINUOUS
 62
     4
 10
3241.0666672
 20
491.1999696
 11
3241.0666672
 21
546.666632
  0
LINE
  8
0
  6
CONTINUOUS
 62
     4
 10
2173.333416
 20
546.666632
 11
3241.0666672
 21
546.666632
  0
LINE
  8
0
  6
CONTINUOUS
 62
     4
 10
3254.9333328
 20
102.9333328
 11
3338.1333264
 21
102.9333328
  0
LINE
  8
0
  6
CONTINUOUS
 62
     4
 10
3254.9333328
 20
144.5333296
 11
3338.1333264
 21
144.5333296
  0
LINE
  8
0
  6
CONTINUOUS
 62
     4
 10
3254.9333328
 20
186.1333264
 11
3338.1333264
 21
186.1333264
  0
LINE
  8
0
  6
CONTINUOUS
 62
     4
 10
3254.9333328
 20
227.7333232
 11
3338.1333264
 21
227.7333232
  0
LINE
  8
0
  6
CONTINUOUS
 62
     4
 10
3254.9333328
 20
269.33332
 11
3338.1333264
 21
269.33332
  0
LINE
  8
0
  6
CONTINUOUS
 62
     4
 10
3254.9333328
 20
310.9333168
 11
3338.1333264
 21
310.9333168
  0
LINE
  8
0
  6
CONTINUOUS
 62
     4
 10
3254.9333328
 20
352.5333136
 11
3338.1333264
 21
352.5333136
  0
LINE
  8
0
  6
CONTINUOUS
 62
     4
 10
3254.9333328
 20
394.1333104
 11
3338.1333264
 21
394.1333104
  0
LINE
  8
0
  6
CONTINUOUS
 62
     4
 10
3254.9333328
 20
435.7333072
 11
3338.1333264
 21
435.7333072
  0
LINE
  8
0
  6
CONTINUOUS
 62
     4
 10
3254.9333328
 20
477.333304
 11
3338.1333264
 21
477.333304
  0
LINE
  8
0
  6
CONTINUOUS
 62
     4
 10
3338.1333264
 20
102.9333328
 11
3338.1333264
 21
477.333304
  0
LINE
  8
0
  6
CONTINUOUS
 62
     4
 10
3296.5333296
 20
102.9333328
 11
3296.5333296
 21
435.7333072
  0
TEXT
  8
0
  6
CONTINUOUS
 62
     4
 10
3269.14666504
 20
115.0666652
 30
2.07999984
 40
20.7999984
  1
計
 50
0.0
 41
0.75
 51
0.0
  7
KANJI39
  0
TEXT
  8
0
  6
CONTINUOUS
 62
     4
 10
3269.14666504
 20
198.95999208
 30
2.07999984
 40
20.7999984
  1
設
 50
0.0
 41
0.75
 51
0.0
  7
KANJI39
  0
TEXT
  8
0
  6
CONTINUOUS
 62
     4
 10
3269.14666504
 20
239.8666556
 30
2.07999984
 40
20.7999984
  1
管
 50
0.0
 41
0.75
 51
0.0
  7
KANJI39
  0
TEXT
  8
0
  6
CONTINUOUS
 62
     4
 10
3269.14666504
 20
281.4666524
 30
2.07999984
 40
20.7999984
  1
製
 50
0.0
 41
0.75
 51
0.0
  7
KANJI39
  0
TEXT
  8
0
  6
CONTINUOUS
 62
     4
 10
3269.14666504
 20
323.0666492
 30
2.07999984
 40
20.7999984
  1
資
 50
0.0
 41
0.75
 51
0.0
  7
KANJI39
  0
TEXT
  8
0
  6
CONTINUOUS
 62
     4
 10
3269.14666504
 20
364.666646
 30
2.07999984
 40
20.7999984
  1
営
 50
0.0
 41
0.75
 51
0.0
  7
KANJI39
  0
TEXT
  8
0
  6
CONTINUOUS
 62
     4
 10
3269.14666504
 20
406.2666428
 30
2.07999984
 40
20.7999984
  1
客
 50
0.0
 41
0.75
 51
0.0
  7
KANJI39
  0
TEXT
  8
0
  6
CONTINUOUS
 62
     4
 10
3268.7999984
 20
449.5999728
 30
2.07999984
 40
20.7999984
  1
出　図
 50
0.0
 41
0.75
 51
0.0
  7
KANJI39
  0
LINE
  8
0
  6
CONTINUOUS
 62
     4
 10
3254.9333328
 20
102.9333328
 11
3254.9333328
 21
477.333304
  0
TEXT
  8
0
  6
CONTINUOUS
 62
     4
 10
3130.1333424
 20
26.666672
 30
6.9333328
 40
69.333328
  1
／
 50
0.0
 41
0.9
 51
0.0
  7
KANJI40
  0
TEXT
  8
0
  6
CONTINUOUS
 62
     4
 10
2786.9333688
 20
355.99998
 30
1.38666656
 40
13.8666656
  1
ＴＩＴＬＥ
 50
0.0
 41
0.8
 51
0.0
  7
KANJI36
  0
TEXT
  8
0
  6
CONTINUOUS
 62
     4
 10
2786.9333688
 20
331.7333152
 30
1.663999872
 40
16.63999872
  1
名称
 50
0.0
 41
0.8
 51
0.0
  7
KANJI38
  0
LINE
  8
0
  6
CONTINUOUS
 62
     6
 10
152.0
 20
96.0
 11
152.0
 21
2248.0
  0
LINE
  8
0
  6
CONTINUOUS
 62
     6
 10
152.0
 20
2248.0
 11
3248.0
 21
2248.0
  0
LINE
  8
0
  6
CONTINUOUS
 62
     6
 10
3248.0
 20
2248.0
 11
3248.0
 21
96.0
  0
LINE
  8
0
  6
CONTINUOUS
 62
     6
 10
3248.0
 20
96.0
 11
152.0
 21
96.0
  0
LINE
  8
0
  6
CONTINUOUS
 62
     6
 10
679.999888985
 20
103.999998318
 11
679.999888985
 21
215.999974769
  0
LINE
  8
0
  6
CONTINUOUS
 62
     6
 10
159.999998318
 20
215.999974769
 11
679.999888985
 21
215.999974769
  0
LINE
  8
0
  6
CONTINUOUS
 62
     6
 10
159.999998318
 20
103.999998318
 11
679.999888985
 21
103.999998318
  0
LINE
  8
0
  6
CONTINUOUS
 62
     6
 10
159.999998318
 20
103.999998318
 11
159.999998318
 21
215.999974769
  0
LINE
  8
0
  6
CONTINUOUS
 62
     6
 10
519.999922626
 20
103.999998318
 11
519.999922626
 21
215.999974769
  0
LINE
  8
0
  6
CONTINUOUS
 62
     6
 10
159.999998318
 20
159.999986544
 11
679.999888985
 21
159.999986544
  0
TEXT
  8
0
  6
CONTINUOUS
 62
     3
 10
175.999994954
 20
175.999983179
 30
2.399999495
 40
23.999994954
  1
ＰＬ
 50
0.0
 41
0.9
 51
0.0
  7
KANJI41
  0
LINE
  8
0
  6
CONTINUOUS
 62
     6
 10
1625.6001248
 20
102.9333328
 11
1625.6001248
 21
158.3999952
  0
LINE
  8
0
  6
CONTINUOUS
 62
     6
 10
1625.6001248
 20
158.3999952
 11
2173.333416
 21
158.3999952
  0
LINE
  8
0
  6
CONTINUOUS
 62
     6
 10
1625.6001248
 20
102.9333328
 11
3241.0666672
 21
102.9333328
  0
LINE
  8
0
  6
CONTINUOUS
 62
     6
 10
2173.333416
 20
102.9333328
 11
2173.333416
 21
491.1999696
  0
LINE
  8
0
  6
CONTINUOUS
 62
     6
 10
2718.20670742
 20
139.67999664
 11
2695.32670918
 21
139.67999664
  0
LINE
  8
0
  6
CONTINUOUS
 62
     6
 10
2718.20670742
 20
143.83999632
 11
2695.32670918
 21
143.83999632
  0
LINE
  8
0
  6
CONTINUOUS
 62
     6
 10
2718.20670742
 20
139.67999664
 11
2741.08670566
 21
139.67999664
  0
LINE
  8
0
  6
CONTINUOUS
 62
     6
 10
2718.20670742
 20
143.83999632
 11
2741.08670566
 21
143.83999632
  0
LINE
  8
0
  6
CONTINUOUS
 62
     6
 10
2741.08670566
 20
143.83999632
 11
2741.08670566
 21
139.67999664
  0
ARC
  8
0
  6
CONTINUOUS
 62
     6
 10
2746.28670526
 20
141.75999648
 40
20.7999984
 50
185.739170477
 51
90.0
  0
ARC
  8
0
  6
CONTINUOUS
 62
     6
 10
2746.28670526
 20
141.75999648
 40
24.95999808
 50
184.780191847
 51
90.0
  0
LINE
  8
0
  6
CONTINUOUS
 62
     6
 10
2695.32670918
 20
139.67999664
 11
2695.32670918
 21
143.83999632
  0
TEXT
  8
0
  6
CONTINUOUS
 62
     6
 10
2433.333396
 20
134.1333304
 30
0.0
 40
24.2666648
  1
ＵＮＩＴＥＣ　ＩＮＤＵＳＴＲＹ　ＣＯ．，ＬＴＤ．
 50
0.0
 41
0.42031746
 51
0.0
  7
KANJI42
  0
LINE
  8
0
  6
CONTINUOUS
 62
     6
 10
2715.08670766
 20
166.71999456
 11
2690.12670958
 21
166.71999456
  0
LINE
  8
0
  6
CONTINUOUS
 62
     6
 10
2721.32670718
 20
166.71999456
 11
2746.28670526
 21
166.71999456
  0
ARC
  8
0
  6
CONTINUOUS
 62
     6
 10
2690.12670958
 20
141.75999648
 40
20.7999984
 50
90.0
 51
354.260829523
  0
ARC
  8
0
  6
CONTINUOUS
 62
     6
 10
2690.12670958
 20
141.75999648
 40
24.95999808
 50
90.0
 51
355.219808153
  0
LINE
  8
0
  6
CONTINUOUS
 62
     6
 10
2715.08670766
 20
166.71999456
 11
2715.08670766
 21
162.55999488
  0
LINE
  8
0
  6
CONTINUOUS
 62
     6
 10
2690.12670958
 20
162.55999488
 11
2715.08670766
 21
162.55999488
  0
LINE
  8
0
  6
CONTINUOUS
 62
     6
 10
2721.32670718
 20
166.71999456
 11
2721.32670718
 21
162.55999488
  0
LINE
  8
0
  6
CONTINUOUS
 62
     6
 10
2746.28670526
 20
162.55999488
 11
2721.32670718
 21
162.55999488
  0
TEXT
  8
0
  6
CONTINUOUS
 62
     6
 10
2773.67336982
 20
125.11999776
 30
4.15999968
 40
41.5999968
  1
ユニテック工業株式会社
 50
0.0
 41
0.9
 51
0.0
  7
KANJI43
  0
LINE
  8
0
  6
CONTINUOUS
 62
     6
 10
2173.333416
 20
491.1999696
 11
3241.0666672
 21
491.1999696
  0
LINE
  8
0
  6
CONTINUOUS
 62
     6
 10
3241.0666672
 20
102.9333328
 11
3241.0666672
 21
491.1999696
  0
TEXT
  8
0
  6
CONTINUOUS
 62
     3
 10
2292.0
 20
112.0
 30
2.4
 40
36.0
  1
１／８
 50
0.0
 41
0.666666667
 51
0.0
  7
KANJI44
  0
TEXT
  8
0
  6
CONTINUOUS
 62
     3
 10
2618.5
 20
275.0
 30
2.4
 40
32.0
  1
Ｓ
 50
0.0
 41
0.75
 51
0.0
  7
KANJI45
  0
CIRCLE
  8
0
  6
CONTINUOUS
 62
     3
 10
2629.5
 20
291.5
 40
21.708293346
  0
TEXT
  8
0
  6
CONTINUOUS
 62
     3
 10
2910.0
 20
280.0
 30
20.0
 40
40.0
  1
外形寸法図
 50
0.0
 41
1.0
 51
0.0
  7
KANJI46
  0
TEXT
  8
0
  6
CONTINUOUS
 62
     3
 10
2862.0
 20
328.0
 30
5.714285714
 40
40.0
  1
マイティシリンダ
 50
0.0
 41
1.0
 51
0.0
  7
KANJI47
  0
TEXT
  8
0
  6
CONTINUOUS
 62
     2
 10
3016.8
 20
1491.2
 30
2.4
 40
24.0
  1
　　　／　
 50
0.0
 41
0.9
 51
0.0
  7
KANJI0
  0
TEXT
  8
0
  6
CONTINUOUS
 62
     2
 10
3010.0
 20
1385.0
 30
2.4
 40
24.0
  1
　　　／
 50
0.0
 41
0.9
 51
0.0
  7
KANJI0
  0
TEXT
  8
0
  6
CONTINUOUS
 62
     2
 10
1188.275240468
 20
1967.133058
 30
2.79993
 40
27.9993
  1
注意：サーマルリレー等の選定は、上記の値を参照下さい。
 50
0.0
 41
0.9
 51
0.0
  7
KANJI48
  0
LINE
  8
0
  6
CONTINUOUS
 62
     2
 10
1172.275640468
 20
1959.133258
 11
1924.256840468
 21
1959.133258
  0
LINE
  8
0
  6
CONTINUOUS
 62
     1
 10
1958.85602
 20
2220.793375
 11
1958.85602
 21
2012.798575
  0
LINE
  8
0
  6
CONTINUOUS
 62
     2
 10
1838.85902
 20
2220.793375
 11
1838.85902
 21
2012.798575
  0
LINE
  8
0
  6
CONTINUOUS
 62
     2
 10
1718.86202
 20
2220.793375
 11
1718.86202
 21
2012.798575
  0
LINE
  8
0
  6
CONTINUOUS
 62
     1
 10
1558.86602
 20
2220.793375
 11
1558.86602
 21
2012.798575
  0
LINE
  8
0
  6
CONTINUOUS
 62
     1
 10
1558.86602
 20
2220.793375
 11
1958.85602
 21
2220.793375
  0
LINE
  8
0
  6
CONTINUOUS
 62
     1
 10
1558.86602
 20
2156.794975
 11
1958.85602
 21
2156.794975
  0
LINE
  8
0
  6
CONTINUOUS
 62
     2
 10
1558.86602
 20
2108.796175
 11
1958.85602
 21
2108.796175
  0
LINE
  8
0
  6
CONTINUOUS
 62
     2
 10
1558.86602
 20
2060.797375
 11
1958.85602
 21
2060.797375
  0
LINE
  8
0
  6
CONTINUOUS
 62
     1
 10
1558.86602
 20
2012.798575
 11
1958.85602
 21
2012.798575
  0
TEXT
  8
0
  6
CONTINUOUS
 62
     2
 10
1854.85862
 20
2192.794075
 30
2.39994
 40
23.9994
  1
起動電流
 50
0.0
 41
0.9
 51
0.0
  7
KANJI49
  0
TEXT
  8
0
  6
CONTINUOUS
 62
     2
 10
1854.85862
 20
2164.794775
 30
2.39994
 40
23.9994
  1
　　　Ａ
 50
0.0
 41
0.9
 51
0.0
  7
KANJI49
  0
TEXT
  8
0
  6
CONTINUOUS
 62
     2
 10
1734.86162
 20
2192.794075
 30
2.39994
 40
23.9994
  1
定格電流
 50
0.0
 41
0.9
 51
0.0
  7
KANJI49
  0
TEXT
  8
0
  6
CONTINUOUS
 62
     2
 10
1734.86162
 20
2164.794775
 30
2.39994
 40
23.9994
  1
　　　Ａ
 50
0.0
 41
0.9
 51
0.0
  7
KANJI49
  0
TEXT
  8
0
  6
CONTINUOUS
 62
     2
 10
1572.46568
 20
2072.797075
 30
2.39994
 40
23.9994
  1
２００／６０
 50
0.0
 41
0.9
 51
0.0
  7
KANJI49
  0
TEXT
  8
0
  6
CONTINUOUS
 62
     2
 10
1572.46568
 20
2192.794075
 30
2.39994
 40
23.9994
  1
電圧／周波数
 50
0.0
 41
0.9
 51
0.0
  7
KANJI49
  0
TEXT
  8
0
  6
CONTINUOUS
 62
     2
 10
1572.46568
 20
2164.794775
 30
2.39994
 40
23.9994
  1
　Ｖ／Ｈｚ
 50
0.0
 41
0.9
 51
0.0
  7
KANJI49
  0
TEXT
  8
0
  6
CONTINUOUS
 62
     2
 10
1572.46568
 20
2120.795875
 30
2.39994
 40
23.9994
  1
２００／５０
 50
0.0
 41
0.9
 51
0.0
  7
KANJI49
  0
TEXT
  8
0
  6
CONTINUOUS
 62
     2
 10
1572.46568
 20
2024.798275
 30
2.39994
 40
23.9994
  1
２２０／６０
 50
0.0
 41
0.9
 51
0.0
  7
KANJI49
  0
LINE
  8
0
  6
CONTINUOUS
 62
     1
 10
1478.86802
 20
2220.793375
 11
1478.86802
 21
2012.798575
  0
LINE
  8
0
  6
CONTINUOUS
 62
     2
 10
1358.87102
 20
2220.793375
 11
1358.87102
 21
2012.798575
  0
LINE
  8
0
  6
CONTINUOUS
 62
     2
 10
1238.87402
 20
2220.793375
 11
1238.87402
 21
2012.798575
  0
LINE
  8
0
  6
CONTINUOUS
 62
     1
 10
1078.87802
 20
2220.793375
 11
1078.87802
 21
2012.798575
  0
LINE
  8
0
  6
CONTINUOUS
 62
     1
 10
1078.87802
 20
2220.793375
 11
1478.86802
 21
2220.793375
  0
LINE
  8
0
  6
CONTINUOUS
 62
     1
 10
1078.87802
 20
2156.794975
 11
1478.86802
 21
2156.794975
  0
LINE
  8
0
  6
CONTINUOUS
 62
     2
 10
1078.87802
 20
2108.796175
 11
1478.86802
 21
2108.796175
  0
LINE
  8
0
  6
CONTINUOUS
 62
     2
 10
1078.87802
 20
2060.797375
 11
1478.86802
 21
2060.797375
  0
LINE
  8
0
  6
CONTINUOUS
 62
     1
 10
1078.87802
 20
2012.798575
 11
1478.86802
 21
2012.798575
  0
TEXT
  8
0
  6
CONTINUOUS
 62
     2
 10
1374.87062
 20
2192.794075
 30
2.39994
 40
23.9994
  1
起動電流
 50
0.0
 41
0.9
 51
0.0
  7
KANJI49
  0
TEXT
  8
0
  6
CONTINUOUS
 62
     2
 10
1374.87062
 20
2164.794775
 30
2.39994
 40
23.9994
  1
　　　Ａ
 50
0.0
 41
0.9
 51
0.0
  7
KANJI49
  0
TEXT
  8
0
  6
CONTINUOUS
 62
     2
 10
1254.87362
 20
2192.794075
 30
2.39994
 40
23.9994
  1
定格電流
 50
0.0
 41
0.9
 51
0.0
  7
KANJI49
  0
TEXT
  8
0
  6
CONTINUOUS
 62
     2
 10
1254.87362
 20
2164.794775
 30
2.39994
 40
23.9994
  1
　　　Ａ
 50
0.0
 41
0.9
 51
0.0
  7
KANJI49
  0
TEXT
  8
0
  6
CONTINUOUS
 62
     2
 10
1092.47768
 20
2192.794075
 30
2.39994
 40
23.9994
  1
電圧／周波数
 50
0.0
 41
0.9
 51
0.0
  7
KANJI49
  0
TEXT
  8
0
  6
CONTINUOUS
 62
     2
 10
1092.47768
 20
2164.794775
 30
2.39994
 40
23.9994
  1
　Ｖ／Ｈｚ
 50
0.0
 41
0.9
 51
0.0
  7
KANJI49
  0
TEXT
  8
0
  6
CONTINUOUS
 62
     2
 10
1092.47768
 20
2120.795875
 30
2.39994
 40
23.9994
  1
４００／５０
 50
0.0
 41
0.9
 51
0.0
  7
KANJI49
  0
TEXT
  8
0
  6
CONTINUOUS
 62
     2
 10
1092.47768
 20
2072.797075
 30
2.39994
 40
23.9994
  1
４００／６０
 50
0.0
 41
0.9
 51
0.0
  7
KANJI49
  0
TEXT
  8
0
  6
CONTINUOUS
 62
     2
 10
1092.47768
 20
2024.798275
 30
2.39994
 40
23.9994
  1
４４０／６０
 50
0.0
 41
0.9
 51
0.0
  7
KANJI49
  0
LINE
  8
0
  6
CONTINUOUS
 62
     1
 10
595.0
 20
1431.0
 11
595.0
 21
1631.0
  0
LINE
  8
0
  6
CONTINUOUS
 62
     1
 10
778.0
 20
1429.944375069
 11
768.0
 21
1419.944375069
  0
LINE
  8
0
  6
CONTINUOUS
 62
     1
 10
768.0
 20
1361.305778818
 11
768.0
 21
1419.944375069
  0
ARC
  8
0
  6
CONTINUOUS
 62
     1
 10
766.0
 20
1430.466558854
 40
3.0
 50
90.0
 51
180.0
  0
LINE
  8
0
  6
CONTINUOUS
 62
     1
 10
778.0
 20
1429.944375069
 11
876.0
 21
1429.944375069
  0
LINE
  8
0
  6
CONTINUOUS
 62
     1
 10
766.0
 20
1433.466558854
 11
888.0
 21
1433.466558854
  0
LINE
  8
0
  6
CONTINUOUS
 62
     1
 10
763.0
 20
1300.0
 11
763.0
 21
1430.0
  0
LINE
  8
0
  6
CONTINUOUS
 62
     1
 10
886.0
 20
1361.305778818
 11
886.0
 21
1419.944375069
  0
LINE
  8
0
  6
CONTINUOUS
 62
     1
 10
891.0
 20
1318.657620342
 11
891.0
 21
1430.466558854
  0
LINE
  8
0
  6
CONTINUOUS
 62
     1
 10
886.0
 20
1419.944375069
 11
876.0
 21
1429.944375069
  0
ARC
  8
0
  6
CONTINUOUS
 62
     1
 10
888.0
 20
1430.466558854
 40
3.0
 50
0.0
 51
90.0
  0
LINE
  8
0
  6
CONTINUOUS
 62
     1
 10
1482.999190206
 20
1301.5
 11
1482.999190206
 21
1310.0
  0
CIRCLE
  8
0
  6
CONTINUOUS
 62
     1
 10
1552.999190206
 20
1300.0
 40
17.5
  0
LINE
  8
0
  6
CONTINUOUS
 62
     1
 10
1263.149691586
 20
1243.0
 11
1263.149691586
 21
1357.0
  0
LINE
  8
0
  6
CONTINUOUS
 62
     1
 10
1279.149691586
 20
1243.0
 11
1279.149691586
 21
1357.0
  0
LINE
  8
0
  6
CONTINUOUS
 62
     1
 10
1323.149691586
 20
1243.0
 11
1323.149691586
 21
1357.0
  0
LINE
  8
0
  6
CONTINUOUS
 62
     1
 10
1339.149691586
 20
1243.0
 11
1339.149691586
 21
1357.0
  0
LINE
  8
0
  6
CONTINUOUS
 62
     1
 10
1323.149691586
 20
1367.0
 11
1339.149691586
 21
1367.0
  0
LINE
  8
0
  6
CONTINUOUS
 62
     1
 10
1263.149691586
 20
1367.0
 11
1279.149691586
 21
1367.0
  0
LINE
  8
0
  6
CONTINUOUS
 62
     1
 10
1263.149691586
 20
1357.0
 11
1263.149691586
 21
1367.0
  0
LINE
  8
0
  6
CONTINUOUS
 62
     1
 10
1279.149691586
 20
1357.0
 11
1279.149691586
 21
1367.0
  0
LINE
  8
0
  6
CONTINUOUS
 62
     1
 10
1323.149691586
 20
1357.0
 11
1323.149691586
 21
1367.0
  0
LINE
  8
0
  6
CONTINUOUS
 62
     1
 10
1339.149691586
 20
1367.0
 11
1339.149691586
 21
1358.591148475
  0
LINE
  8
0
  6
CONTINUOUS
 62
     1
 10
1339.149691586
 20
1357.0
 11
1339.149691586
 21
1367.0
  0
LINE
  8
0
  6
CONTINUOUS
 62
     1
 10
1466.999190206
 20
1243.0
 11
1466.999190206
 21
1300.0
  0
LINE
  8
0
  6
CONTINUOUS
 62
     1
 10
1482.999190206
 20
1243.0
 11
1482.999190206
 21
1300.0
  0
LINE
  8
0
  6
CONTINUOUS
 62
     1
 10
904.0
 20
1230.0
 11
895.0
 21
1230.0
  0
LINE
  8
0
  6
CONTINUOUS
 62
     1
 10
904.0
 20
1370.0
 11
904.0
 21
1230.0
  0
LINE
  8
0
  6
CONTINUOUS
 62
     1
 10
904.0
 20
1370.0
 11
896.0
 21
1370.0
  0
LINE
  8
0
  6
CONTINUOUS
 62
     1
 10
919.0
 20
1367.5
 11
919.0
 21
1232.5
  0
LINE
  8
0
  6
CONTINUOUS
 62
     1
 10
919.0
 20
1367.5
 11
904.0
 21
1367.5
  0
LINE
  8
0
  6
CONTINUOUS
 62
     1
 10
919.0
 20
1232.5
 11
904.0
 21
1232.5
  0
LINE
  8
0
  6
CONTINUOUS
 62
     1
 10
898.0
 20
1212.5
 11
898.0
 21
1201.55046
  0
LINE
  8
0
  6
CONTINUOUS
 62
     1
 10
898.0
 20
1212.5
 11
898.0
 21
1223.44954
  0
LINE
  8
0
  6
CONTINUOUS
 62
     1
 10
895.0
 20
1201.75
 11
898.0
 21
1201.75
  0
LINE
  8
0
  6
CONTINUOUS
 62
     1
 10
895.0
 20
1212.5
 11
898.000254073
 21
1209.499745927
  0
LINE
  8
0
  6
CONTINUOUS
 62
     1
 10
898.000254073
 20
1212.5
 11
895.0
 21
1215.500254073
  0
LINE
  8
0
  6
CONTINUOUS
 62
     1
 10
895.0
 20
1223.25
 11
898.0
 21
1223.25
  0
LINE
  8
0
  6
CONTINUOUS
 62
     1
 10
898.0
 20
1201.75
 11
909.3
 21
1201.75
  0
LINE
  8
0
  6
CONTINUOUS
 62
     1
 10
909.3
 20
1212.5
 11
909.3
 21
1201.75
  0
LINE
  8
0
  6
CONTINUOUS
 62
     1
 10
909.3
 20
1201.75
 11
910.0
 21
1202.962435565
  0
LINE
  8
0
  6
CONTINUOUS
 62
     1
 10
910.0
 20
1212.5
 11
910.0
 21
1202.962435565
  0
LINE
  8
0
  6
CONTINUOUS
 62
     1
 10
898.0
 20
1223.25
 11
909.3
 21
1223.25
  0
LINE
  8
0
  6
CONTINUOUS
 62
     1
 10
909.3
 20
1212.5
 11
909.3
 21
1223.25
  0
LINE
  8
0
  6
CONTINUOUS
 62
     1
 10
909.3
 20
1223.25
 11
910.0
 21
1222.037564435
  0
LINE
  8
0
  6
CONTINUOUS
 62
     1
 10
910.0
 20
1212.5
 11
910.0
 21
1222.037564435
  0
LINE
  8
0
  6
LTYPE1
 62
     2
 10
923.7
 20
1212.5
 11
876.0
 21
1212.5
  0
LINE
  8
0
  6
CONTINUOUS
 62
     1
 10
899.0
 20
1387.5
 11
899.0
 21
1376.55046
  0
LINE
  8
0
  6
CONTINUOUS
 62
     1
 10
899.0
 20
1387.5
 11
899.0
 21
1398.44954
  0
LINE
  8
0
  6
CONTINUOUS
 62
     1
 10
896.0
 20
1376.75
 11
899.0
 21
1376.75
  0
LINE
  8
0
  6
CONTINUOUS
 62
     1
 10
896.0
 20
1387.5
 11
899.000254073
 21
1384.499745927
  0
LINE
  8
0
  6
CONTINUOUS
 62
     1
 10
899.000254073
 20
1387.5
 11
896.0
 21
1390.500254073
  0
LINE
  8
0
  6
CONTINUOUS
 62
     1
 10
896.0
 20
1398.25
 11
899.0
 21
1398.25
  0
LINE
  8
0
  6
CONTINUOUS
 62
     1
 10
899.0
 20
1376.75
 11
910.3
 21
1376.75
  0
LINE
  8
0
  6
CONTINUOUS
 62
     1
 10
910.3
 20
1387.5
 11
910.3
 21
1376.75
  0
LINE
  8
0
  6
CONTINUOUS
 62
     1
 10
910.3
 20
1376.75
 11
911.0
 21
1377.962435565
  0
LINE
  8
0
  6
CONTINUOUS
 62
     1
 10
911.0
 20
1387.5
 11
911.0
 21
1377.962435565
  0
LINE
  8
0
  6
CONTINUOUS
 62
     1
 10
899.0
 20
1398.25
 11
910.3
 21
1398.25
  0
LINE
  8
0
  6
CONTINUOUS
 62
     1
 10
910.3
 20
1387.5
 11
910.3
 21
1398.25
  0
LINE
  8
0
  6
CONTINUOUS
 62
     1
 10
910.3
 20
1398.25
 11
911.0
 21
1397.037564435
  0
LINE
  8
0
  6
CONTINUOUS
 62
     1
 10
911.0
 20
1387.5
 11
911.0
 21
1397.037564435
  0
LINE
  8
0
  6
LTYPE1
 62
     2
 10
924.7
 20
1387.5
 11
891.0
 21
1387.5
  0
LINE
  8
0
  6
CONTINUOUS
 62
     1
 10
595.0
 20
1719.0
 11
545.0
 21
1719.0
  0
CIRCLE
  8
0
  6
CONTINUOUS
 62
     1
 10
565.0
 20
1749.0
 40
17.5
  0
LINE
  8
0
  6
CONTINUOUS
 62
     1
 10
565.0
 20
1719.0
 11
580.0
 21
1719.0
  0
LINE
  8
0
  6
CONTINUOUS
 62
     1
 10
565.0
 20
1730.0
 11
578.751706485
 21
1730.0
  0
LINE
  8
0
  6
CONTINUOUS
 62
     1
 10
578.751706485
 20
1730.0
 11
565.0
 21
1731.5
  0
LINE
  8
0
  6
CONTINUOUS
 62
     1
 10
579.689625645
 20
1721.735028154
 11
578.751706485
 21
1730.0
  0
LINE
  8
0
  6
CONTINUOUS
 62
     1
 10
580.0
 20
1719.0
 11
579.689625645
 21
1721.735028154
  0
ARC
  8
0
  6
CONTINUOUS
 62
     1
 10
581.297773229
 20
1721.927087564
 40
1.6
 50
120.593314844
 51
186.768821444
  0
ARC
  8
0
  6
CONTINUOUS
 62
     1
 10
565.0
 20
1749.0
 40
30.0
 50
301.047754584
 51
0.0
  0
LINE
  8
0
  6
CONTINUOUS
 62
     1
 10
565.0
 20
1719.0
 11
550.0
 21
1719.0
  0
LINE
  8
0
  6
CONTINUOUS
 62
     1
 10
565.0
 20
1730.0
 11
551.248293515
 21
1730.0
  0
LINE
  8
0
  6
CONTINUOUS
 62
     1
 10
551.248293515
 20
1730.0
 11
565.0
 21
1731.5
  0
LINE
  8
0
  6
CONTINUOUS
 62
     1
 10
550.310374355
 20
1721.735028154
 11
551.248293515
 21
1730.0
  0
LINE
  8
0
  6
CONTINUOUS
 62
     1
 10
550.0
 20
1719.0
 11
550.310374355
 21
1721.735028154
  0
ARC
  8
0
  6
CONTINUOUS
 62
     1
 10
548.702226771
 20
1721.927087564
 40
1.6
 50
353.231178556
 51
59.406685156
  0
ARC
  8
0
  6
CONTINUOUS
 62
     1
 10
565.0
 20
1749.0
 40
30.0
 50
0.0
 51
239.0231413
  0
LINE
  8
0
  6
LTYPE1
 62
     2
 10
565.0
 20
1670.8
 11
565.0
 21
1785.8
  0
LINE
  8
0
  6
CONTINUOUS
 62
     1
 10
572.0
 20
1650.0
 11
572.0
 21
1719.0
  0
ARC
  8
0
  6
CONTINUOUS
 62
     1
 10
539.0
 20
1650.0
 40
6.0
 50
270.0
 51
0.0
  0
LINE
  8
0
  6
CONTINUOUS
 62
     1
 10
545.0
 20
1650.0
 11
545.0
 21
1719.0
  0
LINE
  8
0
  6
LTYPE1
 62
     2
 10
587.6
 20
1749.0
 11
537.0
 21
1749.0
  0
LINE
  8
0
  6
CONTINUOUS
 62
     1
 10
595.0
 20
1419.5
 11
595.0
 21
1719.0
  0
LINE
  8
0
  6
CONTINUOUS
 62
     1
 10
2041.9
 20
1474.0
 11
2041.9
 21
1594.0
  0
LINE
  8
0
  6
LTYPE1
 62
     2
 10
2064.1
 20
1584.0
 11
2037.1
 21
1584.0
  0
LINE
  8
0
  6
CONTINUOUS
 62
     1
 10
2049.5
 20
1594.0
 11
2041.9
 21
1594.0
  0
LINE
  8
0
  6
CONTINUOUS
 62
     1
 10
2317.1
 20
1474.0
 11
2317.1
 21
1594.0
  0
LINE
  8
0
  6
LTYPE1
 62
     2
 10
2294.9
 20
1584.0
 11
2321.9
 21
1584.0
  0
LINE
  8
0
  6
CONTINUOUS
 62
     1
 10
2309.5
 20
1594.0
 11
2317.1
 21
1594.0
  0
LINE
  8
0
  6
LTYPE1
 62
     2
 10
2064.1
 20
1484.0
 11
2039.1
 21
1484.0
  0
LINE
  8
0
  6
CONTINUOUS
 62
     1
 10
2049.5
 20
1474.0
 11
2041.9
 21
1474.0
  0
LINE
  8
0
  6
LTYPE1
 62
     2
 10
2294.9
 20
1484.0
 11
2319.9
 21
1484.0
  0
LINE
  8
0
  6
CONTINUOUS
 62
     1
 10
2309.5
 20
1474.0
 11
2317.1
 21
1474.0
  0
LINE
  8
0
  6
CONTINUOUS
 62
     1
 10
1488.0
 20
1300.0
 11
1488.0
 21
1330.388736054
  0
LINE
  8
0
  6
CONTINUOUS
 62
     1
 10
1488.0
 20
1300.0
 11
1488.0
 21
1269.611263946
  0
LINE
  8
0
  6
CONTINUOUS
 62
     1
 10
2154.5
 20
1272.049150281
 11
2154.5
 21
1327.950849719
  0
LINE
  8
0
  6
CONTINUOUS
 62
     1
 10
2204.5
 20
1272.049150281
 11
2204.5
 21
1327.950849719
  0
CIRCLE
  8
0
  6
CONTINUOUS
 62
     1
 10
2179.5
 20
1300.0
 40
37.5
  0
LINE
  8
0
  6
CONTINUOUS
 62
     1
 10
1483.0
 20
1337.5
 11
1483.0
 21
1252.5
  0
LINE
  8
0
  6
CONTINUOUS
 62
     1
 10
1467.0
 20
1300.0
 11
1467.0
 21
1337.5
  0
LINE
  8
0
  6
CONTINUOUS
 62
     1
 10
1483.0
 20
1347.0
 11
1467.0
 21
1347.0
  0
LINE
  8
0
  6
CONTINUOUS
 62
     1
 10
1483.0
 20
1347.0
 11
1483.0
 21
1337.5
  0
LINE
  8
0
  6
CONTINUOUS
 62
     1
 10
1467.0
 20
1337.5
 11
1467.0
 21
1347.0
  0
LINE
  8
0
  6
CONTINUOUS
 62
     1
 10
2127.250969007
 20
1347.0
 11
2231.749030993
 21
1347.0
  0
LINE
  8
0
  6
LTYPE3
 62
     2
 10
2204.5
 20
1317.5
 11
2154.5
 21
1317.5
  0
LINE
  8
0
  6
LTYPE3
 62
     2
 10
2204.5
 20
1282.5
 11
2154.5
 21
1282.5
  0
LINE
  8
0
  6
LTYPE1
 62
     2
 10
1553.000190206
 20
1584.5
 11
1553.000190206
 21
1662.5
  0
LINE
  8
0
  6
LTYPE1
 62
     2
 10
1408.0
 20
1625.0
 11
1609.5
 21
1625.0
  0
LINE
  8
0
  6
LTYPE1
 62
     2
 10
1552.999190206
 20
1323.5
 11
1552.999190206
 21
1273.5
  0
LINE
  8
1
  6
CONTINUOUS
 62
     2
 10
665.0
 20
1222.398877817
 11
665.0
 21
986.0
  0
LINE
  8
1
  6
CONTINUOUS
 62
     2
 10
665.0
 20
1002.0
 11
684.318516526
 21
996.823619098
  0
LINE
  8
1
  6
CONTINUOUS
 62
     2
 10
665.0
 20
1002.0
 11
684.318516526
 21
1007.176380902
  0
LINE
  8
1
  6
CONTINUOUS
 62
     2
 10
665.0
 20
1002.0
 11
1432.999
 21
1002.0
  0
LINE
  8
1
  6
CONTINUOUS
 62
     2
 10
1432.999
 20
1002.0
 11
1413.680483474
 21
1007.176380902
  0
LINE
  8
1
  6
CONTINUOUS
 62
     2
 10
1432.999
 20
1002.0
 11
1413.680483474
 21
996.823619098
  0
LINE
  8
1
  6
CONTINUOUS
 62
     2
 10
1432.999
 20
1002.0
 11
1452.317516526
 21
996.823619098
  0
LINE
  8
1
  6
CONTINUOUS
 62
     2
 10
1432.999
 20
1002.0
 11
1452.317516526
 21
1007.176380902
  0
LINE
  8
1
  6
CONTINUOUS
 62
     2
 10
1432.999
 20
1002.0
 11
1482.999190206
 21
1002.0
  0
LINE
  8
1
  6
CONTINUOUS
 62
     2
 10
1482.999190206
 20
1002.0
 11
1463.68067368
 21
1007.176380902
  0
LINE
  8
1
  6
CONTINUOUS
 62
     2
 10
1482.999190206
 20
1002.0
 11
1463.68067368
 21
996.823619098
  0
LINE
  8
1
  6
CONTINUOUS
 62
     2
 10
1482.999190206
 20
1002.0
 11
1502.317706732
 21
996.823619098
  0
LINE
  8
1
  6
CONTINUOUS
 62
     2
 10
1482.999190206
 20
1002.0
 11
1502.317706732
 21
1007.176380902
  0
LINE
  8
1
  6
CONTINUOUS
 62
     2
 10
1482.999190206
 20
1002.0
 11
1552.999190206
 21
1002.0
  0
LINE
  8
1
  6
CONTINUOUS
 62
     2
 10
1552.999190206
 20
1002.0
 11
1533.68067368
 21
1007.176380902
  0
LINE
  8
1
  6
CONTINUOUS
 62
     2
 10
1552.999190206
 20
1002.0
 11
1533.68067368
 21
996.823619098
  0
LINE
  8
1
  6
CONTINUOUS
 62
     2
 10
1552.999190206
 20
1265.5
 11
1552.999190206
 21
986.0
  0
TEXT
  8
1
  6
CONTINUOUS
 62
     3
 10
1491.199190206
 20
1010.0
 30
2.4
 40
28.0
  1
７０
 50
0.0
 41
0.914285714
 51
0.0
  7
KANJI50
  0
LINE
  8
1
  6
CONTINUOUS
 62
     2
 10
665.0
 20
994.0
 11
665.0
 21
928.0
  0
LINE
  8
1
  6
CONTINUOUS
 62
     2
 10
665.0
 20
944.0
 11
684.318516526
 21
938.823619098
  0
LINE
  8
1
  6
CONTINUOUS
 62
     2
 10
665.0
 20
944.0
 11
684.318516526
 21
949.176380902
  0
LINE
  8
1
  6
CONTINUOUS
 62
     2
 10
665.0
 20
944.0
 11
1552.999190206
 21
944.0
  0
LINE
  8
1
  6
CONTINUOUS
 62
     2
 10
1552.999190206
 20
944.0
 11
1533.68067368
 21
949.176380902
  0
LINE
  8
1
  6
CONTINUOUS
 62
     2
 10
1552.999190206
 20
944.0
 11
1533.68067368
 21
938.823619098
  0
LINE
  8
1
  6
CONTINUOUS
 62
     2
 10
1552.999190206
 20
994.0
 11
1552.999190206
 21
928.0
  0
LINE
  8
1
  6
CONTINUOUS
 62
     2
 10
1552.999190206
 20
881.5
 11
1533.68067368
 21
886.676380902
  0
LINE
  8
1
  6
CONTINUOUS
 62
     2
 10
1552.999190206
 20
881.5
 11
1533.68067368
 21
876.323619098
  0
LINE
  8
1
  6
CONTINUOUS
 62
     2
 10
1552.999190206
 20
936.0
 11
1552.999190206
 21
865.5
  0
LINE
  8
1
  6
CONTINUOUS
 62
     2
 10
1552.999190206
 20
881.5
 11
1533.68067368
 21
886.676380902
  0
LINE
  8
1
  6
CONTINUOUS
 62
     2
 10
1552.999190206
 20
881.5
 11
1533.68067368
 21
876.323619098
  0
LINE
  8
1
  6
CONTINUOUS
 62
     2
 10
1522.999190206
 20
881.5
 11
1552.999190206
 21
881.5
  0
LINE
  8
1
  6
CONTINUOUS
 62
     2
 10
1552.999190206
 20
881.5
 11
1590.999190206
 21
881.5
  0
LINE
  8
1
  6
CONTINUOUS
 62
     2
 10
1590.999190206
 20
881.5
 11
1674.599190206
 21
881.5
  0
LINE
  8
1
  6
CONTINUOUS
 62
     2
 10
1590.999190206
 20
881.5
 11
1610.317706732
 21
876.323619098
  0
LINE
  8
1
  6
CONTINUOUS
 62
     2
 10
1590.999190206
 20
881.5
 11
1610.317706732
 21
886.676380902
  0
LINE
  8
1
  6
CONTINUOUS
 62
     2
 10
1590.999190206
 20
1264.5
 11
1590.999190206
 21
865.5
  0
TEXT
  8
1
  6
CONTINUOUS
 62
     3
 10
1620.999190206
 20
889.5
 30
2.4
 40
28.0
  1
３８
 50
0.0
 41
0.914285714
 51
0.0
  7
KANJI50
  0
LINE
  8
1
  6
CONTINUOUS
 62
     2
 10
1588.999190206
 20
1337.5
 11
1688.499190206
 21
1337.5
  0
LINE
  8
1
  6
CONTINUOUS
 62
     2
 10
1672.499190206
 20
1337.5
 11
1667.322809304
 21
1318.181483474
  0
LINE
  8
1
  6
CONTINUOUS
 62
     2
 10
1672.499190206
 20
1337.5
 11
1677.675571108
 21
1318.181483474
  0
LINE
  8
1
  6
CONTINUOUS
 62
     2
 10
1672.499190206
 20
1337.5
 11
1672.499190206
 21
1262.5
  0
LINE
  8
1
  6
CONTINUOUS
 62
     2
 10
1672.499190206
 20
1262.5
 11
1677.675571108
 21
1281.818516526
  0
LINE
  8
1
  6
CONTINUOUS
 62
     2
 10
1672.499190206
 20
1262.5
 11
1667.322809304
 21
1281.818516526
  0
LINE
  8
1
  6
CONTINUOUS
 62
     2
 10
1588.999190206
 20
1262.5
 11
1688.499190206
 21
1262.5
  0
TEXT
  8
1
  6
CONTINUOUS
 62
     3
 10
1664.499190206
 20
1273.2
 30
2.4
 40
28.0
  1
７５
 50
90.0
 41
0.914285714
 51
0.0
  7
KANJI50
  0
LINE
  8
0
  6
LTYPE4
 62
     2
 10
2179.5
 20
1135.0
 11
2179.5
 21
1779.75
  0
LINE
  8
1
  6
CONTINUOUS
 62
     2
 10
1432.999
 20
1241.349198201
 11
1432.999
 21
986.0
  0
TEXT
  8
1
  6
CONTINUOUS
 62
     3
 10
913.699595103
 20
889.5
 30
2.4
 40
28.0
  1
ｍｉｎ．ＡＬ
 50
0.0
 41
0.914285714
 51
0.0
  7
KANJI50
  0
TEXT
  8
1
  6
CONTINUOUS
 62
     3
 10
1040.199595103
 20
952.0
 30
2.4
 40
28.0
  1
ｍｉｎ．Ｌ
 50
0.0
 41
0.914285714
 51
0.0
  7
KANJI50
  0
TEXT
  8
1
  6
CONTINUOUS
 62
     3
 10
1036.1995
 20
1010.0
 30
2.4
 40
28.0
  1
Ｃ
 50
0.0
 41
0.914285714
 51
0.0
  7
KANJI50
  0
LINE
  8
1
  6
CONTINUOUS
 62
     2
 10
1535.500190206
 20
1519.0
 11
1516.18167368
 21
1524.176380902
  0
LINE
  8
1
  6
CONTINUOUS
 62
     2
 10
1535.500190206
 20
1519.0
 11
1516.18167368
 21
1513.823619098
  0
LINE
  8
1
  6
CONTINUOUS
 62
     2
 10
1505.500190206
 20
1519.0
 11
1535.500190206
 21
1519.0
  0
LINE
  8
1
  6
CONTINUOUS
 62
     2
 10
1535.500190206
 20
1519.0
 11
1570.500190206
 21
1519.0
  0
LINE
  8
1
  6
CONTINUOUS
 62
     2
 10
1570.500190206
 20
1519.0
 11
1766.100190206
 21
1519.0
  0
LINE
  8
1
  6
CONTINUOUS
 62
     2
 10
1570.500190206
 20
1519.0
 11
1589.818706732
 21
1513.823619098
  0
LINE
  8
1
  6
CONTINUOUS
 62
     2
 10
1570.500190206
 20
1519.0
 11
1589.818706732
 21
1524.176380902
  0
TEXT
  8
1
  6
CONTINUOUS
 62
     3
 10
1600.500190206
 20
1527.0
 30
2.4
 40
28.0
  1
φ３５Ｈ１０
 50
0.0
 41
0.914285714
 51
0.0
  7
KANJI50
  0
LINE
  8
1
  6
CONTINUOUS
 62
     2
 10
1553.000190206
 20
1576.5
 11
1553.000190206
 21
1436.5
  0
LINE
  8
1
  6
CONTINUOUS
 62
     2
 10
1553.000190206
 20
1452.5
 11
1533.68167368
 21
1457.676380902
  0
LINE
  8
1
  6
CONTINUOUS
 62
     2
 10
1553.000190206
 20
1452.5
 11
1533.68167368
 21
1447.323619098
  0
LINE
  8
1
  6
CONTINUOUS
 62
     2
 10
1553.000190206
 20
1452.5
 11
1488.0
 21
1452.5
  0
LINE
  8
1
  6
CONTINUOUS
 62
     2
 10
1488.0
 20
1452.5
 11
1507.318516526
 21
1447.323619098
  0
LINE
  8
1
  6
CONTINUOUS
 62
     2
 10
1488.0
 20
1452.5
 11
1507.318516526
 21
1457.676380902
  0
LINE
  8
1
  6
CONTINUOUS
 62
     2
 10
1488.0
 20
1579.5
 11
1488.0
 21
1436.5
  0
TEXT
  8
1
  6
CONTINUOUS
 62
     3
 10
1493.700095103
 20
1460.5
 30
2.4
 40
28.0
  1
６５
 50
0.0
 41
0.914285714
 51
0.0
  7
KANJI50
  0
LINE
  8
0
  6
CONTINUOUS
 62
     1
 10
1488.0
 20
1605.0
 11
1591.000190206
 21
1605.0
  0
LINE
  8
0
  6
CONTINUOUS
 62
     1
 10
1488.0
 20
1645.0
 11
1591.000190206
 21
1645.0
  0
LINE
  8
0
  6
CONTINUOUS
 62
     1
 10
1488.0
 20
1662.5
 11
1488.0
 21
1645.0
  0
LINE
  8
0
  6
CONTINUOUS
 62
     1
 10
1488.0
 20
1605.0
 11
1488.0
 21
1587.5
  0
LINE
  8
0
  6
CONTINUOUS
 62
     1
 10
1581.000190206
 20
1605.0
 11
1581.000190206
 21
1645.0
  0
LINE
  8
0
  6
CONTINUOUS
 62
     1
 10
1591.000190206
 20
1605.0
 11
1591.000190206
 21
1645.0
  0
LINE
  8
1
  6
CONTINUOUS
 62
     2
 10
1599.000190206
 20
1605.0
 11
1688.499190206
 21
1605.0
  0
LINE
  8
1
  6
CONTINUOUS
 62
     2
 10
1672.499190206
 20
1605.0
 11
1677.675571108
 21
1624.318516526
  0
LINE
  8
1
  6
CONTINUOUS
 62
     2
 10
1672.499190206
 20
1605.0
 11
1667.322809304
 21
1624.318516526
  0
LINE
  8
1
  6
CONTINUOUS
 62
     2
 10
1672.499190206
 20
1605.0
 11
1672.499190206
 21
1645.0
  0
LINE
  8
1
  6
CONTINUOUS
 62
     2
 10
1672.499190206
 20
1645.0
 11
1667.322809304
 21
1625.681483474
  0
LINE
  8
1
  6
CONTINUOUS
 62
     2
 10
1672.499190206
 20
1645.0
 11
1677.675571108
 21
1625.681483474
  0
LINE
  8
1
  6
CONTINUOUS
 62
     2
 10
1599.000190206
 20
1645.0
 11
1688.499190206
 21
1645.0
  0
TEXT
  8
1
  6
CONTINUOUS
 62
     3
 10
1664.499190206
 20
1598.2
 30
2.4
 40
28.0
  1
４０
 50
90.0
 41
0.914285714
 51
0.0
  7
KANJI50
  0
LINE
  8
1
  6
CONTINUOUS
 62
     2
 10
2049.5
 20
1172.000030518
 11
2049.5
 21
986.0
  0
LINE
  8
1
  6
CONTINUOUS
 62
     2
 10
2049.5
 20
1002.0
 11
2068.818516526
 21
996.823619098
  0
LINE
  8
1
  6
CONTINUOUS
 62
     2
 10
2049.5
 20
1002.0
 11
2068.818516526
 21
1007.176380902
  0
LINE
  8
1
  6
CONTINUOUS
 62
     2
 10
2049.5
 20
1002.0
 11
2309.5
 21
1002.0
  0
LINE
  8
1
  6
CONTINUOUS
 62
     2
 10
2309.5
 20
1002.0
 11
2290.181483474
 21
1007.176380902
  0
LINE
  8
1
  6
CONTINUOUS
 62
     2
 10
2309.5
 20
1002.0
 11
2290.181483474
 21
996.823619098
  0
LINE
  8
1
  6
CONTINUOUS
 62
     2
 10
2309.5
 20
1172.0
 11
2309.5
 21
986.0
  0
TEXT
  8
1
  6
CONTINUOUS
 62
     3
 10
2138.7
 20
1010.0
 30
2.4
 40
28.0
  1
２６０
 50
0.0
 41
0.914285714
 51
0.0
  7
KANJI50
  0
LINE
  8
1
  6
CONTINUOUS
 62
     2
 10
2039.5
 20
1242.0
 11
2039.5
 21
928.0
  0
LINE
  8
1
  6
CONTINUOUS
 62
     2
 10
2039.5
 20
944.0
 11
2058.818516526
 21
938.823619098
  0
LINE
  8
1
  6
CONTINUOUS
 62
     2
 10
2039.5
 20
944.0
 11
2058.818516526
 21
949.176380902
  0
LINE
  8
1
  6
CONTINUOUS
 62
     2
 10
2039.5
 20
944.0
 11
2319.5
 21
944.0
  0
LINE
  8
1
  6
CONTINUOUS
 62
     2
 10
2319.5
 20
944.0
 11
2300.181483474
 21
949.176380902
  0
LINE
  8
1
  6
CONTINUOUS
 62
     2
 10
2319.5
 20
944.0
 11
2300.181483474
 21
938.823619098
  0
LINE
  8
1
  6
CONTINUOUS
 62
     2
 10
2319.5
 20
1242.0
 11
2319.5
 21
928.0
  0
TEXT
  8
1
  6
CONTINUOUS
 62
     3
 10
2138.7
 20
952.0
 30
2.4
 40
28.0
  1
２８０
 50
0.0
 41
0.914285714
 51
0.0
  7
KANJI50
  0
LINE
  8
1
  6
CONTINUOUS
 62
     2
 10
2031.5
 20
1277.5
 11
1980.0
 21
1277.5
  0
LINE
  8
1
  6
CONTINUOUS
 62
     2
 10
1996.0
 20
1277.5
 11
1990.823619098
 21
1258.181483474
  0
LINE
  8
1
  6
CONTINUOUS
 62
     2
 10
1996.0
 20
1277.5
 11
2001.176380902
 21
1258.181483474
  0
LINE
  8
1
  6
CONTINUOUS
 62
     2
 10
1996.0
 20
1247.5
 11
1996.0
 21
1277.5
  0
LINE
  8
1
  6
CONTINUOUS
 62
     2
 10
1996.0
 20
1277.5
 11
1996.0
 21
1322.5
  0
LINE
  8
1
  6
CONTINUOUS
 62
     2
 10
1996.0
 20
1322.5
 11
1996.0
 21
1686.1
  0
LINE
  8
1
  6
CONTINUOUS
 62
     2
 10
1996.0
 20
1322.5
 11
2001.176380902
 21
1341.818516526
  0
LINE
  8
1
  6
CONTINUOUS
 62
     2
 10
1996.0
 20
1322.5
 11
1990.823619098
 21
1341.818516526
  0
LINE
  8
1
  6
CONTINUOUS
 62
     2
 10
2031.5
 20
1322.5
 11
1980.0
 21
1322.5
  0
TEXT
  8
1
  6
CONTINUOUS
 62
     3
 10
1988.0
 20
1352.5
 30
2.4
 40
28.0
  1
φ４５Ｈ１０　　深さ５０
 50
90.0
 41
0.914285714
 51
0.0
  7
KANJI50
  0
LINE
  8
0
  6
LTYPE1
 62
     2
 10
2330.000030518
 20
1300.0
 11
2027.500030518
 21
1300.0
  0
LINE
  8
1
  6
CONTINUOUS
 62
     2
 10
2056.500030518
 20
1165.0
 11
1930.000030518
 21
1165.0
  0
LINE
  8
1
  6
CONTINUOUS
 62
     2
 10
1946.000030518
 20
1165.0
 11
1951.17641142
 21
1184.318516526
  0
LINE
  8
1
  6
CONTINUOUS
 62
     2
 10
1946.000030518
 20
1165.0
 11
1940.823649616
 21
1184.318516526
  0
LINE
  8
1
  6
CONTINUOUS
 62
     2
 10
1946.000030518
 20
1165.0
 11
1946.000030518
 21
1300.0
  0
LINE
  8
1
  6
CONTINUOUS
 62
     2
 10
1946.000030518
 20
1300.0
 11
1940.823649616
 21
1280.681483474
  0
LINE
  8
1
  6
CONTINUOUS
 62
     2
 10
1946.000030518
 20
1300.0
 11
1951.17641142
 21
1280.681483474
  0
LINE
  8
1
  6
CONTINUOUS
 62
     2
 10
2019.500030518
 20
1300.0
 11
1930.000030518
 21
1300.0
  0
TEXT
  8
1
  6
CONTINUOUS
 62
     3
 10
1938.000030518
 20
1191.7
 30
2.4
 40
28.0
  1
１３５
 50
90.0
 41
0.914285714
 51
0.0
  7
KANJI50
  0
LINE
  8
1
  6
CONTINUOUS
 62
     2
 10
2029.1
 20
1584.0
 11
1991.000030518
 21
1584.0
  0
TEXT
  8
0
  6
CONTINUOUS
 62
     3
 10
2432.0
 20
901.6
 30
16.0
 40
32.0
  1
特記事項
 50
0.0
 41
0.9
 51
0.0
  7
KANJI51
  0
TEXT
  8
0
  6
CONTINUOUS
 62
     3
 10
2320.0
 20
837.6
 30
8.228571429
 40
28.8
  1
１。運転時は必ずピストンロッドの回転防止を行って下さい。
 50
0.0
 41
0.857142857
 51
0.0
  7
KANJI52
  0
TEXT
  8
0
  6
CONTINUOUS
 62
     3
 10
2320.0
 20
785.2
 30
8.208
 40
28.8
  1
２。モートル：全閉自冷かご形３０分定格
 50
0.0
 41
0.857222222
 51
0.0
  7
KANJI53
  0
TEXT
  8
0
  6
CONTINUOUS
 62
     3
 10
2320.0
 20
734.4
 30
8.208
 40
28.8
  1
３。ＬＳユニット
 50
0.0
 41
0.857222222
 51
0.0
  7
KANJI53
  0
TEXT
  8
0
  6
CONTINUOUS
 62
     2
 10
944.5
 20
509.4
 30
2.4
 40
24.0
  1
１０００
 50
0.0
 41
0.9
 51
0.0
  7
KANJI0
  0
TEXT
  8
0
  6
CONTINUOUS
 62
     2
 10
1286.0
 20
623.6
 30
2.4
 40
24.0
  1
８６５
 50
0.0
 41
0.9
 51
0.0
  7
KANJI0
  0
TEXT
  8
0
  6
CONTINUOUS
 62
     2
 10
1445.6
 20
625.0
 30
2.4
 40
24.0
  1
７４５
 50
0.0
 41
0.9
 51
0.0
  7
KANJI0
  0
TEXT
  8
0
  6
CONTINUOUS
 62
     2
 10
1445.6
 20
569.0
 30
2.4
 40
24.0
  1
９４５
 50
0.0
 41
0.9
 51
0.0
  7
KANJI0
  0
TEXT
  8
0
  6
CONTINUOUS
 62
     2
 10
1420.6
 20
513.0
 30
2.4
 40
24.0
  1
１４８５
 50
0.0
 41
0.9
 51
0.0
  7
KANJI0
  0
TEXT
  8
0
  6
CONTINUOUS
 62
     2
 10
1619.8
 20
625.0
 30
2.4
 40
24.0
  1
５０
 50
0.0
 41
0.9
 51
0.0
  7
KANJI0
  0
LINE
  8
1
  6
CONTINUOUS
 62
     2
 10
1137.5
 20
1319.5
 11
1150.425968938
 21
1334.761694762
  0
LINE
  8
1
  6
CONTINUOUS
 62
     2
 10
1137.5
 20
1319.5
 11
1141.063370087
 21
1339.179999838
  0
LINE
  8
1
  6
CONTINUOUS
 62
     2
 10
1137.5
 20
1319.5
 11
1179.5
 21
1408.5
  0
LINE
  8
1
  6
CONTINUOUS
 62
     2
 10
1179.5
 20
1408.5
 11
1249.1
 21
1408.5
  0
TEXT
  8
1
  6
CONTINUOUS
 62
     3
 10
1179.5
 20
1416.5
 30
2.4
 40
24.0
  1
給脂口
 50
0.0
 41
0.9
 51
0.0
  7
KANJI0
  0
LINE
  8
0
  6
CONTINUOUS
 62
     1
 10
1339.149691586
 20
1318.482623085
 11
1339.149691586
 21
1306.482623085
  0
LINE
  8
1
  6
CONTINUOUS
 62
     2
 10
1029.0
 20
1357.0
 11
1023.823619098
 21
1337.681483474
  0
LINE
  8
1
  6
CONTINUOUS
 62
     2
 10
1029.0
 20
1357.0
 11
1034.176380902
 21
1337.681483474
  0
LINE
  8
1
  6
CONTINUOUS
 62
     2
 10
1029.0
 20
1357.0
 11
1029.0
 21
1243.0
  0
LINE
  8
1
  6
CONTINUOUS
 62
     2
 10
1029.0
 20
1243.0
 11
1034.176380902
 21
1262.318516526
  0
LINE
  8
1
  6
CONTINUOUS
 62
     2
 10
1029.0
 20
1243.0
 11
1023.823619098
 21
1262.318516526
  0
TEXT
  8
1
  6
CONTINUOUS
 62
     3
 10
1021.0
 20
1245.2
 30
2.4
 40
28.0
  1
φ１１４
 50
90.0
 41
0.914285714
 51
0.0
  7
KANJI50
  0
TEXT
  8
1
  6
CONTINUOUS
 62
     3
 10
1379.699095103
 20
963.5
 30
2.4
 40
28.0
  1
ｍｉｎ．Ｐ
 50
0.0
 41
0.914285714
 51
0.0
  7
KANJI50
  0
LINE
  8
0
  6
CONTINUOUS
 62
     1
 10
2127.250969007
 20
1347.0
 11
2127.250969007
 21
1257.0
  0
LINE
  8
0
  6
CONTINUOUS
 62
     1
 10
2231.749030993
 20
1347.0
 11
2231.749030993
 21
1257.0
  0
LINE
  8
0
  6
CONTINUOUS
 62
     1
 10
1590.999190206
 20
1332.5
 11
1590.999190206
 21
1300.0
  0
LINE
  8
0
  6
CONTINUOUS
 62
     1
 10
1585.999190206
 20
1337.5
 11
1590.999190206
 21
1332.5
  0
LINE
  8
0
  6
CONTINUOUS
 62
     1
 10
1590.999190206
 20
1267.5
 11
1590.999190206
 21
1300.0
  0
LINE
  8
0
  6
CONTINUOUS
 62
     1
 10
1590.999190206
 20
1267.5
 11
1585.999190206
 21
1262.5
  0
LINE
  8
0
  6
CONTINUOUS
 62
     1
 10
1585.999190206
 20
1330.388736054
 11
1488.0
 21
1330.388736054
  0
LINE
  8
0
  6
CONTINUOUS
 62
     1
 10
1585.999190206
 20
1337.5
 11
1585.999190206
 21
1330.388736054
  0
LINE
  8
0
  6
CONTINUOUS
 62
     1
 10
1585.999190206
 20
1269.611263946
 11
1488.0
 21
1269.611263946
  0
LINE
  8
0
  6
CONTINUOUS
 62
     1
 10
1585.999190206
 20
1262.5
 11
1585.999190206
 21
1269.611263946
  0
LINE
  8
0
  6
CONTINUOUS
 62
     1
 10
1585.999190206
 20
1269.611263946
 11
1590.699190206
 21
1274.311263946
  0
LINE
  8
0
  6
CONTINUOUS
 62
     1
 10
1585.999190206
 20
1330.388736054
 11
1590.699190206
 21
1325.688736054
  0
ARC
  8
0
  6
CONTINUOUS
 62
     1
 10
2179.5
 20
1300.0
 40
32.25
 50
39.177393686
 51
140.822606314
  0
ARC
  8
0
  6
CONTINUOUS
 62
     1
 10
2179.5
 20
1300.0
 40
32.25
 50
219.177393686
 51
320.822606314
  0
LINE
  8
0
  6
CONTINUOUS
 62
     1
 10
1263.149691586
 20
1357.0
 11
919.0
 21
1357.0
  0
LINE
  8
0
  6
CONTINUOUS
 62
     1
 10
1432.999
 20
1243.0
 11
1339.149691586
 21
1243.0
  0
LINE
  8
0
  6
CONTINUOUS
 62
     1
 10
1263.149691586
 20
1243.0
 11
919.0
 21
1243.0
  0
LINE
  8
0
  6
CONTINUOUS
 62
     1
 10
1323.149691586
 20
1243.0
 11
1279.149691586
 21
1243.0
  0
LINE
  8
0
  6
CONTINUOUS
 62
     1
 10
1263.149691586
 20
1234.2
 11
1263.149691586
 21
1243.0
  0
LINE
  8
0
  6
CONTINUOUS
 62
     1
 10
1279.149691586
 20
1234.2
 11
1279.149691586
 21
1243.0
  0
LINE
  8
0
  6
CONTINUOUS
 62
     1
 10
1323.149691586
 20
1237.5
 11
1323.149691586
 21
1243.0
  0
LINE
  8
0
  6
CONTINUOUS
 62
     1
 10
1339.149691586
 20
1234.2
 11
1339.149691586
 21
1243.0
  0
LINE
  8
0
  6
LTYPE2
 62
     2
 10
1301.149691586
 20
1154.0
 11
1301.149691586
 21
1219.3
  0
LINE
  8
0
  6
CONTINUOUS
 62
     1
 10
1236.149691586
 20
1211.0
 11
1366.149691586
 21
1211.0
  0
LINE
  8
0
  6
CONTINUOUS
 62
     1
 10
1373.849691586
 20
1204.0
 11
1373.849691586
 21
1178.6
  0
LINE
  8
0
  6
CONTINUOUS
 62
     1
 10
1348.449691586
 20
1204.0
 11
1373.849691586
 21
1204.0
  0
LINE
  8
0
  6
CONTINUOUS
 62
     1
 10
1236.149691586
 20
1205.0
 11
1236.149691586
 21
1211.0
  0
LINE
  8
0
  6
CONTINUOUS
 62
     1
 10
1236.149691586
 20
1205.0
 11
1366.149691586
 21
1205.0
  0
LINE
  8
0
  6
CONTINUOUS
 62
     1
 10
1366.149691586
 20
1205.0
 11
1366.149691586
 21
1211.0
  0
LINE
  8
0
  6
CONTINUOUS
 62
     1
 10
1348.449691586
 20
1178.6
 11
1373.849691586
 21
1178.6
  0
LINE
  8
0
  6
CONTINUOUS
 62
     1
 10
1279.749691586
 20
1205.0
 11
1279.749691586
 21
1165.0
  0
LINE
  8
0
  6
CONTINUOUS
 62
     1
 10
1348.449691586
 20
1205.0
 11
1348.449691586
 21
1165.0
  0
LINE
  8
0
  6
LTYPE3
 62
     2
 10
1284.849691586
 20
1174.23
 11
1279.849691586
 21
1174.23
  0
LINE
  8
0
  6
LTYPE3
 62
     2
 10
1284.849691586
 20
1175.385
 11
1279.849691586
 21
1175.385
  0
LINE
  8
0
  6
LTYPE3
 62
     2
 10
1284.849691586
 20
1195.17
 11
1279.849691586
 21
1195.17
  0
LINE
  8
0
  6
LTYPE3
 62
     2
 10
1284.849691586
 20
1194.015
 11
1279.849691586
 21
1194.015
  0
LINE
  8
0
  6
LTYPE3
 62
     2
 10
1284.849691586
 20
1195.17
 11
1279.849691586
 21
1195.17
  0
LINE
  8
0
  6
LTYPE2
 62
     2
 10
1358.149691586
 20
1190.1875
 11
1358.149691586
 21
1150.2
  0
LINE
  8
0
  6
CONTINUOUS
 62
     1
 10
1228.449691586
 20
1204.0
 11
1228.449691586
 21
1178.6
  0
LINE
  8
0
  6
CONTINUOUS
 62
     1
 10
1253.849691586
 20
1204.0
 11
1228.449691586
 21
1204.0
  0
LINE
  8
0
  6
CONTINUOUS
 62
     1
 10
1253.849691586
 20
1178.6
 11
1228.449691586
 21
1178.6
  0
LINE
  8
0
  6
CONTINUOUS
 62
     1
 10
1253.849691586
 20
1205.0
 11
1253.849691586
 21
1165.0
  0
LINE
  8
0
  6
CONTINUOUS
 62
     1
 10
1285.149691586
 20
1150.0
 11
1285.149691586
 21
1165.0
  0
LINE
  8
0
  6
CONTINUOUS
 62
     1
 10
1285.149691586
 20
1150.0
 11
1317.149691586
 21
1150.0
  0
LINE
  8
0
  6
CONTINUOUS
 62
     1
 10
1317.149691586
 20
1150.0
 11
1317.149691586
 21
1165.0
  0
LINE
  8
0
  6
LTYPE4
 62
     2
 10
1284.849691586
 20
1183.7
 11
1275.749691586
 21
1183.7
  0
LINE
  8
0
  6
CONTINUOUS
 62
     1
 10
1253.849691586
 20
1171.0
 11
1348.449691586
 21
1171.0
  0
LINE
  8
0
  6
CONTINUOUS
 62
     1
 10
1253.849691586
 20
1165.0
 11
1348.449691586
 21
1165.0
  0
LINE
  8
0
  6
CONTINUOUS
 62
     1
 10
1263.149691586
 20
1211.0
 11
1263.149691586
 21
1234.2
  0
LINE
  8
0
  6
CONTINUOUS
 62
     1
 10
1279.149691586
 20
1211.0
 11
1279.149691586
 21
1234.2
  0
LINE
  8
0
  6
CONTINUOUS
 62
     1
 10
1339.149691586
 20
1211.0
 11
1339.149691586
 21
1234.2
  0
LINE
  8
0
  6
CONTINUOUS
 62
     1
 10
1323.149691586
 20
1211.0
 11
1323.149691586
 21
1237.5
  0
LINE
  8
0
  6
CONTINUOUS
 62
     1
 10
1466.999190206
 20
1205.9
 11
1466.999190206
 21
1243.0
  0
LINE
  8
0
  6
CONTINUOUS
 62
     1
 10
1482.999190206
 20
1215.6
 11
1482.999190206
 21
1243.0
  0
LINE
  8
0
  6
CONTINUOUS
 62
     1
 10
1389.149691586
 20
1155.0
 11
1403.006098046
 21
1147.0
  0
LINE
  8
0
  6
LTYPE3
 62
     2
 10
1389.149691586
 20
1157.0
 11
1439.149691586
 21
1157.0
  0
LINE
  8
0
  6
CONTINUOUS
 62
     1
 10
1403.006098046
 20
1147.0
 11
1425.293285125
 21
1147.0
  0
LINE
  8
0
  6
LTYPE3
 62
     2
 10
1389.149691586
 20
1169.0
 11
1439.149691586
 21
1169.0
  0
LINE
  8
0
  6
CONTINUOUS
 62
     1
 10
1389.149691586
 20
1171.0
 11
1403.006098046
 21
1179.0
  0
LINE
  8
0
  6
CONTINUOUS
 62
     1
 10
1403.006098046
 20
1179.0
 11
1425.293285125
 21
1179.0
  0
LINE
  8
0
  6
CONTINUOUS
 62
     1
 10
1439.149691586
 20
1171.0
 11
1425.293285125
 21
1179.0
  0
LINE
  8
0
  6
CONTINUOUS
 62
     1
 10
1439.149691586
 20
1155.0
 11
1439.149691586
 21
1171.0
  0
LINE
  8
0
  6
CONTINUOUS
 62
     1
 10
1439.149691586
 20
1155.0
 11
1425.293285125
 21
1147.0
  0
LINE
  8
0
  6
CONTINUOUS
 62
     1
 10
1425.293285125
 20
1147.0
 11
1425.293285125
 21
1179.0
  0
LINE
  8
0
  6
CONTINUOUS
 62
     1
 10
1403.006098046
 20
1147.0
 11
1425.293285125
 21
1147.0
  0
LINE
  8
0
  6
CONTINUOUS
 62
     1
 10
1403.006098046
 20
1147.0
 11
1403.006098046
 21
1179.0
  0
LINE
  8
0
  6
CONTINUOUS
 62
     1
 10
1389.149691586
 20
1155.0
 11
1389.149691586
 21
1171.0
  0
CIRCLE
  8
0
  6
CONTINUOUS
 62
     2
 10
1414.149691586
 20
1163.0
 40
5.0
  0
CIRCLE
  8
0
  6
CONTINUOUS
 62
     2
 10
1414.149691586
 20
1163.0
 40
4.0
  0
LINE
  8
0
  6
LTYPE2
 62
     2
 10
1414.149691586
 20
1153.0
 11
1414.149691586
 21
1173.0
  0
LINE
  8
0
  6
CONTINUOUS
 62
     1
 10
1439.149691586
 20
1169.0
 11
1466.925190206
 21
1169.0
  0
LINE
  8
0
  6
CONTINUOUS
 62
     1
 10
1439.149691586
 20
1157.0
 11
1466.925190206
 21
1157.0
  0
LINE
  8
0
  6
CONTINUOUS
 62
     1
 10
1482.999190206
 20
1163.0
 11
1482.999190206
 21
1170.49406
  0
LINE
  8
0
  6
CONTINUOUS
 62
     1
 10
1482.999190206
 20
1163.0
 11
1482.999190206
 21
1155.50594
  0
LINE
  8
0
  6
CONTINUOUS
 62
     1
 10
1488.499090206
 20
1168.65878
 11
1487.439490804
 21
1170.49406
  0
LINE
  8
0
  6
CONTINUOUS
 62
     1
 10
1488.499090206
 20
1163.0
 11
1488.499090206
 21
1168.65878
  0
LINE
  8
0
  6
CONTINUOUS
 62
     1
 10
1488.499090206
 20
1157.34122
 11
1487.439490804
 21
1155.50594
  0
LINE
  8
0
  6
CONTINUOUS
 62
     1
 10
1488.499090206
 20
1163.0
 11
1488.499090206
 21
1157.34122
  0
ARC
  8
0
  6
CONTINUOUS
 62
     1
 10
1481.344034869
 20
1163.0
 40
7.155055337
 50
328.419912243
 51
31.580087757
  0
ARC
  8
0
  6
CONTINUOUS
 62
     1
 10
1486.31366644
 20
1168.620545
 40
2.185758211
 50
301.002313915
 51
2.989498403
  0
LINE
  8
0
  6
CONTINUOUS
 62
     1
 10
1488.499090206
 20
1157.34122
 11
1487.439490804
 21
1155.50594
  0
ARC
  8
0
  6
CONTINUOUS
 62
     1
 10
1486.31366644
 20
1157.379455
 40
2.185758211
 50
357.010501597
 51
58.997686085
  0
LINE
  8
0
  6
CONTINUOUS
 62
     1
 10
1482.999190206
 20
1170.49406
 11
1487.439490804
 21
1170.49406
  0
LINE
  8
0
  6
CONTINUOUS
 62
     1
 10
1482.999190206
 20
1166.74703
 11
1487.439490804
 21
1166.74703
  0
LINE
  8
0
  6
CONTINUOUS
 62
     1
 10
1482.999190206
 20
1159.25297
 11
1487.439490804
 21
1159.25297
  0
LINE
  8
0
  6
CONTINUOUS
 62
     1
 10
1482.999190206
 20
1155.50594
 11
1487.439490804
 21
1155.50594
  0
LINE
  8
0
  6
CONTINUOUS
 62
     1
 10
1488.499090206
 20
1159.0
 11
1493.499090206
 21
1159.0
  0
LINE
  8
0
  6
CONTINUOUS
 62
     1
 10
1488.499090206
 20
1167.0
 11
1493.499090206
 21
1167.0
  0
LINE
  8
0
  6
CONTINUOUS
 62
     1
 10
1493.499090206
 20
1159.0
 11
1493.499090206
 21
1167.0
  0
LINE
  8
0
  6
CONTINUOUS
 62
     2
 10
1488.499090206
 20
1166.2
 11
1493.499090206
 21
1166.2
  0
LINE
  8
0
  6
CONTINUOUS
 62
     2
 10
1488.499090206
 20
1159.8
 11
1493.499090206
 21
1159.8
  0
LINE
  8
0
  6
LTYPE4
 62
     2
 10
897.4
 20
1163.0
 11
1498.649691586
 21
1163.0
  0
LINE
  8
0
  6
CONTINUOUS
 62
     1
 10
1466.999190206
 20
1150.0
 11
1466.999190206
 21
1205.9
  0
LINE
  8
0
  6
CONTINUOUS
 62
     1
 10
1482.999190206
 20
1150.0
 11
1482.999190206
 21
1215.6
  0
LINE
  8
0
  6
CONTINUOUS
 62
     1
 10
1466.999190206
 20
1150.0
 11
1482.999190206
 21
1150.0
  0
LINE
  8
0
  6
CONTINUOUS
 62
     1
 10
1348.449691586
 20
1169.0
 11
1389.149691586
 21
1169.0
  0
LINE
  8
0
  6
CONTINUOUS
 62
     1
 10
1317.149691586
 20
1157.0
 11
1389.149691586
 21
1157.0
  0
LINE
  8
0
  6
CONTINUOUS
 62
     1
 10
974.274192965
 20
1169.0
 11
1253.849691586
 21
1169.0
  0
LINE
  8
0
  6
CONTINUOUS
 62
     1
 10
974.274192965
 20
1157.0
 11
1285.149691586
 21
1157.0
  0
LINE
  8
0
  6
CONTINUOUS
 62
     1
 10
924.274192965
 20
1155.0
 11
938.130599426
 21
1147.0
  0
LINE
  8
0
  6
LTYPE3
 62
     2
 10
924.274192965
 20
1157.0
 11
974.274192965
 21
1157.0
  0
LINE
  8
0
  6
CONTINUOUS
 62
     1
 10
938.130599426
 20
1147.0
 11
960.417786504
 21
1147.0
  0
LINE
  8
0
  6
LTYPE3
 62
     2
 10
924.274192965
 20
1169.0
 11
974.274192965
 21
1169.0
  0
LINE
  8
0
  6
CONTINUOUS
 62
     1
 10
924.274192965
 20
1171.0
 11
938.130599426
 21
1179.0
  0
LINE
  8
0
  6
CONTINUOUS
 62
     1
 10
938.130599426
 20
1179.0
 11
960.417786504
 21
1179.0
  0
LINE
  8
0
  6
CONTINUOUS
 62
     1
 10
974.274192965
 20
1171.0
 11
960.417786504
 21
1179.0
  0
LINE
  8
0
  6
CONTINUOUS
 62
     1
 10
974.274192965
 20
1155.0
 11
974.274192965
 21
1171.0
  0
LINE
  8
0
  6
CONTINUOUS
 62
     1
 10
974.274192965
 20
1155.0
 11
960.417786504
 21
1147.0
  0
LINE
  8
0
  6
CONTINUOUS
 62
     1
 10
960.417786504
 20
1147.0
 11
960.417786504
 21
1179.0
  0
LINE
  8
0
  6
CONTINUOUS
 62
     1
 10
938.130599426
 20
1147.0
 11
960.417786504
 21
1147.0
  0
LINE
  8
0
  6
CONTINUOUS
 62
     1
 10
938.130599426
 20
1147.0
 11
938.130599426
 21
1179.0
  0
LINE
  8
0
  6
CONTINUOUS
 62
     1
 10
924.274192965
 20
1155.0
 11
924.274192965
 21
1171.0
  0
CIRCLE
  8
0
  6
CONTINUOUS
 62
     2
 10
949.274192965
 20
1163.0
 40
5.0
  0
CIRCLE
  8
0
  6
CONTINUOUS
 62
     2
 10
949.274192965
 20
1163.0
 40
4.0
  0
LINE
  8
0
  6
LTYPE2
 62
     2
 10
949.274192965
 20
1153.0
 11
949.274192965
 21
1173.0
  0
POINT
  8
0
  6
CONTINUOUS
 62
     1
 10
917.274192965
 20
1157.0
  0
LINE
  8
0
  6
CONTINUOUS
 62
     1
 10
917.274192965
 20
1169.0
 11
924.274192965
 21
1169.0
  0
LINE
  8
0
  6
CONTINUOUS
 62
     1
 10
917.274192965
 20
1169.0
 11
917.274192965
 21
1157.0
  0
LINE
  8
0
  6
CONTINUOUS
 62
     1
 10
924.274192965
 20
1157.0
 11
917.274192965
 21
1157.0
  0
LINE
  8
1
  6
CONTINUOUS
 62
     2
 10
1482.999190206
 20
1147.4
 11
1482.999190206
 21
986.0
  0
LINE
  8
1
  6
CONTINUOUS
 62
     2
 10
1614.0
 20
1300.0
 11
1747.749691586
 21
1300.0
  0
LINE
  8
1
  6
CONTINUOUS
 62
     2
 10
1731.749691586
 20
1300.0
 11
1726.573310684
 21
1280.681483474
  0
LINE
  8
1
  6
CONTINUOUS
 62
     2
 10
1731.749691586
 20
1300.0
 11
1736.926072488
 21
1280.681483474
  0
LINE
  8
1
  6
CONTINUOUS
 62
     2
 10
1731.749691586
 20
1300.0
 11
1731.749691586
 21
1150.0
  0
LINE
  8
1
  6
CONTINUOUS
 62
     2
 10
1731.749691586
 20
1150.0
 11
1736.926072488
 21
1169.318516526
  0
LINE
  8
1
  6
CONTINUOUS
 62
     2
 10
1731.749691586
 20
1150.0
 11
1726.573310684
 21
1169.318516526
  0
LINE
  8
1
  6
CONTINUOUS
 62
     2
 10
1490.999190206
 20
1150.0
 11
1747.749691586
 21
1150.0
  0
TEXT
  8
1
  6
CONTINUOUS
 62
     3
 10
1723.749691586
 20
1184.2
 30
2.4
 40
28.0
  1
１５０
 50
90.0
 41
0.914285714
 51
0.0
  7
KANJI50
  0
LINE
  8
0
  6
CONTINUOUS
 62
     1
 10
2164.5
 20
1150.0
 11
2194.5
 21
1150.0
  0
LINE
  8
0
  6
LTYPE4
 62
     2
 10
2148.6
 20
1163.0
 11
2210.6
 21
1163.0
  0
CIRCLE
  8
0
  6
CONTINUOUS
 62
     1
 10
2179.5
 20
1163.0
 40
6.49995
  0
LINE
  8
0
  6
CONTINUOUS
 62
     1
 10
2185.99995
 20
1166.74703
 11
2185.99995
 21
1159.25297
  0
LINE
  8
0
  6
CONTINUOUS
 62
     1
 10
2185.99995
 20
1159.25297
 11
2179.5
 21
1155.50594
  0
LINE
  8
0
  6
CONTINUOUS
 62
     1
 10
2173.00005
 20
1166.74703
 11
2173.00005
 21
1159.25297
  0
LINE
  8
0
  6
CONTINUOUS
 62
     1
 10
2173.00005
 20
1159.25297
 11
2179.5
 21
1155.50594
  0
LINE
  8
0
  6
CONTINUOUS
 62
     1
 10
2185.99995
 20
1166.74703
 11
2179.5
 21
1170.49406
  0
LINE
  8
0
  6
CONTINUOUS
 62
     1
 10
2173.00005
 20
1166.74703
 11
2179.5
 21
1170.49406
  0
LINE
  8
0
  6
CONTINUOUS
 62
     1
 10
2262.0
 20
1204.0
 11
2262.0
 21
1210.0
  0
LINE
  8
0
  6
CONTINUOUS
 62
     1
 10
2097.0
 20
1204.0
 11
2097.0
 21
1210.0
  0
LINE
  8
0
  6
CONTINUOUS
 62
     1
 10
2101.5
 20
1204.0
 11
2101.5
 21
1204.1
  0
LINE
  8
0
  6
CONTINUOUS
 62
     1
 10
2101.5
 20
1164.0
 11
2101.5
 21
1165.0
  0
LINE
  8
0
  6
CONTINUOUS
 62
     1
 10
2101.5
 20
1164.0
 11
2101.5
 21
1204.0
  0
LINE
  8
0
  6
CONTINUOUS
 62
     1
 10
2141.5
 20
1204.0
 11
2141.5
 21
1164.0
  0
LINE
  8
0
  6
CONTINUOUS
 62
     1
 10
2150.75
 20
1159.5
 11
2150.75
 21
1166.5
  0
LINE
  8
0
  6
LTYPE2
 62
     2
 10
2121.5
 20
1147.4
 11
2121.5
 21
1205.4
  0
LINE
  8
0
  6
LTYPE2
 62
     2
 10
2136.6
 20
1207.4
 11
2136.6
 21
1160.4
  0
LINE
  8
0
  6
LTYPE2
 62
     2
 10
2106.4
 20
1161.4
 11
2106.4
 21
1208.4
  0
LINE
  8
0
  6
CONTINUOUS
 62
     1
 10
2141.5
 20
1161.0
 11
2129.0
 21
1161.0
  0
LINE
  8
0
  6
CONTINUOUS
 62
     1
 10
2150.75
 20
1158.9
 11
2141.5
 21
1161.0
  0
LINE
  8
0
  6
LTYPE2
 62
     2
 10
2159.5
 20
1149.8
 11
2159.5
 21
1169.0
  0
LINE
  8
0
  6
CONTINUOUS
 62
     1
 10
2129.0
 20
1161.0
 11
2114.0
 21
1161.0
  0
ARC
  8
0
  6
CONTINUOUS
 62
     1
 10
2110.8
 20
1180.2
 40
2.0
 50
180.0
 51
270.0
  0
LINE
  8
0
  6
CONTINUOUS
 62
     1
 10
2132.2
 20
1178.2
 11
2110.8
 21
1178.2
  0
ARC
  8
0
  6
CONTINUOUS
 62
     1
 10
2132.2
 20
1180.2
 40
2.0
 50
270.0
 51
360.0
  0
LINE
  8
0
  6
CONTINUOUS
 62
     1
 10
2134.2
 20
1180.2
 11
2134.2
 21
1201.6
  0
ARC
  8
0
  6
CONTINUOUS
 62
     1
 10
2132.2
 20
1201.6
 40
2.0
 50
0.0
 51
90.0
  0
LINE
  8
0
  6
CONTINUOUS
 62
     1
 10
2108.8
 20
1180.2
 11
2108.8
 21
1201.6
  0
LINE
  8
0
  6
CONTINUOUS
 62
     1
 10
2132.2
 20
1203.6
 11
2110.8
 21
1203.6
  0
ARC
  8
0
  6
CONTINUOUS
 62
     1
 10
2110.8
 20
1201.6
 40
2.0
 50
90.0
 51
180.0
  0
LINE
  8
0
  6
LTYPE2
 62
     2
 10
2107.4
 20
1190.9
 11
2135.8
 21
1190.9
  0
LINE
  8
0
  6
CONTINUOUS
 62
     1
 10
2129.0
 20
1151.0
 11
2129.0
 21
1178.2
  0
LINE
  8
0
  6
CONTINUOUS
 62
     1
 10
2114.0
 20
1169.0
 11
2101.5
 21
1169.0
  0
LINE
  8
0
  6
CONTINUOUS
 62
     1
 10
2141.5
 20
1169.0
 11
2128.9
 21
1169.0
  0
LINE
  8
0
  6
CONTINUOUS
 62
     1
 10
2113.9
 20
1164.0
 11
2101.5
 21
1164.0
  0
LINE
  8
0
  6
CONTINUOUS
 62
     1
 10
2141.5
 20
1164.0
 11
2129.0
 21
1164.0
  0
LINE
  8
0
  6
CONTINUOUS
 62
     1
 10
2217.5
 20
1204.0
 11
2217.5
 21
1204.1
  0
LINE
  8
0
  6
CONTINUOUS
 62
     1
 10
2217.5
 20
1164.0
 11
2217.5
 21
1165.0
  0
LINE
  8
0
  6
CONTINUOUS
 62
     1
 10
2217.5
 20
1164.0
 11
2217.5
 21
1204.0
  0
LINE
  8
0
  6
CONTINUOUS
 62
     1
 10
2257.5
 20
1204.0
 11
2257.5
 21
1164.0
  0
LINE
  8
0
  6
CONTINUOUS
 62
     1
 10
2257.5
 20
1164.0
 11
2217.5
 21
1164.0
  0
LINE
  8
0
  6
CONTINUOUS
 62
     1
 10
2257.5
 20
1169.0
 11
2217.5
 21
1169.0
  0
LINE
  8
0
  6
CONTINUOUS
 62
     1
 10
2245.0
 20
1151.0
 11
2245.0
 21
1164.0
  0
LINE
  8
0
  6
CONTINUOUS
 62
     1
 10
2230.0
 20
1151.0
 11
2230.0
 21
1164.0
  0
CIRCLE
  8
0
  6
CONTINUOUS
 62
     1
 10
2237.5
 20
1182.4
 40
9.36
  0
LINE
  8
0
  6
CONTINUOUS
 62
     1
 10
2208.25
 20
1159.5
 11
2208.25
 21
1166.5
  0
LINE
  8
0
  6
LTYPE2
 62
     2
 10
2237.5
 20
1147.4
 11
2237.5
 21
1205.4
  0
LINE
  8
0
  6
LTYPE2
 62
     2
 10
2250.5
 20
1182.4
 11
2224.5
 21
1182.4
  0
LINE
  8
0
  6
LTYPE2
 62
     2
 10
2252.6
 20
1207.4
 11
2252.6
 21
1160.4
  0
LINE
  8
0
  6
LTYPE2
 62
     2
 10
2222.4
 20
1161.4
 11
2222.4
 21
1208.4
  0
LINE
  8
0
  6
LTYPE2
 62
     2
 10
2199.5
 20
1147.4
 11
2199.5
 21
1169.0
  0
CIRCLE
  8
0
  6
CONTINUOUS
 62
     2
 10
2237.5
 20
1182.4
 40
10.47
  0
LINE
  8
0
  6
CONTINUOUS
 62
     1
 10
2217.5
 20
1161.0
 11
2230.0
 21
1161.0
  0
LINE
  8
0
  6
CONTINUOUS
 62
     1
 10
2208.25
 20
1158.9
 11
2217.5
 21
1161.0
  0
LINE
  8
0
  6
CONTINUOUS
 62
     1
 10
2114.0
 20
1151.0
 11
2114.0
 21
1178.2
  0
LINE
  8
0
  6
LTYPE4
 62
     2
 10
2091.5
 20
1163.0
 11
2268.5
 21
1163.0
  0
LINE
  8
0
  6
CONTINUOUS
 62
     1
 10
2159.34375
 20
1166.5
 11
2150.75
 21
1166.5
  0
LINE
  8
0
  6
CONTINUOUS
 62
     1
 10
2161.53125
 20
1159.5
 11
2150.75
 21
1159.5
  0
LINE
  8
0
  6
CONTINUOUS
 62
     1
 10
2208.25
 20
1159.5
 11
2197.46875
 21
1159.5
  0
LINE
  8
0
  6
CONTINUOUS
 62
     1
 10
2208.25
 20
1166.5
 11
2199.5
 21
1166.5
  0
LINE
  8
0
  6
LTYPE3
 62
     2
 10
2190.75
 20
1159.5
 11
2190.75
 21
1166.5
  0
LINE
  8
0
  6
LTYPE3
 62
     2
 10
2199.5
 20
1166.5
 11
2190.75
 21
1166.5
  0
LINE
  8
0
  6
LTYPE3
 62
     2
 10
2197.43125
 20
1159.5
 11
2190.75
 21
1159.5
  0
LINE
  8
0
  6
LTYPE3
 62
     2
 10
2168.25
 20
1159.5
 11
2168.25
 21
1166.5
  0
LINE
  8
0
  6
LTYPE3
 62
     2
 10
2168.25
 20
1166.5
 11
2159.34375
 21
1166.5
  0
CIRCLE
  8
0
  6
CONTINUOUS
 62
     1
 10
2179.5
 20
1163.0
 40
4.0
  0
CIRCLE
  8
0
  6
CONTINUOUS
 62
     2
 10
2179.5
 20
1163.0
 40
3.2
  0
LINE
  8
0
  6
CONTINUOUS
 62
     1
 10
2161.706322676
 20
1159.0
 11
2150.75
 21
1159.0
  0
LINE
  8
0
  6
CONTINUOUS
 62
     1
 10
2164.189591408
 20
1151.0
 11
2114.0
 21
1151.0
  0
LINE
  8
0
  6
CONTINUOUS
 62
     1
 10
2194.810408592
 20
1151.0
 11
2245.0
 21
1151.0
  0
LINE
  8
0
  6
CONTINUOUS
 62
     1
 10
2197.293677324
 20
1159.0
 11
2208.25
 21
1159.0
  0
LINE
  8
0
  6
LTYPE3
 62
     2
 10
2168.25
 20
1159.5
 11
2161.53125
 21
1159.5
  0
LINE
  8
0
  6
LTYPE3
 62
     2
 10
2164.5
 20
1159.0
 11
2161.706322676
 21
1159.0
  0
LINE
  8
0
  6
LTYPE3
 62
     2
 10
2164.5
 20
1151.0
 11
2164.189591408
 21
1151.0
  0
LINE
  8
0
  6
LTYPE3
 62
     2
 10
2164.5
 20
1151.0
 11
2164.5
 21
1159.0
  0
LINE
  8
0
  6
LTYPE3
 62
     2
 10
2194.5
 20
1151.0
 11
2194.5
 21
1159.5
  0
LINE
  8
0
  6
LTYPE3
 62
     2
 10
2194.5
 20
1151.0
 11
2194.810408592
 21
1151.0
  0
LINE
  8
0
  6
LTYPE3
 62
     2
 10
2194.5
 20
1159.0
 11
2197.293677324
 21
1159.0
  0
LINE
  8
0
  6
CONTINUOUS
 62
     1
 10
2164.5
 20
1150.0
 11
2127.250969007
 21
1257.0
  0
LINE
  8
0
  6
CONTINUOUS
 62
     1
 10
2194.5
 20
1150.0
 11
2231.749030993
 21
1257.0
  0
LINE
  8
0
  6
CONTINUOUS
 62
     1
 10
2097.0
 20
1210.0
 11
2143.612692901
 21
1210.0
  0
LINE
  8
0
  6
CONTINUOUS
 62
     1
 10
2097.0
 20
1204.0
 11
2145.701423611
 21
1204.0
  0
LINE
  8
0
  6
CONTINUOUS
 62
     1
 10
2145.701423611
 20
1204.0
 11
2101.5
 21
1204.0
  0
LINE
  8
0
  6
CONTINUOUS
 62
     1
 10
2213.298576389
 20
1204.0
 11
2262.0
 21
1204.0
  0
LINE
  8
0
  6
CONTINUOUS
 62
     1
 10
2215.387307099
 20
1210.0
 11
2262.0
 21
1210.0
  0
ARC
  8
0
  6
CONTINUOUS
 62
     1
 10
2179.5
 20
1300.0
 40
100.0
 50
295.404114359
 51
118.25631605
  0
ARC
  8
0
  6
CONTINUOUS
 62
     1
 10
2179.5
 20
1300.0
 40
92.5
 50
294.932275626
 51
244.908899036
  0
ARC
  8
0
  6
CONTINUOUS
 62
     1
 10
2179.5
 20
1300.0
 40
100.0
 50
171.74368395
 51
244.595885641
  0
TEXT
  8
0
  6
CONTINUOUS
 62
     2
 10
1262.0
 20
567.6
 30
2.4
 40
24.0
  1
１０６５
 50
0.0
 41
0.9
 51
0.0
  7
KANJI0
  0
TEXT
  8
0
  6
CONTINUOUS
 62
     2
 10
1262.0
 20
511.6
 30
2.4
 40
24.0
  1
１６０５
 50
0.0
 41
0.9
 51
0.0
  7
KANJI0
  0
TEXT
  8
0
  6
CONTINUOUS
 62
     2
 10
1594.8
 20
569.0
 30
2.4
 40
24.0
  1
　　５０
 50
0.0
 41
0.9
 51
0.0
  7
KANJI0
  0
TEXT
  8
0
  6
CONTINUOUS
 62
     2
 10
1594.8
 20
513.0
 30
2.4
 40
24.0
  1
　　５０
 50
0.0
 41
0.9
 51
0.0
  7
KANJI0
  0
LINE
  8
0
  6
CONTINUOUS
 62
     1
 10
1483.0
 20
1662.5
 11
1488.0
 21
1662.5
  0
LINE
  8
0
  6
LTYPE3
 62
     2
 10
1535.500190206
 20
1605.0
 11
1535.500190206
 21
1645.0
  0
LINE
  8
0
  6
LTYPE3
 62
     2
 10
1570.500190206
 20
1605.0
 11
1570.500190206
 21
1645.0
  0
LINE
  8
1
  6
CONTINUOUS
 62
     2
 10
1535.500190206
 20
1599.8
 11
1535.500190206
 21
1503.0
  0
LINE
  8
1
  6
CONTINUOUS
 62
     2
 10
1570.500190206
 20
1598.9
 11
1570.500190206
 21
1503.0
  0
LINE
  8
0
  6
CONTINUOUS
 62
     1
 10
1397.999
 20
1357.0
 11
1397.999
 21
1243.0
  0
LINE
  8
0
  6
CONTINUOUS
 62
     1
 10
1432.999
 20
1357.0
 11
1432.999
 21
1243.0
  0
LINE
  8
0
  6
CONTINUOUS
 62
     1
 10
1323.149691586
 20
1357.0
 11
1279.149691586
 21
1357.0
  0
LINE
  8
0
  6
CONTINUOUS
 62
     1
 10
1432.999
 20
1357.0
 11
1339.149691586
 21
1357.0
  0
LINE
  8
0
  6
CONTINUOUS
 62
     1
 10
1483.0
 20
1337.5
 11
1585.999190206
 21
1337.5
  0
LINE
  8
0
  6
CONTINUOUS
 62
     1
 10
1432.999
 20
1337.5
 11
1467.0
 21
1337.5
  0
LINE
  8
0
  6
CONTINUOUS
 62
     1
 10
1482.999190206
 20
1262.5
 11
1585.999190206
 21
1262.5
  0
LINE
  8
0
  6
CONTINUOUS
 62
     1
 10
1432.999
 20
1262.5
 11
1466.999190206
 21
1262.5
  0
ARC
  8
0
  6
CONTINUOUS
 62
     1
 10
2179.5
 20
1300.0
 40
57.0
 50
55.544049539
 51
124.455950461
  0
ARC
  8
0
  6
CONTINUOUS
 62
     1
 10
2179.5
 20
1300.0
 40
57.0
 50
156.441098606
 51
203.558901394
  0
ARC
  8
0
  6
CONTINUOUS
 62
     1
 10
2179.5
 20
1300.0
 40
57.0
 50
336.441098606
 51
0.0
  0
ARC
  8
0
  6
LTYPE3
 62
     2
 10
2179.5
 20
1300.0
 40
57.0
 50
203.558901394
 51
336.441098606
  0
ARC
  8
0
  6
LTYPE3
 62
     2
 10
2179.5
 20
1300.0
 40
57.0
 50
124.455950461
 51
156.441098606
  0
ARC
  8
0
  6
CONTINUOUS
 62
     1
 10
2179.5
 20
1300.0
 40
57.0
 50
0.0
 51
23.558901394
  0
ARC
  8
0
  6
LTYPE3
 62
     2
 10
2179.5
 20
1300.0
 40
57.0
 50
23.558901394
 51
55.544049539
  0
TEXT
  8
0
  6
CONTINUOUS
 62
     2
 10
2999.2
 20
1715.2
 30
20.5
 40
28.0
  1
全閉屋外形
 50
0.0
 41
0.9
 51
0.0
  7
KANJI7
  0
LINE
  8
0
  6
CONTINUOUS
 62
     1
 10
1483.0
 20
1587.5
 11
1488.0
 21
1587.5
  0
LINE
  8
0
  6
CONTINUOUS
 62
     1
 10
1483.0
 20
1662.5
 11
1483.0
 21
1587.5
  0
LINE
  8
0
  6
CONTINUOUS
 62
     1
 10
1421.5
 20
1662.5
 11
1483.0
 21
1662.5
  0
LINE
  8
0
  6
CONTINUOUS
 62
     1
 10
1422.3
 20
1587.5
 11
1483.0
 21
1587.5
  0
TEXT
  8
0
  6
CONTINUOUS
 62
     3
 10
2320.0
 20
688.6
 30
8.208
 40
28.8
  1
　　リミットＳＷ：１ＬＳ１－Ｊ　Ｘ　２ケ（山武）
 50
0.0
 41
0.857222222
 51
0.0
  7
KANJI53
  0
LINE
  8
0
  6
CONTINUOUS
 62
     1
 10
595.0
 20
1165.0
 11
595.0
 21
1407.5
  0
ARC
  8
0
  6
CONTINUOUS
 62
     1
 10
566.0
 20
1650.0
 40
6.0
 50
270.000103033
 51
0.0
  0
LINE
  8
0
  6
CONTINUOUS
 62
     1
 10
630.0
 20
1400.041
 11
653.0
 21
1381.541
  0
LINE
  8
0
  6
CONTINUOUS
 62
     1
 10
630.0
 20
1346.541
 11
630.0
 21
1400.041
  0
LINE
  8
0
  6
CONTINUOUS
 62
     1
 10
778.0
 20
1429.985375069
 11
768.0
 21
1419.985375069
  0
LINE
  8
0
  6
CONTINUOUS
 62
     1
 10
768.0
 20
1361.346778818
 11
768.0
 21
1419.985375069
  0
ARC
  8
0
  6
CONTINUOUS
 62
     1
 10
766.0
 20
1430.507558854
 40
3.0
 50
90.0
 51
180.0
  0
LINE
  8
0
  6
CONTINUOUS
 62
     1
 10
886.0
 20
1361.346778818
 11
886.0
 21
1419.985375069
  0
LINE
  8
0
  6
CONTINUOUS
 62
     1
 10
891.0
 20
1318.698620342
 11
891.0
 21
1430.507558854
  0
ARC
  8
0
  6
CONTINUOUS
 62
     1
 10
888.0
 20
1430.507558854
 40
3.0
 50
0.0
 51
90.0
  0
LINE
  8
0
  6
CONTINUOUS
 62
     1
 10
886.0
 20
1419.985375069
 11
876.0
 21
1429.985375069
  0
LINE
  8
0
  6
CONTINUOUS
 62
     1
 10
778.0
 20
1429.985375069
 11
876.0
 21
1429.985375069
  0
LINE
  8
0
  6
CONTINUOUS
 62
     1
 10
766.0
 20
1433.507558854
 11
888.0
 21
1433.507558854
  0
LINE
  8
0
  6
CONTINUOUS
 62
     1
 10
896.0
 20
1345.307636349
 11
896.0
 21
1402.17371812
  0
LINE
  8
0
  6
CONTINUOUS
 62
     1
 10
891.0
 20
1402.17371812
 11
896.0
 21
1402.17371812
  0
LINE
  8
0
  6
CONTINUOUS
 62
     1
 10
763.0
 20
1300.041
 11
763.0
 21
1430.041
  0
LINE
  8
0
  6
CONTINUOUS
 62
     1
 10
595.0
 20
1400.041
 11
630.0
 21
1400.041
  0
LINE
  8
0
  6
LTYPE1
 62
     2
 10
603.0
 20
1695.0
 11
529.0
 21
1695.0
  0
LINE
  8
0
  6
CONTINUOUS
 62
     1
 10
595.0
 20
1406.0
 11
606.0
 21
1406.0
  0
LINE
  8
0
  6
CONTINUOUS
 62
     1
 10
984.5
 20
1522.3
 11
990.4
 21
1522.3
  0
LINE
  8
0
  6
CONTINUOUS
 62
     1
 10
984.5
 20
1539.7
 11
990.4
 21
1539.7
  0
LINE
  8
0
  6
CONTINUOUS
 62
     1
 10
998.0
 20
1521.0
 11
998.0
 21
1530.9
  0
LINE
  8
0
  6
CONTINUOUS
 62
     1
 10
991.4
 20
1521.0
 11
998.0
 21
1521.0
  0
LINE
  8
0
  6
CONTINUOUS
 62
     1
 10
991.4
 20
1526.0
 11
998.0
 21
1526.0
  0
LINE
  8
0
  6
CONTINUOUS
 62
     1
 10
998.0
 20
1541.0
 11
998.0
 21
1531.1
  0
LINE
  8
0
  6
CONTINUOUS
 62
     1
 10
991.4
 20
1541.0
 11
998.0
 21
1541.0
  0
LINE
  8
0
  6
CONTINUOUS
 62
     1
 10
991.4
 20
1536.0
 11
998.0
 21
1536.0
  0
LINE
  8
0
  6
LTYPE2
 62
     2
 10
792.5
 20
1612.843067336
 11
792.5
 21
1653.143067336
  0
LINE
  8
0
  6
CONTINUOUS
 62
     1
 10
882.5
 20
1661.0
 11
882.5
 21
1701.0
  0
LINE
  8
0
  6
CONTINUOUS
 62
     1
 10
882.5
 20
1701.0
 11
856.8
 21
1701.0
  0
LINE
  8
0
  6
CONTINUOUS
 62
     1
 10
882.5
 20
1661.0
 11
856.8
 21
1661.0
  0
ARC
  8
0
  6
CONTINUOUS
 62
     1
 10
850.8
 20
1655.7
 40
6.0
 50
270.0
 51
0.0
  0
ARC
  8
0
  6
CONTINUOUS
 62
     1
 10
737.319480257
 20
1655.7
 40
6.0
 50
190.033164511
 51
270.0
  0
LINE
  8
0
  6
CONTINUOUS
 62
     1
 10
595.0
 20
1656.0
 11
611.0
 21
1656.0
  0
LINE
  8
0
  6
CONTINUOUS
 62
     1
 10
611.0
 20
1406.0
 11
611.0
 21
1656.0
  0
LINE
  8
0
  6
CONTINUOUS
 62
     1
 10
595.0
 20
1406.0
 11
611.0
 21
1406.0
  0
LINE
  8
0
  6
CONTINUOUS
 62
     1
 10
661.0
 20
1426.0
 11
661.0
 21
1636.0
  0
LINE
  8
0
  6
CONTINUOUS
 62
     1
 10
661.0
 20
1426.0
 11
611.0
 21
1426.0
  0
LINE
  8
0
  6
CONTINUOUS
 62
     1
 10
661.0
 20
1636.0
 11
611.0
 21
1636.0
  0
ARC
  8
0
  6
CONTINUOUS
 62
     1
 10
957.720549228
 20
1616.0
 40
20.0
 50
9.12031501
 51
90.0
  0
ARC
  8
0
  6
CONTINUOUS
 62
     1
 10
957.720549228
 20
1446.0
 40
20.0
 50
270.0
 51
350.87968499
  0
ARC
  8
0
  6
CONTINUOUS
 62
     1
 10
428.25
 20
1531.0
 40
556.25
 50
350.879686542
 51
9.120316562
  0
LINE
  8
0
  6
CONTINUOUS
 62
     1
 10
661.0
 20
1631.0
 11
828.0
 21
1631.0
  0
LINE
  8
0
  6
CONTINUOUS
 62
     1
 10
661.0
 20
1626.0
 11
828.0
 21
1626.0
  0
LINE
  8
0
  6
CONTINUOUS
 62
     1
 10
661.0
 20
1611.0
 11
828.0
 21
1611.0
  0
LINE
  8
0
  6
CONTINUOUS
 62
     1
 10
661.0
 20
1596.0
 11
828.0
 21
1596.0
  0
LINE
  8
0
  6
CONTINUOUS
 62
     1
 10
957.720560018
 20
1636.0
 11
828.0
 21
1636.0
  0
LINE
  8
0
  6
CONTINUOUS
 62
     1
 10
661.0
 20
1581.0
 11
828.0
 21
1581.0
  0
LINE
  8
0
  6
CONTINUOUS
 62
     1
 10
661.0
 20
1566.0
 11
828.0
 21
1566.0
  0
LINE
  8
0
  6
CONTINUOUS
 62
     1
 10
661.0
 20
1551.0
 11
828.0
 21
1551.0
  0
LINE
  8
0
  6
CONTINUOUS
 62
     1
 10
661.0
 20
1536.0
 11
828.0
 21
1536.0
  0
LINE
  8
0
  6
CONTINUOUS
 62
     1
 10
661.0
 20
1521.0
 11
828.0
 21
1521.0
  0
LINE
  8
0
  6
CONTINUOUS
 62
     1
 10
661.0
 20
1506.0
 11
828.0
 21
1506.0
  0
LINE
  8
0
  6
CONTINUOUS
 62
     1
 10
661.0
 20
1491.0
 11
828.0
 21
1491.0
  0
LINE
  8
0
  6
CONTINUOUS
 62
     1
 10
661.0
 20
1476.0
 11
828.0
 21
1476.0
  0
LINE
  8
0
  6
CONTINUOUS
 62
     1
 10
661.0
 20
1461.0
 11
828.0
 21
1461.0
  0
LINE
  8
0
  6
CONTINUOUS
 62
     1
 10
661.0
 20
1446.0
 11
828.0
 21
1446.0
  0
LINE
  8
0
  6
CONTINUOUS
 62
     1
 10
851.161039485
 20
1649.7
 11
737.319480257
 21
1649.7
  0
ARC
  8
0
  6
CONTINUOUS
 62
     1
 10
737.319480257
 20
1718.0
 40
6.0
 50
90.0
 51
180.0
  0
LINE
  8
0
  6
CONTINUOUS
 62
     1
 10
855.608952959
 20
1724.0
 11
737.319480257
 21
1724.0
  0
LINE
  8
0
  6
CONTINUOUS
 62
     1
 10
856.8
 20
1655.7
 11
856.8
 21
1715.372990042
  0
LINE
  8
0
  6
CONTINUOUS
 62
     1
 10
812.5
 20
1631.0
 11
812.5
 21
1649.7
  0
LINE
  8
0
  6
CONTINUOUS
 62
     1
 10
772.5
 20
1631.0
 11
772.5
 21
1649.7
  0
LINE
  8
0
  6
CONTINUOUS
 62
     1
 10
866.877020398
 20
1723.498824355
 11
864.7
 21
1728.0
  0
LINE
  8
0
  6
CONTINUOUS
 62
     1
 10
864.7
 20
1728.0
 11
719.301684551
 21
1657.6772391
  0
LINE
  8
0
  6
CONTINUOUS
 62
     1
 10
866.877020398
 20
1723.498824355
 11
721.47870495
 21
1653.176063455
  0
LINE
  8
0
  6
CONTINUOUS
 62
     1
 10
719.301684551
 20
1657.6772391
 11
721.47870495
 21
1653.176063455
  0
LINE
  8
0
  6
CONTINUOUS
 62
     1
 10
731.319480257
 20
1664.676063455
 11
731.319480257
 21
1718.0
  0
LINE
  8
0
  6
CONTINUOUS
 62
     1
 10
731.97870495
 20
1657.676063455
 11
731.97870495
 21
1654.676063455
  0
LINE
  8
0
  6
CONTINUOUS
 62
     1
 10
984.5
 20
1492.3
 11
990.4
 21
1492.3
  0
LINE
  8
0
  6
CONTINUOUS
 62
     1
 10
984.5
 20
1488.5
 11
990.4
 21
1488.5
  0
LINE
  8
0
  6
CONTINUOUS
 62
     1
 10
999.9
 20
1500.4
 11
999.9
 21
1480.4
  0
LINE
  8
0
  6
CONTINUOUS
 62
     1
 10
994.9
 20
1480.4
 11
999.9
 21
1480.4
  0
LINE
  8
0
  6
CONTINUOUS
 62
     1
 10
994.9
 20
1500.4
 11
999.9
 21
1500.4
  0
LINE
  8
0
  6
CONTINUOUS
 62
     1
 10
990.4
 20
1551.0
 11
994.9
 21
1551.0
  0
LINE
  8
0
  6
CONTINUOUS
 62
     1
 10
994.9
 20
1480.4
 11
994.9
 21
1551.0
  0
LINE
  8
0
  6
CONTINUOUS
 62
     1
 10
990.4
 20
1551.0
 11
990.4
 21
1485.4
  0
LINE
  8
0
  6
CONTINUOUS
 62
     1
 10
994.9
 20
1485.4
 11
990.4
 21
1485.4
  0
LINE
  8
0
  6
CONTINUOUS
 62
     1
 10
988.4
 20
1497.4
 11
988.4
 21
1482.4
  0
LINE
  8
0
  6
CONTINUOUS
 62
     1
 10
985.9
 20
1496.9
 11
985.9
 21
1482.4
  0
LINE
  8
0
  6
CONTINUOUS
 62
     1
 10
828.0
 20
1431.0
 11
828.0
 21
1431.0
  0
LINE
  8
0
  6
CONTINUOUS
 62
     1
 10
661.0
 20
1431.0
 11
763.040692358
 21
1431.0
  0
LINE
  8
0
  6
CONTINUOUS
 62
     1
 10
957.720560018
 20
1426.0
 11
891.0
 21
1426.0
  0
LINE
  8
0
  6
CONTINUOUS
 62
     1
 10
878.0
 20
1636.0
 11
878.0
 21
1433.507558854
  0
LINE
  8
0
  6
CONTINUOUS
 62
     1
 10
828.0
 20
1636.0
 11
828.0
 21
1433.507558854
  0
LINE
  8
0
  6
LTYPE2
 62
     2
 10
919.0
 20
1681.0
 11
847.256580424
 21
1681.0
  0
LINE
  8
1
  6
CONTINUOUS
 62
     2
 10
911.0
 20
1384.0
 11
929.447820371
 21
1376.274851227
  0
LINE
  8
1
  6
CONTINUOUS
 62
     2
 10
911.0
 20
1384.0
 11
930.838855472
 21
1386.5337351
  0
LINE
  8
1
  6
CONTINUOUS
 62
     2
 10
911.0
 20
1384.0
 11
970.0
 21
1376.0
  0
LINE
  8
1
  6
CONTINUOUS
 62
     2
 10
970.0
 20
1376.0
 11
1087.6
 21
1376.0
  0
TEXT
  8
1
  6
CONTINUOUS
 62
     3
 10
970.0
 20
1384.0
 30
2.4
 40
24.0
  1
ＰＦ１／２
 50
0.0
 41
0.9
 51
0.0
  7
KANJI0
  0
LINE
  8
1
  6
CONTINUOUS
 62
     2
 10
932.0
 20
1153.0
 11
928.412574114
 21
1133.324371026
  0
LINE
  8
1
  6
CONTINUOUS
 62
     2
 10
932.0
 20
1153.0
 11
938.731012535
 21
1134.16669253
  0
LINE
  8
1
  6
CONTINUOUS
 62
     2
 10
932.0
 20
1153.0
 11
936.0
 21
1104.0
  0
LINE
  8
1
  6
CONTINUOUS
 62
     2
 10
936.0
 20
1104.0
 11
1029.6
 21
1104.0
  0
TEXT
  8
1
  6
CONTINUOUS
 62
     3
 10
936.0
 20
1112.0
 30
2.4
 40
24.0
  1
ＬＳドグ
 50
0.0
 41
0.9
 51
0.0
  7
KANJI0
  0
LINE
  8
1
  6
CONTINUOUS
 62
     2
 10
782.0
 20
1361.0
 11
777.399465422
 21
1341.536313772
  0
LINE
  8
1
  6
CONTINUOUS
 62
     2
 10
782.0
 20
1361.0
 11
787.747663298
 21
1341.843685986
  0
LINE
  8
1
  6
CONTINUOUS
 62
     2
 10
782.0
 20
1361.0
 11
791.0
 21
1058.0
  0
LINE
  8
1
  6
CONTINUOUS
 62
     2
 10
791.0
 20
1058.0
 11
932.6
 21
1058.0
  0
TEXT
  8
1
  6
CONTINUOUS
 62
     3
 10
791.0
 20
1066.0
 30
2.4
 40
24.0
  1
推力リミッタ
 50
0.0
 41
0.9
 51
0.0
  7
KANJI0
  0
LINE
  8
1
  6
CONTINUOUS
 62
     2
 10
665.0
 20
1007.0
 11
665.0
 21
986.0
  0
LINE
  8
1
  6
CONTINUOUS
 62
     2
 10
665.0
 20
954.0
 11
665.0
 21
928.0
  0
LINE
  8
1
  6
CONTINUOUS
 62
     2
 10
665.0
 20
958.0
 11
665.0
 21
928.0
  0
LINE
  8
1
  6
CONTINUOUS
 62
     2
 10
1552.999190206
 20
903.5
 11
1552.999190206
 21
865.5
  0
LINE
  8
1
  6
CONTINUOUS
 62
     2
 10
1552.999190206
 20
881.5
 11
1533.68067368
 21
886.676380902
  0
LINE
  8
1
  6
CONTINUOUS
 62
     2
 10
1552.999190206
 20
881.5
 11
1533.68067368
 21
876.323619098
  0
LINE
  8
0
  6
LTYPE4
 62
     2
 10
2179.5
 20
1446.0
 11
2179.5
 21
1460.0
  0
LINE
  8
0
  6
LTYPE4
 62
     2
 10
2032.5
 20
1531.0
 11
2337.5
 21
1531.0
  0
LINE
  8
0
  6
CONTINUOUS
 62
     1
 10
2309.5
 20
1345.874886635
 11
2309.5
 21
1460.0
  0
LINE
  8
0
  6
CONTINUOUS
 62
     1
 10
2309.5
 20
1400.0
 11
2309.5
 21
1605.833147735
  0
LINE
  8
0
  6
CONTINUOUS
 62
     1
 10
2049.5
 20
1397.434666527
 11
2049.5
 21
1460.0
  0
LINE
  8
0
  6
CONTINUOUS
 62
     1
 10
2049.5
 20
1400.0
 11
2049.5
 21
1605.833147735
  0
LINE
  8
0
  6
LTYPE1
 62
     2
 10
2179.5
 20
1400.0
 11
2179.5
 21
1457.1
  0
ARC
  8
0
  6
CONTINUOUS
 62
     1
 10
2179.5
 20
1531.0
 40
125.0
 50
280.557968545
 51
0.0
  0
ARC
  8
0
  6
CONTINUOUS
 62
     1
 10
2216.5
 20
1714.705692517
 40
3.0
 50
0.0
 51
90.0
  0
ARC
  8
0
  6
CONTINUOUS
 62
     1
 10
2223.5
 20
1717.705692517
 40
6.0
 50
0.0
 51
90.0
  0
ARC
  8
0
  6
CONTINUOUS
 62
     1
 10
2223.5
 20
1722.0
 40
6.0
 50
0.0
 51
90.0
  0
LINE
  8
0
  6
CONTINUOUS
 62
     1
 10
2223.5
 20
1728.0
 11
2179.5
 21
1728.0
  0
LINE
  8
0
  6
CONTINUOUS
 62
     1
 10
2179.5
 20
1723.705692517
 11
2223.5
 21
1723.705692517
  0
LINE
  8
0
  6
CONTINUOUS
 62
     1
 10
2179.5
 20
1717.705692517
 11
2216.5
 21
1717.705692517
  0
ARC
  8
0
  6
CONTINUOUS
 62
     1
 10
2142.5
 20
1714.705692517
 40
3.0
 50
90.0
 51
180.0
  0
ARC
  8
0
  6
CONTINUOUS
 62
     1
 10
2135.5
 20
1717.705692517
 40
6.0
 50
90.0
 51
180.0
  0
ARC
  8
0
  6
CONTINUOUS
 62
     1
 10
2135.5
 20
1722.0
 40
6.0
 50
90.0
 51
180.0
  0
LINE
  8
0
  6
CONTINUOUS
 62
     1
 10
2135.5
 20
1728.0
 11
2179.5
 21
1728.0
  0
LINE
  8
0
  6
CONTINUOUS
 62
     1
 10
2179.5
 20
1723.705692517
 11
2135.5
 21
1723.705692517
  0
LINE
  8
0
  6
CONTINUOUS
 62
     1
 10
2179.5
 20
1717.705692517
 11
2142.5
 21
1717.705692517
  0
CIRCLE
  8
0
  6
CONTINUOUS
 62
     1
 10
2179.5
 20
1531.0
 40
20.0
  0
ARC
  8
0
  6
CONTINUOUS
 62
     1
 10
2094.5
 20
1531.0
 40
20.0
 50
90.0
 51
270.0
  0
ARC
  8
0
  6
CONTINUOUS
 62
     1
 10
2222.0
 20
1457.387840678
 40
20.0
 50
210.0
 51
30.0
  0
ARC
  8
0
  6
CONTINUOUS
 62
     1
 10
2222.0
 20
1604.612159322
 40
20.0
 50
330.0
 51
150.0
  0
LINE
  8
0
  6
CONTINUOUS
 62
     1
 10
2094.5
 20
1551.0
 11
2167.952994616
 21
1551.0
  0
LINE
  8
0
  6
CONTINUOUS
 62
     1
 10
2204.679491924
 20
1614.612159322
 11
2167.952994616
 21
1551.0
  0
LINE
  8
0
  6
CONTINUOUS
 62
     1
 10
2094.5
 20
1511.0
 11
2167.952994616
 21
1511.0
  0
LINE
  8
0
  6
CONTINUOUS
 62
     1
 10
2204.679491924
 20
1447.387840678
 11
2167.952994616
 21
1511.0
  0
CIRCLE
  8
0
  6
CONTINUOUS
 62
     1
 10
2239.5
 20
1531.0
 40
10.0
  0
LINE
  8
0
  6
CONTINUOUS
 62
     2
 10
2239.5
 20
1546.0
 11
2239.5
 21
1516.0
  0
LINE
  8
0
  6
CONTINUOUS
 62
     1
 10
2182.833333333
 20
1511.279734056
 11
2241.166666667
 21
1521.139867028
  0
LINE
  8
0
  6
CONTINUOUS
 62
     1
 10
2182.833333333
 20
1550.720265944
 11
2241.166666667
 21
1540.860132972
  0
LINE
  8
0
  6
CONTINUOUS
 62
     1
 10
2239.320508076
 20
1594.612159322
 11
2211.210211838
 21
1545.923698023
  0
LINE
  8
0
  6
CONTINUOUS
 62
     1
 10
2239.320508076
 20
1467.387840678
 11
2211.210211838
 21
1516.076301977
  0
ARC
  8
0
  6
CONTINUOUS
 62
     1
 10
2255.513978978
 20
1607.013978978
 40
7.75
 50
294.214141675
 51
155.785858325
  0
LINE
  8
0
  6
CONTINUOUS
 62
     2
 10
2249.5
 20
1601.0
 11
2262.445832412
 21
1613.945832412
  0
ARC
  8
0
  6
CONTINUOUS
 62
     2
 10
2179.5
 20
1531.0
 40
107.5
 50
38.280925788
 51
51.325228591
  0
ARC
  8
0
  6
CONTINUOUS
 62
     1
 10
2255.513978978
 20
1454.986021022
 40
7.75
 50
204.214141675
 51
65.785858325
  0
LINE
  8
0
  6
CONTINUOUS
 62
     2
 10
2249.5
 20
1461.0
 11
2262.445832412
 21
1448.054167588
  0
ARC
  8
0
  6
CONTINUOUS
 62
     2
 10
2179.5
 20
1531.0
 40
107.5
 50
308.674771409
 51
321.719074212
  0
ARC
  8
0
  6
CONTINUOUS
 62
     1
 10
2103.486021022
 20
1607.013978978
 40
7.75
 50
24.214141675
 51
245.785858325
  0
LINE
  8
0
  6
CONTINUOUS
 62
     2
 10
2109.5
 20
1601.0
 11
2096.554167588
 21
1613.945832412
  0
ARC
  8
0
  6
CONTINUOUS
 62
     2
 10
2179.5
 20
1531.0
 40
107.5
 50
128.674771409
 51
141.719074212
  0
ARC
  8
0
  6
CONTINUOUS
 62
     1
 10
2103.486021022
 20
1454.986021022
 40
7.75
 50
114.214141675
 51
335.785858325
  0
LINE
  8
0
  6
CONTINUOUS
 62
     2
 10
2109.5
 20
1461.0
 11
2096.554167588
 21
1448.054167588
  0
ARC
  8
0
  6
CONTINUOUS
 62
     2
 10
2179.5
 20
1531.0
 40
107.5
 50
218.280925788
 51
231.325228591
  0
ARC
  8
0
  6
CONTINUOUS
 62
     1
 10
2179.5
 20
1531.0
 40
105.0
 50
272.980462591
 51
0.0
  0
ARC
  8
0
  6
CONTINUOUS
 62
     1
 10
2179.5
 20
1531.0
 40
105.0
 50
0.0
 51
226.520053773
  0
ARC
  8
0
  6
CONTINUOUS
 62
     1
 10
2216.5
 20
1652.7
 40
3.0
 50
270.0
 51
0.0
  0
ARC
  8
0
  6
CONTINUOUS
 62
     1
 10
2223.5
 20
1658.7
 40
6.0
 50
270.0
 51
0.0
  0
LINE
  8
0
  6
CONTINUOUS
 62
     1
 10
2219.5
 20
1652.7
 11
2223.5
 21
1652.7
  0
LINE
  8
0
  6
CONTINUOUS
 62
     1
 10
2179.5
 20
1649.7
 11
2216.5
 21
1649.7
  0
ARC
  8
0
  6
CONTINUOUS
 62
     1
 10
2142.5
 20
1652.7
 40
3.0
 50
180.0
 51
270.0
  0
ARC
  8
0
  6
CONTINUOUS
 62
     1
 10
2135.5
 20
1658.7
 40
6.0
 50
180.0
 51
270.0
  0
LINE
  8
0
  6
CONTINUOUS
 62
     1
 10
2139.5
 20
1652.7
 11
2135.5
 21
1652.7
  0
LINE
  8
0
  6
CONTINUOUS
 62
     1
 10
2179.5
 20
1649.7
 11
2142.5
 21
1649.7
  0
LINE
  8
0
  6
CONTINUOUS
 62
     1
 10
2199.5
 20
1634.07764064
 11
2199.5
 21
1649.7
  0
LINE
  8
0
  6
CONTINUOUS
 62
     1
 10
2159.5
 20
1634.07764064
 11
2159.5
 21
1649.7
  0
LINE
  8
0
  6
CONTINUOUS
 62
     1
 10
2229.5
 20
1658.7
 11
2229.5
 21
1722.0
  0
LINE
  8
0
  6
CONTINUOUS
 62
     1
 10
2219.5
 20
1653.2
 11
2219.5
 21
1714.705692517
  0
LINE
  8
0
  6
CONTINUOUS
 62
     1
 10
2139.5
 20
1653.2
 11
2139.5
 21
1714.705692517
  0
LINE
  8
0
  6
CONTINUOUS
 62
     1
 10
2129.5
 20
1659.2
 11
2129.5
 21
1722.0
  0
CIRCLE
  8
0
  6
CONTINUOUS
 62
     1
 10
2179.5
 20
1681.0
 40
20.0
  0
CIRCLE
  8
0
  6
CONTINUOUS
 62
     2
 10
2179.5
 20
1681.0
 40
13.5
  0
CIRCLE
  8
0
  6
CONTINUOUS
 62
     2
 10
2179.5
 20
1681.0
 40
15.0
  0
LINE
  8
0
  6
LTYPE2
 62
     2
 10
2149.0
 20
1681.0
 11
2208.5
 21
1681.0
  0
CIRCLE
  8
0
  6
CONTINUOUS
 62
     1
 10
2179.5
 20
1546.0
 40
4.0
  0
CIRCLE
  8
0
  6
CONTINUOUS
 62
     1
 10
2179.5
 20
1531.0
 40
4.0
  0
CIRCLE
  8
0
  6
CONTINUOUS
 62
     1
 10
2164.5
 20
1531.0
 40
4.0
  0
CIRCLE
  8
0
  6
CONTINUOUS
 62
     1
 10
2179.5
 20
1516.0
 40
4.0
  0
CIRCLE
  8
0
  6
CONTINUOUS
 62
     1
 10
2194.5
 20
1531.0
 40
4.0
  0
ARC
  8
0
  6
CONTINUOUS
 62
     1
 10
2179.5
 20
1531.0
 40
125.0
 50
0.0
 51
72.687211164
  0
ARC
  8
0
  6
CONTINUOUS
 62
     1
 10
2179.5
 20
1531.0
 40
125.0
 50
255.145173981
 51
280.557968545
  0
ARC
  8
0
  6
CONTINUOUS
 62
     1
 10
2179.5
 20
1531.0
 40
105.0
 50
226.520053773
 51
230.380400035
  0
ARC
  8
0
  6
CONTINUOUS
 62
     1
 10
2179.5
 20
1531.0
 40
105.0
 50
230.452016046
 51
272.980462591
  0
ARC
  8
0
  6
CONTINUOUS
 62
     1
 10
2179.5
 20
1531.0
 40
125.0
 50
107.31277541
 51
254.909933906
  0
LINE
  8
1
  6
CONTINUOUS
 62
     2
 10
1959.000030518
 20
1300.0
 11
1930.000030518
 21
1300.0
  0
LINE
  8
1
  6
CONTINUOUS
 62
     2
 10
1946.000030518
 20
1300.0
 11
1951.17641142
 21
1319.318516526
  0
LINE
  8
1
  6
CONTINUOUS
 62
     2
 10
1946.000030518
 20
1300.0
 11
1940.823649616
 21
1319.318516526
  0
LINE
  8
1
  6
CONTINUOUS
 62
     2
 10
1946.000030518
 20
1300.0
 11
1946.000030518
 21
1531.0
  0
LINE
  8
1
  6
CONTINUOUS
 62
     2
 10
1946.000030518
 20
1531.0
 11
1940.823649616
 21
1511.681483474
  0
LINE
  8
1
  6
CONTINUOUS
 62
     2
 10
1946.000030518
 20
1531.0
 11
1951.17641142
 21
1511.681483474
  0
LINE
  8
1
  6
CONTINUOUS
 62
     2
 10
2053.000030518
 20
1531.0
 11
1930.000030518
 21
1531.0
  0
TEXT
  8
1
  6
CONTINUOUS
 62
     3
 10
1938.000030518
 20
1374.7
 30
2.4
 40
28.0
  1
２３１
 50
90.0
 41
0.914285714
 51
0.0
  7
KANJI50
  0
LINE
  8
1
  6
CONTINUOUS
 62
     2
 10
1946.000030518
 20
1531.0
 11
1930.000030518
 21
1531.0
  0
LINE
  8
1
  6
CONTINUOUS
 62
     2
 10
1946.000030518
 20
1531.0
 11
1951.17641142
 21
1550.318516526
  0
LINE
  8
1
  6
CONTINUOUS
 62
     2
 10
1946.000030518
 20
1531.0
 11
1940.823649616
 21
1550.318516526
  0
LINE
  8
1
  6
CONTINUOUS
 62
     2
 10
1946.000030518
 20
1531.0
 11
1946.000030518
 21
1728.0
  0
LINE
  8
1
  6
CONTINUOUS
 62
     2
 10
1946.000030518
 20
1728.0
 11
1940.823649616
 21
1708.681483474
  0
LINE
  8
1
  6
CONTINUOUS
 62
     2
 10
1946.000030518
 20
1728.0
 11
1951.17641142
 21
1708.681483474
  0
LINE
  8
1
  6
CONTINUOUS
 62
     2
 10
2127.5
 20
1728.0
 11
1930.000030518
 21
1728.0
  0
TEXT
  8
1
  6
CONTINUOUS
 62
     3
 10
1938.000030518
 20
1588.7
 30
2.4
 40
28.0
  1
１９７
 50
90.0
 41
0.914285714
 51
0.0
  7
KANJI50
  0
LINE
  8
0
  6
CONTINUOUS
 62
     1
 10
2309.5
 20
1350.761874274
 11
2309.5
 21
1605.833147735
  0
ARC
  8
0
  6
CONTINUOUS
 62
     1
 10
2179.5
 20
1531.0
 40
150.0
 50
29.926434867
 51
70.528779366
  0
ARC
  8
0
  6
CONTINUOUS
 62
     1
 10
2179.5
 20
1531.0
 40
150.0
 50
109.471220634
 51
150.073565133
  0
LINE
  8
0
  6
CONTINUOUS
 62
     1
 10
2049.5
 20
1389.805352832
 11
2049.5
 21
1605.833147735
  0
LINE
  8
1
  6
CONTINUOUS
 62
     2
 10
1989.5
 20
1728.0
 11
1852.5
 21
1728.0
  0
LINE
  8
1
  6
CONTINUOUS
 62
     2
 10
1868.5
 20
1728.0
 11
1863.323619098
 21
1708.681483474
  0
LINE
  8
1
  6
CONTINUOUS
 62
     2
 10
1868.5
 20
1728.0
 11
1873.676380902
 21
1708.681483474
  0
LINE
  8
1
  6
CONTINUOUS
 62
     2
 10
1868.5
 20
1728.0
 11
1868.5
 21
1165.0
  0
LINE
  8
1
  6
CONTINUOUS
 62
     2
 10
1868.5
 20
1165.0
 11
1873.676380902
 21
1184.318516526
  0
LINE
  8
1
  6
CONTINUOUS
 62
     2
 10
1868.5
 20
1165.0
 11
1863.323619098
 21
1184.318516526
  0
LINE
  8
1
  6
CONTINUOUS
 62
     2
 10
1981.5
 20
1165.0
 11
1852.5
 21
1165.0
  0
TEXT
  8
1
  6
CONTINUOUS
 62
     3
 10
1860.5
 20
1405.7
 30
2.4
 40
28.0
  1
５６３
 50
90.0
 41
0.914285714
 51
0.0
  7
KANJI50
  0
LINE
  8
1
  6
CONTINUOUS
 62
     2
 10
965.720560018
 20
1636.0
 11
1084.5
 21
1636.0
  0
LINE
  8
1
  6
CONTINUOUS
 62
     2
 10
1068.5
 20
1636.0
 11
1063.323619098
 21
1616.681483474
  0
LINE
  8
1
  6
CONTINUOUS
 62
     2
 10
1068.5
 20
1636.0
 11
1073.676380902
 21
1616.681483474
  0
LINE
  8
1
  6
CONTINUOUS
 62
     2
 10
1068.5
 20
1636.0
 11
1068.5
 21
1426.0
  0
LINE
  8
1
  6
CONTINUOUS
 62
     2
 10
1068.5
 20
1426.0
 11
1073.676380902
 21
1445.318516526
  0
LINE
  8
1
  6
CONTINUOUS
 62
     2
 10
1068.5
 20
1426.0
 11
1063.323619098
 21
1445.318516526
  0
LINE
  8
1
  6
CONTINUOUS
 62
     2
 10
965.720560018
 20
1426.0
 11
1084.5
 21
1426.0
  0
TEXT
  8
1
  6
CONTINUOUS
 62
     3
 10
1060.5
 20
1476.2
 30
2.4
 40
28.0
  1
φ２１０
 50
90.0
 41
0.914285714
 51
0.0
  7
KANJI50
  0
LINE
  8
1
  6
CONTINUOUS
 62
     2
 10
595.0
 20
1727.0
 11
595.0
 21
1813.0
  0
LINE
  8
1
  6
CONTINUOUS
 62
     2
 10
595.0
 20
1799.0
 11
595.0
 21
1813.0
  0
LINE
  8
1
  6
CONTINUOUS
 62
     2
 10
595.0
 20
1797.0
 11
614.318516526
 21
1791.823619098
  0
LINE
  8
1
  6
CONTINUOUS
 62
     2
 10
595.0
 20
1797.0
 11
614.318516526
 21
1802.176380902
  0
LINE
  8
1
  6
CONTINUOUS
 62
     2
 10
595.0
 20
1797.0
 11
999.9
 21
1797.0
  0
LINE
  8
1
  6
CONTINUOUS
 62
     2
 10
999.9
 20
1797.0
 11
980.581483474
 21
1802.176380902
  0
LINE
  8
1
  6
CONTINUOUS
 62
     2
 10
999.9
 20
1797.0
 11
980.581483474
 21
1791.823619098
  0
TEXT
  8
1
  6
CONTINUOUS
 62
     3
 10
756.65
 20
1805.0
 30
2.4
 40
28.0
  1
４０５
 50
0.0
 41
0.914285714
 51
0.0
  7
KANJI50
  0
TEXT
  8
0
  6
CONTINUOUS
 62
     2
 10
2978.0
 20
1993.2
 30
1.6
 40
24.0
  1
ＭＣＬＦ６－　　　Ｌ
 50
0.0
 41
0.833333333
 51
0.0
  7
KANJI54
  0
TEXT
  8
0
  6
CONTINUOUS
 62
     2
 10
2953.0
 20
1938.4
 30
2.4
 40
24.0
  1
５８．８ＫＮ（６ｔｏｎ）
 50
0.0
 41
0.9
 51
0.0
  7
KANJI0
  0
TEXT
  8
0
  6
CONTINUOUS
 62
     2
 10
2985.8
 20
1826.2
 30
2.4
 40
24.0
  1
２５／３０
 50
0.0
 41
0.9
 51
0.0
  7
KANJI0
  0
TEXT
  8
0
  6
CONTINUOUS
 62
     2
 10
2952.8
 20
1769.2
 30
2.4
 40
24.0
  1
１１８Ｎ．ｍ（１２ｋｇ．ｍ）
 50
0.0
 41
0.766666667
 51
0.0
  7
KANJI55
  0
TEXT
  8
0
  6
CONTINUOUS
 62
     2
 10
2985.8
 20
1548.2
 30
2.4
 40
24.0
  1
２．２
 50
0.0
 41
0.9
 51
0.0
  7
KANJI0
  0
TEXT
  8
0
  6
CONTINUOUS
 62
     2
 10
3004.0
 20
1154.4
 30
16.0
 40
28.0
  1
別切リ
 50
0.0
 41
0.9
 51
0.0
  7
KANJI56
  0
TEXT
  8
0
  6
CONTINUOUS
 62
     3
 10
2544.0
 20
336.0
 30
0.0
 40
28.0
  1
ＭＣＬＦ６－Ｌ
 50
0.0
 41
0.793650794
 51
0.0
  7
KANJI57
  0
TEXT
  8
0
  6
CONTINUOUS
 62
     3
 10
2262.6667112
 20
227.999992
 30
2.4
 40
28.0
  1
岡田
 50
0.0
 41
0.571428571
 51
0.0
  7
KANJI58
  0
TEXT
  8
0
  6
CONTINUOUS
 62
     3
 10
2239.4667112
 20
169.599992
 30
2.4
 40
28.0
  1
０１．０１．１７
 50
0.0
 41
0.571428571
 51
0.0
  7
KANJI58
  0
TEXT
  8
0
  6
CONTINUOUS
 62
     2
 10
666.0
 20
620.8
 30
1.6
 40
24.0
  1
ＭＣＬＦ６－３Ｌ
 50
0.0
 41
0.833333333
 51
0.0
  7
KANJI54
  0
TEXT
  8
0
  6
CONTINUOUS
 62
     2
 10
666.0
 20
564.8
 30
1.6
 40
24.0
  1
ＭＣＬＦ６－５Ｌ
 50
0.0
 41
0.833333333
 51
0.0
  7
KANJI54
  0
TEXT
  8
0
  6
CONTINUOUS
 62
     2
 10
666.0
 20
508.8
 30
1.6
 40
24.0
  1
ＭＣＬＦ６－１０Ｌ
 50
0.0
 41
0.833333333
 51
0.0
  7
KANJI54
  0
LINE
  8
0
  6
CONTINUOUS
 62
     1
 10
640.0
 20
440.0
 11
1880.0
 21
440.0
  0
LINE
  8
0
  6
CONTINUOUS
 62
     1
 10
640.0
 20
720.0
 11
640.0
 21
440.0
  0
LINE
  8
0
  6
CONTINUOUS
 62
     1
 10
920.0
 20
720.0
 11
920.0
 21
440.0
  0
LINE
  8
0
  6
CONTINUOUS
 62
     2
 10
1080.0
 20
720.0
 11
1080.0
 21
440.0
  0
LINE
  8
0
  6
CONTINUOUS
 62
     2
 10
1240.0
 20
720.0
 11
1240.0
 21
440.0
  0
LINE
  8
0
  6
CONTINUOUS
 62
     2
 10
1400.0
 20
720.0
 11
1400.0
 21
440.0
  0
LINE
  8
0
  6
CONTINUOUS
 62
     2
 10
1560.0
 20
720.0
 11
1560.0
 21
440.0
  0
LINE
  8
0
  6
CONTINUOUS
 62
     2
 10
1720.0
 20
720.0
 11
1720.0
 21
440.0
  0
LINE
  8
0
  6
CONTINUOUS
 62
     1
 10
1880.0
 20
720.0
 11
1880.0
 21
440.0
  0
TEXT
  8
0
  6
CONTINUOUS
 62
     2
 10
666.0
 20
452.8
 30
1.6
 40
24.0
  1
ＭＣＬＦ６－　　Ｌ
 50
0.0
 41
0.833333333
 51
0.0
  7
KANJI54
  0
TEXT
  8
0
  6
CONTINUOUS
 62
     2
 10
1734.86162
 20
2120.795875
 30
2.39994
 40
23.9994
  1
　９．４
 50
0.0
 41
0.9
 51
0.0
  7
KANJI49
  0
TEXT
  8
0
  6
CONTINUOUS
 62
     2
 10
1854.85862
 20
2120.795875
 30
2.39994
 40
23.9994
  1
６０．４
 50
0.0
 41
0.9
 51
0.0
  7
KANJI49
  0
TEXT
  8
0
  6
CONTINUOUS
 62
     2
 10
1734.86162
 20
2072.797075
 30
2.39994
 40
23.9994
  1
　８．８
 50
0.0
 41
0.9
 51
0.0
  7
KANJI49
  0
TEXT
  8
0
  6
CONTINUOUS
 62
     2
 10
1734.86162
 20
2024.798275
 30
2.39994
 40
23.9994
  1
　８．３
 50
0.0
 41
0.9
 51
0.0
  7
KANJI49
  0
TEXT
  8
0
  6
CONTINUOUS
 62
     2
 10
1853.992019532
 20
2069.130492
 30
2.39994
 40
23.9994
  1
５２．４
 50
0.0
 41
0.9
 51
0.0
  7
KANJI49
  0
TEXT
  8
0
  6
CONTINUOUS
 62
     2
 10
1855.991969532
 20
2023.798292
 30
2.39994
 40
23.9994
  1
５７．６
 50
0.0
 41
0.9
 51
0.0
  7
KANJI49
  0
TEXT
  8
0
  6
CONTINUOUS
 62
     2
 10
1254.87362
 20
2120.795875
 30
2.39994
 40
23.9994
  1
　４．７
 50
0.0
 41
0.9
 51
0.0
  7
KANJI49
  0
TEXT
  8
0
  6
CONTINUOUS
 62
     2
 10
1254.87362
 20
2072.797075
 30
2.39994
 40
23.9994
  1
　４．４
 50
0.0
 41
0.9
 51
0.0
  7
KANJI49
  0
TEXT
  8
0
  6
CONTINUOUS
 62
     2
 10
1254.87362
 20
2024.798275
 30
2.39994
 40
23.9994
  1
　４．２
 50
0.0
 41
0.9
 51
0.0
  7
KANJI49
  0
TEXT
  8
0
  6
CONTINUOUS
 62
     2
 10
1374.87062
 20
2120.795875
 30
2.39994
 40
23.9994
  1
３０．２
 50
0.0
 41
0.9
 51
0.0
  7
KANJI49
  0
TEXT
  8
0
  6
CONTINUOUS
 62
     2
 10
1374.87062
 20
2072.797075
 30
2.39994
 40
23.9994
  1
２６．２
 50
0.0
 41
0.9
 51
0.0
  7
KANJI49
  0
TEXT
  8
0
  6
CONTINUOUS
 62
     2
 10
1374.87062
 20
2024.798275
 30
2.39994
 40
23.9994
  1
２８．８
 50
0.0
 41
0.9
 51
0.0
  7
KANJI49
  0
TEXT
  8
0
  6
CONTINUOUS
 62
     3
 10
2628.5333816
 20
207.999992
 30
17.333333333
 40
40.0
  1
Ａ３００１４４２
 50
0.0
 41
0.8
 51
0.0
  7
KANJI59
  0
LINE
  8
1
  6
CONTINUOUS
 62
     2
 10
999.9
 20
1552.0
 11
999.9
 21
1813.0
  0
LINE
  8
1
  6
CONTINUOUS
 62
     2
 10
1001.0
 20
1540.0
 11
1015.00664654
 21
1554.276338911
  0
LINE
  8
1
  6
CONTINUOUS
 62
     2
 10
1001.0
 20
1540.0
 11
1005.99194227
 21
1559.36699544
  0
LINE
  8
1
  6
CONTINUOUS
 62
     2
 10
1001.0
 20
1540.0
 11
1097.0
 21
1710.0
  0
LINE
  8
1
  6
CONTINUOUS
 62
     2
 10
1097.0
 20
1710.0
 11
1286.6
 21
1710.0
  0
TEXT
  8
1
  6
CONTINUOUS
 62
     3
 10
1097.0
 20
1718.0
 30
2.4
 40
24.0
  1
ブレーキ開放装置
 50
0.0
 41
0.9
 51
0.0
  7
KANJI0
  0
TEXT
  8
0
  6
CONTINUOUS
 62
     2
 10
1778.8
 20
624.4
 30
2.4
 40
24.0
  1
１９７
 50
0.0
 41
0.9
 51
0.0
  7
KANJI0
  0
TEXT
  8
0
  6
CONTINUOUS
 62
     2
 10
1778.8
 20
568.4
 30
2.4
 40
24.0
  1
２０５
 50
0.0
 41
0.9
 51
0.0
  7
KANJI0
  0
TEXT
  8
0
  6
CONTINUOUS
 62
     2
 10
1778.8
 20
512.4
 30
2.4
 40
24.0
  1
２２６
 50
0.0
 41
0.9
 51
0.0
  7
KANJI0
  0
LINE
  8
0
  6
LTYPE1
 62
     2
 10
473.0
 20
1195.0
 11
416.0
 21
1195.0
  0
LINE
  8
0
  6
CONTINUOUS
 62
     1
 10
440.0
 20
1195.0
 11
440.0
 21
1184.05046
  0
LINE
  8
0
  6
CONTINUOUS
 62
     1
 10
440.0
 20
1195.0
 11
440.0
 21
1205.94954
  0
LINE
  8
0
  6
CONTINUOUS
 62
     1
 10
431.9789
 20
1186.73198
 11
433.527076294
 21
1184.05046
  0
LINE
  8
0
  6
CONTINUOUS
 62
     1
 10
431.9789
 20
1195.0
 11
431.9789
 21
1186.73198
  0
LINE
  8
0
  6
CONTINUOUS
 62
     1
 10
431.9789
 20
1203.26802
 11
433.527076294
 21
1205.94954
  0
LINE
  8
0
  6
CONTINUOUS
 62
     1
 10
431.9789
 20
1195.0
 11
431.9789
 21
1203.26802
  0
ARC
  8
0
  6
CONTINUOUS
 62
     1
 10
442.433121693
 20
1195.0
 40
10.454221693
 50
148.419912243
 51
211.580087757
  0
ARC
  8
0
  6
CONTINUOUS
 62
     1
 10
435.172013606
 20
1186.787845
 40
3.193602261
 50
121.002313915
 51
182.989498403
  0
LINE
  8
0
  6
CONTINUOUS
 62
     1
 10
431.9789
 20
1203.26802
 11
433.527076294
 21
1205.94954
  0
ARC
  8
0
  6
CONTINUOUS
 62
     1
 10
435.172013606
 20
1203.212155
 40
3.193602261
 50
177.010501597
 51
238.997686085
  0
LINE
  8
0
  6
CONTINUOUS
 62
     1
 10
440.0
 20
1184.05046
 11
433.527076294
 21
1184.05046
  0
LINE
  8
0
  6
CONTINUOUS
 62
     1
 10
440.0
 20
1189.52523
 11
433.527076294
 21
1189.52523
  0
LINE
  8
0
  6
CONTINUOUS
 62
     1
 10
440.0
 20
1200.47477
 11
433.527076294
 21
1200.47477
  0
LINE
  8
0
  6
CONTINUOUS
 62
     1
 10
440.0
 20
1205.94954
 11
433.527076294
 21
1205.94954
  0
LINE
  8
0
  6
CONTINUOUS
 62
     1
 10
440.0
 20
1419.5
 11
440.0
 21
1590.0
  0
LINE
  8
0
  6
CONTINUOUS
 62
     1
 10
457.0
 20
1165.0
 11
457.0
 21
1644.0
  0
LINE
  8
0
  6
CONTINUOUS
 62
     1
 10
440.0
 20
1165.0
 11
440.0
 21
1644.0
  0
LINE
  8
0
  6
LTYPE1
 62
     2
 10
470.0
 20
1483.0
 11
416.0
 21
1483.0
  0
LINE
  8
0
  6
LTYPE1
 62
     2
 10
1606.0
 20
1300.0
 11
416.0
 21
1300.0
  0
LINE
  8
0
  6
CONTINUOUS
 62
     1
 10
566.00001079
 20
1644.0
 11
440.0
 21
1644.0
  0
LINE
  8
0
  6
CONTINUOUS
 62
     1
 10
595.0
 20
1165.0
 11
440.0
 21
1165.0
  0
LINE
  8
0
  6
CONTINUOUS
 62
     1
 10
462.0
 20
1463.5
 11
462.0
 21
1583.5
  0
LINE
  8
0
  6
CONTINUOUS
 62
     1
 10
552.0
 20
1583.5
 11
462.0
 21
1583.5
  0
LINE
  8
0
  6
CONTINUOUS
 62
     1
 10
552.0
 20
1463.5
 11
462.0
 21
1463.5
  0
LINE
  8
0
  6
LTYPE1
 62
     2
 10
481.0
 20
1473.5
 11
465.0
 21
1473.5
  0
LINE
  8
0
  6
LTYPE1
 62
     2
 10
472.0
 20
1463.5
 11
472.0
 21
1482.0
  0
LINE
  8
0
  6
LTYPE1
 62
     2
 10
472.0
 20
1563.0
 11
472.0
 21
1583.5
  0
LINE
  8
0
  6
LTYPE1
 62
     2
 10
481.0
 20
1573.5
 11
464.0
 21
1573.5
  0
LINE
  8
0
  6
LTYPE1
 62
     2
 10
547.0
 20
1572.5
 11
533.0
 21
1572.5
  0
LINE
  8
0
  6
LTYPE1
 62
     2
 10
540.0
 20
1566.0
 11
540.0
 21
1582.5
  0
LINE
  8
0
  6
CONTINUOUS
 62
     1
 10
552.0
 20
1463.5
 11
552.0
 21
1583.5
  0
LINE
  8
0
  6
LTYPE1
 62
     2
 10
542.0
 20
1463.5
 11
542.0
 21
1480.0
  0
LINE
  8
0
  6
LTYPE1
 62
     2
 10
550.0
 20
1473.5
 11
535.0
 21
1473.5
  0
LINE
  8
0
  6
LTYPE1
 62
     2
 10
999.5
 20
1530.0
 11
402.0
 21
1530.0
  0
LINE
  8
1
  6
CONTINUOUS
 62
     2
 10
595.0
 20
1790.0
 11
595.0
 21
1813.0
  0
LINE
  8
1
  6
CONTINUOUS
 62
     2
 10
595.0
 20
1797.0
 11
575.681483474
 21
1802.176380902
  0
LINE
  8
1
  6
CONTINUOUS
 62
     2
 10
595.0
 20
1797.0
 11
575.681483474
 21
1791.823619098
  0
LINE
  8
1
  6
CONTINUOUS
 62
     2
 10
595.0
 20
1797.0
 11
390.0
 21
1797.0
  0
LINE
  8
1
  6
CONTINUOUS
 62
     2
 10
390.0
 20
1797.0
 11
409.318516526
 21
1791.823619098
  0
LINE
  8
1
  6
CONTINUOUS
 62
     2
 10
390.0
 20
1797.0
 11
409.318516526
 21
1802.176380902
  0
TEXT
  8
1
  6
CONTINUOUS
 62
     3
 10
451.7
 20
1805.0
 30
2.4
 40
28.0
  1
２０５
 50
0.0
 41
0.914285714
 51
0.0
  7
KANJI50
  0
LINE
  8
1
  6
CONTINUOUS
 62
     2
 10
440.0
 20
1157.0
 11
440.0
 21
862.0
  0
LINE
  8
1
  6
CONTINUOUS
 62
     2
 10
665.0
 20
1013.0
 11
665.0
 21
986.0
  0
LINE
  8
1
  6
CONTINUOUS
 62
     2
 10
665.0
 20
1002.0
 11
645.681483474
 21
1007.176380902
  0
LINE
  8
1
  6
CONTINUOUS
 62
     2
 10
665.0
 20
1002.0
 11
645.681483474
 21
996.823619098
  0
LINE
  8
1
  6
CONTINUOUS
 62
     2
 10
665.0
 20
1002.0
 11
595.0
 21
1002.0
  0
LINE
  8
1
  6
CONTINUOUS
 62
     2
 10
595.0
 20
1002.0
 11
614.318516526
 21
996.823619098
  0
LINE
  8
1
  6
CONTINUOUS
 62
     2
 10
595.0
 20
1002.0
 11
614.318516526
 21
1007.176380902
  0
LINE
  8
1
  6
CONTINUOUS
 62
     2
 10
595.0
 20
1157.0
 11
595.0
 21
986.0
  0
TEXT
  8
1
  6
CONTINUOUS
 62
     3
 10
603.2
 20
1010.0
 30
2.4
 40
28.0
  1
７０
 50
0.0
 41
0.914285714
 51
0.0
  7
KANJI50
  0
LINE
  8
1
  6
CONTINUOUS
 62
     2
 10
595.0
 20
1006.0
 11
595.0
 21
986.0
  0
LINE
  8
1
  6
CONTINUOUS
 62
     2
 10
595.0
 20
1002.0
 11
575.681483474
 21
1007.176380902
  0
LINE
  8
1
  6
CONTINUOUS
 62
     2
 10
595.0
 20
1002.0
 11
575.681483474
 21
996.823619098
  0
LINE
  8
1
  6
CONTINUOUS
 62
     2
 10
595.0
 20
1002.0
 11
440.0
 21
1002.0
  0
LINE
  8
1
  6
CONTINUOUS
 62
     2
 10
440.0
 20
1002.0
 11
459.318516526
 21
996.823619098
  0
LINE
  8
1
  6
CONTINUOUS
 62
     2
 10
440.0
 20
1002.0
 11
459.318516526
 21
1007.176380902
  0
LINE
  8
1
  6
CONTINUOUS
 62
     2
 10
440.0
 20
1000.0
 11
440.0
 21
1018.0
  0
TEXT
  8
1
  6
CONTINUOUS
 62
     3
 10
476.7
 20
1010.0
 30
2.4
 40
28.0
  1
１５５
 50
0.0
 41
0.914285714
 51
0.0
  7
KANJI50
  0
LINE
  8
1
  6
CONTINUOUS
 62
     2
 10
665.0
 20
954.0
 11
665.0
 21
928.0
  0
LINE
  8
1
  6
CONTINUOUS
 62
     2
 10
665.0
 20
944.0
 11
645.681483474
 21
949.176380902
  0
LINE
  8
1
  6
CONTINUOUS
 62
     2
 10
665.0
 20
944.0
 11
645.681483474
 21
938.823619098
  0
LINE
  8
1
  6
CONTINUOUS
 62
     2
 10
665.0
 20
944.0
 11
440.0
 21
944.0
  0
LINE
  8
1
  6
CONTINUOUS
 62
     2
 10
440.0
 20
944.0
 11
459.318516526
 21
938.823619098
  0
LINE
  8
1
  6
CONTINUOUS
 62
     2
 10
440.0
 20
944.0
 11
459.318516526
 21
949.176380902
  0
LINE
  8
1
  6
CONTINUOUS
 62
     2
 10
440.0
 20
949.0
 11
440.0
 21
960.0
  0
TEXT
  8
1
  6
CONTINUOUS
 62
     3
 10
511.7
 20
952.0
 30
2.4
 40
28.0
  1
２２５
 50
0.0
 41
0.914285714
 51
0.0
  7
KANJI50
  0
LINE
  8
1
  6
CONTINUOUS
 62
     2
 10
1532.999190206
 20
881.5
 11
440.0
 21
881.5
  0
LINE
  8
1
  6
CONTINUOUS
 62
     2
 10
440.0
 20
881.5
 11
459.318516526
 21
876.323619098
  0
LINE
  8
1
  6
CONTINUOUS
 62
     2
 10
440.0
 20
881.5
 11
459.318516526
 21
886.676380902
  0
TEXT
  8
0
  6
CONTINUOUS
 62
     2
 10
1101.2
 20
622.0
 30
2.4
 40
24.0
  1
１０９０
 50
0.0
 41
0.9
 51
0.0
  7
KANJI0
  0
TEXT
  8
0
  6
CONTINUOUS
 62
     2
 10
1101.2
 20
566.0
 30
2.4
 40
24.0
  1
１２９０
 50
0.0
 41
0.9
 51
0.0
  7
KANJI0
  0
TEXT
  8
0
  6
CONTINUOUS
 62
     2
 10
1101.2
 20
510.0
 30
2.4
 40
24.0
  1
１８３０
 50
0.0
 41
0.9
 51
0.0
  7
KANJI0
  0
LINE
  8
0
  6
CONTINUOUS
 62
     4
 10
1655.0667892
 20
203.4666584
 11
1632.5334576
 21
168.7999944
  0
LINE
  8
0
  6
CONTINUOUS
 62
     4
 10
1632.5334576
 20
168.7999944
 11
1677.6001208
 21
168.7999944
  0
LINE
  8
0
  6
CONTINUOUS
 62
     4
 10
1655.0667892
 20
203.4666584
 11
1677.6001208
 21
168.7999944
  0
TEXT
  8
0
  6
CONTINUOUS
 62
     2
 10
1643.6001248
 20
168.3999952
 30
2.4
 40
24.0
  1
１
 50
0.0
 41
1.0
 51
0.0
  7
KANJI60
  0
TEXT
  8
0
  6
CONTINUOUS
 62
     2
 10
1687.6001248
 20
169.3999952
 30
2.4
 40
24.0
  1
２００１．１０．１１　岡田　寸法変更
 50
0.0
 41
1.0
 51
0.0
  7
KANJI60
  0
LINE
  8
0
  6
CONTINUOUS
 62
     4
 10
1208.833457
 20
656.4333268
 11
1197.5667912
 21
639.0999948
  0
LINE
  8
0
  6
CONTINUOUS
 62
     4
 10
1197.5667912
 20
639.0999948
 11
1220.1001228
 21
639.0999948
  0
LINE
  8
0
  6
CONTINUOUS
 62
     4
 10
1208.833457
 20
656.4333268
 11
1220.1001228
 21
639.0999948
  0
TEXT
  8
0
  6
CONTINUOUS
 62
     2
 10
1203.1001248
 20
638.8999952
 30
1.2
 40
12.0
  1
１
 50
0.0
 41
1.0
 51
0.0
  7
KANJI61
  0
LINE
  8
0
  6
CONTINUOUS
 62
     4
 10
1208.833457
 20
600.4333268
 11
1197.5667912
 21
583.0999948
  0
LINE
  8
0
  6
CONTINUOUS
 62
     4
 10
1197.5667912
 20
583.0999948
 11
1220.1001228
 21
583.0999948
  0
LINE
  8
0
  6
CONTINUOUS
 62
     4
 10
1208.833457
 20
600.4333268
 11
1220.1001228
 21
583.0999948
  0
TEXT
  8
0
  6
CONTINUOUS
 62
     2
 10
1203.1001248
 20
582.8999952
 30
1.2
 40
12.0
  1
１
 50
0.0
 41
1.0
 51
0.0
  7
KANJI61
  0
LINE
  8
0
  6
CONTINUOUS
 62
     4
 10
1208.833457
 20
544.4333268
 11
1197.5667912
 21
527.0999948
  0
LINE
  8
0
  6
CONTINUOUS
 62
     4
 10
1197.5667912
 20
527.0999948
 11
1220.1001228
 21
527.0999948
  0
LINE
  8
0
  6
CONTINUOUS
 62
     4
 10
1208.833457
 20
544.4333268
 11
1220.1001228
 21
527.0999948
  0
TEXT
  8
0
  6
CONTINUOUS
 62
     2
 10
1203.1001248
 20
526.8999952
 30
1.2
 40
12.0
  1
１
 50
0.0
 41
1.0
 51
0.0
  7
KANJI61
  0
LINE
  8
0
  6
CONTINUOUS
 62
     4
 10
608.833457
 20
983.4333268
 11
597.5667912
 21
966.0999948
  0
LINE
  8
0
  6
CONTINUOUS
 62
     4
 10
597.5667912
 20
966.0999948
 11
620.1001228
 21
966.0999948
  0
LINE
  8
0
  6
CONTINUOUS
 62
     4
 10
608.833457
 20
983.4333268
 11
620.1001228
 21
966.0999948
  0
TEXT
  8
0
  6
CONTINUOUS
 62
     2
 10
603.1001248
 20
965.8999952
 30
1.2
 40
12.0
  1
１
 50
0.0
 41
1.0
 51
0.0
  7
KANJI61
  0
LINE
  8
0
  6
CONTINUOUS
 62
     4
 10
551.833457
 20
1843.4333268
 11
540.5667912
 21
1826.0999948
  0
LINE
  8
0
  6
CONTINUOUS
 62
     4
 10
540.5667912
 20
1826.0999948
 11
563.1001228
 21
1826.0999948
  0
LINE
  8
0
  6
CONTINUOUS
 62
     4
 10
551.833457
 20
1843.4333268
 11
563.1001228
 21
1826.0999948
  0
TEXT
  8
0
  6
CONTINUOUS
 62
     2
 10
546.1001248
 20
1825.8999952
 30
1.2
 40
12.0
  1
１
 50
0.0
 41
1.0
 51
0.0
  7
KANJI61
  0
LINE
  8
0
  6
CONTINUOUS
 62
     1
 10
390.0
 20
1511.0
 11
390.0
 21
1551.0
  0
LINE
  8
0
  6
CONTINUOUS
 62
     1
 10
440.0
 20
1551.0
 11
390.0
 21
1551.0
  0
LINE
  8
0
  6
CONTINUOUS
 62
     1
 10
440.0
 20
1511.0
 11
390.0
 21
1511.0
  0
LINE
  8
1
  6
CONTINUOUS
 62
     2
 10
390.0
 20
1521.8
 11
378.063053755
 21
1505.752903243
  0
LINE
  8
1
  6
CONTINUOUS
 62
     2
 10
390.0
 20
1521.8
 11
387.685849686
 21
1501.934333429
  0
LINE
  8
1
  6
CONTINUOUS
 62
     2
 10
390.0
 20
1521.8
 11
364.880952381
 21
1458.5
  0
TEXT
  8
1
  6
CONTINUOUS
 62
     3
 10
285.9
 20
1467.5
 30
2.4
 40
24.0
  1
手動軸
 50
0.0
 41
0.9
 51
0.0
  7
KANJI0
  0
TEXT
  8
0
  6
CONTINUOUS
 62
     3
 10
290.0
 20
1427.5
 30
2.4
 40
24.0
  1
□１２
 50
0.0
 41
0.9
 51
0.0
  7
KANJI0
  0
LINE
  8
1
  6
CONTINUOUS
 62
     2
 10
364.880952381
 20
1458.5
 11
282.0
 21
1458.5
  0
LINE
  8
1
  6
CONTINUOUS
 62
     2
 10
390.0
 20
1555.15
 11
390.0
 21
1813.0
  0
ENDSEC
  0
EOF
