  0
SECTION
  2
HEADER
  9
$EXTMIN
 10
0.0
 20
0.0
 30
0.0
  9
$EXTMAX
 10
3360.0
 20
2376.0
 30
0.0
  9
$LIMMIN
 10
0.0
 20
0.0
  9
$LIMMAX
 10
3360.0
 20
2376.0
  9
$LTSCALE
 40
1.0
  9
$PDMODE
 70
     0
  0
ENDSEC
  0
SECTION
  2
TABLES
  0
TABLE
  2
LTYPE
 70
     5
  0
LTYPE
  2
CONTINUOUS
 70
    64
  3
Solid line
 72
    65
 73
     0
 40
0.0
  0
LTYPE
  2
LTYPE1
 70
    64
  3
CENTER
 72
    65
 73
     4
 40
120.0
 49
84.0
 49
-12.0
 49
12.0
 49
-12.0
  0
LTYPE
  2
LTYPE2
 70
    64
  3
CENTER
 72
    65
 73
     4
 40
80.0
 49
56.0
 49
-8.0
 49
8.0
 49
-8.0
  0
LTYPE
  2
LTYPE3
 70
    64
  3
HIDDEN
 72
    65
 73
     2
 40
24.0
 49
14.4
 49
-9.6
  0
LTYPE
  2
LTYPE4
 70
    64
  3
CENTER
 72
    65
 73
     4
 40
160.0
 49
112.0
 49
-16.0
 49
16.0
 49
-16.0
  0
ENDTAB
  0
TABLE
  2
LAYER
 70
   128
  0
LAYER
  2
0
 70
     0
 62
     7
  6
CONTINUOUS
  0
LAYER
  2
2
 70
     0
 62
     7
  6
CONTINUOUS
  0
LAYER
  2
3
 70
     0
 62
     7
  6
CONTINUOUS
  0
LAYER
  2
4
 70
     0
 62
     7
  6
CONTINUOUS
  0
LAYER
  2
5
 70
     0
 62
     7
  6
CONTINUOUS
  0
LAYER
  2
6
 70
     0
 62
     7
  6
CONTINUOUS
  0
LAYER
  2
7
 70
     0
 62
     7
  6
CONTINUOUS
  0
LAYER
  2
8
 70
     0
 62
     7
  6
CONTINUOUS
  0
LAYER
  2
9
 70
     0
 62
     7
  6
CONTINUOUS
  0
LAYER
  2
10
 70
     0
 62
     7
  6
CONTINUOUS
  0
LAYER
  2
11
 70
     0
 62
     7
  6
CONTINUOUS
  0
LAYER
  2
12
 70
     0
 62
     7
  6
CONTINUOUS
  0
LAYER
  2
13
 70
     0
 62
     7
  6
CONTINUOUS
  0
LAYER
  2
14
 70
     0
 62
     7
  6
CONTINUOUS
  0
LAYER
  2
15
 70
     0
 62
     7
  6
CONTINUOUS
  0
LAYER
  2
16
 70
     0
 62
     7
  6
CONTINUOUS
  0
LAYER
  2
17
 70
     0
 62
     7
  6
CONTINUOUS
  0
LAYER
  2
18
 70
     0
 62
     7
  6
CONTINUOUS
  0
LAYER
  2
19
 70
     0
 62
     7
  6
CONTINUOUS
  0
LAYER
  2
20
 70
     0
 62
     7
  6
CONTINUOUS
  0
LAYER
  2
21
 70
     0
 62
     7
  6
CONTINUOUS
  0
LAYER
  2
22
 70
     0
 62
     7
  6
CONTINUOUS
  0
LAYER
  2
23
 70
     0
 62
     7
  6
CONTINUOUS
  0
LAYER
  2
24
 70
     0
 62
     7
  6
CONTINUOUS
  0
LAYER
  2
25
 70
     0
 62
     7
  6
CONTINUOUS
  0
LAYER
  2
26
 70
     0
 62
     7
  6
CONTINUOUS
  0
LAYER
  2
27
 70
     0
 62
     7
  6
CONTINUOUS
  0
LAYER
  2
28
 70
     0
 62
     7
  6
CONTINUOUS
  0
LAYER
  2
29
 70
     0
 62
     7
  6
CONTINUOUS
  0
LAYER
  2
30
 70
     0
 62
     7
  6
CONTINUOUS
  0
LAYER
  2
31
 70
     0
 62
     7
  6
CONTINUOUS
  0
LAYER
  2
32
 70
     0
 62
     7
  6
CONTINUOUS
  0
LAYER
  2
33
 70
     0
 62
     7
  6
CONTINUOUS
  0
LAYER
  2
34
 70
     0
 62
     7
  6
CONTINUOUS
  0
LAYER
  2
35
 70
     0
 62
     7
  6
CONTINUOUS
  0
LAYER
  2
36
 70
     0
 62
     7
  6
CONTINUOUS
  0
LAYER
  2
37
 70
     0
 62
     7
  6
CONTINUOUS
  0
LAYER
  2
38
 70
     0
 62
     7
  6
CONTINUOUS
  0
LAYER
  2
39
 70
     0
 62
     7
  6
CONTINUOUS
  0
LAYER
  2
40
 70
     0
 62
     7
  6
CONTINUOUS
  0
LAYER
  2
41
 70
     0
 62
     7
  6
CONTINUOUS
  0
LAYER
  2
42
 70
     0
 62
     7
  6
CONTINUOUS
  0
LAYER
  2
43
 70
     0
 62
     7
  6
CONTINUOUS
  0
LAYER
  2
44
 70
     0
 62
     7
  6
CONTINUOUS
  0
LAYER
  2
45
 70
     0
 62
     7
  6
CONTINUOUS
  0
LAYER
  2
46
 70
     0
 62
     7
  6
CONTINUOUS
  0
LAYER
  2
47
 70
     0
 62
     7
  6
CONTINUOUS
  0
LAYER
  2
48
 70
     0
 62
     7
  6
CONTINUOUS
  0
LAYER
  2
49
 70
     0
 62
     7
  6
CONTINUOUS
  0
LAYER
  2
50
 70
     0
 62
     7
  6
CONTINUOUS
  0
LAYER
  2
51
 70
     0
 62
     7
  6
CONTINUOUS
  0
LAYER
  2
52
 70
     0
 62
     7
  6
CONTINUOUS
  0
LAYER
  2
53
 70
     0
 62
     7
  6
CONTINUOUS
  0
LAYER
  2
54
 70
     0
 62
     7
  6
CONTINUOUS
  0
LAYER
  2
55
 70
     0
 62
     7
  6
CONTINUOUS
  0
LAYER
  2
56
 70
     0
 62
     7
  6
CONTINUOUS
  0
LAYER
  2
57
 70
     0
 62
     7
  6
CONTINUOUS
  0
LAYER
  2
58
 70
     0
 62
     7
  6
CONTINUOUS
  0
LAYER
  2
59
 70
     0
 62
     7
  6
CONTINUOUS
  0
LAYER
  2
60
 70
     0
 62
     7
  6
CONTINUOUS
  0
LAYER
  2
61
 70
     0
 62
     7
  6
CONTINUOUS
  0
LAYER
  2
62
 70
     0
 62
     7
  6
CONTINUOUS
  0
LAYER
  2
63
 70
     0
 62
     7
  6
CONTINUOUS
  0
LAYER
  2
64
 70
     0
 62
     7
  6
CONTINUOUS
  0
LAYER
  2
65
 70
     0
 62
     7
  6
CONTINUOUS
  0
LAYER
  2
66
 70
     0
 62
     7
  6
CONTINUOUS
  0
LAYER
  2
67
 70
     0
 62
     7
  6
CONTINUOUS
  0
LAYER
  2
68
 70
     0
 62
     7
  6
CONTINUOUS
  0
LAYER
  2
69
 70
     0
 62
     7
  6
CONTINUOUS
  0
LAYER
  2
70
 70
     0
 62
     7
  6
CONTINUOUS
  0
LAYER
  2
71
 70
     0
 62
     7
  6
CONTINUOUS
  0
LAYER
  2
72
 70
     0
 62
     7
  6
CONTINUOUS
  0
LAYER
  2
73
 70
     0
 62
     7
  6
CONTINUOUS
  0
LAYER
  2
74
 70
     0
 62
     7
  6
CONTINUOUS
  0
LAYER
  2
75
 70
     0
 62
     7
  6
CONTINUOUS
  0
LAYER
  2
76
 70
     0
 62
     7
  6
CONTINUOUS
  0
LAYER
  2
77
 70
     0
 62
     7
  6
CONTINUOUS
  0
LAYER
  2
78
 70
     0
 62
     7
  6
CONTINUOUS
  0
LAYER
  2
79
 70
     0
 62
     7
  6
CONTINUOUS
  0
LAYER
  2
80
 70
     0
 62
     7
  6
CONTINUOUS
  0
LAYER
  2
81
 70
     0
 62
     7
  6
CONTINUOUS
  0
LAYER
  2
82
 70
     0
 62
     7
  6
CONTINUOUS
  0
LAYER
  2
83
 70
     0
 62
     7
  6
CONTINUOUS
  0
LAYER
  2
84
 70
     0
 62
     7
  6
CONTINUOUS
  0
LAYER
  2
85
 70
     0
 62
     7
  6
CONTINUOUS
  0
LAYER
  2
86
 70
     0
 62
     7
  6
CONTINUOUS
  0
LAYER
  2
87
 70
     0
 62
     7
  6
CONTINUOUS
  0
LAYER
  2
88
 70
     0
 62
     7
  6
CONTINUOUS
  0
LAYER
  2
89
 70
     0
 62
     7
  6
CONTINUOUS
  0
LAYER
  2
90
 70
     0
 62
     7
  6
CONTINUOUS
  0
LAYER
  2
91
 70
     0
 62
     7
  6
CONTINUOUS
  0
LAYER
  2
92
 70
     0
 62
     7
  6
CONTINUOUS
  0
LAYER
  2
93
 70
     0
 62
     7
  6
CONTINUOUS
  0
LAYER
  2
94
 70
     0
 62
     7
  6
CONTINUOUS
  0
LAYER
  2
95
 70
     0
 62
     7
  6
CONTINUOUS
  0
LAYER
  2
96
 70
     0
 62
     7
  6
CONTINUOUS
  0
LAYER
  2
97
 70
     0
 62
     7
  6
CONTINUOUS
  0
LAYER
  2
98
 70
     0
 62
     7
  6
CONTINUOUS
  0
LAYER
  2
99
 70
     0
 62
     7
  6
CONTINUOUS
  0
LAYER
  2
100
 70
     0
 62
     7
  6
CONTINUOUS
  0
LAYER
  2
101
 70
     0
 62
     7
  6
CONTINUOUS
  0
LAYER
  2
102
 70
     0
 62
     7
  6
CONTINUOUS
  0
LAYER
  2
103
 70
     0
 62
     7
  6
CONTINUOUS
  0
LAYER
  2
104
 70
     0
 62
     7
  6
CONTINUOUS
  0
LAYER
  2
105
 70
     0
 62
     7
  6
CONTINUOUS
  0
LAYER
  2
106
 70
     0
 62
     7
  6
CONTINUOUS
  0
LAYER
  2
107
 70
     0
 62
     7
  6
CONTINUOUS
  0
LAYER
  2
108
 70
     0
 62
     7
  6
CONTINUOUS
  0
LAYER
  2
109
 70
     0
 62
     7
  6
CONTINUOUS
  0
LAYER
  2
110
 70
     0
 62
     7
  6
CONTINUOUS
  0
LAYER
  2
111
 70
     0
 62
     7
  6
CONTINUOUS
  0
LAYER
  2
112
 70
     0
 62
     7
  6
CONTINUOUS
  0
LAYER
  2
113
 70
     0
 62
     7
  6
CONTINUOUS
  0
LAYER
  2
114
 70
     0
 62
     7
  6
CONTINUOUS
  0
LAYER
  2
115
 70
     0
 62
     7
  6
CONTINUOUS
  0
LAYER
  2
116
 70
     0
 62
     7
  6
CONTINUOUS
  0
LAYER
  2
117
 70
     0
 62
     7
  6
CONTINUOUS
  0
LAYER
  2
118
 70
     0
 62
     7
  6
CONTINUOUS
  0
LAYER
  2
119
 70
     0
 62
     7
  6
CONTINUOUS
  0
LAYER
  2
120
 70
     0
 62
     7
  6
CONTINUOUS
  0
LAYER
  2
121
 70
     0
 62
     7
  6
CONTINUOUS
  0
LAYER
  2
122
 70
     0
 62
     7
  6
CONTINUOUS
  0
LAYER
  2
123
 70
     0
 62
     7
  6
CONTINUOUS
  0
LAYER
  2
124
 70
     0
 62
     7
  6
CONTINUOUS
  0
LAYER
  2
125
 70
     0
 62
     7
  6
CONTINUOUS
  0
LAYER
  2
126
 70
     0
 62
     7
  6
CONTINUOUS
  0
LAYER
  2
127
 70
     0
 62
     7
  6
CONTINUOUS
  0
LAYER
  2
128
 70
     0
 62
     7
  6
CONTINUOUS
  0
ENDTAB
  0
TABLE
  2
STYLE
 70
    60
  0
STYLE
  2
STANDARD
 70
     0
 40
0.0
 41
1.0
 50
0.0
 71
     0
 42
0.2
  3
txt
  4

  0
STYLE
  2
KANJI0
 70
     0
 40
24.0
 41
0.9
 50
0.0
 71
     0
 42
24.0
  3

  4
bigfont
  0
STYLE
  2
KANJI1
 70
     0
 40
36.0
 41
0.9
 50
0.0
 71
     0
 42
36.0
  3

  4
bigfont
  0
STYLE
  2
KANJI2
 70
     4
 40
28.0
 41
0.9
 50
0.0
 71
     0
 42
28.0
  3

  4
bigfont
  0
STYLE
  2
KANJI3
 70
     4
 40
24.0
 41
0.9
 50
0.0
 71
     0
 42
24.0
  3

  4
bigfont
  0
STYLE
  2
KANJI4
 70
     0
 40
28.0
 41
0.9
 50
0.0
 71
     0
 42
28.0
  3

  4
bigfont
  0
STYLE
  2
KANJI5
 70
     0
 40
24.0
 41
0.9
 50
0.0
 71
     0
 42
24.0
  3

  4
bigfont
  0
STYLE
  2
KANJI6
 70
     0
 40
24.0
 41
0.857142857
 50
0.0
 71
     0
 42
24.0
  3

  4
bigfont
  0
STYLE
  2
KANJI7
 70
     0
 40
28.0
 41
0.9
 50
0.0
 71
     0
 42
28.0
  3

  4
bigfont
  0
STYLE
  2
KANJI8
 70
     0
 40
22.4
 41
0.9
 50
0.0
 71
     0
 42
22.4
  3

  4
bigfont
  0
STYLE
  2
KANJI9
 70
     0
 40
22.4
 41
0.785714286
 50
0.0
 71
     0
 42
22.4
  3

  4
bigfont
  0
STYLE
  2
KANJI10
 70
     0
 40
22.4
 41
0.8
 50
0.0
 71
     0
 42
22.4
  3

  4
bigfont
  0
STYLE
  2
KANJI11
 70
     0
 40
24.0
 41
0.8
 50
0.0
 71
     0
 42
24.0
  3

  4
bigfont
  0
STYLE
  2
KANJI12
 70
     0
 40
24.0
 41
0.9
 50
0.0
 71
     0
 42
24.0
  3

  4
bigfont
  0
STYLE
  2
KANJI13
 70
     0
 40
19.2
 41
0.777777778
 50
0.0
 71
     0
 42
19.2
  3

  4
bigfont
  0
STYLE
  2
KANJI14
 70
     0
 40
25.6
 41
0.9
 50
0.0
 71
     0
 42
25.6
  3

  4
bigfont
  0
STYLE
  2
KANJI15
 70
     0
 40
30.4
 41
0.9
 50
0.0
 71
     0
 42
30.4
  3

  4
bigfont
  0
STYLE
  2
KANJI16
 70
     0
 40
30.4
 41
0.9
 50
0.0
 71
     0
 42
30.4
  3

  4
bigfont
  0
STYLE
  2
KANJI17
 70
     0
 40
30.4
 41
0.9
 50
0.0
 71
     0
 42
30.4
  3

  4
bigfont
  0
STYLE
  2
KANJI18
 70
     0
 40
30.4
 41
0.9
 50
0.0
 71
     0
 42
30.4
  3

  4
bigfont
  0
STYLE
  2
KANJI19
 70
     0
 40
30.4
 41
0.9
 50
0.0
 71
     0
 42
30.4
  3

  4
bigfont
  0
STYLE
  2
KANJI20
 70
     0
 40
30.4
 41
0.9
 50
0.0
 71
     0
 42
30.4
  3

  4
bigfont
  0
STYLE
  2
KANJI21
 70
     0
 40
30.4
 41
0.9
 50
0.0
 71
     0
 42
30.4
  3

  4
bigfont
  0
STYLE
  2
KANJI22
 70
     0
 40
30.4
 41
0.9
 50
0.0
 71
     0
 42
30.4
  3

  4
bigfont
  0
STYLE
  2
KANJI23
 70
     0
 40
30.4
 41
0.9
 50
0.0
 71
     0
 42
30.4
  3

  4
bigfont
  0
STYLE
  2
KANJI24
 70
     0
 40
30.4
 41
0.9
 50
0.0
 71
     0
 42
30.4
  3

  4
bigfont
  0
STYLE
  2
KANJI25
 70
     0
 40
22.4
 41
0.8
 50
0.0
 71
     0
 42
22.4
  3

  4
bigfont
  0
STYLE
  2
KANJI26
 70
     0
 40
28.0
 41
0.9
 50
0.0
 71
     0
 42
28.0
  3

  4
bigfont
  0
STYLE
  2
KANJI27
 70
     0
 40
15.999996636
 41
0.6
 50
0.0
 71
     0
 42
15.999996636
  3

  4
bigfont
  0
STYLE
  2
KANJI28
 70
     0
 40
19.199995963
 41
0.9
 50
0.0
 71
     0
 42
19.199995963
  3

  4
bigfont
  0
STYLE
  2
KANJI29
 70
     0
 40
20.7999984
 41
0.9
 50
0.0
 71
     0
 42
20.7999984
  3

  4
bigfont
  0
STYLE
  2
KANJI30
 70
     0
 40
13.8666656
 41
0.75
 50
0.0
 71
     0
 42
13.8666656
  3

  4
bigfont
  0
STYLE
  2
KANJI31
 70
     0
 40
20.7999984
 41
0.75
 50
0.0
 71
     0
 42
20.7999984
  3

  4
bigfont
  0
STYLE
  2
KANJI32
 70
     0
 40
12.47999904
 41
0.75
 50
0.0
 71
     0
 42
12.47999904
  3

  4
bigfont
  0
STYLE
  2
KANJI33
 70
     0
 40
13.8666656
 41
0.6
 50
0.0
 71
     0
 42
13.8666656
  3

  4
bigfont
  0
STYLE
  2
KANJI34
 70
     0
 40
16.63999872
 41
0.6
 50
0.0
 71
     0
 42
16.63999872
  3

  4
bigfont
  0
STYLE
  2
KANJI35
 70
     0
 40
13.8666656
 41
0.9
 50
0.0
 71
     0
 42
13.8666656
  3

  4
bigfont
  0
STYLE
  2
KANJI36
 70
     0
 40
13.8666656
 41
0.8
 50
0.0
 71
     0
 42
13.8666656
  3

  4
bigfont
  0
STYLE
  2
KANJI37
 70
     0
 40
16.63999872
 41
0.9
 50
0.0
 71
     0
 42
16.63999872
  3

  4
bigfont
  0
STYLE
  2
KANJI38
 70
     0
 40
16.63999872
 41
0.8
 50
0.0
 71
     0
 42
16.63999872
  3

  4
bigfont
  0
STYLE
  2
KANJI39
 70
     0
 40
20.7999984
 41
0.75
 50
0.0
 71
     0
 42
20.7999984
  3

  4
bigfont
  0
STYLE
  2
KANJI40
 70
     0
 40
69.333328
 41
0.9
 50
0.0
 71
     0
 42
69.333328
  3

  4
bigfont
  0
STYLE
  2
KANJI41
 70
     0
 40
23.999994954
 41
0.9
 50
0.0
 71
     0
 42
23.999994954
  3

  4
bigfont
  0
STYLE
  2
KANJI42
 70
     0
 40
24.2666648
 41
0.42031746
 50
0.0
 71
     0
 42
24.2666648
  3

  4
bigfont
  0
STYLE
  2
KANJI43
 70
     0
 40
41.5999968
 41
0.9
 50
0.0
 71
     0
 42
41.5999968
  3

  4
bigfont
  0
STYLE
  2
KANJI44
 70
     0
 40
36.0
 41
0.666666667
 50
0.0
 71
     0
 42
36.0
  3

  4
bigfont
  0
STYLE
  2
KANJI45
 70
     0
 40
32.0
 41
0.75
 50
0.0
 71
     0
 42
32.0
  3

  4
bigfont
  0
STYLE
  2
KANJI46
 70
     0
 40
40.0
 41
1.0
 50
0.0
 71
     0
 42
40.0
  3

  4
bigfont
  0
STYLE
  2
KANJI47
 70
     0
 40
40.0
 41
1.0
 50
0.0
 71
     0
 42
40.0
  3

  4
bigfont
  0
STYLE
  2
KANJI48
 70
     0
 40
27.9993
 41
0.9
 50
0.0
 71
     0
 42
27.9993
  3

  4
bigfont
  0
STYLE
  2
KANJI49
 70
     0
 40
23.9994
 41
0.9
 50
0.0
 71
     0
 42
23.9994
  3

  4
bigfont
  0
STYLE
  2
KANJI50
 70
     0
 40
28.0
 41
0.914285714
 50
0.0
 71
     0
 42
28.0
  3

  4
bigfont
  0
STYLE
  2
KANJI51
 70
     0
 40
32.0
 41
0.9
 50
0.0
 71
     0
 42
32.0
  3

  4
bigfont
  0
STYLE
  2
KANJI52
 70
     0
 40
28.8
 41
0.857142857
 50
0.0
 71
     0
 42
28.8
  3

  4
bigfont
  0
STYLE
  2
KANJI53
 70
     0
 40
28.8
 41
0.857222222
 50
0.0
 71
     0
 42
28.8
  3

  4
bigfont
  0
STYLE
  2
KANJI54
 70
     0
 40
28.0
 41
0.9
 50
0.0
 71
     0
 42
28.0
  3

  4
bigfont
  0
STYLE
  2
KANJI55
 70
     0
 40
24.0
 41
0.833333333
 50
0.0
 71
     0
 42
24.0
  3

  4
bigfont
  0
STYLE
  2
KANJI56
 70
     0
 40
28.0
 41
0.793650794
 50
0.0
 71
     0
 42
28.0
  3

  4
bigfont
  0
STYLE
  2
KANJI57
 70
     0
 40
40.0
 41
0.8
 50
0.0
 71
     0
 42
40.0
  3

  4
bigfont
  0
STYLE
  2
KANJI58
 70
     0
 40
28.0
 41
0.571428571
 50
0.0
 71
     0
 42
28.0
  3

  4
bigfont
  0
ENDTAB
  0
TABLE
  2
VIEW
 70
     0
  0
ENDTAB
  0
ENDSEC
  0
SECTION
  2
BLOCKS
  0
ENDSEC
  0
SECTION
  2
ENTITIES
  0
LINE
  8
0
  6
CONTINUOUS
 62
     1
 10
607.0
 20
724.0
 11
1847.0
 21
724.0
  0
LINE
  8
0
  6
CONTINUOUS
 62
     1
 10
607.0
 20
668.0
 11
1847.0
 21
668.0
  0
LINE
  8
0
  6
CONTINUOUS
 62
     2
 10
607.0
 20
612.0
 11
1847.0
 21
612.0
  0
LINE
  8
0
  6
CONTINUOUS
 62
     2
 10
607.0
 20
556.0
 11
1847.0
 21
556.0
  0
LINE
  8
0
  6
CONTINUOUS
 62
     2
 10
607.0
 20
500.0
 11
1847.0
 21
500.0
  0
CIRCLE
  8
0
  6
CONTINUOUS
 62
     1
 10
632.0
 20
1304.0
 40
22.5
  0
CIRCLE
  8
0
  6
CONTINUOUS
 62
     1
 10
632.0
 20
1304.0
 40
45.0
  0
CIRCLE
  8
0
  6
CONTINUOUS
 62
     1
 10
632.0
 20
1304.0
 40
55.0
  0
LINE
  8
0
  6
CONTINUOUS
 62
     1
 10
597.0
 20
1404.0
 11
620.0
 21
1385.5
  0
LINE
  8
0
  6
CONTINUOUS
 62
     1
 10
597.0
 20
1350.5
 11
597.0
 21
1404.0
  0
LINE
  8
0
  6
CONTINUOUS
 62
     1
 10
620.0
 20
1360.5
 11
620.0
 21
1385.5
  0
LINE
  8
0
  6
CONTINUOUS
 62
     1
 10
562.0
 20
1204.0
 11
597.0
 21
1204.0
  0
LINE
  8
0
  6
CONTINUOUS
 62
     1
 10
597.0
 20
1204.0
 11
620.0
 21
1222.5
  0
LINE
  8
0
  6
CONTINUOUS
 62
     1
 10
597.0
 20
1257.5
 11
597.0
 21
1204.0
  0
LINE
  8
0
  6
CONTINUOUS
 62
     1
 10
620.0
 20
1247.5
 11
620.0
 21
1222.5
  0
LINE
  8
0
  6
CONTINUOUS
 62
     1
 10
822.0
 20
1204.0
 11
792.0
 21
1222.5
  0
LINE
  8
0
  6
CONTINUOUS
 62
     1
 10
620.0
 20
1222.5
 11
792.0
 21
1222.5
  0
LINE
  8
0
  6
CONTINUOUS
 62
     1
 10
822.0
 20
1204.0
 11
862.0
 21
1204.0
  0
LINE
  8
0
  6
CONTINUOUS
 62
     1
 10
792.0
 20
1304.0
 11
792.0
 21
1222.5
  0
LINE
  8
0
  6
LTYPE1
 62
     2
 10
632.0
 20
1234.398877817
 11
632.0
 21
1371.366558854
  0
LINE
  8
0
  6
CONTINUOUS
 62
     1
 10
862.0
 20
1304.0
 11
862.0
 21
1204.0
  0
CIRCLE
  8
0
  6
CONTINUOUS
 62
     1
 10
1100.3
 20
1304.0
 40
19.5
  0
LINE
  8
0
  6
CONTINUOUS
 62
     1
 10
1080.3
 20
1324.0
 11
1120.3
 21
1324.0
  0
LINE
  8
0
  6
CONTINUOUS
 62
     1
 10
1120.3
 20
1284.0
 11
1120.3
 21
1324.0
  0
LINE
  8
0
  6
CONTINUOUS
 62
     1
 10
1080.3
 20
1284.0
 11
1120.3
 21
1284.0
  0
LINE
  8
0
  6
CONTINUOUS
 62
     1
 10
1080.3
 20
1284.0
 11
1080.3
 21
1324.0
  0
LINE
  8
0
  6
LTYPE2
 62
     2
 10
1100.3
 20
1278.9
 11
1100.3
 21
1328.8
  0
LINE
  8
0
  6
LTYPE1
 62
     2
 10
440.0
 20
1199.0
 11
383.0
 21
1199.0
  0
LINE
  8
0
  6
CONTINUOUS
 62
     1
 10
407.0
 20
1199.0
 11
407.0
 21
1188.05046
  0
LINE
  8
0
  6
CONTINUOUS
 62
     1
 10
407.0
 20
1199.0
 11
407.0
 21
1209.94954
  0
LINE
  8
0
  6
CONTINUOUS
 62
     1
 10
398.9789
 20
1190.73198
 11
400.527076294
 21
1188.05046
  0
LINE
  8
0
  6
CONTINUOUS
 62
     1
 10
398.9789
 20
1199.0
 11
398.9789
 21
1190.73198
  0
LINE
  8
0
  6
CONTINUOUS
 62
     1
 10
398.9789
 20
1207.26802
 11
400.527076294
 21
1209.94954
  0
LINE
  8
0
  6
CONTINUOUS
 62
     1
 10
398.9789
 20
1199.0
 11
398.9789
 21
1207.26802
  0
ARC
  8
0
  6
CONTINUOUS
 62
     1
 10
409.433121693
 20
1199.0
 40
10.454221693
 50
148.419912243
 51
211.580087757
  0
ARC
  8
0
  6
CONTINUOUS
 62
     1
 10
402.172013606
 20
1190.787845
 40
3.193602261
 50
121.002313915
 51
182.989498403
  0
LINE
  8
0
  6
CONTINUOUS
 62
     1
 10
398.9789
 20
1207.26802
 11
400.527076294
 21
1209.94954
  0
ARC
  8
0
  6
CONTINUOUS
 62
     1
 10
402.172013606
 20
1207.212155
 40
3.193602261
 50
177.010501597
 51
238.997686085
  0
LINE
  8
0
  6
CONTINUOUS
 62
     1
 10
407.0
 20
1188.05046
 11
400.527076294
 21
1188.05046
  0
LINE
  8
0
  6
CONTINUOUS
 62
     1
 10
407.0
 20
1193.52523
 11
400.527076294
 21
1193.52523
  0
LINE
  8
0
  6
CONTINUOUS
 62
     1
 10
407.0
 20
1204.47477
 11
400.527076294
 21
1204.47477
  0
LINE
  8
0
  6
CONTINUOUS
 62
     1
 10
407.0
 20
1209.94954
 11
400.527076294
 21
1209.94954
  0
LINE
  8
6
  6
CONTINUOUS
 62
     2
 10
1367.0
 20
1396.5
 11
1366.5
 21
1396.5
  0
LINE
  8
0
  6
LTYPE3
 62
     2
 10
2056.5
 20
1326.5
 11
2006.5
 21
1326.5
  0
LINE
  8
0
  6
LTYPE3
 62
     2
 10
2056.5
 20
1281.5
 11
2006.5
 21
1281.5
  0
LINE
  8
0
  6
LTYPE3
 62
     2
 10
2056.5
 20
1281.5
 11
2056.5
 21
1326.5
  0
LINE
  8
0
  6
CONTINUOUS
 62
     1
 10
2006.5
 20
1254.0
 11
2072.127626097
 21
1249.0
  0
LINE
  8
0
  6
CONTINUOUS
 62
     1
 10
2016.5
 20
1184.0
 11
2016.5
 21
1253.0
  0
ARC
  8
0
  6
CONTINUOUS
 62
     1
 10
2031.5
 20
1184.0
 40
15.0
 50
180.0
 51
270.0
  0
LINE
  8
0
  6
CONTINUOUS
 62
     1
 10
2084.00566924
 20
1397.810759633
 11
2034.104519278
 21
1326.54453178
  0
ARC
  8
0
  6
CONTINUOUS
 62
     1
 10
2084.334520095
 20
1406.125917906
 40
3.0
 50
325.0
 51
55.0
  0
LINE
  8
0
  6
CONTINUOUS
 62
     1
 10
2047.964679345
 20
1435.25467833
 11
2086.055249404
 21
1408.583374039
  0
ARC
  8
0
  6
CONTINUOUS
 62
     1
 10
2047.391102908
 20
1434.435526285
 40
1.0
 50
55.0
 51
145.0
  0
ARC
  8
0
  6
CONTINUOUS
 62
     1
 10
2044.851221555
 20
1432.551646589
 40
1.0
 50
55.0
 51
145.0
  0
ARC
  8
0
  6
CONTINUOUS
 62
     1
 10
2029.271182206
 20
1327.487321655
 40
3.0
 50
235.0
 51
325.0
  0
LINE
  8
0
  6
CONTINUOUS
 62
     1
 10
1989.459882837
 20
1351.701169812
 11
2027.550452896
 21
1325.029865522
  0
ARC
  8
0
  6
CONTINUOUS
 62
     1
 10
1990.033459273
 20
1352.520321856
 40
1.0
 50
145.0
 51
235.0
  0
ARC
  8
0
  6
CONTINUOUS
 62
     1
 10
1990.935036538
 20
1355.551354426
 40
1.0
 50
145.0
 51
235.0
  0
LINE
  8
0
  6
CONTINUOUS
 62
     1
 10
1993.555643058
 20
1348.83328763
 11
2052.060439566
 21
1432.386796148
  0
LINE
  8
0
  6
CONTINUOUS
 62
     1
 10
1994.784371125
 20
1347.972922976
 11
2053.289167633
 21
1431.526431493
  0
LINE
  8
0
  6
CONTINUOUS
 62
     1
 10
2086.791976228
 20
1404.405188597
 11
2031.728638338
 21
1325.766592346
  0
LINE
  8
0
  6
CONTINUOUS
 62
     1
 10
1990.115884494
 20
1356.124930862
 11
2044.032069511
 21
1433.125223025
  0
LINE
  8
0
  6
CONTINUOUS
 62
     1
 10
1989.214307229
 20
1353.093898293
 11
2046.571950864
 21
1435.009102722
  0
LINE
  8
0
  6
LTYPE2
 62
     2
 10
1988.232174803
 20
1359.885467765
 11
2003.550318031
 21
1349.159588405
  0
LINE
  8
0
  6
LTYPE2
 62
     2
 10
2039.854054074
 20
1433.609151751
 11
2055.172197302
 21
1422.883272391
  0
LINE
  8
0
  6
CONTINUOUS
 62
     1
 10
2006.5
 20
1254.0
 11
2006.5
 21
1341.225525817
  0
LINE
  8
0
  6
CONTINUOUS
 62
     1
 10
2106.110225663
 20
1387.216080952
 11
2086.299974985
 21
1401.08736781
  0
LINE
  8
0
  6
LTYPE1
 62
     2
 10
2153.158322994
 20
1299.337792048
 11
2010.158322994
 21
1399.467470012
  0
LINE
  8
0
  6
CONTINUOUS
 62
     1
 10
2055.488346391
 20
1312.792189428
 11
2034.678095714
 21
1327.363683824
  0
LINE
  8
0
  6
LTYPE3
 62
     2
 10
2236.5
 20
1281.5
 11
2286.5
 21
1281.5
  0
LINE
  8
0
  6
CONTINUOUS
 62
     1
 10
2286.5
 20
1254.0
 11
2220.872373903
 21
1249.0
  0
LINE
  8
0
  6
CONTINUOUS
 62
     1
 10
2276.5
 20
1184.0
 11
2276.5
 21
1253.0
  0
ARC
  8
0
  6
CONTINUOUS
 62
     1
 10
2261.5
 20
1184.0
 40
15.0
 50
270.0
 51
0.0
  0
LINE
  8
0
  6
LTYPE3
 62
     2
 10
2236.5
 20
1326.5
 11
2286.5
 21
1326.5
  0
LINE
  8
0
  6
LTYPE3
 62
     2
 10
2236.5
 20
1281.5
 11
2236.5
 21
1326.5
  0
LINE
  8
0
  6
CONTINUOUS
 62
     1
 10
2286.5
 20
1354.0
 11
2220.872373903
 21
1359.0
  0
LINE
  8
0
  6
CONTINUOUS
 62
     1
 10
2286.5
 20
1254.0
 11
2286.5
 21
1354.0
  0
TEXT
  8
0
  6
CONTINUOUS
 62
     2
 10
935.0
 20
625.4
 30
2.4
 40
24.0
  1
３００
 50
0.0
 41
0.9
 51
0.0
  7
KANJI0
  0
TEXT
  8
0
  6
CONTINUOUS
 62
     2
 10
935.0
 20
569.4
 30
2.4
 40
24.0
  1
５００
 50
0.0
 41
0.9
 51
0.0
  7
KANJI0
  0
LINE
  8
0
  6
LTYPE1
 62
     2
 10
2026.548183048
 20
1363.697752135
 11
2049.892744008
 21
1397.037240338
  0
POINT
  8
0
  6
CONTINUOUS
 62
     1
 10
688.0
 20
1304.0
  0
LINE
  8
0
  6
CONTINUOUS
 62
     1
 10
562.0
 20
1169.0
 11
562.0
 21
1411.5
  0
LINE
  8
0
  6
CONTINUOUS
 62
     1
 10
562.0
 20
1169.0
 11
407.0
 21
1169.0
  0
LINE
  8
0
  6
CONTINUOUS
 62
     1
 10
745.0
 20
1355.305778818
 11
735.0
 21
1365.305778818
  0
ARC
  8
0
  6
CONTINUOUS
 62
     1
 10
733.0
 20
1353.63644216
 40
3.0
 50
180.0
 51
270.0
  0
ARC
  8
0
  6
CONTINUOUS
 62
     1
 10
733.0
 20
1350.194983542
 40
3.0
 50
180.0
 51
270.0
  0
ARC
  8
0
  6
CONTINUOUS
 62
     1
 10
733.0
 20
1349.334618887
 40
3.0
 50
180.0
 51
270.0
  0
LINE
  8
0
  6
CONTINUOUS
 62
     1
 10
853.0
 20
1365.305778818
 11
843.0
 21
1355.305778818
  0
LINE
  8
0
  6
CONTINUOUS
 62
     1
 10
745.0
 20
1355.305778818
 11
843.0
 21
1355.305778818
  0
ARC
  8
0
  6
CONTINUOUS
 62
     1
 10
855.0
 20
1353.63644216
 40
3.0
 50
270.0
 51
0.0
  0
ARC
  8
0
  6
CONTINUOUS
 62
     1
 10
855.0
 20
1350.194983542
 40
3.0
 50
270.0
 51
0.0
  0
ARC
  8
0
  6
CONTINUOUS
 62
     1
 10
855.0
 20
1349.334618887
 40
3.0
 50
270.0
 51
0.0
  0
LINE
  8
0
  6
CONTINUOUS
 62
     1
 10
732.507319827
 20
1350.63644216
 11
855.0
 21
1350.63644216
  0
LINE
  8
0
  6
CONTINUOUS
 62
     1
 10
732.607319827
 20
1347.194983542
 11
855.0
 21
1347.194983542
  0
LINE
  8
0
  6
CONTINUOUS
 62
     1
 10
732.607319827
 20
1346.334618887
 11
855.0
 21
1346.334618887
  0
LINE
  8
0
  6
CONTINUOUS
 62
     1
 10
863.0
 20
1349.266636349
 11
863.0
 21
1406.13271812
  0
LINE
  8
0
  6
CONTINUOUS
 62
     1
 10
858.0
 20
1349.266636349
 11
863.0
 21
1349.266636349
  0
LINE
  8
0
  6
CONTINUOUS
 62
     1
 10
858.0
 20
1406.13271812
 11
863.0
 21
1406.13271812
  0
LINE
  8
0
  6
CONTINUOUS
 62
     1
 10
858.0
 20
1373.366636349
 11
863.0
 21
1373.366636349
  0
LINE
  8
0
  6
CONTINUOUS
 62
     1
 10
820.0
 20
1322.657620342
 11
858.0
 21
1322.657620342
  0
LINE
  8
0
  6
CONTINUOUS
 62
     1
 10
863.0
 20
1393.848877817
 11
863.0
 21
1366.148877817
  0
LINE
  8
0
  6
CONTINUOUS
 62
     1
 10
620.0
 20
1385.5
 11
730.0
 21
1385.5
  0
LINE
  8
0
  6
CONTINUOUS
 62
     1
 10
730.0
 20
1321.957620342
 11
820.0
 21
1321.957620342
  0
LINE
  8
0
  6
CONTINUOUS
 62
     1
 10
822.0
 20
1322.657620342
 11
822.0
 21
1204.0
  0
LINE
  8
0
  6
CONTINUOUS
 62
     1
 10
862.0
 20
1349.266636349
 11
862.0
 21
1204.0
  0
LINE
  8
0
  6
CONTINUOUS
 62
     1
 10
2507.0
 20
1032.0
 11
3207.0
 21
1032.0
  0
LINE
  8
0
  6
CONTINUOUS
 62
     1
 10
2507.0
 20
2120.0
 11
3207.0
 21
2120.0
  0
LINE
  8
0
  6
CONTINUOUS
 62
     1
 10
2507.0
 20
2120.0
 11
2507.0
 21
1032.0
  0
TEXT
  8
0
  6
CONTINUOUS
 62
     2
 10
2607.0
 20
2061.6
 30
22.79952
 40
36.0
  1
マイティシリンダ仕様
 50
0.0
 41
0.9
 51
0.0
  7
KANJI1
  0
TEXT
  8
0
  6
CONTINUOUS
 62
     2
 10
2539.6
 20
1556.0
 30
17.6
 40
28.0
  1
モ　トル仕様
 50
0.0
 41
0.9
 51
0.0
  7
KANJI2
  0
TEXT
  8
0
  6
CONTINUOUS
 62
     2
 10
2537.8
 20
1252.0
 30
1.371428571
 40
24.0
  1
ブレ　キ
 50
0.0
 41
0.9
 51
0.0
  7
KANJI3
  0
LINE
  8
0
  6
CONTINUOUS
 62
     2
 10
2537.4
 20
1196.8
 11
2537.4
 21
1180.0
  0
LINE
  8
0
  6
CONTINUOUS
 62
     2
 10
2537.4
 20
1511.2
 11
2537.4
 21
1492.8
  0
TEXT
  8
0
  6
CONTINUOUS
 62
     2
 10
2966.2
 20
1662.4
 30
11.36
 40
28.0
  1
推力リミッタ
 50
0.0
 41
0.9
 51
0.0
  7
KANJI4
  0
TEXT
  8
0
  6
CONTINUOUS
 62
     2
 10
3178.2
 20
1550.4
 30
17.571428571
 40
24.0
  1
Ｐ
 50
0.0
 41
0.9
 51
0.0
  7
KANJI5
  0
TEXT
  8
0
  6
CONTINUOUS
 62
     2
 10
3045.4
 20
1550.4
 30
1.6
 40
24.0
  1
ＫＷ
 50
0.0
 41
0.857142857
 51
0.0
  7
KANJI6
  0
TEXT
  8
0
  6
CONTINUOUS
 62
     2
 10
3138.2
 20
1550.4
 30
20.5
 40
28.0
  1
４
 50
0.0
 41
0.9
 51
0.0
  7
KANJI7
  0
TEXT
  8
0
  6
CONTINUOUS
 62
     2
 10
2921.4
 20
1608.8
 30
0.8
 40
22.4
  1
マンセル
 50
0.0
 41
0.9
 51
0.0
  7
KANJI8
  0
TEXT
  8
0
  6
CONTINUOUS
 62
     2
 10
3015.0
 20
1610.4
 30
0.32
 40
22.4
  1
７．５ＧＹ５／４．５
 50
0.0
 41
0.785714286
 51
0.0
  7
KANJI9
  0
TEXT
  8
0
  6
CONTINUOUS
 62
     2
 10
2915.0
 20
1215.2
 30
2.4
 40
22.4
  1
スプリング制動式電磁ブレーキ
 50
0.0
 41
0.8
 51
0.0
  7
KANJI10
  0
TEXT
  8
0
  6
CONTINUOUS
 62
     2
 10
3179.0
 20
1494.4
 30
0.288
 40
24.0
  1
Ｖ
 50
0.0
 41
0.8
 51
0.0
  7
KANJI11
  0
TEXT
  8
0
  6
CONTINUOUS
 62
     2
 10
3164.6
 20
1438.4
 30
0.288
 40
24.0
  1
Ｈｚ
 50
0.0
 41
0.8
 51
0.0
  7
KANJI11
  0
TEXT
  8
0
  6
CONTINUOUS
 62
     2
 10
3006.8
 20
1438.2
 30
2.4
 40
24.0
  1
５０／６０
 50
0.0
 41
0.9
 51
0.0
  7
KANJI0
  0
TEXT
  8
0
  6
CONTINUOUS
 62
     2
 10
3180.8
 20
1384.2
 30
2.4
 40
24.0
  1
Ａ
 50
0.0
 41
0.9
 51
0.0
  7
KANJI0
  0
TEXT
  8
0
  6
CONTINUOUS
 62
     2
 10
3054.8
 20
1330.2
 30
2.4
 40
24.0
  1
Ｅ
 50
0.0
 41
0.9
 51
0.0
  7
KANJI0
  0
LINE
  8
0
  6
CONTINUOUS
 62
     2
 10
2507.0
 20
1144.0
 11
3207.0
 21
1144.0
  0
LINE
  8
0
  6
CONTINUOUS
 62
     2
 10
2507.0
 20
1088.0
 11
3207.0
 21
1088.0
  0
LINE
  8
0
  6
CONTINUOUS
 62
     2
 10
2571.0
 20
1200.0
 11
3207.0
 21
1200.0
  0
LINE
  8
0
  6
CONTINUOUS
 62
     2
 10
2571.0
 20
1592.0
 11
2571.0
 21
1144.0
  0
LINE
  8
0
  6
CONTINUOUS
 62
     2
 10
2507.0
 20
1256.0
 11
3207.0
 21
1256.0
  0
LINE
  8
0
  6
CONTINUOUS
 62
     2
 10
2571.0
 20
1312.0
 11
3207.0
 21
1312.0
  0
LINE
  8
0
  6
CONTINUOUS
 62
     2
 10
2571.0
 20
1368.0
 11
3207.0
 21
1368.0
  0
LINE
  8
0
  6
CONTINUOUS
 62
     2
 10
2571.0
 20
1424.0
 11
3207.0
 21
1424.0
  0
LINE
  8
0
  6
CONTINUOUS
 62
     2
 10
2507.0
 20
1704.0
 11
3207.0
 21
1704.0
  0
LINE
  8
0
  6
CONTINUOUS
 62
     2
 10
2507.0
 20
1648.0
 11
3207.0
 21
1648.0
  0
LINE
  8
0
  6
CONTINUOUS
 62
     2
 10
2507.0
 20
1592.0
 11
3207.0
 21
1592.0
  0
LINE
  8
0
  6
CONTINUOUS
 62
     2
 10
2907.0
 20
2040.0
 11
2907.0
 21
1032.0
  0
LINE
  8
0
  6
CONTINUOUS
 62
     2
 10
2571.0
 20
1480.0
 11
3207.0
 21
1480.0
  0
LINE
  8
0
  6
CONTINUOUS
 62
     2
 10
2571.0
 20
1536.0
 11
3207.0
 21
1536.0
  0
LINE
  8
0
  6
CONTINUOUS
 62
     2
 10
2507.0
 20
1984.0
 11
3207.0
 21
1984.0
  0
LINE
  8
0
  6
CONTINUOUS
 62
     2
 10
2507.0
 20
1928.0
 11
3207.0
 21
1928.0
  0
LINE
  8
0
  6
CONTINUOUS
 62
     2
 10
2507.0
 20
1872.0
 11
3207.0
 21
1872.0
  0
LINE
  8
0
  6
CONTINUOUS
 62
     2
 10
2507.0
 20
1816.0
 11
3207.0
 21
1816.0
  0
LINE
  8
0
  6
CONTINUOUS
 62
     2
 10
2507.0
 20
1760.0
 11
3207.0
 21
1760.0
  0
LINE
  8
0
  6
CONTINUOUS
 62
     2
 10
2507.0
 20
2040.0
 11
3207.0
 21
2040.0
  0
TEXT
  8
0
  6
CONTINUOUS
 62
     2
 10
907.8
 20
684.0
 30
2.4
 40
24.0
  1
ストローク
 50
0.0
 41
0.9
 51
0.0
  7
KANJI0
  0
TEXT
  8
0
  6
CONTINUOUS
 62
     2
 10
1061.4
 20
682.4
 30
0.0
 40
24.0
  1
ｍｉｎ　
 50
0.0
 41
0.9
 51
0.0
  7
KANJI12
  0
TEXT
  8
0
  6
CONTINUOUS
 62
     2
 10
1221.4
 20
682.4
 30
0.0
 40
24.0
  1
ｍｉｎ　
 50
0.0
 41
0.9
 51
0.0
  7
KANJI12
  0
TEXT
  8
0
  6
CONTINUOUS
 62
     2
 10
1541.4
 20
682.4
 30
0.0
 40
24.0
  1
ｍｉｎ　
 50
0.0
 41
0.9
 51
0.0
  7
KANJI12
  0
TEXT
  8
0
  6
CONTINUOUS
 62
     2
 10
1790.0
 20
685.8
 30
0.0
 40
19.2
  1
（ｋｇ）
 50
0.0
 41
0.777777778
 51
0.0
  7
KANJI13
  0
TEXT
  8
0
  6
CONTINUOUS
 62
     2
 10
1694.0
 20
683.0
 30
2.56
 40
25.6
  1
概算重量
 50
0.0
 41
0.9
 51
0.0
  7
KANJI14
  0
TEXT
  8
0
  6
CONTINUOUS
 62
     2
 10
663.0
 20
684.0
 30
2.56
 40
25.6
  1
形
 50
0.0
 41
0.9
 51
0.0
  7
KANJI14
  0
TEXT
  8
0
  6
CONTINUOUS
 62
     2
 10
819.0
 20
684.0
 30
2.56
 40
25.6
  1
式
 50
0.0
 41
0.9
 51
0.0
  7
KANJI14
  0
TEXT
  8
0
  6
CONTINUOUS
 62
     2
 10
2567.0
 20
1998.4
 30
240.594285714
 40
30.4
  1
形式
 50
0.0
 41
0.9
 51
0.0
  7
KANJI15
  0
TEXT
  8
0
  6
CONTINUOUS
 62
     2
 10
2567.0
 20
1942.4
 30
240.594285714
 40
30.4
  1
推力
 50
0.0
 41
0.9
 51
0.0
  7
KANJI15
  0
TEXT
  8
0
  6
CONTINUOUS
 62
     2
 10
2567.0
 20
1886.4
 30
39.628571429
 40
30.4
  1
ストローク
 50
0.0
 41
0.9
 51
0.0
  7
KANJI16
  0
TEXT
  8
0
  6
CONTINUOUS
 62
     2
 10
2567.0
 20
1830.4
 30
61.957805714
 40
30.4
  1
公称速度
 50
0.0
 41
0.9
 51
0.0
  7
KANJI17
  0
TEXT
  8
0
  6
CONTINUOUS
 62
     2
 10
2543.0
 20
1774.4
 30
2.605714286
 40
30.4
  1
ピストンロッド回転トルク
 50
0.0
 41
0.9
 51
0.0
  7
KANJI18
  0
TEXT
  8
0
  6
CONTINUOUS
 62
     2
 10
2567.0
 20
1718.4
 30
240.594285714
 40
30.4
  1
構造
 50
0.0
 41
0.9
 51
0.0
  7
KANJI15
  0
TEXT
  8
0
  6
CONTINUOUS
 62
     2
 10
2567.0
 20
1662.4
 30
17.298468571
 40
30.4
  1
過負荷安全装置
 50
0.0
 41
0.9
 51
0.0
  7
KANJI19
  0
TEXT
  8
0
  6
CONTINUOUS
 62
     2
 10
2567.0
 20
1606.4
 30
106.617142857
 40
30.4
  1
塗装色
 50
0.0
 41
0.9
 51
0.0
  7
KANJI20
  0
TEXT
  8
0
  6
CONTINUOUS
 62
     2
 10
2607.0
 20
1550.4
 30
26.6
 40
30.4
  1
出力　極数
 50
0.0
 41
0.9
 51
0.0
  7
KANJI21
  0
TEXT
  8
0
  6
CONTINUOUS
 62
     2
 10
2607.0
 20
1494.4
 30
44.586377143
 40
30.4
  1
電源電圧
 50
0.0
 41
0.9
 51
0.0
  7
KANJI22
  0
TEXT
  8
0
  6
CONTINUOUS
 62
     2
 10
2607.0
 20
1438.4
 30
80.56
 40
30.4
  1
周波数
 50
0.0
 41
0.9
 51
0.0
  7
KANJI23
  0
TEXT
  8
0
  6
CONTINUOUS
 62
     2
 10
2607.0
 20
1382.4
 30
188.48
 40
30.4
  1
電流
 50
0.0
 41
0.9
 51
0.0
  7
KANJI24
  0
TEXT
  8
0
  6
CONTINUOUS
 62
     2
 10
2607.0
 20
1326.4
 30
80.56
 40
30.4
  1
絶縁級
 50
0.0
 41
0.9
 51
0.0
  7
KANJI23
  0
TEXT
  8
0
  6
CONTINUOUS
 62
     2
 10
2607.0
 20
1214.4
 30
188.48
 40
30.4
  1
形式
 50
0.0
 41
0.9
 51
0.0
  7
KANJI24
  0
TEXT
  8
0
  6
CONTINUOUS
 62
     2
 10
2607.0
 20
1158.4
 30
44.586377143
 40
30.4
  1
操作方式
 50
0.0
 41
0.9
 51
0.0
  7
KANJI22
  0
TEXT
  8
0
  6
CONTINUOUS
 62
     2
 10
2567.0
 20
1102.4
 30
106.617142857
 40
30.4
  1
付属品
 50
0.0
 41
0.9
 51
0.0
  7
KANJI20
  0
TEXT
  8
0
  6
CONTINUOUS
 62
     2
 10
2567.0
 20
1046.4
 30
240.594285714
 40
30.4
  1
台数
 50
0.0
 41
0.9
 51
0.0
  7
KANJI15
  0
TEXT
  8
0
  6
CONTINUOUS
 62
     2
 10
3157.8
 20
1889.6
 30
0.1792
 40
22.4
  1
ｍｍ
 50
0.0
 41
0.8
 51
0.0
  7
KANJI25
  0
TEXT
  8
0
  6
CONTINUOUS
 62
     2
 10
3097.8
 20
1836.0
 30
0.1792
 40
22.4
  1
ｍｍ／ｓｅｃ
 50
0.0
 41
0.8
 51
0.0
  7
KANJI25
  0
TEXT
  8
0
  6
CONTINUOUS
 62
     2
 10
1143.0
 20
684.0
 30
2.8
 40
28.0
  1
ＡＬ
 50
0.0
 41
0.9
 51
0.0
  7
KANJI26
  0
TEXT
  8
0
  6
CONTINUOUS
 62
     2
 10
1303.0
 20
684.0
 30
2.8
 40
28.0
  1
Ｌ
 50
0.0
 41
0.9
 51
0.0
  7
KANJI26
  0
TEXT
  8
0
  6
CONTINUOUS
 62
     2
 10
1439.0
 20
684.0
 30
2.8
 40
28.0
  1
Ｃ
 50
0.0
 41
0.9
 51
0.0
  7
KANJI26
  0
TEXT
  8
0
  6
CONTINUOUS
 62
     2
 10
1623.0
 20
684.0
 30
2.8
 40
28.0
  1
Ｐ
 50
0.0
 41
0.9
 51
0.0
  7
KANJI26
  0
LINE
  8
0
  6
CONTINUOUS
 62
     1
 10
2068.5
 20
1169.0
 11
2031.5
 21
1169.0
  0
LINE
  8
0
  6
CONTINUOUS
 62
     1
 10
2224.5
 20
1169.0
 11
2261.5
 21
1169.0
  0
LINE
  8
0
  6
CONTINUOUS
 62
     1
 10
407.0
 20
1423.5
 11
407.0
 21
1594.0
  0
LINE
  8
0
  6
CONTINUOUS
 62
     1
 10
562.0
 20
1408.15
 11
562.0
 21
1660.0
  0
LINE
  8
0
  6
CONTINUOUS
 62
     1
 10
562.0
 20
1410.0
 11
562.0
 21
1660.0
  0
LINE
  8
0
  6
CONTINUOUS
 62
     1
 10
562.0
 20
1410.0
 11
562.0
 21
1660.0
  0
LINE
  8
0
  6
CONTINUOUS
 62
     1
 10
562.0
 20
1404.0
 11
597.0
 21
1404.0
  0
CIRCLE
  8
0
  6
CONTINUOUS
 62
     2
 10
2037.962354132
 20
1379.998877817
 40
10.4775
  0
CIRCLE
  8
0
  6
CONTINUOUS
 62
     2
 10
2037.962354132
 20
1379.998877817
 40
9.3155
  0
LINE
  8
0
  6
CONTINUOUS
 62
     4
 10
3215.0
 20
-52.0
 11
2423.0
 21
-52.0
  0
LINE
  8
0
  6
CONTINUOUS
 62
     4
 10
3215.0
 20
-132.0
 11
2423.0
 21
-132.0
  0
TEXT
  8
0
  6
CONTINUOUS
 62
     4
 10
142.999994954
 20
139.99999159
 30
1.599999664
 40
15.999996636
  1
ＰＡＲＴＳ　ＬＩＳＴ
 50
0.0
 41
0.6
 51
0.0
  7
KANJI27
  0
TEXT
  8
0
  6
CONTINUOUS
 62
     4
 10
502.999919262
 20
139.99999159
 30
1.599999664
 40
15.999996636
  1
Ｎ０．
 50
0.0
 41
0.6
 51
0.0
  7
KANJI27
  0
TEXT
  8
0
  6
CONTINUOUS
 62
     4
 10
142.999994954
 20
115.999996636
 30
1.919999596
 40
19.199995963
  1
部品表
 50
0.0
 41
0.9
 51
0.0
  7
KANJI28
  0
TEXT
  8
0
  6
CONTINUOUS
 62
     4
 10
502.999919262
 20
115.999996636
 30
1.919999596
 40
19.199995963
  1
項番
 50
0.0
 41
0.9
 51
0.0
  7
KANJI28
  0
TEXT
  8
0
  6
CONTINUOUS
 62
     4
 10
2337.9334008
 20
2258.9333328
 30
2.07999984
 40
20.7999984
  1
ＩＳＯ
 50
0.0
 41
0.9
 51
0.0
  7
KANJI29
  0
TEXT
  8
0
  6
CONTINUOUS
 62
     4
 10
2400.333396
 20
2258.9333328
 30
1.38666656
 40
13.8666656
  1
ＭＥＴＲＩＣ　ＳＣＲＥＷ　ＴＨＲＥＡＤ
 50
0.0
 41
0.75
 51
0.0
  7
KANJI30
  0
TEXT
  8
0
  6
CONTINUOUS
 62
     4
 10
2635.72004456
 20
2258.9333328
 30
1.38666656
 40
13.8666656
  1
ＩＳＯ
 50
0.0
 41
0.75
 51
0.0
  7
KANJI30
  0
TEXT
  8
0
  6
CONTINUOUS
 62
     4
 10
2833.32002936
 20
2258.9333328
 30
2.07999984
 40
20.7999984
  1
３
 50
0.0
 41
0.75
 51
0.0
  7
KANJI31
  0
TEXT
  8
0
  6
CONTINUOUS
 62
     4
 10
2850.65336136
 20
2258.9333328
 30
1.38666656
 40
13.8666656
  1
ＲＤ　ＡＮＧＬＥ　ＰＲＯＪＥＣＴＩＯＮ　第３角法
 50
0.0
 41
0.75
 51
0.0
  7
KANJI30
  0
TEXT
  8
0
  6
CONTINUOUS
 62
     4
 10
2673.85337496
 20
2258.9333328
 30
1.247999904
 40
12.47999904
  1
メートルネジ使用
 50
0.0
 41
0.75
 51
0.0
  7
KANJI32
  0
LINE
  8
0
  6
CONTINUOUS
 62
     4
 10
2209.666744
 20
439.7333072
 11
2209.666744
 21
550.666632
  0
LINE
  8
0
  6
CONTINUOUS
 62
     4
 10
2140.333416
 20
495.1999696
 11
2140.333416
 21
550.666632
  0
TEXT
  8
0
  6
CONTINUOUS
 62
     4
 10
2154.2000816
 20
249.0666552
 30
1.38666656
 40
13.8666656
  1
ＤＲＡＷＮ
 50
0.0
 41
0.6
 51
0.0
  7
KANJI33
  0
TEXT
  8
0
  6
CONTINUOUS
 62
     4
 10
2154.2000816
 20
304.5333176
 30
1.38666656
 40
13.8666656
  1
ＤＥＳＩＧＮ
 50
0.0
 41
0.6
 51
0.0
  7
KANJI33
  0
TEXT
  8
0
  6
CONTINUOUS
 62
     4
 10
2154.2000816
 20
359.99998
 30
1.38666656
 40
13.8666656
  1
ＣＨＥＣＫ
 50
0.0
 41
0.6
 51
0.0
  7
KANJI33
  0
TEXT
  8
0
  6
CONTINUOUS
 62
     4
 10
2154.2000816
 20
415.4666424
 30
1.38666656
 40
13.8666656
  1
ＣＯＤＥ
 50
0.0
 41
0.6
 51
0.0
  7
KANJI33
  0
TEXT
  8
0
  6
CONTINUOUS
 62
     4
 10
2154.2000816
 20
470.9333048
 30
1.38666656
 40
13.8666656
  1
ＮＯ
 50
0.0
 41
0.6
 51
0.0
  7
KANJI33
  0
LINE
  8
0
  6
CONTINUOUS
 62
     4
 10
2140.333416
 20
328.7999824
 11
2393.4000632
 21
328.7999824
  0
LINE
  8
0
  6
CONTINUOUS
 62
     4
 10
2140.333416
 20
273.33332
 11
2393.4000632
 21
273.33332
  0
LINE
  8
0
  6
CONTINUOUS
 62
     4
 10
2140.333416
 20
384.2666448
 11
2393.4000632
 21
384.2666448
  0
LINE
  8
0
  6
CONTINUOUS
 62
     4
 10
2140.333416
 20
439.7333072
 11
3208.0666672
 21
439.7333072
  0
TEXT
  8
0
  6
CONTINUOUS
 62
     4
 10
2154.2000816
 20
283.7333192
 30
1.663999872
 40
16.63999872
  1
設計
 50
0.0
 41
0.6
 51
0.0
  7
KANJI34
  0
TEXT
  8
0
  6
CONTINUOUS
 62
     4
 10
2154.2000816
 20
339.1999816
 30
1.663999872
 40
16.63999872
  1
検図
 50
0.0
 41
0.6
 51
0.0
  7
KANJI34
  0
TEXT
  8
0
  6
CONTINUOUS
 62
     4
 10
2154.2000816
 20
394.666644
 30
1.663999872
 40
16.63999872
  1
分類
 50
0.0
 41
0.6
 51
0.0
  7
KANJI34
  0
TEXT
  8
0
  6
CONTINUOUS
 62
     4
 10
2154.2000816
 20
450.1333064
 30
1.663999872
 40
16.63999872
  1
番号
 50
0.0
 41
0.6
 51
0.0
  7
KANJI34
  0
TEXT
  8
0
  6
CONTINUOUS
 62
     4
 10
2348.3334
 20
470.9333048
 30
1.38666656
 40
13.8666656
  1
ＰＡＲＴＳ　　ＮＡＭＥ
 50
0.0
 41
0.6
 51
0.0
  7
KANJI33
  0
TEXT
  8
0
  6
CONTINUOUS
 62
     4
 10
2327.5334016
 20
446.66664
 30
1.663999872
 40
16.63999872
  1
　　品　　　　　　名
 50
0.0
 41
0.6
 51
0.0
  7
KANJI34
  0
LINE
  8
0
  6
CONTINUOUS
 62
     4
 10
2927.2666888
 20
439.7333072
 11
2927.2666888
 21
550.666632
  0
LINE
  8
0
  6
CONTINUOUS
 62
     4
 10
2833.666696
 20
439.7333072
 11
2833.666696
 21
550.666632
  0
LINE
  8
0
  6
CONTINUOUS
 62
     4
 10
2764.333368
 20
439.7333072
 11
2764.333368
 21
550.666632
  0
LINE
  8
0
  6
CONTINUOUS
 62
     4
 10
2625.666712
 20
439.7333072
 11
2625.666712
 21
550.666632
  0
TEXT
  8
0
  6
CONTINUOUS
 62
     4
 10
2653.4000432
 20
470.9333048
 30
1.38666656
 40
13.8666656
  1
ＭＡＴＥＲＩＡＬ
 50
0.0
 41
0.6
 51
0.0
  7
KANJI33
  0
TEXT
  8
0
  6
CONTINUOUS
 62
     4
 10
2778.2000336
 20
470.9333048
 30
1.38666656
 40
13.8666656
  1
ＱＴＹ
 50
0.0
 41
0.9
 51
0.0
  7
KANJI35
  0
TEXT
  8
0
  6
CONTINUOUS
 62
     4
 10
2844.0666952
 20
470.9333048
 30
1.38666656
 40
13.8666656
  1
ＷＴ／ＯＮＥ
 50
0.0
 41
0.8
 51
0.0
  7
KANJI36
  0
TEXT
  8
0
  6
CONTINUOUS
 62
     4
 10
3024.333348
 20
470.9333048
 30
1.38666656
 40
13.8666656
  1
ＲＥＭＡＲＫＳ
 50
0.0
 41
0.8
 51
0.0
  7
KANJI36
  0
TEXT
  8
0
  6
CONTINUOUS
 62
     4
 10
2646.4667104
 20
450.1333064
 30
1.663999872
 40
16.63999872
  1
　材　　　質
 50
0.0
 41
0.6
 51
0.0
  7
KANJI34
  0
TEXT
  8
0
  6
CONTINUOUS
 62
     4
 10
2778.2000336
 20
446.66664
 30
1.663999872
 40
16.63999872
  1
数量
 50
0.0
 41
0.9
 51
0.0
  7
KANJI37
  0
TEXT
  8
0
  6
CONTINUOUS
 62
     4
 10
2844.0666952
 20
446.66664
 30
1.663999872
 40
16.63999872
  1
重量　（Ｋｇ）
 50
0.0
 41
0.8
 51
0.0
  7
KANJI38
  0
TEXT
  8
0
  6
CONTINUOUS
 62
     4
 10
3017.4000152
 20
446.66664
 30
1.663999872
 40
16.63999872
  1
　　摘　要
 50
0.0
 41
0.8
 51
0.0
  7
KANJI38
  0
LINE
  8
0
  6
CONTINUOUS
 62
     4
 10
2413.85339496
 20
384.2666448
 11
3208.0666672
 21
384.2666448
  0
LINE
  8
0
  6
CONTINUOUS
 62
     4
 10
2393.4000632
 20
273.33332
 11
3208.0666672
 21
273.33332
  0
TEXT
  8
0
  6
CONTINUOUS
 62
     4
 10
2407.2667288
 20
249.0666552
 30
1.38666656
 40
13.8666656
  1
ＤＲＡＷＩＮＧ　ＮＯ．
 50
0.0
 41
0.8
 51
0.0
  7
KANJI36
  0
TEXT
  8
0
  6
CONTINUOUS
 62
     4
 10
2407.2667288
 20
304.5333176
 30
1.38666656
 40
13.8666656
  1
ＭＦＧ　ＮＯ．
 50
0.0
 41
0.8
 51
0.0
  7
KANJI36
  0
TEXT
  8
0
  6
CONTINUOUS
 62
     4
 10
2407.2667288
 20
359.99998
 30
1.38666656
 40
13.8666656
  1
ＴＹＰＥ
 50
0.0
 41
0.8
 51
0.0
  7
KANJI36
  0
LINE
  8
0
  6
CONTINUOUS
 62
     4
 10
2414.2000616
 20
328.7999824
 11
2733.1333704
 21
328.7999824
  0
TEXT
  8
0
  6
CONTINUOUS
 62
     4
 10
2407.2667288
 20
224.7999904
 30
1.663999872
 40
16.63999872
  1
図　面　番　号
 50
0.0
 41
0.8
 51
0.0
  7
KANJI38
  0
TEXT
  8
0
  6
CONTINUOUS
 62
     4
 10
2407.2667288
 20
280.2666528
 30
1.663999872
 40
16.63999872
  1
製番
 50
0.0
 41
0.8
 51
0.0
  7
KANJI38
  0
TEXT
  8
0
  6
CONTINUOUS
 62
     4
 10
2407.2667288
 20
335.7333152
 30
1.663999872
 40
16.63999872
  1
機種
 50
0.0
 41
0.8
 51
0.0
  7
KANJI38
  0
LINE
  8
0
  6
CONTINUOUS
 62
     4
 10
2140.333416
 20
162.3999952
 11
2393.4000632
 21
162.3999952
  0
LINE
  8
0
  6
CONTINUOUS
 62
     4
 10
2140.333416
 20
217.8666576
 11
2393.4000632
 21
217.8666576
  0
TEXT
  8
0
  6
CONTINUOUS
 62
     4
 10
2154.2000816
 20
138.1333304
 30
1.38666656
 40
13.8666656
  1
ＳＣＡＬＥ
 50
0.0
 41
0.6
 51
0.0
  7
KANJI33
  0
TEXT
  8
0
  6
CONTINUOUS
 62
     4
 10
2154.2000816
 20
193.5999928
 30
1.38666656
 40
13.8666656
  1
ＤＡＴＥ
 50
0.0
 41
0.6
 51
0.0
  7
KANJI33
  0
TEXT
  8
0
  6
CONTINUOUS
 62
     4
 10
2154.2000816
 20
117.333332
 30
1.663999872
 40
16.63999872
  1
尺度
 50
0.0
 41
0.6
 51
0.0
  7
KANJI34
  0
TEXT
  8
0
  6
CONTINUOUS
 62
     4
 10
2154.2000816
 20
172.7999944
 30
1.663999872
 40
16.63999872
  1
日付
 50
0.0
 41
0.6
 51
0.0
  7
KANJI34
  0
TEXT
  8
0
  6
CONTINUOUS
 62
     4
 10
2154.2000816
 20
228.2666568
 30
1.663999872
 40
16.63999872
  1
作図
 50
0.0
 41
0.6
 51
0.0
  7
KANJI34
  0
LINE
  8
0
  6
CONTINUOUS
 62
     4
 10
1748.6001128
 20
106.9333328
 11
1748.6001128
 21
162.3999952
  0
LINE
  8
0
  6
CONTINUOUS
 62
     4
 10
1811.000108
 20
106.9333328
 11
1811.000108
 21
162.3999952
  0
TEXT
  8
0
  6
CONTINUOUS
 62
     4
 10
1769.4001112
 20
138.1333304
 30
1.38666656
 40
13.8666656
  1
ＢＹ
 50
0.0
 41
0.6
 51
0.0
  7
KANJI33
  0
TEXT
  8
0
  6
CONTINUOUS
 62
     4
 10
1921.9334328
 20
138.1333304
 30
1.38666656
 40
13.8666656
  1
ＤＥＳＣＲＩＰＴＩＯＮ
 50
0.0
 41
0.6
 51
0.0
  7
KANJI33
  0
TEXT
  8
0
  6
CONTINUOUS
 62
     4
 10
1769.4001112
 20
117.333332
 30
1.663999872
 40
16.63999872
  1
担当
 50
0.0
 41
0.6
 51
0.0
  7
KANJI34
  0
TEXT
  8
0
  6
CONTINUOUS
 62
     4
 10
1942.7334312
 20
117.333332
 30
1.663999872
 40
16.63999872
  1
記　　　　事
 50
0.0
 41
0.6
 51
0.0
  7
KANJI34
  0
LINE
  8
0
  6
CONTINUOUS
 62
     4
 10
1622.0667892
 20
151.999996
 11
1599.5334576
 21
117.333332
  0
TEXT
  8
0
  6
CONTINUOUS
 62
     4
 10
1679.2667848
 20
138.1333304
 30
1.38666656
 40
13.8666656
  1
ＤＡＴＥ
 50
0.0
 41
0.6
 51
0.0
  7
KANJI33
  0
TEXT
  8
0
  6
CONTINUOUS
 62
     4
 10
1689.666784
 20
117.333332
 30
1.663999872
 40
16.63999872
  1
日付
 50
0.0
 41
0.6
 51
0.0
  7
KANJI34
  0
LINE
  8
0
  6
CONTINUOUS
 62
     4
 10
1599.5334576
 20
117.333332
 11
1644.6001208
 21
117.333332
  0
LINE
  8
0
  6
CONTINUOUS
 62
     4
 10
1651.5334536
 20
106.9333328
 11
1651.5334536
 21
162.3999952
  0
LINE
  8
0
  6
CONTINUOUS
 62
     4
 10
1622.0667892
 20
151.999996
 11
1644.6001208
 21
117.333332
  0
LINE
  8
0
  6
CONTINUOUS
 62
     4
 10
2393.4000632
 20
193.5999928
 11
3208.0666672
 21
193.5999928
  0
LINE
  8
0
  6
CONTINUOUS
 62
     4
 10
2393.4000632
 20
106.9333328
 11
2393.4000632
 21
439.7333072
  0
LINE
  8
0
  6
LTYPE3
 62
     4
 10
2975.8000184
 20
203.999992
 11
2975.8000184
 21
259.4666544
  0
LINE
  8
0
  6
LTYPE3
 62
     4
 10
2927.2666888
 20
203.999992
 11
2927.2666888
 21
259.4666544
  0
LINE
  8
0
  6
LTYPE3
 62
     4
 10
2878.7333592
 20
203.999992
 11
2878.7333592
 21
259.4666544
  0
LINE
  8
0
  6
LTYPE3
 62
     4
 10
2830.2000296
 20
203.999992
 11
2830.2000296
 21
259.4666544
  0
LINE
  8
0
  6
LTYPE3
 62
     4
 10
2781.6667
 20
203.999992
 11
2781.6667
 21
259.4666544
  0
LINE
  8
0
  6
LTYPE3
 62
     4
 10
2733.1333704
 20
203.999992
 11
2733.1333704
 21
259.4666544
  0
LINE
  8
0
  6
LTYPE3
 62
     4
 10
2684.6000408
 20
203.999992
 11
2684.6000408
 21
259.4666544
  0
LINE
  8
0
  6
LTYPE3
 62
     4
 10
2636.0667112
 20
203.999992
 11
2636.0667112
 21
259.4666544
  0
LINE
  8
0
  6
LTYPE3
 62
     4
 10
2636.0667112
 20
259.4666544
 11
2975.8000184
 21
259.4666544
  0
LINE
  8
0
  6
LTYPE3
 62
     4
 10
2636.0667112
 20
203.999992
 11
2975.8000184
 21
203.999992
  0
LINE
  8
0
  6
CONTINUOUS
 62
     4
 10
3003.5333496
 20
233.4666564
 11
3017.4000152
 21
233.4666564
  0
LINE
  8
0
  6
CONTINUOUS
 62
     4
 10
3090.2000096
 20
212.666658
 11
3041.66668
 21
212.666658
  0
LINE
  8
0
  6
CONTINUOUS
 62
     4
 10
3041.66668
 20
212.666658
 11
3065.9333448
 21
254.2666548
  0
LINE
  8
0
  6
CONTINUOUS
 62
     4
 10
3065.9333448
 20
254.2666548
 11
3090.2000096
 21
212.666658
  0
LINE
  8
0
  6
CONTINUOUS
 62
     4
 10
3208.0666672
 20
495.1999696
 11
3208.0666672
 21
550.666632
  0
LINE
  8
0
  6
CONTINUOUS
 62
     4
 10
2140.333416
 20
550.666632
 11
3208.0666672
 21
550.666632
  0
LINE
  8
0
  6
CONTINUOUS
 62
     4
 10
3221.9333328
 20
106.9333328
 11
3305.1333264
 21
106.9333328
  0
LINE
  8
0
  6
CONTINUOUS
 62
     4
 10
3221.9333328
 20
148.5333296
 11
3305.1333264
 21
148.5333296
  0
LINE
  8
0
  6
CONTINUOUS
 62
     4
 10
3221.9333328
 20
190.1333264
 11
3305.1333264
 21
190.1333264
  0
LINE
  8
0
  6
CONTINUOUS
 62
     4
 10
3221.9333328
 20
231.7333232
 11
3305.1333264
 21
231.7333232
  0
LINE
  8
0
  6
CONTINUOUS
 62
     4
 10
3221.9333328
 20
273.33332
 11
3305.1333264
 21
273.33332
  0
LINE
  8
0
  6
CONTINUOUS
 62
     4
 10
3221.9333328
 20
314.9333168
 11
3305.1333264
 21
314.9333168
  0
LINE
  8
0
  6
CONTINUOUS
 62
     4
 10
3221.9333328
 20
356.5333136
 11
3305.1333264
 21
356.5333136
  0
LINE
  8
0
  6
CONTINUOUS
 62
     4
 10
3221.9333328
 20
398.1333104
 11
3305.1333264
 21
398.1333104
  0
LINE
  8
0
  6
CONTINUOUS
 62
     4
 10
3221.9333328
 20
439.7333072
 11
3305.1333264
 21
439.7333072
  0
LINE
  8
0
  6
CONTINUOUS
 62
     4
 10
3221.9333328
 20
481.333304
 11
3305.1333264
 21
481.333304
  0
LINE
  8
0
  6
CONTINUOUS
 62
     4
 10
3305.1333264
 20
106.9333328
 11
3305.1333264
 21
481.333304
  0
LINE
  8
0
  6
CONTINUOUS
 62
     4
 10
3263.5333296
 20
106.9333328
 11
3263.5333296
 21
439.7333072
  0
TEXT
  8
0
  6
CONTINUOUS
 62
     4
 10
3236.14666504
 20
119.0666652
 30
2.07999984
 40
20.7999984
  1
計
 50
0.0
 41
0.75
 51
0.0
  7
KANJI39
  0
TEXT
  8
0
  6
CONTINUOUS
 62
     4
 10
3236.14666504
 20
202.95999208
 30
2.07999984
 40
20.7999984
  1
設
 50
0.0
 41
0.75
 51
0.0
  7
KANJI39
  0
TEXT
  8
0
  6
CONTINUOUS
 62
     4
 10
3236.14666504
 20
243.8666556
 30
2.07999984
 40
20.7999984
  1
管
 50
0.0
 41
0.75
 51
0.0
  7
KANJI39
  0
TEXT
  8
0
  6
CONTINUOUS
 62
     4
 10
3236.14666504
 20
285.4666524
 30
2.07999984
 40
20.7999984
  1
製
 50
0.0
 41
0.75
 51
0.0
  7
KANJI39
  0
TEXT
  8
0
  6
CONTINUOUS
 62
     4
 10
3236.14666504
 20
327.0666492
 30
2.07999984
 40
20.7999984
  1
資
 50
0.0
 41
0.75
 51
0.0
  7
KANJI39
  0
TEXT
  8
0
  6
CONTINUOUS
 62
     4
 10
3236.14666504
 20
368.666646
 30
2.07999984
 40
20.7999984
  1
営
 50
0.0
 41
0.75
 51
0.0
  7
KANJI39
  0
TEXT
  8
0
  6
CONTINUOUS
 62
     4
 10
3236.14666504
 20
410.2666428
 30
2.07999984
 40
20.7999984
  1
客
 50
0.0
 41
0.75
 51
0.0
  7
KANJI39
  0
TEXT
  8
0
  6
CONTINUOUS
 62
     4
 10
3235.7999984
 20
453.5999728
 30
2.07999984
 40
20.7999984
  1
出　図
 50
0.0
 41
0.75
 51
0.0
  7
KANJI39
  0
LINE
  8
0
  6
CONTINUOUS
 62
     4
 10
3221.9333328
 20
106.9333328
 11
3221.9333328
 21
481.333304
  0
TEXT
  8
0
  6
CONTINUOUS
 62
     4
 10
3097.1333424
 20
30.666672
 30
6.9333328
 40
69.333328
  1
／
 50
0.0
 41
0.9
 51
0.0
  7
KANJI40
  0
TEXT
  8
0
  6
CONTINUOUS
 62
     4
 10
2753.9333688
 20
359.99998
 30
1.38666656
 40
13.8666656
  1
ＴＩＴＬＥ
 50
0.0
 41
0.8
 51
0.0
  7
KANJI36
  0
TEXT
  8
0
  6
CONTINUOUS
 62
     4
 10
2753.9333688
 20
335.7333152
 30
1.663999872
 40
16.63999872
  1
名称
 50
0.0
 41
0.8
 51
0.0
  7
KANJI38
  0
LINE
  8
0
  6
CONTINUOUS
 62
     6
 10
119.0
 20
100.0
 11
119.0
 21
2252.0
  0
LINE
  8
0
  6
CONTINUOUS
 62
     6
 10
119.0
 20
2252.0
 11
3215.0
 21
2252.0
  0
LINE
  8
0
  6
CONTINUOUS
 62
     6
 10
3215.0
 20
2252.0
 11
3215.0
 21
100.0
  0
LINE
  8
0
  6
CONTINUOUS
 62
     6
 10
3215.0
 20
100.0
 11
119.0
 21
100.0
  0
LINE
  8
0
  6
CONTINUOUS
 62
     6
 10
646.999888985
 20
107.999998318
 11
646.999888985
 21
219.999974769
  0
LINE
  8
0
  6
CONTINUOUS
 62
     6
 10
126.999998318
 20
219.999974769
 11
646.999888985
 21
219.999974769
  0
LINE
  8
0
  6
CONTINUOUS
 62
     6
 10
126.999998318
 20
107.999998318
 11
646.999888985
 21
107.999998318
  0
LINE
  8
0
  6
CONTINUOUS
 62
     6
 10
126.999998318
 20
107.999998318
 11
126.999998318
 21
219.999974769
  0
LINE
  8
0
  6
CONTINUOUS
 62
     6
 10
486.999922626
 20
107.999998318
 11
486.999922626
 21
219.999974769
  0
LINE
  8
0
  6
CONTINUOUS
 62
     6
 10
126.999998318
 20
163.999986544
 11
646.999888985
 21
163.999986544
  0
TEXT
  8
0
  6
CONTINUOUS
 62
     3
 10
142.999994954
 20
179.999983179
 30
2.399999495
 40
23.999994954
  1
ＰＬ
 50
0.0
 41
0.9
 51
0.0
  7
KANJI41
  0
LINE
  8
0
  6
CONTINUOUS
 62
     6
 10
1592.6001248
 20
106.9333328
 11
1592.6001248
 21
162.3999952
  0
LINE
  8
0
  6
CONTINUOUS
 62
     6
 10
1592.6001248
 20
162.3999952
 11
2140.333416
 21
162.3999952
  0
LINE
  8
0
  6
CONTINUOUS
 62
     6
 10
1592.6001248
 20
106.9333328
 11
3208.0666672
 21
106.9333328
  0
LINE
  8
0
  6
CONTINUOUS
 62
     6
 10
2140.333416
 20
106.9333328
 11
2140.333416
 21
495.1999696
  0
LINE
  8
0
  6
CONTINUOUS
 62
     6
 10
2685.20670742
 20
143.67999664
 11
2662.32670918
 21
143.67999664
  0
LINE
  8
0
  6
CONTINUOUS
 62
     6
 10
2685.20670742
 20
147.83999632
 11
2662.32670918
 21
147.83999632
  0
LINE
  8
0
  6
CONTINUOUS
 62
     6
 10
2685.20670742
 20
143.67999664
 11
2708.08670566
 21
143.67999664
  0
LINE
  8
0
  6
CONTINUOUS
 62
     6
 10
2685.20670742
 20
147.83999632
 11
2708.08670566
 21
147.83999632
  0
LINE
  8
0
  6
CONTINUOUS
 62
     6
 10
2708.08670566
 20
147.83999632
 11
2708.08670566
 21
143.67999664
  0
ARC
  8
0
  6
CONTINUOUS
 62
     6
 10
2713.28670526
 20
145.75999648
 40
20.7999984
 50
185.739170477
 51
90.0
  0
ARC
  8
0
  6
CONTINUOUS
 62
     6
 10
2713.28670526
 20
145.75999648
 40
24.95999808
 50
184.780191847
 51
90.0
  0
LINE
  8
0
  6
CONTINUOUS
 62
     6
 10
2662.32670918
 20
143.67999664
 11
2662.32670918
 21
147.83999632
  0
TEXT
  8
0
  6
CONTINUOUS
 62
     6
 10
2400.333396
 20
138.1333304
 30
0.0
 40
24.2666648
  1
ＵＮＩＴＥＣ　ＩＮＤＵＳＴＲＹ　ＣＯ．，ＬＴＤ．
 50
0.0
 41
0.42031746
 51
0.0
  7
KANJI42
  0
LINE
  8
0
  6
CONTINUOUS
 62
     6
 10
2682.08670766
 20
170.71999456
 11
2657.12670958
 21
170.71999456
  0
LINE
  8
0
  6
CONTINUOUS
 62
     6
 10
2688.32670718
 20
170.71999456
 11
2713.28670526
 21
170.71999456
  0
ARC
  8
0
  6
CONTINUOUS
 62
     6
 10
2657.12670958
 20
145.75999648
 40
20.7999984
 50
90.0
 51
354.260829523
  0
ARC
  8
0
  6
CONTINUOUS
 62
     6
 10
2657.12670958
 20
145.75999648
 40
24.95999808
 50
90.0
 51
355.219808153
  0
LINE
  8
0
  6
CONTINUOUS
 62
     6
 10
2682.08670766
 20
170.71999456
 11
2682.08670766
 21
166.55999488
  0
LINE
  8
0
  6
CONTINUOUS
 62
     6
 10
2657.12670958
 20
166.55999488
 11
2682.08670766
 21
166.55999488
  0
LINE
  8
0
  6
CONTINUOUS
 62
     6
 10
2688.32670718
 20
170.71999456
 11
2688.32670718
 21
166.55999488
  0
LINE
  8
0
  6
CONTINUOUS
 62
     6
 10
2713.28670526
 20
166.55999488
 11
2688.32670718
 21
166.55999488
  0
TEXT
  8
0
  6
CONTINUOUS
 62
     6
 10
2740.67336982
 20
129.11999776
 30
4.15999968
 40
41.5999968
  1
ユニテック工業株式会社
 50
0.0
 41
0.9
 51
0.0
  7
KANJI43
  0
LINE
  8
0
  6
CONTINUOUS
 62
     6
 10
2140.333416
 20
495.1999696
 11
3208.0666672
 21
495.1999696
  0
LINE
  8
0
  6
CONTINUOUS
 62
     6
 10
3208.0666672
 20
106.9333328
 11
3208.0666672
 21
495.1999696
  0
TEXT
  8
0
  6
CONTINUOUS
 62
     3
 10
2259.0
 20
116.0
 30
2.4
 40
36.0
  1
１／８
 50
0.0
 41
0.666666667
 51
0.0
  7
KANJI44
  0
TEXT
  8
0
  6
CONTINUOUS
 62
     3
 10
2585.5
 20
279.0
 30
2.4
 40
32.0
  1
Ｓ
 50
0.0
 41
0.75
 51
0.0
  7
KANJI45
  0
CIRCLE
  8
0
  6
CONTINUOUS
 62
     3
 10
2596.5
 20
295.5
 40
21.708293346
  0
TEXT
  8
0
  6
CONTINUOUS
 62
     3
 10
2877.0
 20
284.0
 30
20.0
 40
40.0
  1
外形寸法図
 50
0.0
 41
1.0
 51
0.0
  7
KANJI46
  0
TEXT
  8
0
  6
CONTINUOUS
 62
     3
 10
2829.0
 20
332.0
 30
5.714285714
 40
40.0
  1
マイティシリンダ
 50
0.0
 41
1.0
 51
0.0
  7
KANJI47
  0
TEXT
  8
0
  6
CONTINUOUS
 62
     2
 10
2983.8
 20
1495.2
 30
2.4
 40
24.0
  1
　　　／　
 50
0.0
 41
0.9
 51
0.0
  7
KANJI0
  0
TEXT
  8
0
  6
CONTINUOUS
 62
     2
 10
2977.0
 20
1389.0
 30
2.4
 40
24.0
  1
　　　／
 50
0.0
 41
0.9
 51
0.0
  7
KANJI0
  0
TEXT
  8
0
  6
CONTINUOUS
 62
     2
 10
2952.8
 20
1552.2
 30
2.4
 40
24.0
  1
１．５
 50
0.0
 41
0.9
 51
0.0
  7
KANJI0
  0
TEXT
  8
0
  6
CONTINUOUS
 62
     2
 10
1155.275240468
 20
1971.133058
 30
2.79993
 40
27.9993
  1
注意：サーマルリレー等の選定は、上記の値を参照下さい。
 50
0.0
 41
0.9
 51
0.0
  7
KANJI48
  0
LINE
  8
0
  6
CONTINUOUS
 62
     2
 10
1139.275640468
 20
1963.133258
 11
1891.256840468
 21
1963.133258
  0
LINE
  8
0
  6
CONTINUOUS
 62
     1
 10
1925.85602
 20
2224.793375
 11
1925.85602
 21
2016.798575
  0
LINE
  8
0
  6
CONTINUOUS
 62
     2
 10
1805.85902
 20
2224.793375
 11
1805.85902
 21
2016.798575
  0
LINE
  8
0
  6
CONTINUOUS
 62
     2
 10
1685.86202
 20
2224.793375
 11
1685.86202
 21
2016.798575
  0
LINE
  8
0
  6
CONTINUOUS
 62
     1
 10
1525.86602
 20
2224.793375
 11
1525.86602
 21
2016.798575
  0
LINE
  8
0
  6
CONTINUOUS
 62
     1
 10
1525.86602
 20
2224.793375
 11
1925.85602
 21
2224.793375
  0
LINE
  8
0
  6
CONTINUOUS
 62
     1
 10
1525.86602
 20
2160.794975
 11
1925.85602
 21
2160.794975
  0
LINE
  8
0
  6
CONTINUOUS
 62
     2
 10
1525.86602
 20
2112.796175
 11
1925.85602
 21
2112.796175
  0
LINE
  8
0
  6
CONTINUOUS
 62
     2
 10
1525.86602
 20
2064.797375
 11
1925.85602
 21
2064.797375
  0
LINE
  8
0
  6
CONTINUOUS
 62
     1
 10
1525.86602
 20
2016.798575
 11
1925.85602
 21
2016.798575
  0
TEXT
  8
0
  6
CONTINUOUS
 62
     2
 10
1821.85862
 20
2196.794075
 30
2.39994
 40
23.9994
  1
起動電流
 50
0.0
 41
0.9
 51
0.0
  7
KANJI49
  0
TEXT
  8
0
  6
CONTINUOUS
 62
     2
 10
1821.85862
 20
2168.794775
 30
2.39994
 40
23.9994
  1
　　　Ａ
 50
0.0
 41
0.9
 51
0.0
  7
KANJI49
  0
TEXT
  8
0
  6
CONTINUOUS
 62
     2
 10
1701.86162
 20
2196.794075
 30
2.39994
 40
23.9994
  1
定格電流
 50
0.0
 41
0.9
 51
0.0
  7
KANJI49
  0
TEXT
  8
0
  6
CONTINUOUS
 62
     2
 10
1701.86162
 20
2168.794775
 30
2.39994
 40
23.9994
  1
　　　Ａ
 50
0.0
 41
0.9
 51
0.0
  7
KANJI49
  0
TEXT
  8
0
  6
CONTINUOUS
 62
     2
 10
1539.46568
 20
2076.797075
 30
2.39994
 40
23.9994
  1
２００／６０
 50
0.0
 41
0.9
 51
0.0
  7
KANJI49
  0
TEXT
  8
0
  6
CONTINUOUS
 62
     2
 10
1539.46568
 20
2196.794075
 30
2.39994
 40
23.9994
  1
電圧／周波数
 50
0.0
 41
0.9
 51
0.0
  7
KANJI49
  0
TEXT
  8
0
  6
CONTINUOUS
 62
     2
 10
1539.46568
 20
2168.794775
 30
2.39994
 40
23.9994
  1
　Ｖ／Ｈｚ
 50
0.0
 41
0.9
 51
0.0
  7
KANJI49
  0
TEXT
  8
0
  6
CONTINUOUS
 62
     2
 10
1539.46568
 20
2124.795875
 30
2.39994
 40
23.9994
  1
２００／５０
 50
0.0
 41
0.9
 51
0.0
  7
KANJI49
  0
TEXT
  8
0
  6
CONTINUOUS
 62
     2
 10
1539.46568
 20
2028.798275
 30
2.39994
 40
23.9994
  1
２２０／６０
 50
0.0
 41
0.9
 51
0.0
  7
KANJI49
  0
LINE
  8
0
  6
CONTINUOUS
 62
     1
 10
1445.86802
 20
2224.793375
 11
1445.86802
 21
2016.798575
  0
LINE
  8
0
  6
CONTINUOUS
 62
     2
 10
1325.87102
 20
2224.793375
 11
1325.87102
 21
2016.798575
  0
LINE
  8
0
  6
CONTINUOUS
 62
     2
 10
1205.87402
 20
2224.793375
 11
1205.87402
 21
2016.798575
  0
LINE
  8
0
  6
CONTINUOUS
 62
     1
 10
1045.87802
 20
2224.793375
 11
1045.87802
 21
2016.798575
  0
LINE
  8
0
  6
CONTINUOUS
 62
     1
 10
1045.87802
 20
2224.793375
 11
1445.86802
 21
2224.793375
  0
LINE
  8
0
  6
CONTINUOUS
 62
     1
 10
1045.87802
 20
2160.794975
 11
1445.86802
 21
2160.794975
  0
LINE
  8
0
  6
CONTINUOUS
 62
     2
 10
1045.87802
 20
2112.796175
 11
1445.86802
 21
2112.796175
  0
LINE
  8
0
  6
CONTINUOUS
 62
     2
 10
1045.87802
 20
2064.797375
 11
1445.86802
 21
2064.797375
  0
LINE
  8
0
  6
CONTINUOUS
 62
     1
 10
1045.87802
 20
2016.798575
 11
1445.86802
 21
2016.798575
  0
TEXT
  8
0
  6
CONTINUOUS
 62
     2
 10
1341.87062
 20
2196.794075
 30
2.39994
 40
23.9994
  1
起動電流
 50
0.0
 41
0.9
 51
0.0
  7
KANJI49
  0
TEXT
  8
0
  6
CONTINUOUS
 62
     2
 10
1341.87062
 20
2168.794775
 30
2.39994
 40
23.9994
  1
　　　Ａ
 50
0.0
 41
0.9
 51
0.0
  7
KANJI49
  0
TEXT
  8
0
  6
CONTINUOUS
 62
     2
 10
1221.87362
 20
2196.794075
 30
2.39994
 40
23.9994
  1
定格電流
 50
0.0
 41
0.9
 51
0.0
  7
KANJI49
  0
TEXT
  8
0
  6
CONTINUOUS
 62
     2
 10
1221.87362
 20
2168.794775
 30
2.39994
 40
23.9994
  1
　　　Ａ
 50
0.0
 41
0.9
 51
0.0
  7
KANJI49
  0
TEXT
  8
0
  6
CONTINUOUS
 62
     2
 10
1059.47768
 20
2196.794075
 30
2.39994
 40
23.9994
  1
電圧／周波数
 50
0.0
 41
0.9
 51
0.0
  7
KANJI49
  0
TEXT
  8
0
  6
CONTINUOUS
 62
     2
 10
1059.47768
 20
2168.794775
 30
2.39994
 40
23.9994
  1
　Ｖ／Ｈｚ
 50
0.0
 41
0.9
 51
0.0
  7
KANJI49
  0
TEXT
  8
0
  6
CONTINUOUS
 62
     2
 10
1059.47768
 20
2124.795875
 30
2.39994
 40
23.9994
  1
４００／５０
 50
0.0
 41
0.9
 51
0.0
  7
KANJI49
  0
TEXT
  8
0
  6
CONTINUOUS
 62
     2
 10
1059.47768
 20
2076.797075
 30
2.39994
 40
23.9994
  1
４００／６０
 50
0.0
 41
0.9
 51
0.0
  7
KANJI49
  0
TEXT
  8
0
  6
CONTINUOUS
 62
     2
 10
1059.47768
 20
2028.798275
 30
2.39994
 40
23.9994
  1
４４０／６０
 50
0.0
 41
0.9
 51
0.0
  7
KANJI49
  0
TEXT
  8
0
  6
CONTINUOUS
 62
     2
 10
1221.87362
 20
2124.795875
 30
2.39994
 40
23.9994
  1
　３．４
 50
0.0
 41
0.9
 51
0.0
  7
KANJI49
  0
TEXT
  8
0
  6
CONTINUOUS
 62
     2
 10
1221.87362
 20
2076.797075
 30
2.39994
 40
23.9994
  1
　３．２
 50
0.0
 41
0.9
 51
0.0
  7
KANJI49
  0
TEXT
  8
0
  6
CONTINUOUS
 62
     2
 10
1221.87362
 20
2028.798275
 30
2.39994
 40
23.9994
  1
　３．０
 50
0.0
 41
0.9
 51
0.0
  7
KANJI49
  0
TEXT
  8
0
  6
CONTINUOUS
 62
     2
 10
1341.87062
 20
2124.795875
 30
2.39994
 40
23.9994
  1
２２．０
 50
0.0
 41
0.9
 51
0.0
  7
KANJI49
  0
TEXT
  8
0
  6
CONTINUOUS
 62
     2
 10
1341.87062
 20
2076.797075
 30
2.39994
 40
23.9994
  1
１９．０
 50
0.0
 41
0.9
 51
0.0
  7
KANJI49
  0
TEXT
  8
0
  6
CONTINUOUS
 62
     2
 10
1341.87062
 20
2028.798275
 30
2.39994
 40
23.9994
  1
２０．９
 50
0.0
 41
0.9
 51
0.0
  7
KANJI49
  0
TEXT
  8
0
  6
CONTINUOUS
 62
     2
 10
1701.86162
 20
2124.795875
 30
2.39994
 40
23.9994
  1
　６．８
 50
0.0
 41
0.9
 51
0.0
  7
KANJI49
  0
TEXT
  8
0
  6
CONTINUOUS
 62
     2
 10
1701.86162
 20
2076.797075
 30
2.39994
 40
23.9994
  1
　６．３
 50
0.0
 41
0.9
 51
0.0
  7
KANJI49
  0
TEXT
  8
0
  6
CONTINUOUS
 62
     2
 10
1701.86162
 20
2028.798275
 30
2.39994
 40
23.9994
  1
　６．０
 50
0.0
 41
0.9
 51
0.0
  7
KANJI49
  0
TEXT
  8
0
  6
CONTINUOUS
 62
     2
 10
1821.85862
 20
2124.795875
 30
2.39994
 40
23.9994
  1
４４．０
 50
0.0
 41
0.9
 51
0.0
  7
KANJI49
  0
TEXT
  8
0
  6
CONTINUOUS
 62
     2
 10
1820.992019532
 20
2073.130492
 30
2.39994
 40
23.9994
  1
３８．０
 50
0.0
 41
0.9
 51
0.0
  7
KANJI49
  0
TEXT
  8
0
  6
CONTINUOUS
 62
     2
 10
1822.991969532
 20
2027.798292
 30
2.39994
 40
23.9994
  1
４１．８
 50
0.0
 41
0.9
 51
0.0
  7
KANJI49
  0
LINE
  8
0
  6
CONTINUOUS
 62
     1
 10
562.0
 20
1435.0
 11
562.0
 21
1635.0
  0
LINE
  8
0
  6
CONTINUOUS
 62
     1
 10
745.0
 20
1433.944375069
 11
735.0
 21
1423.944375069
  0
LINE
  8
0
  6
CONTINUOUS
 62
     1
 10
735.0
 20
1365.305778818
 11
735.0
 21
1423.944375069
  0
ARC
  8
0
  6
CONTINUOUS
 62
     1
 10
733.0
 20
1434.466558854
 40
3.0
 50
90.0
 51
180.0
  0
LINE
  8
0
  6
CONTINUOUS
 62
     1
 10
745.0
 20
1433.944375069
 11
843.0
 21
1433.944375069
  0
LINE
  8
0
  6
CONTINUOUS
 62
     1
 10
733.0
 20
1437.466558854
 11
855.0
 21
1437.466558854
  0
LINE
  8
0
  6
CONTINUOUS
 62
     1
 10
730.0
 20
1304.0
 11
730.0
 21
1434.0
  0
LINE
  8
0
  6
CONTINUOUS
 62
     1
 10
853.0
 20
1365.305778818
 11
853.0
 21
1423.944375069
  0
LINE
  8
0
  6
CONTINUOUS
 62
     1
 10
858.0
 20
1322.657620342
 11
858.0
 21
1434.466558854
  0
LINE
  8
0
  6
CONTINUOUS
 62
     1
 10
853.0
 20
1423.944375069
 11
843.0
 21
1433.944375069
  0
ARC
  8
0
  6
CONTINUOUS
 62
     1
 10
855.0
 20
1434.466558854
 40
3.0
 50
0.0
 51
90.0
  0
LINE
  8
0
  6
CONTINUOUS
 62
     1
 10
1449.999190206
 20
1305.5
 11
1449.999190206
 21
1314.0
  0
CIRCLE
  8
0
  6
CONTINUOUS
 62
     1
 10
1519.999190206
 20
1304.0
 40
17.5
  0
LINE
  8
0
  6
CONTINUOUS
 62
     1
 10
871.0
 20
1234.0
 11
862.0
 21
1234.0
  0
LINE
  8
0
  6
CONTINUOUS
 62
     1
 10
871.0
 20
1374.0
 11
871.0
 21
1234.0
  0
LINE
  8
0
  6
CONTINUOUS
 62
     1
 10
871.0
 20
1374.0
 11
863.0
 21
1374.0
  0
LINE
  8
0
  6
CONTINUOUS
 62
     1
 10
886.0
 20
1371.5
 11
886.0
 21
1236.5
  0
LINE
  8
0
  6
CONTINUOUS
 62
     1
 10
886.0
 20
1371.5
 11
871.0
 21
1371.5
  0
LINE
  8
0
  6
CONTINUOUS
 62
     1
 10
886.0
 20
1236.5
 11
871.0
 21
1236.5
  0
LINE
  8
0
  6
CONTINUOUS
 62
     1
 10
865.0
 20
1216.5
 11
865.0
 21
1205.55046
  0
LINE
  8
0
  6
CONTINUOUS
 62
     1
 10
865.0
 20
1216.5
 11
865.0
 21
1227.44954
  0
LINE
  8
0
  6
CONTINUOUS
 62
     1
 10
862.0
 20
1205.75
 11
865.0
 21
1205.75
  0
LINE
  8
0
  6
CONTINUOUS
 62
     1
 10
862.0
 20
1216.5
 11
865.000254073
 21
1213.499745927
  0
LINE
  8
0
  6
CONTINUOUS
 62
     1
 10
865.000254073
 20
1216.5
 11
862.0
 21
1219.500254073
  0
LINE
  8
0
  6
CONTINUOUS
 62
     1
 10
862.0
 20
1227.25
 11
865.0
 21
1227.25
  0
LINE
  8
0
  6
CONTINUOUS
 62
     1
 10
865.0
 20
1205.75
 11
876.3
 21
1205.75
  0
LINE
  8
0
  6
CONTINUOUS
 62
     1
 10
876.3
 20
1216.5
 11
876.3
 21
1205.75
  0
LINE
  8
0
  6
CONTINUOUS
 62
     1
 10
876.3
 20
1205.75
 11
877.0
 21
1206.962435565
  0
LINE
  8
0
  6
CONTINUOUS
 62
     1
 10
877.0
 20
1216.5
 11
877.0
 21
1206.962435565
  0
LINE
  8
0
  6
CONTINUOUS
 62
     1
 10
865.0
 20
1227.25
 11
876.3
 21
1227.25
  0
LINE
  8
0
  6
CONTINUOUS
 62
     1
 10
876.3
 20
1216.5
 11
876.3
 21
1227.25
  0
LINE
  8
0
  6
CONTINUOUS
 62
     1
 10
876.3
 20
1227.25
 11
877.0
 21
1226.037564435
  0
LINE
  8
0
  6
CONTINUOUS
 62
     1
 10
877.0
 20
1216.5
 11
877.0
 21
1226.037564435
  0
LINE
  8
0
  6
LTYPE1
 62
     2
 10
890.7
 20
1216.5
 11
843.0
 21
1216.5
  0
LINE
  8
0
  6
CONTINUOUS
 62
     1
 10
866.0
 20
1391.5
 11
866.0
 21
1380.55046
  0
LINE
  8
0
  6
CONTINUOUS
 62
     1
 10
866.0
 20
1391.5
 11
866.0
 21
1402.44954
  0
LINE
  8
0
  6
CONTINUOUS
 62
     1
 10
863.0
 20
1380.75
 11
866.0
 21
1380.75
  0
LINE
  8
0
  6
CONTINUOUS
 62
     1
 10
863.0
 20
1391.5
 11
866.000254073
 21
1388.499745927
  0
LINE
  8
0
  6
CONTINUOUS
 62
     1
 10
866.000254073
 20
1391.5
 11
863.0
 21
1394.500254073
  0
LINE
  8
0
  6
CONTINUOUS
 62
     1
 10
863.0
 20
1402.25
 11
866.0
 21
1402.25
  0
LINE
  8
0
  6
CONTINUOUS
 62
     1
 10
866.0
 20
1380.75
 11
877.3
 21
1380.75
  0
LINE
  8
0
  6
CONTINUOUS
 62
     1
 10
877.3
 20
1391.5
 11
877.3
 21
1380.75
  0
LINE
  8
0
  6
CONTINUOUS
 62
     1
 10
877.3
 20
1380.75
 11
878.0
 21
1381.962435565
  0
LINE
  8
0
  6
CONTINUOUS
 62
     1
 10
878.0
 20
1391.5
 11
878.0
 21
1381.962435565
  0
LINE
  8
0
  6
CONTINUOUS
 62
     1
 10
866.0
 20
1402.25
 11
877.3
 21
1402.25
  0
LINE
  8
0
  6
CONTINUOUS
 62
     1
 10
877.3
 20
1391.5
 11
877.3
 21
1402.25
  0
LINE
  8
0
  6
CONTINUOUS
 62
     1
 10
877.3
 20
1402.25
 11
878.0
 21
1401.037564435
  0
LINE
  8
0
  6
CONTINUOUS
 62
     1
 10
878.0
 20
1391.5
 11
878.0
 21
1401.037564435
  0
LINE
  8
0
  6
LTYPE1
 62
     2
 10
891.7
 20
1391.5
 11
858.0
 21
1391.5
  0
LINE
  8
0
  6
CONTINUOUS
 62
     1
 10
562.0
 20
1723.0
 11
512.0
 21
1723.0
  0
CIRCLE
  8
0
  6
CONTINUOUS
 62
     1
 10
532.0
 20
1753.0
 40
17.5
  0
LINE
  8
0
  6
CONTINUOUS
 62
     1
 10
532.0
 20
1723.0
 11
547.0
 21
1723.0
  0
LINE
  8
0
  6
CONTINUOUS
 62
     1
 10
532.0
 20
1734.0
 11
545.751706485
 21
1734.0
  0
LINE
  8
0
  6
CONTINUOUS
 62
     1
 10
545.751706485
 20
1734.0
 11
532.0
 21
1735.5
  0
LINE
  8
0
  6
CONTINUOUS
 62
     1
 10
546.689625645
 20
1725.735028154
 11
545.751706485
 21
1734.0
  0
LINE
  8
0
  6
CONTINUOUS
 62
     1
 10
547.0
 20
1723.0
 11
546.689625645
 21
1725.735028154
  0
ARC
  8
0
  6
CONTINUOUS
 62
     1
 10
548.297773229
 20
1725.927087564
 40
1.6
 50
120.593314844
 51
186.768821444
  0
ARC
  8
0
  6
CONTINUOUS
 62
     1
 10
532.0
 20
1753.0
 40
30.0
 50
301.047754584
 51
0.0
  0
LINE
  8
0
  6
CONTINUOUS
 62
     1
 10
532.0
 20
1723.0
 11
517.0
 21
1723.0
  0
LINE
  8
0
  6
CONTINUOUS
 62
     1
 10
532.0
 20
1734.0
 11
518.248293515
 21
1734.0
  0
LINE
  8
0
  6
CONTINUOUS
 62
     1
 10
518.248293515
 20
1734.0
 11
532.0
 21
1735.5
  0
LINE
  8
0
  6
CONTINUOUS
 62
     1
 10
517.310374355
 20
1725.735028154
 11
518.248293515
 21
1734.0
  0
LINE
  8
0
  6
CONTINUOUS
 62
     1
 10
517.0
 20
1723.0
 11
517.310374355
 21
1725.735028154
  0
ARC
  8
0
  6
CONTINUOUS
 62
     1
 10
515.702226771
 20
1725.927087564
 40
1.6
 50
353.231178556
 51
59.406685156
  0
ARC
  8
0
  6
CONTINUOUS
 62
     1
 10
532.0
 20
1753.0
 40
30.0
 50
0.0
 51
239.0231413
  0
LINE
  8
0
  6
LTYPE1
 62
     2
 10
532.0
 20
1674.8
 11
532.0
 21
1789.8
  0
LINE
  8
0
  6
CONTINUOUS
 62
     1
 10
539.0
 20
1654.0
 11
539.0
 21
1723.0
  0
ARC
  8
0
  6
CONTINUOUS
 62
     1
 10
533.0
 20
1654.0
 40
6.0
 50
270.0
 51
0.0
  0
ARC
  8
0
  6
CONTINUOUS
 62
     1
 10
506.0
 20
1654.0
 40
6.0
 50
270.0
 51
0.0
  0
LINE
  8
0
  6
CONTINUOUS
 62
     1
 10
512.0
 20
1654.0
 11
512.0
 21
1723.0
  0
LINE
  8
0
  6
CONTINUOUS
 62
     1
 10
533.0
 20
1648.0
 11
407.0
 21
1648.0
  0
LINE
  8
0
  6
LTYPE1
 62
     2
 10
554.6
 20
1753.0
 11
504.0
 21
1753.0
  0
LINE
  8
0
  6
CONTINUOUS
 62
     1
 10
562.0
 20
1423.5
 11
562.0
 21
1723.0
  0
LINE
  8
0
  6
CONTINUOUS
 62
     1
 10
424.0
 20
1169.0
 11
424.0
 21
1648.0
  0
LINE
  8
0
  6
CONTINUOUS
 62
     1
 10
407.0
 20
1169.0
 11
407.0
 21
1648.0
  0
LINE
  8
0
  6
LTYPE1
 62
     2
 10
437.0
 20
1487.0
 11
383.0
 21
1487.0
  0
LINE
  8
0
  6
LTYPE1
 62
     2
 10
433.0
 20
1519.0
 11
385.0
 21
1519.0
  0
LINE
  8
0
  6
CONTINUOUS
 62
     1
 10
529.0
 20
1598.0
 11
458.0
 21
1598.0
  0
LINE
  8
0
  6
CONTINUOUS
 62
     1
 10
529.0
 20
1598.0
 11
529.0
 21
1478.0
  0
LINE
  8
0
  6
CONTINUOUS
 62
     1
 10
529.0
 20
1478.0
 11
458.0
 21
1478.0
  0
LINE
  8
0
  6
CONTINUOUS
 62
     1
 10
458.0
 20
1478.0
 11
458.0
 21
1598.0
  0
LINE
  8
0
  6
LTYPE1
 62
     2
 10
534.0
 20
1488.0
 11
510.2
 21
1488.0
  0
LINE
  8
0
  6
LTYPE1
 62
     2
 10
480.2
 20
1588.0
 11
453.2
 21
1588.0
  0
LINE
  8
0
  6
LTYPE1
 62
     2
 10
534.2
 20
1588.0
 11
506.2
 21
1588.0
  0
LINE
  8
0
  6
LTYPE1
 62
     2
 10
519.0
 20
1499.8
 11
519.0
 21
1478.0
  0
LINE
  8
0
  6
LTYPE1
 62
     2
 10
519.0
 20
1598.0
 11
519.0
 21
1575.8
  0
LINE
  8
0
  6
LTYPE1
 62
     2
 10
468.0
 20
1576.8
 11
468.0
 21
1598.0
  0
LINE
  8
0
  6
LTYPE1
 62
     2
 10
468.0
 20
1478.0
 11
468.0
 21
1498.8
  0
LINE
  8
0
  6
LTYPE1
 62
     2
 10
480.2
 20
1488.0
 11
455.2
 21
1488.0
  0
LINE
  8
0
  6
LTYPE1
 62
     2
 10
2300.5
 20
1589.0
 11
1989.5
 21
1589.0
  0
ARC
  8
0
  6
CONTINUOUS
 62
     1
 10
2146.5
 20
1592.7
 40
150.0
 50
116.704852248
 51
150.427488945
  0
ARC
  8
0
  6
CONTINUOUS
 62
     1
 10
2146.5
 20
1592.7
 40
150.0
 50
29.572511055
 51
63.295147752
  0
LINE
  8
0
  6
CONTINUOUS
 62
     1
 10
2008.9
 20
1478.0
 11
2008.9
 21
1598.0
  0
LINE
  8
0
  6
LTYPE1
 62
     2
 10
2031.1
 20
1588.0
 11
2004.1
 21
1588.0
  0
LINE
  8
0
  6
CONTINUOUS
 62
     1
 10
2016.5
 20
1598.0
 11
2008.9
 21
1598.0
  0
LINE
  8
0
  6
CONTINUOUS
 62
     1
 10
2284.1
 20
1478.0
 11
2284.1
 21
1598.0
  0
LINE
  8
0
  6
LTYPE1
 62
     2
 10
2261.9
 20
1588.0
 11
2288.9
 21
1588.0
  0
LINE
  8
0
  6
CONTINUOUS
 62
     1
 10
2276.5
 20
1598.0
 11
2284.1
 21
1598.0
  0
CIRCLE
  8
0
  6
CONTINUOUS
 62
     1
 10
2146.5
 20
1727.5
 40
12.055
  0
CIRCLE
  8
0
  6
CONTINUOUS
 62
     1
 10
2146.5
 20
1727.5
 40
20.0
  0
CIRCLE
  8
0
  6
CONTINUOUS
 62
     1
 10
2146.5
 20
1727.5
 40
25.0
  0
CIRCLE
  8
0
  6
CONTINUOUS
 62
     2
 10
2146.5
 20
1727.5
 40
13.221
  0
LINE
  8
0
  6
LTYPE1
 62
     2
 10
2110.0
 20
1727.5
 11
2182.0
 21
1727.5
  0
ARC
  8
0
  6
CONTINUOUS
 62
     1
 10
2176.5
 20
1703.0
 40
10.0
 50
270.0
 51
0.0
  0
LINE
  8
0
  6
CONTINUOUS
 62
     1
 10
2146.5
 20
1772.0
 11
2176.5
 21
1772.0
  0
LINE
  8
0
  6
CONTINUOUS
 62
     1
 10
2186.5
 20
1703.0
 11
2186.5
 21
1762.0
  0
ARC
  8
0
  6
CONTINUOUS
 62
     1
 10
2176.5
 20
1762.0
 40
10.0
 50
0.0
 51
90.0
  0
LINE
  8
0
  6
CONTINUOUS
 62
     1
 10
2146.5
 20
1777.0
 11
2186.5
 21
1777.0
  0
ARC
  8
0
  6
CONTINUOUS
 62
     1
 10
2186.5
 20
1767.0
 40
10.0
 50
0.0
 51
90.0
  0
LINE
  8
0
  6
CONTINUOUS
 62
     1
 10
2146.5
 20
1693.0
 11
2186.5
 21
1693.0
  0
LINE
  8
0
  6
CONTINUOUS
 62
     1
 10
2196.5
 20
1703.0
 11
2196.5
 21
1767.0
  0
ARC
  8
0
  6
CONTINUOUS
 62
     1
 10
2186.5
 20
1703.0
 40
10.0
 50
270.0
 51
0.0
  0
LINE
  8
0
  6
CONTINUOUS
 62
     1
 10
2176.860126607
 20
1693.006486662
 11
2176.860126607
 21
1687.506486662
  0
LINE
  8
0
  6
CONTINUOUS
 62
     1
 10
2146.5
 20
1772.0
 11
2116.5
 21
1772.0
  0
LINE
  8
0
  6
CONTINUOUS
 62
     1
 10
2106.5
 20
1703.0
 11
2106.5
 21
1762.0
  0
ARC
  8
0
  6
CONTINUOUS
 62
     1
 10
2116.5
 20
1762.0
 40
10.0
 50
90.0
 51
180.0
  0
LINE
  8
0
  6
CONTINUOUS
 62
     1
 10
2146.5
 20
1777.0
 11
2106.5
 21
1777.0
  0
ARC
  8
0
  6
CONTINUOUS
 62
     1
 10
2106.5
 20
1767.0
 40
10.0
 50
90.0
 51
180.0
  0
LINE
  8
0
  6
CONTINUOUS
 62
     1
 10
2096.5
 20
1703.0
 11
2096.5
 21
1767.0
  0
ARC
  8
0
  6
CONTINUOUS
 62
     1
 10
2116.5
 20
1703.0
 40
10.0
 50
180.0
 51
270.0
  0
LINE
  8
0
  6
CONTINUOUS
 62
     1
 10
2146.5
 20
1693.0
 11
2106.5
 21
1693.0
  0
ARC
  8
0
  6
CONTINUOUS
 62
     1
 10
2106.5
 20
1703.0
 40
10.0
 50
180.0
 51
270.0
  0
LINE
  8
0
  6
CONTINUOUS
 62
     1
 10
2116.139873393
 20
1693.006486662
 11
2116.139873393
 21
1687.506486662
  0
ARC
  8
0
  6
CONTINUOUS
 62
     1
 10
2064.0
 20
1589.0
 40
20.0
 50
90.0
 51
180.0
  0
ARC
  8
0
  6
CONTINUOUS
 62
     1
 10
2064.0
 20
1589.0
 40
20.0
 50
180.0
 51
270.0
  0
ARC
  8
0
  6
CONTINUOUS
 62
     1
 10
2187.75
 20
1517.552904188
 40
20.0
 50
210.0
 51
300.0
  0
ARC
  8
0
  6
CONTINUOUS
 62
     1
 10
2187.75
 20
1517.552904188
 40
20.0
 50
300.0
 51
30.0
  0
LINE
  8
0
  6
CONTINUOUS
 62
     1
 10
2064.0
 20
1569.0
 11
2134.952994616
 21
1569.0
  0
LINE
  8
0
  6
CONTINUOUS
 62
     1
 10
2170.429491924
 20
1507.552904188
 11
2134.952994616
 21
1569.0
  0
ARC
  8
0
  6
CONTINUOUS
 62
     1
 10
2187.75
 20
1660.447095812
 40
20.0
 50
330.0
 51
60.0
  0
ARC
  8
0
  6
CONTINUOUS
 62
     1
 10
2187.75
 20
1660.447095812
 40
20.0
 50
60.0
 51
150.0
  0
LINE
  8
0
  6
CONTINUOUS
 62
     1
 10
2170.429491924
 20
1670.447095812
 11
2134.952994616
 21
1609.0
  0
LINE
  8
0
  6
CONTINUOUS
 62
     1
 10
2064.0
 20
1609.0
 11
2134.952994616
 21
1609.0
  0
ARC
  8
0
  6
CONTINUOUS
 62
     1
 10
2146.5
 20
1589.0
 40
100.0
 50
186.110646249
 51
293.889353751
  0
ARC
  8
0
  6
CONTINUOUS
 62
     1
 10
2146.5
 20
1589.0
 40
100.0
 50
66.110646249
 51
173.889353751
  0
ARC
  8
0
  6
CONTINUOUS
 62
     1
 10
2146.5
 20
1589.0
 40
100.0
 50
306.110646249
 51
53.889353751
  0
LINE
  8
0
  6
CONTINUOUS
 62
     1
 10
2149.833333333
 20
1608.720265944
 11
2208.166666667
 21
1598.860132972
  0
LINE
  8
0
  6
CONTINUOUS
 62
     1
 10
2149.833333333
 20
1569.279734056
 11
2208.166666667
 21
1579.139867028
  0
LINE
  8
0
  6
LTYPE1
 62
     2
 10
2206.5
 20
1574.0
 11
2206.5
 21
1609.0
  0
ARC
  8
0
  6
CONTINUOUS
 62
     1
 10
2146.5
 20
1589.0
 40
20.0
 50
80.405931773
 51
279.594068227
  0
ARC
  8
0
  6
CONTINUOUS
 62
     1
 10
2206.5
 20
1589.0
 40
10.0
 50
279.594068227
 51
80.405931773
  0
CIRCLE
  8
0
  6
CONTINUOUS
 62
     1
 10
2206.5
 20
1589.0
 40
9.0
  0
CIRCLE
  8
0
  6
CONTINUOUS
 62
     1
 10
2146.5
 20
1589.0
 40
19.0
  0
CIRCLE
  8
0
  6
CONTINUOUS
 62
     1
 10
2133.4
 20
1589.0
 40
4.0
  0
CIRCLE
  8
0
  6
CONTINUOUS
 62
     1
 10
2146.5
 20
1575.9
 40
4.0
  0
CIRCLE
  8
0
  6
CONTINUOUS
 62
     1
 10
2159.6
 20
1589.0
 40
4.0
  0
CIRCLE
  8
0
  6
CONTINUOUS
 62
     1
 10
2146.5
 20
1602.1
 40
4.0
  0
CIRCLE
  8
0
  6
CONTINUOUS
 62
     1
 10
2146.5
 20
1589.0
 40
4.0
  0
LINE
  8
0
  6
CONTINUOUS
 62
     1
 10
2205.070508076
 20
1650.447095812
 11
2178.210211838
 21
1603.923698023
  0
LINE
  8
0
  6
CONTINUOUS
 62
     1
 10
2205.070508076
 20
1527.552904188
 11
2178.210211838
 21
1574.076301977
  0
ARC
  8
0
  6
CONTINUOUS
 62
     1
 10
2146.5
 20
1589.0
 40
120.0
 50
114.078914166
 51
65.921085834
  0
LINE
  8
0
  6
CONTINUOUS
 62
     1
 10
2079.090801815
 20
1726.7
 11
2094.090801815
 21
1726.7
  0
LINE
  8
0
  6
CONTINUOUS
 62
     1
 10
2213.909198185
 20
1726.7
 11
2198.909198185
 21
1726.7
  0
LINE
  8
0
  6
LTYPE1
 62
     2
 10
2031.1
 20
1488.0
 11
2006.1
 21
1488.0
  0
LINE
  8
0
  6
CONTINUOUS
 62
     1
 10
2016.5
 20
1478.0
 11
2008.9
 21
1478.0
  0
LINE
  8
0
  6
LTYPE1
 62
     2
 10
2261.9
 20
1488.0
 11
2286.9
 21
1488.0
  0
LINE
  8
0
  6
CONTINUOUS
 62
     1
 10
2276.5
 20
1478.0
 11
2284.1
 21
1478.0
  0
LINE
  8
0
  6
CONTINUOUS
 62
     1
 10
2276.5
 20
1354.761874274
 11
2276.5
 21
1667.533147735
  0
LINE
  8
0
  6
CONTINUOUS
 62
     1
 10
2016.5
 20
1393.805352832
 11
2016.5
 21
1667.533147735
  0
LINE
  8
0
  6
LTYPE1
 62
     2
 10
2186.4
 20
1433.0
 11
2108.3
 21
1433.0
  0
ARC
  8
0
  6
CONTINUOUS
 62
     1
 10
2146.5
 20
1433.0
 40
31.0
 50
288.105183353
 51
251.894816647
  0
LINE
  8
0
  6
CONTINUOUS
 62
     1
 10
1455.0
 20
1304.0
 11
1455.0
 21
1334.388736054
  0
LINE
  8
0
  6
CONTINUOUS
 62
     1
 10
1455.0
 20
1304.0
 11
1455.0
 21
1273.611263946
  0
LINE
  8
0
  6
CONTINUOUS
 62
     1
 10
2121.5
 20
1276.049150281
 11
2121.5
 21
1331.950849719
  0
LINE
  8
0
  6
CONTINUOUS
 62
     1
 10
2171.5
 20
1276.049150281
 11
2171.5
 21
1331.950849719
  0
CIRCLE
  8
0
  6
CONTINUOUS
 62
     1
 10
2146.5
 20
1304.0
 40
37.5
  0
LINE
  8
0
  6
CONTINUOUS
 62
     1
 10
2094.250969007
 20
1351.0
 11
2198.749030993
 21
1351.0
  0
LINE
  8
0
  6
LTYPE3
 62
     2
 10
2171.5
 20
1321.5
 11
2121.5
 21
1321.5
  0
LINE
  8
0
  6
LTYPE3
 62
     2
 10
2171.5
 20
1286.5
 11
2121.5
 21
1286.5
  0
LINE
  8
0
  6
LTYPE1
 62
     2
 10
1520.000190206
 20
1588.5
 11
1520.000190206
 21
1666.5
  0
LINE
  8
0
  6
LTYPE1
 62
     2
 10
1375.0
 20
1629.0
 11
1576.5
 21
1629.0
  0
LINE
  8
0
  6
LTYPE1
 62
     2
 10
1519.999190206
 20
1327.5
 11
1519.999190206
 21
1277.5
  0
LINE
  8
0
  6
LTYPE1
 62
     2
 10
1573.0
 20
1304.0
 11
383.0
 21
1304.0
  0
LINE
  8
1
  6
CONTINUOUS
 62
     2
 10
632.0
 20
1226.398877817
 11
632.0
 21
990.0
  0
LINE
  8
1
  6
CONTINUOUS
 62
     2
 10
1519.999190206
 20
1269.5
 11
1519.999190206
 21
990.0
  0
LINE
  8
1
  6
CONTINUOUS
 62
     2
 10
407.0
 20
1161.0
 11
407.0
 21
932.0
  0
LINE
  8
1
  6
CONTINUOUS
 62
     2
 10
407.0
 20
948.0
 11
426.318516526
 21
942.823619098
  0
LINE
  8
1
  6
CONTINUOUS
 62
     2
 10
407.0
 20
948.0
 11
426.318516526
 21
953.176380902
  0
LINE
  8
1
  6
CONTINUOUS
 62
     2
 10
407.0
 20
948.0
 11
632.0
 21
948.0
  0
LINE
  8
1
  6
CONTINUOUS
 62
     2
 10
632.0
 20
948.0
 11
612.681483474
 21
953.176380902
  0
LINE
  8
1
  6
CONTINUOUS
 62
     2
 10
632.0
 20
948.0
 11
612.681483474
 21
942.823619098
  0
LINE
  8
1
  6
CONTINUOUS
 62
     2
 10
632.0
 20
998.0
 11
632.0
 21
932.0
  0
TEXT
  8
1
  6
CONTINUOUS
 62
     3
 10
478.7
 20
956.0
 30
2.4
 40
28.0
  1
２２５
 50
0.0
 41
0.914285714
 51
0.0
  7
KANJI50
  0
LINE
  8
1
  6
CONTINUOUS
 62
     2
 10
632.0
 20
948.0
 11
651.318516526
 21
942.823619098
  0
LINE
  8
1
  6
CONTINUOUS
 62
     2
 10
632.0
 20
948.0
 11
651.318516526
 21
953.176380902
  0
LINE
  8
1
  6
CONTINUOUS
 62
     2
 10
632.0
 20
948.0
 11
1519.999190206
 21
948.0
  0
LINE
  8
1
  6
CONTINUOUS
 62
     2
 10
1519.999190206
 20
948.0
 11
1500.68067368
 21
953.176380902
  0
LINE
  8
1
  6
CONTINUOUS
 62
     2
 10
1519.999190206
 20
948.0
 11
1500.68067368
 21
942.823619098
  0
LINE
  8
1
  6
CONTINUOUS
 62
     2
 10
1519.999190206
 20
998.0
 11
1519.999190206
 21
932.0
  0
LINE
  8
1
  6
CONTINUOUS
 62
     2
 10
407.0
 20
940.0
 11
407.0
 21
869.5
  0
LINE
  8
1
  6
CONTINUOUS
 62
     2
 10
407.0
 20
885.5
 11
426.318516526
 21
880.323619098
  0
LINE
  8
1
  6
CONTINUOUS
 62
     2
 10
407.0
 20
885.5
 11
426.318516526
 21
890.676380902
  0
LINE
  8
1
  6
CONTINUOUS
 62
     2
 10
407.0
 20
885.5
 11
1519.999190206
 21
885.5
  0
LINE
  8
1
  6
CONTINUOUS
 62
     2
 10
1519.999190206
 20
885.5
 11
1500.68067368
 21
890.676380902
  0
LINE
  8
1
  6
CONTINUOUS
 62
     2
 10
1519.999190206
 20
885.5
 11
1500.68067368
 21
880.323619098
  0
LINE
  8
1
  6
CONTINUOUS
 62
     2
 10
1519.999190206
 20
940.0
 11
1519.999190206
 21
869.5
  0
LINE
  8
1
  6
CONTINUOUS
 62
     2
 10
1519.999190206
 20
885.5
 11
1500.68067368
 21
890.676380902
  0
LINE
  8
1
  6
CONTINUOUS
 62
     2
 10
1519.999190206
 20
885.5
 11
1500.68067368
 21
880.323619098
  0
LINE
  8
1
  6
CONTINUOUS
 62
     2
 10
1489.999190206
 20
885.5
 11
1519.999190206
 21
885.5
  0
LINE
  8
1
  6
CONTINUOUS
 62
     2
 10
1519.999190206
 20
885.5
 11
1557.999190206
 21
885.5
  0
LINE
  8
1
  6
CONTINUOUS
 62
     2
 10
1557.999190206
 20
885.5
 11
1641.599190206
 21
885.5
  0
LINE
  8
1
  6
CONTINUOUS
 62
     2
 10
1557.999190206
 20
885.5
 11
1577.317706732
 21
880.323619098
  0
LINE
  8
1
  6
CONTINUOUS
 62
     2
 10
1557.999190206
 20
885.5
 11
1577.317706732
 21
890.676380902
  0
LINE
  8
1
  6
CONTINUOUS
 62
     2
 10
1557.999190206
 20
1268.5
 11
1557.999190206
 21
869.5
  0
TEXT
  8
1
  6
CONTINUOUS
 62
     3
 10
1587.999190206
 20
893.5
 30
2.4
 40
28.0
  1
３８
 50
0.0
 41
0.914285714
 51
0.0
  7
KANJI50
  0
LINE
  8
0
  6
LTYPE4
 62
     2
 10
2146.5
 20
1139.0
 11
2146.5
 21
1783.75
  0
TEXT
  8
1
  6
CONTINUOUS
 62
     3
 10
880.699595103
 20
893.5
 30
2.4
 40
28.0
  1
ｍｉｎ．ＡＬ
 50
0.0
 41
0.914285714
 51
0.0
  7
KANJI50
  0
TEXT
  8
1
  6
CONTINUOUS
 62
     3
 10
1007.199595103
 20
956.0
 30
2.4
 40
28.0
  1
ｍｉｎ．Ｌ
 50
0.0
 41
0.914285714
 51
0.0
  7
KANJI50
  0
LINE
  8
1
  6
CONTINUOUS
 62
     2
 10
1502.500190206
 20
1523.0
 11
1483.18167368
 21
1528.176380902
  0
LINE
  8
1
  6
CONTINUOUS
 62
     2
 10
1502.500190206
 20
1523.0
 11
1483.18167368
 21
1517.823619098
  0
LINE
  8
1
  6
CONTINUOUS
 62
     2
 10
1472.500190206
 20
1523.0
 11
1502.500190206
 21
1523.0
  0
LINE
  8
1
  6
CONTINUOUS
 62
     2
 10
1502.500190206
 20
1523.0
 11
1537.500190206
 21
1523.0
  0
LINE
  8
1
  6
CONTINUOUS
 62
     2
 10
1537.500190206
 20
1523.0
 11
1733.100190206
 21
1523.0
  0
LINE
  8
1
  6
CONTINUOUS
 62
     2
 10
1537.500190206
 20
1523.0
 11
1556.818706732
 21
1517.823619098
  0
LINE
  8
1
  6
CONTINUOUS
 62
     2
 10
1537.500190206
 20
1523.0
 11
1556.818706732
 21
1528.176380902
  0
TEXT
  8
1
  6
CONTINUOUS
 62
     3
 10
1567.500190206
 20
1531.0
 30
2.4
 40
28.0
  1
φ３５Ｈ１０
 50
0.0
 41
0.914285714
 51
0.0
  7
KANJI50
  0
LINE
  8
1
  6
CONTINUOUS
 62
     2
 10
1520.000190206
 20
1580.5
 11
1520.000190206
 21
1440.5
  0
LINE
  8
1
  6
CONTINUOUS
 62
     2
 10
1520.000190206
 20
1456.5
 11
1500.68167368
 21
1461.676380902
  0
LINE
  8
1
  6
CONTINUOUS
 62
     2
 10
1520.000190206
 20
1456.5
 11
1500.68167368
 21
1451.323619098
  0
LINE
  8
1
  6
CONTINUOUS
 62
     2
 10
1520.000190206
 20
1456.5
 11
1455.0
 21
1456.5
  0
LINE
  8
1
  6
CONTINUOUS
 62
     2
 10
1455.0
 20
1456.5
 11
1474.318516526
 21
1451.323619098
  0
LINE
  8
1
  6
CONTINUOUS
 62
     2
 10
1455.0
 20
1456.5
 11
1474.318516526
 21
1461.676380902
  0
LINE
  8
1
  6
CONTINUOUS
 62
     2
 10
1455.0
 20
1583.5
 11
1455.0
 21
1440.5
  0
TEXT
  8
1
  6
CONTINUOUS
 62
     3
 10
1460.700095103
 20
1464.5
 30
2.4
 40
28.0
  1
６５
 50
0.0
 41
0.914285714
 51
0.0
  7
KANJI50
  0
LINE
  8
0
  6
CONTINUOUS
 62
     1
 10
1455.0
 20
1609.0
 11
1558.000190206
 21
1609.0
  0
LINE
  8
0
  6
CONTINUOUS
 62
     1
 10
1455.0
 20
1649.0
 11
1558.000190206
 21
1649.0
  0
LINE
  8
0
  6
CONTINUOUS
 62
     1
 10
1455.0
 20
1666.5
 11
1455.0
 21
1649.0
  0
LINE
  8
0
  6
CONTINUOUS
 62
     1
 10
1455.0
 20
1609.0
 11
1455.0
 21
1591.5
  0
LINE
  8
0
  6
CONTINUOUS
 62
     1
 10
1548.000190206
 20
1609.0
 11
1548.000190206
 21
1649.0
  0
LINE
  8
0
  6
CONTINUOUS
 62
     1
 10
1558.000190206
 20
1609.0
 11
1558.000190206
 21
1649.0
  0
LINE
  8
1
  6
CONTINUOUS
 62
     2
 10
1566.000190206
 20
1609.0
 11
1655.499190206
 21
1609.0
  0
LINE
  8
1
  6
CONTINUOUS
 62
     2
 10
1639.499190206
 20
1609.0
 11
1644.675571108
 21
1628.318516526
  0
LINE
  8
1
  6
CONTINUOUS
 62
     2
 10
1639.499190206
 20
1609.0
 11
1634.322809304
 21
1628.318516526
  0
LINE
  8
1
  6
CONTINUOUS
 62
     2
 10
1639.499190206
 20
1609.0
 11
1639.499190206
 21
1649.0
  0
LINE
  8
1
  6
CONTINUOUS
 62
     2
 10
1639.499190206
 20
1649.0
 11
1634.322809304
 21
1629.681483474
  0
LINE
  8
1
  6
CONTINUOUS
 62
     2
 10
1639.499190206
 20
1649.0
 11
1644.675571108
 21
1629.681483474
  0
LINE
  8
1
  6
CONTINUOUS
 62
     2
 10
1566.000190206
 20
1649.0
 11
1655.499190206
 21
1649.0
  0
TEXT
  8
1
  6
CONTINUOUS
 62
     3
 10
1631.499190206
 20
1602.2
 30
2.4
 40
28.0
  1
４０
 50
90.0
 41
0.914285714
 51
0.0
  7
KANJI50
  0
LINE
  8
1
  6
CONTINUOUS
 62
     2
 10
2016.5
 20
1176.000030518
 11
2016.5
 21
990.0
  0
LINE
  8
1
  6
CONTINUOUS
 62
     2
 10
2016.5
 20
1006.0
 11
2035.818516526
 21
1000.823619098
  0
LINE
  8
1
  6
CONTINUOUS
 62
     2
 10
2016.5
 20
1006.0
 11
2035.818516526
 21
1011.176380902
  0
LINE
  8
1
  6
CONTINUOUS
 62
     2
 10
2016.5
 20
1006.0
 11
2276.5
 21
1006.0
  0
LINE
  8
1
  6
CONTINUOUS
 62
     2
 10
2276.5
 20
1006.0
 11
2257.181483474
 21
1011.176380902
  0
LINE
  8
1
  6
CONTINUOUS
 62
     2
 10
2276.5
 20
1006.0
 11
2257.181483474
 21
1000.823619098
  0
LINE
  8
1
  6
CONTINUOUS
 62
     2
 10
2276.5
 20
1176.0
 11
2276.5
 21
990.0
  0
TEXT
  8
1
  6
CONTINUOUS
 62
     3
 10
2105.7
 20
1014.0
 30
2.4
 40
28.0
  1
２６０
 50
0.0
 41
0.914285714
 51
0.0
  7
KANJI50
  0
LINE
  8
1
  6
CONTINUOUS
 62
     2
 10
2006.5
 20
1246.0
 11
2006.5
 21
932.0
  0
LINE
  8
1
  6
CONTINUOUS
 62
     2
 10
2006.5
 20
948.0
 11
2025.818516526
 21
942.823619098
  0
LINE
  8
1
  6
CONTINUOUS
 62
     2
 10
2006.5
 20
948.0
 11
2025.818516526
 21
953.176380902
  0
LINE
  8
1
  6
CONTINUOUS
 62
     2
 10
2006.5
 20
948.0
 11
2286.5
 21
948.0
  0
LINE
  8
1
  6
CONTINUOUS
 62
     2
 10
2286.5
 20
948.0
 11
2267.181483474
 21
953.176380902
  0
LINE
  8
1
  6
CONTINUOUS
 62
     2
 10
2286.5
 20
948.0
 11
2267.181483474
 21
942.823619098
  0
LINE
  8
1
  6
CONTINUOUS
 62
     2
 10
2286.5
 20
1246.0
 11
2286.5
 21
932.0
  0
TEXT
  8
1
  6
CONTINUOUS
 62
     3
 10
2105.7
 20
956.0
 30
2.4
 40
28.0
  1
２８０
 50
0.0
 41
0.914285714
 51
0.0
  7
KANJI50
  0
LINE
  8
1
  6
CONTINUOUS
 62
     2
 10
1998.5
 20
1281.5
 11
1947.0
 21
1281.5
  0
LINE
  8
1
  6
CONTINUOUS
 62
     2
 10
1963.0
 20
1281.5
 11
1957.823619098
 21
1262.181483474
  0
LINE
  8
1
  6
CONTINUOUS
 62
     2
 10
1963.0
 20
1281.5
 11
1968.176380902
 21
1262.181483474
  0
LINE
  8
1
  6
CONTINUOUS
 62
     2
 10
1963.0
 20
1251.5
 11
1963.0
 21
1281.5
  0
LINE
  8
1
  6
CONTINUOUS
 62
     2
 10
1963.0
 20
1281.5
 11
1963.0
 21
1326.5
  0
LINE
  8
1
  6
CONTINUOUS
 62
     2
 10
1963.0
 20
1326.5
 11
1963.0
 21
1690.1
  0
LINE
  8
1
  6
CONTINUOUS
 62
     2
 10
1963.0
 20
1326.5
 11
1968.176380902
 21
1345.818516526
  0
LINE
  8
1
  6
CONTINUOUS
 62
     2
 10
1963.0
 20
1326.5
 11
1957.823619098
 21
1345.818516526
  0
LINE
  8
1
  6
CONTINUOUS
 62
     2
 10
1998.5
 20
1326.5
 11
1947.0
 21
1326.5
  0
TEXT
  8
1
  6
CONTINUOUS
 62
     3
 10
1955.0
 20
1356.5
 30
2.4
 40
28.0
  1
φ４５Ｈ１０　　深さ５０
 50
90.0
 41
0.914285714
 51
0.0
  7
KANJI50
  0
LINE
  8
0
  6
LTYPE1
 62
     2
 10
2297.000030518
 20
1304.0
 11
1994.500030518
 21
1304.0
  0
LINE
  8
1
  6
CONTINUOUS
 62
     2
 10
2023.500030518
 20
1169.0
 11
1897.000030518
 21
1169.0
  0
LINE
  8
1
  6
CONTINUOUS
 62
     2
 10
1913.000030518
 20
1169.0
 11
1918.17641142
 21
1188.318516526
  0
LINE
  8
1
  6
CONTINUOUS
 62
     2
 10
1913.000030518
 20
1169.0
 11
1907.823649616
 21
1188.318516526
  0
LINE
  8
1
  6
CONTINUOUS
 62
     2
 10
1913.000030518
 20
1169.0
 11
1913.000030518
 21
1304.0
  0
LINE
  8
1
  6
CONTINUOUS
 62
     2
 10
1913.000030518
 20
1304.0
 11
1907.823649616
 21
1284.681483474
  0
LINE
  8
1
  6
CONTINUOUS
 62
     2
 10
1913.000030518
 20
1304.0
 11
1918.17641142
 21
1284.681483474
  0
LINE
  8
1
  6
CONTINUOUS
 62
     2
 10
1986.500030518
 20
1304.0
 11
1897.000030518
 21
1304.0
  0
TEXT
  8
1
  6
CONTINUOUS
 62
     3
 10
1905.000030518
 20
1195.7
 30
2.4
 40
28.0
  1
１３５
 50
90.0
 41
0.914285714
 51
0.0
  7
KANJI50
  0
LINE
  8
1
  6
CONTINUOUS
 62
     2
 10
1913.000030518
 20
1304.0
 11
1918.17641142
 21
1323.318516526
  0
LINE
  8
1
  6
CONTINUOUS
 62
     2
 10
1913.000030518
 20
1304.0
 11
1907.823649616
 21
1323.318516526
  0
LINE
  8
1
  6
CONTINUOUS
 62
     2
 10
1913.000030518
 20
1304.0
 11
1913.000030518
 21
1588.0
  0
LINE
  8
1
  6
CONTINUOUS
 62
     2
 10
1913.000030518
 20
1588.0
 11
1907.823649616
 21
1568.681483474
  0
LINE
  8
1
  6
CONTINUOUS
 62
     2
 10
1913.000030518
 20
1588.0
 11
1918.17641142
 21
1568.681483474
  0
LINE
  8
1
  6
CONTINUOUS
 62
     2
 10
1913.000030518
 20
1588.0
 11
1918.17641142
 21
1607.318516526
  0
LINE
  8
1
  6
CONTINUOUS
 62
     2
 10
1913.000030518
 20
1588.0
 11
1907.823649616
 21
1607.318516526
  0
LINE
  8
1
  6
CONTINUOUS
 62
     2
 10
1913.000030518
 20
1588.0
 11
1913.000030518
 21
1777.0
  0
LINE
  8
1
  6
CONTINUOUS
 62
     2
 10
1913.000030518
 20
1777.0
 11
1907.823649616
 21
1757.681483474
  0
LINE
  8
1
  6
CONTINUOUS
 62
     2
 10
1913.000030518
 20
1777.0
 11
1918.17641142
 21
1757.681483474
  0
LINE
  8
1
  6
CONTINUOUS
 62
     2
 10
2098.500043158
 20
1777.0
 11
1897.000030518
 21
1777.0
  0
TEXT
  8
1
  6
CONTINUOUS
 62
     3
 10
1905.000030518
 20
1641.7
 30
2.4
 40
28.0
  1
１８８
 50
90.0
 41
0.914285714
 51
0.0
  7
KANJI50
  0
TEXT
  8
1
  6
CONTINUOUS
 62
     3
 10
1905.000030518
 20
1405.2
 30
2.4
 40
28.0
  1
２３１
 50
90.0
 41
0.914285714
 51
0.0
  7
KANJI50
  0
LINE
  8
1
  6
CONTINUOUS
 62
     2
 10
1905.000030518
 20
1169.0
 11
1844.000030518
 21
1169.0
  0
LINE
  8
1
  6
CONTINUOUS
 62
     2
 10
1860.000030518
 20
1169.0
 11
1865.17641142
 21
1188.318516526
  0
LINE
  8
1
  6
CONTINUOUS
 62
     2
 10
1860.000030518
 20
1169.0
 11
1854.823649616
 21
1188.318516526
  0
LINE
  8
1
  6
CONTINUOUS
 62
     2
 10
1860.000030518
 20
1169.0
 11
1860.000030518
 21
1777.0
  0
LINE
  8
1
  6
CONTINUOUS
 62
     2
 10
1860.000030518
 20
1777.0
 11
1854.823649616
 21
1757.681483474
  0
LINE
  8
1
  6
CONTINUOUS
 62
     2
 10
1860.000030518
 20
1777.0
 11
1865.17641142
 21
1757.681483474
  0
LINE
  8
1
  6
CONTINUOUS
 62
     2
 10
1905.000030518
 20
1777.0
 11
1844.000030518
 21
1777.0
  0
TEXT
  8
1
  6
CONTINUOUS
 62
     3
 10
1852.000030518
 20
1432.2
 30
2.4
 40
28.0
  1
５５４
 50
90.0
 41
0.914285714
 51
0.0
  7
KANJI50
  0
LINE
  8
1
  6
CONTINUOUS
 62
     2
 10
1924.500030518
 20
1588.0
 11
1897.000030518
 21
1588.0
  0
LINE
  8
1
  6
CONTINUOUS
 62
     2
 10
1996.1
 20
1588.0
 11
1958.000030518
 21
1588.0
  0
LINE
  8
1
  6
CONTINUOUS
 62
     2
 10
407.0
 20
1656.0
 11
407.0
 21
1875.0
  0
LINE
  8
1
  6
CONTINUOUS
 62
     2
 10
407.0
 20
1859.0
 11
426.318516526
 21
1853.823619098
  0
LINE
  8
1
  6
CONTINUOUS
 62
     2
 10
407.0
 20
1859.0
 11
426.318516526
 21
1864.176380902
  0
LINE
  8
1
  6
CONTINUOUS
 62
     2
 10
407.0
 20
1859.0
 11
562.0
 21
1859.0
  0
LINE
  8
1
  6
CONTINUOUS
 62
     2
 10
562.0
 20
1859.0
 11
542.681483474
 21
1864.176380902
  0
LINE
  8
1
  6
CONTINUOUS
 62
     2
 10
562.0
 20
1859.0
 11
542.681483474
 21
1853.823619098
  0
LINE
  8
1
  6
CONTINUOUS
 62
     2
 10
562.0
 20
1731.5
 11
562.0
 21
1875.0
  0
TEXT
  8
1
  6
CONTINUOUS
 62
     3
 10
443.7
 20
1867.0
 30
2.4
 40
28.0
  1
１５５
 50
0.0
 41
0.914285714
 51
0.0
  7
KANJI50
  0
LINE
  8
1
  6
CONTINUOUS
 62
     2
 10
857.5
 20
1436.0
 11
877.178592321
 21
1439.571134873
  0
LINE
  8
1
  6
CONTINUOUS
 62
     2
 10
857.5
 20
1436.0
 11
872.756593424
 21
1448.931989681
  0
LINE
  8
1
  6
CONTINUOUS
 62
     2
 10
857.5
 20
1436.0
 11
939.0
 21
1474.5
  0
LINE
  8
1
  6
CONTINUOUS
 62
     2
 10
939.0
 20
1474.5
 11
1080.6
 21
1474.5
  0
LINE
  8
1
  6
CONTINUOUS
 62
     2
 10
879.0
 20
1389.5
 11
898.893605637
 21
1391.560207455
  0
LINE
  8
1
  6
CONTINUOUS
 62
     2
 10
879.0
 20
1389.5
 11
895.198264127
 21
1401.230994812
  0
LINE
  8
1
  6
CONTINUOUS
 62
     2
 10
879.0
 20
1389.5
 11
940.5
 21
1413.0
  0
LINE
  8
1
  6
CONTINUOUS
 62
     2
 10
940.5
 20
1413.0
 11
1058.1
 21
1413.0
  0
TEXT
  8
1
  6
CONTINUOUS
 62
     3
 10
940.5
 20
1421.0
 30
2.4
 40
24.0
  1
ＰＦ１／２
 50
0.0
 41
0.9
 51
0.0
  7
KANJI0
  0
TEXT
  8
0
  6
CONTINUOUS
 62
     3
 10
2399.0
 20
905.6
 30
16.0
 40
32.0
  1
特記事項
 50
0.0
 41
0.9
 51
0.0
  7
KANJI51
  0
TEXT
  8
0
  6
CONTINUOUS
 62
     3
 10
2287.0
 20
841.6
 30
8.228571429
 40
28.8
  1
１。運転時は必ずピストンロッドの回転防止を行って下さい。
 50
0.0
 41
0.857142857
 51
0.0
  7
KANJI52
  0
TEXT
  8
0
  6
CONTINUOUS
 62
     3
 10
2287.0
 20
789.2
 30
8.208
 40
28.8
  1
２。モートル：全閉自冷かご形３０分定格
 50
0.0
 41
0.857222222
 51
0.0
  7
KANJI53
  0
TEXT
  8
0
  6
CONTINUOUS
 62
     2
 10
911.5
 20
513.4
 30
2.4
 40
24.0
  1
１０００
 50
0.0
 41
0.9
 51
0.0
  7
KANJI0
  0
TEXT
  8
0
  6
CONTINUOUS
 62
     2
 10
1068.2
 20
626.0
 30
2.4
 40
24.0
  1
１０９０
 50
0.0
 41
0.9
 51
0.0
  7
KANJI0
  0
TEXT
  8
0
  6
CONTINUOUS
 62
     2
 10
1253.0
 20
627.6
 30
2.4
 40
24.0
  1
８６５
 50
0.0
 41
0.9
 51
0.0
  7
KANJI0
  0
TEXT
  8
0
  6
CONTINUOUS
 62
     2
 10
1412.6
 20
629.0
 30
2.4
 40
24.0
  1
７４５
 50
0.0
 41
0.9
 51
0.0
  7
KANJI0
  0
TEXT
  8
0
  6
CONTINUOUS
 62
     2
 10
1412.6
 20
573.0
 30
2.4
 40
24.0
  1
９４５
 50
0.0
 41
0.9
 51
0.0
  7
KANJI0
  0
TEXT
  8
0
  6
CONTINUOUS
 62
     2
 10
1387.6
 20
517.0
 30
2.4
 40
24.0
  1
１４８５
 50
0.0
 41
0.9
 51
0.0
  7
KANJI0
  0
TEXT
  8
0
  6
CONTINUOUS
 62
     2
 10
1586.8
 20
629.0
 30
2.4
 40
24.0
  1
５０
 50
0.0
 41
0.9
 51
0.0
  7
KANJI0
  0
TEXT
  8
0
  6
CONTINUOUS
 62
     2
 10
1745.8
 20
628.4
 30
2.4
 40
24.0
  1
１９２
 50
0.0
 41
0.9
 51
0.0
  7
KANJI0
  0
TEXT
  8
0
  6
CONTINUOUS
 62
     2
 10
1745.8
 20
572.4
 30
2.4
 40
24.0
  1
１９９
 50
0.0
 41
0.9
 51
0.0
  7
KANJI0
  0
TEXT
  8
0
  6
CONTINUOUS
 62
     2
 10
1745.8
 20
516.4
 30
2.4
 40
24.0
  1
２２１
 50
0.0
 41
0.9
 51
0.0
  7
KANJI0
  0
TEXT
  8
0
  6
CONTINUOUS
 62
     2
 10
2952.8
 20
1830.2
 30
2.4
 40
24.0
  1
１５／１８
 50
0.0
 41
0.9
 51
0.0
  7
KANJI0
  0
TEXT
  8
0
  6
CONTINUOUS
 62
     2
 10
2971.0
 20
1158.4
 30
16.0
 40
28.0
  1
同時切リ
 50
0.0
 41
0.9
 51
0.0
  7
KANJI54
  0
LINE
  8
1
  6
CONTINUOUS
 62
     2
 10
1104.5
 20
1323.5
 11
1117.425968938
 21
1338.761694762
  0
LINE
  8
1
  6
CONTINUOUS
 62
     2
 10
1104.5
 20
1323.5
 11
1108.063370087
 21
1343.179999838
  0
LINE
  8
1
  6
CONTINUOUS
 62
     2
 10
1104.5
 20
1323.5
 11
1146.5
 21
1412.5
  0
LINE
  8
1
  6
CONTINUOUS
 62
     2
 10
1146.5
 20
1412.5
 11
1216.1
 21
1412.5
  0
TEXT
  8
1
  6
CONTINUOUS
 62
     3
 10
1146.5
 20
1420.5
 30
2.4
 40
24.0
  1
給脂口
 50
0.0
 41
0.9
 51
0.0
  7
KANJI0
  0
LINE
  8
0
  6
LTYPE1
 62
     2
 10
1326.0
 20
1629.0
 11
1614.0
 21
1629.0
  0
LINE
  8
1
  6
CONTINUOUS
 62
     2
 10
996.0
 20
1361.0
 11
990.823619098
 21
1341.681483474
  0
LINE
  8
1
  6
CONTINUOUS
 62
     2
 10
996.0
 20
1361.0
 11
1001.176380902
 21
1341.681483474
  0
LINE
  8
1
  6
CONTINUOUS
 62
     2
 10
996.0
 20
1361.0
 11
996.0
 21
1247.0
  0
LINE
  8
1
  6
CONTINUOUS
 62
     2
 10
996.0
 20
1247.0
 11
1001.176380902
 21
1266.318516526
  0
LINE
  8
1
  6
CONTINUOUS
 62
     2
 10
996.0
 20
1247.0
 11
990.823619098
 21
1266.318516526
  0
TEXT
  8
1
  6
CONTINUOUS
 62
     3
 10
988.0
 20
1249.2
 30
2.4
 40
28.0
  1
φ１１４
 50
90.0
 41
0.914285714
 51
0.0
  7
KANJI50
  0
LINE
  8
0
  6
CONTINUOUS
 62
     1
 10
407.0
 20
1609.0
 11
367.0
 21
1609.0
  0
LINE
  8
0
  6
CONTINUOUS
 62
     1
 10
407.0
 20
1569.0
 11
367.0
 21
1569.0
  0
LINE
  8
0
  6
CONTINUOUS
 62
     1
 10
367.0
 20
1569.0
 11
367.0
 21
1609.0
  0
LINE
  8
1
  6
CONTINUOUS
 62
     2
 10
366.5
 20
1578.5
 11
351.77809602
 21
1564.96243954
  0
LINE
  8
1
  6
CONTINUOUS
 62
     2
 10
366.5
 20
1578.5
 11
360.519237392
 21
1559.415176746
  0
LINE
  8
1
  6
CONTINUOUS
 62
     2
 10
366.5
 20
1578.5
 11
333.5
 21
1526.5
  0
TEXT
  8
1
  6
CONTINUOUS
 62
     3
 10
252.9
 20
1535.5
 30
2.4
 40
24.0
  1
手動軸
 50
0.0
 41
0.9
 51
0.0
  7
KANJI0
  0
TEXT
  8
0
  6
CONTINUOUS
 62
     3
 10
257.0
 20
1495.5
 30
2.4
 40
24.0
  1
□１２
 50
0.0
 41
0.9
 51
0.0
  7
KANJI0
  0
LINE
  8
1
  6
CONTINUOUS
 62
     2
 10
333.5
 20
1526.5
 11
249.0
 21
1526.5
  0
LINE
  8
1
  6
CONTINUOUS
 62
     2
 10
407.0
 20
1859.0
 11
387.681483474
 21
1864.176380902
  0
LINE
  8
1
  6
CONTINUOUS
 62
     2
 10
407.0
 20
1859.0
 11
387.681483474
 21
1853.823619098
  0
LINE
  8
1
  6
CONTINUOUS
 62
     2
 10
407.0
 20
1859.0
 11
367.0
 21
1859.0
  0
LINE
  8
1
  6
CONTINUOUS
 62
     2
 10
367.0
 20
1859.0
 11
386.318516526
 21
1853.823619098
  0
LINE
  8
1
  6
CONTINUOUS
 62
     2
 10
367.0
 20
1859.0
 11
386.318516526
 21
1864.176380902
  0
LINE
  8
1
  6
CONTINUOUS
 62
     2
 10
367.0
 20
1617.0
 11
367.0
 21
1875.0
  0
TEXT
  8
1
  6
CONTINUOUS
 62
     3
 10
360.2
 20
1867.0
 30
2.4
 40
28.0
  1
４０
 50
0.0
 41
0.914285714
 51
0.0
  7
KANJI50
  0
LINE
  8
0
  6
CONTINUOUS
 62
     1
 10
2094.250969007
 20
1351.0
 11
2094.250969007
 21
1261.0
  0
LINE
  8
0
  6
CONTINUOUS
 62
     1
 10
2198.749030993
 20
1351.0
 11
2198.749030993
 21
1261.0
  0
LINE
  8
0
  6
CONTINUOUS
 62
     1
 10
1557.999190206
 20
1336.5
 11
1557.999190206
 21
1304.0
  0
LINE
  8
0
  6
CONTINUOUS
 62
     1
 10
1552.999190206
 20
1341.5
 11
1557.999190206
 21
1336.5
  0
LINE
  8
0
  6
CONTINUOUS
 62
     1
 10
1557.999190206
 20
1271.5
 11
1557.999190206
 21
1304.0
  0
LINE
  8
0
  6
CONTINUOUS
 62
     1
 10
1557.999190206
 20
1271.5
 11
1552.999190206
 21
1266.5
  0
LINE
  8
0
  6
CONTINUOUS
 62
     1
 10
1552.999190206
 20
1341.5
 11
1552.999190206
 21
1334.388736054
  0
LINE
  8
0
  6
CONTINUOUS
 62
     1
 10
1552.999190206
 20
1266.5
 11
1552.999190206
 21
1273.611263946
  0
LINE
  8
0
  6
CONTINUOUS
 62
     1
 10
1552.999190206
 20
1273.611263946
 11
1557.699190206
 21
1278.311263946
  0
LINE
  8
0
  6
CONTINUOUS
 62
     1
 10
1552.999190206
 20
1334.388736054
 11
1557.699190206
 21
1329.688736054
  0
ARC
  8
0
  6
CONTINUOUS
 62
     1
 10
2146.5
 20
1304.0
 40
32.25
 50
39.177393686
 51
140.822606314
  0
ARC
  8
0
  6
CONTINUOUS
 62
     1
 10
2146.5
 20
1304.0
 40
32.25
 50
219.177393686
 51
320.822606314
  0
LINE
  8
0
  6
CONTINUOUS
 62
     1
 10
582.0
 20
1671.77572809
 11
634.672135955
 21
1671.77572809
  0
LINE
  8
0
  6
CONTINUOUS
 62
     1
 10
582.0
 20
1506.42427191
 11
634.672135955
 21
1506.42427191
  0
LINE
  8
0
  6
CONTINUOUS
 62
     1
 10
584.5
 20
1647.436
 11
584.5
 21
1657.236
  0
LINE
  8
0
  6
CONTINUOUS
 62
     1
 10
584.5
 20
1657.236
 11
590.114359354
 21
1657.236
  0
LINE
  8
0
  6
CONTINUOUS
 62
     1
 10
591.5
 20
1654.836
 11
590.114359354
 21
1657.236
  0
LINE
  8
0
  6
CONTINUOUS
 62
     1
 10
591.5
 20
1647.436
 11
591.5
 21
1654.836
  0
LINE
  8
0
  6
CONTINUOUS
 62
     1
 10
584.5
 20
1652.336
 11
590.114359354
 21
1652.336
  0
LINE
  8
0
  6
CONTINUOUS
 62
     1
 10
584.5
 20
1647.436
 11
584.5
 21
1637.636
  0
LINE
  8
0
  6
CONTINUOUS
 62
     1
 10
584.5
 20
1637.636
 11
590.114359354
 21
1637.636
  0
LINE
  8
0
  6
CONTINUOUS
 62
     1
 10
591.5
 20
1640.036
 11
590.114359354
 21
1637.636
  0
LINE
  8
0
  6
CONTINUOUS
 62
     1
 10
591.5
 20
1647.436
 11
591.5
 21
1640.036
  0
LINE
  8
0
  6
CONTINUOUS
 62
     1
 10
584.5
 20
1642.536
 11
590.114359354
 21
1642.536
  0
ARC
  8
0
  6
CONTINUOUS
 62
     1
 10
582.1433172
 20
1647.436
 40
9.3566828
 50
328.419912243
 51
31.580087757
  0
ARC
  8
0
  6
CONTINUOUS
 62
     1
 10
588.642116168
 20
1654.786
 40
2.858321186
 50
301.002313915
 51
2.989498403
  0
LINE
  8
0
  6
CONTINUOUS
 62
     1
 10
591.5
 20
1640.036
 11
590.114359354
 21
1637.636
  0
ARC
  8
0
  6
CONTINUOUS
 62
     1
 10
588.642116168
 20
1640.086
 40
2.858321186
 50
357.010501597
 51
58.997686085
  0
LINE
  8
0
  6
CONTINUOUS
 62
     1
 10
582.0
 20
1656.636
 11
584.5
 21
1656.636
  0
LINE
  8
0
  6
CONTINUOUS
 62
     1
 10
582.0
 20
1647.436
 11
584.499999996
 21
1649.935999996
  0
LINE
  8
0
  6
CONTINUOUS
 62
     1
 10
584.499999996
 20
1647.436
 11
582.0
 21
1644.936000004
  0
LINE
  8
0
  6
CONTINUOUS
 62
     1
 10
582.0
 20
1638.236
 11
584.5
 21
1638.236
  0
LINE
  8
0
  6
CONTINUOUS
 62
     1
 10
584.5
 20
1530.764
 11
584.5
 21
1520.964
  0
LINE
  8
0
  6
CONTINUOUS
 62
     1
 10
584.5
 20
1520.964
 11
590.114359354
 21
1520.964
  0
LINE
  8
0
  6
CONTINUOUS
 62
     1
 10
591.5
 20
1523.364
 11
590.114359354
 21
1520.964
  0
LINE
  8
0
  6
CONTINUOUS
 62
     1
 10
591.5
 20
1530.764
 11
591.5
 21
1523.364
  0
LINE
  8
0
  6
CONTINUOUS
 62
     1
 10
584.5
 20
1525.864
 11
590.114359354
 21
1525.864
  0
LINE
  8
0
  6
CONTINUOUS
 62
     1
 10
584.5
 20
1530.764
 11
584.5
 21
1540.564
  0
LINE
  8
0
  6
CONTINUOUS
 62
     1
 10
584.5
 20
1540.564
 11
590.114359354
 21
1540.564
  0
LINE
  8
0
  6
CONTINUOUS
 62
     1
 10
591.5
 20
1538.164
 11
590.114359354
 21
1540.564
  0
LINE
  8
0
  6
CONTINUOUS
 62
     1
 10
591.5
 20
1530.764
 11
591.5
 21
1538.164
  0
LINE
  8
0
  6
CONTINUOUS
 62
     1
 10
584.5
 20
1535.664
 11
590.114359354
 21
1535.664
  0
ARC
  8
0
  6
CONTINUOUS
 62
     1
 10
582.1433172
 20
1530.764
 40
9.3566828
 50
328.419912243
 51
31.580087757
  0
ARC
  8
0
  6
CONTINUOUS
 62
     1
 10
588.642116168
 20
1523.414
 40
2.858321186
 50
357.010501597
 51
58.997686085
  0
LINE
  8
0
  6
CONTINUOUS
 62
     1
 10
591.5
 20
1538.164
 11
590.114359354
 21
1540.564
  0
ARC
  8
0
  6
CONTINUOUS
 62
     1
 10
588.642116168
 20
1538.114
 40
2.858321186
 50
301.002313915
 51
2.989498403
  0
LINE
  8
0
  6
CONTINUOUS
 62
     1
 10
582.0
 20
1521.564
 11
584.5
 21
1521.564
  0
LINE
  8
0
  6
CONTINUOUS
 62
     1
 10
582.0
 20
1530.764
 11
584.499999996
 21
1528.264000004
  0
LINE
  8
0
  6
CONTINUOUS
 62
     1
 10
584.499999996
 20
1530.764
 11
582.0
 21
1533.263999996
  0
LINE
  8
0
  6
CONTINUOUS
 62
     1
 10
582.0
 20
1539.964
 11
584.5
 21
1539.964
  0
LINE
  8
0
  6
CONTINUOUS
 62
     1
 10
792.0
 20
1649.1
 11
645.0
 21
1649.1
  0
LINE
  8
0
  6
CONTINUOUS
 62
     1
 10
792.0
 20
1629.1
 11
645.0
 21
1629.1
  0
LINE
  8
0
  6
CONTINUOUS
 62
     1
 10
792.0
 20
1609.1
 11
645.0
 21
1609.1
  0
LINE
  8
0
  6
CONTINUOUS
 62
     1
 10
792.0
 20
1569.1
 11
645.0
 21
1569.1
  0
LINE
  8
0
  6
CONTINUOUS
 62
     1
 10
792.0
 20
1549.1
 11
645.0
 21
1549.1
  0
LINE
  8
0
  6
CONTINUOUS
 62
     1
 10
792.0
 20
1529.1
 11
645.0
 21
1529.1
  0
LINE
  8
0
  6
CONTINUOUS
 62
     1
 10
792.0
 20
1509.1
 11
645.0
 21
1509.1
  0
LINE
  8
0
  6
CONTINUOUS
 62
     1
 10
582.0
 20
1489.1
 11
582.0
 21
1689.1
  0
LINE
  8
0
  6
CONTINUOUS
 62
     1
 10
926.741517274
 20
1605.048101266
 11
926.741517274
 21
1536.048101266
  0
POINT
  8
0
  6
CONTINUOUS
 62
     1
 10
926.741517274
 20
1536.048101266
  0
LINE
  8
0
  6
CONTINUOUS
 62
     1
 10
926.741517274
 20
1536.048101266
 11
931.741517274
 21
1536.048101266
  0
POINT
  8
0
  6
CONTINUOUS
 62
     1
 10
931.741517274
 20
1536.048101266
  0
LINE
  8
0
  6
CONTINUOUS
 62
     1
 10
931.741517274
 20
1536.048101266
 11
931.741517274
 21
1605.048101266
  0
LINE
  8
0
  6
CONTINUOUS
 62
     1
 10
926.741517274
 20
1605.048101266
 11
936.541517274
 21
1605.048101266
  0
LINE
  8
0
  6
CONTINUOUS
 62
     1
 10
936.541517274
 20
1573.151898734
 11
936.541517274
 21
1605.048101266
  0
LINE
  8
0
  6
CONTINUOUS
 62
     1
 10
931.741517274
 20
1573.151898734
 11
936.541517274
 21
1573.151898734
  0
LINE
  8
0
  6
CONTINUOUS
 62
     1
 10
926.741517274
 20
1593.3
 11
920.041517274
 21
1593.3
  0
LINE
  8
0
  6
CONTINUOUS
 62
     1
 10
926.741517274
 20
1584.9
 11
920.041517274
 21
1584.9
  0
LINE
  8
0
  6
CONTINUOUS
 62
     1
 10
931.741517274
 20
1548.85
 11
937.141517274
 21
1548.85
  0
POINT
  8
0
  6
CONTINUOUS
 62
     1
 10
937.141517274
 20
1548.85
  0
LINE
  8
0
  6
CONTINUOUS
 62
     1
 10
937.141517274
 20
1548.85
 11
937.141517274
 21
1540.05
  0
POINT
  8
0
  6
CONTINUOUS
 62
     1
 10
937.141517274
 20
1540.05
  0
LINE
  8
0
  6
CONTINUOUS
 62
     1
 10
937.141517274
 20
1540.05
 11
931.841517274
 21
1540.05
  0
LINE
  8
0
  6
CONTINUOUS
 62
     1
 10
926.741517274
 20
1546.05
 11
917.841517274
 21
1546.05
  0
LINE
  8
0
  6
CONTINUOUS
 62
     1
 10
926.741517274
 20
1542.95
 11
917.541517274
 21
1542.95
  0
LINE
  8
0
  6
CONTINUOUS
 62
     1
 10
936.541517274
 20
1602.5
 11
940.0
 21
1602.5
  0
LINE
  8
0
  6
CONTINUOUS
 62
     1
 10
940.0
 20
1602.5
 11
940.0
 21
1597.9
  0
LINE
  8
0
  6
CONTINUOUS
 62
     1
 10
936.541517274
 20
1597.9
 11
940.0
 21
1597.9
  0
LINE
  8
0
  6
CONTINUOUS
 62
     1
 10
936.541517274
 20
1575.7
 11
940.0
 21
1575.7
  0
LINE
  8
0
  6
CONTINUOUS
 62
     1
 10
940.0
 20
1575.7
 11
940.0
 21
1580.3
  0
LINE
  8
0
  6
CONTINUOUS
 62
     1
 10
936.541517274
 20
1580.3
 11
940.0
 21
1580.3
  0
LINE
  8
0
  6
CONTINUOUS
 62
     1
 10
936.541517274
 20
1586.8
 11
940.0
 21
1586.8
  0
LINE
  8
0
  6
CONTINUOUS
 62
     1
 10
940.0
 20
1586.8
 11
940.0
 21
1591.4
  0
LINE
  8
0
  6
CONTINUOUS
 62
     1
 10
936.541517274
 20
1591.4
 11
940.0
 21
1591.4
  0
LINE
  8
0
  6
LTYPE1
 62
     2
 10
912.841517274
 20
1544.55
 11
942.841517274
 21
1544.55
  0
LINE
  8
0
  6
CONTINUOUS
 62
     1
 10
792.0
 20
1669.1
 11
645.0
 21
1669.1
  0
LINE
  8
0
  6
CONTINUOUS
 62
     1
 10
808.5
 20
1702.1
 11
808.5
 21
1742.1
  0
LINE
  8
0
  6
CONTINUOUS
 62
     1
 10
789.5
 20
1777.1
 11
641.5
 21
1703.1
  0
LINE
  8
0
  6
CONTINUOUS
 62
     1
 10
793.972135955
 20
1768.15572809
 11
645.972135955
 21
1694.15572809
  0
ARC
  8
0
  6
CONTINUOUS
 62
     1
 10
763.5
 20
1701.1
 40
10.0
 50
270.0
 51
0.0
  0
ARC
  8
0
  6
CONTINUOUS
 62
     1
 10
763.5
 20
1767.1
 40
10.0
 50
0.0
 51
90.0
  0
LINE
  8
0
  6
CONTINUOUS
 62
     1
 10
763.5
 20
1777.1
 11
673.5
 21
1777.1
  0
ARC
  8
0
  6
CONTINUOUS
 62
     1
 10
673.5
 20
1767.1
 40
10.0
 50
90.0
 51
180.0
  0
LINE
  8
0
  6
CONTINUOUS
 62
     1
 10
763.5
 20
1691.1
 11
673.5
 21
1691.1
  0
ARC
  8
0
  6
CONTINUOUS
 62
     1
 10
673.5
 20
1701.1
 40
10.0
 50
180.0
 51
270.0
  0
LINE
  8
0
  6
CONTINUOUS
 62
     1
 10
641.5
 20
1703.1
 11
645.972135955
 21
1694.15572809
  0
LINE
  8
0
  6
CONTINUOUS
 62
     1
 10
663.5
 20
1714.01572809
 11
663.5
 21
1767.1
  0
LINE
  8
0
  6
CONTINUOUS
 62
     1
 10
663.5
 20
1701.1
 11
663.5
 21
1703.01572809
  0
LINE
  8
0
  6
CONTINUOUS
 62
     1
 10
773.5
 20
1701.1
 11
773.5
 21
1757.01572809
  0
LINE
  8
0
  6
CONTINUOUS
 62
     1
 10
789.712135955
 20
1777.89572809
 11
794.512135955
 21
1768.69572809
  0
LINE
  8
0
  6
CONTINUOUS
 62
     1
 10
808.5
 20
1742.1
 11
773.5
 21
1742.1
  0
LINE
  8
0
  6
CONTINUOUS
 62
     1
 10
808.5
 20
1702.1
 11
773.5
 21
1702.1
  0
LINE
  8
0
  6
LTYPE1
 62
     2
 10
814.652135955
 20
1722.1
 11
763.552135955
 21
1722.1
  0
LINE
  8
0
  6
LTYPE1
 62
     2
 10
718.5
 20
1677.85
 11
718.5
 21
1786.9
  0
LINE
  8
0
  6
CONTINUOUS
 62
     1
 10
802.0
 20
1689.1
 11
897.814388593
 21
1689.1
  0
ARC
  8
0
  6
CONTINUOUS
 62
     1
 10
895.814388593
 20
1674.1
 40
15.0
 50
10.945397096
 51
90.0
  0
ARC
  8
0
  6
CONTINUOUS
 62
     1
 10
895.923513917
 20
1676.793940371
 40
15.0
 50
10.945397096
 51
90.0
  0
LINE
  8
0
  6
CONTINUOUS
 62
     1
 10
802.0
 20
1691.6
 11
897.814388593
 21
1691.6
  0
ARC
  8
0
  6
CONTINUOUS
 62
     1
 10
895.814388593
 20
1504.1
 40
15.0
 50
270.0
 51
349.054602904
  0
ARC
  8
0
  6
CONTINUOUS
 62
     1
 10
510.0
 20
1589.1
 40
410.0
 50
347.629566941
 51
12.370433059
  0
LINE
  8
0
  6
CONTINUOUS
 62
     1
 10
802.0
 20
1679.8
 11
635.0
 21
1679.8
  0
LINE
  8
0
  6
CONTINUOUS
 62
     1
 10
635.0
 20
1498.4
 11
635.0
 21
1679.8
  0
LINE
  8
0
  6
CONTINUOUS
 62
     1
 10
753.4
 20
1691.1
 11
753.4
 21
1679.8
  0
LINE
  8
0
  6
CONTINUOUS
 62
     1
 10
683.6
 20
1691.1
 11
683.6
 21
1679.8
  0
ARC
  8
0
  6
CONTINUOUS
 62
     1
 10
909.874980463
 20
1599.1
 40
10.0
 50
1.432543738
 51
90.0
  0
ARC
  8
0
  6
CONTINUOUS
 62
     1
 10
909.874980463
 20
1579.1
 40
10.0
 50
270.0
 51
358.567456262
  0
LINE
  8
0
  6
CONTINUOUS
 62
     1
 10
909.874999151
 20
1609.1
 11
802.0
 21
1609.1
  0
LINE
  8
0
  6
CONTINUOUS
 62
     1
 10
802.0
 20
1569.1
 11
910.374999151
 21
1569.1
  0
LINE
  8
0
  6
CONTINUOUS
 62
     1
 10
582.0
 20
1689.1
 11
570.0
 21
1689.1
  0
LINE
  8
0
  6
CONTINUOUS
 62
     1
 10
582.0
 20
1489.1
 11
570.0
 21
1489.1
  0
LINE
  8
0
  6
CONTINUOUS
 62
     1
 10
802.0
 20
1498.4
 11
635.0
 21
1498.4
  0
ARC
  8
0
  6
CONTINUOUS
 62
     1
 10
895.923513917
 20
1501.406059629
 40
15.0
 50
270.0
 51
349.054602904
  0
LINE
  8
0
  6
CONTINUOUS
 62
     1
 10
802.0
 20
1489.1
 11
897.814388593
 21
1489.1
  0
LINE
  8
0
  6
CONTINUOUS
 62
     1
 10
802.0
 20
1486.6
 11
897.814388593
 21
1486.6
  0
LINE
  8
0
  6
CONTINUOUS
 62
     1
 10
802.0
 20
1486.6
 11
802.0
 21
1691.6
  0
LINE
  8
1
  6
CONTINUOUS
 62
     2
 10
809.5
 20
1728.5
 11
818.246652882
 21
1746.485996313
  0
LINE
  8
1
  6
CONTINUOUS
 62
     2
 10
809.5
 20
1728.5
 11
808.081825437
 21
1748.44965616
  0
LINE
  8
1
  6
CONTINUOUS
 62
     2
 10
809.5
 20
1728.5
 11
818.0
 21
1772.5
  0
LINE
  8
1
  6
CONTINUOUS
 62
     2
 10
818.0
 20
1772.5
 11
935.6
 21
1772.5
  0
TEXT
  8
1
  6
CONTINUOUS
 62
     3
 10
818.0
 20
1780.5
 30
2.4
 40
24.0
  1
ＰＦ３／４
 50
0.0
 41
0.9
 51
0.0
  7
KANJI0
  0
LINE
  8
1
  6
CONTINUOUS
 62
     2
 10
940.0
 20
1589.0
 11
952.13105178
 21
1604.900867357
  0
LINE
  8
1
  6
CONTINUOUS
 62
     2
 10
940.0
 20
1589.0
 11
942.555365338
 21
1608.836080963
  0
LINE
  8
1
  6
CONTINUOUS
 62
     2
 10
940.0
 20
1589.0
 11
1015.0
 21
1771.5
  0
LINE
  8
1
  6
CONTINUOUS
 62
     2
 10
1015.0
 20
1771.5
 11
1204.6
 21
1771.5
  0
TEXT
  8
1
  6
CONTINUOUS
 62
     3
 10
1015.0
 20
1779.5
 30
2.4
 40
24.0
  1
ブレ－キ開放装置
 50
0.0
 41
0.9
 51
0.0
  7
KANJI0
  0
TEXT
  8
1
  6
CONTINUOUS
 62
     3
 10
947.0
 20
1482.5
 30
2.4
 40
24.0
  1
推力リミッタ
 50
0.0
 41
0.9
 51
0.0
  7
KANJI0
  0
LINE
  8
0
  6
LTYPE1
 62
     2
 10
983.3
 20
1589.8
 11
351.2
 21
1589.8
  0
LINE
  8
0
  6
CONTINUOUS
 62
     1
 10
562.0
 20
1709.8
 11
570.0
 21
1709.8
  0
LINE
  8
0
  6
CONTINUOUS
 62
     1
 10
562.0
 20
1469.8
 11
570.0
 21
1469.8
  0
LINE
  8
0
  6
CONTINUOUS
 62
     1
 10
570.0
 20
1709.8
 11
570.0
 21
1469.8
  0
LINE
  8
1
  6
CONTINUOUS
 62
     2
 10
562.0
 20
1859.0
 11
581.318516526
 21
1853.823619098
  0
LINE
  8
1
  6
CONTINUOUS
 62
     2
 10
562.0
 20
1859.0
 11
581.318516526
 21
1864.176380902
  0
LINE
  8
1
  6
CONTINUOUS
 62
     2
 10
562.0
 20
1859.0
 11
940.0
 21
1859.0
  0
LINE
  8
1
  6
CONTINUOUS
 62
     2
 10
940.0
 20
1859.0
 11
920.681483474
 21
1864.176380902
  0
LINE
  8
1
  6
CONTINUOUS
 62
     2
 10
940.0
 20
1859.0
 11
920.681483474
 21
1853.823619098
  0
LINE
  8
1
  6
CONTINUOUS
 62
     2
 10
940.0
 20
1610.5
 11
940.0
 21
1875.0
  0
TEXT
  8
1
  6
CONTINUOUS
 62
     3
 10
710.2
 20
1867.0
 30
2.4
 40
28.0
  1
３７８
 50
0.0
 41
0.914285714
 51
0.0
  7
KANJI50
  0
LINE
  8
0
  6
CONTINUOUS
 62
     1
 10
1290.149691586
 20
1247.0
 11
1246.149691586
 21
1247.0
  0
LINE
  8
0
  6
CONTINUOUS
 62
     1
 10
2131.5
 20
1154.0
 11
2161.5
 21
1154.0
  0
LINE
  8
0
  6
LTYPE4
 62
     2
 10
2115.6
 20
1167.0
 11
2177.6
 21
1167.0
  0
CIRCLE
  8
0
  6
CONTINUOUS
 62
     1
 10
2146.5
 20
1167.0
 40
6.49995
  0
LINE
  8
0
  6
CONTINUOUS
 62
     1
 10
2152.99995
 20
1170.74703
 11
2152.99995
 21
1163.25297
  0
LINE
  8
0
  6
CONTINUOUS
 62
     1
 10
2152.99995
 20
1163.25297
 11
2146.5
 21
1159.50594
  0
LINE
  8
0
  6
CONTINUOUS
 62
     1
 10
2140.00005
 20
1170.74703
 11
2140.00005
 21
1163.25297
  0
LINE
  8
0
  6
CONTINUOUS
 62
     1
 10
2140.00005
 20
1163.25297
 11
2146.5
 21
1159.50594
  0
LINE
  8
0
  6
CONTINUOUS
 62
     1
 10
2152.99995
 20
1170.74703
 11
2146.5
 21
1174.49406
  0
LINE
  8
0
  6
CONTINUOUS
 62
     1
 10
2140.00005
 20
1170.74703
 11
2146.5
 21
1174.49406
  0
LINE
  8
0
  6
CONTINUOUS
 62
     1
 10
2229.0
 20
1208.0
 11
2229.0
 21
1214.0
  0
LINE
  8
0
  6
CONTINUOUS
 62
     1
 10
2064.0
 20
1208.0
 11
2064.0
 21
1214.0
  0
LINE
  8
0
  6
CONTINUOUS
 62
     1
 10
2068.5
 20
1208.0
 11
2068.5
 21
1208.1
  0
LINE
  8
0
  6
CONTINUOUS
 62
     1
 10
2068.5
 20
1168.0
 11
2068.5
 21
1169.0
  0
LINE
  8
0
  6
CONTINUOUS
 62
     1
 10
2068.5
 20
1168.0
 11
2068.5
 21
1208.0
  0
LINE
  8
0
  6
CONTINUOUS
 62
     1
 10
2108.5
 20
1208.0
 11
2108.5
 21
1168.0
  0
LINE
  8
0
  6
CONTINUOUS
 62
     1
 10
2117.75
 20
1163.5
 11
2117.75
 21
1170.5
  0
LINE
  8
0
  6
LTYPE2
 62
     2
 10
2088.5
 20
1151.4
 11
2088.5
 21
1209.4
  0
LINE
  8
0
  6
LTYPE2
 62
     2
 10
2103.6
 20
1211.4
 11
2103.6
 21
1164.4
  0
LINE
  8
0
  6
LTYPE2
 62
     2
 10
2073.4
 20
1165.4
 11
2073.4
 21
1212.4
  0
LINE
  8
0
  6
CONTINUOUS
 62
     1
 10
2108.5
 20
1165.0
 11
2096.0
 21
1165.0
  0
LINE
  8
0
  6
CONTINUOUS
 62
     1
 10
2117.75
 20
1162.9
 11
2108.5
 21
1165.0
  0
LINE
  8
0
  6
LTYPE2
 62
     2
 10
2126.5
 20
1153.8
 11
2126.5
 21
1173.0
  0
LINE
  8
0
  6
CONTINUOUS
 62
     1
 10
2096.0
 20
1165.0
 11
2081.0
 21
1165.0
  0
ARC
  8
0
  6
CONTINUOUS
 62
     1
 10
2077.8
 20
1184.2
 40
2.0
 50
180.0
 51
270.0
  0
LINE
  8
0
  6
CONTINUOUS
 62
     1
 10
2099.2
 20
1182.2
 11
2077.8
 21
1182.2
  0
ARC
  8
0
  6
CONTINUOUS
 62
     1
 10
2099.2
 20
1184.2
 40
2.0
 50
270.0
 51
360.0
  0
LINE
  8
0
  6
CONTINUOUS
 62
     1
 10
2101.2
 20
1184.2
 11
2101.2
 21
1205.6
  0
ARC
  8
0
  6
CONTINUOUS
 62
     1
 10
2099.2
 20
1205.6
 40
2.0
 50
0.0
 51
90.0
  0
LINE
  8
0
  6
CONTINUOUS
 62
     1
 10
2075.8
 20
1184.2
 11
2075.8
 21
1205.6
  0
LINE
  8
0
  6
CONTINUOUS
 62
     1
 10
2099.2
 20
1207.6
 11
2077.8
 21
1207.6
  0
ARC
  8
0
  6
CONTINUOUS
 62
     1
 10
2077.8
 20
1205.6
 40
2.0
 50
90.0
 51
180.0
  0
LINE
  8
0
  6
LTYPE2
 62
     2
 10
2074.4
 20
1194.9
 11
2102.8
 21
1194.9
  0
LINE
  8
0
  6
CONTINUOUS
 62
     1
 10
2096.0
 20
1155.0
 11
2096.0
 21
1182.2
  0
LINE
  8
0
  6
CONTINUOUS
 62
     1
 10
2081.0
 20
1173.0
 11
2068.5
 21
1173.0
  0
LINE
  8
0
  6
CONTINUOUS
 62
     1
 10
2108.5
 20
1173.0
 11
2095.9
 21
1173.0
  0
LINE
  8
0
  6
CONTINUOUS
 62
     1
 10
2080.9
 20
1168.0
 11
2068.5
 21
1168.0
  0
LINE
  8
0
  6
CONTINUOUS
 62
     1
 10
2108.5
 20
1168.0
 11
2096.0
 21
1168.0
  0
LINE
  8
0
  6
CONTINUOUS
 62
     1
 10
2184.5
 20
1208.0
 11
2184.5
 21
1208.1
  0
LINE
  8
0
  6
CONTINUOUS
 62
     1
 10
2184.5
 20
1168.0
 11
2184.5
 21
1169.0
  0
LINE
  8
0
  6
CONTINUOUS
 62
     1
 10
2184.5
 20
1168.0
 11
2184.5
 21
1208.0
  0
LINE
  8
0
  6
CONTINUOUS
 62
     1
 10
2224.5
 20
1208.0
 11
2224.5
 21
1168.0
  0
LINE
  8
0
  6
CONTINUOUS
 62
     1
 10
2224.5
 20
1168.0
 11
2184.5
 21
1168.0
  0
LINE
  8
0
  6
CONTINUOUS
 62
     1
 10
2224.5
 20
1173.0
 11
2184.5
 21
1173.0
  0
LINE
  8
0
  6
CONTINUOUS
 62
     1
 10
2212.0
 20
1155.0
 11
2212.0
 21
1168.0
  0
LINE
  8
0
  6
CONTINUOUS
 62
     1
 10
2197.0
 20
1155.0
 11
2197.0
 21
1168.0
  0
CIRCLE
  8
0
  6
CONTINUOUS
 62
     1
 10
2204.5
 20
1186.4
 40
9.36
  0
LINE
  8
0
  6
CONTINUOUS
 62
     1
 10
2175.25
 20
1163.5
 11
2175.25
 21
1170.5
  0
LINE
  8
0
  6
LTYPE2
 62
     2
 10
2204.5
 20
1151.4
 11
2204.5
 21
1209.4
  0
LINE
  8
0
  6
LTYPE2
 62
     2
 10
2217.5
 20
1186.4
 11
2191.5
 21
1186.4
  0
LINE
  8
0
  6
LTYPE2
 62
     2
 10
2219.6
 20
1211.4
 11
2219.6
 21
1164.4
  0
LINE
  8
0
  6
LTYPE2
 62
     2
 10
2189.4
 20
1165.4
 11
2189.4
 21
1212.4
  0
LINE
  8
0
  6
LTYPE2
 62
     2
 10
2166.5
 20
1151.4
 11
2166.5
 21
1173.0
  0
CIRCLE
  8
0
  6
CONTINUOUS
 62
     2
 10
2204.5
 20
1186.4
 40
10.47
  0
LINE
  8
0
  6
CONTINUOUS
 62
     1
 10
2184.5
 20
1165.0
 11
2197.0
 21
1165.0
  0
LINE
  8
0
  6
CONTINUOUS
 62
     1
 10
2175.25
 20
1162.9
 11
2184.5
 21
1165.0
  0
LINE
  8
0
  6
CONTINUOUS
 62
     1
 10
2081.0
 20
1155.0
 11
2081.0
 21
1182.2
  0
LINE
  8
0
  6
LTYPE4
 62
     2
 10
2058.5
 20
1167.0
 11
2235.5
 21
1167.0
  0
LINE
  8
0
  6
CONTINUOUS
 62
     1
 10
2126.34375
 20
1170.5
 11
2117.75
 21
1170.5
  0
LINE
  8
0
  6
CONTINUOUS
 62
     1
 10
2128.53125
 20
1163.5
 11
2117.75
 21
1163.5
  0
LINE
  8
0
  6
CONTINUOUS
 62
     1
 10
2175.25
 20
1163.5
 11
2164.46875
 21
1163.5
  0
LINE
  8
0
  6
CONTINUOUS
 62
     1
 10
2175.25
 20
1170.5
 11
2166.5
 21
1170.5
  0
LINE
  8
0
  6
LTYPE3
 62
     2
 10
2157.75
 20
1163.5
 11
2157.75
 21
1170.5
  0
LINE
  8
0
  6
LTYPE3
 62
     2
 10
2166.5
 20
1170.5
 11
2157.75
 21
1170.5
  0
LINE
  8
0
  6
LTYPE3
 62
     2
 10
2164.43125
 20
1163.5
 11
2157.75
 21
1163.5
  0
LINE
  8
0
  6
LTYPE3
 62
     2
 10
2135.25
 20
1163.5
 11
2135.25
 21
1170.5
  0
LINE
  8
0
  6
LTYPE3
 62
     2
 10
2135.25
 20
1170.5
 11
2126.34375
 21
1170.5
  0
CIRCLE
  8
0
  6
CONTINUOUS
 62
     1
 10
2146.5
 20
1167.0
 40
4.0
  0
CIRCLE
  8
0
  6
CONTINUOUS
 62
     2
 10
2146.5
 20
1167.0
 40
3.2
  0
LINE
  8
0
  6
CONTINUOUS
 62
     1
 10
2128.706322676
 20
1163.0
 11
2117.75
 21
1163.0
  0
LINE
  8
0
  6
CONTINUOUS
 62
     1
 10
2131.189591408
 20
1155.0
 11
2081.0
 21
1155.0
  0
LINE
  8
0
  6
CONTINUOUS
 62
     1
 10
2161.810408592
 20
1155.0
 11
2212.0
 21
1155.0
  0
LINE
  8
0
  6
CONTINUOUS
 62
     1
 10
2164.293677324
 20
1163.0
 11
2175.25
 21
1163.0
  0
LINE
  8
0
  6
LTYPE3
 62
     2
 10
2135.25
 20
1163.5
 11
2128.53125
 21
1163.5
  0
LINE
  8
0
  6
LTYPE3
 62
     2
 10
2131.5
 20
1163.0
 11
2128.706322676
 21
1163.0
  0
LINE
  8
0
  6
LTYPE3
 62
     2
 10
2131.5
 20
1155.0
 11
2131.189591408
 21
1155.0
  0
LINE
  8
0
  6
LTYPE3
 62
     2
 10
2131.5
 20
1155.0
 11
2131.5
 21
1163.0
  0
LINE
  8
0
  6
LTYPE3
 62
     2
 10
2161.5
 20
1155.0
 11
2161.5
 21
1163.5
  0
LINE
  8
0
  6
LTYPE3
 62
     2
 10
2161.5
 20
1155.0
 11
2161.810408592
 21
1155.0
  0
LINE
  8
0
  6
LTYPE3
 62
     2
 10
2161.5
 20
1163.0
 11
2164.293677324
 21
1163.0
  0
LINE
  8
0
  6
CONTINUOUS
 62
     1
 10
2131.5
 20
1154.0
 11
2094.250969007
 21
1261.0
  0
LINE
  8
0
  6
CONTINUOUS
 62
     1
 10
2161.5
 20
1154.0
 11
2198.749030993
 21
1261.0
  0
LINE
  8
0
  6
CONTINUOUS
 62
     1
 10
2064.0
 20
1214.0
 11
2110.612692901
 21
1214.0
  0
LINE
  8
0
  6
CONTINUOUS
 62
     1
 10
2064.0
 20
1208.0
 11
2112.701423611
 21
1208.0
  0
LINE
  8
0
  6
CONTINUOUS
 62
     1
 10
2112.701423611
 20
1208.0
 11
2068.5
 21
1208.0
  0
LINE
  8
0
  6
CONTINUOUS
 62
     1
 10
2180.298576389
 20
1208.0
 11
2229.0
 21
1208.0
  0
LINE
  8
0
  6
CONTINUOUS
 62
     1
 10
2182.387307099
 20
1214.0
 11
2229.0
 21
1214.0
  0
ARC
  8
0
  6
CONTINUOUS
 62
     1
 10
2146.5
 20
1304.0
 40
100.0
 50
295.404114359
 51
118.25631605
  0
ARC
  8
0
  6
CONTINUOUS
 62
     1
 10
2146.5
 20
1304.0
 40
92.5
 50
294.932275626
 51
244.908899036
  0
ARC
  8
0
  6
CONTINUOUS
 62
     1
 10
2146.5
 20
1304.0
 40
100.0
 50
171.74368395
 51
244.595885641
  0
TEXT
  8
0
  6
CONTINUOUS
 62
     2
 10
633.0
 20
456.8
 30
1.6
 40
24.0
  1
ＭＣＬＥ６－　
 50
0.0
 41
0.833333333
 51
0.0
  7
KANJI55
  0
TEXT
  8
0
  6
CONTINUOUS
 62
     2
 10
1068.2
 20
570.0
 30
2.4
 40
24.0
  1
１２９０
 50
0.0
 41
0.9
 51
0.0
  7
KANJI0
  0
TEXT
  8
0
  6
CONTINUOUS
 62
     2
 10
1068.2
 20
514.0
 30
2.4
 40
24.0
  1
１８３０
 50
0.0
 41
0.9
 51
0.0
  7
KANJI0
  0
TEXT
  8
0
  6
CONTINUOUS
 62
     2
 10
1229.0
 20
571.6
 30
2.4
 40
24.0
  1
１０６５
 50
0.0
 41
0.9
 51
0.0
  7
KANJI0
  0
TEXT
  8
0
  6
CONTINUOUS
 62
     2
 10
1229.0
 20
515.6
 30
2.4
 40
24.0
  1
１６０５
 50
0.0
 41
0.9
 51
0.0
  7
KANJI0
  0
TEXT
  8
0
  6
CONTINUOUS
 62
     2
 10
1561.8
 20
573.0
 30
2.4
 40
24.0
  1
　　５０
 50
0.0
 41
0.9
 51
0.0
  7
KANJI0
  0
TEXT
  8
0
  6
CONTINUOUS
 62
     2
 10
1561.8
 20
517.0
 30
2.4
 40
24.0
  1
　　５０
 50
0.0
 41
0.9
 51
0.0
  7
KANJI0
  0
LINE
  8
0
  6
CONTINUOUS
 62
     1
 10
1450.0
 20
1666.5
 11
1455.0
 21
1666.5
  0
LINE
  8
0
  6
LTYPE3
 62
     2
 10
1502.500190206
 20
1609.0
 11
1502.500190206
 21
1649.0
  0
LINE
  8
0
  6
LTYPE3
 62
     2
 10
1537.500190206
 20
1609.0
 11
1537.500190206
 21
1649.0
  0
LINE
  8
1
  6
CONTINUOUS
 62
     2
 10
1502.500190206
 20
1603.8
 11
1502.500190206
 21
1507.0
  0
LINE
  8
1
  6
CONTINUOUS
 62
     2
 10
1537.500190206
 20
1602.9
 11
1537.500190206
 21
1507.0
  0
LINE
  8
0
  6
CONTINUOUS
 62
     1
 10
1364.999
 20
1361.0
 11
1364.999
 21
1247.0
  0
LINE
  8
0
  6
CONTINUOUS
 62
     1
 10
1399.999
 20
1361.0
 11
1399.999
 21
1247.0
  0
LINE
  8
0
  6
CONTINUOUS
 62
     1
 10
1290.149691586
 20
1361.0
 11
1246.149691586
 21
1361.0
  0
ARC
  8
0
  6
CONTINUOUS
 62
     1
 10
2146.5
 20
1304.0
 40
57.0
 50
55.544049539
 51
124.455950461
  0
ARC
  8
0
  6
CONTINUOUS
 62
     1
 10
2146.5
 20
1304.0
 40
57.0
 50
156.441098606
 51
203.558901394
  0
ARC
  8
0
  6
CONTINUOUS
 62
     1
 10
2146.5
 20
1304.0
 40
57.0
 50
336.441098606
 51
0.0
  0
ARC
  8
0
  6
LTYPE3
 62
     2
 10
2146.5
 20
1304.0
 40
57.0
 50
203.558901394
 51
336.441098606
  0
ARC
  8
0
  6
LTYPE3
 62
     2
 10
2146.5
 20
1304.0
 40
57.0
 50
124.455950461
 51
156.441098606
  0
ARC
  8
0
  6
CONTINUOUS
 62
     1
 10
2146.5
 20
1304.0
 40
57.0
 50
0.0
 51
23.558901394
  0
ARC
  8
0
  6
LTYPE3
 62
     2
 10
2146.5
 20
1304.0
 40
57.0
 50
23.558901394
 51
55.544049539
  0
TEXT
  8
0
  6
CONTINUOUS
 62
     2
 10
2966.2
 20
1719.2
 30
20.5
 40
28.0
  1
全閉屋外形
 50
0.0
 41
0.9
 51
0.0
  7
KANJI7
  0
LINE
  8
0
  6
CONTINUOUS
 62
     1
 10
1450.0
 20
1591.5
 11
1455.0
 21
1591.5
  0
LINE
  8
0
  6
CONTINUOUS
 62
     1
 10
1450.0
 20
1666.5
 11
1450.0
 21
1591.5
  0
LINE
  8
0
  6
CONTINUOUS
 62
     1
 10
1388.5
 20
1666.5
 11
1450.0
 21
1666.5
  0
LINE
  8
0
  6
CONTINUOUS
 62
     1
 10
1389.3
 20
1591.5
 11
1450.0
 21
1591.5
  0
LINE
  8
0
  6
CONTINUOUS
 62
     1
 10
1399.999
 20
1247.0
 11
1216.0
 21
1247.0
  0
LINE
  8
0
  6
CONTINUOUS
 62
     1
 10
1399.999
 20
1361.0
 11
1209.0
 21
1361.0
  0
LINE
  8
0
  6
CONTINUOUS
 62
     1
 10
1552.999190206
 20
1334.388736054
 11
1449.999190206
 21
1334.388736054
  0
LINE
  8
0
  6
CONTINUOUS
 62
     1
 10
1552.999190206
 20
1273.611263946
 11
1449.999190206
 21
1273.611263946
  0
LINE
  8
0
  6
LTYPE1
 62
     2
 10
1192.0
 20
1384.0
 11
1192.0
 21
1208.0
  0
LINE
  8
0
  6
LTYPE1
 62
     2
 10
1197.0
 20
1384.0
 11
1197.0
 21
1208.0
  0
LINE
  8
0
  6
CONTINUOUS
 62
     1
 10
1192.0
 20
1361.0
 11
886.0
 21
1361.0
  0
LINE
  8
0
  6
CONTINUOUS
 62
     1
 10
1230.149691586
 20
1361.0
 11
1197.0
 21
1361.0
  0
LINE
  8
0
  6
CONTINUOUS
 62
     1
 10
1192.0
 20
1247.0
 11
886.0
 21
1247.0
  0
LINE
  8
0
  6
CONTINUOUS
 62
     1
 10
1230.149691586
 20
1247.0
 11
1197.0
 21
1247.0
  0
LINE
  8
1
  6
CONTINUOUS
 62
     2
 10
632.0
 20
1214.5
 11
632.0
 21
1000.0
  0
LINE
  8
1
  6
CONTINUOUS
 62
     2
 10
632.0
 20
1016.0
 11
651.318516526
 21
1010.823619098
  0
LINE
  8
1
  6
CONTINUOUS
 62
     2
 10
632.0
 20
1016.0
 11
651.318516526
 21
1021.176380902
  0
LINE
  8
1
  6
CONTINUOUS
 62
     2
 10
632.0
 20
1016.0
 11
1399.999
 21
1016.0
  0
LINE
  8
1
  6
CONTINUOUS
 62
     2
 10
1399.999
 20
1016.0
 11
1380.680483474
 21
1021.176380902
  0
LINE
  8
1
  6
CONTINUOUS
 62
     2
 10
1399.999
 20
1016.0
 11
1380.680483474
 21
1010.823619098
  0
LINE
  8
1
  6
CONTINUOUS
 62
     2
 10
1399.999
 20
1239.0
 11
1399.999
 21
1000.0
  0
TEXT
  8
1
  6
CONTINUOUS
 62
     3
 10
1003.1995
 20
1024.0
 30
2.4
 40
28.0
  1
Ｃ
 50
0.0
 41
0.914285714
 51
0.0
  7
KANJI50
  0
LINE
  8
1
  6
CONTINUOUS
 62
     2
 10
1399.999
 20
1016.0
 11
1419.317516526
 21
1010.823619098
  0
LINE
  8
1
  6
CONTINUOUS
 62
     2
 10
1399.999
 20
1016.0
 11
1419.317516526
 21
1021.176380902
  0
LINE
  8
1
  6
CONTINUOUS
 62
     2
 10
1399.999
 20
1016.0
 11
1449.999190206
 21
1016.0
  0
LINE
  8
1
  6
CONTINUOUS
 62
     2
 10
1449.999190206
 20
1016.0
 11
1430.68067368
 21
1021.176380902
  0
LINE
  8
1
  6
CONTINUOUS
 62
     2
 10
1449.999190206
 20
1016.0
 11
1430.68067368
 21
1010.823619098
  0
LINE
  8
1
  6
CONTINUOUS
 62
     2
 10
1449.999190206
 20
1258.5
 11
1449.999190206
 21
1000.0
  0
LINE
  8
1
  6
CONTINUOUS
 62
     2
 10
1449.999190206
 20
1016.0
 11
1469.317706732
 21
1010.823619098
  0
LINE
  8
1
  6
CONTINUOUS
 62
     2
 10
1449.999190206
 20
1016.0
 11
1469.317706732
 21
1021.176380902
  0
LINE
  8
1
  6
CONTINUOUS
 62
     2
 10
1449.999190206
 20
1016.0
 11
1519.999190206
 21
1016.0
  0
LINE
  8
1
  6
CONTINUOUS
 62
     2
 10
1519.999190206
 20
1016.0
 11
1500.68067368
 21
1021.176380902
  0
LINE
  8
1
  6
CONTINUOUS
 62
     2
 10
1519.999190206
 20
1016.0
 11
1500.68067368
 21
1010.823619098
  0
LINE
  8
1
  6
CONTINUOUS
 62
     2
 10
1519.999190206
 20
1258.5
 11
1519.999190206
 21
1000.0
  0
TEXT
  8
1
  6
CONTINUOUS
 62
     3
 10
1458.199190206
 20
1024.0
 30
2.4
 40
28.0
  1
７０
 50
0.0
 41
0.914285714
 51
0.0
  7
KANJI50
  0
TEXT
  8
1
  6
CONTINUOUS
 62
     3
 10
1356.999190206
 20
968.5
 30
2.4
 40
28.0
  1
ｍｉｎ．Ｐ
 50
0.0
 41
0.914285714
 51
0.0
  7
KANJI50
  0
LINE
  8
1
  6
CONTINUOUS
 62
     2
 10
1560.999190206
 20
1341.5
 11
1671.999190206
 21
1341.5
  0
LINE
  8
1
  6
CONTINUOUS
 62
     2
 10
1655.999190206
 20
1341.5
 11
1650.822809304
 21
1322.181483474
  0
LINE
  8
1
  6
CONTINUOUS
 62
     2
 10
1655.999190206
 20
1341.5
 11
1661.175571108
 21
1322.181483474
  0
LINE
  8
1
  6
CONTINUOUS
 62
     2
 10
1655.999190206
 20
1341.5
 11
1655.999190206
 21
1266.5
  0
LINE
  8
1
  6
CONTINUOUS
 62
     2
 10
1655.999190206
 20
1266.5
 11
1661.175571108
 21
1285.818516526
  0
LINE
  8
1
  6
CONTINUOUS
 62
     2
 10
1655.999190206
 20
1266.5
 11
1650.822809304
 21
1285.818516526
  0
LINE
  8
1
  6
CONTINUOUS
 62
     2
 10
1560.999190206
 20
1266.5
 11
1671.999190206
 21
1266.5
  0
TEXT
  8
1
  6
CONTINUOUS
 62
     3
 10
1647.999190206
 20
1263.2
 30
2.4
 40
28.0
  1
φ７５
 50
90.0
 41
0.914285714
 51
0.0
  7
KANJI50
  0
TEXT
  8
0
  6
CONTINUOUS
 62
     2
 10
633.0
 20
624.8
 30
1.6
 40
24.0
  1
ＭＣＬＥ６－　　３
 50
0.0
 41
0.833333333
 51
0.0
  7
KANJI55
  0
TEXT
  8
0
  6
CONTINUOUS
 62
     2
 10
633.0
 20
568.8
 30
1.6
 40
24.0
  1
ＭＣＬＥ６－　　５
 50
0.0
 41
0.833333333
 51
0.0
  7
KANJI55
  0
TEXT
  8
0
  6
CONTINUOUS
 62
     3
 10
2511.0
 20
340.0
 30
0.0
 40
28.0
  1
ＭＣＬＥ６－
 50
0.0
 41
0.793650794
 51
0.0
  7
KANJI56
  0
TEXT
  8
0
  6
CONTINUOUS
 62
     2
 10
2945.0
 20
1997.2
 30
1.6
 40
24.0
  1
ＭＣＬＥ６－　　　
 50
0.0
 41
0.833333333
 51
0.0
  7
KANJI55
  0
TEXT
  8
0
  6
CONTINUOUS
 62
     3
 10
2595.5333816
 20
211.999992
 30
17.333333333
 40
40.0
  1
Ａ３００１３３６
 50
0.0
 41
0.8
 51
0.0
  7
KANJI57
  0
TEXT
  8
0
  6
CONTINUOUS
 62
     3
 10
2229.6667112
 20
231.999992
 30
2.4
 40
28.0
  1
岡　　田
 50
0.0
 41
0.571428571
 51
0.0
  7
KANJI58
  0
TEXT
  8
0
  6
CONTINUOUS
 62
     3
 10
2206.4667112
 20
173.599992
 30
2.4
 40
28.0
  1
０１．０１．２５
 50
0.0
 41
0.571428571
 51
0.0
  7
KANJI58
  0
TEXT
  8
0
  6
CONTINUOUS
 62
     2
 10
633.0
 20
512.8
 30
1.6
 40
24.0
  1
ＭＣＬＥ６－　１０
 50
0.0
 41
0.833333333
 51
0.0
  7
KANJI55
  0
LINE
  8
0
  6
CONTINUOUS
 62
     1
 10
607.0
 20
444.0
 11
1847.0
 21
444.0
  0
LINE
  8
0
  6
CONTINUOUS
 62
     1
 10
607.0
 20
724.0
 11
607.0
 21
444.0
  0
LINE
  8
0
  6
CONTINUOUS
 62
     1
 10
887.0
 20
724.0
 11
887.0
 21
444.0
  0
LINE
  8
0
  6
CONTINUOUS
 62
     2
 10
1047.0
 20
724.0
 11
1047.0
 21
444.0
  0
LINE
  8
0
  6
CONTINUOUS
 62
     2
 10
1207.0
 20
724.0
 11
1207.0
 21
444.0
  0
LINE
  8
0
  6
CONTINUOUS
 62
     2
 10
1367.0
 20
724.0
 11
1367.0
 21
444.0
  0
LINE
  8
0
  6
CONTINUOUS
 62
     2
 10
1527.0
 20
724.0
 11
1527.0
 21
444.0
  0
LINE
  8
0
  6
CONTINUOUS
 62
     2
 10
1687.0
 20
724.0
 11
1687.0
 21
444.0
  0
LINE
  8
0
  6
CONTINUOUS
 62
     1
 10
1847.0
 20
724.0
 11
1847.0
 21
444.0
  0
TEXT
  8
0
  6
CONTINUOUS
 62
     2
 10
2921.0
 20
1942.4
 30
2.4
 40
24.0
  1
５８．８ＫＮ（６ｔｏｎ）
 50
0.0
 41
0.9
 51
0.0
  7
KANJI0
  0
TEXT
  8
0
  6
CONTINUOUS
 62
     2
 10
2916.8
 20
1774.2
 30
2.4
 40
24.0
  1
１１８Ｎ．ｍ（１２ｋｇｍ）
 50
0.0
 41
0.9
 51
0.0
  7
KANJI0
  0
LINE
  8
0
  6
CONTINUOUS
 62
     1
 10
1399.999
 20
1341.5
 11
1552.999190206
 21
1341.5
  0
LINE
  8
0
  6
CONTINUOUS
 62
     1
 10
1399.999
 20
1266.5
 11
1552.999190206
 21
1266.5
  0
LINE
  8
0
  6
CONTINUOUS
 62
     1
 10
1449.999190206
 20
1266.5
 11
1449.999190206
 21
1341.5
  0
ENDSEC
  0
EOF
