  0
SECTION
  2
HEADER
  9
$EXTMIN
 10
0.0
 20
0.0
 30
0.0
  9
$EXTMAX
 10
3360.0
 20
2376.0
 30
0.0
  9
$LIMMIN
 10
0.0
 20
0.0
  9
$LIMMAX
 10
3360.0
 20
2376.0
  9
$LTSCALE
 40
1.0
  9
$PDMODE
 70
     0
  0
ENDSEC
  0
SECTION
  2
TABLES
  0
TABLE
  2
LTYPE
 70
     6
  0
LTYPE
  2
CONTINUOUS
 70
    64
  3
Solid line
 72
    65
 73
     0
 40
0.0
  0
LTYPE
  2
LTYPE1
 70
    64
  3
CENTER
 72
    65
 73
     4
 40
120.0
 49
84.0
 49
-12.0
 49
12.0
 49
-12.0
  0
LTYPE
  2
LTYPE2
 70
    64
  3
CENTER
 72
    65
 73
     4
 40
80.0
 49
56.0
 49
-8.0
 49
8.0
 49
-8.0
  0
LTYPE
  2
LTYPE3
 70
    64
  3
HIDDEN
 72
    65
 73
     2
 40
24.0
 49
14.4
 49
-9.6
  0
LTYPE
  2
LTYPE4
 70
    64
  3
CENTER
 72
    65
 73
     4
 40
160.0
 49
112.0
 49
-16.0
 49
16.0
 49
-16.0
  0
LTYPE
  2
LTYPE5
 70
    64
  3
PHANTOM
 72
    65
 73
     6
 40
120.0
 49
90.0
 49
-6.0
 49
6.0
 49
-6.0
 49
6.0
 49
-6.0
  0
ENDTAB
  0
TABLE
  2
LAYER
 70
   128
  0
LAYER
  2
0
 70
     0
 62
     7
  6
CONTINUOUS
  0
LAYER
  2
2
 70
     0
 62
     7
  6
CONTINUOUS
  0
LAYER
  2
3
 70
     0
 62
     7
  6
CONTINUOUS
  0
LAYER
  2
4
 70
     0
 62
     7
  6
CONTINUOUS
  0
LAYER
  2
5
 70
     0
 62
     7
  6
CONTINUOUS
  0
LAYER
  2
6
 70
     0
 62
     7
  6
CONTINUOUS
  0
LAYER
  2
7
 70
     0
 62
     7
  6
CONTINUOUS
  0
LAYER
  2
8
 70
     0
 62
     7
  6
CONTINUOUS
  0
LAYER
  2
9
 70
     0
 62
     7
  6
CONTINUOUS
  0
LAYER
  2
10
 70
     0
 62
     7
  6
CONTINUOUS
  0
LAYER
  2
11
 70
     0
 62
     7
  6
CONTINUOUS
  0
LAYER
  2
12
 70
     0
 62
     7
  6
CONTINUOUS
  0
LAYER
  2
13
 70
     0
 62
     7
  6
CONTINUOUS
  0
LAYER
  2
14
 70
     0
 62
     7
  6
CONTINUOUS
  0
LAYER
  2
15
 70
     0
 62
     7
  6
CONTINUOUS
  0
LAYER
  2
16
 70
     0
 62
     7
  6
CONTINUOUS
  0
LAYER
  2
17
 70
     0
 62
     7
  6
CONTINUOUS
  0
LAYER
  2
18
 70
     0
 62
     7
  6
CONTINUOUS
  0
LAYER
  2
19
 70
     0
 62
     7
  6
CONTINUOUS
  0
LAYER
  2
20
 70
     0
 62
     7
  6
CONTINUOUS
  0
LAYER
  2
21
 70
     0
 62
     7
  6
CONTINUOUS
  0
LAYER
  2
22
 70
     0
 62
     7
  6
CONTINUOUS
  0
LAYER
  2
23
 70
     0
 62
     7
  6
CONTINUOUS
  0
LAYER
  2
24
 70
     0
 62
     7
  6
CONTINUOUS
  0
LAYER
  2
25
 70
     0
 62
     7
  6
CONTINUOUS
  0
LAYER
  2
26
 70
     0
 62
     7
  6
CONTINUOUS
  0
LAYER
  2
27
 70
     0
 62
     7
  6
CONTINUOUS
  0
LAYER
  2
28
 70
     0
 62
     7
  6
CONTINUOUS
  0
LAYER
  2
29
 70
     0
 62
     7
  6
CONTINUOUS
  0
LAYER
  2
30
 70
     0
 62
     7
  6
CONTINUOUS
  0
LAYER
  2
31
 70
     0
 62
     7
  6
CONTINUOUS
  0
LAYER
  2
32
 70
     0
 62
     7
  6
CONTINUOUS
  0
LAYER
  2
33
 70
     0
 62
     7
  6
CONTINUOUS
  0
LAYER
  2
34
 70
     0
 62
     7
  6
CONTINUOUS
  0
LAYER
  2
35
 70
     0
 62
     7
  6
CONTINUOUS
  0
LAYER
  2
36
 70
     0
 62
     7
  6
CONTINUOUS
  0
LAYER
  2
37
 70
     0
 62
     7
  6
CONTINUOUS
  0
LAYER
  2
38
 70
     0
 62
     7
  6
CONTINUOUS
  0
LAYER
  2
39
 70
     0
 62
     7
  6
CONTINUOUS
  0
LAYER
  2
40
 70
     0
 62
     7
  6
CONTINUOUS
  0
LAYER
  2
41
 70
     0
 62
     7
  6
CONTINUOUS
  0
LAYER
  2
42
 70
     0
 62
     7
  6
CONTINUOUS
  0
LAYER
  2
43
 70
     0
 62
     7
  6
CONTINUOUS
  0
LAYER
  2
44
 70
     0
 62
     7
  6
CONTINUOUS
  0
LAYER
  2
45
 70
     0
 62
     7
  6
CONTINUOUS
  0
LAYER
  2
46
 70
     0
 62
     7
  6
CONTINUOUS
  0
LAYER
  2
47
 70
     0
 62
     7
  6
CONTINUOUS
  0
LAYER
  2
48
 70
     0
 62
     7
  6
CONTINUOUS
  0
LAYER
  2
49
 70
     0
 62
     7
  6
CONTINUOUS
  0
LAYER
  2
50
 70
     0
 62
     7
  6
CONTINUOUS
  0
LAYER
  2
51
 70
     0
 62
     7
  6
CONTINUOUS
  0
LAYER
  2
52
 70
     0
 62
     7
  6
CONTINUOUS
  0
LAYER
  2
53
 70
     0
 62
     7
  6
CONTINUOUS
  0
LAYER
  2
54
 70
     0
 62
     7
  6
CONTINUOUS
  0
LAYER
  2
55
 70
     0
 62
     7
  6
CONTINUOUS
  0
LAYER
  2
56
 70
     0
 62
     7
  6
CONTINUOUS
  0
LAYER
  2
57
 70
     0
 62
     7
  6
CONTINUOUS
  0
LAYER
  2
58
 70
     0
 62
     7
  6
CONTINUOUS
  0
LAYER
  2
59
 70
     0
 62
     7
  6
CONTINUOUS
  0
LAYER
  2
60
 70
     0
 62
     7
  6
CONTINUOUS
  0
LAYER
  2
61
 70
     0
 62
     7
  6
CONTINUOUS
  0
LAYER
  2
62
 70
     0
 62
     7
  6
CONTINUOUS
  0
LAYER
  2
63
 70
     0
 62
     7
  6
CONTINUOUS
  0
LAYER
  2
64
 70
     0
 62
     7
  6
CONTINUOUS
  0
LAYER
  2
65
 70
     0
 62
     7
  6
CONTINUOUS
  0
LAYER
  2
66
 70
     0
 62
     7
  6
CONTINUOUS
  0
LAYER
  2
67
 70
     0
 62
     7
  6
CONTINUOUS
  0
LAYER
  2
68
 70
     0
 62
     7
  6
CONTINUOUS
  0
LAYER
  2
69
 70
     0
 62
     7
  6
CONTINUOUS
  0
LAYER
  2
70
 70
     0
 62
     7
  6
CONTINUOUS
  0
LAYER
  2
71
 70
     0
 62
     7
  6
CONTINUOUS
  0
LAYER
  2
72
 70
     0
 62
     7
  6
CONTINUOUS
  0
LAYER
  2
73
 70
     0
 62
     7
  6
CONTINUOUS
  0
LAYER
  2
74
 70
     0
 62
     7
  6
CONTINUOUS
  0
LAYER
  2
75
 70
     0
 62
     7
  6
CONTINUOUS
  0
LAYER
  2
76
 70
     0
 62
     7
  6
CONTINUOUS
  0
LAYER
  2
77
 70
     0
 62
     7
  6
CONTINUOUS
  0
LAYER
  2
78
 70
     0
 62
     7
  6
CONTINUOUS
  0
LAYER
  2
79
 70
     0
 62
     7
  6
CONTINUOUS
  0
LAYER
  2
80
 70
     0
 62
     7
  6
CONTINUOUS
  0
LAYER
  2
81
 70
     0
 62
     7
  6
CONTINUOUS
  0
LAYER
  2
82
 70
     0
 62
     7
  6
CONTINUOUS
  0
LAYER
  2
83
 70
     0
 62
     7
  6
CONTINUOUS
  0
LAYER
  2
84
 70
     0
 62
     7
  6
CONTINUOUS
  0
LAYER
  2
85
 70
     0
 62
     7
  6
CONTINUOUS
  0
LAYER
  2
86
 70
     0
 62
     7
  6
CONTINUOUS
  0
LAYER
  2
87
 70
     0
 62
     7
  6
CONTINUOUS
  0
LAYER
  2
88
 70
     0
 62
     7
  6
CONTINUOUS
  0
LAYER
  2
89
 70
     0
 62
     7
  6
CONTINUOUS
  0
LAYER
  2
90
 70
     0
 62
     7
  6
CONTINUOUS
  0
LAYER
  2
91
 70
     0
 62
     7
  6
CONTINUOUS
  0
LAYER
  2
92
 70
     0
 62
     7
  6
CONTINUOUS
  0
LAYER
  2
93
 70
     0
 62
     7
  6
CONTINUOUS
  0
LAYER
  2
94
 70
     0
 62
     7
  6
CONTINUOUS
  0
LAYER
  2
95
 70
     0
 62
     7
  6
CONTINUOUS
  0
LAYER
  2
96
 70
     0
 62
     7
  6
CONTINUOUS
  0
LAYER
  2
97
 70
     0
 62
     7
  6
CONTINUOUS
  0
LAYER
  2
98
 70
     0
 62
     7
  6
CONTINUOUS
  0
LAYER
  2
99
 70
     0
 62
     7
  6
CONTINUOUS
  0
LAYER
  2
100
 70
     0
 62
     7
  6
CONTINUOUS
  0
LAYER
  2
101
 70
     0
 62
     7
  6
CONTINUOUS
  0
LAYER
  2
102
 70
     0
 62
     7
  6
CONTINUOUS
  0
LAYER
  2
103
 70
     0
 62
     7
  6
CONTINUOUS
  0
LAYER
  2
104
 70
     0
 62
     7
  6
CONTINUOUS
  0
LAYER
  2
105
 70
     0
 62
     7
  6
CONTINUOUS
  0
LAYER
  2
106
 70
     0
 62
     7
  6
CONTINUOUS
  0
LAYER
  2
107
 70
     0
 62
     7
  6
CONTINUOUS
  0
LAYER
  2
108
 70
     0
 62
     7
  6
CONTINUOUS
  0
LAYER
  2
109
 70
     0
 62
     7
  6
CONTINUOUS
  0
LAYER
  2
110
 70
     0
 62
     7
  6
CONTINUOUS
  0
LAYER
  2
111
 70
     0
 62
     7
  6
CONTINUOUS
  0
LAYER
  2
112
 70
     0
 62
     7
  6
CONTINUOUS
  0
LAYER
  2
113
 70
     0
 62
     7
  6
CONTINUOUS
  0
LAYER
  2
114
 70
     0
 62
     7
  6
CONTINUOUS
  0
LAYER
  2
115
 70
     0
 62
     7
  6
CONTINUOUS
  0
LAYER
  2
116
 70
     0
 62
     7
  6
CONTINUOUS
  0
LAYER
  2
117
 70
     0
 62
     7
  6
CONTINUOUS
  0
LAYER
  2
118
 70
     0
 62
     7
  6
CONTINUOUS
  0
LAYER
  2
119
 70
     0
 62
     7
  6
CONTINUOUS
  0
LAYER
  2
120
 70
     0
 62
     7
  6
CONTINUOUS
  0
LAYER
  2
121
 70
     0
 62
     7
  6
CONTINUOUS
  0
LAYER
  2
122
 70
     0
 62
     7
  6
CONTINUOUS
  0
LAYER
  2
123
 70
     0
 62
     7
  6
CONTINUOUS
  0
LAYER
  2
124
 70
     0
 62
     7
  6
CONTINUOUS
  0
LAYER
  2
125
 70
     0
 62
     7
  6
CONTINUOUS
  0
LAYER
  2
126
 70
     0
 62
     7
  6
CONTINUOUS
  0
LAYER
  2
127
 70
     0
 62
     7
  6
CONTINUOUS
  0
LAYER
  2
128
 70
     0
 62
     7
  6
CONTINUOUS
  0
ENDTAB
  0
TABLE
  2
STYLE
 70
    60
  0
STYLE
  2
STANDARD
 70
     0
 40
0.0
 41
1.0
 50
0.0
 71
     0
 42
0.2
  3
txt
  4

  0
STYLE
  2
KANJI0
 70
     0
 40
24.0
 41
0.9
 50
0.0
 71
     0
 42
24.0
  3

  4
bigfont
  0
STYLE
  2
KANJI1
 70
     0
 40
36.0
 41
0.9
 50
0.0
 71
     0
 42
36.0
  3

  4
bigfont
  0
STYLE
  2
KANJI2
 70
     4
 40
28.0
 41
0.9
 50
0.0
 71
     0
 42
28.0
  3

  4
bigfont
  0
STYLE
  2
KANJI3
 70
     4
 40
24.0
 41
0.9
 50
0.0
 71
     0
 42
24.0
  3

  4
bigfont
  0
STYLE
  2
KANJI4
 70
     0
 40
28.0
 41
0.9
 50
0.0
 71
     0
 42
28.0
  3

  4
bigfont
  0
STYLE
  2
KANJI5
 70
     0
 40
24.0
 41
0.9
 50
0.0
 71
     0
 42
24.0
  3

  4
bigfont
  0
STYLE
  2
KANJI6
 70
     0
 40
24.0
 41
0.857142857
 50
0.0
 71
     0
 42
24.0
  3

  4
bigfont
  0
STYLE
  2
KANJI7
 70
     0
 40
28.0
 41
0.9
 50
0.0
 71
     0
 42
28.0
  3

  4
bigfont
  0
STYLE
  2
KANJI8
 70
     0
 40
22.4
 41
0.9
 50
0.0
 71
     0
 42
22.4
  3

  4
bigfont
  0
STYLE
  2
KANJI9
 70
     0
 40
22.4
 41
0.785714286
 50
0.0
 71
     0
 42
22.4
  3

  4
bigfont
  0
STYLE
  2
KANJI10
 70
     0
 40
22.4
 41
0.8
 50
0.0
 71
     0
 42
22.4
  3

  4
bigfont
  0
STYLE
  2
KANJI11
 70
     0
 40
24.0
 41
0.8
 50
0.0
 71
     0
 42
24.0
  3

  4
bigfont
  0
STYLE
  2
KANJI12
 70
     0
 40
24.0
 41
0.9
 50
0.0
 71
     0
 42
24.0
  3

  4
bigfont
  0
STYLE
  2
KANJI13
 70
     0
 40
19.2
 41
0.777777778
 50
0.0
 71
     0
 42
19.2
  3

  4
bigfont
  0
STYLE
  2
KANJI14
 70
     0
 40
25.6
 41
0.9
 50
0.0
 71
     0
 42
25.6
  3

  4
bigfont
  0
STYLE
  2
KANJI15
 70
     0
 40
30.4
 41
0.9
 50
0.0
 71
     0
 42
30.4
  3

  4
bigfont
  0
STYLE
  2
KANJI16
 70
     0
 40
30.4
 41
0.9
 50
0.0
 71
     0
 42
30.4
  3

  4
bigfont
  0
STYLE
  2
KANJI17
 70
     0
 40
30.4
 41
0.9
 50
0.0
 71
     0
 42
30.4
  3

  4
bigfont
  0
STYLE
  2
KANJI18
 70
     0
 40
30.4
 41
0.9
 50
0.0
 71
     0
 42
30.4
  3

  4
bigfont
  0
STYLE
  2
KANJI19
 70
     0
 40
30.4
 41
0.9
 50
0.0
 71
     0
 42
30.4
  3

  4
bigfont
  0
STYLE
  2
KANJI20
 70
     0
 40
30.4
 41
0.9
 50
0.0
 71
     0
 42
30.4
  3

  4
bigfont
  0
STYLE
  2
KANJI21
 70
     0
 40
30.4
 41
0.9
 50
0.0
 71
     0
 42
30.4
  3

  4
bigfont
  0
STYLE
  2
KANJI22
 70
     0
 40
30.4
 41
0.9
 50
0.0
 71
     0
 42
30.4
  3

  4
bigfont
  0
STYLE
  2
KANJI23
 70
     0
 40
30.4
 41
0.9
 50
0.0
 71
     0
 42
30.4
  3

  4
bigfont
  0
STYLE
  2
KANJI24
 70
     0
 40
30.4
 41
0.9
 50
0.0
 71
     0
 42
30.4
  3

  4
bigfont
  0
STYLE
  2
KANJI25
 70
     0
 40
22.4
 41
0.8
 50
0.0
 71
     0
 42
22.4
  3

  4
bigfont
  0
STYLE
  2
KANJI26
 70
     0
 40
28.0
 41
0.9
 50
0.0
 71
     0
 42
28.0
  3

  4
bigfont
  0
STYLE
  2
KANJI27
 70
     0
 40
15.999996636
 41
0.6
 50
0.0
 71
     0
 42
15.999996636
  3

  4
bigfont
  0
STYLE
  2
KANJI28
 70
     0
 40
19.199995963
 41
0.9
 50
0.0
 71
     0
 42
19.199995963
  3

  4
bigfont
  0
STYLE
  2
KANJI29
 70
     0
 40
20.7999984
 41
0.9
 50
0.0
 71
     0
 42
20.7999984
  3

  4
bigfont
  0
STYLE
  2
KANJI30
 70
     0
 40
13.8666656
 41
0.75
 50
0.0
 71
     0
 42
13.8666656
  3

  4
bigfont
  0
STYLE
  2
KANJI31
 70
     0
 40
20.7999984
 41
0.75
 50
0.0
 71
     0
 42
20.7999984
  3

  4
bigfont
  0
STYLE
  2
KANJI32
 70
     0
 40
12.47999904
 41
0.75
 50
0.0
 71
     0
 42
12.47999904
  3

  4
bigfont
  0
STYLE
  2
KANJI33
 70
     0
 40
13.8666656
 41
0.6
 50
0.0
 71
     0
 42
13.8666656
  3

  4
bigfont
  0
STYLE
  2
KANJI34
 70
     0
 40
16.63999872
 41
0.6
 50
0.0
 71
     0
 42
16.63999872
  3

  4
bigfont
  0
STYLE
  2
KANJI35
 70
     0
 40
13.8666656
 41
0.9
 50
0.0
 71
     0
 42
13.8666656
  3

  4
bigfont
  0
STYLE
  2
KANJI36
 70
     0
 40
13.8666656
 41
0.8
 50
0.0
 71
     0
 42
13.8666656
  3

  4
bigfont
  0
STYLE
  2
KANJI37
 70
     0
 40
16.63999872
 41
0.9
 50
0.0
 71
     0
 42
16.63999872
  3

  4
bigfont
  0
STYLE
  2
KANJI38
 70
     0
 40
16.63999872
 41
0.8
 50
0.0
 71
     0
 42
16.63999872
  3

  4
bigfont
  0
STYLE
  2
KANJI39
 70
     0
 40
20.7999984
 41
0.75
 50
0.0
 71
     0
 42
20.7999984
  3

  4
bigfont
  0
STYLE
  2
KANJI40
 70
     0
 40
69.333328
 41
0.9
 50
0.0
 71
     0
 42
69.333328
  3

  4
bigfont
  0
STYLE
  2
KANJI41
 70
     0
 40
23.999994954
 41
0.9
 50
0.0
 71
     0
 42
23.999994954
  3

  4
bigfont
  0
STYLE
  2
KANJI42
 70
     0
 40
24.2666648
 41
0.42031746
 50
0.0
 71
     0
 42
24.2666648
  3

  4
bigfont
  0
STYLE
  2
KANJI43
 70
     0
 40
41.5999968
 41
0.9
 50
0.0
 71
     0
 42
41.5999968
  3

  4
bigfont
  0
STYLE
  2
KANJI44
 70
     0
 40
36.0
 41
0.666666667
 50
0.0
 71
     0
 42
36.0
  3

  4
bigfont
  0
STYLE
  2
KANJI45
 70
     0
 40
32.0
 41
0.75
 50
0.0
 71
     0
 42
32.0
  3

  4
bigfont
  0
STYLE
  2
KANJI46
 70
     0
 40
40.0
 41
1.0
 50
0.0
 71
     0
 42
40.0
  3

  4
bigfont
  0
STYLE
  2
KANJI47
 70
     0
 40
40.0
 41
1.0
 50
0.0
 71
     0
 42
40.0
  3

  4
bigfont
  0
STYLE
  2
KANJI48
 70
     0
 40
27.9993
 41
0.9
 50
0.0
 71
     0
 42
27.9993
  3

  4
bigfont
  0
STYLE
  2
KANJI49
 70
     0
 40
23.9994
 41
0.9
 50
0.0
 71
     0
 42
23.9994
  3

  4
bigfont
  0
STYLE
  2
KANJI50
 70
     0
 40
28.0
 41
0.914285714
 50
0.0
 71
     0
 42
28.0
  3

  4
bigfont
  0
STYLE
  2
KANJI51
 70
     0
 40
32.0
 41
0.9
 50
0.0
 71
     0
 42
32.0
  3

  4
bigfont
  0
STYLE
  2
KANJI52
 70
     0
 40
28.8
 41
0.857142857
 50
0.0
 71
     0
 42
28.8
  3

  4
bigfont
  0
STYLE
  2
KANJI53
 70
     0
 40
28.8
 41
0.857222222
 50
0.0
 71
     0
 42
28.8
  3

  4
bigfont
  0
STYLE
  2
KANJI54
 70
     0
 40
28.0
 41
0.9
 50
0.0
 71
     0
 42
28.0
  3

  4
bigfont
  0
STYLE
  2
KANJI55
 70
     0
 40
24.0
 41
0.833333333
 50
0.0
 71
     0
 42
24.0
  3

  4
bigfont
  0
STYLE
  2
KANJI56
 70
     0
 40
28.0
 41
0.793650794
 50
0.0
 71
     0
 42
28.0
  3

  4
bigfont
  0
STYLE
  2
KANJI57
 70
     0
 40
40.0
 41
0.8
 50
0.0
 71
     0
 42
40.0
  3

  4
bigfont
  0
STYLE
  2
KANJI58
 70
     0
 40
28.0
 41
0.571428571
 50
0.0
 71
     0
 42
28.0
  3

  4
bigfont
  0
ENDTAB
  0
TABLE
  2
VIEW
 70
     0
  0
ENDTAB
  0
ENDSEC
  0
SECTION
  2
BLOCKS
  0
ENDSEC
  0
SECTION
  2
ENTITIES
  0
LINE
  8
0
  6
CONTINUOUS
 62
     1
 10
595.0
 20
720.0
 11
1835.0
 21
720.0
  0
LINE
  8
0
  6
CONTINUOUS
 62
     1
 10
595.0
 20
664.0
 11
1835.0
 21
664.0
  0
LINE
  8
0
  6
CONTINUOUS
 62
     2
 10
595.0
 20
608.0
 11
1835.0
 21
608.0
  0
LINE
  8
0
  6
CONTINUOUS
 62
     2
 10
595.0
 20
552.0
 11
1835.0
 21
552.0
  0
LINE
  8
0
  6
CONTINUOUS
 62
     2
 10
595.0
 20
496.0
 11
1835.0
 21
496.0
  0
CIRCLE
  8
0
  6
CONTINUOUS
 62
     1
 10
620.0
 20
1300.0
 40
22.5
  0
CIRCLE
  8
0
  6
CONTINUOUS
 62
     1
 10
620.0
 20
1300.0
 40
45.0
  0
CIRCLE
  8
0
  6
CONTINUOUS
 62
     1
 10
620.0
 20
1300.0
 40
55.0
  0
LINE
  8
0
  6
CONTINUOUS
 62
     1
 10
585.0
 20
1400.0
 11
608.0
 21
1381.5
  0
LINE
  8
0
  6
CONTINUOUS
 62
     1
 10
585.0
 20
1346.5
 11
585.0
 21
1400.0
  0
LINE
  8
0
  6
CONTINUOUS
 62
     1
 10
608.0
 20
1356.5
 11
608.0
 21
1381.5
  0
LINE
  8
0
  6
CONTINUOUS
 62
     1
 10
550.0
 20
1200.0
 11
585.0
 21
1200.0
  0
LINE
  8
0
  6
CONTINUOUS
 62
     1
 10
585.0
 20
1200.0
 11
608.0
 21
1218.5
  0
LINE
  8
0
  6
CONTINUOUS
 62
     1
 10
585.0
 20
1253.5
 11
585.0
 21
1200.0
  0
LINE
  8
0
  6
CONTINUOUS
 62
     1
 10
608.0
 20
1243.5
 11
608.0
 21
1218.5
  0
LINE
  8
0
  6
CONTINUOUS
 62
     1
 10
810.0
 20
1200.0
 11
780.0
 21
1218.5
  0
LINE
  8
0
  6
CONTINUOUS
 62
     1
 10
608.0
 20
1218.5
 11
780.0
 21
1218.5
  0
LINE
  8
0
  6
CONTINUOUS
 62
     1
 10
810.0
 20
1200.0
 11
850.0
 21
1200.0
  0
LINE
  8
0
  6
CONTINUOUS
 62
     1
 10
780.0
 20
1300.0
 11
780.0
 21
1218.5
  0
LINE
  8
0
  6
LTYPE1
 62
     2
 10
620.0
 20
1230.398877817
 11
620.0
 21
1367.366558854
  0
LINE
  8
0
  6
CONTINUOUS
 62
     1
 10
850.0
 20
1300.0
 11
850.0
 21
1200.0
  0
CIRCLE
  8
0
  6
CONTINUOUS
 62
     1
 10
1088.3
 20
1300.0
 40
19.5
  0
LINE
  8
0
  6
CONTINUOUS
 62
     1
 10
1068.3
 20
1320.0
 11
1108.3
 21
1320.0
  0
LINE
  8
0
  6
CONTINUOUS
 62
     1
 10
1108.3
 20
1280.0
 11
1108.3
 21
1320.0
  0
LINE
  8
0
  6
CONTINUOUS
 62
     1
 10
1068.3
 20
1280.0
 11
1108.3
 21
1280.0
  0
LINE
  8
0
  6
CONTINUOUS
 62
     1
 10
1068.3
 20
1280.0
 11
1068.3
 21
1320.0
  0
LINE
  8
0
  6
LTYPE2
 62
     2
 10
1088.3
 20
1274.9
 11
1088.3
 21
1324.8
  0
LINE
  8
0
  6
LTYPE1
 62
     2
 10
428.0
 20
1195.0
 11
371.0
 21
1195.0
  0
LINE
  8
0
  6
CONTINUOUS
 62
     1
 10
395.0
 20
1195.0
 11
395.0
 21
1184.05046
  0
LINE
  8
0
  6
CONTINUOUS
 62
     1
 10
395.0
 20
1195.0
 11
395.0
 21
1205.94954
  0
LINE
  8
0
  6
CONTINUOUS
 62
     1
 10
386.9789
 20
1186.73198
 11
388.527076294
 21
1184.05046
  0
LINE
  8
0
  6
CONTINUOUS
 62
     1
 10
386.9789
 20
1195.0
 11
386.9789
 21
1186.73198
  0
LINE
  8
0
  6
CONTINUOUS
 62
     1
 10
386.9789
 20
1203.26802
 11
388.527076294
 21
1205.94954
  0
LINE
  8
0
  6
CONTINUOUS
 62
     1
 10
386.9789
 20
1195.0
 11
386.9789
 21
1203.26802
  0
ARC
  8
0
  6
CONTINUOUS
 62
     1
 10
397.433121693
 20
1195.0
 40
10.454221693
 50
148.419912243
 51
211.580087757
  0
ARC
  8
0
  6
CONTINUOUS
 62
     1
 10
390.172013606
 20
1186.787845
 40
3.193602261
 50
121.002313915
 51
182.989498403
  0
LINE
  8
0
  6
CONTINUOUS
 62
     1
 10
386.9789
 20
1203.26802
 11
388.527076294
 21
1205.94954
  0
ARC
  8
0
  6
CONTINUOUS
 62
     1
 10
390.172013606
 20
1203.212155
 40
3.193602261
 50
177.010501597
 51
238.997686085
  0
LINE
  8
0
  6
CONTINUOUS
 62
     1
 10
395.0
 20
1184.05046
 11
388.527076294
 21
1184.05046
  0
LINE
  8
0
  6
CONTINUOUS
 62
     1
 10
395.0
 20
1189.52523
 11
388.527076294
 21
1189.52523
  0
LINE
  8
0
  6
CONTINUOUS
 62
     1
 10
395.0
 20
1200.47477
 11
388.527076294
 21
1200.47477
  0
LINE
  8
0
  6
CONTINUOUS
 62
     1
 10
395.0
 20
1205.94954
 11
388.527076294
 21
1205.94954
  0
LINE
  8
0
  6
LTYPE3
 62
     2
 10
2044.5
 20
1322.5
 11
1994.5
 21
1322.5
  0
LINE
  8
0
  6
LTYPE3
 62
     2
 10
2044.5
 20
1277.5
 11
1994.5
 21
1277.5
  0
LINE
  8
0
  6
LTYPE3
 62
     2
 10
2044.5
 20
1277.5
 11
2044.5
 21
1322.5
  0
LINE
  8
0
  6
CONTINUOUS
 62
     1
 10
1994.5
 20
1250.0
 11
2060.127626097
 21
1245.0
  0
LINE
  8
0
  6
CONTINUOUS
 62
     1
 10
2004.5
 20
1180.0
 11
2004.5
 21
1249.0
  0
ARC
  8
0
  6
CONTINUOUS
 62
     1
 10
2019.5
 20
1180.0
 40
15.0
 50
180.0
 51
270.0
  0
LINE
  8
0
  6
CONTINUOUS
 62
     1
 10
2072.00566924
 20
1393.810759633
 11
2022.104519278
 21
1322.54453178
  0
ARC
  8
0
  6
CONTINUOUS
 62
     1
 10
2072.334520095
 20
1402.125917906
 40
3.0
 50
325.0
 51
55.0
  0
LINE
  8
0
  6
CONTINUOUS
 62
     1
 10
2035.964679345
 20
1431.25467833
 11
2074.055249404
 21
1404.583374039
  0
ARC
  8
0
  6
CONTINUOUS
 62
     1
 10
2035.391102908
 20
1430.435526285
 40
1.0
 50
55.0
 51
145.0
  0
ARC
  8
0
  6
CONTINUOUS
 62
     1
 10
2032.851221555
 20
1428.551646589
 40
1.0
 50
55.0
 51
145.0
  0
ARC
  8
0
  6
CONTINUOUS
 62
     1
 10
2017.271182206
 20
1323.487321655
 40
3.0
 50
235.0
 51
325.0
  0
LINE
  8
0
  6
CONTINUOUS
 62
     1
 10
1977.459882837
 20
1347.701169812
 11
2015.550452896
 21
1321.029865522
  0
ARC
  8
0
  6
CONTINUOUS
 62
     1
 10
1978.033459273
 20
1348.520321856
 40
1.0
 50
145.0
 51
235.0
  0
ARC
  8
0
  6
CONTINUOUS
 62
     1
 10
1978.935036538
 20
1351.551354426
 40
1.0
 50
145.0
 51
235.0
  0
LINE
  8
0
  6
CONTINUOUS
 62
     1
 10
1981.555643058
 20
1344.83328763
 11
2040.060439566
 21
1428.386796148
  0
LINE
  8
0
  6
CONTINUOUS
 62
     1
 10
1982.784371125
 20
1343.972922976
 11
2041.289167633
 21
1427.526431493
  0
LINE
  8
0
  6
CONTINUOUS
 62
     1
 10
2074.791976228
 20
1400.405188597
 11
2019.728638338
 21
1321.766592346
  0
LINE
  8
0
  6
CONTINUOUS
 62
     1
 10
1978.115884494
 20
1352.124930862
 11
2032.032069511
 21
1429.125223025
  0
LINE
  8
0
  6
CONTINUOUS
 62
     1
 10
1977.214307229
 20
1349.093898293
 11
2034.571950864
 21
1431.009102722
  0
LINE
  8
0
  6
LTYPE2
 62
     2
 10
1976.232174803
 20
1355.885467765
 11
1991.550318031
 21
1345.159588405
  0
LINE
  8
0
  6
LTYPE2
 62
     2
 10
2027.854054074
 20
1429.609151751
 11
2043.172197302
 21
1418.883272391
  0
LINE
  8
0
  6
CONTINUOUS
 62
     1
 10
1994.5
 20
1250.0
 11
1994.5
 21
1337.225525817
  0
LINE
  8
0
  6
CONTINUOUS
 62
     1
 10
2094.110225663
 20
1383.216080952
 11
2074.299974985
 21
1397.08736781
  0
LINE
  8
0
  6
LTYPE1
 62
     2
 10
2141.158322994
 20
1295.337792048
 11
1998.158322994
 21
1395.467470012
  0
LINE
  8
0
  6
CONTINUOUS
 62
     1
 10
2043.488346391
 20
1308.792189428
 11
2022.678095714
 21
1323.363683824
  0
LINE
  8
0
  6
LTYPE3
 62
     2
 10
2224.5
 20
1277.5
 11
2274.5
 21
1277.5
  0
LINE
  8
0
  6
CONTINUOUS
 62
     1
 10
2274.5
 20
1250.0
 11
2208.872373903
 21
1245.0
  0
LINE
  8
0
  6
CONTINUOUS
 62
     1
 10
2264.5
 20
1180.0
 11
2264.5
 21
1249.0
  0
ARC
  8
0
  6
CONTINUOUS
 62
     1
 10
2249.5
 20
1180.0
 40
15.0
 50
270.0
 51
0.0
  0
LINE
  8
0
  6
LTYPE3
 62
     2
 10
2224.5
 20
1322.5
 11
2274.5
 21
1322.5
  0
LINE
  8
0
  6
LTYPE3
 62
     2
 10
2224.5
 20
1277.5
 11
2224.5
 21
1322.5
  0
LINE
  8
0
  6
CONTINUOUS
 62
     1
 10
2274.5
 20
1350.0
 11
2208.872373903
 21
1355.0
  0
LINE
  8
0
  6
CONTINUOUS
 62
     1
 10
2274.5
 20
1250.0
 11
2274.5
 21
1350.0
  0
TEXT
  8
0
  6
CONTINUOUS
 62
     2
 10
923.0
 20
621.4
 30
2.4
 40
24.0
  1
３００
 50
0.0
 41
0.9
 51
0.0
  7
KANJI0
  0
TEXT
  8
0
  6
CONTINUOUS
 62
     2
 10
923.0
 20
565.4
 30
2.4
 40
24.0
  1
５００
 50
0.0
 41
0.9
 51
0.0
  7
KANJI0
  0
LINE
  8
0
  6
LTYPE1
 62
     2
 10
2014.548183048
 20
1359.697752135
 11
2037.892744008
 21
1393.037240338
  0
POINT
  8
0
  6
CONTINUOUS
 62
     1
 10
676.0
 20
1300.0
  0
LINE
  8
0
  6
CONTINUOUS
 62
     1
 10
550.0
 20
1165.0
 11
550.0
 21
1407.5
  0
LINE
  8
0
  6
CONTINUOUS
 62
     1
 10
550.0
 20
1165.0
 11
395.0
 21
1165.0
  0
LINE
  8
0
  6
CONTINUOUS
 62
     1
 10
733.0
 20
1351.305778818
 11
723.0
 21
1361.305778818
  0
ARC
  8
0
  6
CONTINUOUS
 62
     1
 10
721.0
 20
1349.63644216
 40
3.0
 50
180.0
 51
270.0
  0
ARC
  8
0
  6
CONTINUOUS
 62
     1
 10
721.0
 20
1346.194983542
 40
3.0
 50
180.0
 51
270.0
  0
ARC
  8
0
  6
CONTINUOUS
 62
     1
 10
721.0
 20
1345.334618887
 40
3.0
 50
180.0
 51
270.0
  0
LINE
  8
0
  6
CONTINUOUS
 62
     1
 10
841.0
 20
1361.305778818
 11
831.0
 21
1351.305778818
  0
LINE
  8
0
  6
CONTINUOUS
 62
     1
 10
733.0
 20
1351.305778818
 11
831.0
 21
1351.305778818
  0
ARC
  8
0
  6
CONTINUOUS
 62
     1
 10
843.0
 20
1349.63644216
 40
3.0
 50
270.0
 51
0.0
  0
ARC
  8
0
  6
CONTINUOUS
 62
     1
 10
843.0
 20
1346.194983542
 40
3.0
 50
270.0
 51
0.0
  0
ARC
  8
0
  6
CONTINUOUS
 62
     1
 10
843.0
 20
1345.334618887
 40
3.0
 50
270.0
 51
0.0
  0
LINE
  8
0
  6
CONTINUOUS
 62
     1
 10
720.507319827
 20
1346.63644216
 11
843.0
 21
1346.63644216
  0
LINE
  8
0
  6
CONTINUOUS
 62
     1
 10
720.607319827
 20
1343.194983542
 11
843.0
 21
1343.194983542
  0
LINE
  8
0
  6
CONTINUOUS
 62
     1
 10
720.607319827
 20
1342.334618887
 11
843.0
 21
1342.334618887
  0
LINE
  8
0
  6
CONTINUOUS
 62
     1
 10
851.0
 20
1345.266636349
 11
851.0
 21
1402.13271812
  0
LINE
  8
0
  6
CONTINUOUS
 62
     1
 10
846.0
 20
1345.266636349
 11
851.0
 21
1345.266636349
  0
LINE
  8
0
  6
CONTINUOUS
 62
     1
 10
846.0
 20
1402.13271812
 11
851.0
 21
1402.13271812
  0
LINE
  8
0
  6
CONTINUOUS
 62
     1
 10
846.0
 20
1369.366636349
 11
851.0
 21
1369.366636349
  0
LINE
  8
0
  6
CONTINUOUS
 62
     1
 10
808.0
 20
1318.657620342
 11
846.0
 21
1318.657620342
  0
LINE
  8
0
  6
CONTINUOUS
 62
     1
 10
851.0
 20
1389.848877817
 11
851.0
 21
1362.148877817
  0
LINE
  8
0
  6
CONTINUOUS
 62
     1
 10
608.0
 20
1381.5
 11
718.0
 21
1381.5
  0
LINE
  8
0
  6
CONTINUOUS
 62
     1
 10
718.0
 20
1317.957620342
 11
808.0
 21
1317.957620342
  0
LINE
  8
0
  6
CONTINUOUS
 62
     1
 10
810.0
 20
1318.657620342
 11
810.0
 21
1200.0
  0
LINE
  8
0
  6
CONTINUOUS
 62
     1
 10
850.0
 20
1345.266636349
 11
850.0
 21
1200.0
  0
LINE
  8
0
  6
CONTINUOUS
 62
     1
 10
2495.0
 20
1028.0
 11
3195.0
 21
1028.0
  0
LINE
  8
0
  6
CONTINUOUS
 62
     1
 10
2495.0
 20
2116.0
 11
3195.0
 21
2116.0
  0
LINE
  8
0
  6
CONTINUOUS
 62
     1
 10
2495.0
 20
2116.0
 11
2495.0
 21
1028.0
  0
TEXT
  8
0
  6
CONTINUOUS
 62
     2
 10
2595.0
 20
2057.6
 30
22.79952
 40
36.0
  1
マイティシリンダ仕様
 50
0.0
 41
0.9
 51
0.0
  7
KANJI1
  0
TEXT
  8
0
  6
CONTINUOUS
 62
     2
 10
2527.6
 20
1552.0
 30
17.6
 40
28.0
  1
モ　トル仕様
 50
0.0
 41
0.9
 51
0.0
  7
KANJI2
  0
TEXT
  8
0
  6
CONTINUOUS
 62
     2
 10
2525.8
 20
1248.0
 30
1.371428571
 40
24.0
  1
ブレ　キ
 50
0.0
 41
0.9
 51
0.0
  7
KANJI3
  0
LINE
  8
0
  6
CONTINUOUS
 62
     2
 10
2525.4
 20
1192.8
 11
2525.4
 21
1176.0
  0
LINE
  8
0
  6
CONTINUOUS
 62
     2
 10
2525.4
 20
1507.2
 11
2525.4
 21
1488.8
  0
TEXT
  8
0
  6
CONTINUOUS
 62
     2
 10
2954.2
 20
1658.4
 30
11.36
 40
28.0
  1
推力リミッタ
 50
0.0
 41
0.9
 51
0.0
  7
KANJI4
  0
TEXT
  8
0
  6
CONTINUOUS
 62
     2
 10
3166.2
 20
1546.4
 30
17.571428571
 40
24.0
  1
Ｐ
 50
0.0
 41
0.9
 51
0.0
  7
KANJI5
  0
TEXT
  8
0
  6
CONTINUOUS
 62
     2
 10
3033.4
 20
1546.4
 30
1.6
 40
24.0
  1
ＫＷ
 50
0.0
 41
0.857142857
 51
0.0
  7
KANJI6
  0
TEXT
  8
0
  6
CONTINUOUS
 62
     2
 10
3126.2
 20
1546.4
 30
20.5
 40
28.0
  1
４
 50
0.0
 41
0.9
 51
0.0
  7
KANJI7
  0
TEXT
  8
0
  6
CONTINUOUS
 62
     2
 10
2909.4
 20
1604.8
 30
0.8
 40
22.4
  1
マンセル
 50
0.0
 41
0.9
 51
0.0
  7
KANJI8
  0
TEXT
  8
0
  6
CONTINUOUS
 62
     2
 10
3003.0
 20
1606.4
 30
0.32
 40
22.4
  1
７．５ＧＹ５／４．５
 50
0.0
 41
0.785714286
 51
0.0
  7
KANJI9
  0
TEXT
  8
0
  6
CONTINUOUS
 62
     2
 10
2903.0
 20
1211.2
 30
2.4
 40
22.4
  1
スプリング制動式電磁ブレーキ
 50
0.0
 41
0.8
 51
0.0
  7
KANJI10
  0
TEXT
  8
0
  6
CONTINUOUS
 62
     2
 10
3167.0
 20
1490.4
 30
0.288
 40
24.0
  1
Ｖ
 50
0.0
 41
0.8
 51
0.0
  7
KANJI11
  0
TEXT
  8
0
  6
CONTINUOUS
 62
     2
 10
3152.6
 20
1434.4
 30
0.288
 40
24.0
  1
Ｈｚ
 50
0.0
 41
0.8
 51
0.0
  7
KANJI11
  0
TEXT
  8
0
  6
CONTINUOUS
 62
     2
 10
2994.8
 20
1434.2
 30
2.4
 40
24.0
  1
５０／６０
 50
0.0
 41
0.9
 51
0.0
  7
KANJI0
  0
TEXT
  8
0
  6
CONTINUOUS
 62
     2
 10
3168.8
 20
1380.2
 30
2.4
 40
24.0
  1
Ａ
 50
0.0
 41
0.9
 51
0.0
  7
KANJI0
  0
TEXT
  8
0
  6
CONTINUOUS
 62
     2
 10
3042.8
 20
1326.2
 30
2.4
 40
24.0
  1
Ｅ
 50
0.0
 41
0.9
 51
0.0
  7
KANJI0
  0
LINE
  8
0
  6
CONTINUOUS
 62
     2
 10
2495.0
 20
1140.0
 11
3195.0
 21
1140.0
  0
LINE
  8
0
  6
CONTINUOUS
 62
     2
 10
2495.0
 20
1084.0
 11
3195.0
 21
1084.0
  0
LINE
  8
0
  6
CONTINUOUS
 62
     2
 10
2559.0
 20
1196.0
 11
3195.0
 21
1196.0
  0
LINE
  8
0
  6
CONTINUOUS
 62
     2
 10
2559.0
 20
1588.0
 11
2559.0
 21
1140.0
  0
LINE
  8
0
  6
CONTINUOUS
 62
     2
 10
2495.0
 20
1252.0
 11
3195.0
 21
1252.0
  0
LINE
  8
0
  6
CONTINUOUS
 62
     2
 10
2559.0
 20
1308.0
 11
3195.0
 21
1308.0
  0
LINE
  8
0
  6
CONTINUOUS
 62
     2
 10
2559.0
 20
1364.0
 11
3195.0
 21
1364.0
  0
LINE
  8
0
  6
CONTINUOUS
 62
     2
 10
2559.0
 20
1420.0
 11
3195.0
 21
1420.0
  0
LINE
  8
0
  6
CONTINUOUS
 62
     2
 10
2495.0
 20
1700.0
 11
3195.0
 21
1700.0
  0
LINE
  8
0
  6
CONTINUOUS
 62
     2
 10
2495.0
 20
1644.0
 11
3195.0
 21
1644.0
  0
LINE
  8
0
  6
CONTINUOUS
 62
     2
 10
2495.0
 20
1588.0
 11
3195.0
 21
1588.0
  0
LINE
  8
0
  6
CONTINUOUS
 62
     2
 10
2895.0
 20
2036.0
 11
2895.0
 21
1028.0
  0
LINE
  8
0
  6
CONTINUOUS
 62
     2
 10
2559.0
 20
1476.0
 11
3195.0
 21
1476.0
  0
LINE
  8
0
  6
CONTINUOUS
 62
     2
 10
2559.0
 20
1532.0
 11
3195.0
 21
1532.0
  0
LINE
  8
0
  6
CONTINUOUS
 62
     2
 10
2495.0
 20
1980.0
 11
3195.0
 21
1980.0
  0
LINE
  8
0
  6
CONTINUOUS
 62
     2
 10
2495.0
 20
1924.0
 11
3195.0
 21
1924.0
  0
LINE
  8
0
  6
CONTINUOUS
 62
     2
 10
2495.0
 20
1868.0
 11
3195.0
 21
1868.0
  0
LINE
  8
0
  6
CONTINUOUS
 62
     2
 10
2495.0
 20
1812.0
 11
3195.0
 21
1812.0
  0
LINE
  8
0
  6
CONTINUOUS
 62
     2
 10
2495.0
 20
1756.0
 11
3195.0
 21
1756.0
  0
LINE
  8
0
  6
CONTINUOUS
 62
     2
 10
2495.0
 20
2036.0
 11
3195.0
 21
2036.0
  0
TEXT
  8
0
  6
CONTINUOUS
 62
     2
 10
895.8
 20
680.0
 30
2.4
 40
24.0
  1
ストローク
 50
0.0
 41
0.9
 51
0.0
  7
KANJI0
  0
TEXT
  8
0
  6
CONTINUOUS
 62
     2
 10
1049.4
 20
678.4
 30
0.0
 40
24.0
  1
ｍｉｎ　
 50
0.0
 41
0.9
 51
0.0
  7
KANJI12
  0
TEXT
  8
0
  6
CONTINUOUS
 62
     2
 10
1209.4
 20
678.4
 30
0.0
 40
24.0
  1
ｍｉｎ　
 50
0.0
 41
0.9
 51
0.0
  7
KANJI12
  0
TEXT
  8
0
  6
CONTINUOUS
 62
     2
 10
1529.4
 20
678.4
 30
0.0
 40
24.0
  1
ｍｉｎ　
 50
0.0
 41
0.9
 51
0.0
  7
KANJI12
  0
TEXT
  8
0
  6
CONTINUOUS
 62
     2
 10
1778.0
 20
681.8
 30
0.0
 40
19.2
  1
（ｋｇ）
 50
0.0
 41
0.777777778
 51
0.0
  7
KANJI13
  0
TEXT
  8
0
  6
CONTINUOUS
 62
     2
 10
1682.0
 20
679.0
 30
2.56
 40
25.6
  1
概算重量
 50
0.0
 41
0.9
 51
0.0
  7
KANJI14
  0
TEXT
  8
0
  6
CONTINUOUS
 62
     2
 10
651.0
 20
680.0
 30
2.56
 40
25.6
  1
形
 50
0.0
 41
0.9
 51
0.0
  7
KANJI14
  0
TEXT
  8
0
  6
CONTINUOUS
 62
     2
 10
807.0
 20
680.0
 30
2.56
 40
25.6
  1
式
 50
0.0
 41
0.9
 51
0.0
  7
KANJI14
  0
TEXT
  8
0
  6
CONTINUOUS
 62
     2
 10
2555.0
 20
1994.4
 30
240.594285714
 40
30.4
  1
形式
 50
0.0
 41
0.9
 51
0.0
  7
KANJI15
  0
TEXT
  8
0
  6
CONTINUOUS
 62
     2
 10
2555.0
 20
1938.4
 30
240.594285714
 40
30.4
  1
推力
 50
0.0
 41
0.9
 51
0.0
  7
KANJI15
  0
TEXT
  8
0
  6
CONTINUOUS
 62
     2
 10
2555.0
 20
1882.4
 30
39.628571429
 40
30.4
  1
ストローク
 50
0.0
 41
0.9
 51
0.0
  7
KANJI16
  0
TEXT
  8
0
  6
CONTINUOUS
 62
     2
 10
2555.0
 20
1826.4
 30
61.957805714
 40
30.4
  1
公称速度
 50
0.0
 41
0.9
 51
0.0
  7
KANJI17
  0
TEXT
  8
0
  6
CONTINUOUS
 62
     2
 10
2531.0
 20
1770.4
 30
2.605714286
 40
30.4
  1
ピストンロッド回転トルク
 50
0.0
 41
0.9
 51
0.0
  7
KANJI18
  0
TEXT
  8
0
  6
CONTINUOUS
 62
     2
 10
2555.0
 20
1714.4
 30
240.594285714
 40
30.4
  1
構造
 50
0.0
 41
0.9
 51
0.0
  7
KANJI15
  0
TEXT
  8
0
  6
CONTINUOUS
 62
     2
 10
2555.0
 20
1658.4
 30
17.298468571
 40
30.4
  1
過負荷安全装置
 50
0.0
 41
0.9
 51
0.0
  7
KANJI19
  0
TEXT
  8
0
  6
CONTINUOUS
 62
     2
 10
2555.0
 20
1602.4
 30
106.617142857
 40
30.4
  1
塗装色
 50
0.0
 41
0.9
 51
0.0
  7
KANJI20
  0
TEXT
  8
0
  6
CONTINUOUS
 62
     2
 10
2595.0
 20
1546.4
 30
26.6
 40
30.4
  1
出力　極数
 50
0.0
 41
0.9
 51
0.0
  7
KANJI21
  0
TEXT
  8
0
  6
CONTINUOUS
 62
     2
 10
2595.0
 20
1490.4
 30
44.586377143
 40
30.4
  1
電源電圧
 50
0.0
 41
0.9
 51
0.0
  7
KANJI22
  0
TEXT
  8
0
  6
CONTINUOUS
 62
     2
 10
2595.0
 20
1434.4
 30
80.56
 40
30.4
  1
周波数
 50
0.0
 41
0.9
 51
0.0
  7
KANJI23
  0
TEXT
  8
0
  6
CONTINUOUS
 62
     2
 10
2595.0
 20
1378.4
 30
188.48
 40
30.4
  1
電流
 50
0.0
 41
0.9
 51
0.0
  7
KANJI24
  0
TEXT
  8
0
  6
CONTINUOUS
 62
     2
 10
2595.0
 20
1322.4
 30
80.56
 40
30.4
  1
絶縁級
 50
0.0
 41
0.9
 51
0.0
  7
KANJI23
  0
TEXT
  8
0
  6
CONTINUOUS
 62
     2
 10
2595.0
 20
1210.4
 30
188.48
 40
30.4
  1
形式
 50
0.0
 41
0.9
 51
0.0
  7
KANJI24
  0
TEXT
  8
0
  6
CONTINUOUS
 62
     2
 10
2595.0
 20
1154.4
 30
44.586377143
 40
30.4
  1
操作方式
 50
0.0
 41
0.9
 51
0.0
  7
KANJI22
  0
TEXT
  8
0
  6
CONTINUOUS
 62
     2
 10
2555.0
 20
1098.4
 30
106.617142857
 40
30.4
  1
付属品
 50
0.0
 41
0.9
 51
0.0
  7
KANJI20
  0
TEXT
  8
0
  6
CONTINUOUS
 62
     2
 10
2555.0
 20
1042.4
 30
240.594285714
 40
30.4
  1
台数
 50
0.0
 41
0.9
 51
0.0
  7
KANJI15
  0
TEXT
  8
0
  6
CONTINUOUS
 62
     2
 10
3145.8
 20
1885.6
 30
0.1792
 40
22.4
  1
ｍｍ
 50
0.0
 41
0.8
 51
0.0
  7
KANJI25
  0
TEXT
  8
0
  6
CONTINUOUS
 62
     2
 10
3085.8
 20
1832.0
 30
0.1792
 40
22.4
  1
ｍｍ／ｓｅｃ
 50
0.0
 41
0.8
 51
0.0
  7
KANJI25
  0
TEXT
  8
0
  6
CONTINUOUS
 62
     2
 10
1131.0
 20
680.0
 30
2.8
 40
28.0
  1
ＡＬ
 50
0.0
 41
0.9
 51
0.0
  7
KANJI26
  0
TEXT
  8
0
  6
CONTINUOUS
 62
     2
 10
1291.0
 20
680.0
 30
2.8
 40
28.0
  1
Ｌ
 50
0.0
 41
0.9
 51
0.0
  7
KANJI26
  0
TEXT
  8
0
  6
CONTINUOUS
 62
     2
 10
1427.0
 20
680.0
 30
2.8
 40
28.0
  1
Ｃ
 50
0.0
 41
0.9
 51
0.0
  7
KANJI26
  0
TEXT
  8
0
  6
CONTINUOUS
 62
     2
 10
1611.0
 20
680.0
 30
2.8
 40
28.0
  1
Ｐ
 50
0.0
 41
0.9
 51
0.0
  7
KANJI26
  0
TEXT
  8
0
  6
CONTINUOUS
 62
     2
 10
2954.2
 20
1715.2
 30
20.5
 40
28.0
  1
全閉屋外形
 50
0.0
 41
0.9
 51
0.0
  7
KANJI7
  0
LINE
  8
0
  6
CONTINUOUS
 62
     1
 10
2056.5
 20
1165.0
 11
2019.5
 21
1165.0
  0
LINE
  8
0
  6
CONTINUOUS
 62
     1
 10
2212.5
 20
1165.0
 11
2249.5
 21
1165.0
  0
LINE
  8
0
  6
CONTINUOUS
 62
     1
 10
395.0
 20
1419.5
 11
395.0
 21
1590.0
  0
LINE
  8
0
  6
CONTINUOUS
 62
     1
 10
550.0
 20
1404.15
 11
550.0
 21
1656.0
  0
LINE
  8
0
  6
CONTINUOUS
 62
     1
 10
550.0
 20
1406.0
 11
550.0
 21
1656.0
  0
LINE
  8
0
  6
CONTINUOUS
 62
     1
 10
550.0
 20
1406.0
 11
550.0
 21
1656.0
  0
LINE
  8
0
  6
CONTINUOUS
 62
     1
 10
550.0
 20
1400.0
 11
585.0
 21
1400.0
  0
CIRCLE
  8
0
  6
CONTINUOUS
 62
     2
 10
2025.962354132
 20
1375.998877817
 40
10.4775
  0
CIRCLE
  8
0
  6
CONTINUOUS
 62
     2
 10
2025.962354132
 20
1375.998877817
 40
9.3155
  0
LINE
  8
0
  6
CONTINUOUS
 62
     4
 10
3203.0
 20
-56.0
 11
2411.0
 21
-56.0
  0
LINE
  8
0
  6
CONTINUOUS
 62
     4
 10
3203.0
 20
-136.0
 11
2411.0
 21
-136.0
  0
TEXT
  8
0
  6
CONTINUOUS
 62
     4
 10
130.999994954
 20
135.99999159
 30
1.599999664
 40
15.999996636
  1
ＰＡＲＴＳ　ＬＩＳＴ
 50
0.0
 41
0.6
 51
0.0
  7
KANJI27
  0
TEXT
  8
0
  6
CONTINUOUS
 62
     4
 10
490.999919262
 20
135.99999159
 30
1.599999664
 40
15.999996636
  1
Ｎ０．
 50
0.0
 41
0.6
 51
0.0
  7
KANJI27
  0
TEXT
  8
0
  6
CONTINUOUS
 62
     4
 10
130.999994954
 20
111.999996636
 30
1.919999596
 40
19.199995963
  1
部品表
 50
0.0
 41
0.9
 51
0.0
  7
KANJI28
  0
TEXT
  8
0
  6
CONTINUOUS
 62
     4
 10
490.999919262
 20
111.999996636
 30
1.919999596
 40
19.199995963
  1
項番
 50
0.0
 41
0.9
 51
0.0
  7
KANJI28
  0
TEXT
  8
0
  6
CONTINUOUS
 62
     4
 10
2325.9334008
 20
2254.9333328
 30
2.07999984
 40
20.7999984
  1
ＩＳＯ
 50
0.0
 41
0.9
 51
0.0
  7
KANJI29
  0
TEXT
  8
0
  6
CONTINUOUS
 62
     4
 10
2388.333396
 20
2254.9333328
 30
1.38666656
 40
13.8666656
  1
ＭＥＴＲＩＣ　ＳＣＲＥＷ　ＴＨＲＥＡＤ
 50
0.0
 41
0.75
 51
0.0
  7
KANJI30
  0
TEXT
  8
0
  6
CONTINUOUS
 62
     4
 10
2623.72004456
 20
2254.9333328
 30
1.38666656
 40
13.8666656
  1
ＩＳＯ
 50
0.0
 41
0.75
 51
0.0
  7
KANJI30
  0
TEXT
  8
0
  6
CONTINUOUS
 62
     4
 10
2821.32002936
 20
2254.9333328
 30
2.07999984
 40
20.7999984
  1
３
 50
0.0
 41
0.75
 51
0.0
  7
KANJI31
  0
TEXT
  8
0
  6
CONTINUOUS
 62
     4
 10
2838.65336136
 20
2254.9333328
 30
1.38666656
 40
13.8666656
  1
ＲＤ　ＡＮＧＬＥ　ＰＲＯＪＥＣＴＩＯＮ　第３角法
 50
0.0
 41
0.75
 51
0.0
  7
KANJI30
  0
TEXT
  8
0
  6
CONTINUOUS
 62
     4
 10
2661.85337496
 20
2254.9333328
 30
1.247999904
 40
12.47999904
  1
メートルネジ使用
 50
0.0
 41
0.75
 51
0.0
  7
KANJI32
  0
LINE
  8
0
  6
CONTINUOUS
 62
     4
 10
2197.666744
 20
435.7333072
 11
2197.666744
 21
546.666632
  0
LINE
  8
0
  6
CONTINUOUS
 62
     4
 10
2128.333416
 20
491.1999696
 11
2128.333416
 21
546.666632
  0
TEXT
  8
0
  6
CONTINUOUS
 62
     4
 10
2142.2000816
 20
245.0666552
 30
1.38666656
 40
13.8666656
  1
ＤＲＡＷＮ
 50
0.0
 41
0.6
 51
0.0
  7
KANJI33
  0
TEXT
  8
0
  6
CONTINUOUS
 62
     4
 10
2142.2000816
 20
300.5333176
 30
1.38666656
 40
13.8666656
  1
ＤＥＳＩＧＮ
 50
0.0
 41
0.6
 51
0.0
  7
KANJI33
  0
TEXT
  8
0
  6
CONTINUOUS
 62
     4
 10
2142.2000816
 20
355.99998
 30
1.38666656
 40
13.8666656
  1
ＣＨＥＣＫ
 50
0.0
 41
0.6
 51
0.0
  7
KANJI33
  0
TEXT
  8
0
  6
CONTINUOUS
 62
     4
 10
2142.2000816
 20
411.4666424
 30
1.38666656
 40
13.8666656
  1
ＣＯＤＥ
 50
0.0
 41
0.6
 51
0.0
  7
KANJI33
  0
TEXT
  8
0
  6
CONTINUOUS
 62
     4
 10
2142.2000816
 20
466.9333048
 30
1.38666656
 40
13.8666656
  1
ＮＯ
 50
0.0
 41
0.6
 51
0.0
  7
KANJI33
  0
LINE
  8
0
  6
CONTINUOUS
 62
     4
 10
2128.333416
 20
324.7999824
 11
2381.4000632
 21
324.7999824
  0
LINE
  8
0
  6
CONTINUOUS
 62
     4
 10
2128.333416
 20
269.33332
 11
2381.4000632
 21
269.33332
  0
LINE
  8
0
  6
CONTINUOUS
 62
     4
 10
2128.333416
 20
380.2666448
 11
2381.4000632
 21
380.2666448
  0
LINE
  8
0
  6
CONTINUOUS
 62
     4
 10
2128.333416
 20
435.7333072
 11
3196.0666672
 21
435.7333072
  0
TEXT
  8
0
  6
CONTINUOUS
 62
     4
 10
2142.2000816
 20
279.7333192
 30
1.663999872
 40
16.63999872
  1
設計
 50
0.0
 41
0.6
 51
0.0
  7
KANJI34
  0
TEXT
  8
0
  6
CONTINUOUS
 62
     4
 10
2142.2000816
 20
335.1999816
 30
1.663999872
 40
16.63999872
  1
検図
 50
0.0
 41
0.6
 51
0.0
  7
KANJI34
  0
TEXT
  8
0
  6
CONTINUOUS
 62
     4
 10
2142.2000816
 20
390.666644
 30
1.663999872
 40
16.63999872
  1
分類
 50
0.0
 41
0.6
 51
0.0
  7
KANJI34
  0
TEXT
  8
0
  6
CONTINUOUS
 62
     4
 10
2142.2000816
 20
446.1333064
 30
1.663999872
 40
16.63999872
  1
番号
 50
0.0
 41
0.6
 51
0.0
  7
KANJI34
  0
TEXT
  8
0
  6
CONTINUOUS
 62
     4
 10
2336.3334
 20
466.9333048
 30
1.38666656
 40
13.8666656
  1
ＰＡＲＴＳ　　ＮＡＭＥ
 50
0.0
 41
0.6
 51
0.0
  7
KANJI33
  0
TEXT
  8
0
  6
CONTINUOUS
 62
     4
 10
2315.5334016
 20
442.66664
 30
1.663999872
 40
16.63999872
  1
　　品　　　　　　名
 50
0.0
 41
0.6
 51
0.0
  7
KANJI34
  0
LINE
  8
0
  6
CONTINUOUS
 62
     4
 10
2915.2666888
 20
435.7333072
 11
2915.2666888
 21
546.666632
  0
LINE
  8
0
  6
CONTINUOUS
 62
     4
 10
2821.666696
 20
435.7333072
 11
2821.666696
 21
546.666632
  0
LINE
  8
0
  6
CONTINUOUS
 62
     4
 10
2752.333368
 20
435.7333072
 11
2752.333368
 21
546.666632
  0
LINE
  8
0
  6
CONTINUOUS
 62
     4
 10
2613.666712
 20
435.7333072
 11
2613.666712
 21
546.666632
  0
TEXT
  8
0
  6
CONTINUOUS
 62
     4
 10
2641.4000432
 20
466.9333048
 30
1.38666656
 40
13.8666656
  1
ＭＡＴＥＲＩＡＬ
 50
0.0
 41
0.6
 51
0.0
  7
KANJI33
  0
TEXT
  8
0
  6
CONTINUOUS
 62
     4
 10
2766.2000336
 20
466.9333048
 30
1.38666656
 40
13.8666656
  1
ＱＴＹ
 50
0.0
 41
0.9
 51
0.0
  7
KANJI35
  0
TEXT
  8
0
  6
CONTINUOUS
 62
     4
 10
2832.0666952
 20
466.9333048
 30
1.38666656
 40
13.8666656
  1
ＷＴ／ＯＮＥ
 50
0.0
 41
0.8
 51
0.0
  7
KANJI36
  0
TEXT
  8
0
  6
CONTINUOUS
 62
     4
 10
3012.333348
 20
466.9333048
 30
1.38666656
 40
13.8666656
  1
ＲＥＭＡＲＫＳ
 50
0.0
 41
0.8
 51
0.0
  7
KANJI36
  0
TEXT
  8
0
  6
CONTINUOUS
 62
     4
 10
2634.4667104
 20
446.1333064
 30
1.663999872
 40
16.63999872
  1
　材　　　質
 50
0.0
 41
0.6
 51
0.0
  7
KANJI34
  0
TEXT
  8
0
  6
CONTINUOUS
 62
     4
 10
2766.2000336
 20
442.66664
 30
1.663999872
 40
16.63999872
  1
数量
 50
0.0
 41
0.9
 51
0.0
  7
KANJI37
  0
TEXT
  8
0
  6
CONTINUOUS
 62
     4
 10
2832.0666952
 20
442.66664
 30
1.663999872
 40
16.63999872
  1
重量　（Ｋｇ）
 50
0.0
 41
0.8
 51
0.0
  7
KANJI38
  0
TEXT
  8
0
  6
CONTINUOUS
 62
     4
 10
3005.4000152
 20
442.66664
 30
1.663999872
 40
16.63999872
  1
　　摘　要
 50
0.0
 41
0.8
 51
0.0
  7
KANJI38
  0
LINE
  8
0
  6
CONTINUOUS
 62
     4
 10
2401.85339496
 20
380.2666448
 11
3196.0666672
 21
380.2666448
  0
LINE
  8
0
  6
CONTINUOUS
 62
     4
 10
2381.4000632
 20
269.33332
 11
3196.0666672
 21
269.33332
  0
TEXT
  8
0
  6
CONTINUOUS
 62
     4
 10
2395.2667288
 20
245.0666552
 30
1.38666656
 40
13.8666656
  1
ＤＲＡＷＩＮＧ　ＮＯ．
 50
0.0
 41
0.8
 51
0.0
  7
KANJI36
  0
TEXT
  8
0
  6
CONTINUOUS
 62
     4
 10
2395.2667288
 20
300.5333176
 30
1.38666656
 40
13.8666656
  1
ＭＦＧ　ＮＯ．
 50
0.0
 41
0.8
 51
0.0
  7
KANJI36
  0
TEXT
  8
0
  6
CONTINUOUS
 62
     4
 10
2395.2667288
 20
355.99998
 30
1.38666656
 40
13.8666656
  1
ＴＹＰＥ
 50
0.0
 41
0.8
 51
0.0
  7
KANJI36
  0
LINE
  8
0
  6
CONTINUOUS
 62
     4
 10
2402.2000616
 20
324.7999824
 11
2721.1333704
 21
324.7999824
  0
TEXT
  8
0
  6
CONTINUOUS
 62
     4
 10
2395.2667288
 20
220.7999904
 30
1.663999872
 40
16.63999872
  1
図　面　番　号
 50
0.0
 41
0.8
 51
0.0
  7
KANJI38
  0
TEXT
  8
0
  6
CONTINUOUS
 62
     4
 10
2395.2667288
 20
276.2666528
 30
1.663999872
 40
16.63999872
  1
製番
 50
0.0
 41
0.8
 51
0.0
  7
KANJI38
  0
TEXT
  8
0
  6
CONTINUOUS
 62
     4
 10
2395.2667288
 20
331.7333152
 30
1.663999872
 40
16.63999872
  1
機種
 50
0.0
 41
0.8
 51
0.0
  7
KANJI38
  0
LINE
  8
0
  6
CONTINUOUS
 62
     4
 10
2128.333416
 20
158.3999952
 11
2381.4000632
 21
158.3999952
  0
LINE
  8
0
  6
CONTINUOUS
 62
     4
 10
2128.333416
 20
213.8666576
 11
2381.4000632
 21
213.8666576
  0
TEXT
  8
0
  6
CONTINUOUS
 62
     4
 10
2142.2000816
 20
134.1333304
 30
1.38666656
 40
13.8666656
  1
ＳＣＡＬＥ
 50
0.0
 41
0.6
 51
0.0
  7
KANJI33
  0
TEXT
  8
0
  6
CONTINUOUS
 62
     4
 10
2142.2000816
 20
189.5999928
 30
1.38666656
 40
13.8666656
  1
ＤＡＴＥ
 50
0.0
 41
0.6
 51
0.0
  7
KANJI33
  0
TEXT
  8
0
  6
CONTINUOUS
 62
     4
 10
2142.2000816
 20
113.333332
 30
1.663999872
 40
16.63999872
  1
尺度
 50
0.0
 41
0.6
 51
0.0
  7
KANJI34
  0
TEXT
  8
0
  6
CONTINUOUS
 62
     4
 10
2142.2000816
 20
168.7999944
 30
1.663999872
 40
16.63999872
  1
日付
 50
0.0
 41
0.6
 51
0.0
  7
KANJI34
  0
TEXT
  8
0
  6
CONTINUOUS
 62
     4
 10
2142.2000816
 20
224.2666568
 30
1.663999872
 40
16.63999872
  1
作図
 50
0.0
 41
0.6
 51
0.0
  7
KANJI34
  0
LINE
  8
0
  6
CONTINUOUS
 62
     4
 10
1736.6001128
 20
102.9333328
 11
1736.6001128
 21
158.3999952
  0
LINE
  8
0
  6
CONTINUOUS
 62
     4
 10
1799.000108
 20
102.9333328
 11
1799.000108
 21
158.3999952
  0
TEXT
  8
0
  6
CONTINUOUS
 62
     4
 10
1757.4001112
 20
134.1333304
 30
1.38666656
 40
13.8666656
  1
ＢＹ
 50
0.0
 41
0.6
 51
0.0
  7
KANJI33
  0
TEXT
  8
0
  6
CONTINUOUS
 62
     4
 10
1909.9334328
 20
134.1333304
 30
1.38666656
 40
13.8666656
  1
ＤＥＳＣＲＩＰＴＩＯＮ
 50
0.0
 41
0.6
 51
0.0
  7
KANJI33
  0
TEXT
  8
0
  6
CONTINUOUS
 62
     4
 10
1757.4001112
 20
113.333332
 30
1.663999872
 40
16.63999872
  1
担当
 50
0.0
 41
0.6
 51
0.0
  7
KANJI34
  0
TEXT
  8
0
  6
CONTINUOUS
 62
     4
 10
1930.7334312
 20
113.333332
 30
1.663999872
 40
16.63999872
  1
記　　　　事
 50
0.0
 41
0.6
 51
0.0
  7
KANJI34
  0
LINE
  8
0
  6
CONTINUOUS
 62
     4
 10
1610.0667892
 20
147.999996
 11
1587.5334576
 21
113.333332
  0
TEXT
  8
0
  6
CONTINUOUS
 62
     4
 10
1667.2667848
 20
134.1333304
 30
1.38666656
 40
13.8666656
  1
ＤＡＴＥ
 50
0.0
 41
0.6
 51
0.0
  7
KANJI33
  0
TEXT
  8
0
  6
CONTINUOUS
 62
     4
 10
1677.666784
 20
113.333332
 30
1.663999872
 40
16.63999872
  1
日付
 50
0.0
 41
0.6
 51
0.0
  7
KANJI34
  0
LINE
  8
0
  6
CONTINUOUS
 62
     4
 10
1587.5334576
 20
113.333332
 11
1632.6001208
 21
113.333332
  0
LINE
  8
0
  6
CONTINUOUS
 62
     4
 10
1639.5334536
 20
102.9333328
 11
1639.5334536
 21
158.3999952
  0
LINE
  8
0
  6
CONTINUOUS
 62
     4
 10
1610.0667892
 20
147.999996
 11
1632.6001208
 21
113.333332
  0
LINE
  8
0
  6
CONTINUOUS
 62
     4
 10
2381.4000632
 20
189.5999928
 11
3196.0666672
 21
189.5999928
  0
LINE
  8
0
  6
CONTINUOUS
 62
     4
 10
2381.4000632
 20
102.9333328
 11
2381.4000632
 21
435.7333072
  0
LINE
  8
0
  6
LTYPE3
 62
     4
 10
2963.8000184
 20
199.999992
 11
2963.8000184
 21
255.4666544
  0
LINE
  8
0
  6
LTYPE3
 62
     4
 10
2915.2666888
 20
199.999992
 11
2915.2666888
 21
255.4666544
  0
LINE
  8
0
  6
LTYPE3
 62
     4
 10
2866.7333592
 20
199.999992
 11
2866.7333592
 21
255.4666544
  0
LINE
  8
0
  6
LTYPE3
 62
     4
 10
2818.2000296
 20
199.999992
 11
2818.2000296
 21
255.4666544
  0
LINE
  8
0
  6
LTYPE3
 62
     4
 10
2769.6667
 20
199.999992
 11
2769.6667
 21
255.4666544
  0
LINE
  8
0
  6
LTYPE3
 62
     4
 10
2721.1333704
 20
199.999992
 11
2721.1333704
 21
255.4666544
  0
LINE
  8
0
  6
LTYPE3
 62
     4
 10
2672.6000408
 20
199.999992
 11
2672.6000408
 21
255.4666544
  0
LINE
  8
0
  6
LTYPE3
 62
     4
 10
2624.0667112
 20
199.999992
 11
2624.0667112
 21
255.4666544
  0
LINE
  8
0
  6
LTYPE3
 62
     4
 10
2624.0667112
 20
255.4666544
 11
2963.8000184
 21
255.4666544
  0
LINE
  8
0
  6
LTYPE3
 62
     4
 10
2624.0667112
 20
199.999992
 11
2963.8000184
 21
199.999992
  0
LINE
  8
0
  6
CONTINUOUS
 62
     4
 10
2991.5333496
 20
229.4666564
 11
3005.4000152
 21
229.4666564
  0
LINE
  8
0
  6
CONTINUOUS
 62
     4
 10
3078.2000096
 20
208.666658
 11
3029.66668
 21
208.666658
  0
LINE
  8
0
  6
CONTINUOUS
 62
     4
 10
3029.66668
 20
208.666658
 11
3053.9333448
 21
250.2666548
  0
LINE
  8
0
  6
CONTINUOUS
 62
     4
 10
3053.9333448
 20
250.2666548
 11
3078.2000096
 21
208.666658
  0
LINE
  8
0
  6
CONTINUOUS
 62
     4
 10
3196.0666672
 20
491.1999696
 11
3196.0666672
 21
546.666632
  0
LINE
  8
0
  6
CONTINUOUS
 62
     4
 10
2128.333416
 20
546.666632
 11
3196.0666672
 21
546.666632
  0
LINE
  8
0
  6
CONTINUOUS
 62
     4
 10
3209.9333328
 20
102.9333328
 11
3293.1333264
 21
102.9333328
  0
LINE
  8
0
  6
CONTINUOUS
 62
     4
 10
3209.9333328
 20
144.5333296
 11
3293.1333264
 21
144.5333296
  0
LINE
  8
0
  6
CONTINUOUS
 62
     4
 10
3209.9333328
 20
186.1333264
 11
3293.1333264
 21
186.1333264
  0
LINE
  8
0
  6
CONTINUOUS
 62
     4
 10
3209.9333328
 20
227.7333232
 11
3293.1333264
 21
227.7333232
  0
LINE
  8
0
  6
CONTINUOUS
 62
     4
 10
3209.9333328
 20
269.33332
 11
3293.1333264
 21
269.33332
  0
LINE
  8
0
  6
CONTINUOUS
 62
     4
 10
3209.9333328
 20
310.9333168
 11
3293.1333264
 21
310.9333168
  0
LINE
  8
0
  6
CONTINUOUS
 62
     4
 10
3209.9333328
 20
352.5333136
 11
3293.1333264
 21
352.5333136
  0
LINE
  8
0
  6
CONTINUOUS
 62
     4
 10
3209.9333328
 20
394.1333104
 11
3293.1333264
 21
394.1333104
  0
LINE
  8
0
  6
CONTINUOUS
 62
     4
 10
3209.9333328
 20
435.7333072
 11
3293.1333264
 21
435.7333072
  0
LINE
  8
0
  6
CONTINUOUS
 62
     4
 10
3209.9333328
 20
477.333304
 11
3293.1333264
 21
477.333304
  0
LINE
  8
0
  6
CONTINUOUS
 62
     4
 10
3293.1333264
 20
102.9333328
 11
3293.1333264
 21
477.333304
  0
LINE
  8
0
  6
CONTINUOUS
 62
     4
 10
3251.5333296
 20
102.9333328
 11
3251.5333296
 21
435.7333072
  0
TEXT
  8
0
  6
CONTINUOUS
 62
     4
 10
3224.14666504
 20
115.0666652
 30
2.07999984
 40
20.7999984
  1
計
 50
0.0
 41
0.75
 51
0.0
  7
KANJI39
  0
TEXT
  8
0
  6
CONTINUOUS
 62
     4
 10
3224.14666504
 20
198.95999208
 30
2.07999984
 40
20.7999984
  1
設
 50
0.0
 41
0.75
 51
0.0
  7
KANJI39
  0
TEXT
  8
0
  6
CONTINUOUS
 62
     4
 10
3224.14666504
 20
239.8666556
 30
2.07999984
 40
20.7999984
  1
管
 50
0.0
 41
0.75
 51
0.0
  7
KANJI39
  0
TEXT
  8
0
  6
CONTINUOUS
 62
     4
 10
3224.14666504
 20
281.4666524
 30
2.07999984
 40
20.7999984
  1
製
 50
0.0
 41
0.75
 51
0.0
  7
KANJI39
  0
TEXT
  8
0
  6
CONTINUOUS
 62
     4
 10
3224.14666504
 20
323.0666492
 30
2.07999984
 40
20.7999984
  1
資
 50
0.0
 41
0.75
 51
0.0
  7
KANJI39
  0
TEXT
  8
0
  6
CONTINUOUS
 62
     4
 10
3224.14666504
 20
364.666646
 30
2.07999984
 40
20.7999984
  1
営
 50
0.0
 41
0.75
 51
0.0
  7
KANJI39
  0
TEXT
  8
0
  6
CONTINUOUS
 62
     4
 10
3224.14666504
 20
406.2666428
 30
2.07999984
 40
20.7999984
  1
客
 50
0.0
 41
0.75
 51
0.0
  7
KANJI39
  0
TEXT
  8
0
  6
CONTINUOUS
 62
     4
 10
3223.7999984
 20
449.5999728
 30
2.07999984
 40
20.7999984
  1
出　図
 50
0.0
 41
0.75
 51
0.0
  7
KANJI39
  0
LINE
  8
0
  6
CONTINUOUS
 62
     4
 10
3209.9333328
 20
102.9333328
 11
3209.9333328
 21
477.333304
  0
TEXT
  8
0
  6
CONTINUOUS
 62
     4
 10
3085.1333424
 20
26.666672
 30
6.9333328
 40
69.333328
  1
／
 50
0.0
 41
0.9
 51
0.0
  7
KANJI40
  0
TEXT
  8
0
  6
CONTINUOUS
 62
     4
 10
2741.9333688
 20
355.99998
 30
1.38666656
 40
13.8666656
  1
ＴＩＴＬＥ
 50
0.0
 41
0.8
 51
0.0
  7
KANJI36
  0
TEXT
  8
0
  6
CONTINUOUS
 62
     4
 10
2741.9333688
 20
331.7333152
 30
1.663999872
 40
16.63999872
  1
名称
 50
0.0
 41
0.8
 51
0.0
  7
KANJI38
  0
LINE
  8
0
  6
CONTINUOUS
 62
     6
 10
107.0
 20
96.0
 11
107.0
 21
2248.0
  0
LINE
  8
0
  6
CONTINUOUS
 62
     6
 10
107.0
 20
2248.0
 11
3203.0
 21
2248.0
  0
LINE
  8
0
  6
CONTINUOUS
 62
     6
 10
3203.0
 20
2248.0
 11
3203.0
 21
96.0
  0
LINE
  8
0
  6
CONTINUOUS
 62
     6
 10
3203.0
 20
96.0
 11
107.0
 21
96.0
  0
LINE
  8
0
  6
CONTINUOUS
 62
     6
 10
634.999888985
 20
103.999998318
 11
634.999888985
 21
215.999974769
  0
LINE
  8
0
  6
CONTINUOUS
 62
     6
 10
114.999998318
 20
215.999974769
 11
634.999888985
 21
215.999974769
  0
LINE
  8
0
  6
CONTINUOUS
 62
     6
 10
114.999998318
 20
103.999998318
 11
634.999888985
 21
103.999998318
  0
LINE
  8
0
  6
CONTINUOUS
 62
     6
 10
114.999998318
 20
103.999998318
 11
114.999998318
 21
215.999974769
  0
LINE
  8
0
  6
CONTINUOUS
 62
     6
 10
474.999922626
 20
103.999998318
 11
474.999922626
 21
215.999974769
  0
LINE
  8
0
  6
CONTINUOUS
 62
     6
 10
114.999998318
 20
159.999986544
 11
634.999888985
 21
159.999986544
  0
TEXT
  8
0
  6
CONTINUOUS
 62
     3
 10
130.999994954
 20
175.999983179
 30
2.399999495
 40
23.999994954
  1
ＰＬ
 50
0.0
 41
0.9
 51
0.0
  7
KANJI41
  0
LINE
  8
0
  6
CONTINUOUS
 62
     6
 10
1580.6001248
 20
102.9333328
 11
1580.6001248
 21
158.3999952
  0
LINE
  8
0
  6
CONTINUOUS
 62
     6
 10
1580.6001248
 20
158.3999952
 11
2128.333416
 21
158.3999952
  0
LINE
  8
0
  6
CONTINUOUS
 62
     6
 10
1580.6001248
 20
102.9333328
 11
3196.0666672
 21
102.9333328
  0
LINE
  8
0
  6
CONTINUOUS
 62
     6
 10
2128.333416
 20
102.9333328
 11
2128.333416
 21
491.1999696
  0
LINE
  8
0
  6
CONTINUOUS
 62
     6
 10
2673.20670742
 20
139.67999664
 11
2650.32670918
 21
139.67999664
  0
LINE
  8
0
  6
CONTINUOUS
 62
     6
 10
2673.20670742
 20
143.83999632
 11
2650.32670918
 21
143.83999632
  0
LINE
  8
0
  6
CONTINUOUS
 62
     6
 10
2673.20670742
 20
139.67999664
 11
2696.08670566
 21
139.67999664
  0
LINE
  8
0
  6
CONTINUOUS
 62
     6
 10
2673.20670742
 20
143.83999632
 11
2696.08670566
 21
143.83999632
  0
LINE
  8
0
  6
CONTINUOUS
 62
     6
 10
2696.08670566
 20
143.83999632
 11
2696.08670566
 21
139.67999664
  0
ARC
  8
0
  6
CONTINUOUS
 62
     6
 10
2701.28670526
 20
141.75999648
 40
20.7999984
 50
185.739170477
 51
90.0
  0
ARC
  8
0
  6
CONTINUOUS
 62
     6
 10
2701.28670526
 20
141.75999648
 40
24.95999808
 50
184.780191847
 51
90.0
  0
LINE
  8
0
  6
CONTINUOUS
 62
     6
 10
2650.32670918
 20
139.67999664
 11
2650.32670918
 21
143.83999632
  0
TEXT
  8
0
  6
CONTINUOUS
 62
     6
 10
2388.333396
 20
134.1333304
 30
0.0
 40
24.2666648
  1
ＵＮＩＴＥＣ　ＩＮＤＵＳＴＲＹ　ＣＯ．，ＬＴＤ．
 50
0.0
 41
0.42031746
 51
0.0
  7
KANJI42
  0
LINE
  8
0
  6
CONTINUOUS
 62
     6
 10
2670.08670766
 20
166.71999456
 11
2645.12670958
 21
166.71999456
  0
LINE
  8
0
  6
CONTINUOUS
 62
     6
 10
2676.32670718
 20
166.71999456
 11
2701.28670526
 21
166.71999456
  0
ARC
  8
0
  6
CONTINUOUS
 62
     6
 10
2645.12670958
 20
141.75999648
 40
20.7999984
 50
90.0
 51
354.260829523
  0
ARC
  8
0
  6
CONTINUOUS
 62
     6
 10
2645.12670958
 20
141.75999648
 40
24.95999808
 50
90.0
 51
355.219808153
  0
LINE
  8
0
  6
CONTINUOUS
 62
     6
 10
2670.08670766
 20
166.71999456
 11
2670.08670766
 21
162.55999488
  0
LINE
  8
0
  6
CONTINUOUS
 62
     6
 10
2645.12670958
 20
162.55999488
 11
2670.08670766
 21
162.55999488
  0
LINE
  8
0
  6
CONTINUOUS
 62
     6
 10
2676.32670718
 20
166.71999456
 11
2676.32670718
 21
162.55999488
  0
LINE
  8
0
  6
CONTINUOUS
 62
     6
 10
2701.28670526
 20
162.55999488
 11
2676.32670718
 21
162.55999488
  0
TEXT
  8
0
  6
CONTINUOUS
 62
     6
 10
2728.67336982
 20
125.11999776
 30
4.15999968
 40
41.5999968
  1
ユニテック工業株式会社
 50
0.0
 41
0.9
 51
0.0
  7
KANJI43
  0
LINE
  8
0
  6
CONTINUOUS
 62
     6
 10
2128.333416
 20
491.1999696
 11
3196.0666672
 21
491.1999696
  0
LINE
  8
0
  6
CONTINUOUS
 62
     6
 10
3196.0666672
 20
102.9333328
 11
3196.0666672
 21
491.1999696
  0
TEXT
  8
0
  6
CONTINUOUS
 62
     3
 10
2247.0
 20
112.0
 30
2.4
 40
36.0
  1
１／８
 50
0.0
 41
0.666666667
 51
0.0
  7
KANJI44
  0
TEXT
  8
0
  6
CONTINUOUS
 62
     3
 10
2573.5
 20
275.0
 30
2.4
 40
32.0
  1
Ｓ
 50
0.0
 41
0.75
 51
0.0
  7
KANJI45
  0
CIRCLE
  8
0
  6
CONTINUOUS
 62
     3
 10
2584.5
 20
291.5
 40
21.708293346
  0
TEXT
  8
0
  6
CONTINUOUS
 62
     3
 10
2865.0
 20
280.0
 30
20.0
 40
40.0
  1
外形寸法図
 50
0.0
 41
1.0
 51
0.0
  7
KANJI46
  0
TEXT
  8
0
  6
CONTINUOUS
 62
     3
 10
2817.0
 20
328.0
 30
5.714285714
 40
40.0
  1
マイティシリンダ
 50
0.0
 41
1.0
 51
0.0
  7
KANJI47
  0
TEXT
  8
0
  6
CONTINUOUS
 62
     2
 10
2971.8
 20
1491.2
 30
2.4
 40
24.0
  1
　　　／　
 50
0.0
 41
0.9
 51
0.0
  7
KANJI0
  0
TEXT
  8
0
  6
CONTINUOUS
 62
     2
 10
2965.0
 20
1385.0
 30
2.4
 40
24.0
  1
　　　／
 50
0.0
 41
0.9
 51
0.0
  7
KANJI0
  0
TEXT
  8
0
  6
CONTINUOUS
 62
     2
 10
2940.8
 20
1548.2
 30
2.4
 40
24.0
  1
１．５
 50
0.0
 41
0.9
 51
0.0
  7
KANJI0
  0
TEXT
  8
0
  6
CONTINUOUS
 62
     2
 10
1143.275240468
 20
1967.133058
 30
2.79993
 40
27.9993
  1
注意：サーマルリレー等の選定は、上記の値を参照下さい。
 50
0.0
 41
0.9
 51
0.0
  7
KANJI48
  0
LINE
  8
0
  6
CONTINUOUS
 62
     2
 10
1127.275640468
 20
1959.133258
 11
1879.256840468
 21
1959.133258
  0
LINE
  8
0
  6
CONTINUOUS
 62
     1
 10
1913.85602
 20
2220.793375
 11
1913.85602
 21
2012.798575
  0
LINE
  8
0
  6
CONTINUOUS
 62
     2
 10
1793.85902
 20
2220.793375
 11
1793.85902
 21
2012.798575
  0
LINE
  8
0
  6
CONTINUOUS
 62
     2
 10
1673.86202
 20
2220.793375
 11
1673.86202
 21
2012.798575
  0
LINE
  8
0
  6
CONTINUOUS
 62
     1
 10
1513.86602
 20
2220.793375
 11
1513.86602
 21
2012.798575
  0
LINE
  8
0
  6
CONTINUOUS
 62
     1
 10
1513.86602
 20
2220.793375
 11
1913.85602
 21
2220.793375
  0
LINE
  8
0
  6
CONTINUOUS
 62
     1
 10
1513.86602
 20
2156.794975
 11
1913.85602
 21
2156.794975
  0
LINE
  8
0
  6
CONTINUOUS
 62
     2
 10
1513.86602
 20
2108.796175
 11
1913.85602
 21
2108.796175
  0
LINE
  8
0
  6
CONTINUOUS
 62
     2
 10
1513.86602
 20
2060.797375
 11
1913.85602
 21
2060.797375
  0
LINE
  8
0
  6
CONTINUOUS
 62
     1
 10
1513.86602
 20
2012.798575
 11
1913.85602
 21
2012.798575
  0
TEXT
  8
0
  6
CONTINUOUS
 62
     2
 10
1809.85862
 20
2192.794075
 30
2.39994
 40
23.9994
  1
起動電流
 50
0.0
 41
0.9
 51
0.0
  7
KANJI49
  0
TEXT
  8
0
  6
CONTINUOUS
 62
     2
 10
1809.85862
 20
2164.794775
 30
2.39994
 40
23.9994
  1
　　　Ａ
 50
0.0
 41
0.9
 51
0.0
  7
KANJI49
  0
TEXT
  8
0
  6
CONTINUOUS
 62
     2
 10
1689.86162
 20
2192.794075
 30
2.39994
 40
23.9994
  1
定格電流
 50
0.0
 41
0.9
 51
0.0
  7
KANJI49
  0
TEXT
  8
0
  6
CONTINUOUS
 62
     2
 10
1689.86162
 20
2164.794775
 30
2.39994
 40
23.9994
  1
　　　Ａ
 50
0.0
 41
0.9
 51
0.0
  7
KANJI49
  0
TEXT
  8
0
  6
CONTINUOUS
 62
     2
 10
1527.46568
 20
2072.797075
 30
2.39994
 40
23.9994
  1
２００／６０
 50
0.0
 41
0.9
 51
0.0
  7
KANJI49
  0
TEXT
  8
0
  6
CONTINUOUS
 62
     2
 10
1527.46568
 20
2192.794075
 30
2.39994
 40
23.9994
  1
電圧／周波数
 50
0.0
 41
0.9
 51
0.0
  7
KANJI49
  0
TEXT
  8
0
  6
CONTINUOUS
 62
     2
 10
1527.46568
 20
2164.794775
 30
2.39994
 40
23.9994
  1
　Ｖ／Ｈｚ
 50
0.0
 41
0.9
 51
0.0
  7
KANJI49
  0
TEXT
  8
0
  6
CONTINUOUS
 62
     2
 10
1527.46568
 20
2120.795875
 30
2.39994
 40
23.9994
  1
２００／５０
 50
0.0
 41
0.9
 51
0.0
  7
KANJI49
  0
TEXT
  8
0
  6
CONTINUOUS
 62
     2
 10
1527.46568
 20
2024.798275
 30
2.39994
 40
23.9994
  1
２２０／６０
 50
0.0
 41
0.9
 51
0.0
  7
KANJI49
  0
LINE
  8
0
  6
CONTINUOUS
 62
     1
 10
1433.86802
 20
2220.793375
 11
1433.86802
 21
2012.798575
  0
LINE
  8
0
  6
CONTINUOUS
 62
     2
 10
1313.87102
 20
2220.793375
 11
1313.87102
 21
2012.798575
  0
LINE
  8
0
  6
CONTINUOUS
 62
     2
 10
1193.87402
 20
2220.793375
 11
1193.87402
 21
2012.798575
  0
LINE
  8
0
  6
CONTINUOUS
 62
     1
 10
1033.87802
 20
2220.793375
 11
1033.87802
 21
2012.798575
  0
LINE
  8
0
  6
CONTINUOUS
 62
     1
 10
1033.87802
 20
2220.793375
 11
1433.86802
 21
2220.793375
  0
LINE
  8
0
  6
CONTINUOUS
 62
     1
 10
1033.87802
 20
2156.794975
 11
1433.86802
 21
2156.794975
  0
LINE
  8
0
  6
CONTINUOUS
 62
     2
 10
1033.87802
 20
2108.796175
 11
1433.86802
 21
2108.796175
  0
LINE
  8
0
  6
CONTINUOUS
 62
     2
 10
1033.87802
 20
2060.797375
 11
1433.86802
 21
2060.797375
  0
LINE
  8
0
  6
CONTINUOUS
 62
     1
 10
1033.87802
 20
2012.798575
 11
1433.86802
 21
2012.798575
  0
TEXT
  8
0
  6
CONTINUOUS
 62
     2
 10
1329.87062
 20
2192.794075
 30
2.39994
 40
23.9994
  1
起動電流
 50
0.0
 41
0.9
 51
0.0
  7
KANJI49
  0
TEXT
  8
0
  6
CONTINUOUS
 62
     2
 10
1329.87062
 20
2164.794775
 30
2.39994
 40
23.9994
  1
　　　Ａ
 50
0.0
 41
0.9
 51
0.0
  7
KANJI49
  0
TEXT
  8
0
  6
CONTINUOUS
 62
     2
 10
1209.87362
 20
2192.794075
 30
2.39994
 40
23.9994
  1
定格電流
 50
0.0
 41
0.9
 51
0.0
  7
KANJI49
  0
TEXT
  8
0
  6
CONTINUOUS
 62
     2
 10
1209.87362
 20
2164.794775
 30
2.39994
 40
23.9994
  1
　　　Ａ
 50
0.0
 41
0.9
 51
0.0
  7
KANJI49
  0
TEXT
  8
0
  6
CONTINUOUS
 62
     2
 10
1047.47768
 20
2192.794075
 30
2.39994
 40
23.9994
  1
電圧／周波数
 50
0.0
 41
0.9
 51
0.0
  7
KANJI49
  0
TEXT
  8
0
  6
CONTINUOUS
 62
     2
 10
1047.47768
 20
2164.794775
 30
2.39994
 40
23.9994
  1
　Ｖ／Ｈｚ
 50
0.0
 41
0.9
 51
0.0
  7
KANJI49
  0
TEXT
  8
0
  6
CONTINUOUS
 62
     2
 10
1047.47768
 20
2120.795875
 30
2.39994
 40
23.9994
  1
４００／５０
 50
0.0
 41
0.9
 51
0.0
  7
KANJI49
  0
TEXT
  8
0
  6
CONTINUOUS
 62
     2
 10
1047.47768
 20
2072.797075
 30
2.39994
 40
23.9994
  1
４００／６０
 50
0.0
 41
0.9
 51
0.0
  7
KANJI49
  0
TEXT
  8
0
  6
CONTINUOUS
 62
     2
 10
1047.47768
 20
2024.798275
 30
2.39994
 40
23.9994
  1
４４０／６０
 50
0.0
 41
0.9
 51
0.0
  7
KANJI49
  0
TEXT
  8
0
  6
CONTINUOUS
 62
     2
 10
1209.87362
 20
2120.795875
 30
2.39994
 40
23.9994
  1
　３．４
 50
0.0
 41
0.9
 51
0.0
  7
KANJI49
  0
TEXT
  8
0
  6
CONTINUOUS
 62
     2
 10
1209.87362
 20
2072.797075
 30
2.39994
 40
23.9994
  1
　３．２
 50
0.0
 41
0.9
 51
0.0
  7
KANJI49
  0
TEXT
  8
0
  6
CONTINUOUS
 62
     2
 10
1209.87362
 20
2024.798275
 30
2.39994
 40
23.9994
  1
　３．０
 50
0.0
 41
0.9
 51
0.0
  7
KANJI49
  0
TEXT
  8
0
  6
CONTINUOUS
 62
     2
 10
1329.87062
 20
2120.795875
 30
2.39994
 40
23.9994
  1
２２．０
 50
0.0
 41
0.9
 51
0.0
  7
KANJI49
  0
TEXT
  8
0
  6
CONTINUOUS
 62
     2
 10
1329.87062
 20
2072.797075
 30
2.39994
 40
23.9994
  1
１９．０
 50
0.0
 41
0.9
 51
0.0
  7
KANJI49
  0
TEXT
  8
0
  6
CONTINUOUS
 62
     2
 10
1329.87062
 20
2024.798275
 30
2.39994
 40
23.9994
  1
２０．９
 50
0.0
 41
0.9
 51
0.0
  7
KANJI49
  0
TEXT
  8
0
  6
CONTINUOUS
 62
     2
 10
1689.86162
 20
2120.795875
 30
2.39994
 40
23.9994
  1
　６．８
 50
0.0
 41
0.9
 51
0.0
  7
KANJI49
  0
TEXT
  8
0
  6
CONTINUOUS
 62
     2
 10
1689.86162
 20
2072.797075
 30
2.39994
 40
23.9994
  1
　６．３
 50
0.0
 41
0.9
 51
0.0
  7
KANJI49
  0
TEXT
  8
0
  6
CONTINUOUS
 62
     2
 10
1689.86162
 20
2024.798275
 30
2.39994
 40
23.9994
  1
　６．０
 50
0.0
 41
0.9
 51
0.0
  7
KANJI49
  0
TEXT
  8
0
  6
CONTINUOUS
 62
     2
 10
1809.85862
 20
2120.795875
 30
2.39994
 40
23.9994
  1
４４．０
 50
0.0
 41
0.9
 51
0.0
  7
KANJI49
  0
TEXT
  8
0
  6
CONTINUOUS
 62
     2
 10
1808.992019532
 20
2069.130492
 30
2.39994
 40
23.9994
  1
３８．０
 50
0.0
 41
0.9
 51
0.0
  7
KANJI49
  0
TEXT
  8
0
  6
CONTINUOUS
 62
     2
 10
1810.991969532
 20
2023.798292
 30
2.39994
 40
23.9994
  1
４１．８
 50
0.0
 41
0.9
 51
0.0
  7
KANJI49
  0
LINE
  8
0
  6
CONTINUOUS
 62
     1
 10
550.0
 20
1431.0
 11
550.0
 21
1631.0
  0
LINE
  8
0
  6
CONTINUOUS
 62
     1
 10
733.0
 20
1429.944375069
 11
723.0
 21
1419.944375069
  0
LINE
  8
0
  6
CONTINUOUS
 62
     1
 10
723.0
 20
1361.305778818
 11
723.0
 21
1419.944375069
  0
ARC
  8
0
  6
CONTINUOUS
 62
     1
 10
721.0
 20
1430.466558854
 40
3.0
 50
90.0
 51
180.0
  0
LINE
  8
0
  6
CONTINUOUS
 62
     1
 10
733.0
 20
1429.944375069
 11
831.0
 21
1429.944375069
  0
LINE
  8
0
  6
CONTINUOUS
 62
     1
 10
721.0
 20
1433.466558854
 11
843.0
 21
1433.466558854
  0
LINE
  8
0
  6
CONTINUOUS
 62
     1
 10
718.0
 20
1300.0
 11
718.0
 21
1430.0
  0
LINE
  8
0
  6
CONTINUOUS
 62
     1
 10
841.0
 20
1361.305778818
 11
841.0
 21
1419.944375069
  0
LINE
  8
0
  6
CONTINUOUS
 62
     1
 10
846.0
 20
1318.657620342
 11
846.0
 21
1430.466558854
  0
LINE
  8
0
  6
CONTINUOUS
 62
     1
 10
841.0
 20
1419.944375069
 11
831.0
 21
1429.944375069
  0
ARC
  8
0
  6
CONTINUOUS
 62
     1
 10
843.0
 20
1430.466558854
 40
3.0
 50
0.0
 51
90.0
  0
LINE
  8
0
  6
CONTINUOUS
 62
     1
 10
1437.999190206
 20
1301.5
 11
1437.999190206
 21
1310.0
  0
CIRCLE
  8
0
  6
CONTINUOUS
 62
     1
 10
1507.999190206
 20
1300.0
 40
17.5
  0
LINE
  8
0
  6
CONTINUOUS
 62
     1
 10
859.0
 20
1230.0
 11
850.0
 21
1230.0
  0
LINE
  8
0
  6
CONTINUOUS
 62
     1
 10
859.0
 20
1370.0
 11
859.0
 21
1230.0
  0
LINE
  8
0
  6
CONTINUOUS
 62
     1
 10
859.0
 20
1370.0
 11
851.0
 21
1370.0
  0
LINE
  8
0
  6
CONTINUOUS
 62
     1
 10
874.0
 20
1367.5
 11
874.0
 21
1232.5
  0
LINE
  8
0
  6
CONTINUOUS
 62
     1
 10
874.0
 20
1367.5
 11
859.0
 21
1367.5
  0
LINE
  8
0
  6
CONTINUOUS
 62
     1
 10
874.0
 20
1232.5
 11
859.0
 21
1232.5
  0
LINE
  8
0
  6
CONTINUOUS
 62
     1
 10
853.0
 20
1212.5
 11
853.0
 21
1201.55046
  0
LINE
  8
0
  6
CONTINUOUS
 62
     1
 10
853.0
 20
1212.5
 11
853.0
 21
1223.44954
  0
LINE
  8
0
  6
CONTINUOUS
 62
     1
 10
850.0
 20
1201.75
 11
853.0
 21
1201.75
  0
LINE
  8
0
  6
CONTINUOUS
 62
     1
 10
850.0
 20
1212.5
 11
853.000254073
 21
1209.499745927
  0
LINE
  8
0
  6
CONTINUOUS
 62
     1
 10
853.000254073
 20
1212.5
 11
850.0
 21
1215.500254073
  0
LINE
  8
0
  6
CONTINUOUS
 62
     1
 10
850.0
 20
1223.25
 11
853.0
 21
1223.25
  0
LINE
  8
0
  6
CONTINUOUS
 62
     1
 10
853.0
 20
1201.75
 11
864.3
 21
1201.75
  0
LINE
  8
0
  6
CONTINUOUS
 62
     1
 10
864.3
 20
1212.5
 11
864.3
 21
1201.75
  0
LINE
  8
0
  6
CONTINUOUS
 62
     1
 10
864.3
 20
1201.75
 11
865.0
 21
1202.962435565
  0
LINE
  8
0
  6
CONTINUOUS
 62
     1
 10
865.0
 20
1212.5
 11
865.0
 21
1202.962435565
  0
LINE
  8
0
  6
CONTINUOUS
 62
     1
 10
853.0
 20
1223.25
 11
864.3
 21
1223.25
  0
LINE
  8
0
  6
CONTINUOUS
 62
     1
 10
864.3
 20
1212.5
 11
864.3
 21
1223.25
  0
LINE
  8
0
  6
CONTINUOUS
 62
     1
 10
864.3
 20
1223.25
 11
865.0
 21
1222.037564435
  0
LINE
  8
0
  6
CONTINUOUS
 62
     1
 10
865.0
 20
1212.5
 11
865.0
 21
1222.037564435
  0
LINE
  8
0
  6
LTYPE1
 62
     2
 10
878.7
 20
1212.5
 11
831.0
 21
1212.5
  0
LINE
  8
0
  6
CONTINUOUS
 62
     1
 10
854.0
 20
1387.5
 11
854.0
 21
1376.55046
  0
LINE
  8
0
  6
CONTINUOUS
 62
     1
 10
854.0
 20
1387.5
 11
854.0
 21
1398.44954
  0
LINE
  8
0
  6
CONTINUOUS
 62
     1
 10
851.0
 20
1376.75
 11
854.0
 21
1376.75
  0
LINE
  8
0
  6
CONTINUOUS
 62
     1
 10
851.0
 20
1387.5
 11
854.000254073
 21
1384.499745927
  0
LINE
  8
0
  6
CONTINUOUS
 62
     1
 10
854.000254073
 20
1387.5
 11
851.0
 21
1390.500254073
  0
LINE
  8
0
  6
CONTINUOUS
 62
     1
 10
851.0
 20
1398.25
 11
854.0
 21
1398.25
  0
LINE
  8
0
  6
CONTINUOUS
 62
     1
 10
854.0
 20
1376.75
 11
865.3
 21
1376.75
  0
LINE
  8
0
  6
CONTINUOUS
 62
     1
 10
865.3
 20
1387.5
 11
865.3
 21
1376.75
  0
LINE
  8
0
  6
CONTINUOUS
 62
     1
 10
865.3
 20
1376.75
 11
866.0
 21
1377.962435565
  0
LINE
  8
0
  6
CONTINUOUS
 62
     1
 10
866.0
 20
1387.5
 11
866.0
 21
1377.962435565
  0
LINE
  8
0
  6
CONTINUOUS
 62
     1
 10
854.0
 20
1398.25
 11
865.3
 21
1398.25
  0
LINE
  8
0
  6
CONTINUOUS
 62
     1
 10
865.3
 20
1387.5
 11
865.3
 21
1398.25
  0
LINE
  8
0
  6
CONTINUOUS
 62
     1
 10
865.3
 20
1398.25
 11
866.0
 21
1397.037564435
  0
LINE
  8
0
  6
CONTINUOUS
 62
     1
 10
866.0
 20
1387.5
 11
866.0
 21
1397.037564435
  0
LINE
  8
0
  6
LTYPE1
 62
     2
 10
879.7
 20
1387.5
 11
846.0
 21
1387.5
  0
LINE
  8
0
  6
CONTINUOUS
 62
     1
 10
550.0
 20
1719.0
 11
500.0
 21
1719.0
  0
CIRCLE
  8
0
  6
CONTINUOUS
 62
     1
 10
520.0
 20
1749.0
 40
17.5
  0
LINE
  8
0
  6
CONTINUOUS
 62
     1
 10
520.0
 20
1719.0
 11
535.0
 21
1719.0
  0
LINE
  8
0
  6
CONTINUOUS
 62
     1
 10
520.0
 20
1730.0
 11
533.751706485
 21
1730.0
  0
LINE
  8
0
  6
CONTINUOUS
 62
     1
 10
533.751706485
 20
1730.0
 11
520.0
 21
1731.5
  0
LINE
  8
0
  6
CONTINUOUS
 62
     1
 10
534.689625645
 20
1721.735028154
 11
533.751706485
 21
1730.0
  0
LINE
  8
0
  6
CONTINUOUS
 62
     1
 10
535.0
 20
1719.0
 11
534.689625645
 21
1721.735028154
  0
ARC
  8
0
  6
CONTINUOUS
 62
     1
 10
536.297773229
 20
1721.927087564
 40
1.6
 50
120.593314844
 51
186.768821444
  0
ARC
  8
0
  6
CONTINUOUS
 62
     1
 10
520.0
 20
1749.0
 40
30.0
 50
301.047754584
 51
0.0
  0
LINE
  8
0
  6
CONTINUOUS
 62
     1
 10
520.0
 20
1719.0
 11
505.0
 21
1719.0
  0
LINE
  8
0
  6
CONTINUOUS
 62
     1
 10
520.0
 20
1730.0
 11
506.248293515
 21
1730.0
  0
LINE
  8
0
  6
CONTINUOUS
 62
     1
 10
506.248293515
 20
1730.0
 11
520.0
 21
1731.5
  0
LINE
  8
0
  6
CONTINUOUS
 62
     1
 10
505.310374355
 20
1721.735028154
 11
506.248293515
 21
1730.0
  0
LINE
  8
0
  6
CONTINUOUS
 62
     1
 10
505.0
 20
1719.0
 11
505.310374355
 21
1721.735028154
  0
ARC
  8
0
  6
CONTINUOUS
 62
     1
 10
503.702226771
 20
1721.927087564
 40
1.6
 50
353.231178556
 51
59.406685156
  0
ARC
  8
0
  6
CONTINUOUS
 62
     1
 10
520.0
 20
1749.0
 40
30.0
 50
0.0
 51
239.0231413
  0
LINE
  8
0
  6
LTYPE1
 62
     2
 10
520.0
 20
1670.8
 11
520.0
 21
1785.8
  0
LINE
  8
0
  6
CONTINUOUS
 62
     1
 10
527.0
 20
1650.0
 11
527.0
 21
1719.0
  0
ARC
  8
0
  6
CONTINUOUS
 62
     1
 10
521.0
 20
1650.0
 40
6.0
 50
270.0
 51
0.0
  0
ARC
  8
0
  6
CONTINUOUS
 62
     1
 10
494.0
 20
1650.0
 40
6.0
 50
270.0
 51
0.0
  0
LINE
  8
0
  6
CONTINUOUS
 62
     1
 10
500.0
 20
1650.0
 11
500.0
 21
1719.0
  0
LINE
  8
0
  6
CONTINUOUS
 62
     1
 10
521.0
 20
1644.0
 11
395.0
 21
1644.0
  0
LINE
  8
0
  6
LTYPE1
 62
     2
 10
542.6
 20
1749.0
 11
492.0
 21
1749.0
  0
LINE
  8
0
  6
CONTINUOUS
 62
     1
 10
550.0
 20
1419.5
 11
550.0
 21
1719.0
  0
LINE
  8
0
  6
CONTINUOUS
 62
     1
 10
412.0
 20
1165.0
 11
412.0
 21
1644.0
  0
LINE
  8
0
  6
CONTINUOUS
 62
     1
 10
395.0
 20
1165.0
 11
395.0
 21
1644.0
  0
LINE
  8
0
  6
LTYPE1
 62
     2
 10
425.0
 20
1483.0
 11
371.0
 21
1483.0
  0
LINE
  8
0
  6
LTYPE1
 62
     2
 10
421.0
 20
1515.0
 11
373.0
 21
1515.0
  0
LINE
  8
0
  6
CONTINUOUS
 62
     1
 10
517.0
 20
1594.0
 11
446.0
 21
1594.0
  0
LINE
  8
0
  6
CONTINUOUS
 62
     1
 10
517.0
 20
1594.0
 11
517.0
 21
1474.0
  0
LINE
  8
0
  6
CONTINUOUS
 62
     1
 10
517.0
 20
1474.0
 11
446.0
 21
1474.0
  0
LINE
  8
0
  6
CONTINUOUS
 62
     1
 10
446.0
 20
1474.0
 11
446.0
 21
1594.0
  0
LINE
  8
0
  6
LTYPE1
 62
     2
 10
522.0
 20
1484.0
 11
498.2
 21
1484.0
  0
LINE
  8
0
  6
LTYPE1
 62
     2
 10
468.2
 20
1584.0
 11
441.2
 21
1584.0
  0
LINE
  8
0
  6
LTYPE1
 62
     2
 10
522.2
 20
1584.0
 11
494.2
 21
1584.0
  0
LINE
  8
0
  6
LTYPE1
 62
     2
 10
507.0
 20
1495.8
 11
507.0
 21
1474.0
  0
LINE
  8
0
  6
LTYPE1
 62
     2
 10
507.0
 20
1594.0
 11
507.0
 21
1571.8
  0
LINE
  8
0
  6
LTYPE1
 62
     2
 10
456.0
 20
1572.8
 11
456.0
 21
1594.0
  0
LINE
  8
0
  6
LTYPE1
 62
     2
 10
456.0
 20
1474.0
 11
456.0
 21
1494.8
  0
LINE
  8
0
  6
LTYPE1
 62
     2
 10
468.2
 20
1484.0
 11
443.2
 21
1484.0
  0
LINE
  8
0
  6
LTYPE1
 62
     2
 10
2288.5
 20
1585.0
 11
1977.5
 21
1585.0
  0
ARC
  8
0
  6
CONTINUOUS
 62
     1
 10
2134.5
 20
1588.7
 40
150.0
 50
116.704852248
 51
150.427488945
  0
ARC
  8
0
  6
CONTINUOUS
 62
     1
 10
2134.5
 20
1588.7
 40
150.0
 50
29.572511055
 51
63.295147752
  0
LINE
  8
0
  6
CONTINUOUS
 62
     1
 10
1996.9
 20
1474.0
 11
1996.9
 21
1594.0
  0
LINE
  8
0
  6
LTYPE1
 62
     2
 10
2019.1
 20
1584.0
 11
1992.1
 21
1584.0
  0
LINE
  8
0
  6
CONTINUOUS
 62
     1
 10
2004.5
 20
1594.0
 11
1996.9
 21
1594.0
  0
LINE
  8
0
  6
CONTINUOUS
 62
     1
 10
2272.1
 20
1474.0
 11
2272.1
 21
1594.0
  0
LINE
  8
0
  6
LTYPE1
 62
     2
 10
2249.9
 20
1584.0
 11
2276.9
 21
1584.0
  0
LINE
  8
0
  6
CONTINUOUS
 62
     1
 10
2264.5
 20
1594.0
 11
2272.1
 21
1594.0
  0
CIRCLE
  8
0
  6
CONTINUOUS
 62
     1
 10
2134.5
 20
1723.5
 40
12.055
  0
CIRCLE
  8
0
  6
CONTINUOUS
 62
     1
 10
2134.5
 20
1723.5
 40
20.0
  0
CIRCLE
  8
0
  6
CONTINUOUS
 62
     1
 10
2134.5
 20
1723.5
 40
25.0
  0
CIRCLE
  8
0
  6
CONTINUOUS
 62
     2
 10
2134.5
 20
1723.5
 40
13.221
  0
LINE
  8
0
  6
LTYPE1
 62
     2
 10
2098.0
 20
1723.5
 11
2170.0
 21
1723.5
  0
ARC
  8
0
  6
CONTINUOUS
 62
     1
 10
2164.5
 20
1699.0
 40
10.0
 50
270.0
 51
0.0
  0
LINE
  8
0
  6
CONTINUOUS
 62
     1
 10
2134.5
 20
1768.0
 11
2164.5
 21
1768.0
  0
LINE
  8
0
  6
CONTINUOUS
 62
     1
 10
2174.5
 20
1699.0
 11
2174.5
 21
1758.0
  0
ARC
  8
0
  6
CONTINUOUS
 62
     1
 10
2164.5
 20
1758.0
 40
10.0
 50
0.0
 51
90.0
  0
LINE
  8
0
  6
CONTINUOUS
 62
     1
 10
2134.5
 20
1773.0
 11
2174.5
 21
1773.0
  0
ARC
  8
0
  6
CONTINUOUS
 62
     1
 10
2174.5
 20
1763.0
 40
10.0
 50
0.0
 51
90.0
  0
LINE
  8
0
  6
CONTINUOUS
 62
     1
 10
2134.5
 20
1689.0
 11
2174.5
 21
1689.0
  0
LINE
  8
0
  6
CONTINUOUS
 62
     1
 10
2184.5
 20
1699.0
 11
2184.5
 21
1763.0
  0
ARC
  8
0
  6
CONTINUOUS
 62
     1
 10
2174.5
 20
1699.0
 40
10.0
 50
270.0
 51
0.0
  0
LINE
  8
0
  6
CONTINUOUS
 62
     1
 10
2164.860126607
 20
1689.006486662
 11
2164.860126607
 21
1683.506486662
  0
LINE
  8
0
  6
CONTINUOUS
 62
     1
 10
2134.5
 20
1768.0
 11
2104.5
 21
1768.0
  0
LINE
  8
0
  6
CONTINUOUS
 62
     1
 10
2094.5
 20
1699.0
 11
2094.5
 21
1758.0
  0
ARC
  8
0
  6
CONTINUOUS
 62
     1
 10
2104.5
 20
1758.0
 40
10.0
 50
90.0
 51
180.0
  0
LINE
  8
0
  6
CONTINUOUS
 62
     1
 10
2134.5
 20
1773.0
 11
2094.5
 21
1773.0
  0
ARC
  8
0
  6
CONTINUOUS
 62
     1
 10
2094.5
 20
1763.0
 40
10.0
 50
90.0
 51
180.0
  0
LINE
  8
0
  6
CONTINUOUS
 62
     1
 10
2084.5
 20
1699.0
 11
2084.5
 21
1763.0
  0
ARC
  8
0
  6
CONTINUOUS
 62
     1
 10
2104.5
 20
1699.0
 40
10.0
 50
180.0
 51
270.0
  0
LINE
  8
0
  6
CONTINUOUS
 62
     1
 10
2134.5
 20
1689.0
 11
2094.5
 21
1689.0
  0
ARC
  8
0
  6
CONTINUOUS
 62
     1
 10
2094.5
 20
1699.0
 40
10.0
 50
180.0
 51
270.0
  0
LINE
  8
0
  6
CONTINUOUS
 62
     1
 10
2104.139873393
 20
1689.006486662
 11
2104.139873393
 21
1683.506486662
  0
ARC
  8
0
  6
CONTINUOUS
 62
     1
 10
2052.0
 20
1585.0
 40
20.0
 50
90.0
 51
180.0
  0
ARC
  8
0
  6
CONTINUOUS
 62
     1
 10
2052.0
 20
1585.0
 40
20.0
 50
180.0
 51
270.0
  0
ARC
  8
0
  6
CONTINUOUS
 62
     1
 10
2175.75
 20
1513.552904188
 40
20.0
 50
210.0
 51
300.0
  0
ARC
  8
0
  6
CONTINUOUS
 62
     1
 10
2175.75
 20
1513.552904188
 40
20.0
 50
300.0
 51
30.0
  0
LINE
  8
0
  6
CONTINUOUS
 62
     1
 10
2052.0
 20
1565.0
 11
2122.952994616
 21
1565.0
  0
LINE
  8
0
  6
CONTINUOUS
 62
     1
 10
2158.429491924
 20
1503.552904188
 11
2122.952994616
 21
1565.0
  0
ARC
  8
0
  6
CONTINUOUS
 62
     1
 10
2175.75
 20
1656.447095812
 40
20.0
 50
330.0
 51
60.0
  0
ARC
  8
0
  6
CONTINUOUS
 62
     1
 10
2175.75
 20
1656.447095812
 40
20.0
 50
60.0
 51
150.0
  0
LINE
  8
0
  6
CONTINUOUS
 62
     1
 10
2158.429491924
 20
1666.447095812
 11
2122.952994616
 21
1605.0
  0
LINE
  8
0
  6
CONTINUOUS
 62
     1
 10
2052.0
 20
1605.0
 11
2122.952994616
 21
1605.0
  0
ARC
  8
0
  6
CONTINUOUS
 62
     1
 10
2134.5
 20
1585.0
 40
100.0
 50
186.110646249
 51
293.889353751
  0
ARC
  8
0
  6
CONTINUOUS
 62
     1
 10
2134.5
 20
1585.0
 40
100.0
 50
66.110646249
 51
173.889353751
  0
ARC
  8
0
  6
CONTINUOUS
 62
     1
 10
2134.5
 20
1585.0
 40
100.0
 50
306.110646249
 51
53.889353751
  0
LINE
  8
0
  6
CONTINUOUS
 62
     1
 10
2137.833333333
 20
1604.720265944
 11
2196.166666667
 21
1594.860132972
  0
LINE
  8
0
  6
CONTINUOUS
 62
     1
 10
2137.833333333
 20
1565.279734056
 11
2196.166666667
 21
1575.139867028
  0
LINE
  8
0
  6
LTYPE1
 62
     2
 10
2194.5
 20
1570.0
 11
2194.5
 21
1605.0
  0
ARC
  8
0
  6
CONTINUOUS
 62
     1
 10
2134.5
 20
1585.0
 40
20.0
 50
80.405931773
 51
279.594068227
  0
ARC
  8
0
  6
CONTINUOUS
 62
     1
 10
2194.5
 20
1585.0
 40
10.0
 50
279.594068227
 51
80.405931773
  0
CIRCLE
  8
0
  6
CONTINUOUS
 62
     1
 10
2194.5
 20
1585.0
 40
9.0
  0
CIRCLE
  8
0
  6
CONTINUOUS
 62
     1
 10
2134.5
 20
1585.0
 40
19.0
  0
CIRCLE
  8
0
  6
CONTINUOUS
 62
     1
 10
2121.4
 20
1585.0
 40
4.0
  0
CIRCLE
  8
0
  6
CONTINUOUS
 62
     1
 10
2134.5
 20
1571.9
 40
4.0
  0
CIRCLE
  8
0
  6
CONTINUOUS
 62
     1
 10
2147.6
 20
1585.0
 40
4.0
  0
CIRCLE
  8
0
  6
CONTINUOUS
 62
     1
 10
2134.5
 20
1598.1
 40
4.0
  0
CIRCLE
  8
0
  6
CONTINUOUS
 62
     1
 10
2134.5
 20
1585.0
 40
4.0
  0
LINE
  8
0
  6
CONTINUOUS
 62
     1
 10
2193.070508076
 20
1646.447095812
 11
2166.210211838
 21
1599.923698023
  0
LINE
  8
0
  6
CONTINUOUS
 62
     1
 10
2193.070508076
 20
1523.552904188
 11
2166.210211838
 21
1570.076301977
  0
ARC
  8
0
  6
CONTINUOUS
 62
     1
 10
2134.5
 20
1585.0
 40
120.0
 50
114.078914166
 51
65.921085834
  0
LINE
  8
0
  6
CONTINUOUS
 62
     1
 10
2067.090801815
 20
1722.7
 11
2082.090801815
 21
1722.7
  0
LINE
  8
0
  6
CONTINUOUS
 62
     1
 10
2201.909198185
 20
1722.7
 11
2186.909198185
 21
1722.7
  0
LINE
  8
0
  6
LTYPE1
 62
     2
 10
2019.1
 20
1484.0
 11
1994.1
 21
1484.0
  0
LINE
  8
0
  6
CONTINUOUS
 62
     1
 10
2004.5
 20
1474.0
 11
1996.9
 21
1474.0
  0
LINE
  8
0
  6
LTYPE1
 62
     2
 10
2249.9
 20
1484.0
 11
2274.9
 21
1484.0
  0
LINE
  8
0
  6
CONTINUOUS
 62
     1
 10
2264.5
 20
1474.0
 11
2272.1
 21
1474.0
  0
LINE
  8
0
  6
CONTINUOUS
 62
     1
 10
2264.5
 20
1350.761874274
 11
2264.5
 21
1663.533147735
  0
LINE
  8
0
  6
CONTINUOUS
 62
     1
 10
2004.5
 20
1389.805352832
 11
2004.5
 21
1663.533147735
  0
LINE
  8
0
  6
LTYPE1
 62
     2
 10
2174.4
 20
1429.0
 11
2096.3
 21
1429.0
  0
ARC
  8
0
  6
CONTINUOUS
 62
     1
 10
2134.5
 20
1429.0
 40
31.0
 50
288.105183353
 51
251.894816647
  0
LINE
  8
0
  6
CONTINUOUS
 62
     1
 10
1443.0
 20
1300.0
 11
1443.0
 21
1330.388736054
  0
LINE
  8
0
  6
CONTINUOUS
 62
     1
 10
1443.0
 20
1300.0
 11
1443.0
 21
1269.611263946
  0
LINE
  8
0
  6
CONTINUOUS
 62
     1
 10
2109.5
 20
1272.049150281
 11
2109.5
 21
1327.950849719
  0
LINE
  8
0
  6
CONTINUOUS
 62
     1
 10
2159.5
 20
1272.049150281
 11
2159.5
 21
1327.950849719
  0
CIRCLE
  8
0
  6
CONTINUOUS
 62
     1
 10
2134.5
 20
1300.0
 40
37.5
  0
LINE
  8
0
  6
CONTINUOUS
 62
     1
 10
2082.250969007
 20
1347.0
 11
2186.749030993
 21
1347.0
  0
LINE
  8
0
  6
LTYPE3
 62
     2
 10
2159.5
 20
1317.5
 11
2109.5
 21
1317.5
  0
LINE
  8
0
  6
LTYPE3
 62
     2
 10
2159.5
 20
1282.5
 11
2109.5
 21
1282.5
  0
LINE
  8
0
  6
CONTINUOUS
 62
     1
 10
1438.0
 20
1662.5
 11
1443.0
 21
1662.5
  0
LINE
  8
0
  6
CONTINUOUS
 62
     1
 10
1438.0
 20
1587.5
 11
1443.0
 21
1587.5
  0
LINE
  8
0
  6
LTYPE1
 62
     2
 10
1508.000190206
 20
1584.5
 11
1508.000190206
 21
1662.5
  0
LINE
  8
0
  6
LTYPE1
 62
     2
 10
1507.999190206
 20
1323.5
 11
1507.999190206
 21
1273.5
  0
LINE
  8
1
  6
CONTINUOUS
 62
     2
 10
1543.999190206
 20
1337.5
 11
1643.499190206
 21
1337.5
  0
LINE
  8
1
  6
CONTINUOUS
 62
     2
 10
1627.499190206
 20
1337.5
 11
1622.322809304
 21
1318.181483474
  0
LINE
  8
1
  6
CONTINUOUS
 62
     2
 10
1627.499190206
 20
1337.5
 11
1632.675571108
 21
1318.181483474
  0
LINE
  8
1
  6
CONTINUOUS
 62
     2
 10
1627.499190206
 20
1337.5
 11
1627.499190206
 21
1262.5
  0
LINE
  8
1
  6
CONTINUOUS
 62
     2
 10
1627.499190206
 20
1262.5
 11
1632.675571108
 21
1281.818516526
  0
LINE
  8
1
  6
CONTINUOUS
 62
     2
 10
1627.499190206
 20
1262.5
 11
1622.322809304
 21
1281.818516526
  0
LINE
  8
1
  6
CONTINUOUS
 62
     2
 10
1543.999190206
 20
1262.5
 11
1643.499190206
 21
1262.5
  0
TEXT
  8
1
  6
CONTINUOUS
 62
     3
 10
1619.499190206
 20
1273.2
 30
2.4
 40
28.0
  1
７５
 50
90.0
 41
0.914285714
 51
0.0
  7
KANJI50
  0
LINE
  8
0
  6
LTYPE4
 62
     2
 10
2134.5
 20
1135.0
 11
2134.5
 21
1779.75
  0
LINE
  8
1
  6
CONTINUOUS
 62
     2
 10
1490.500190206
 20
1519.0
 11
1471.18167368
 21
1524.176380902
  0
LINE
  8
1
  6
CONTINUOUS
 62
     2
 10
1490.500190206
 20
1519.0
 11
1471.18167368
 21
1513.823619098
  0
LINE
  8
1
  6
CONTINUOUS
 62
     2
 10
1460.500190206
 20
1519.0
 11
1490.500190206
 21
1519.0
  0
LINE
  8
1
  6
CONTINUOUS
 62
     2
 10
1490.500190206
 20
1519.0
 11
1525.500190206
 21
1519.0
  0
LINE
  8
1
  6
CONTINUOUS
 62
     2
 10
1525.500190206
 20
1519.0
 11
1721.100190206
 21
1519.0
  0
LINE
  8
1
  6
CONTINUOUS
 62
     2
 10
1525.500190206
 20
1519.0
 11
1544.818706732
 21
1513.823619098
  0
LINE
  8
1
  6
CONTINUOUS
 62
     2
 10
1525.500190206
 20
1519.0
 11
1544.818706732
 21
1524.176380902
  0
TEXT
  8
1
  6
CONTINUOUS
 62
     3
 10
1555.500190206
 20
1527.0
 30
2.4
 40
28.0
  1
φ３５Ｈ１０
 50
0.0
 41
0.914285714
 51
0.0
  7
KANJI50
  0
LINE
  8
1
  6
CONTINUOUS
 62
     2
 10
1508.000190206
 20
1576.5
 11
1508.000190206
 21
1436.5
  0
LINE
  8
1
  6
CONTINUOUS
 62
     2
 10
1508.000190206
 20
1452.5
 11
1488.68167368
 21
1457.676380902
  0
LINE
  8
1
  6
CONTINUOUS
 62
     2
 10
1508.000190206
 20
1452.5
 11
1488.68167368
 21
1447.323619098
  0
LINE
  8
1
  6
CONTINUOUS
 62
     2
 10
1508.000190206
 20
1452.5
 11
1443.0
 21
1452.5
  0
LINE
  8
1
  6
CONTINUOUS
 62
     2
 10
1443.0
 20
1452.5
 11
1462.318516526
 21
1447.323619098
  0
LINE
  8
1
  6
CONTINUOUS
 62
     2
 10
1443.0
 20
1452.5
 11
1462.318516526
 21
1457.676380902
  0
LINE
  8
1
  6
CONTINUOUS
 62
     2
 10
1443.0
 20
1579.5
 11
1443.0
 21
1436.5
  0
TEXT
  8
1
  6
CONTINUOUS
 62
     3
 10
1448.700095103
 20
1460.5
 30
2.4
 40
28.0
  1
６５
 50
0.0
 41
0.914285714
 51
0.0
  7
KANJI50
  0
LINE
  8
0
  6
CONTINUOUS
 62
     1
 10
1443.0
 20
1605.0
 11
1546.000190206
 21
1605.0
  0
LINE
  8
0
  6
CONTINUOUS
 62
     1
 10
1443.0
 20
1645.0
 11
1546.000190206
 21
1645.0
  0
LINE
  8
0
  6
CONTINUOUS
 62
     1
 10
1443.0
 20
1605.0
 11
1443.0
 21
1587.5
  0
LINE
  8
0
  6
CONTINUOUS
 62
     1
 10
1536.000190206
 20
1605.0
 11
1536.000190206
 21
1645.0
  0
LINE
  8
0
  6
CONTINUOUS
 62
     1
 10
1546.000190206
 20
1605.0
 11
1546.000190206
 21
1645.0
  0
LINE
  8
1
  6
CONTINUOUS
 62
     2
 10
1554.000190206
 20
1605.0
 11
1643.499190206
 21
1605.0
  0
LINE
  8
1
  6
CONTINUOUS
 62
     2
 10
1627.499190206
 20
1605.0
 11
1632.675571108
 21
1624.318516526
  0
LINE
  8
1
  6
CONTINUOUS
 62
     2
 10
1627.499190206
 20
1605.0
 11
1622.322809304
 21
1624.318516526
  0
LINE
  8
1
  6
CONTINUOUS
 62
     2
 10
1627.499190206
 20
1605.0
 11
1627.499190206
 21
1645.0
  0
LINE
  8
1
  6
CONTINUOUS
 62
     2
 10
1627.499190206
 20
1645.0
 11
1622.322809304
 21
1625.681483474
  0
LINE
  8
1
  6
CONTINUOUS
 62
     2
 10
1627.499190206
 20
1645.0
 11
1632.675571108
 21
1625.681483474
  0
LINE
  8
1
  6
CONTINUOUS
 62
     2
 10
1554.000190206
 20
1645.0
 11
1643.499190206
 21
1645.0
  0
TEXT
  8
1
  6
CONTINUOUS
 62
     3
 10
1619.499190206
 20
1598.2
 30
2.4
 40
28.0
  1
４０
 50
90.0
 41
0.914285714
 51
0.0
  7
KANJI50
  0
LINE
  8
1
  6
CONTINUOUS
 62
     2
 10
2004.5
 20
1172.000030518
 11
2004.5
 21
986.0
  0
LINE
  8
1
  6
CONTINUOUS
 62
     2
 10
2004.5
 20
1002.0
 11
2023.818516526
 21
996.823619098
  0
LINE
  8
1
  6
CONTINUOUS
 62
     2
 10
2004.5
 20
1002.0
 11
2023.818516526
 21
1007.176380902
  0
LINE
  8
1
  6
CONTINUOUS
 62
     2
 10
2004.5
 20
1002.0
 11
2264.5
 21
1002.0
  0
LINE
  8
1
  6
CONTINUOUS
 62
     2
 10
2264.5
 20
1002.0
 11
2245.181483474
 21
1007.176380902
  0
LINE
  8
1
  6
CONTINUOUS
 62
     2
 10
2264.5
 20
1002.0
 11
2245.181483474
 21
996.823619098
  0
LINE
  8
1
  6
CONTINUOUS
 62
     2
 10
2264.5
 20
1172.0
 11
2264.5
 21
986.0
  0
TEXT
  8
1
  6
CONTINUOUS
 62
     3
 10
2093.7
 20
1010.0
 30
2.4
 40
28.0
  1
２６０
 50
0.0
 41
0.914285714
 51
0.0
  7
KANJI50
  0
LINE
  8
1
  6
CONTINUOUS
 62
     2
 10
1994.5
 20
1242.0
 11
1994.5
 21
928.0
  0
LINE
  8
1
  6
CONTINUOUS
 62
     2
 10
1994.5
 20
944.0
 11
2013.818516526
 21
938.823619098
  0
LINE
  8
1
  6
CONTINUOUS
 62
     2
 10
1994.5
 20
944.0
 11
2013.818516526
 21
949.176380902
  0
LINE
  8
1
  6
CONTINUOUS
 62
     2
 10
1994.5
 20
944.0
 11
2274.5
 21
944.0
  0
LINE
  8
1
  6
CONTINUOUS
 62
     2
 10
2274.5
 20
944.0
 11
2255.181483474
 21
949.176380902
  0
LINE
  8
1
  6
CONTINUOUS
 62
     2
 10
2274.5
 20
944.0
 11
2255.181483474
 21
938.823619098
  0
LINE
  8
1
  6
CONTINUOUS
 62
     2
 10
2274.5
 20
1242.0
 11
2274.5
 21
928.0
  0
TEXT
  8
1
  6
CONTINUOUS
 62
     3
 10
2093.7
 20
952.0
 30
2.4
 40
28.0
  1
２８０
 50
0.0
 41
0.914285714
 51
0.0
  7
KANJI50
  0
LINE
  8
1
  6
CONTINUOUS
 62
     2
 10
1986.5
 20
1277.5
 11
1935.0
 21
1277.5
  0
LINE
  8
1
  6
CONTINUOUS
 62
     2
 10
1951.0
 20
1277.5
 11
1945.823619098
 21
1258.181483474
  0
LINE
  8
1
  6
CONTINUOUS
 62
     2
 10
1951.0
 20
1277.5
 11
1956.176380902
 21
1258.181483474
  0
LINE
  8
1
  6
CONTINUOUS
 62
     2
 10
1951.0
 20
1247.5
 11
1951.0
 21
1277.5
  0
LINE
  8
1
  6
CONTINUOUS
 62
     2
 10
1951.0
 20
1277.5
 11
1951.0
 21
1322.5
  0
LINE
  8
1
  6
CONTINUOUS
 62
     2
 10
1951.0
 20
1322.5
 11
1951.0
 21
1686.1
  0
LINE
  8
1
  6
CONTINUOUS
 62
     2
 10
1951.0
 20
1322.5
 11
1956.176380902
 21
1341.818516526
  0
LINE
  8
1
  6
CONTINUOUS
 62
     2
 10
1951.0
 20
1322.5
 11
1945.823619098
 21
1341.818516526
  0
LINE
  8
1
  6
CONTINUOUS
 62
     2
 10
1986.5
 20
1322.5
 11
1935.0
 21
1322.5
  0
TEXT
  8
1
  6
CONTINUOUS
 62
     3
 10
1943.0
 20
1352.5
 30
2.4
 40
28.0
  1
φ４５Ｈ１０　　深さ５０
 50
90.0
 41
0.914285714
 51
0.0
  7
KANJI50
  0
LINE
  8
0
  6
LTYPE1
 62
     2
 10
2285.000030518
 20
1300.0
 11
1982.500030518
 21
1300.0
  0
LINE
  8
1
  6
CONTINUOUS
 62
     2
 10
2011.500030518
 20
1165.0
 11
1885.000030518
 21
1165.0
  0
LINE
  8
1
  6
CONTINUOUS
 62
     2
 10
1901.000030518
 20
1165.0
 11
1906.17641142
 21
1184.318516526
  0
LINE
  8
1
  6
CONTINUOUS
 62
     2
 10
1901.000030518
 20
1165.0
 11
1895.823649616
 21
1184.318516526
  0
LINE
  8
1
  6
CONTINUOUS
 62
     2
 10
1901.000030518
 20
1165.0
 11
1901.000030518
 21
1300.0
  0
LINE
  8
1
  6
CONTINUOUS
 62
     2
 10
1901.000030518
 20
1300.0
 11
1895.823649616
 21
1280.681483474
  0
LINE
  8
1
  6
CONTINUOUS
 62
     2
 10
1901.000030518
 20
1300.0
 11
1906.17641142
 21
1280.681483474
  0
LINE
  8
1
  6
CONTINUOUS
 62
     2
 10
1974.500030518
 20
1300.0
 11
1885.000030518
 21
1300.0
  0
TEXT
  8
1
  6
CONTINUOUS
 62
     3
 10
1893.000030518
 20
1191.7
 30
2.4
 40
28.0
  1
１３５
 50
90.0
 41
0.914285714
 51
0.0
  7
KANJI50
  0
LINE
  8
1
  6
CONTINUOUS
 62
     2
 10
1901.000030518
 20
1300.0
 11
1906.17641142
 21
1319.318516526
  0
LINE
  8
1
  6
CONTINUOUS
 62
     2
 10
1901.000030518
 20
1300.0
 11
1895.823649616
 21
1319.318516526
  0
LINE
  8
1
  6
CONTINUOUS
 62
     2
 10
1901.000030518
 20
1300.0
 11
1901.000030518
 21
1584.0
  0
LINE
  8
1
  6
CONTINUOUS
 62
     2
 10
1901.000030518
 20
1584.0
 11
1895.823649616
 21
1564.681483474
  0
LINE
  8
1
  6
CONTINUOUS
 62
     2
 10
1901.000030518
 20
1584.0
 11
1906.17641142
 21
1564.681483474
  0
LINE
  8
1
  6
CONTINUOUS
 62
     2
 10
1901.000030518
 20
1584.0
 11
1906.17641142
 21
1603.318516526
  0
LINE
  8
1
  6
CONTINUOUS
 62
     2
 10
1901.000030518
 20
1584.0
 11
1895.823649616
 21
1603.318516526
  0
LINE
  8
1
  6
CONTINUOUS
 62
     2
 10
1901.000030518
 20
1584.0
 11
1901.000030518
 21
1773.0
  0
LINE
  8
1
  6
CONTINUOUS
 62
     2
 10
1901.000030518
 20
1773.0
 11
1895.823649616
 21
1753.681483474
  0
LINE
  8
1
  6
CONTINUOUS
 62
     2
 10
1901.000030518
 20
1773.0
 11
1906.17641142
 21
1753.681483474
  0
LINE
  8
1
  6
CONTINUOUS
 62
     2
 10
2086.500043158
 20
1773.0
 11
1885.000030518
 21
1773.0
  0
TEXT
  8
1
  6
CONTINUOUS
 62
     3
 10
1893.000030518
 20
1637.7
 30
2.4
 40
28.0
  1
１８８
 50
90.0
 41
0.914285714
 51
0.0
  7
KANJI50
  0
TEXT
  8
1
  6
CONTINUOUS
 62
     3
 10
1893.000030518
 20
1401.2
 30
2.4
 40
28.0
  1
２３１
 50
90.0
 41
0.914285714
 51
0.0
  7
KANJI50
  0
LINE
  8
1
  6
CONTINUOUS
 62
     2
 10
1893.000030518
 20
1165.0
 11
1832.000030518
 21
1165.0
  0
LINE
  8
1
  6
CONTINUOUS
 62
     2
 10
1848.000030518
 20
1165.0
 11
1853.17641142
 21
1184.318516526
  0
LINE
  8
1
  6
CONTINUOUS
 62
     2
 10
1848.000030518
 20
1165.0
 11
1842.823649616
 21
1184.318516526
  0
LINE
  8
1
  6
CONTINUOUS
 62
     2
 10
1848.000030518
 20
1165.0
 11
1848.000030518
 21
1773.0
  0
LINE
  8
1
  6
CONTINUOUS
 62
     2
 10
1848.000030518
 20
1773.0
 11
1842.823649616
 21
1753.681483474
  0
LINE
  8
1
  6
CONTINUOUS
 62
     2
 10
1848.000030518
 20
1773.0
 11
1853.17641142
 21
1753.681483474
  0
LINE
  8
1
  6
CONTINUOUS
 62
     2
 10
1893.000030518
 20
1773.0
 11
1832.000030518
 21
1773.0
  0
TEXT
  8
1
  6
CONTINUOUS
 62
     3
 10
1840.000030518
 20
1428.2
 30
2.4
 40
28.0
  1
５５４
 50
90.0
 41
0.914285714
 51
0.0
  7
KANJI50
  0
LINE
  8
1
  6
CONTINUOUS
 62
     2
 10
1912.500030518
 20
1584.0
 11
1885.000030518
 21
1584.0
  0
LINE
  8
1
  6
CONTINUOUS
 62
     2
 10
1984.1
 20
1584.0
 11
1946.000030518
 21
1584.0
  0
LINE
  8
1
  6
CONTINUOUS
 62
     2
 10
550.0
 20
1727.5
 11
550.0
 21
1871.0
  0
LINE
  8
1
  6
CONTINUOUS
 62
     2
 10
845.5
 20
1432.0
 11
865.178592321
 21
1435.571134873
  0
LINE
  8
1
  6
CONTINUOUS
 62
     2
 10
845.5
 20
1432.0
 11
860.756593424
 21
1444.931989681
  0
LINE
  8
1
  6
CONTINUOUS
 62
     2
 10
845.5
 20
1432.0
 11
927.0
 21
1470.5
  0
LINE
  8
1
  6
CONTINUOUS
 62
     2
 10
927.0
 20
1470.5
 11
1068.6
 21
1470.5
  0
LINE
  8
1
  6
CONTINUOUS
 62
     2
 10
867.0
 20
1385.5
 11
886.893605637
 21
1387.560207455
  0
LINE
  8
1
  6
CONTINUOUS
 62
     2
 10
867.0
 20
1385.5
 11
883.198264127
 21
1397.230994812
  0
LINE
  8
1
  6
CONTINUOUS
 62
     2
 10
867.0
 20
1385.5
 11
928.5
 21
1409.0
  0
LINE
  8
1
  6
CONTINUOUS
 62
     2
 10
928.5
 20
1409.0
 11
1046.1
 21
1409.0
  0
TEXT
  8
1
  6
CONTINUOUS
 62
     3
 10
928.5
 20
1417.0
 30
2.4
 40
24.0
  1
ＰＦ１／２
 50
0.0
 41
0.9
 51
0.0
  7
KANJI0
  0
TEXT
  8
0
  6
CONTINUOUS
 62
     3
 10
2387.0
 20
901.6
 30
16.0
 40
32.0
  1
特記事項
 50
0.0
 41
0.9
 51
0.0
  7
KANJI51
  0
TEXT
  8
0
  6
CONTINUOUS
 62
     3
 10
2275.0
 20
837.6
 30
8.228571429
 40
28.8
  1
１。運転時は必ずピストンロッドの回転防止を行って下さい。
 50
0.0
 41
0.857142857
 51
0.0
  7
KANJI52
  0
TEXT
  8
0
  6
CONTINUOUS
 62
     3
 10
2275.0
 20
785.2
 30
8.208
 40
28.8
  1
２。モートル：全閉自冷かご形３０分定格
 50
0.0
 41
0.857222222
 51
0.0
  7
KANJI53
  0
TEXT
  8
0
  6
CONTINUOUS
 62
     2
 10
899.5
 20
509.4
 30
2.4
 40
24.0
  1
１０００
 50
0.0
 41
0.9
 51
0.0
  7
KANJI0
  0
TEXT
  8
0
  6
CONTINUOUS
 62
     2
 10
1056.2
 20
622.0
 30
2.4
 40
24.0
  1
１０９０
 50
0.0
 41
0.9
 51
0.0
  7
KANJI0
  0
TEXT
  8
0
  6
CONTINUOUS
 62
     2
 10
1056.2
 20
566.0
 30
2.4
 40
24.0
  1
１３５２
 50
0.0
 41
0.9
 51
0.0
  7
KANJI0
  0
TEXT
  8
0
  6
CONTINUOUS
 62
     2
 10
1056.2
 20
510.0
 30
2.4
 40
24.0
  1
２０１１
 50
0.0
 41
0.9
 51
0.0
  7
KANJI0
  0
TEXT
  8
0
  6
CONTINUOUS
 62
     2
 10
1241.0
 20
623.6
 30
2.4
 40
24.0
  1
８６５
 50
0.0
 41
0.9
 51
0.0
  7
KANJI0
  0
TEXT
  8
0
  6
CONTINUOUS
 62
     2
 10
1217.0
 20
567.6
 30
2.4
 40
24.0
  1
１１２７
 50
0.0
 41
0.9
 51
0.0
  7
KANJI0
  0
TEXT
  8
0
  6
CONTINUOUS
 62
     2
 10
1217.0
 20
511.6
 30
2.4
 40
24.0
  1
１７８６
 50
0.0
 41
0.9
 51
0.0
  7
KANJI0
  0
TEXT
  8
0
  6
CONTINUOUS
 62
     2
 10
1400.6
 20
625.0
 30
2.4
 40
24.0
  1
７４５
 50
0.0
 41
0.9
 51
0.0
  7
KANJI0
  0
TEXT
  8
0
  6
CONTINUOUS
 62
     2
 10
1400.6
 20
569.0
 30
2.4
 40
24.0
  1
９４５
 50
0.0
 41
0.9
 51
0.0
  7
KANJI0
  0
TEXT
  8
0
  6
CONTINUOUS
 62
     2
 10
1375.6
 20
513.0
 30
2.4
 40
24.0
  1
１４８５
 50
0.0
 41
0.9
 51
0.0
  7
KANJI0
  0
TEXT
  8
0
  6
CONTINUOUS
 62
     2
 10
1574.8
 20
625.0
 30
2.4
 40
24.0
  1
５０
 50
0.0
 41
0.9
 51
0.0
  7
KANJI0
  0
TEXT
  8
0
  6
CONTINUOUS
 62
     2
 10
1549.8
 20
569.0
 30
2.4
 40
24.0
  1
１１２
 50
0.0
 41
0.9
 51
0.0
  7
KANJI0
  0
TEXT
  8
0
  6
CONTINUOUS
 62
     2
 10
1549.8
 20
513.0
 30
2.4
 40
24.0
  1
２３１
 50
0.0
 41
0.9
 51
0.0
  7
KANJI0
  0
TEXT
  8
0
  6
CONTINUOUS
 62
     2
 10
1733.8
 20
624.4
 30
2.4
 40
24.0
  1
１９２
 50
0.0
 41
0.9
 51
0.0
  7
KANJI0
  0
TEXT
  8
0
  6
CONTINUOUS
 62
     2
 10
2940.8
 20
1826.2
 30
2.4
 40
24.0
  1
１５／１８
 50
0.0
 41
0.9
 51
0.0
  7
KANJI0
  0
TEXT
  8
0
  6
CONTINUOUS
 62
     2
 10
2959.0
 20
1154.4
 30
16.0
 40
28.0
  1
同時切リ
 50
0.0
 41
0.9
 51
0.0
  7
KANJI54
  0
LINE
  8
1
  6
CONTINUOUS
 62
     2
 10
1092.5
 20
1319.5
 11
1105.425968938
 21
1334.761694762
  0
LINE
  8
1
  6
CONTINUOUS
 62
     2
 10
1092.5
 20
1319.5
 11
1096.063370087
 21
1339.179999838
  0
LINE
  8
1
  6
CONTINUOUS
 62
     2
 10
1092.5
 20
1319.5
 11
1134.5
 21
1408.5
  0
LINE
  8
1
  6
CONTINUOUS
 62
     2
 10
1134.5
 20
1408.5
 11
1204.1
 21
1408.5
  0
TEXT
  8
1
  6
CONTINUOUS
 62
     3
 10
1134.5
 20
1416.5
 30
2.4
 40
24.0
  1
給脂口
 50
0.0
 41
0.9
 51
0.0
  7
KANJI0
  0
LINE
  8
1
  6
CONTINUOUS
 62
     2
 10
984.0
 20
1357.0
 11
978.823619098
 21
1337.681483474
  0
LINE
  8
1
  6
CONTINUOUS
 62
     2
 10
984.0
 20
1357.0
 11
989.176380902
 21
1337.681483474
  0
LINE
  8
1
  6
CONTINUOUS
 62
     2
 10
984.0
 20
1357.0
 11
984.0
 21
1243.0
  0
LINE
  8
1
  6
CONTINUOUS
 62
     2
 10
984.0
 20
1243.0
 11
989.176380902
 21
1262.318516526
  0
LINE
  8
1
  6
CONTINUOUS
 62
     2
 10
984.0
 20
1243.0
 11
978.823619098
 21
1262.318516526
  0
TEXT
  8
1
  6
CONTINUOUS
 62
     3
 10
976.0
 20
1245.2
 30
2.4
 40
28.0
  1
φ１１４
 50
90.0
 41
0.914285714
 51
0.0
  7
KANJI50
  0
LINE
  8
0
  6
CONTINUOUS
 62
     1
 10
2082.250969007
 20
1347.0
 11
2082.250969007
 21
1257.0
  0
LINE
  8
0
  6
CONTINUOUS
 62
     1
 10
2186.749030993
 20
1347.0
 11
2186.749030993
 21
1257.0
  0
ARC
  8
0
  6
CONTINUOUS
 62
     1
 10
2134.5
 20
1300.0
 40
75.0
 50
0.0
 51
230.597244558
  0
ARC
  8
0
  6
CONTINUOUS
 62
     1
 10
2134.5
 20
1300.0
 40
75.0
 50
309.402755442
 51
0.0
  0
ARC
  8
0
  6
LTYPE3
 62
     2
 10
2134.5
 20
1300.0
 40
75.0
 50
230.597244558
 51
309.402755442
  0
LINE
  8
0
  6
CONTINUOUS
 62
     1
 10
1438.0
 20
1337.5
 11
1540.999190206
 21
1337.5
  0
LINE
  8
0
  6
CONTINUOUS
 62
     1
 10
1545.999190206
 20
1332.5
 11
1545.999190206
 21
1300.0
  0
LINE
  8
0
  6
CONTINUOUS
 62
     1
 10
1540.999190206
 20
1337.5
 11
1545.999190206
 21
1332.5
  0
LINE
  8
0
  6
CONTINUOUS
 62
     1
 10
1545.999190206
 20
1267.5
 11
1545.999190206
 21
1300.0
  0
LINE
  8
0
  6
CONTINUOUS
 62
     1
 10
1437.999190206
 20
1262.5
 11
1540.999190206
 21
1262.5
  0
LINE
  8
0
  6
CONTINUOUS
 62
     1
 10
1545.999190206
 20
1267.5
 11
1540.999190206
 21
1262.5
  0
LINE
  8
0
  6
CONTINUOUS
 62
     1
 10
1540.999190206
 20
1330.388736054
 11
1443.0
 21
1330.388736054
  0
LINE
  8
0
  6
CONTINUOUS
 62
     1
 10
1540.999190206
 20
1337.5
 11
1540.999190206
 21
1330.388736054
  0
LINE
  8
0
  6
CONTINUOUS
 62
     1
 10
1540.999190206
 20
1269.611263946
 11
1443.0
 21
1269.611263946
  0
LINE
  8
0
  6
CONTINUOUS
 62
     1
 10
1540.999190206
 20
1262.5
 11
1540.999190206
 21
1269.611263946
  0
LINE
  8
0
  6
CONTINUOUS
 62
     1
 10
1540.999190206
 20
1269.611263946
 11
1545.699190206
 21
1274.311263946
  0
LINE
  8
0
  6
CONTINUOUS
 62
     1
 10
1540.999190206
 20
1330.388736054
 11
1545.699190206
 21
1325.688736054
  0
ARC
  8
0
  6
CONTINUOUS
 62
     1
 10
2134.5
 20
1300.0
 40
32.25
 50
39.177393686
 51
140.822606314
  0
ARC
  8
0
  6
CONTINUOUS
 62
     1
 10
2134.5
 20
1300.0
 40
32.25
 50
219.177393686
 51
320.822606314
  0
LINE
  8
0
  6
CONTINUOUS
 62
     1
 10
570.0
 20
1667.77572809
 11
622.672135955
 21
1667.77572809
  0
LINE
  8
0
  6
CONTINUOUS
 62
     1
 10
570.0
 20
1502.42427191
 11
622.672135955
 21
1502.42427191
  0
LINE
  8
0
  6
CONTINUOUS
 62
     1
 10
572.5
 20
1643.436
 11
572.5
 21
1653.236
  0
LINE
  8
0
  6
CONTINUOUS
 62
     1
 10
572.5
 20
1653.236
 11
578.114359354
 21
1653.236
  0
LINE
  8
0
  6
CONTINUOUS
 62
     1
 10
579.5
 20
1650.836
 11
578.114359354
 21
1653.236
  0
LINE
  8
0
  6
CONTINUOUS
 62
     1
 10
579.5
 20
1643.436
 11
579.5
 21
1650.836
  0
LINE
  8
0
  6
CONTINUOUS
 62
     1
 10
572.5
 20
1648.336
 11
578.114359354
 21
1648.336
  0
LINE
  8
0
  6
CONTINUOUS
 62
     1
 10
572.5
 20
1643.436
 11
572.5
 21
1633.636
  0
LINE
  8
0
  6
CONTINUOUS
 62
     1
 10
572.5
 20
1633.636
 11
578.114359354
 21
1633.636
  0
LINE
  8
0
  6
CONTINUOUS
 62
     1
 10
579.5
 20
1636.036
 11
578.114359354
 21
1633.636
  0
LINE
  8
0
  6
CONTINUOUS
 62
     1
 10
579.5
 20
1643.436
 11
579.5
 21
1636.036
  0
LINE
  8
0
  6
CONTINUOUS
 62
     1
 10
572.5
 20
1638.536
 11
578.114359354
 21
1638.536
  0
ARC
  8
0
  6
CONTINUOUS
 62
     1
 10
570.1433172
 20
1643.436
 40
9.3566828
 50
328.419912243
 51
31.580087757
  0
ARC
  8
0
  6
CONTINUOUS
 62
     1
 10
576.642116168
 20
1650.786
 40
2.858321186
 50
301.002313915
 51
2.989498403
  0
LINE
  8
0
  6
CONTINUOUS
 62
     1
 10
579.5
 20
1636.036
 11
578.114359354
 21
1633.636
  0
ARC
  8
0
  6
CONTINUOUS
 62
     1
 10
576.642116168
 20
1636.086
 40
2.858321186
 50
357.010501597
 51
58.997686085
  0
LINE
  8
0
  6
CONTINUOUS
 62
     1
 10
570.0
 20
1652.636
 11
572.5
 21
1652.636
  0
LINE
  8
0
  6
CONTINUOUS
 62
     1
 10
570.0
 20
1643.436
 11
572.499999996
 21
1645.935999996
  0
LINE
  8
0
  6
CONTINUOUS
 62
     1
 10
572.499999996
 20
1643.436
 11
570.0
 21
1640.936000004
  0
LINE
  8
0
  6
CONTINUOUS
 62
     1
 10
570.0
 20
1634.236
 11
572.5
 21
1634.236
  0
LINE
  8
0
  6
CONTINUOUS
 62
     1
 10
572.5
 20
1526.764
 11
572.5
 21
1516.964
  0
LINE
  8
0
  6
CONTINUOUS
 62
     1
 10
572.5
 20
1516.964
 11
578.114359354
 21
1516.964
  0
LINE
  8
0
  6
CONTINUOUS
 62
     1
 10
579.5
 20
1519.364
 11
578.114359354
 21
1516.964
  0
LINE
  8
0
  6
CONTINUOUS
 62
     1
 10
579.5
 20
1526.764
 11
579.5
 21
1519.364
  0
LINE
  8
0
  6
CONTINUOUS
 62
     1
 10
572.5
 20
1521.864
 11
578.114359354
 21
1521.864
  0
LINE
  8
0
  6
CONTINUOUS
 62
     1
 10
572.5
 20
1526.764
 11
572.5
 21
1536.564
  0
LINE
  8
0
  6
CONTINUOUS
 62
     1
 10
572.5
 20
1536.564
 11
578.114359354
 21
1536.564
  0
LINE
  8
0
  6
CONTINUOUS
 62
     1
 10
579.5
 20
1534.164
 11
578.114359354
 21
1536.564
  0
LINE
  8
0
  6
CONTINUOUS
 62
     1
 10
579.5
 20
1526.764
 11
579.5
 21
1534.164
  0
LINE
  8
0
  6
CONTINUOUS
 62
     1
 10
572.5
 20
1531.664
 11
578.114359354
 21
1531.664
  0
ARC
  8
0
  6
CONTINUOUS
 62
     1
 10
570.1433172
 20
1526.764
 40
9.3566828
 50
328.419912243
 51
31.580087757
  0
ARC
  8
0
  6
CONTINUOUS
 62
     1
 10
576.642116168
 20
1519.414
 40
2.858321186
 50
357.010501597
 51
58.997686085
  0
LINE
  8
0
  6
CONTINUOUS
 62
     1
 10
579.5
 20
1534.164
 11
578.114359354
 21
1536.564
  0
ARC
  8
0
  6
CONTINUOUS
 62
     1
 10
576.642116168
 20
1534.114
 40
2.858321186
 50
301.002313915
 51
2.989498403
  0
LINE
  8
0
  6
CONTINUOUS
 62
     1
 10
570.0
 20
1517.564
 11
572.5
 21
1517.564
  0
LINE
  8
0
  6
CONTINUOUS
 62
     1
 10
570.0
 20
1526.764
 11
572.499999996
 21
1524.264000004
  0
LINE
  8
0
  6
CONTINUOUS
 62
     1
 10
572.499999996
 20
1526.764
 11
570.0
 21
1529.263999996
  0
LINE
  8
0
  6
CONTINUOUS
 62
     1
 10
570.0
 20
1535.964
 11
572.5
 21
1535.964
  0
LINE
  8
0
  6
CONTINUOUS
 62
     1
 10
780.0
 20
1645.1
 11
633.0
 21
1645.1
  0
LINE
  8
0
  6
CONTINUOUS
 62
     1
 10
780.0
 20
1625.1
 11
633.0
 21
1625.1
  0
LINE
  8
0
  6
CONTINUOUS
 62
     1
 10
780.0
 20
1605.1
 11
633.0
 21
1605.1
  0
LINE
  8
0
  6
CONTINUOUS
 62
     1
 10
780.0
 20
1565.1
 11
633.0
 21
1565.1
  0
LINE
  8
0
  6
CONTINUOUS
 62
     1
 10
780.0
 20
1545.1
 11
633.0
 21
1545.1
  0
LINE
  8
0
  6
CONTINUOUS
 62
     1
 10
780.0
 20
1525.1
 11
633.0
 21
1525.1
  0
LINE
  8
0
  6
CONTINUOUS
 62
     1
 10
780.0
 20
1505.1
 11
633.0
 21
1505.1
  0
LINE
  8
0
  6
CONTINUOUS
 62
     1
 10
570.0
 20
1485.1
 11
570.0
 21
1685.1
  0
LINE
  8
0
  6
CONTINUOUS
 62
     1
 10
914.741517274
 20
1601.048101266
 11
914.741517274
 21
1532.048101266
  0
POINT
  8
0
  6
CONTINUOUS
 62
     1
 10
914.741517274
 20
1532.048101266
  0
LINE
  8
0
  6
CONTINUOUS
 62
     1
 10
914.741517274
 20
1532.048101266
 11
919.741517274
 21
1532.048101266
  0
POINT
  8
0
  6
CONTINUOUS
 62
     1
 10
919.741517274
 20
1532.048101266
  0
LINE
  8
0
  6
CONTINUOUS
 62
     1
 10
919.741517274
 20
1532.048101266
 11
919.741517274
 21
1601.048101266
  0
LINE
  8
0
  6
CONTINUOUS
 62
     1
 10
914.741517274
 20
1601.048101266
 11
924.541517274
 21
1601.048101266
  0
LINE
  8
0
  6
CONTINUOUS
 62
     1
 10
924.541517274
 20
1569.151898734
 11
924.541517274
 21
1601.048101266
  0
LINE
  8
0
  6
CONTINUOUS
 62
     1
 10
919.741517274
 20
1569.151898734
 11
924.541517274
 21
1569.151898734
  0
LINE
  8
0
  6
CONTINUOUS
 62
     1
 10
914.741517274
 20
1589.3
 11
908.041517274
 21
1589.3
  0
LINE
  8
0
  6
CONTINUOUS
 62
     1
 10
914.741517274
 20
1580.9
 11
908.041517274
 21
1580.9
  0
LINE
  8
0
  6
CONTINUOUS
 62
     1
 10
919.741517274
 20
1544.85
 11
925.141517274
 21
1544.85
  0
POINT
  8
0
  6
CONTINUOUS
 62
     1
 10
925.141517274
 20
1544.85
  0
LINE
  8
0
  6
CONTINUOUS
 62
     1
 10
925.141517274
 20
1544.85
 11
925.141517274
 21
1536.05
  0
POINT
  8
0
  6
CONTINUOUS
 62
     1
 10
925.141517274
 20
1536.05
  0
LINE
  8
0
  6
CONTINUOUS
 62
     1
 10
925.141517274
 20
1536.05
 11
919.841517274
 21
1536.05
  0
LINE
  8
0
  6
CONTINUOUS
 62
     1
 10
914.741517274
 20
1542.05
 11
905.841517274
 21
1542.05
  0
LINE
  8
0
  6
CONTINUOUS
 62
     1
 10
914.741517274
 20
1538.95
 11
905.541517274
 21
1538.95
  0
LINE
  8
0
  6
CONTINUOUS
 62
     1
 10
924.541517274
 20
1598.5
 11
928.0
 21
1598.5
  0
LINE
  8
0
  6
CONTINUOUS
 62
     1
 10
928.0
 20
1598.5
 11
928.0
 21
1593.9
  0
LINE
  8
0
  6
CONTINUOUS
 62
     1
 10
924.541517274
 20
1593.9
 11
928.0
 21
1593.9
  0
LINE
  8
0
  6
CONTINUOUS
 62
     1
 10
924.541517274
 20
1571.7
 11
928.0
 21
1571.7
  0
LINE
  8
0
  6
CONTINUOUS
 62
     1
 10
928.0
 20
1571.7
 11
928.0
 21
1576.3
  0
LINE
  8
0
  6
CONTINUOUS
 62
     1
 10
924.541517274
 20
1576.3
 11
928.0
 21
1576.3
  0
LINE
  8
0
  6
CONTINUOUS
 62
     1
 10
924.541517274
 20
1582.8
 11
928.0
 21
1582.8
  0
LINE
  8
0
  6
CONTINUOUS
 62
     1
 10
928.0
 20
1582.8
 11
928.0
 21
1587.4
  0
LINE
  8
0
  6
CONTINUOUS
 62
     1
 10
924.541517274
 20
1587.4
 11
928.0
 21
1587.4
  0
LINE
  8
0
  6
LTYPE1
 62
     2
 10
900.841517274
 20
1540.55
 11
930.841517274
 21
1540.55
  0
LINE
  8
0
  6
CONTINUOUS
 62
     1
 10
780.0
 20
1665.1
 11
633.0
 21
1665.1
  0
LINE
  8
0
  6
CONTINUOUS
 62
     1
 10
796.5
 20
1698.1
 11
796.5
 21
1738.1
  0
LINE
  8
0
  6
CONTINUOUS
 62
     1
 10
777.5
 20
1773.1
 11
629.5
 21
1699.1
  0
LINE
  8
0
  6
CONTINUOUS
 62
     1
 10
781.972135955
 20
1764.15572809
 11
633.972135955
 21
1690.15572809
  0
ARC
  8
0
  6
CONTINUOUS
 62
     1
 10
751.5
 20
1697.1
 40
10.0
 50
270.0
 51
0.0
  0
ARC
  8
0
  6
CONTINUOUS
 62
     1
 10
751.5
 20
1763.1
 40
10.0
 50
0.0
 51
90.0
  0
LINE
  8
0
  6
CONTINUOUS
 62
     1
 10
751.5
 20
1773.1
 11
661.5
 21
1773.1
  0
ARC
  8
0
  6
CONTINUOUS
 62
     1
 10
661.5
 20
1763.1
 40
10.0
 50
90.0
 51
180.0
  0
LINE
  8
0
  6
CONTINUOUS
 62
     1
 10
751.5
 20
1687.1
 11
661.5
 21
1687.1
  0
ARC
  8
0
  6
CONTINUOUS
 62
     1
 10
661.5
 20
1697.1
 40
10.0
 50
180.0
 51
270.0
  0
LINE
  8
0
  6
CONTINUOUS
 62
     1
 10
629.5
 20
1699.1
 11
633.972135955
 21
1690.15572809
  0
LINE
  8
0
  6
CONTINUOUS
 62
     1
 10
651.5
 20
1710.01572809
 11
651.5
 21
1763.1
  0
LINE
  8
0
  6
CONTINUOUS
 62
     1
 10
651.5
 20
1697.1
 11
651.5
 21
1699.01572809
  0
LINE
  8
0
  6
CONTINUOUS
 62
     1
 10
761.5
 20
1697.1
 11
761.5
 21
1753.01572809
  0
LINE
  8
0
  6
CONTINUOUS
 62
     1
 10
777.712135955
 20
1773.89572809
 11
782.512135955
 21
1764.69572809
  0
LINE
  8
0
  6
CONTINUOUS
 62
     1
 10
796.5
 20
1738.1
 11
761.5
 21
1738.1
  0
LINE
  8
0
  6
CONTINUOUS
 62
     1
 10
796.5
 20
1698.1
 11
761.5
 21
1698.1
  0
LINE
  8
0
  6
LTYPE1
 62
     2
 10
802.652135955
 20
1718.1
 11
751.552135955
 21
1718.1
  0
LINE
  8
0
  6
LTYPE1
 62
     2
 10
706.5
 20
1673.85
 11
706.5
 21
1782.9
  0
LINE
  8
0
  6
CONTINUOUS
 62
     1
 10
790.0
 20
1685.1
 11
885.814388593
 21
1685.1
  0
ARC
  8
0
  6
CONTINUOUS
 62
     1
 10
883.814388593
 20
1670.1
 40
15.0
 50
10.945397096
 51
90.0
  0
ARC
  8
0
  6
CONTINUOUS
 62
     1
 10
883.923513917
 20
1672.793940371
 40
15.0
 50
10.945397096
 51
90.0
  0
LINE
  8
0
  6
CONTINUOUS
 62
     1
 10
790.0
 20
1687.6
 11
885.814388593
 21
1687.6
  0
ARC
  8
0
  6
CONTINUOUS
 62
     1
 10
883.814388593
 20
1500.1
 40
15.0
 50
270.0
 51
349.054602904
  0
ARC
  8
0
  6
CONTINUOUS
 62
     1
 10
498.0
 20
1585.1
 40
410.0
 50
347.629566941
 51
12.370433059
  0
LINE
  8
0
  6
CONTINUOUS
 62
     1
 10
790.0
 20
1675.8
 11
623.0
 21
1675.8
  0
LINE
  8
0
  6
CONTINUOUS
 62
     1
 10
623.0
 20
1494.4
 11
623.0
 21
1675.8
  0
LINE
  8
0
  6
CONTINUOUS
 62
     1
 10
741.4
 20
1687.1
 11
741.4
 21
1675.8
  0
LINE
  8
0
  6
CONTINUOUS
 62
     1
 10
671.6
 20
1687.1
 11
671.6
 21
1675.8
  0
ARC
  8
0
  6
CONTINUOUS
 62
     1
 10
897.874980463
 20
1595.1
 40
10.0
 50
1.432543738
 51
90.0
  0
ARC
  8
0
  6
CONTINUOUS
 62
     1
 10
897.874980463
 20
1575.1
 40
10.0
 50
270.0
 51
358.567456262
  0
LINE
  8
0
  6
CONTINUOUS
 62
     1
 10
897.874999151
 20
1605.1
 11
790.0
 21
1605.1
  0
LINE
  8
0
  6
CONTINUOUS
 62
     1
 10
790.0
 20
1565.1
 11
898.374999151
 21
1565.1
  0
LINE
  8
0
  6
CONTINUOUS
 62
     1
 10
570.0
 20
1685.1
 11
558.0
 21
1685.1
  0
LINE
  8
0
  6
CONTINUOUS
 62
     1
 10
570.0
 20
1485.1
 11
558.0
 21
1485.1
  0
LINE
  8
0
  6
CONTINUOUS
 62
     1
 10
790.0
 20
1494.4
 11
623.0
 21
1494.4
  0
ARC
  8
0
  6
CONTINUOUS
 62
     1
 10
883.923513917
 20
1497.406059629
 40
15.0
 50
270.0
 51
349.054602904
  0
LINE
  8
0
  6
CONTINUOUS
 62
     1
 10
790.0
 20
1485.1
 11
885.814388593
 21
1485.1
  0
LINE
  8
0
  6
CONTINUOUS
 62
     1
 10
790.0
 20
1482.6
 11
885.814388593
 21
1482.6
  0
LINE
  8
0
  6
CONTINUOUS
 62
     1
 10
790.0
 20
1482.6
 11
790.0
 21
1687.6
  0
LINE
  8
1
  6
CONTINUOUS
 62
     2
 10
797.5
 20
1724.5
 11
806.246652882
 21
1742.485996313
  0
LINE
  8
1
  6
CONTINUOUS
 62
     2
 10
797.5
 20
1724.5
 11
796.081825437
 21
1744.44965616
  0
LINE
  8
1
  6
CONTINUOUS
 62
     2
 10
797.5
 20
1724.5
 11
806.0
 21
1768.5
  0
LINE
  8
1
  6
CONTINUOUS
 62
     2
 10
806.0
 20
1768.5
 11
923.6
 21
1768.5
  0
TEXT
  8
1
  6
CONTINUOUS
 62
     3
 10
806.0
 20
1776.5
 30
2.4
 40
24.0
  1
ＰＦ３／４
 50
0.0
 41
0.9
 51
0.0
  7
KANJI0
  0
LINE
  8
1
  6
CONTINUOUS
 62
     2
 10
928.0
 20
1585.0
 11
940.13105178
 21
1600.900867357
  0
LINE
  8
1
  6
CONTINUOUS
 62
     2
 10
928.0
 20
1585.0
 11
930.555365338
 21
1604.836080963
  0
LINE
  8
1
  6
CONTINUOUS
 62
     2
 10
928.0
 20
1585.0
 11
1003.0
 21
1767.5
  0
LINE
  8
1
  6
CONTINUOUS
 62
     2
 10
1003.0
 20
1767.5
 11
1192.6
 21
1767.5
  0
TEXT
  8
1
  6
CONTINUOUS
 62
     3
 10
1003.0
 20
1775.5
 30
2.4
 40
24.0
  1
ブレ－キ開放装置
 50
0.0
 41
0.9
 51
0.0
  7
KANJI0
  0
TEXT
  8
1
  6
CONTINUOUS
 62
     3
 10
935.0
 20
1478.5
 30
2.4
 40
24.0
  1
推力リミッタ
 50
0.0
 41
0.9
 51
0.0
  7
KANJI0
  0
LINE
  8
0
  6
LTYPE1
 62
     2
 10
971.3
 20
1585.8
 11
339.2
 21
1585.8
  0
LINE
  8
0
  6
CONTINUOUS
 62
     1
 10
550.0
 20
1705.8
 11
558.0
 21
1705.8
  0
LINE
  8
0
  6
CONTINUOUS
 62
     1
 10
550.0
 20
1465.8
 11
558.0
 21
1465.8
  0
LINE
  8
0
  6
CONTINUOUS
 62
     1
 10
558.0
 20
1705.8
 11
558.0
 21
1465.8
  0
LINE
  8
1
  6
CONTINUOUS
 62
     2
 10
550.0
 20
1855.0
 11
569.318516526
 21
1849.823619098
  0
LINE
  8
1
  6
CONTINUOUS
 62
     2
 10
550.0
 20
1855.0
 11
569.318516526
 21
1860.176380902
  0
LINE
  8
1
  6
CONTINUOUS
 62
     2
 10
550.0
 20
1855.0
 11
928.0
 21
1855.0
  0
LINE
  8
1
  6
CONTINUOUS
 62
     2
 10
928.0
 20
1855.0
 11
908.681483474
 21
1860.176380902
  0
LINE
  8
1
  6
CONTINUOUS
 62
     2
 10
928.0
 20
1855.0
 11
908.681483474
 21
1849.823619098
  0
LINE
  8
1
  6
CONTINUOUS
 62
     2
 10
928.0
 20
1606.5
 11
928.0
 21
1871.0
  0
TEXT
  8
1
  6
CONTINUOUS
 62
     3
 10
698.2
 20
1863.0
 30
2.4
 40
28.0
  1
３７８
 50
0.0
 41
0.914285714
 51
0.0
  7
KANJI50
  0
LINE
  8
0
  6
CONTINUOUS
 62
     1
 10
2119.5
 20
1150.0
 11
2149.5
 21
1150.0
  0
LINE
  8
0
  6
LTYPE4
 62
     2
 10
2103.6
 20
1163.0
 11
2165.6
 21
1163.0
  0
CIRCLE
  8
0
  6
CONTINUOUS
 62
     1
 10
2134.5
 20
1163.0
 40
6.49995
  0
LINE
  8
0
  6
CONTINUOUS
 62
     1
 10
2140.99995
 20
1166.74703
 11
2140.99995
 21
1159.25297
  0
LINE
  8
0
  6
CONTINUOUS
 62
     1
 10
2140.99995
 20
1159.25297
 11
2134.5
 21
1155.50594
  0
LINE
  8
0
  6
CONTINUOUS
 62
     1
 10
2128.00005
 20
1166.74703
 11
2128.00005
 21
1159.25297
  0
LINE
  8
0
  6
CONTINUOUS
 62
     1
 10
2128.00005
 20
1159.25297
 11
2134.5
 21
1155.50594
  0
LINE
  8
0
  6
CONTINUOUS
 62
     1
 10
2140.99995
 20
1166.74703
 11
2134.5
 21
1170.49406
  0
LINE
  8
0
  6
CONTINUOUS
 62
     1
 10
2128.00005
 20
1166.74703
 11
2134.5
 21
1170.49406
  0
LINE
  8
0
  6
CONTINUOUS
 62
     1
 10
2217.0
 20
1204.0
 11
2217.0
 21
1210.0
  0
LINE
  8
0
  6
CONTINUOUS
 62
     1
 10
2052.0
 20
1204.0
 11
2052.0
 21
1210.0
  0
LINE
  8
0
  6
CONTINUOUS
 62
     1
 10
2056.5
 20
1204.0
 11
2056.5
 21
1204.1
  0
LINE
  8
0
  6
CONTINUOUS
 62
     1
 10
2056.5
 20
1164.0
 11
2056.5
 21
1165.0
  0
LINE
  8
0
  6
CONTINUOUS
 62
     1
 10
2056.5
 20
1164.0
 11
2056.5
 21
1204.0
  0
LINE
  8
0
  6
CONTINUOUS
 62
     1
 10
2096.5
 20
1204.0
 11
2096.5
 21
1164.0
  0
LINE
  8
0
  6
CONTINUOUS
 62
     1
 10
2105.75
 20
1159.5
 11
2105.75
 21
1166.5
  0
LINE
  8
0
  6
LTYPE2
 62
     2
 10
2076.5
 20
1147.4
 11
2076.5
 21
1205.4
  0
LINE
  8
0
  6
LTYPE2
 62
     2
 10
2091.6
 20
1207.4
 11
2091.6
 21
1160.4
  0
LINE
  8
0
  6
LTYPE2
 62
     2
 10
2061.4
 20
1161.4
 11
2061.4
 21
1208.4
  0
LINE
  8
0
  6
CONTINUOUS
 62
     1
 10
2096.5
 20
1161.0
 11
2084.0
 21
1161.0
  0
LINE
  8
0
  6
CONTINUOUS
 62
     1
 10
2105.75
 20
1158.9
 11
2096.5
 21
1161.0
  0
LINE
  8
0
  6
LTYPE2
 62
     2
 10
2114.5
 20
1149.8
 11
2114.5
 21
1169.0
  0
LINE
  8
0
  6
CONTINUOUS
 62
     1
 10
2084.0
 20
1161.0
 11
2069.0
 21
1161.0
  0
ARC
  8
0
  6
CONTINUOUS
 62
     1
 10
2065.8
 20
1180.2
 40
2.0
 50
180.0
 51
270.0
  0
LINE
  8
0
  6
CONTINUOUS
 62
     1
 10
2087.2
 20
1178.2
 11
2065.8
 21
1178.2
  0
ARC
  8
0
  6
CONTINUOUS
 62
     1
 10
2087.2
 20
1180.2
 40
2.0
 50
270.0
 51
360.0
  0
LINE
  8
0
  6
CONTINUOUS
 62
     1
 10
2089.2
 20
1180.2
 11
2089.2
 21
1201.6
  0
ARC
  8
0
  6
CONTINUOUS
 62
     1
 10
2087.2
 20
1201.6
 40
2.0
 50
0.0
 51
90.0
  0
LINE
  8
0
  6
CONTINUOUS
 62
     1
 10
2063.8
 20
1180.2
 11
2063.8
 21
1201.6
  0
LINE
  8
0
  6
CONTINUOUS
 62
     1
 10
2087.2
 20
1203.6
 11
2065.8
 21
1203.6
  0
ARC
  8
0
  6
CONTINUOUS
 62
     1
 10
2065.8
 20
1201.6
 40
2.0
 50
90.0
 51
180.0
  0
LINE
  8
0
  6
LTYPE2
 62
     2
 10
2062.4
 20
1190.9
 11
2090.8
 21
1190.9
  0
LINE
  8
0
  6
CONTINUOUS
 62
     1
 10
2084.0
 20
1151.0
 11
2084.0
 21
1178.2
  0
LINE
  8
0
  6
CONTINUOUS
 62
     1
 10
2069.0
 20
1169.0
 11
2056.5
 21
1169.0
  0
LINE
  8
0
  6
CONTINUOUS
 62
     1
 10
2096.5
 20
1169.0
 11
2083.9
 21
1169.0
  0
LINE
  8
0
  6
CONTINUOUS
 62
     1
 10
2068.9
 20
1164.0
 11
2056.5
 21
1164.0
  0
LINE
  8
0
  6
CONTINUOUS
 62
     1
 10
2096.5
 20
1164.0
 11
2084.0
 21
1164.0
  0
LINE
  8
0
  6
CONTINUOUS
 62
     1
 10
2172.5
 20
1204.0
 11
2172.5
 21
1204.1
  0
LINE
  8
0
  6
CONTINUOUS
 62
     1
 10
2172.5
 20
1164.0
 11
2172.5
 21
1165.0
  0
LINE
  8
0
  6
CONTINUOUS
 62
     1
 10
2172.5
 20
1164.0
 11
2172.5
 21
1204.0
  0
LINE
  8
0
  6
CONTINUOUS
 62
     1
 10
2212.5
 20
1204.0
 11
2212.5
 21
1164.0
  0
LINE
  8
0
  6
CONTINUOUS
 62
     1
 10
2212.5
 20
1164.0
 11
2172.5
 21
1164.0
  0
LINE
  8
0
  6
CONTINUOUS
 62
     1
 10
2212.5
 20
1169.0
 11
2172.5
 21
1169.0
  0
LINE
  8
0
  6
CONTINUOUS
 62
     1
 10
2200.0
 20
1151.0
 11
2200.0
 21
1164.0
  0
LINE
  8
0
  6
CONTINUOUS
 62
     1
 10
2185.0
 20
1151.0
 11
2185.0
 21
1164.0
  0
CIRCLE
  8
0
  6
CONTINUOUS
 62
     1
 10
2192.5
 20
1182.4
 40
9.36
  0
LINE
  8
0
  6
CONTINUOUS
 62
     1
 10
2163.25
 20
1159.5
 11
2163.25
 21
1166.5
  0
LINE
  8
0
  6
LTYPE2
 62
     2
 10
2192.5
 20
1147.4
 11
2192.5
 21
1205.4
  0
LINE
  8
0
  6
LTYPE2
 62
     2
 10
2205.5
 20
1182.4
 11
2179.5
 21
1182.4
  0
LINE
  8
0
  6
LTYPE2
 62
     2
 10
2207.6
 20
1207.4
 11
2207.6
 21
1160.4
  0
LINE
  8
0
  6
LTYPE2
 62
     2
 10
2177.4
 20
1161.4
 11
2177.4
 21
1208.4
  0
LINE
  8
0
  6
LTYPE2
 62
     2
 10
2154.5
 20
1147.4
 11
2154.5
 21
1169.0
  0
CIRCLE
  8
0
  6
CONTINUOUS
 62
     2
 10
2192.5
 20
1182.4
 40
10.47
  0
LINE
  8
0
  6
CONTINUOUS
 62
     1
 10
2172.5
 20
1161.0
 11
2185.0
 21
1161.0
  0
LINE
  8
0
  6
CONTINUOUS
 62
     1
 10
2163.25
 20
1158.9
 11
2172.5
 21
1161.0
  0
LINE
  8
0
  6
CONTINUOUS
 62
     1
 10
2069.0
 20
1151.0
 11
2069.0
 21
1178.2
  0
LINE
  8
0
  6
LTYPE4
 62
     2
 10
2046.5
 20
1163.0
 11
2223.5
 21
1163.0
  0
LINE
  8
0
  6
CONTINUOUS
 62
     1
 10
2114.34375
 20
1166.5
 11
2105.75
 21
1166.5
  0
LINE
  8
0
  6
CONTINUOUS
 62
     1
 10
2116.53125
 20
1159.5
 11
2105.75
 21
1159.5
  0
LINE
  8
0
  6
CONTINUOUS
 62
     1
 10
2163.25
 20
1159.5
 11
2152.46875
 21
1159.5
  0
LINE
  8
0
  6
CONTINUOUS
 62
     1
 10
2163.25
 20
1166.5
 11
2154.5
 21
1166.5
  0
LINE
  8
0
  6
LTYPE3
 62
     2
 10
2145.75
 20
1159.5
 11
2145.75
 21
1166.5
  0
LINE
  8
0
  6
LTYPE3
 62
     2
 10
2154.5
 20
1166.5
 11
2145.75
 21
1166.5
  0
LINE
  8
0
  6
LTYPE3
 62
     2
 10
2152.43125
 20
1159.5
 11
2145.75
 21
1159.5
  0
LINE
  8
0
  6
LTYPE3
 62
     2
 10
2123.25
 20
1159.5
 11
2123.25
 21
1166.5
  0
LINE
  8
0
  6
LTYPE3
 62
     2
 10
2123.25
 20
1166.5
 11
2114.34375
 21
1166.5
  0
CIRCLE
  8
0
  6
CONTINUOUS
 62
     1
 10
2134.5
 20
1163.0
 40
4.0
  0
CIRCLE
  8
0
  6
CONTINUOUS
 62
     2
 10
2134.5
 20
1163.0
 40
3.2
  0
LINE
  8
0
  6
CONTINUOUS
 62
     1
 10
2116.706322676
 20
1159.0
 11
2105.75
 21
1159.0
  0
LINE
  8
0
  6
CONTINUOUS
 62
     1
 10
2119.189591408
 20
1151.0
 11
2069.0
 21
1151.0
  0
LINE
  8
0
  6
CONTINUOUS
 62
     1
 10
2149.810408592
 20
1151.0
 11
2200.0
 21
1151.0
  0
LINE
  8
0
  6
CONTINUOUS
 62
     1
 10
2152.293677324
 20
1159.0
 11
2163.25
 21
1159.0
  0
LINE
  8
0
  6
LTYPE3
 62
     2
 10
2123.25
 20
1159.5
 11
2116.53125
 21
1159.5
  0
LINE
  8
0
  6
LTYPE3
 62
     2
 10
2119.5
 20
1159.0
 11
2116.706322676
 21
1159.0
  0
LINE
  8
0
  6
LTYPE3
 62
     2
 10
2119.5
 20
1151.0
 11
2119.189591408
 21
1151.0
  0
LINE
  8
0
  6
LTYPE3
 62
     2
 10
2119.5
 20
1151.0
 11
2119.5
 21
1159.0
  0
LINE
  8
0
  6
LTYPE3
 62
     2
 10
2149.5
 20
1151.0
 11
2149.5
 21
1159.5
  0
LINE
  8
0
  6
LTYPE3
 62
     2
 10
2149.5
 20
1151.0
 11
2149.810408592
 21
1151.0
  0
LINE
  8
0
  6
LTYPE3
 62
     2
 10
2149.5
 20
1159.0
 11
2152.293677324
 21
1159.0
  0
LINE
  8
0
  6
CONTINUOUS
 62
     1
 10
2119.5
 20
1150.0
 11
2082.250969007
 21
1257.0
  0
LINE
  8
0
  6
CONTINUOUS
 62
     1
 10
2149.5
 20
1150.0
 11
2186.749030993
 21
1257.0
  0
LINE
  8
0
  6
CONTINUOUS
 62
     1
 10
2052.0
 20
1210.0
 11
2098.612692901
 21
1210.0
  0
LINE
  8
0
  6
CONTINUOUS
 62
     1
 10
2052.0
 20
1204.0
 11
2100.701423611
 21
1204.0
  0
LINE
  8
0
  6
CONTINUOUS
 62
     1
 10
2100.701423611
 20
1204.0
 11
2056.5
 21
1204.0
  0
LINE
  8
0
  6
CONTINUOUS
 62
     1
 10
2168.298576389
 20
1204.0
 11
2217.0
 21
1204.0
  0
LINE
  8
0
  6
CONTINUOUS
 62
     1
 10
2170.387307099
 20
1210.0
 11
2217.0
 21
1210.0
  0
ARC
  8
0
  6
CONTINUOUS
 62
     1
 10
2134.5
 20
1300.0
 40
100.0
 50
295.404114359
 51
118.25631605
  0
ARC
  8
0
  6
CONTINUOUS
 62
     1
 10
2134.5
 20
1300.0
 40
92.5
 50
294.932275626
 51
244.908899036
  0
ARC
  8
0
  6
CONTINUOUS
 62
     1
 10
2134.5
 20
1300.0
 40
100.0
 50
171.74368395
 51
244.595885641
  0
LINE
  8
0
  6
LTYPE3
 62
     2
 10
1490.500190206
 20
1605.0
 11
1490.500190206
 21
1645.0
  0
LINE
  8
0
  6
LTYPE3
 62
     2
 10
1525.500190206
 20
1605.0
 11
1525.500190206
 21
1645.0
  0
LINE
  8
1
  6
CONTINUOUS
 62
     2
 10
1525.500190206
 20
1598.5
 11
1525.500190206
 21
1503.0
  0
LINE
  8
1
  6
CONTINUOUS
 62
     2
 10
1490.500190206
 20
1596.8
 11
1490.500190206
 21
1503.0
  0
LINE
  8
0
  6
CONTINUOUS
 62
     1
 10
1325.149691586
 20
1360.67377156
 11
1330.725406547
 21
1381.482623085
  0
LINE
  8
0
  6
CONTINUOUS
 62
     1
 10
1310.149691586
 20
1360.57377156
 11
1325.149691586
 21
1360.57377156
  0
LINE
  8
0
  6
CONTINUOUS
 62
     1
 10
1330.725406547
 20
1381.482623085
 11
1336.084390396
 21
1361.482623085
  0
LINE
  8
6
  6
CONTINUOUS
 62
     2
 10
1371.0
 20
1381.482623085
 11
1370.5
 21
1381.482623085
  0
LINE
  8
0
  6
CONTINUOUS
 62
     1
 10
1408.335399739
 20
1381.482623085
 11
1402.97641589
 21
1361.482623085
  0
LINE
  8
0
  6
LTYPE5
 62
     2
 10
1330.725406547
 20
1381.482623085
 11
1408.335399739
 21
1381.482623085
  0
LINE
  8
0
  6
LTYPE5
 62
     2
 10
1336.084390396
 20
1361.482623085
 11
1402.97641589
 21
1361.482623085
  0
LINE
  8
0
  6
CONTINUOUS
 62
     1
 10
1426.357868375
 20
1337.5
 11
1422.9
 21
1337.5
  0
LINE
  8
0
  6
CONTINUOUS
 62
     1
 10
1422.8
 20
1337.5
 11
1408.335399739
 21
1381.482623085
  0
LINE
  8
0
  6
CONTINUOUS
 62
     1
 10
1438.0
 20
1337.5
 11
1434.057868375
 21
1337.5
  0
LINE
  8
0
  6
CONTINUOUS
 62
     1
 10
1368.999
 20
1300.0
 11
1368.999
 21
1243.0
  0
LINE
  8
0
  6
CONTINUOUS
 62
     1
 10
1437.999190206
 20
1262.5
 11
1422.999190206
 21
1262.5
  0
LINE
  8
0
  6
CONTINUOUS
 62
     1
 10
1426.057868375
 20
1337.661736767
 11
1426.057868375
 21
1339.561736767
  0
POINT
  8
0
  6
CONTINUOUS
 62
     1
 10
1426.057868375
 20
1339.561736767
  0
LINE
  8
0
  6
CONTINUOUS
 62
     1
 10
1426.057868375
 20
1339.561736767
 11
1434.257868375
 21
1339.561736767
  0
POINT
  8
0
  6
CONTINUOUS
 62
     1
 10
1434.257868375
 20
1339.561736767
  0
LINE
  8
0
  6
CONTINUOUS
 62
     1
 10
1434.257868375
 20
1339.561736767
 11
1434.257868375
 21
1337.861736767
  0
LINE
  8
0
  6
CONTINUOUS
 62
     1
 10
1325.248881792
 20
1236.32622844
 11
1330.824596753
 21
1215.517376915
  0
LINE
  8
0
  6
CONTINUOUS
 62
     1
 10
1330.824596753
 20
1215.517376915
 11
1336.183580602
 21
1235.517376915
  0
LINE
  8
0
  6
CONTINUOUS
 62
     1
 10
1310.248881792
 20
1236.42622844
 11
1325.248881792
 21
1236.42622844
  0
LINE
  8
0
  6
CONTINUOUS
 62
     1
 10
1408.434589945
 20
1215.517376915
 11
1403.075606097
 21
1235.517376915
  0
LINE
  8
0
  6
CONTINUOUS
 62
     1
 10
1437.999190206
 20
1262.5
 11
1422.999190206
 21
1262.5
  0
LINE
  8
0
  6
CONTINUOUS
 62
     1
 10
1426.157058582
 20
1262.638263233
 11
1426.157058582
 21
1260.738263233
  0
POINT
  8
0
  6
CONTINUOUS
 62
     1
 10
1426.157058582
 20
1260.738263233
  0
LINE
  8
0
  6
CONTINUOUS
 62
     1
 10
1426.157058582
 20
1260.738263233
 11
1434.357058582
 21
1260.738263233
  0
POINT
  8
0
  6
CONTINUOUS
 62
     1
 10
1434.357058582
 20
1260.738263233
  0
LINE
  8
0
  6
CONTINUOUS
 62
     1
 10
1434.357058582
 20
1260.738263233
 11
1434.357058582
 21
1262.438263233
  0
LINE
  8
0
  6
CONTINUOUS
 62
     1
 10
1422.899190206
 20
1262.5
 11
1408.434589945
 21
1215.517376915
  0
LINE
  8
0
  6
LTYPE5
 62
     2
 10
1330.824596753
 20
1215.517376915
 11
1408.434589945
 21
1215.517376915
  0
LINE
  8
0
  6
LTYPE5
 62
     2
 10
1336.183580602
 20
1235.517376915
 11
1403.075606097
 21
1235.517376915
  0
LINE
  8
1
  6
CONTINUOUS
 62
     2
 10
1322.725406547
 20
1381.482623085
 11
1189.024596753
 21
1381.482623085
  0
LINE
  8
1
  6
CONTINUOUS
 62
     2
 10
1205.024596753
 20
1381.482623085
 11
1199.848215851
 21
1362.164106559
  0
LINE
  8
1
  6
CONTINUOUS
 62
     2
 10
1205.024596753
 20
1381.482623085
 11
1210.200977655
 21
1362.164106559
  0
LINE
  8
1
  6
CONTINUOUS
 62
     2
 10
1205.024596753
 20
1381.482623085
 11
1205.024596753
 21
1215.517376915
  0
LINE
  8
1
  6
CONTINUOUS
 62
     2
 10
1205.024596753
 20
1215.517376915
 11
1210.200977655
 21
1234.835893441
  0
LINE
  8
1
  6
CONTINUOUS
 62
     2
 10
1205.024596753
 20
1215.517376915
 11
1199.848215851
 21
1234.835893441
  0
LINE
  8
1
  6
CONTINUOUS
 62
     2
 10
1322.824596753
 20
1215.517376915
 11
1189.024596753
 21
1215.517376915
  0
TEXT
  8
1
  6
CONTINUOUS
 62
     3
 10
1197.024596753
 20
1243.7
 30
2.4
 40
28.0
  1
φ１５０
 50
90.0
 41
0.914285714
 51
0.0
  7
KANJI50
  0
LINE
  8
0
  6
CONTINUOUS
 62
     1
 10
1330.725406547
 20
1381.482623085
 11
1330.725406547
 21
1300.0
  0
LINE
  8
0
  6
CONTINUOUS
 62
     1
 10
1336.754263377
 20
1358.982623085
 11
1336.754263377
 21
1300.0
  0
LINE
  8
0
  6
CONTINUOUS
 62
     1
 10
1402.97641589
 20
1361.482623085
 11
1402.97641589
 21
1300.0
  0
LINE
  8
0
  6
CONTINUOUS
 62
     1
 10
1408.335399739
 20
1381.482623085
 11
1408.335399739
 21
1300.0
  0
LINE
  8
0
  6
CONTINUOUS
 62
     1
 10
1422.8
 20
1337.5
 11
1422.8
 21
1300.0
  0
LINE
  8
0
  6
CONTINUOUS
 62
     1
 10
1426.057868375
 20
1337.5
 11
1426.057868375
 21
1300.0
  0
LINE
  8
0
  6
CONTINUOUS
 62
     1
 10
1434.257868375
 20
1339.561736767
 11
1434.257868375
 21
1300.0
  0
LINE
  8
0
  6
CONTINUOUS
 62
     1
 10
1438.0
 20
1337.5
 11
1438.0
 21
1262.5
  0
LINE
  8
0
  6
CONTINUOUS
 62
     1
 10
1392.04171708
 20
1360.67377156
 11
1397.617432042
 21
1381.482623085
  0
LINE
  8
0
  6
CONTINUOUS
 62
     1
 10
1377.04171708
 20
1360.57377156
 11
1392.04171708
 21
1360.57377156
  0
LINE
  8
0
  6
CONTINUOUS
 62
     1
 10
1397.617432042
 20
1381.482623085
 11
1402.97641589
 21
1361.482623085
  0
LINE
  8
0
  6
CONTINUOUS
 62
     1
 10
1392.04171708
 20
1360.67377156
 11
1392.04171708
 21
1300.0
  0
LINE
  8
0
  6
CONTINUOUS
 62
     1
 10
1397.617432042
 20
1381.482623085
 11
1397.617432042
 21
1300.0
  0
LINE
  8
0
  6
CONTINUOUS
 62
     1
 10
1403.646288871
 20
1358.982623085
 11
1403.646288871
 21
1300.0
  0
LINE
  8
0
  6
CONTINUOUS
 62
     1
 10
1392.140907287
 20
1236.32622844
 11
1397.716622248
 21
1215.517376915
  0
LINE
  8
0
  6
CONTINUOUS
 62
     1
 10
1397.716622248
 20
1215.517376915
 11
1403.075606097
 21
1235.517376915
  0
LINE
  8
0
  6
CONTINUOUS
 62
     1
 10
1377.140907287
 20
1236.42622844
 11
1392.140907287
 21
1236.42622844
  0
LINE
  8
0
  6
CONTINUOUS
 62
     1
 10
1383.999
 20
1262.5
 11
1437.999190206
 21
1262.5
  0
LINE
  8
0
  6
CONTINUOUS
 62
     1
 10
1383.999
 20
1300.0
 11
1383.999
 21
1243.0
  0
LINE
  8
0
  6
CONTINUOUS
 62
     1
 10
1383.999
 20
1243.0
 11
1250.149691586
 21
1243.0
  0
LINE
  8
0
  6
CONTINUOUS
 62
     1
 10
1325.149691586
 20
1360.67377156
 11
1325.149691586
 21
1243.0
  0
LINE
  8
0
  6
CONTINUOUS
 62
     1
 10
1325.149691586
 20
1357.0
 11
1250.149691586
 21
1357.0
  0
LINE
  8
0
  6
LTYPE1
 62
     2
 10
1375.924393903
 20
1625.982623085
 11
1577.424393903
 21
1625.982623085
  0
LINE
  8
0
  6
CONTINUOUS
 62
     1
 10
1405.259603436
 20
1710.46524617
 11
1399.900619588
 21
1690.46524617
  0
LINE
  8
0
  6
LTYPE5
 62
     2
 10
1333.008594093
 20
1690.46524617
 11
1399.900619588
 21
1690.46524617
  0
LINE
  8
0
  6
LTYPE5
 62
     2
 10
1327.649610244
 20
1710.46524617
 11
1405.259603436
 21
1710.46524617
  0
LINE
  8
0
  6
CONTINUOUS
 62
     1
 10
1422.982072072
 20
1663.344359852
 11
1422.982072072
 21
1665.244359852
  0
POINT
  8
0
  6
CONTINUOUS
 62
     1
 10
1422.982072072
 20
1665.244359852
  0
LINE
  8
0
  6
CONTINUOUS
 62
     1
 10
1422.982072072
 20
1665.244359852
 11
1431.182072072
 21
1665.244359852
  0
POINT
  8
0
  6
CONTINUOUS
 62
     1
 10
1431.182072072
 20
1665.244359852
  0
LINE
  8
0
  6
CONTINUOUS
 62
     1
 10
1431.182072072
 20
1665.244359852
 11
1431.182072072
 21
1663.544359852
  0
LINE
  8
0
  6
CONTINUOUS
 62
     1
 10
1419.724203697
 20
1663.482623085
 11
1405.259603436
 21
1710.46524617
  0
LINE
  8
0
  6
CONTINUOUS
 62
     1
 10
1405.259603436
 20
1541.5
 11
1399.900619588
 21
1561.5
  0
LINE
  8
0
  6
LTYPE5
 62
     2
 10
1333.008594093
 20
1561.5
 11
1399.900619588
 21
1561.5
  0
LINE
  8
0
  6
CONTINUOUS
 62
     1
 10
1422.982072072
 20
1588.620886318
 11
1422.982072072
 21
1586.720886318
  0
POINT
  8
0
  6
CONTINUOUS
 62
     1
 10
1422.982072072
 20
1586.720886318
  0
LINE
  8
0
  6
CONTINUOUS
 62
     1
 10
1422.982072072
 20
1586.720886318
 11
1431.182072073
 21
1586.720886318
  0
POINT
  8
0
  6
CONTINUOUS
 62
     1
 10
1431.182072073
 20
1586.720886318
  0
LINE
  8
0
  6
CONTINUOUS
 62
     1
 10
1431.182072073
 20
1586.720886318
 11
1431.182072073
 21
1588.420886318
  0
LINE
  8
0
  6
CONTINUOUS
 62
     1
 10
1419.724203697
 20
1588.482623085
 11
1405.259603436
 21
1541.5
  0
LINE
  8
0
  6
CONTINUOUS
 62
     1
 10
1399.900619588
 20
1690.46524617
 11
1399.900619588
 21
1625.982623085
  0
LINE
  8
0
  6
CONTINUOUS
 62
     1
 10
1405.259603436
 20
1710.46524617
 11
1405.259603436
 21
1625.982623085
  0
LINE
  8
0
  6
CONTINUOUS
 62
     1
 10
1419.724203697
 20
1663.482623085
 11
1419.724203697
 21
1625.982623085
  0
LINE
  8
0
  6
CONTINUOUS
 62
     1
 10
1422.982072072
 20
1665.244359852
 11
1422.982072072
 21
1625.982623085
  0
LINE
  8
0
  6
CONTINUOUS
 62
     1
 10
1431.182072072
 20
1665.244359852
 11
1431.182072072
 21
1625.982623085
  0
LINE
  8
0
  6
CONTINUOUS
 62
     1
 10
1399.900619588
 20
1561.5
 11
1399.900619588
 21
1625.982623085
  0
LINE
  8
0
  6
CONTINUOUS
 62
     1
 10
1405.259603436
 20
1541.5
 11
1405.259603436
 21
1625.982623085
  0
LINE
  8
0
  6
CONTINUOUS
 62
     1
 10
1419.724203697
 20
1588.482623085
 11
1419.724203697
 21
1625.982623085
  0
LINE
  8
0
  6
CONTINUOUS
 62
     1
 10
1422.982072072
 20
1586.720886318
 11
1422.982072072
 21
1625.982623085
  0
LINE
  8
0
  6
CONTINUOUS
 62
     1
 10
1431.182072073
 20
1586.720886318
 11
1431.182072073
 21
1625.982623085
  0
LINE
  8
0
  6
LTYPE5
 62
     2
 10
1327.649610244
 20
1541.5
 11
1405.259603436
 21
1541.5
  0
LINE
  8
0
  6
CONTINUOUS
 62
     1
 10
1438.0
 20
1663.482623085
 11
1438.0
 21
1588.482623085
  0
LINE
  8
0
  6
CONTINUOUS
 62
     1
 10
1443.0
 20
1662.5
 11
1443.0
 21
1602.5
  0
LINE
  8
0
  6
CONTINUOUS
 62
     1
 10
1438.0
 20
1663.482623085
 11
1431.182072073
 21
1663.482623085
  0
LINE
  8
0
  6
CONTINUOUS
 62
     1
 10
1438.0
 20
1588.482623085
 11
1431.182072073
 21
1588.482623085
  0
LINE
  8
1
  6
CONTINUOUS
 62
     2
 10
620.0
 20
1222.398877817
 11
620.0
 21
1017.0
  0
LINE
  8
1
  6
CONTINUOUS
 62
     2
 10
620.0
 20
1033.0
 11
639.318516526
 21
1027.823619098
  0
LINE
  8
1
  6
CONTINUOUS
 62
     2
 10
620.0
 20
1033.0
 11
639.318516526
 21
1038.176380902
  0
LINE
  8
1
  6
CONTINUOUS
 62
     2
 10
620.0
 20
1033.0
 11
1383.999
 21
1033.0
  0
LINE
  8
1
  6
CONTINUOUS
 62
     2
 10
1383.999
 20
1033.0
 11
1364.680483474
 21
1038.176380902
  0
LINE
  8
1
  6
CONTINUOUS
 62
     2
 10
1383.999
 20
1033.0
 11
1364.680483474
 21
1027.823619098
  0
LINE
  8
1
  6
CONTINUOUS
 62
     2
 10
1383.999
 20
1254.5
 11
1383.999
 21
1017.0
  0
TEXT
  8
1
  6
CONTINUOUS
 62
     3
 10
989.1995
 20
1041.0
 30
2.4
 40
28.0
  1
Ｃ
 50
0.0
 41
0.914285714
 51
0.0
  7
KANJI50
  0
LINE
  8
1
  6
CONTINUOUS
 62
     2
 10
1383.999
 20
1254.5
 11
1383.999
 21
1017.0
  0
LINE
  8
1
  6
CONTINUOUS
 62
     2
 10
1383.999
 20
1033.0
 11
1403.317516526
 21
1027.823619098
  0
LINE
  8
1
  6
CONTINUOUS
 62
     2
 10
1383.999
 20
1033.0
 11
1403.317516526
 21
1038.176380902
  0
LINE
  8
1
  6
CONTINUOUS
 62
     2
 10
1383.999
 20
1033.0
 11
1438.0
 21
1033.0
  0
LINE
  8
1
  6
CONTINUOUS
 62
     2
 10
1438.0
 20
1033.0
 11
1418.681483474
 21
1038.176380902
  0
LINE
  8
1
  6
CONTINUOUS
 62
     2
 10
1438.0
 20
1033.0
 11
1418.681483474
 21
1027.823619098
  0
LINE
  8
1
  6
CONTINUOUS
 62
     2
 10
1438.0
 20
1254.5
 11
1438.0
 21
1017.0
  0
LINE
  8
1
  6
CONTINUOUS
 62
     2
 10
1507.999190206
 20
1266.611263946
 11
1507.999190206
 21
1017.0
  0
LINE
  8
1
  6
CONTINUOUS
 62
     2
 10
1507.999190206
 20
1033.0
 11
1488.68067368
 21
1038.176380902
  0
LINE
  8
1
  6
CONTINUOUS
 62
     2
 10
1507.999190206
 20
1033.0
 11
1488.68067368
 21
1027.823619098
  0
LINE
  8
1
  6
CONTINUOUS
 62
     2
 10
1507.999190206
 20
1033.0
 11
1438.0
 21
1033.0
  0
LINE
  8
1
  6
CONTINUOUS
 62
     2
 10
1438.0
 20
1033.0
 11
1457.318516526
 21
1027.823619098
  0
LINE
  8
1
  6
CONTINUOUS
 62
     2
 10
1438.0
 20
1033.0
 11
1457.318516526
 21
1038.176380902
  0
TEXT
  8
1
  6
CONTINUOUS
 62
     3
 10
1446.199595103
 20
1041.0
 30
2.4
 40
28.0
  1
７０
 50
0.0
 41
0.914285714
 51
0.0
  7
KANJI50
  0
LINE
  8
1
  6
CONTINUOUS
 62
     2
 10
395.0
 20
1157.0
 11
395.0
 21
946.0
  0
LINE
  8
1
  6
CONTINUOUS
 62
     2
 10
395.0
 20
962.0
 11
414.318516526
 21
956.823619098
  0
LINE
  8
1
  6
CONTINUOUS
 62
     2
 10
395.0
 20
962.0
 11
414.318516526
 21
967.176380902
  0
LINE
  8
1
  6
CONTINUOUS
 62
     2
 10
395.0
 20
962.0
 11
620.0
 21
962.0
  0
LINE
  8
1
  6
CONTINUOUS
 62
     2
 10
620.0
 20
962.0
 11
600.681483474
 21
967.176380902
  0
LINE
  8
1
  6
CONTINUOUS
 62
     2
 10
620.0
 20
962.0
 11
600.681483474
 21
956.823619098
  0
LINE
  8
1
  6
CONTINUOUS
 62
     2
 10
620.0
 20
1210.5
 11
620.0
 21
946.0
  0
TEXT
  8
1
  6
CONTINUOUS
 62
     3
 10
466.7
 20
970.0
 30
2.4
 40
28.0
  1
２２５
 50
0.0
 41
0.914285714
 51
0.0
  7
KANJI50
  0
LINE
  8
1
  6
CONTINUOUS
 62
     2
 10
620.0
 20
962.0
 11
639.318516526
 21
956.823619098
  0
LINE
  8
1
  6
CONTINUOUS
 62
     2
 10
620.0
 20
962.0
 11
639.318516526
 21
967.176380902
  0
LINE
  8
1
  6
CONTINUOUS
 62
     2
 10
620.0
 20
962.0
 11
1507.999190206
 21
962.0
  0
LINE
  8
1
  6
CONTINUOUS
 62
     2
 10
1507.999190206
 20
962.0
 11
1488.68067368
 21
967.176380902
  0
LINE
  8
1
  6
CONTINUOUS
 62
     2
 10
1507.999190206
 20
962.0
 11
1488.68067368
 21
956.823619098
  0
LINE
  8
1
  6
CONTINUOUS
 62
     2
 10
1507.999190206
 20
1254.5
 11
1507.999190206
 21
946.0
  0
TEXT
  8
1
  6
CONTINUOUS
 62
     3
 10
995.199595103
 20
970.0
 30
2.4
 40
28.0
  1
ｍｉｎ，Ｌ
 50
0.0
 41
0.914285714
 51
0.0
  7
KANJI50
  0
LINE
  8
1
  6
CONTINUOUS
 62
     2
 10
395.0
 20
954.0
 11
395.0
 21
879.5
  0
LINE
  8
1
  6
CONTINUOUS
 62
     2
 10
395.0
 20
895.5
 11
414.318516526
 21
890.323619098
  0
LINE
  8
1
  6
CONTINUOUS
 62
     2
 10
395.0
 20
895.5
 11
414.318516526
 21
900.676380902
  0
LINE
  8
1
  6
CONTINUOUS
 62
     2
 10
395.0
 20
895.5
 11
1507.999190206
 21
895.5
  0
LINE
  8
1
  6
CONTINUOUS
 62
     2
 10
1507.999190206
 20
895.5
 11
1488.68067368
 21
900.676380902
  0
LINE
  8
1
  6
CONTINUOUS
 62
     2
 10
1507.999190206
 20
895.5
 11
1488.68067368
 21
890.323619098
  0
LINE
  8
1
  6
CONTINUOUS
 62
     2
 10
1507.999190206
 20
954.0
 11
1507.999190206
 21
879.5
  0
TEXT
  8
1
  6
CONTINUOUS
 62
     3
 10
868.699595103
 20
903.5
 30
2.4
 40
28.0
  1
ｍｉｎ，ＡＬ
 50
0.0
 41
0.914285714
 51
0.0
  7
KANJI50
  0
LINE
  8
1
  6
CONTINUOUS
 62
     2
 10
1507.999190206
 20
895.5
 11
1488.68067368
 21
900.676380902
  0
LINE
  8
1
  6
CONTINUOUS
 62
     2
 10
1507.999190206
 20
895.5
 11
1488.68067368
 21
890.323619098
  0
LINE
  8
1
  6
CONTINUOUS
 62
     2
 10
1477.999190206
 20
895.5
 11
1507.999190206
 21
895.5
  0
LINE
  8
1
  6
CONTINUOUS
 62
     2
 10
1507.999190206
 20
895.5
 11
1545.999190206
 21
895.5
  0
LINE
  8
1
  6
CONTINUOUS
 62
     2
 10
1545.999190206
 20
895.5
 11
1629.599190206
 21
895.5
  0
LINE
  8
1
  6
CONTINUOUS
 62
     2
 10
1545.999190206
 20
895.5
 11
1565.317706732
 21
890.323619098
  0
LINE
  8
1
  6
CONTINUOUS
 62
     2
 10
1545.999190206
 20
895.5
 11
1565.317706732
 21
900.676380902
  0
LINE
  8
1
  6
CONTINUOUS
 62
     2
 10
1545.999190206
 20
1254.5
 11
1545.999190206
 21
879.5
  0
TEXT
  8
1
  6
CONTINUOUS
 62
     3
 10
1575.999190206
 20
903.5
 30
2.4
 40
28.0
  1
３８
 50
0.0
 41
0.914285714
 51
0.0
  7
KANJI50
  0
TEXT
  8
1
  6
CONTINUOUS
 62
     3
 10
1340.999190206
 20
993.5
 30
2.4
 40
28.0
  1
ｍｉｎ，Ｐ
 50
0.0
 41
0.914285714
 51
0.0
  7
KANJI50
  0
LINE
  8
0
  6
CONTINUOUS
 62
     1
 10
1313.075606097
 20
1357.0
 11
874.0
 21
1357.0
  0
LINE
  8
0
  6
CONTINUOUS
 62
     1
 10
1340.075606097
 20
1243.0
 11
874.0
 21
1243.0
  0
TEXT
  8
0
  6
CONTINUOUS
 62
     2
 10
621.0
 20
508.8
 30
1.6
 40
24.0
  1
ＭＣＬＥ６－１０Ｊ
 50
0.0
 41
0.833333333
 51
0.0
  7
KANJI55
  0
TEXT
  8
0
  6
CONTINUOUS
 62
     2
 10
1733.8
 20
568.4
 30
2.4
 40
24.0
  1
２００
 50
0.0
 41
0.9
 51
0.0
  7
KANJI0
  0
TEXT
  8
0
  6
CONTINUOUS
 62
     2
 10
1733.8
 20
512.4
 30
2.4
 40
24.0
  1
２２４
 50
0.0
 41
0.9
 51
0.0
  7
KANJI0
  0
TEXT
  8
0
  6
CONTINUOUS
 62
     2
 10
2933.0
 20
1993.2
 30
1.6
 40
24.0
  1
ＭＣＬＥ６－　　Ｊ
 50
0.0
 41
0.833333333
 51
0.0
  7
KANJI55
  0
TEXT
  8
0
  6
CONTINUOUS
 62
     3
 10
2499.0
 20
336.0
 30
0.0
 40
28.0
  1
ＭＣＬＥ６－　　　Ｊ
 50
0.0
 41
0.793650794
 51
0.0
  7
KANJI56
  0
TEXT
  8
0
  6
CONTINUOUS
 62
     3
 10
2583.5333816
 20
207.999992
 30
17.333333333
 40
40.0
  1
Ａ３００１３３５
 50
0.0
 41
0.8
 51
0.0
  7
KANJI57
  0
LINE
  8
0
  6
LTYPE1
 62
     2
 10
944.0
 20
1300.0
 11
387.0
 21
1300.0
  0
LINE
  8
0
  6
LTYPE1
 62
     2
 10
1577.0
 20
1300.0
 11
1212.0
 21
1300.0
  0
LINE
  8
0
  6
LTYPE1
 62
     2
 10
1161.0
 20
1300.0
 11
993.0
 21
1300.0
  0
LINE
  8
1
  6
CONTINUOUS
 62
     2
 10
550.0
 20
1827.0
 11
550.0
 21
1871.0
  0
LINE
  8
1
  6
CONTINUOUS
 62
     2
 10
355.5
 20
1574.5
 11
340.77809602
 21
1560.96243954
  0
LINE
  8
1
  6
CONTINUOUS
 62
     2
 10
355.5
 20
1574.5
 11
349.519237392
 21
1555.415176746
  0
LINE
  8
1
  6
CONTINUOUS
 62
     2
 10
355.5
 20
1574.5
 11
322.5
 21
1522.5
  0
TEXT
  8
1
  6
CONTINUOUS
 62
     3
 10
241.9
 20
1531.5
 30
2.4
 40
24.0
  1
手動軸
 50
0.0
 41
0.9
 51
0.0
  7
KANJI0
  0
TEXT
  8
0
  6
CONTINUOUS
 62
     3
 10
246.0
 20
1491.5
 30
2.4
 40
24.0
  1
□１２
 50
0.0
 41
0.9
 51
0.0
  7
KANJI0
  0
LINE
  8
1
  6
CONTINUOUS
 62
     2
 10
322.5
 20
1522.5
 11
238.0
 21
1522.5
  0
LINE
  8
0
  6
CONTINUOUS
 62
     1
 10
395.0
 20
1605.0
 11
355.0
 21
1605.0
  0
LINE
  8
0
  6
CONTINUOUS
 62
     1
 10
355.0
 20
1565.0
 11
355.0
 21
1605.0
  0
LINE
  8
0
  6
CONTINUOUS
 62
     1
 10
395.0
 20
1565.0
 11
355.0
 21
1565.0
  0
LINE
  8
1
  6
CONTINUOUS
 62
     2
 10
550.0
 20
1815.0
 11
550.0
 21
1871.0
  0
LINE
  8
1
  6
CONTINUOUS
 62
     2
 10
550.0
 20
1855.0
 11
530.681483474
 21
1860.176380902
  0
LINE
  8
1
  6
CONTINUOUS
 62
     2
 10
550.0
 20
1855.0
 11
530.681483474
 21
1849.823619098
  0
LINE
  8
1
  6
CONTINUOUS
 62
     2
 10
550.0
 20
1855.0
 11
395.0
 21
1855.0
  0
LINE
  8
1
  6
CONTINUOUS
 62
     2
 10
395.0
 20
1855.0
 11
414.318516526
 21
1849.823619098
  0
LINE
  8
1
  6
CONTINUOUS
 62
     2
 10
395.0
 20
1855.0
 11
414.318516526
 21
1860.176380902
  0
LINE
  8
1
  6
CONTINUOUS
 62
     2
 10
395.0
 20
1652.0
 11
395.0
 21
1871.0
  0
TEXT
  8
1
  6
CONTINUOUS
 62
     3
 10
431.7
 20
1863.0
 30
2.4
 40
28.0
  1
１５５
 50
0.0
 41
0.914285714
 51
0.0
  7
KANJI50
  0
LINE
  8
1
  6
CONTINUOUS
 62
     2
 10
395.0
 20
1819.0
 11
395.0
 21
1871.0
  0
LINE
  8
1
  6
CONTINUOUS
 62
     2
 10
395.0
 20
1855.0
 11
375.681483474
 21
1860.176380902
  0
LINE
  8
1
  6
CONTINUOUS
 62
     2
 10
395.0
 20
1855.0
 11
375.681483474
 21
1849.823619098
  0
LINE
  8
1
  6
CONTINUOUS
 62
     2
 10
395.0
 20
1855.0
 11
355.0
 21
1855.0
  0
LINE
  8
1
  6
CONTINUOUS
 62
     2
 10
355.0
 20
1855.0
 11
374.318516526
 21
1849.823619098
  0
LINE
  8
1
  6
CONTINUOUS
 62
     2
 10
355.0
 20
1855.0
 11
374.318516526
 21
1860.176380902
  0
LINE
  8
1
  6
CONTINUOUS
 62
     2
 10
355.0
 20
1613.0
 11
355.0
 21
1871.0
  0
TEXT
  8
1
  6
CONTINUOUS
 62
     3
 10
348.2
 20
1863.0
 30
2.4
 40
28.0
  1
４０
 50
0.0
 41
0.914285714
 51
0.0
  7
KANJI50
  0
TEXT
  8
0
  6
CONTINUOUS
 62
     2
 10
621.0
 20
620.8
 30
1.6
 40
24.0
  1
ＭＣＬＥ６－　３Ｊ
 50
0.0
 41
0.833333333
 51
0.0
  7
KANJI55
  0
TEXT
  8
0
  6
CONTINUOUS
 62
     2
 10
621.0
 20
564.8
 30
1.6
 40
24.0
  1
ＭＣＬＥ６－　５Ｊ
 50
0.0
 41
0.833333333
 51
0.0
  7
KANJI55
  0
TEXT
  8
0
  6
CONTINUOUS
 62
     2
 10
621.0
 20
452.8
 30
1.6
 40
24.0
  1
ＭＣＬＥ６－　　Ｊ　
 50
0.0
 41
0.833333333
 51
0.0
  7
KANJI55
  0
LINE
  8
0
  6
CONTINUOUS
 62
     1
 10
595.0
 20
440.0
 11
1835.0
 21
440.0
  0
LINE
  8
0
  6
CONTINUOUS
 62
     1
 10
595.0
 20
720.0
 11
595.0
 21
440.0
  0
LINE
  8
0
  6
CONTINUOUS
 62
     1
 10
875.0
 20
720.0
 11
875.0
 21
440.0
  0
LINE
  8
0
  6
CONTINUOUS
 62
     2
 10
1035.0
 20
720.0
 11
1035.0
 21
440.0
  0
LINE
  8
0
  6
CONTINUOUS
 62
     2
 10
1195.0
 20
720.0
 11
1195.0
 21
440.0
  0
LINE
  8
0
  6
CONTINUOUS
 62
     2
 10
1355.0
 20
720.0
 11
1355.0
 21
440.0
  0
LINE
  8
0
  6
CONTINUOUS
 62
     2
 10
1515.0
 20
720.0
 11
1515.0
 21
440.0
  0
LINE
  8
0
  6
CONTINUOUS
 62
     2
 10
1675.0
 20
720.0
 11
1675.0
 21
440.0
  0
LINE
  8
0
  6
CONTINUOUS
 62
     1
 10
1835.0
 20
720.0
 11
1835.0
 21
440.0
  0
TEXT
  8
0
  6
CONTINUOUS
 62
     2
 10
2908.0
 20
1938.4
 30
2.4
 40
24.0
  1
５８．８ＫＮ（６ｔｏｎ）
 50
0.0
 41
0.9
 51
0.0
  7
KANJI0
  0
TEXT
  8
0
  6
CONTINUOUS
 62
     2
 10
2900.8
 20
1770.2
 30
2.4
 40
24.0
  1
１１８Ｎ．ｍ（１２ｋｇｍ）
 50
0.0
 41
0.9
 51
0.0
  7
KANJI0
  0
TEXT
  8
0
  6
CONTINUOUS
 62
     3
 10
2217.6667112
 20
227.999992
 30
2.4
 40
28.0
  1
岡　　田
 50
0.0
 41
0.571428571
 51
0.0
  7
KANJI58
  0
TEXT
  8
0
  6
CONTINUOUS
 62
     3
 10
2194.4667112
 20
169.599992
 30
2.4
 40
28.0
  1
０１．０１．２５
 50
0.0
 41
0.571428571
 51
0.0
  7
KANJI58
  0
ENDSEC
  0
EOF
