  0
SECTION
  2
HEADER
  9
$ACADVER
  1
AC1009
  9
$DWGCODEPAGE
  3
dos932
  9
$EXTMIN
 10
0.0
 20
0.0
 30
0.0
  9
$EXTMAX
 10
2520.0
 20
1782.0
 30
0.0
  9
$LIMMIN
 10
0.0
 20
0.0
  9
$LIMMAX
 10
2520.0
 20
1782.0
  9
$LTSCALE
 40
1.0
  9
$PDMODE
 70
     0
  0
ENDSEC
  0
SECTION
  2
TABLES
  0
TABLE
  2
VPORT
 70
     1
  0
VPORT
  2
*ACTIVE
 70
     0
 10
0.0
 20
0.0
 11
1.0
 21
1.0
 12
1260.0
 22
891.0
 13
0.0
 23
0.0
 14
10.0
 24
10.0
 15
10.0
 25
10.0
 16
0.0
 26
0.0
 36
1.0
 17
0.0
 27
0.0
 37
0.0
 40
2520.0
 41
1.414141414
 42
50.0
 43
0.0
 44
0.0
 50
0.0
 51
0.0
 71
     0
 72
  1000
 73
     1
 74
     3
 75
     0
 76
     0
 77
     0
 78
     0
  0
ENDTAB
  0
TABLE
  2
LTYPE
 70
     6
  0
LTYPE
  2
CONTINUOUS
 70
    64
  3
Solid line
 72
    65
 73
     0
 40
0.0
  0
LTYPE
  2
LTYPE1
 70
    64
  3
HIDDEN
 72
    65
 73
     2
 40
18.0
 49
10.8
 49
-7.2
  0
LTYPE
  2
LTYPE2
 70
    64
  3
CENTER
 72
    65
 73
     4
 40
90.0
 49
63.0
 49
-9.0
 49
9.0
 49
-9.0
  0
LTYPE
  2
LTYPE3
 70
    64
  3
CENTER
 72
    65
 73
     4
 40
60.0
 49
42.0
 49
-6.0
 49
6.0
 49
-6.0
  0
LTYPE
  2
LTYPE4
 70
    64
  3
CENTER
 72
    65
 73
     4
 40
54.0
 49
37.8
 49
-5.4
 49
5.4
 49
-5.4
  0
LTYPE
  2
LTYPE5
 70
    64
  3
CENTER
 72
    65
 73
     4
 40
120.0
 49
84.0
 49
-12.0
 49
12.0
 49
-12.0
  0
ENDTAB
  0
TABLE
  2
LAYER
 70
   128
  0
LAYER
  2
0
 70
     0
 62
     7
  6
CONTINUOUS
  0
LAYER
  2
2
 70
     0
 62
     7
  6
CONTINUOUS
  0
LAYER
  2
3
 70
     0
 62
     7
  6
CONTINUOUS
  0
LAYER
  2
4
 70
     0
 62
     7
  6
CONTINUOUS
  0
LAYER
  2
5
 70
     0
 62
     7
  6
CONTINUOUS
  0
LAYER
  2
6
 70
     0
 62
     7
  6
CONTINUOUS
  0
LAYER
  2
7
 70
     0
 62
     7
  6
CONTINUOUS
  0
LAYER
  2
8
 70
     0
 62
     7
  6
CONTINUOUS
  0
LAYER
  2
9
 70
     0
 62
     7
  6
CONTINUOUS
  0
LAYER
  2
10
 70
     0
 62
     7
  6
CONTINUOUS
  0
LAYER
  2
11
 70
     0
 62
     7
  6
CONTINUOUS
  0
LAYER
  2
12
 70
     0
 62
     7
  6
CONTINUOUS
  0
LAYER
  2
13
 70
     0
 62
     7
  6
CONTINUOUS
  0
LAYER
  2
14
 70
     0
 62
     7
  6
CONTINUOUS
  0
LAYER
  2
15
 70
     0
 62
     7
  6
CONTINUOUS
  0
LAYER
  2
16
 70
     0
 62
     7
  6
CONTINUOUS
  0
LAYER
  2
17
 70
     0
 62
     7
  6
CONTINUOUS
  0
LAYER
  2
18
 70
     0
 62
     7
  6
CONTINUOUS
  0
LAYER
  2
19
 70
     0
 62
     7
  6
CONTINUOUS
  0
LAYER
  2
20
 70
     0
 62
     7
  6
CONTINUOUS
  0
LAYER
  2
21
 70
     0
 62
     7
  6
CONTINUOUS
  0
LAYER
  2
22
 70
     0
 62
     7
  6
CONTINUOUS
  0
LAYER
  2
23
 70
     0
 62
     7
  6
CONTINUOUS
  0
LAYER
  2
24
 70
     0
 62
     7
  6
CONTINUOUS
  0
LAYER
  2
25
 70
     0
 62
     7
  6
CONTINUOUS
  0
LAYER
  2
26
 70
     0
 62
     7
  6
CONTINUOUS
  0
LAYER
  2
27
 70
     0
 62
     7
  6
CONTINUOUS
  0
LAYER
  2
28
 70
     0
 62
     7
  6
CONTINUOUS
  0
LAYER
  2
29
 70
     0
 62
     7
  6
CONTINUOUS
  0
LAYER
  2
30
 70
     0
 62
     7
  6
CONTINUOUS
  0
LAYER
  2
31
 70
     0
 62
     7
  6
CONTINUOUS
  0
LAYER
  2
32
 70
     0
 62
     7
  6
CONTINUOUS
  0
LAYER
  2
33
 70
     0
 62
     7
  6
CONTINUOUS
  0
LAYER
  2
34
 70
     0
 62
     7
  6
CONTINUOUS
  0
LAYER
  2
35
 70
     0
 62
     7
  6
CONTINUOUS
  0
LAYER
  2
36
 70
     0
 62
     7
  6
CONTINUOUS
  0
LAYER
  2
37
 70
     0
 62
     7
  6
CONTINUOUS
  0
LAYER
  2
38
 70
     0
 62
     7
  6
CONTINUOUS
  0
LAYER
  2
39
 70
     0
 62
     7
  6
CONTINUOUS
  0
LAYER
  2
40
 70
     0
 62
     7
  6
CONTINUOUS
  0
LAYER
  2
41
 70
     0
 62
     7
  6
CONTINUOUS
  0
LAYER
  2
42
 70
     0
 62
     7
  6
CONTINUOUS
  0
LAYER
  2
43
 70
     0
 62
     7
  6
CONTINUOUS
  0
LAYER
  2
44
 70
     0
 62
     7
  6
CONTINUOUS
  0
LAYER
  2
45
 70
     0
 62
     7
  6
CONTINUOUS
  0
LAYER
  2
46
 70
     0
 62
     7
  6
CONTINUOUS
  0
LAYER
  2
47
 70
     0
 62
     7
  6
CONTINUOUS
  0
LAYER
  2
48
 70
     0
 62
     7
  6
CONTINUOUS
  0
LAYER
  2
49
 70
     0
 62
     7
  6
CONTINUOUS
  0
LAYER
  2
50
 70
     0
 62
     7
  6
CONTINUOUS
  0
LAYER
  2
51
 70
     0
 62
     7
  6
CONTINUOUS
  0
LAYER
  2
52
 70
     0
 62
     7
  6
CONTINUOUS
  0
LAYER
  2
53
 70
     0
 62
     7
  6
CONTINUOUS
  0
LAYER
  2
54
 70
     0
 62
     7
  6
CONTINUOUS
  0
LAYER
  2
55
 70
     0
 62
     7
  6
CONTINUOUS
  0
LAYER
  2
56
 70
     0
 62
     7
  6
CONTINUOUS
  0
LAYER
  2
57
 70
     0
 62
     7
  6
CONTINUOUS
  0
LAYER
  2
58
 70
     0
 62
     7
  6
CONTINUOUS
  0
LAYER
  2
59
 70
     0
 62
     7
  6
CONTINUOUS
  0
LAYER
  2
60
 70
     0
 62
     7
  6
CONTINUOUS
  0
LAYER
  2
61
 70
     0
 62
     7
  6
CONTINUOUS
  0
LAYER
  2
62
 70
     0
 62
     7
  6
CONTINUOUS
  0
LAYER
  2
63
 70
     0
 62
     7
  6
CONTINUOUS
  0
LAYER
  2
64
 70
     0
 62
     7
  6
CONTINUOUS
  0
LAYER
  2
65
 70
     0
 62
     7
  6
CONTINUOUS
  0
LAYER
  2
66
 70
     0
 62
     7
  6
CONTINUOUS
  0
LAYER
  2
67
 70
     0
 62
     7
  6
CONTINUOUS
  0
LAYER
  2
68
 70
     0
 62
     7
  6
CONTINUOUS
  0
LAYER
  2
69
 70
     0
 62
     7
  6
CONTINUOUS
  0
LAYER
  2
70
 70
     0
 62
     7
  6
CONTINUOUS
  0
LAYER
  2
71
 70
     0
 62
     7
  6
CONTINUOUS
  0
LAYER
  2
72
 70
     0
 62
     7
  6
CONTINUOUS
  0
LAYER
  2
73
 70
     0
 62
     7
  6
CONTINUOUS
  0
LAYER
  2
74
 70
     0
 62
     7
  6
CONTINUOUS
  0
LAYER
  2
75
 70
     0
 62
     7
  6
CONTINUOUS
  0
LAYER
  2
76
 70
     0
 62
     7
  6
CONTINUOUS
  0
LAYER
  2
77
 70
     0
 62
     7
  6
CONTINUOUS
  0
LAYER
  2
78
 70
     0
 62
     7
  6
CONTINUOUS
  0
LAYER
  2
79
 70
     0
 62
     7
  6
CONTINUOUS
  0
LAYER
  2
80
 70
     0
 62
     7
  6
CONTINUOUS
  0
LAYER
  2
81
 70
     0
 62
     7
  6
CONTINUOUS
  0
LAYER
  2
82
 70
     0
 62
     7
  6
CONTINUOUS
  0
LAYER
  2
83
 70
     0
 62
     7
  6
CONTINUOUS
  0
LAYER
  2
84
 70
     0
 62
     7
  6
CONTINUOUS
  0
LAYER
  2
85
 70
     0
 62
     7
  6
CONTINUOUS
  0
LAYER
  2
86
 70
     0
 62
     7
  6
CONTINUOUS
  0
LAYER
  2
87
 70
     0
 62
     7
  6
CONTINUOUS
  0
LAYER
  2
88
 70
     0
 62
     7
  6
CONTINUOUS
  0
LAYER
  2
89
 70
     0
 62
     7
  6
CONTINUOUS
  0
LAYER
  2
90
 70
     0
 62
     7
  6
CONTINUOUS
  0
LAYER
  2
91
 70
     0
 62
     7
  6
CONTINUOUS
  0
LAYER
  2
92
 70
     0
 62
     7
  6
CONTINUOUS
  0
LAYER
  2
93
 70
     0
 62
     7
  6
CONTINUOUS
  0
LAYER
  2
94
 70
     0
 62
     7
  6
CONTINUOUS
  0
LAYER
  2
95
 70
     0
 62
     7
  6
CONTINUOUS
  0
LAYER
  2
96
 70
     0
 62
     7
  6
CONTINUOUS
  0
LAYER
  2
97
 70
     0
 62
     7
  6
CONTINUOUS
  0
LAYER
  2
98
 70
     0
 62
     7
  6
CONTINUOUS
  0
LAYER
  2
99
 70
     0
 62
     7
  6
CONTINUOUS
  0
LAYER
  2
100
 70
     0
 62
     7
  6
CONTINUOUS
  0
LAYER
  2
101
 70
     0
 62
     7
  6
CONTINUOUS
  0
LAYER
  2
102
 70
     0
 62
     7
  6
CONTINUOUS
  0
LAYER
  2
103
 70
     0
 62
     7
  6
CONTINUOUS
  0
LAYER
  2
104
 70
     0
 62
     7
  6
CONTINUOUS
  0
LAYER
  2
105
 70
     0
 62
     7
  6
CONTINUOUS
  0
LAYER
  2
106
 70
     0
 62
     7
  6
CONTINUOUS
  0
LAYER
  2
107
 70
     0
 62
     7
  6
CONTINUOUS
  0
LAYER
  2
108
 70
     0
 62
     7
  6
CONTINUOUS
  0
LAYER
  2
109
 70
     0
 62
     7
  6
CONTINUOUS
  0
LAYER
  2
110
 70
     0
 62
     7
  6
CONTINUOUS
  0
LAYER
  2
111
 70
     0
 62
     7
  6
CONTINUOUS
  0
LAYER
  2
112
 70
     0
 62
     7
  6
CONTINUOUS
  0
LAYER
  2
113
 70
     0
 62
     7
  6
CONTINUOUS
  0
LAYER
  2
114
 70
     0
 62
     7
  6
CONTINUOUS
  0
LAYER
  2
115
 70
     0
 62
     7
  6
CONTINUOUS
  0
LAYER
  2
116
 70
     0
 62
     7
  6
CONTINUOUS
  0
LAYER
  2
117
 70
     0
 62
     7
  6
CONTINUOUS
  0
LAYER
  2
118
 70
     0
 62
     7
  6
CONTINUOUS
  0
LAYER
  2
119
 70
     0
 62
     7
  6
CONTINUOUS
  0
LAYER
  2
120
 70
     0
 62
     7
  6
CONTINUOUS
  0
LAYER
  2
121
 70
     0
 62
     7
  6
CONTINUOUS
  0
LAYER
  2
122
 70
     0
 62
     7
  6
CONTINUOUS
  0
LAYER
  2
123
 70
     0
 62
     7
  6
CONTINUOUS
  0
LAYER
  2
124
 70
     0
 62
     7
  6
CONTINUOUS
  0
LAYER
  2
125
 70
     0
 62
     7
  6
CONTINUOUS
  0
LAYER
  2
126
 70
     0
 62
     7
  6
CONTINUOUS
  0
LAYER
  2
127
 70
     0
 62
     7
  6
CONTINUOUS
  0
LAYER
  2
128
 70
     0
 62
     7
  6
CONTINUOUS
  0
ENDTAB
  0
TABLE
  2
STYLE
 70
    85
  0
STYLE
  2
STANDARD
 70
     0
 40
0.0
 41
1.0
 50
0.0
 71
     0
 42
0.2
  3
txt.shx
  4
extfont.shx
  0
STYLE
  2
KANJI0
 70
     0
 40
15.5999988
 41
0.75
 50
0.0
 71
     0
 42
15.5999988
  3
txt.shx
  4
extfont.shx
  0
STYLE
  2
KANJI1
 70
     0
 40
11.999997477
 41
0.6
 50
0.0
 71
     0
 42
11.999997477
  3
txt.shx
  4
extfont.shx
  0
STYLE
  2
KANJI2
 70
     0
 40
14.399996972
 41
0.9
 50
0.0
 71
     0
 42
14.399996972
  3
txt.shx
  4
extfont.shx
  0
STYLE
  2
KANJI3
 70
     0
 40
17.999996215
 41
0.9
 50
0.0
 71
     0
 42
17.999996215
  3
txt.shx
  4
extfont.shx
  0
STYLE
  2
KANJI4
 70
     0
 40
10.3999992
 41
0.6
 50
0.0
 71
     0
 42
10.3999992
  3
txt.shx
  4
extfont.shx
  0
STYLE
  2
KANJI5
 70
     0
 40
12.47999904
 41
0.6
 50
0.0
 71
     0
 42
12.47999904
  3
txt.shx
  4
extfont.shx
  0
STYLE
  2
KANJI6
 70
     0
 40
18.1999986
 41
0.42031746
 50
0.0
 71
     0
 42
18.1999986
  3
txt.shx
  4
extfont.shx
  0
STYLE
  2
KANJI7
 70
     0
 40
31.1999976
 41
0.9
 50
0.0
 71
     0
 42
31.1999976
  3
txt.shx
  4
extfont.shx
  0
STYLE
  2
KANJI8
 70
     0
 40
21.6
 41
1.111111111
 50
0.0
 71
     0
 42
21.6
  3
txt.shx
  4
extfont.shx
  0
STYLE
  2
KANJI9
 70
     0
 40
10.3999992
 41
0.8
 50
0.0
 71
     0
 42
10.3999992
  3
txt.shx
  4
extfont.shx
  0
STYLE
  2
KANJI10
 70
     0
 40
12.47999904
 41
0.8
 50
0.0
 71
     0
 42
12.47999904
  3
txt.shx
  4
extfont.shx
  0
STYLE
  2
KANJI11
 70
     0
 40
30.0
 41
1.0
 50
0.0
 71
     0
 42
30.0
  3
txt.shx
  4
extfont.shx
  0
STYLE
  2
KANJI12
 70
     0
 40
30.0
 41
1.0
 50
0.0
 71
     0
 42
30.0
  3
txt.shx
  4
extfont.shx
  0
STYLE
  2
KANJI13
 70
     0
 40
30.0
 41
0.8
 50
0.0
 71
     0
 42
30.0
  3
txt.shx
  4
extfont.shx
  0
STYLE
  2
KANJI14
 70
     0
 40
24.0
 41
1.0
 50
0.0
 71
     0
 42
24.0
  3
txt.shx
  4
extfont.shx
  0
STYLE
  2
KANJI15
 70
     0
 40
21.0
 41
0.857142857
 50
0.0
 71
     0
 42
21.0
  3
txt.shx
  4
extfont.shx
  0
STYLE
  2
KANJI16
 70
     0
 40
27.0
 41
0.666666667
 50
0.0
 71
     0
 42
27.0
  3
txt.shx
  4
extfont.shx
  0
STYLE
  2
KANJI17
 70
     0
 40
18.0
 41
0.9
 50
0.0
 71
     0
 42
18.0
  3
txt.shx
  4
extfont.shx
  0
STYLE
  2
KANJI18
 70
     0
 40
13.86
 41
0.9
 50
0.0
 71
     0
 42
13.86
  3
txt.shx
  4
extfont.shx
  0
STYLE
  2
KANJI19
 70
     0
 40
30.0
 41
0.8
 50
0.0
 71
     0
 42
30.0
  3
txt.shx
  4
extfont.shx
  0
STYLE
  2
KANJI20
 70
     0
 40
21.0
 41
0.793650794
 50
0.0
 71
     0
 42
21.0
  3
txt.shx
  4
extfont.shx
  0
STYLE
  2
KANJI21
 70
     0
 40
16.17
 41
0.9
 50
0.0
 71
     0
 42
16.17
  3
txt.shx
  4
extfont.shx
  0
STYLE
  2
KANJI22
 70
     0
 40
24.0
 41
0.9
 50
0.0
 71
     0
 42
24.0
  3
txt.shx
  4
extfont.shx
  0
STYLE
  2
KANJI23
 70
     0
 40
21.0
 41
0.857142857
 50
0.0
 71
     0
 42
21.0
  3
txt.shx
  4
extfont.shx
  0
STYLE
  2
KANJI24
 70
     0
 40
15.0
 41
0.9
 50
0.0
 71
     0
 42
15.0
  3
txt.shx
  4
extfont.shx
  0
STYLE
  2
KANJI25
 70
     0
 40
13.182
 41
0.85
 50
0.0
 71
     0
 42
13.182
  3
txt.shx
  4
extfont.shx
  0
STYLE
  2
KANJI26
 70
     0
 40
11.661
 41
0.822608696
 50
0.0
 71
     0
 42
11.661
  3
txt.shx
  4
extfont.shx
  0
STYLE
  2
KANJI27
 70
     0
 40
11.8638
 41
0.726495726
 50
0.0
 71
     0
 42
11.8638
  3
txt.shx
  4
extfont.shx
  0
STYLE
  2
KANJI28
 70
     4
 40
45.0
 41
0.538166667
 50
0.0
 71
     0
 42
45.0
  3
txt.shx
  4
extfont.shx
  0
STYLE
  2
KANJI29
 70
     0
 40
17.740702234
 41
0.880962996
 50
0.0
 71
     0
 42
17.740702234
  3
txt.shx
  4
extfont.shx
  0
STYLE
  2
KANJI30
 70
     0
 40
11.7
 41
0.8
 50
0.0
 71
     0
 42
11.7
  3
txt.shx
  4
extfont.shx
  0
STYLE
  2
KANJI31
 70
     0
 40
15.0
 41
0.911
 50
0.0
 71
     0
 42
15.0
  3
txt.shx
  4
extfont.shx
  0
STYLE
  2
KANJI32
 70
     0
 40
18.223173404
 41
0.66671875
 50
0.0
 71
     0
 42
18.223173404
  3
txt.shx
  4
extfont.shx
  0
STYLE
  2
KANJI33
 70
     0
 40
21.6
 41
0.9
 50
0.0
 71
     0
 42
21.6
  3
txt.shx
  4
extfont.shx
  0
STYLE
  2
KANJI34
 70
     0
 40
12.96
 41
0.9
 50
0.0
 71
     0
 42
12.96
  3
txt.shx
  4
extfont.shx
  0
STYLE
  2
KANJI35
 70
     0
 40
17.28
 41
0.9
 50
0.0
 71
     0
 42
17.28
  3
txt.shx
  4
extfont.shx
  0
STYLE
  2
KANJI36
 70
     0
 40
18.72
 41
0.925
 50
0.0
 71
     0
 42
18.72
  3
txt.shx
  4
extfont.shx
  0
STYLE
  2
KANJI37
 70
     0
 40
18.0
 41
0.9
 50
0.0
 71
     0
 42
18.0
  3
txt.shx
  4
extfont.shx
  0
STYLE
  2
KANJI38
 70
     0
 40
18.0
 41
0.9
 50
0.0
 71
     0
 42
18.0
  3
txt.shx
  4
extfont.shx
  0
STYLE
  2
KANJI39
 70
     0
 40
18.0
 41
0.9
 50
0.0
 71
     0
 42
18.0
  3
txt.shx
  4
extfont.shx
  0
STYLE
  2
KANJI40
 70
     0
 40
18.0
 41
0.9
 50
0.0
 71
     0
 42
18.0
  3
txt.shx
  4
extfont.shx
  0
STYLE
  2
KANJI41
 70
     0
 40
18.0
 41
0.9
 50
0.0
 71
     0
 42
18.0
  3
txt.shx
  4
extfont.shx
  0
STYLE
  2
KANJI42
 70
     0
 40
21.0
 41
0.914285714
 50
0.0
 71
     0
 42
21.0
  3
txt.shx
  4
extfont.shx
  0
STYLE
  2
KANJI43
 70
     0
 40
10.0
 41
0.85
 50
0.0
 71
     0
 42
10.0
  3
txt.shx
  4
extfont.shx
  0
STYLE
  2
KANJI44
 70
     0
 40
10.0
 41
0.75
 50
0.0
 71
     0
 42
10.0
  3
txt.shx
  4
extfont.shx
  0
STYLE
  2
KANJI45
 70
     0
 40
20.0
 41
0.925
 50
0.0
 71
     0
 42
20.0
  3
txt.shx
  4
extfont.shx
  0
STYLE
  2
KANJI46
 70
     0
 40
20.0
 41
0.925
 50
0.0
 71
     0
 42
20.0
  3
txt.shx
  4
extfont.shx
  0
STYLE
  2
KANJI47
 70
     0
 40
12.0
 41
0.9
 50
0.0
 71
     0
 42
12.0
  3
txt.shx
  4
extfont.shx
  0
STYLE
  2
KANJI48
 70
     0
 40
15.36
 41
0.9
 50
0.0
 71
     0
 42
15.36
  3
txt.shx
  4
extfont.shx
  0
STYLE
  2
KANJI49
 70
     0
 40
14.4
 41
0.9
 50
0.0
 71
     0
 42
14.4
  3
txt.shx
  4
extfont.shx
  0
STYLE
  2
KANJI50
 70
     0
 40
14.4
 41
0.9
 50
0.0
 71
     0
 42
14.4
  3
txt.shx
  4
extfont.shx
  0
STYLE
  2
KANJI51
 70
     0
 40
16.8
 41
0.9
 50
0.0
 71
     0
 42
16.8
  3
txt.shx
  4
extfont.shx
  0
STYLE
  2
KANJI52
 70
     0
 40
12.96
 41
0.740740741
 50
0.0
 71
     0
 42
12.96
  3
txt.shx
  4
extfont.shx
  0
STYLE
  2
KANJI53
 70
     0
 40
16.8
 41
0.857142857
 50
0.0
 71
     0
 42
16.8
  3
txt.shx
  4
extfont.shx
  0
STYLE
  2
KANJI54
 70
     0
 40
14.4
 41
0.833333333
 50
0.0
 71
     0
 42
14.4
  3
txt.shx
  4
extfont.shx
  0
STYLE
  2
KANJI55
 70
     0
 40
16.8
 41
0.964285714
 50
0.0
 71
     0
 42
16.8
  3
txt.shx
  4
extfont.shx
  0
STYLE
  2
KANJI56
 70
     0
 40
16.8
 41
0.892857143
 50
0.0
 71
     0
 42
16.8
  3
txt.shx
  4
extfont.shx
  0
STYLE
  2
KANJI57
 70
     0
 40
21.0
 41
0.571428571
 50
0.0
 71
     0
 42
21.0
  3
txt.shx
  4
extfont.shx
  0
STYLE
  2
KANJI58
 70
     0
 40
22.8
 41
0.9
 50
0.0
 71
     0
 42
22.8
  3
txt.shx
  4
extfont.shx
  0
STYLE
  2
KANJI59
 70
     0
 40
22.8
 41
0.9
 50
0.0
 71
     0
 42
22.8
  3
txt.shx
  4
extfont.shx
  0
STYLE
  2
KANJI60
 70
     0
 40
27.0
 41
0.9
 50
0.0
 71
     0
 42
27.0
  3
txt.shx
  4
extfont.shx
  0
STYLE
  2
KANJI61
 70
     0
 40
22.8
 41
0.9
 50
0.0
 71
     0
 42
22.8
  3
txt.shx
  4
extfont.shx
  0
STYLE
  2
KANJI62
 70
     0
 40
22.8
 41
0.9
 50
0.0
 71
     0
 42
22.8
  3
txt.shx
  4
extfont.shx
  0
STYLE
  2
KANJI63
 70
     0
 40
22.8
 41
0.9
 50
0.0
 71
     0
 42
22.8
  3
txt.shx
  4
extfont.shx
  0
STYLE
  2
KANJI64
 70
     0
 40
22.8
 41
0.9
 50
0.0
 71
     0
 42
22.8
  3
txt.shx
  4
extfont.shx
  0
STYLE
  2
KANJI65
 70
     0
 40
22.8
 41
0.9
 50
0.0
 71
     0
 42
22.8
  3
txt.shx
  4
extfont.shx
  0
STYLE
  2
KANJI66
 70
     0
 40
22.8
 41
0.9
 50
0.0
 71
     0
 42
22.8
  3
txt.shx
  4
extfont.shx
  0
STYLE
  2
KANJI67
 70
     4
 40
21.0
 41
0.9
 50
0.0
 71
     0
 42
21.0
  3
txt.shx
  4
extfont.shx
  0
STYLE
  2
KANJI68
 70
     4
 40
21.0
 41
0.9
 50
0.0
 71
     0
 42
21.0
  3
txt.shx
  4
extfont.shx
  0
STYLE
  2
KANJI69
 70
     0
 40
21.0
 41
0.9
 50
0.0
 71
     0
 42
21.0
  3
txt.shx
  4
extfont.shx
  0
STYLE
  2
KANJI70
 70
     0
 40
18.0
 41
0.9
 50
0.0
 71
     0
 42
18.0
  3
txt.shx
  4
extfont.shx
  0
STYLE
  2
KANJI71
 70
     0
 40
21.0
 41
0.9
 50
0.0
 71
     0
 42
21.0
  3
txt.shx
  4
extfont.shx
  0
STYLE
  2
KANJI72
 70
     0
 40
22.8
 41
0.9
 50
0.0
 71
     0
 42
22.8
  3
txt.shx
  4
extfont.shx
  0
STYLE
  2
KANJI73
 70
     0
 40
22.8
 41
0.9
 50
0.0
 71
     0
 42
22.8
  3
txt.shx
  4
extfont.shx
  0
STYLE
  2
KANJI74
 70
     0
 40
21.0
 41
0.628571429
 50
0.0
 71
     0
 42
21.0
  3
txt.shx
  4
extfont.shx
  0
STYLE
  2
KANJI75
 70
     0
 40
20.4
 41
0.705882353
 50
0.0
 71
     0
 42
20.4
  3
txt.shx
  4
extfont.shx
  0
STYLE
  2
KANJI76
 70
     0
 40
18.0
 41
0.8
 50
0.0
 71
     0
 42
18.0
  3
txt.shx
  4
extfont.shx
  0
STYLE
  2
KANJI77
 70
     0
 40
19.2
 41
0.71875
 50
0.0
 71
     0
 42
19.2
  3
txt.shx
  4
extfont.shx
  0
STYLE
  2
KANJI78
 70
     0
 40
19.2
 41
0.8
 50
0.0
 71
     0
 42
19.2
  3
txt.shx
  4
extfont.shx
  0
STYLE
  2
KANJI79
 70
     0
 40
21.0
 41
0.571428571
 50
0.0
 71
     0
 42
21.0
  3
txt.shx
  4
extfont.shx
  0
STYLE
  2
KANJI80
 70
     0
 40
18.0
 41
0.833333333
 50
0.0
 71
     0
 42
18.0
  3
txt.shx
  4
extfont.shx
  0
STYLE
  2
KANJI81
 70
     0
 40
21.0
 41
0.9
 50
0.0
 71
     0
 42
21.0
  3
txt.shx
  4
extfont.shx
  0
STYLE
  2
KANJI82
 70
     0
 40
21.0
 41
0.857142857
 50
0.0
 71
     0
 42
21.0
  3
txt.shx
  4
extfont.shx
  0
STYLE
  2
KANJI83
 70
     0
 40
18.0
 41
0.833333333
 50
0.0
 71
     0
 42
18.0
  3
txt.shx
  4
extfont.shx
  0
ENDTAB
  0
TABLE
  2
VIEW
 70
     0
  0
ENDTAB
  0
ENDSEC
  0
SECTION
  2
BLOCKS
  0
ENDSEC
  0
SECTION
  2
ENTITIES
  0
POLYLINE
  8
0
  6
CONTINUOUS
 62
     6
 66
     1
  0
VERTEX
  8
0
  6
CONTINUOUS
 62
     6
 10
82.92
 20
71.7
 30
0.0
  0
VERTEX
  8
0
  6
CONTINUOUS
 62
     6
 10
82.92
 20
1685.7
 30
0.0
  0
VERTEX
  8
0
  6
CONTINUOUS
 62
     6
 10
2404.92
 20
1685.7
 30
0.0
  0
SEQEND
  0
LINE
  8
0
  6
CONTINUOUS
 62
     6
 10
88.919998738
 20
161.699981077
 30
0.0
 11
478.919916738
 21
161.699981077
 31
0.0
  0
LINE
  8
0
  6
CONTINUOUS
 62
     6
 10
88.919998738
 20
77.699998738
 30
0.0
 11
478.919916738
 21
77.699998738
 31
0.0
  0
LINE
  8
0
  6
CONTINUOUS
 62
     6
 10
88.919998738
 20
77.699998738
 30
0.0
 11
88.919998738
 21
161.699981077
 31
0.0
  0
LINE
  8
0
  6
CONTINUOUS
 62
     6
 10
88.919998738
 20
119.699989908
 30
0.0
 11
478.919916738
 21
119.699989908
 31
0.0
  0
LINE
  8
0
  6
CONTINUOUS
 62
     4
 10
14.6199996
 20
76.8999996
 30
0.0
 11
77.0199948
 21
76.8999996
 31
0.0
  0
LINE
  8
0
  6
CONTINUOUS
 62
     4
 10
14.6199996
 20
108.0999972
 30
0.0
 11
77.0199948
 21
108.0999972
 31
0.0
  0
LINE
  8
0
  6
CONTINUOUS
 62
     4
 10
14.6199996
 20
139.2999948
 30
0.0
 11
77.0199948
 21
139.2999948
 31
0.0
  0
LINE
  8
0
  6
CONTINUOUS
 62
     4
 10
14.6199996
 20
170.4999924
 30
0.0
 11
77.0199948
 21
170.4999924
 31
0.0
  0
LINE
  8
0
  6
CONTINUOUS
 62
     4
 10
14.6199996
 20
201.69999
 30
0.0
 11
77.0199948
 21
201.69999
 31
0.0
  0
LINE
  8
0
  6
CONTINUOUS
 62
     4
 10
14.6199996
 20
232.8999876
 30
0.0
 11
77.0199948
 21
232.8999876
 31
0.0
  0
LINE
  8
0
  6
CONTINUOUS
 62
     4
 10
14.6199996
 20
264.0999852
 30
0.0
 11
77.0199948
 21
264.0999852
 31
0.0
  0
LINE
  8
0
  6
CONTINUOUS
 62
     4
 10
14.6199996
 20
295.2999828
 30
0.0
 11
77.0199948
 21
295.2999828
 31
0.0
  0
LINE
  8
0
  6
CONTINUOUS
 62
     4
 10
14.6199996
 20
326.4999804
 30
0.0
 11
77.0199948
 21
326.4999804
 31
0.0
  0
LINE
  8
0
  6
CONTINUOUS
 62
     4
 10
14.6199996
 20
357.699978
 30
0.0
 11
77.0199948
 21
357.699978
 31
0.0
  0
LINE
  8
0
  6
CONTINUOUS
 62
     4
 10
77.0199948
 20
76.8999996
 30
0.0
 11
77.0199948
 21
357.699978
 31
0.0
  0
LINE
  8
0
  6
CONTINUOUS
 62
     4
 10
45.8199972
 20
76.8999996
 30
0.0
 11
45.8199972
 21
326.4999804
 31
0.0
  0
TEXT
  8
0
  6
CONTINUOUS
 62
     4
 10
25.27999878
 20
85.9999989
 30
1.55999988
 40
15.5999988
  1
計
 50
0.0
 41
0.75
 51
0.0
  7
KANJI0
  0
TEXT
  8
0
  6
CONTINUOUS
 62
     4
 10
25.27999878
 20
148.91999406
 30
1.55999988
 40
15.5999988
  1
設
 50
0.0
 41
0.75
 51
0.0
  7
KANJI0
  0
TEXT
  8
0
  6
CONTINUOUS
 62
     4
 10
25.27999878
 20
179.5999917
 30
1.55999988
 40
15.5999988
  1
管
 50
0.0
 41
0.75
 51
0.0
  7
KANJI0
  0
TEXT
  8
0
  6
CONTINUOUS
 62
     4
 10
25.27999878
 20
210.7999893
 30
1.55999988
 40
15.5999988
  1
製
 50
0.0
 41
0.75
 51
0.0
  7
KANJI0
  0
TEXT
  8
0
  6
CONTINUOUS
 62
     4
 10
25.27999878
 20
241.9999869
 30
1.55999988
 40
15.5999988
  1
資
 50
0.0
 41
0.75
 51
0.0
  7
KANJI0
  0
TEXT
  8
0
  6
CONTINUOUS
 62
     4
 10
25.27999878
 20
273.1999845
 30
1.55999988
 40
15.5999988
  1
営
 50
0.0
 41
0.75
 51
0.0
  7
KANJI0
  0
TEXT
  8
0
  6
CONTINUOUS
 62
     4
 10
25.27999878
 20
304.3999821
 30
1.55999988
 40
15.5999988
  1
客
 50
0.0
 41
0.75
 51
0.0
  7
KANJI0
  0
TEXT
  8
0
  6
CONTINUOUS
 62
     4
 10
25.0199988
 20
336.8999796
 30
1.55999988
 40
15.5999988
  1
出　図
 50
0.0
 41
0.75
 51
0.0
  7
KANJI0
  0
LINE
  8
0
  6
CONTINUOUS
 62
     4
 10
14.6199996
 20
76.8999996
 30
0.0
 11
14.6199996
 21
357.699978
 31
0.0
  0
LINE
  8
0
  6
CONTINUOUS
 62
     6
 10
2404.92
 20
71.7
 30
0.0
 11
82.92
 21
71.7
 31
0.0
  0
TEXT
  8
0
  6
CONTINUOUS
 62
     4
 10
100.919996215
 20
101.699993692
 30
1.199999748
 40
11.999997477
  1
ＰＡＲＴＳ　ＬＩＳＴ
 50
0.0
 41
0.6
 51
0.0
  7
KANJI1
  0
TEXT
  8
0
  6
CONTINUOUS
 62
     4
 10
100.919996215
 20
83.699997477
 30
1.439999697
 40
14.399996972
  1
部品表
 50
0.0
 41
0.9
 51
0.0
  7
KANJI2
  0
TEXT
  8
0
  6
CONTINUOUS
 62
     3
 10
100.919996215
 20
131.699987385
 30
1.799999622
 40
17.999996215
  1
ＰＬ
 50
0.0
 41
0.9
 51
0.0
  7
KANJI3
  0
TEXT
  8
0
  6
CONTINUOUS
 62
     4
 10
370.919939446
 20
101.699993692
 30
1.199999748
 40
11.999997477
  1
Ｎ０．
 50
0.0
 41
0.6
 51
0.0
  7
KANJI1
  0
TEXT
  8
0
  6
CONTINUOUS
 62
     4
 10
370.919939446
 20
83.699997477
 30
1.439999697
 40
14.399996972
  1
項番
 50
0.0
 41
0.9
 51
0.0
  7
KANJI2
  0
LINE
  8
0
  6
CONTINUOUS
 62
     6
 10
478.919916738
 20
77.699998738
 30
0.0
 11
478.919916738
 21
161.699981077
 31
0.0
  0
LINE
  8
0
  6
CONTINUOUS
 62
     6
 10
358.919941969
 20
77.699998738
 30
0.0
 11
358.919941969
 21
161.699981077
 31
0.0
  0
LINE
  8
0
  6
CONTINUOUS
 62
     6
 10
2404.92
 20
1685.7
 30
0.0
 11
2404.92
 21
71.7
 31
0.0
  0
LINE
  8
0
  6
CONTINUOUS
 62
     6
 10
1598.920062
 20
76.8999996
 30
0.0
 11
1598.920062
 21
409.699974
 31
0.0
  0
LINE
  8
0
  6
CONTINUOUS
 62
     6
 10
2399.7200004
 20
76.8999996
 30
0.0
 11
2399.7200004
 21
409.699974
 31
0.0
  0
LINE
  8
0
  6
CONTINUOUS
 62
     4
 10
1788.7200474
 20
76.8999996
 30
0.0
 11
1788.7200474
 21
409.699974
 31
0.0
  0
LINE
  8
0
  6
CONTINUOUS
 62
     4
 10
1598.920062
 20
118.4999964
 30
0.0
 11
1788.7200474
 21
118.4999964
 31
0.0
  0
TEXT
  8
0
  6
CONTINUOUS
 62
     4
 10
1609.3200612
 20
100.2999978
 30
1.03999992
 40
10.3999992
  1
ＳＣＡＬＥ
 50
0.0
 41
0.6
 51
0.0
  7
KANJI4
  0
TEXT
  8
0
  6
CONTINUOUS
 62
     4
 10
1609.3200612
 20
84.699999
 30
1.247999904
 40
12.47999904
  1
尺度
 50
0.0
 41
0.6
 51
0.0
  7
KANJI5
  0
LINE
  8
0
  6
CONTINUOUS
 62
     6
 10
1188.1200936
 20
118.4999964
 30
0.0
 11
1598.920062
 21
118.4999964
 31
0.0
  0
LINE
  8
0
  6
CONTINUOUS
 62
     6
 10
1188.1200936
 20
76.8999996
 30
0.0
 11
2399.7200004
 21
76.8999996
 31
0.0
  0
TEXT
  8
0
  6
CONTINUOUS
 62
     6
 10
1793.920047
 20
100.2999978
 30
0.0
 40
18.1999986
  1
ＵＮＩＴＥＣ　ＩＮＤＵＳＴＲＹ　ＣＯ．，ＬＴＤ．
 50
0.0
 41
0.42031746
 51
0.0
  7
KANJI6
  0
TEXT
  8
0
  6
CONTINUOUS
 62
     6
 10
2049.175027365
 20
93.53999832
 30
3.11999976
 40
31.1999976
  1
ユニテック工業株式会社
 50
0.0
 41
0.9
 51
0.0
  7
KANJI7
  0
LINE
  8
0
  6
CONTINUOUS
 62
     6
 10
2007.575030565
 20
104.45999748
 30
0.0
 11
1993.847031621
 21
104.45999748
 31
0.0
  0
LINE
  8
0
  6
CONTINUOUS
 62
     6
 10
2007.575030565
 20
106.955997288
 30
0.0
 11
1993.847031621
 21
106.955997288
 31
0.0
  0
LINE
  8
0
  6
CONTINUOUS
 62
     6
 10
2007.575030565
 20
104.45999748
 30
0.0
 11
2021.303029509
 21
104.45999748
 31
0.0
  0
LINE
  8
0
  6
CONTINUOUS
 62
     6
 10
2007.575030565
 20
106.955997288
 30
0.0
 11
2021.303029509
 21
106.955997288
 31
0.0
  0
LINE
  8
0
  6
CONTINUOUS
 62
     6
 10
2021.303029509
 20
106.955997288
 30
0.0
 11
2021.303029509
 21
104.45999748
 31
0.0
  0
ARC
  8
0
  6
CONTINUOUS
 62
     6
 10
2024.423029269
 20
105.707997384
 30
0.0
 40
12.47999904
 50
185.739170477
 51
90.0
  0
ARC
  8
0
  6
CONTINUOUS
 62
     6
 10
2024.423029269
 20
105.707997384
 30
0.0
 40
14.975998848
 50
184.780191847
 51
90.0
  0
LINE
  8
0
  6
CONTINUOUS
 62
     6
 10
1993.847031621
 20
104.45999748
 30
0.0
 11
1993.847031621
 21
106.955997288
 31
0.0
  0
ARC
  8
0
  6
CONTINUOUS
 62
     6
 10
1990.727031861
 20
105.707997384
 30
0.0
 40
12.47999904
 50
90.0
 51
354.260829523
  0
ARC
  8
0
  6
CONTINUOUS
 62
     6
 10
1990.727031861
 20
105.707997384
 30
0.0
 40
14.975998848
 50
90.0
 51
355.219808153
  0
LINE
  8
0
  6
CONTINUOUS
 62
     6
 10
2005.703030709
 20
120.683996232
 30
0.0
 11
2005.703030709
 21
118.187996424
 31
0.0
  0
LINE
  8
0
  6
CONTINUOUS
 62
     6
 10
1990.727031861
 20
118.187996424
 30
0.0
 11
2005.703030709
 21
118.187996424
 31
0.0
  0
LINE
  8
0
  6
CONTINUOUS
 62
     6
 10
2009.447030421
 20
120.683996232
 30
0.0
 11
2009.447030421
 21
118.187996424
 31
0.0
  0
LINE
  8
0
  6
CONTINUOUS
 62
     6
 10
2024.423029269
 20
118.187996424
 30
0.0
 11
2009.447030421
 21
118.187996424
 31
0.0
  0
TEXT
  8
0
  6
CONTINUOUS
 62
     4
 10
1320.7200834
 20
100.2999978
 30
1.03999992
 40
10.3999992
  1
ＢＹ
 50
0.0
 41
0.6
 51
0.0
  7
KANJI4
  0
TEXT
  8
0
  6
CONTINUOUS
 62
     4
 10
1435.1200746
 20
100.2999978
 30
1.03999992
 40
10.3999992
  1
ＤＥＳＣＲＩＰＴＩＯＮ
 50
0.0
 41
0.6
 51
0.0
  7
KANJI4
  0
TEXT
  8
0
  6
CONTINUOUS
 62
     4
 10
1320.7200834
 20
84.699999
 30
1.247999904
 40
12.47999904
  1
担当
 50
0.0
 41
0.6
 51
0.0
  7
KANJI5
  0
TEXT
  8
0
  6
CONTINUOUS
 62
     4
 10
1450.7200734
 20
84.699999
 30
1.247999904
 40
12.47999904
  1
記　　　　事
 50
0.0
 41
0.6
 51
0.0
  7
KANJI5
  0
LINE
  8
0
  6
CONTINUOUS
 62
     4
 10
1210.2200919
 20
110.699997
 30
0.0
 11
1193.3200932
 21
84.699999
 31
0.0
  0
TEXT
  8
0
  6
CONTINUOUS
 62
     4
 10
1253.1200886
 20
100.2999978
 30
1.03999992
 40
10.3999992
  1
ＤＡＴＥ
 50
0.0
 41
0.6
 51
0.0
  7
KANJI4
  0
TEXT
  8
0
  6
CONTINUOUS
 62
     4
 10
1260.920088
 20
84.699999
 30
1.247999904
 40
12.47999904
  1
日付
 50
0.0
 41
0.6
 51
0.0
  7
KANJI5
  0
LINE
  8
0
  6
CONTINUOUS
 62
     4
 10
1193.3200932
 20
84.699999
 30
0.0
 11
1227.1200906
 21
84.699999
 31
0.0
  0
LINE
  8
0
  6
CONTINUOUS
 62
     4
 10
1210.2200919
 20
110.699997
 30
0.0
 11
1227.1200906
 21
84.699999
 31
0.0
  0
LINE
  8
0
  6
CONTINUOUS
 62
     6
 10
1188.1200936
 20
76.8999996
 30
0.0
 11
1188.1200936
 21
118.4999964
 31
0.0
  0
LINE
  8
0
  6
CONTINUOUS
 62
     4
 10
1232.3200902
 20
76.8999996
 30
0.0
 11
1232.3200902
 21
118.4999964
 31
0.0
  0
LINE
  8
0
  6
CONTINUOUS
 62
     4
 10
1305.1200846
 20
76.8999996
 30
0.0
 11
1305.1200846
 21
118.4999964
 31
0.0
  0
LINE
  8
0
  6
CONTINUOUS
 62
     4
 10
1351.920081
 20
76.8999996
 30
0.0
 11
1351.920081
 21
118.4999964
 31
0.0
  0
TEXT
  8
0
  6
CONTINUOUS
 62
     4
 10
1609.3200612
 20
308.2999818
 30
1.03999992
 40
10.3999992
  1
ＣＯＤＥ
 50
0.0
 41
0.6
 51
0.0
  7
KANJI4
  0
LINE
  8
0
  6
CONTINUOUS
 62
     4
 10
1598.920062
 20
326.4999804
 30
0.0
 11
2399.7200004
 21
326.4999804
 31
0.0
  0
TEXT
  8
0
  6
CONTINUOUS
 62
     4
 10
1609.3200612
 20
292.699983
 30
1.247999904
 40
12.47999904
  1
分類
 50
0.0
 41
0.6
 51
0.0
  7
KANJI5
  0
TEXT
  8
0
  6
CONTINUOUS
 62
     4
 10
1617.42
 20
332.7
 30
6.0
 40
21.6
  1
ご注文主
 50
0.0
 41
1.111111111
 51
0.0
  7
KANJI8
  0
TEXT
  8
0
  6
CONTINUOUS
 62
     4
 10
1609.3200612
 20
183.4999914
 30
1.03999992
 40
10.3999992
  1
ＤＲＡＷＮ
 50
0.0
 41
0.6
 51
0.0
  7
KANJI4
  0
TEXT
  8
0
  6
CONTINUOUS
 62
     4
 10
1609.3200612
 20
225.0999882
 30
1.03999992
 40
10.3999992
  1
ＤＥＳＩＧＮ
 50
0.0
 41
0.6
 51
0.0
  7
KANJI4
  0
TEXT
  8
0
  6
CONTINUOUS
 62
     4
 10
1609.3200612
 20
266.699985
 30
1.03999992
 40
10.3999992
  1
ＣＨＥＣＫ
 50
0.0
 41
0.6
 51
0.0
  7
KANJI4
  0
LINE
  8
0
  6
CONTINUOUS
 62
     4
 10
1598.920062
 20
243.2999868
 30
0.0
 11
1788.7200474
 21
243.2999868
 31
0.0
  0
LINE
  8
0
  6
CONTINUOUS
 62
     4
 10
1598.920062
 20
201.69999
 30
0.0
 11
1788.7200474
 21
201.69999
 31
0.0
  0
LINE
  8
0
  6
CONTINUOUS
 62
     4
 10
1598.920062
 20
284.8999836
 30
0.0
 11
1788.7200474
 21
284.8999836
 31
0.0
  0
TEXT
  8
0
  6
CONTINUOUS
 62
     4
 10
1609.3200612
 20
209.4999894
 30
1.247999904
 40
12.47999904
  1
設計
 50
0.0
 41
0.6
 51
0.0
  7
KANJI5
  0
TEXT
  8
0
  6
CONTINUOUS
 62
     4
 10
1609.3200612
 20
251.0999862
 30
1.247999904
 40
12.47999904
  1
検図
 50
0.0
 41
0.6
 51
0.0
  7
KANJI5
  0
LINE
  8
0
  6
CONTINUOUS
 62
     4
 10
1804.06004622
 20
284.8999836
 30
0.0
 11
2399.7200004
 21
284.8999836
 31
0.0
  0
LINE
  8
0
  6
CONTINUOUS
 62
     4
 10
1788.7200474
 20
201.69999
 30
0.0
 11
2399.7200004
 21
201.69999
 31
0.0
  0
TEXT
  8
0
  6
CONTINUOUS
 62
     4
 10
1799.1200466
 20
183.4999914
 30
1.03999992
 40
10.3999992
  1
ＤＲＡＷＩＮＧ　ＮＯ．
 50
0.0
 41
0.8
 51
0.0
  7
KANJI9
  0
TEXT
  8
0
  6
CONTINUOUS
 62
     4
 10
1799.1200466
 20
225.0999882
 30
1.03999992
 40
10.3999992
  1
ＭＦＧ　ＮＯ．
 50
0.0
 41
0.8
 51
0.0
  7
KANJI9
  0
TEXT
  8
0
  6
CONTINUOUS
 62
     4
 10
1799.1200466
 20
266.699985
 30
1.03999992
 40
10.3999992
  1
ＴＹＰＥ
 50
0.0
 41
0.8
 51
0.0
  7
KANJI9
  0
LINE
  8
0
  6
CONTINUOUS
 62
     4
 10
1804.3200462
 20
243.2999868
 30
0.0
 11
2043.5200278
 21
243.2999868
 31
0.0
  0
TEXT
  8
0
  6
CONTINUOUS
 62
     4
 10
1799.1200466
 20
165.2999928
 30
1.247999904
 40
12.47999904
  1
図　面　番　号
 50
0.0
 41
0.8
 51
0.0
  7
KANJI10
  0
TEXT
  8
0
  6
CONTINUOUS
 62
     4
 10
1799.1200466
 20
206.8999896
 30
1.247999904
 40
12.47999904
  1
製番
 50
0.0
 41
0.8
 51
0.0
  7
KANJI10
  0
TEXT
  8
0
  6
CONTINUOUS
 62
     4
 10
1799.1200466
 20
248.4999864
 30
1.247999904
 40
12.47999904
  1
機種
 50
0.0
 41
0.8
 51
0.0
  7
KANJI10
  0
LINE
  8
0
  6
CONTINUOUS
 62
     4
 10
1598.920062
 20
160.0999932
 30
0.0
 11
1788.7200474
 21
160.0999932
 31
0.0
  0
TEXT
  8
0
  6
CONTINUOUS
 62
     4
 10
1609.3200612
 20
141.8999946
 30
1.03999992
 40
10.3999992
  1
ＤＡＴＥ
 50
0.0
 41
0.6
 51
0.0
  7
KANJI4
  0
TEXT
  8
0
  6
CONTINUOUS
 62
     4
 10
1609.3200612
 20
126.2999958
 30
1.247999904
 40
12.47999904
  1
日付
 50
0.0
 41
0.6
 51
0.0
  7
KANJI5
  0
TEXT
  8
0
  6
CONTINUOUS
 62
     4
 10
1609.3200612
 20
167.8999926
 30
1.247999904
 40
12.47999904
  1
作図
 50
0.0
 41
0.6
 51
0.0
  7
KANJI5
  0
LINE
  8
0
  6
CONTINUOUS
 62
     4
 10
1788.7200474
 20
141.8999946
 30
0.0
 11
2399.7200004
 21
141.8999946
 31
0.0
  0
LINE
  8
0
  6
LTYPE1
 62
     4
 10
2225.5200138
 20
149.699994
 30
0.0
 11
2225.5200138
 21
191.2999908
 31
0.0
  0
LINE
  8
0
  6
LTYPE1
 62
     4
 10
2189.1200166
 20
149.699994
 30
0.0
 11
2189.1200166
 21
191.2999908
 31
0.0
  0
LINE
  8
0
  6
LTYPE1
 62
     4
 10
2152.7200194
 20
149.699994
 30
0.0
 11
2152.7200194
 21
191.2999908
 31
0.0
  0
LINE
  8
0
  6
LTYPE1
 62
     4
 10
2116.3200222
 20
149.699994
 30
0.0
 11
2116.3200222
 21
191.2999908
 31
0.0
  0
LINE
  8
0
  6
LTYPE1
 62
     4
 10
2079.920025
 20
149.699994
 30
0.0
 11
2079.920025
 21
191.2999908
 31
0.0
  0
LINE
  8
0
  6
LTYPE1
 62
     4
 10
2043.5200278
 20
149.699994
 30
0.0
 11
2043.5200278
 21
191.2999908
 31
0.0
  0
LINE
  8
0
  6
LTYPE1
 62
     4
 10
2007.1200306
 20
149.699994
 30
0.0
 11
2007.1200306
 21
191.2999908
 31
0.0
  0
LINE
  8
0
  6
LTYPE1
 62
     4
 10
1970.7200334
 20
149.699994
 30
0.0
 11
1970.7200334
 21
191.2999908
 31
0.0
  0
LINE
  8
0
  6
LTYPE1
 62
     4
 10
1970.7200334
 20
191.2999908
 30
0.0
 11
2225.5200138
 21
191.2999908
 31
0.0
  0
LINE
  8
0
  6
LTYPE1
 62
     4
 10
1970.7200334
 20
149.699994
 30
0.0
 11
2225.5200138
 21
149.699994
 31
0.0
  0
LINE
  8
0
  6
CONTINUOUS
 62
     4
 10
2246.3200122
 20
171.7999923
 30
0.0
 11
2256.7200114
 21
171.7999923
 31
0.0
  0
LINE
  8
0
  6
CONTINUOUS
 62
     4
 10
2311.3200072
 20
156.1999935
 30
0.0
 11
2274.92001
 21
156.1999935
 31
0.0
  0
LINE
  8
0
  6
CONTINUOUS
 62
     4
 10
2274.92001
 20
156.1999935
 30
0.0
 11
2293.1200086
 21
187.3999911
 31
0.0
  0
LINE
  8
0
  6
CONTINUOUS
 62
     4
 10
2293.1200086
 20
187.3999911
 30
0.0
 11
2311.3200072
 21
156.1999935
 31
0.0
  0
TEXT
  8
0
  6
CONTINUOUS
 62
     4
 10
2059.1200266
 20
266.699985
 30
1.03999992
 40
10.3999992
  1
ＴＩＴＬＥ
 50
0.0
 41
0.8
 51
0.0
  7
KANJI9
  0
TEXT
  8
0
  6
CONTINUOUS
 62
     4
 10
2059.1200266
 20
248.4999864
 30
1.247999904
 40
12.47999904
  1
名称
 50
0.0
 41
0.8
 51
0.0
  7
KANJI10
  0
TEXT
  8
0
  6
CONTINUOUS
 62
     2
 10
2143.92
 20
209.7
 30
15.0
 40
30.0
  1
外形寸法図
 50
0.0
 41
1.0
 51
0.0
  7
KANJI11
  0
TEXT
  8
0
  6
CONTINUOUS
 62
     2
 10
2107.92
 20
245.7
 30
4.285714286
 40
30.0
  1
マイティシリンダ
 50
0.0
 41
1.0
 51
0.0
  7
KANJI12
  0
TEXT
  8
0
  6
CONTINUOUS
 62
     2
 10
1939.2200334
 20
155.699994
 30
1.8
 40
30.0
  1
Ａ
 50
0.0
 41
0.8
 51
0.0
  7
KANJI13
  0
CIRCLE
  8
0
  6
CONTINUOUS
 62
     2
 10
1900.2200334
 20
220.199994
 30
0.0
 40
15.0
  0
TEXT
  8
0
  6
CONTINUOUS
 62
     2
 10
1888.9700334
 20
208.949994
 30
1.8
 40
24.0
  1
Ｓ
 50
0.0
 41
1.0
 51
0.0
  7
KANJI14
  0
LINE
  8
0
  6
CONTINUOUS
 62
     6
 10
2005.703030709
 20
120.683996232
 30
0.0
 11
1990.727031861
 21
120.683996232
 31
0.0
  0
LINE
  8
0
  6
CONTINUOUS
 62
     6
 10
2009.447030421
 20
120.683996232
 30
0.0
 11
2024.423029269
 21
120.683996232
 31
0.0
  0
TEXT
  8
0
  6
CONTINUOUS
 62
     2
 10
1665.9200334
 20
170.699994
 30
6.0
 40
21.0
  1
岡田
 50
0.0
 41
0.857142857
 51
0.0
  7
KANJI15
  0
LINE
  8
0
  6
CONTINUOUS
 62
     4
 10
2399.7200004
 20
368.0999772
 30
0.0
 11
2399.7200004
 21
409.699974
 31
0.0
  0
LINE
  8
0
  6
CONTINUOUS
 62
     6
 10
1599.670062
 20
368.0999772
 30
0.0
 11
2400.4700004
 21
368.0999772
 31
0.0
  0
LINE
  8
0
  6
CONTINUOUS
 62
     6
 10
1598.920062
 20
409.699974
 30
0.0
 11
2399.7200004
 21
409.699974
 31
0.0
  0
TEXT
  8
0
  6
CONTINUOUS
 62
     4
 10
1617.42
 20
374.2999968
 30
6.0
 40
21.6
  1
ご用途
 50
0.0
 41
1.111111111
 51
0.0
  7
KANJI8
  0
TEXT
  8
0
  6
CONTINUOUS
 62
     2
 10
1708.92
 20
83.7
 30
1.8
 40
27.0
  1
１／６
 50
0.0
 41
0.666666667
 51
0.0
  7
KANJI16
  0
TEXT
  8
0
  6
CONTINUOUS
 62
     2
 10
176.4
 20
26.4
 30
0.0
 40
18.0
  1
ＦＤ　Ｎｏ．ＭＣ１９８
 50
0.0
 41
0.9
 51
0.0
  7
KANJI17
  0
LINE
  8
0
  6
CONTINUOUS
 62
     1
 10
1523.37
 20
1674.9
 30
0.0
 11
1523.37
 21
1554.78
 31
0.0
  0
LINE
  8
0
  6
CONTINUOUS
 62
     2
 10
1454.07
 20
1674.9
 30
0.0
 11
1454.07
 21
1554.78
 31
0.0
  0
LINE
  8
0
  6
CONTINUOUS
 62
     2
 10
1384.77
 20
1674.9
 30
0.0
 11
1384.77
 21
1554.78
 31
0.0
  0
LINE
  8
0
  6
CONTINUOUS
 62
     1
 10
1292.37
 20
1674.9
 30
0.0
 11
1292.37
 21
1554.78
 31
0.0
  0
LINE
  8
0
  6
CONTINUOUS
 62
     1
 10
1292.37
 20
1674.9
 30
0.0
 11
1523.37
 21
1674.9
 31
0.0
  0
LINE
  8
0
  6
CONTINUOUS
 62
     1
 10
1292.37
 20
1637.94
 30
0.0
 11
1523.37
 21
1637.94
 31
0.0
  0
LINE
  8
0
  6
CONTINUOUS
 62
     2
 10
1292.37
 20
1610.22
 30
0.0
 11
1523.37
 21
1610.22
 31
0.0
  0
LINE
  8
0
  6
CONTINUOUS
 62
     2
 10
1292.37
 20
1582.5
 30
0.0
 11
1523.37
 21
1582.5
 31
0.0
  0
LINE
  8
0
  6
CONTINUOUS
 62
     1
 10
1292.37
 20
1554.78
 30
0.0
 11
1523.37
 21
1554.78
 31
0.0
  0
TEXT
  8
0
  6
CONTINUOUS
 62
     2
 10
1463.31
 20
1658.73
 30
1.386
 40
13.86
  1
起動電流
 50
0.0
 41
0.9
 51
0.0
  7
KANJI18
  0
TEXT
  8
0
  6
CONTINUOUS
 62
     2
 10
1463.31
 20
1642.56
 30
1.386
 40
13.86
  1
　　　Ａ
 50
0.0
 41
0.9
 51
0.0
  7
KANJI18
  0
TEXT
  8
0
  6
CONTINUOUS
 62
     2
 10
1394.01
 20
1658.73
 30
1.386
 40
13.86
  1
定格電流
 50
0.0
 41
0.9
 51
0.0
  7
KANJI18
  0
TEXT
  8
0
  6
CONTINUOUS
 62
     2
 10
1394.01
 20
1642.56
 30
1.386
 40
13.86
  1
　　　Ａ
 50
0.0
 41
0.9
 51
0.0
  7
KANJI18
  0
TEXT
  8
0
  6
CONTINUOUS
 62
     2
 10
1300.224
 20
1589.43
 30
1.386
 40
13.86
  1
２００／６０
 50
0.0
 41
0.9
 51
0.0
  7
KANJI18
  0
TEXT
  8
0
  6
CONTINUOUS
 62
     2
 10
1300.224
 20
1658.73
 30
1.386
 40
13.86
  1
電圧／周波数
 50
0.0
 41
0.9
 51
0.0
  7
KANJI18
  0
TEXT
  8
0
  6
CONTINUOUS
 62
     2
 10
1300.224
 20
1642.56
 30
1.386
 40
13.86
  1
　Ｖ／Ｈｚ
 50
0.0
 41
0.9
 51
0.0
  7
KANJI18
  0
TEXT
  8
0
  6
CONTINUOUS
 62
     2
 10
1300.224
 20
1617.15
 30
1.386
 40
13.86
  1
２００／５０
 50
0.0
 41
0.9
 51
0.0
  7
KANJI18
  0
TEXT
  8
0
  6
CONTINUOUS
 62
     2
 10
1300.224
 20
1561.71
 30
1.386
 40
13.86
  1
２２０／６０
 50
0.0
 41
0.9
 51
0.0
  7
KANJI18
  0
LINE
  8
0
  6
CONTINUOUS
 62
     1
 10
1246.17
 20
1674.9
 30
0.0
 11
1246.17
 21
1554.78
 31
0.0
  0
LINE
  8
0
  6
CONTINUOUS
 62
     2
 10
1176.87
 20
1674.9
 30
0.0
 11
1176.87
 21
1554.78
 31
0.0
  0
LINE
  8
0
  6
CONTINUOUS
 62
     2
 10
1107.57
 20
1674.9
 30
0.0
 11
1107.57
 21
1554.78
 31
0.0
  0
LINE
  8
0
  6
CONTINUOUS
 62
     1
 10
1015.17
 20
1674.9
 30
0.0
 11
1015.17
 21
1554.78
 31
0.0
  0
LINE
  8
0
  6
CONTINUOUS
 62
     1
 10
1015.17
 20
1674.9
 30
0.0
 11
1246.17
 21
1674.9
 31
0.0
  0
LINE
  8
0
  6
CONTINUOUS
 62
     1
 10
1015.17
 20
1637.94
 30
0.0
 11
1246.17
 21
1637.94
 31
0.0
  0
LINE
  8
0
  6
CONTINUOUS
 62
     2
 10
1015.17
 20
1610.22
 30
0.0
 11
1246.17
 21
1610.22
 31
0.0
  0
LINE
  8
0
  6
CONTINUOUS
 62
     2
 10
1015.17
 20
1582.5
 30
0.0
 11
1246.17
 21
1582.5
 31
0.0
  0
LINE
  8
0
  6
CONTINUOUS
 62
     1
 10
1015.17
 20
1554.78
 30
0.0
 11
1246.17
 21
1554.78
 31
0.0
  0
TEXT
  8
0
  6
CONTINUOUS
 62
     2
 10
1186.11
 20
1658.73
 30
1.386
 40
13.86
  1
起動電流
 50
0.0
 41
0.9
 51
0.0
  7
KANJI18
  0
TEXT
  8
0
  6
CONTINUOUS
 62
     2
 10
1186.11
 20
1642.56
 30
1.386
 40
13.86
  1
　　　Ａ
 50
0.0
 41
0.9
 51
0.0
  7
KANJI18
  0
TEXT
  8
0
  6
CONTINUOUS
 62
     2
 10
1116.81
 20
1658.73
 30
1.386
 40
13.86
  1
定格電流
 50
0.0
 41
0.9
 51
0.0
  7
KANJI18
  0
TEXT
  8
0
  6
CONTINUOUS
 62
     2
 10
1116.81
 20
1642.56
 30
1.386
 40
13.86
  1
　　　Ａ
 50
0.0
 41
0.9
 51
0.0
  7
KANJI18
  0
TEXT
  8
0
  6
CONTINUOUS
 62
     2
 10
1023.024
 20
1658.73
 30
1.386
 40
13.86
  1
電圧／周波数
 50
0.0
 41
0.9
 51
0.0
  7
KANJI18
  0
TEXT
  8
0
  6
CONTINUOUS
 62
     2
 10
1023.024
 20
1642.56
 30
1.386
 40
13.86
  1
　Ｖ／Ｈｚ
 50
0.0
 41
0.9
 51
0.0
  7
KANJI18
  0
TEXT
  8
0
  6
CONTINUOUS
 62
     2
 10
1023.024
 20
1617.15
 30
1.386
 40
13.86
  1
４００／５０
 50
0.0
 41
0.9
 51
0.0
  7
KANJI18
  0
TEXT
  8
0
  6
CONTINUOUS
 62
     2
 10
1023.024
 20
1589.43
 30
1.386
 40
13.86
  1
４００／６０
 50
0.0
 41
0.9
 51
0.0
  7
KANJI18
  0
TEXT
  8
0
  6
CONTINUOUS
 62
     2
 10
1023.024
 20
1561.71
 30
1.386
 40
13.86
  1
４４０／６０
 50
0.0
 41
0.9
 51
0.0
  7
KANJI18
  0
TEXT
  8
0
  6
CONTINUOUS
 62
     2
 10
1119.267493476
 20
1615.15
 30
1.386
 40
13.86
  1
　５．２
 50
0.0
 41
0.9
 51
0.0
  7
KANJI18
  0
TEXT
  8
0
  6
CONTINUOUS
 62
     2
 10
1119.267493476
 20
1587.43
 30
1.386
 40
13.86
  1
　４．８
 50
0.0
 41
0.9
 51
0.0
  7
KANJI18
  0
TEXT
  8
0
  6
CONTINUOUS
 62
     2
 10
1119.267493476
 20
1559.71
 30
1.386
 40
13.86
  1
　４．５
 50
0.0
 41
0.9
 51
0.0
  7
KANJI18
  0
TEXT
  8
0
  6
CONTINUOUS
 62
     2
 10
1188.567493476
 20
1615.15
 30
1.386
 40
13.86
  1
２２
 50
0.0
 41
0.9
 51
0.0
  7
KANJI18
  0
TEXT
  8
0
  6
CONTINUOUS
 62
     2
 10
1188.567493476
 20
1587.43
 30
1.386
 40
13.86
  1
１９
 50
0.0
 41
0.9
 51
0.0
  7
KANJI18
  0
TEXT
  8
0
  6
CONTINUOUS
 62
     2
 10
1188.567493476
 20
1559.71
 30
1.386
 40
13.86
  1
２０．９
 50
0.0
 41
0.9
 51
0.0
  7
KANJI18
  0
TEXT
  8
0
  6
CONTINUOUS
 62
     2
 10
1396.467493476
 20
1615.15
 30
1.386
 40
13.86
  1
１０．０
 50
0.0
 41
0.9
 51
0.0
  7
KANJI18
  0
TEXT
  8
0
  6
CONTINUOUS
 62
     2
 10
1396.467493476
 20
1587.43
 30
1.386
 40
13.86
  1
　９．５
 50
0.0
 41
0.9
 51
0.0
  7
KANJI18
  0
TEXT
  8
0
  6
CONTINUOUS
 62
     2
 10
1396.467493476
 20
1559.71
 30
1.386
 40
13.86
  1
　９．０
 50
0.0
 41
0.9
 51
0.0
  7
KANJI18
  0
TEXT
  8
0
  6
CONTINUOUS
 62
     2
 10
1465.767493476
 20
1615.15
 30
1.386
 40
13.86
  1
４４
 50
0.0
 41
0.9
 51
0.0
  7
KANJI18
  0
TEXT
  8
0
  6
CONTINUOUS
 62
     2
 10
1465.767493476
 20
1587.43
 30
1.386
 40
13.86
  1
３８
 50
0.0
 41
0.9
 51
0.0
  7
KANJI18
  0
TEXT
  8
0
  6
CONTINUOUS
 62
     2
 10
1465.767493476
 20
1559.71
 30
1.386
 40
13.86
  1
４１．８
 50
0.0
 41
0.9
 51
0.0
  7
KANJI18
  0
TEXT
  8
0
  6
CONTINUOUS
 62
     2
 10
1976.7200334
 20
155.699994
 30
13.0
 40
30.0
  1
３００２５０２
 50
0.0
 41
0.8
 51
0.0
  7
KANJI19
  0
TEXT
  8
0
  6
CONTINUOUS
 62
     2
 10
1861.92
 20
251.7
 30
0.0
 40
21.0
  1
ＭＤ４－Ｌ
 50
0.0
 41
0.793650794
 51
0.0
  7
KANJI20
  0
TEXT
  8
0
  6
CONTINUOUS
 62
     2
 10
1055.133
 20
1533.99
 30
1.617
 40
16.17
  1
注意：サーマルリレー等の選定は、上記の値で選定して下さい。
 50
0.0
 41
0.9
 51
0.0
  7
KANJI21
  0
LINE
  8
0
  6
CONTINUOUS
 62
     2
 10
1045.893
 20
1529.37
 30
0.0
 11
1510.18
 21
1529.37
 31
0.0
  0
LINE
  8
0
  6
CONTINUOUS
 62
     2
 10
1729.32
 20
706.5
 30
0.0
 11
1873.32
 21
706.5
 31
0.0
  0
TEXT
  8
0
  6
CONTINUOUS
 62
     2
 10
1741.92
 20
714.9
 30
12.0
 40
24.0
  1
特記事項
 50
0.0
 41
0.9
 51
0.0
  7
KANJI22
  0
TEXT
  8
0
  6
CONTINUOUS
 62
     2
 10
1735.92
 20
595.2
 30
1.8
 40
21.0
  1
３．ＬＳユニット
 50
0.0
 41
0.857142857
 51
0.0
  7
KANJI23
  0
TEXT
  8
0
  6
CONTINUOUS
 62
     2
 10
1735.92
 20
670.2
 30
1.8
 40
21.0
  1
１．運転時は必ずピストンロッドの回転防止を行って下さい。
 50
0.0
 41
0.857142857
 51
0.0
  7
KANJI23
  0
TEXT
  8
0
  6
CONTINUOUS
 62
     2
 10
1735.92
 20
632.7
 30
1.8
 40
21.0
  1
２．モートル：全閉自冷かご形３０分定格
 50
0.0
 41
0.857142857
 51
0.0
  7
KANJI23
  0
TEXT
  8
0
  6
CONTINUOUS
 62
     2
 10
1735.92
 20
502.2
 30
1.8
 40
21.0
  1
４．呼称ストロークは、機械的ストロークです。
 50
0.0
 41
0.857142857
 51
0.0
  7
KANJI23
  0
TEXT
  8
0
  6
CONTINUOUS
 62
     2
 10
1735.92
 20
535.2
 30
1.8
 40
21.0
  1
　　ストローク７００ｍｍ以上の場合２ロッド方式となります。
 50
0.0
 41
0.857142857
 51
0.0
  7
KANJI23
  0
TEXT
  8
0
  6
CONTINUOUS
 62
     2
 10
1735.92
 20
565.2
 30
1.8
 40
21.0
  1
　　リミットスイッチ：１ＬＳ１－Ｊｘ２ケ（山武）
 50
0.0
 41
0.857142857
 51
0.0
  7
KANJI23
  0
TEXT
  8
0
  6
CONTINUOUS
 62
     2
 10
1735.92
 20
465.24
 30
1.8
 40
21.0
  1
　　必ず、常用はストローク両端に必ず余裕を取って下さい。
 50
0.0
 41
0.857142857
 51
0.0
  7
KANJI23
  0
TEXT
  8
0
  6
CONTINUOUS
 62
     2
 10
1735.92
 20
427.464
 30
1.8
 40
21.0
  1
　　前後の推奨余裕寸法は、各々１０ｍｍです。
 50
0.0
 41
0.857142857
 51
0.0
  7
KANJI23
  0
LINE
  8
0
  6
CONTINUOUS
 62
     2
 10
472.5199996
 20
1287.1999852
 30
0.0
 11
480.24740621
 21
1285.129432839
 31
0.0
  0
LINE
  8
0
  6
CONTINUOUS
 62
     2
 10
472.5199996
 20
1287.1999852
 30
0.0
 11
480.24740621
 21
1289.270537561
 31
0.0
  0
LINE
  8
0
  6
CONTINUOUS
 62
     2
 10
472.5199996
 20
1287.1999852
 30
0.0
 11
610.1199996
 21
1287.1999852
 31
0.0
  0
LINE
  8
0
  6
CONTINUOUS
 62
     2
 10
610.1199996
 20
1287.1999852
 30
0.0
 11
602.39259299
 21
1289.270537561
 31
0.0
  0
LINE
  8
0
  6
CONTINUOUS
 62
     2
 10
610.1199996
 20
1287.1999852
 30
0.0
 11
602.39259299
 21
1285.129432839
 31
0.0
  0
LINE
  8
0
  6
CONTINUOUS
 62
     2
 10
610.1199996
 20
1285.9999852
 30
0.0
 11
610.1199996
 21
1283.1999852
 31
0.0
  0
LINE
  8
0
  6
CONTINUOUS
 62
     2
 10
610.1199996
 20
1287.1999852
 30
0.0
 11
617.84740621
 21
1285.129432839
 31
0.0
  0
LINE
  8
0
  6
CONTINUOUS
 62
     2
 10
610.1199996
 20
1287.1999852
 30
0.0
 11
617.84740621
 21
1289.270537561
 31
0.0
  0
LINE
  8
0
  6
CONTINUOUS
 62
     2
 10
610.1199996
 20
1287.1999852
 30
0.0
 11
812.5199996
 21
1287.1999852
 31
0.0
  0
LINE
  8
0
  6
CONTINUOUS
 62
     2
 10
812.5199996
 20
1287.1999852
 30
0.0
 11
804.79259299
 21
1289.270537561
 31
0.0
  0
LINE
  8
0
  6
CONTINUOUS
 62
     2
 10
812.5199996
 20
1287.1999852
 30
0.0
 11
804.79259299
 21
1285.129432839
 31
0.0
  0
LINE
  8
0
  6
CONTINUOUS
 62
     2
 10
610.1199996
 20
1260.870537561
 30
0.0
 11
602.39259299
 21
1262.941089922
 31
0.0
  0
LINE
  8
0
  6
CONTINUOUS
 62
     2
 10
610.1199996
 20
1260.870537561
 30
0.0
 11
602.39259299
 21
1258.7999852
 31
0.0
  0
LINE
  8
0
  6
CONTINUOUS
 62
     2
 10
598.1199996
 20
1260.870537561
 30
0.0
 11
610.1199996
 21
1260.870537561
 31
0.0
  0
LINE
  8
0
  6
CONTINUOUS
 62
     2
 10
610.1199996
 20
1260.870537561
 30
0.0
 11
630.9199996
 21
1260.870537561
 31
0.0
  0
LINE
  8
0
  6
CONTINUOUS
 62
     2
 10
630.9199996
 20
1260.870537561
 30
0.0
 11
638.64740621
 21
1258.7999852
 31
0.0
  0
LINE
  8
0
  6
CONTINUOUS
 62
     2
 10
630.9199996
 20
1260.870537561
 30
0.0
 11
638.64740621
 21
1262.941089922
 31
0.0
  0
LINE
  8
0
  6
CONTINUOUS
 62
     2
 10
472.5199996
 20
1235.5999852
 30
0.0
 11
472.5199996
 21
1229.5999852
 31
0.0
  0
LINE
  8
0
  6
CONTINUOUS
 62
     2
 10
472.5199996
 20
1233.5999852
 30
0.0
 11
480.24740621
 21
1231.529432839
 31
0.0
  0
LINE
  8
0
  6
CONTINUOUS
 62
     2
 10
472.5199996
 20
1233.5999852
 30
0.0
 11
480.24740621
 21
1235.670537561
 31
0.0
  0
LINE
  8
0
  6
CONTINUOUS
 62
     2
 10
472.5199996
 20
1233.5999852
 30
0.0
 11
630.9199996
 21
1233.5999852
 31
0.0
  0
LINE
  8
0
  6
CONTINUOUS
 62
     2
 10
630.9199996
 20
1233.5999852
 30
0.0
 11
623.19259299
 21
1235.670537561
 31
0.0
  0
LINE
  8
0
  6
CONTINUOUS
 62
     2
 10
630.9199996
 20
1233.5999852
 30
0.0
 11
623.19259299
 21
1231.529432839
 31
0.0
  0
LINE
  8
0
  6
CONTINUOUS
 62
     2
 10
630.9199996
 20
1234.7999852
 30
0.0
 11
630.9199996
 21
1229.5999852
 31
0.0
  0
LINE
  8
0
  6
CONTINUOUS
 62
     2
 10
630.9199996
 20
1233.5999852
 30
0.0
 11
638.64740621
 21
1231.529432839
 31
0.0
  0
LINE
  8
0
  6
CONTINUOUS
 62
     2
 10
630.9199996
 20
1233.5999852
 30
0.0
 11
638.64740621
 21
1235.670537561
 31
0.0
  0
LINE
  8
0
  6
CONTINUOUS
 62
     2
 10
812.5199996
 20
1229.9999852
 30
0.0
 11
812.5199996
 21
1229.5999852
 31
0.0
  0
LINE
  8
0
  6
CONTINUOUS
 62
     2
 10
472.5199996
 20
1204.3999852
 30
0.0
 11
480.24740621
 21
1202.329432839
 31
0.0
  0
LINE
  8
0
  6
CONTINUOUS
 62
     2
 10
472.5199996
 20
1204.3999852
 30
0.0
 11
480.24740621
 21
1206.470537561
 31
0.0
  0
LINE
  8
0
  6
CONTINUOUS
 62
     2
 10
472.5199996
 20
1204.3999852
 30
0.0
 11
790.1199996
 21
1204.3999852
 31
0.0
  0
LINE
  8
0
  6
CONTINUOUS
 62
     2
 10
790.1199996
 20
1204.3999852
 30
0.0
 11
782.39259299
 21
1206.470537561
 31
0.0
  0
LINE
  8
0
  6
CONTINUOUS
 62
     2
 10
790.1199996
 20
1204.3999852
 30
0.0
 11
782.39259299
 21
1202.329432839
 31
0.0
  0
LINE
  8
0
  6
CONTINUOUS
 62
     2
 10
790.1199996
 20
1205.1999852
 30
0.0
 11
790.1199996
 21
1200.3999852
 31
0.0
  0
LINE
  8
0
  6
CONTINUOUS
 62
     2
 10
790.1199996
 20
1204.3999852
 30
0.0
 11
782.39259299
 21
1206.470537561
 31
0.0
  0
LINE
  8
0
  6
CONTINUOUS
 62
     2
 10
790.1199996
 20
1204.3999852
 30
0.0
 11
782.39259299
 21
1202.329432839
 31
0.0
  0
LINE
  8
0
  6
CONTINUOUS
 62
     2
 10
778.1199996
 20
1204.3999852
 30
0.0
 11
790.1199996
 21
1204.3999852
 31
0.0
  0
LINE
  8
0
  6
CONTINUOUS
 62
     2
 10
790.1199996
 20
1204.3999852
 30
0.0
 11
812.5199996
 21
1204.3999852
 31
0.0
  0
LINE
  8
0
  6
CONTINUOUS
 62
     2
 10
812.5199996
 20
1204.3999852
 30
0.0
 11
820.24740621
 21
1202.329432839
 31
0.0
  0
LINE
  8
0
  6
CONTINUOUS
 62
     2
 10
812.5199996
 20
1204.3999852
 30
0.0
 11
820.24740621
 21
1206.470537561
 31
0.0
  0
LINE
  8
0
  6
CONTINUOUS
 62
     2
 10
472.5199996
 20
1297.9999852
 30
0.0
 11
472.5199996
 21
1283.1999852
 31
0.0
  0
LINE
  8
0
  6
CONTINUOUS
 62
     2
 10
812.5199996
 20
1297.9999852
 30
0.0
 11
812.5199996
 21
1283.1999852
 31
0.0
  0
LINE
  8
0
  6
CONTINUOUS
 62
     2
 10
610.1199996
 20
1286.7999852
 30
0.0
 11
610.1199996
 21
1297.9999852
 31
0.0
  0
LINE
  8
0
  6
CONTINUOUS
 62
     2
 10
630.9199996
 20
1273.670537561
 30
0.0
 11
630.9199996
 21
1256.870537561
 31
0.0
  0
LINE
  8
0
  6
CONTINUOUS
 62
     2
 10
472.5199996
 20
1283.1999852
 30
0.0
 11
472.5199996
 21
1191.1999852
 31
0.0
  0
LINE
  8
0
  6
CONTINUOUS
 62
     2
 10
812.5199996
 20
1287.1999852
 30
0.0
 11
812.5199996
 21
1192.3999852
 31
0.0
  0
LINE
  8
0
  6
CONTINUOUS
 62
     2
 10
630.9199996
 20
1260.870537561
 30
0.0
 11
630.9199996
 21
1224.3999852
 31
0.0
  0
LINE
  8
0
  6
CONTINUOUS
 62
     2
 10
610.1199996
 20
1287.1999852
 30
0.0
 11
610.1199996
 21
1251.5999852
 31
0.0
  0
TEXT
  8
0
  6
CONTINUOUS
 62
     3
 10
514.3199996
 20
1289.1999852
 30
0.0
 40
15.0
  1
ｍｉｎ．Ｌ
 50
0.0
 41
0.9
 51
0.0
  7
KANJI24
  0
TEXT
  8
0
  6
CONTINUOUS
 62
     3
 10
668.1199996
 20
1289.1999852
 30
0.0
 40
15.0
  1
機械的ストローク
 50
0.0
 41
0.9
 51
0.0
  7
KANJI24
  0
TEXT
  8
0
  6
CONTINUOUS
 62
     3
 10
642.9199996
 20
1262.870537561
 30
0.0
 40
15.0
  1
余裕
 50
0.0
 41
0.9
 51
0.0
  7
KANJI24
  0
TEXT
  8
0
  6
CONTINUOUS
 62
     3
 10
524.7199996
 20
1235.5999852
 30
0.0
 40
15.0
  1
常用ｍｉｎ
 50
0.0
 41
0.9
 51
0.0
  7
KANJI24
  0
TEXT
  8
0
  6
CONTINUOUS
 62
     3
 10
604.3199996
 20
1206.3999852
 30
0.0
 40
15.0
  1
常用ｍａｘ
 50
0.0
 41
0.9
 51
0.0
  7
KANJI24
  0
TEXT
  8
0
  6
CONTINUOUS
 62
     3
 10
824.5199996
 20
1206.3999852
 30
0.0
 40
15.0
  1
余裕
 50
0.0
 41
0.9
 51
0.0
  7
KANJI24
  0
LINE
  8
0
  6
CONTINUOUS
 62
     2
 10
630.9199996
 20
1260.870537561
 30
0.0
 11
671.0199996
 21
1260.870537561
 31
0.0
  0
LINE
  8
0
  6
CONTINUOUS
 62
     2
 10
812.5199996
 20
1204.3999852
 30
0.0
 11
855.0199996
 21
1204.3999852
 31
0.0
  0
LINE
  8
0
  6
CONTINUOUS
 62
     2
 10
790.1199996
 20
1247.3999852
 30
0.0
 11
790.1199996
 21
1191.5999852
 31
0.0
  0
LINE
  8
0
  6
CONTINUOUS
 62
     2
 10
630.9199996
 20
1233.5999852
 30
0.0
 11
790.1199996
 21
1233.5999852
 31
0.0
  0
LINE
  8
0
  6
CONTINUOUS
 62
     2
 10
790.1199996
 20
1233.5999852
 30
0.0
 11
782.39259299
 21
1235.670537561
 31
0.0
  0
LINE
  8
0
  6
CONTINUOUS
 62
     2
 10
790.1199996
 20
1233.5999852
 30
0.0
 11
782.39259299
 21
1231.529432839
 31
0.0
  0
TEXT
  8
0
  6
CONTINUOUS
 62
     3
 10
667.9199996
 20
1235.5999852
 30
0.0
 40
15.0
  1
常用ストローク
 50
0.0
 41
0.9
 51
0.0
  7
KANJI24
  0
LINE
  8
0
  6
CONTINUOUS
 62
     6
 10
356.629425053
 20
1631.447759827
 30
0.0
 11
124.584646507
 21
1631.447759827
 31
0.0
  0
LINE
  8
0
  6
CONTINUOUS
 62
     3
 10
356.629425053
 20
1603.985259827
 30
0.0
 11
124.584646507
 21
1603.985259827
 31
0.0
  0
LINE
  8
0
  6
CONTINUOUS
 62
     6
 10
356.629425053
 20
1603.985259827
 30
0.0
 11
124.584646507
 21
1603.985259827
 31
0.0
  0
TEXT
  8
0
  6
CONTINUOUS
 62
     6
 10
382.212228
 20
1628.900410728
 30
1.232517
 40
13.182
  1
電気定格　　　
 50
0.0
 41
0.85
 51
0.0
  7
KANJI25
  0
TEXT
  8
0
  6
CONTINUOUS
 62
     6
 10
128.493517202
 20
1634.64592676
 30
1.0647
 40
11.661
  1
ＬＳ０１　　　：推力リミッタ（前進時過負荷用）
 50
0.0
 41
0.822608696
 51
0.0
  7
KANJI26
  0
TEXT
  8
0
  6
CONTINUOUS
 62
     6
 10
128.493517202
 20
1607.18342676
 30
1.0647
 40
11.661
  1
ＬＳ０２　　　：推力リミッタ（後進時過負荷用）
 50
0.0
 41
0.822608696
 51
0.0
  7
KANJI26
  0
TEXT
  8
0
  6
CONTINUOUS
 62
     6
 10
395.013715102
 20
1598.326958599
 30
0.0
 40
11.8638
  1
ＤＣ１２５Ｖ　０．６Ａ　，ＤＣ２５０Ｖ　０．３Ａ　
 50
0.0
 41
0.726495726
 51
0.0
  7
KANJI27
  0
LINE
  8
0
  6
LTYPE2
 62
     6
 10
655.02
 20
1658.9
 30
0.0
 11
106.62
 21
1658.9
 31
0.0
  0
TEXT
  8
0
  6
CONTINUOUS
 62
     6
 10
389.757132178
 20
1646.661726126
 30
0.0
 40
45.0
  1
｝
 50
0.0
 41
0.538166667
 51
0.0
  7
KANJI28
  0
TEXT
  8
0
  6
CONTINUOUS
 62
     6
 10
319.632791539
 20
1417.92382165
 30
0.0
 40
17.740702234
  1
端子台　接続図
 50
0.0
 41
0.880962996
 51
0.0
  7
KANJI29
  0
LINE
  8
0
  6
LTYPE2
 62
     6
 10
655.02
 20
1399.9
 30
0.0
 11
655.02
 21
1658.9
 31
0.0
  0
LINE
  8
0
  6
LTYPE2
 62
     6
 10
106.62
 20
1399.9
 30
0.0
 11
655.02
 21
1399.9
 31
0.0
  0
LINE
  8
0
  6
LTYPE2
 62
     6
 10
106.62
 20
1658.9
 30
0.0
 11
106.62
 21
1399.9
 31
0.0
  0
LINE
  8
0
  6
CONTINUOUS
 62
     2
 10
354.597373465
 20
1468.928121884
 30
0.0
 11
354.597373465
 21
1446.149155128
 31
0.0
  0
LINE
  8
0
  6
CONTINUOUS
 62
     2
 10
381.17283468
 20
1468.928121884
 30
0.0
 11
381.17283468
 21
1446.149155128
 31
0.0
  0
LINE
  8
0
  6
CONTINUOUS
 62
     2
 10
407.748295894
 20
1468.928121884
 30
0.0
 11
407.748295894
 21
1446.149155128
 31
0.0
  0
LINE
  8
0
  6
CONTINUOUS
 62
     2
 10
434.323757109
 20
1468.928121884
 30
0.0
 11
434.323757109
 21
1446.149155128
 31
0.0
  0
CIRCLE
  8
0
  6
CONTINUOUS
 62
     6
 10
426.404269667
 20
1492.407921517
 30
0.0
 40
4.100214016
  0
LINE
  8
0
  6
CONTINUOUS
 62
     6
 10
422.304055651
 20
1492.407921517
 30
0.0
 11
421.036026502
 21
1492.407921517
 31
0.0
  0
LINE
  8
0
  6
CONTINUOUS
 62
     6
 10
447.358027433
 20
1506.094562742
 30
0.0
 11
443.443558096
 21
1483.759507138
 31
0.0
  0
LINE
  8
0
  6
CONTINUOUS
 62
     6
 10
442.631699663
 20
1506.882284037
 30
0.0
 11
438.716922494
 21
1484.547279739
 31
0.0
  0
LINE
  8
0
  6
CONTINUOUS
 62
     6
 10
443.443558096
 20
1483.759507138
 30
0.0
 11
438.716922494
 21
1484.547279739
 31
0.0
  0
CIRCLE
  8
0
  6
CONTINUOUS
 62
     6
 10
447.611487717
 20
1482.939464335
 30
0.0
 40
4.100214016
  0
LINE
  8
0
  6
CONTINUOUS
 62
     6
 10
447.611487717
 20
1478.839250319
 30
0.0
 11
447.611487717
 21
1468.928121884
 31
0.0
  0
LINE
  8
0
  6
CONTINUOUS
 62
     6
 10
421.036026502
 20
1492.407921517
 30
0.0
 11
421.036026502
 21
1468.928121884
 31
0.0
  0
LINE
  8
0
  6
CONTINUOUS
 62
     6
 10
394.460565287
 20
1468.928121884
 30
0.0
 11
394.460565287
 21
1522.633332504
 31
0.0
  0
LINE
  8
0
  6
CONTINUOUS
 62
     6
 10
314.987641926
 20
1506.094562742
 30
0.0
 11
318.902111263
 21
1483.759507138
 31
0.0
  0
LINE
  8
0
  6
CONTINUOUS
 62
     6
 10
319.713969696
 20
1506.882284037
 30
0.0
 11
323.628746865
 21
1484.547279739
 31
0.0
  0
LINE
  8
0
  6
CONTINUOUS
 62
     6
 10
318.902111263
 20
1483.759507138
 30
0.0
 11
323.628746865
 21
1484.547279739
 31
0.0
  0
CIRCLE
  8
0
  6
CONTINUOUS
 62
     6
 10
314.734181642
 20
1482.939464335
 30
0.0
 40
4.100214016
  0
CIRCLE
  8
0
  6
CONTINUOUS
 62
     6
 10
335.941399692
 20
1492.407921517
 30
0.0
 40
4.100214016
  0
LINE
  8
0
  6
CONTINUOUS
 62
     6
 10
340.041613708
 20
1492.407921517
 30
0.0
 11
341.309642857
 21
1492.407921517
 31
0.0
  0
LINE
  8
0
  6
CONTINUOUS
 62
     6
 10
314.734181642
 20
1478.839250319
 30
0.0
 11
314.734181642
 21
1468.928121884
 31
0.0
  0
LINE
  8
0
  6
CONTINUOUS
 62
     6
 10
341.309642857
 20
1492.407921517
 30
0.0
 11
341.309642857
 21
1468.928121884
 31
0.0
  0
LINE
  8
0
  6
CONTINUOUS
 62
     6
 10
367.885104072
 20
1468.928121884
 30
0.0
 11
367.885104072
 21
1522.633332504
 31
0.0
  0
LINE
  8
0
  6
CONTINUOUS
 62
     2
 10
460.899218324
 20
1468.928121884
 30
0.0
 11
460.899218324
 21
1446.149155128
 31
0.0
  0
LINE
  8
0
  6
CONTINUOUS
 62
     2
 10
301.446451035
 20
1468.928121884
 30
0.0
 11
301.446451035
 21
1446.149155128
 31
0.0
  0
LINE
  8
0
  6
CONTINUOUS
 62
     2
 10
328.02191225
 20
1468.928121884
 30
0.0
 11
328.02191225
 21
1446.149155128
 31
0.0
  0
LINE
  8
0
  6
CONTINUOUS
 62
     6
 10
447.611487717
 20
1522.633332504
 30
0.0
 11
394.460565287
 21
1522.633332504
 31
0.0
  0
CIRCLE
  8
0
  6
CONTINUOUS
 62
     6
 10
447.611487717
 20
1510.28941042
 30
0.0
 40
4.100214016
  0
LINE
  8
0
  6
CONTINUOUS
 62
     6
 10
447.358027433
 20
1506.094562742
 30
0.0
 11
442.631699663
 21
1506.882284037
 31
0.0
  0
LINE
  8
0
  6
CONTINUOUS
 62
     6
 10
447.611487717
 20
1514.389624436
 30
0.0
 11
447.611487717
 21
1522.633332504
 31
0.0
  0
CIRCLE
  8
0
  6
CONTINUOUS
 62
     6
 10
314.734181642
 20
1510.28941042
 30
0.0
 40
4.100214016
  0
LINE
  8
0
  6
CONTINUOUS
 62
     6
 10
314.987641926
 20
1506.094562742
 30
0.0
 11
319.713969696
 21
1506.882284037
 31
0.0
  0
LINE
  8
0
  6
CONTINUOUS
 62
     6
 10
314.734181642
 20
1514.389624436
 30
0.0
 11
314.734181642
 21
1522.633332504
 31
0.0
  0
LINE
  8
0
  6
CONTINUOUS
 62
     6
 10
367.885104072
 20
1522.633332504
 30
0.0
 11
314.734181642
 21
1522.633332504
 31
0.0
  0
TEXT
  8
0
  6
CONTINUOUS
 62
     6
 10
319.4972152
 20
1527.152473273
 30
0.819
 40
11.7
  1
ＬＳ０１
 50
0.0
 41
0.8
 51
0.0
  7
KANJI30
  0
TEXT
  8
0
  6
CONTINUOUS
 62
     6
 10
402.117398844
 20
1527.152473273
 30
0.819
 40
11.7
  1
ＬＳ０２
 50
0.0
 41
0.8
 51
0.0
  7
KANJI30
  0
TEXT
  8
0
  6
CONTINUOUS
 62
     3
 10
147.308775989
 20
1449.945649587
 30
0.0
 40
15.0
  1
　　　　　　　　　　　　　　　　　　１　　２　　　３　　　４　　　５　　　６
 50
0.0
 41
0.911
 51
0.0
  7
KANJI31
  0
LINE
  8
0
  6
CONTINUOUS
 62
     2
 10
301.446451035
 20
1468.928121884
 30
0.0
 11
460.899218324
 21
1468.928121884
 31
0.0
  0
LINE
  8
0
  6
CONTINUOUS
 62
     2
 10
301.446451035
 20
1446.149155128
 30
0.0
 11
460.899218324
 21
1446.149155128
 31
0.0
  0
TEXT
  8
0
  6
CONTINUOUS
 62
     6
 10
293.132791539
 20
1556.92382165
 30
0.0
 40
17.740702234
  1
推力リミッタ端子台配列
 50
0.0
 41
0.880962996
 51
0.0
  7
KANJI29
  0
TEXT
  8
0
  6
CONTINUOUS
 62
     6
 10
395.013715102
 20
1614.071931782
 30
0.0
 40
11.8638
  1
ＡＣ１００Ｖ　１２５Ｖ　２５０Ｖ　－１０Ａ
 50
0.0
 41
0.726495726
 51
0.0
  7
KANJI27
  0
TEXT
  8
0
  6
CONTINUOUS
 62
     6
 10
120.294567657
 20
1352.399357623
 30
1.82231734
 40
18.223173404
  1
クイックブレーキモータ
 50
0.0
 41
0.66671875
 51
0.0
  7
KANJI32
  0
CIRCLE
  8
0
  6
CONTINUOUS
 62
     6
 10
164.736
 20
1290.432
 30
0.0
 40
21.6
  0
TEXT
  8
0
  6
CONTINUOUS
 62
     6
 10
155.664
 20
1280.064
 30
2.16
 40
21.6
  1
Ｍ
 50
0.0
 41
0.9
 51
0.0
  7
KANJI33
  0
LINE
  8
0
  6
CONTINUOUS
 62
     6
 10
136.224
 20
1260.192
 30
0.0
 11
149.616
 21
1275.744
 31
0.0
  0
LINE
  8
0
  6
CONTINUOUS
 62
     6
 10
136.224
 20
1320.672
 30
0.0
 11
149.616
 21
1305.12
 31
0.0
  0
CIRCLE
  8
0
  6
CONTINUOUS
 62
     6
 10
111.6
 20
1320.672
 30
0.0
 40
5.184
  0
LINE
  8
0
  6
CONTINUOUS
 62
     6
 10
105.644103884
 20
1314.716103884
 30
0.0
 11
117.740103884
 21
1326.812103884
 31
0.0
  0
CIRCLE
  8
0
  6
CONTINUOUS
 62
     6
 10
111.6
 20
1290.432
 30
0.0
 40
5.184
  0
LINE
  8
0
  6
CONTINUOUS
 62
     6
 10
105.644103884
 20
1284.476103884
 30
0.0
 11
117.740103884
 21
1296.572103884
 31
0.0
  0
CIRCLE
  8
0
  6
CONTINUOUS
 62
     6
 10
111.6
 20
1260.192
 30
0.0
 40
5.184
  0
LINE
  8
0
  6
CONTINUOUS
 62
     6
 10
105.644103884
 20
1254.236103884
 30
0.0
 11
117.740103884
 21
1266.332103884
 31
0.0
  0
LINE
  8
0
  6
CONTINUOUS
 62
     6
 10
136.224
 20
1320.672
 30
0.0
 11
116.784
 21
1320.672
 31
0.0
  0
LINE
  8
0
  6
CONTINUOUS
 62
     6
 10
143.568
 20
1290.432
 30
0.0
 11
116.784
 21
1290.432
 31
0.0
  0
LINE
  8
0
  6
CONTINUOUS
 62
     6
 10
136.224
 20
1260.192
 30
0.0
 11
116.784
 21
1260.192
 31
0.0
  0
LINE
  8
0
  6
LTYPE2
 62
     6
 10
111.6
 20
1344.0
 30
0.0
 11
111.6
 21
1324.56
 31
0.0
  0
LINE
  8
0
  6
LTYPE2
 62
     6
 10
111.6
 20
1315.92
 30
0.0
 11
111.6
 21
1294.32
 31
0.0
  0
LINE
  8
0
  6
LTYPE2
 62
     6
 10
111.6
 20
1285.68
 30
0.0
 11
111.6
 21
1264.512
 31
0.0
  0
TEXT
  8
0
  6
CONTINUOUS
 62
     6
 10
92.112
 20
1297.344
 30
1.296
 40
12.96
  1
Ｖ
 50
0.0
 41
0.9
 51
0.0
  7
KANJI34
  0
TEXT
  8
0
  6
CONTINUOUS
 62
     6
 10
93.408
 20
1266.672
 30
1.296
 40
12.96
  1
Ｗ
 50
0.0
 41
0.9
 51
0.0
  7
KANJI34
  0
LINE
  8
0
  6
LTYPE2
 62
     6
 10
266.16
 20
1344.0
 30
0.0
 11
111.6
 21
1344.0
 31
0.0
  0
TEXT
  8
0
  6
CONTINUOUS
 62
     6
 10
195.84
 20
1280.6472
 30
1.728
 40
17.28
  1
Ｂ
 50
0.0
 41
0.9
 51
0.0
  7
KANJI35
  0
CIRCLE
  8
0
  6
CONTINUOUS
 62
     6
 10
203.616
 20
1290.432
 30
0.0
 40
17.28
  0
LINE
  8
0
  6
CONTINUOUS
 62
     6
 10
231.216
 20
1260.0192
 30
0.0
 11
212.23698443
 21
1275.456118475
 31
0.0
  0
LINE
  8
0
  6
CONTINUOUS
 62
     6
 10
194.631325074
 20
1275.671443897
 30
0.0
 11
175.536
 21
1260.0192
 31
0.0
  0
CIRCLE
  8
0
  6
CONTINUOUS
 62
     6
 10
175.536
 20
1210.9872
 30
0.0
 40
5.184
  0
LINE
  8
0
  6
CONTINUOUS
 62
     6
 10
169.580103884
 20
1205.031303884
 30
0.0
 11
181.676103884
 21
1217.127303884
 31
0.0
  0
CIRCLE
  8
0
  6
CONTINUOUS
 62
     6
 10
203.376
 20
1210.9872
 30
0.0
 40
5.184
  0
LINE
  8
0
  6
CONTINUOUS
 62
     6
 10
197.420103884
 20
1205.031303884
 30
0.0
 11
209.516103884
 21
1217.127303884
 31
0.0
  0
LINE
  8
0
  6
LTYPE2
 62
     6
 10
180.72
 20
1210.9872
 30
0.0
 11
198.096
 21
1210.9872
 31
0.0
  0
CIRCLE
  8
0
  6
CONTINUOUS
 62
     6
 10
231.216
 20
1210.9872
 30
0.0
 40
5.184
  0
LINE
  8
0
  6
CONTINUOUS
 62
     6
 10
225.260103884
 20
1205.031303884
 30
0.0
 11
237.356103884
 21
1217.127303884
 31
0.0
  0
LINE
  8
0
  6
LTYPE2
 62
     6
 10
208.176
 20
1210.9872
 30
0.0
 11
226.416
 21
1210.9872
 31
0.0
  0
TEXT
  8
0
  6
CONTINUOUS
 62
     6
 10
188.64
 20
1213.8192
 30
1.296
 40
12.96
  1
ｖ
 50
0.0
 41
0.9
 51
0.0
  7
KANJI34
  0
TEXT
  8
0
  6
CONTINUOUS
 62
     6
 10
216.48
 20
1213.8192
 30
1.296
 40
12.96
  1
ｗ
 50
0.0
 41
0.9
 51
0.0
  7
KANJI34
  0
TEXT
  8
0
  6
CONTINUOUS
 62
     6
 10
161.616
 20
1214.6832
 30
1.296
 40
12.96
  1
ｕ
 50
0.0
 41
0.9
 51
0.0
  7
KANJI34
  0
LINE
  8
0
  6
CONTINUOUS
 62
     6
 10
175.536
 20
1216.1712
 30
0.0
 11
175.536
 21
1260.0192
 31
0.0
  0
LINE
  8
0
  6
CONTINUOUS
 62
     6
 10
203.376
 20
1216.1712
 30
0.0
 11
203.376
 21
1273.44
 31
0.0
  0
LINE
  8
0
  6
CONTINUOUS
 62
     6
 10
231.216
 20
1216.1712
 30
0.0
 11
231.216
 21
1260.0192
 31
0.0
  0
LINE
  8
0
  6
LTYPE2
 62
     6
 10
236.976
 20
1210.9872
 30
0.0
 11
266.16
 21
1210.9872
 31
0.0
  0
LINE
  8
0
  6
LTYPE2
 62
     6
 10
266.16
 20
1210.9872
 30
0.0
 11
266.16
 21
1344.0
 31
0.0
  0
LINE
  8
0
  6
LTYPE2
 62
     6
 10
111.6
 20
1210.9872
 30
0.0
 11
170.352
 21
1210.9872
 31
0.0
  0
LINE
  8
0
  6
LTYPE2
 62
     6
 10
111.6
 20
1255.008
 30
0.0
 11
111.6
 21
1210.9872
 31
0.0
  0
TEXT
  8
0
  6
CONTINUOUS
 62
     2
 10
128.014472037
 20
1175.954685773
 30
0.0
 40
18.72
  1
モーター結線図
 50
0.0
 41
0.925
 51
0.0
  7
KANJI36
  0
CIRCLE
  8
0
  6
CONTINUOUS
 62
     1
 10
454.4999996
 20
622.0299852
 30
0.0
 40
15.0
  0
CIRCLE
  8
0
  6
CONTINUOUS
 62
     1
 10
454.4999996
 20
622.0299852
 30
0.0
 40
30.0
  0
CIRCLE
  8
0
  6
CONTINUOUS
 62
     1
 10
454.4999996
 20
622.0299852
 30
0.0
 40
34.0
  0
LINE
  8
0
  6
CONTINUOUS
 62
     1
 10
354.4999996
 20
702.0299852
 30
0.0
 11
354.4999996
 21
542.0299852
 31
0.0
  0
LINE
  8
0
  6
CONTINUOUS
 62
     1
 10
456.4999996
 20
554.0299852
 30
0.0
 11
530.4999996
 21
554.0299852
 31
0.0
  0
LINE
  8
0
  6
CONTINUOUS
 62
     1
 10
456.4999996
 20
572.6299852
 30
0.0
 11
456.4999996
 21
554.0299852
 31
0.0
  0
LINE
  8
0
  6
CONTINUOUS
 62
     1
 10
530.4999996
 20
573.3299852
 30
0.0
 11
530.4999996
 21
554.0299852
 31
0.0
  0
LINE
  8
0
  6
LTYPE2
 62
     2
 10
454.4999996
 20
667.0299852
 30
0.0
 11
454.4999996
 21
577.0299852
 31
0.0
  0
LINE
  8
0
  6
CONTINUOUS
 62
     1
 10
354.4999996
 20
702.0299852
 30
0.0
 11
370.4999996
 21
702.0299852
 31
0.0
  0
ARC
  8
0
  6
CONTINUOUS
 62
     1
 10
370.4999996
 20
700.0299852
 30
0.0
 40
2.0
 50
0.0
 51
90.0
  0
LINE
  8
0
  6
CONTINUOUS
 62
     1
 10
354.4999996
 20
542.0299852
 30
0.0
 11
370.4999996
 21
542.0299852
 31
0.0
  0
LINE
  8
0
  6
CONTINUOUS
 62
     1
 10
372.4999996
 20
700.0299852
 30
0.0
 11
372.4999996
 21
544.0299852
 31
0.0
  0
ARC
  8
0
  6
CONTINUOUS
 62
     1
 10
370.4999996
 20
544.0299852
 30
0.0
 40
2.0
 50
270.0
 51
0.0
  0
LINE
  8
0
  6
CONTINUOUS
 62
     1
 10
530.5999996
 20
557.0299852
 30
0.0
 11
595.4999996
 21
557.0299852
 31
0.0
  0
LINE
  8
0
  6
CONTINUOUS
 62
     1
 10
376.4999996
 20
562.0299852
 30
0.0
 11
376.4999996
 21
575.860973298
 31
0.0
  0
LINE
  8
0
  6
CONTINUOUS
 62
     1
 10
376.4999996
 20
562.0299852
 30
0.0
 11
376.4999996
 21
548.198997102
 31
0.0
  0
POINT
  8
0
  6
CONTINUOUS
 62
     1
 10
372.4999996
 20
576.0299852
 30
0.0
  0
LINE
  8
0
  6
CONTINUOUS
 62
     1
 10
372.4999996
 20
576.0299852
 30
0.0
 11
376.4999996
 21
576.0299852
 31
0.0
  0
LINE
  8
0
  6
CONTINUOUS
 62
     1
 10
372.4999996
 20
562.0299852
 30
0.0
 11
376.499996595
 21
566.029982195
 31
0.0
  0
LINE
  8
0
  6
CONTINUOUS
 62
     1
 10
376.499996595
 20
562.0299852
 30
0.0
 11
372.4999996
 21
558.029988205
 31
0.0
  0
POINT
  8
0
  6
CONTINUOUS
 62
     1
 10
372.4999996
 20
548.0299852
 30
0.0
  0
LINE
  8
0
  6
CONTINUOUS
 62
     1
 10
372.4999996
 20
548.0299852
 30
0.0
 11
376.4999996
 21
548.0299852
 31
0.0
  0
LINE
  8
0
  6
CONTINUOUS
 62
     1
 10
391.4999996
 20
562.029984976
 30
0.0
 11
391.4999996
 21
574.0299852
 31
0.0
  0
LINE
  8
0
  6
CONTINUOUS
 62
     1
 10
376.4999996
 20
574.0299852
 30
0.0
 11
391.4999996
 21
574.0299852
 31
0.0
  0
LINE
  8
0
  6
CONTINUOUS
 62
     1
 10
391.4999996
 20
574.0299852
 30
0.0
 11
392.4999996
 21
572.297934392
 31
0.0
  0
LINE
  8
0
  6
CONTINUOUS
 62
     1
 10
392.4999996
 20
562.029984962
 30
0.0
 11
392.4999996
 21
572.297934392
 31
0.0
  0
LINE
  8
0
  6
CONTINUOUS
 62
     1
 10
391.4999996
 20
562.029985424
 30
0.0
 11
391.4999996
 21
550.0299852
 31
0.0
  0
LINE
  8
0
  6
CONTINUOUS
 62
     1
 10
376.4999996
 20
550.0299852
 30
0.0
 11
391.4999996
 21
550.0299852
 31
0.0
  0
LINE
  8
0
  6
CONTINUOUS
 62
     1
 10
391.4999996
 20
550.0299852
 30
0.0
 11
392.4999996
 21
551.762036008
 31
0.0
  0
LINE
  8
0
  6
CONTINUOUS
 62
     1
 10
392.4999996
 20
562.029985438
 30
0.0
 11
392.4999996
 21
551.762036008
 31
0.0
  0
LINE
  8
0
  6
CONTINUOUS
 62
     1
 10
392.4999996
 20
557.0299852
 30
0.0
 11
456.6999996
 21
557.0299852
 31
0.0
  0
LINE
  8
0
  6
LTYPE2
 62
     2
 10
342.7999996
 20
562.0299852
 30
0.0
 11
398.5999996
 21
562.0299852
 31
0.0
  0
LINE
  8
0
  6
CONTINUOUS
 62
     1
 10
376.4999996
 20
682.0299852
 30
0.0
 11
376.4999996
 21
668.198997102
 31
0.0
  0
LINE
  8
0
  6
CONTINUOUS
 62
     1
 10
376.4999996
 20
682.0299852
 30
0.0
 11
376.4999996
 21
695.860973298
 31
0.0
  0
POINT
  8
0
  6
CONTINUOUS
 62
     1
 10
372.4999996
 20
668.0299852
 30
0.0
  0
LINE
  8
0
  6
CONTINUOUS
 62
     1
 10
372.4999996
 20
668.0299852
 30
0.0
 11
376.4999996
 21
668.0299852
 31
0.0
  0
LINE
  8
0
  6
CONTINUOUS
 62
     1
 10
372.4999996
 20
682.0299852
 30
0.0
 11
376.499996595
 21
678.029988205
 31
0.0
  0
LINE
  8
0
  6
CONTINUOUS
 62
     1
 10
376.499996595
 20
682.0299852
 30
0.0
 11
372.4999996
 21
686.029982195
 31
0.0
  0
POINT
  8
0
  6
CONTINUOUS
 62
     1
 10
372.4999996
 20
696.0299852
 30
0.0
  0
LINE
  8
0
  6
CONTINUOUS
 62
     1
 10
372.4999996
 20
696.0299852
 30
0.0
 11
376.4999996
 21
696.0299852
 31
0.0
  0
LINE
  8
0
  6
CONTINUOUS
 62
     1
 10
391.4999996
 20
682.029985424
 30
0.0
 11
391.4999996
 21
670.0299852
 31
0.0
  0
LINE
  8
0
  6
CONTINUOUS
 62
     1
 10
376.4999996
 20
670.0299852
 30
0.0
 11
391.4999996
 21
670.0299852
 31
0.0
  0
LINE
  8
0
  6
CONTINUOUS
 62
     1
 10
391.4999996
 20
670.0299852
 30
0.0
 11
392.4999996
 21
671.762036008
 31
0.0
  0
LINE
  8
0
  6
CONTINUOUS
 62
     1
 10
392.4999996
 20
682.029985438
 30
0.0
 11
392.4999996
 21
671.762036008
 31
0.0
  0
LINE
  8
0
  6
CONTINUOUS
 62
     1
 10
391.4999996
 20
682.029984976
 30
0.0
 11
391.4999996
 21
694.0299852
 31
0.0
  0
LINE
  8
0
  6
CONTINUOUS
 62
     1
 10
376.4999996
 20
694.0299852
 30
0.0
 11
391.4999996
 21
694.0299852
 31
0.0
  0
LINE
  8
0
  6
CONTINUOUS
 62
     1
 10
391.4999996
 20
694.0299852
 30
0.0
 11
392.4999996
 21
692.297934392
 31
0.0
  0
LINE
  8
0
  6
CONTINUOUS
 62
     1
 10
392.4999996
 20
682.029984962
 30
0.0
 11
392.4999996
 21
692.297934392
 31
0.0
  0
LINE
  8
0
  6
LTYPE2
 62
     2
 10
342.7999996
 20
682.0299852
 30
0.0
 11
398.5999996
 21
682.0299852
 31
0.0
  0
LINE
  8
0
  6
CONTINUOUS
 62
     1
 10
392.4999996
 20
687.0299852
 30
0.0
 11
595.4999996
 21
687.0299852
 31
0.0
  0
LINE
  8
0
  6
CONTINUOUS
 62
     1
 10
456.4999996
 20
552.5299852
 30
0.0
 11
530.4999996
 21
552.5299852
 31
0.0
  0
LINE
  8
0
  6
CONTINUOUS
 62
     1
 10
539.4999996
 20
552.5299852
 30
0.0
 11
539.4999996
 21
551.5299852
 31
0.0
  0
ARC
  8
0
  6
CONTINUOUS
 62
     1
 10
452.4999996
 20
549.5299852
 30
0.0
 40
3.0
 50
90.0
 51
180.0
  0
LINE
  8
0
  6
CONTINUOUS
 62
     1
 10
578.4999996
 20
509.5299852
 30
0.0
 11
449.4999996
 21
509.5299852
 31
0.0
  0
LINE
  8
0
  6
CONTINUOUS
 62
     1
 10
539.4999996
 20
551.5299852
 30
0.0
 11
575.4999996
 21
551.5299852
 31
0.0
  0
ARC
  8
0
  6
CONTINUOUS
 62
     1
 10
575.4999996
 20
548.5299852
 30
0.0
 40
3.0
 50
0.0
 51
90.0
  0
LINE
  8
0
  6
CONTINUOUS
 62
     1
 10
578.4999996
 20
508.0299852
 30
0.0
 11
449.4999996
 21
508.0299852
 31
0.0
  0
LINE
  8
0
  6
CONTINUOUS
 62
     1
 10
578.4999996
 20
503.0299852
 30
0.0
 11
578.4999996
 21
548.5299852
 31
0.0
  0
ARC
  8
0
  6
CONTINUOUS
 62
     1
 10
577.4999996
 20
503.0299852
 30
0.0
 40
1.0
 50
270.0
 51
0.0
  0
LINE
  8
0
  6
CONTINUOUS
 62
     1
 10
575.4999996
 20
502.0299852
 30
0.0
 11
575.4999996
 21
502.0299852
 31
0.0
  0
ARC
  8
0
  6
CONTINUOUS
 62
     1
 10
574.4999996
 20
502.0299852
 30
0.0
 40
1.0
 50
270.0
 51
0.0
  0
LINE
  8
0
  6
CONTINUOUS
 62
     1
 10
449.4999996
 20
503.0299852
 30
0.0
 11
449.4999996
 21
549.5299852
 31
0.0
  0
ARC
  8
0
  6
CONTINUOUS
 62
     1
 10
450.4999996
 20
503.0299852
 30
0.0
 40
1.0
 50
180.0
 51
270.0
  0
ARC
  8
0
  6
CONTINUOUS
 62
     1
 10
453.4999996
 20
502.0299852
 30
0.0
 40
1.0
 50
180.0
 51
270.0
  0
LINE
  8
0
  6
CONTINUOUS
 62
     1
 10
452.4999996
 20
552.5299852
 30
0.0
 11
539.4999996
 21
552.5299852
 31
0.0
  0
LINE
  8
0
  6
CONTINUOUS
 62
     1
 10
452.4999996
 20
554.0299852
 30
0.0
 11
539.4999996
 21
554.0299852
 31
0.0
  0
LINE
  8
0
  6
LTYPE2
 62
     2
 10
493.4999996
 20
570.7299852
 30
0.0
 11
493.4999996
 21
537.2299852
 31
0.0
  0
LINE
  8
0
  6
LTYPE1
 62
     2
 10
578.4999996
 20
537.0299852
 30
0.0
 11
568.4999996
 21
537.0299852
 31
0.0
  0
LINE
  8
0
  6
CONTINUOUS
 62
     1
 10
595.4999996
 20
627.0299852
 30
0.0
 11
607.4999996
 21
627.0299852
 31
0.0
  0
LINE
  8
0
  6
CONTINUOUS
 62
     1
 10
595.4999996
 20
617.0299852
 30
0.0
 11
607.4999996
 21
617.0299852
 31
0.0
  0
LINE
  8
0
  6
CONTINUOUS
 62
     1
 10
595.4999996
 20
689.5299852
 30
0.0
 11
607.4999996
 21
689.5299852
 31
0.0
  0
LINE
  8
0
  6
CONTINUOUS
 62
     1
 10
595.4999996
 20
685.5299852
 30
0.0
 11
607.4999996
 21
685.5299852
 31
0.0
  0
LINE
  8
0
  6
CONTINUOUS
 62
     1
 10
595.4999996
 20
554.5299852
 30
0.0
 11
607.4999996
 21
554.5299852
 31
0.0
  0
LINE
  8
0
  6
CONTINUOUS
 62
     1
 10
595.4999996
 20
558.5299852
 30
0.0
 11
607.4999996
 21
558.5299852
 31
0.0
  0
LINE
  8
0
  6
CONTINUOUS
 62
     1
 10
595.4999996
 20
689.5299852
 30
0.0
 11
595.4999996
 21
554.5299852
 31
0.0
  0
LINE
  8
0
  6
CONTINUOUS
 62
     1
 10
607.4999996
 20
689.5299852
 30
0.0
 11
607.4999996
 21
554.5299852
 31
0.0
  0
LINE
  8
0
  6
CONTINUOUS
 62
     1
 10
692.1999996
 20
647.0299852
 30
0.0
 11
742.1999996
 21
647.0299852
 31
0.0
  0
LINE
  8
0
  6
CONTINUOUS
 62
     1
 10
742.1999996
 20
647.0299852
 30
0.0
 11
742.1999996
 21
597.0299852
 31
0.0
  0
LINE
  8
0
  6
CONTINUOUS
 62
     1
 10
692.1999996
 20
597.0299852
 30
0.0
 11
742.1999996
 21
597.0299852
 31
0.0
  0
LINE
  8
0
  6
CONTINUOUS
 62
     1
 10
692.1999996
 20
647.0299852
 30
0.0
 11
692.1999996
 21
597.0299852
 31
0.0
  0
CIRCLE
  8
0
  6
CONTINUOUS
 62
     1
 10
717.1999996
 20
622.0299852
 30
0.0
 40
25.0
  0
LINE
  8
0
  6
LTYPE3
 62
     2
 10
717.1999996
 20
659.2299852
 30
0.0
 11
717.1999996
 21
585.2299852
 31
0.0
  0
LINE
  8
0
  6
CONTINUOUS
 62
     2
 10
732.0999996
 20
637.2299852
 30
0.0
 11
741.227148983
 21
649.133562147
 31
0.0
  0
LINE
  8
0
  6
CONTINUOUS
 62
     2
 10
732.0999996
 20
637.2299852
 30
0.0
 11
734.052554356
 21
652.102359924
 31
0.0
  0
LINE
  8
0
  6
CONTINUOUS
 62
     2
 10
732.0999996
 20
637.2299852
 30
0.0
 11
792.0999996
 21
782.2299852
 31
0.0
  0
LINE
  8
0
  6
CONTINUOUS
 62
     2
 10
792.0999996
 20
782.2299852
 30
0.0
 11
844.2999996
 21
782.2299852
 31
0.0
  0
TEXT
  8
0
  6
CONTINUOUS
 62
     2
 10
792.0999996
 20
788.2299852
 30
1.8
 40
18.0
  1
給脂口
 50
0.0
 41
0.9
 51
0.0
  7
KANJI37
  0
LINE
  8
0
  6
CONTINUOUS
 62
     2
 10
454.4999996
 20
568.0299852
 30
0.0
 11
454.4999996
 21
376.0299852
 31
0.0
  0
LINE
  8
0
  6
CONTINUOUS
 62
     2
 10
454.4999996
 20
385.0299852
 30
0.0
 11
440.011112206
 21
388.912270877
 31
0.0
  0
LINE
  8
0
  6
CONTINUOUS
 62
     2
 10
454.4999996
 20
385.0299852
 30
0.0
 11
440.011112206
 21
381.147699523
 31
0.0
  0
LINE
  8
0
  6
CONTINUOUS
 62
     2
 10
454.4999996
 20
385.0299852
 30
0.0
 11
354.4999996
 21
385.0299852
 31
0.0
  0
LINE
  8
0
  6
CONTINUOUS
 62
     2
 10
354.4999996
 20
385.0299852
 30
0.0
 11
368.988886994
 21
381.147699523
 31
0.0
  0
LINE
  8
0
  6
CONTINUOUS
 62
     2
 10
354.4999996
 20
385.0299852
 30
0.0
 11
368.988886994
 21
388.912270877
 31
0.0
  0
LINE
  8
0
  6
CONTINUOUS
 62
     2
 10
354.4999996
 20
518.0299852
 30
0.0
 11
354.4999996
 21
376.0299852
 31
0.0
  0
TEXT
  8
0
  6
CONTINUOUS
 62
     2
 10
378.9999996
 20
391.0299852
 30
1.2
 40
18.0
  1
１００
 50
0.0
 41
0.9
 51
0.0
  7
KANJI38
  0
LINE
  8
0
  6
CONTINUOUS
 62
     2
 10
354.4999996
 20
385.0299852
 30
0.0
 11
340.011112206
 21
388.912270877
 31
0.0
  0
LINE
  8
0
  6
CONTINUOUS
 62
     2
 10
354.4999996
 20
385.0299852
 30
0.0
 11
340.011112206
 21
381.147699523
 31
0.0
  0
TEXT
  8
0
  6
CONTINUOUS
 62
     2
 10
265.9999996
 20
391.0299852
 30
1.2
 40
18.0
  1
１２５
 50
0.0
 41
0.9
 51
0.0
  7
KANJI38
  0
LINE
  8
0
  6
CONTINUOUS
 62
     2
 10
454.4999996
 20
346.5299852
 30
0.0
 11
440.011112206
 21
350.412270877
 31
0.0
  0
LINE
  8
0
  6
CONTINUOUS
 62
     2
 10
454.4999996
 20
346.5299852
 30
0.0
 11
440.011112206
 21
342.647699523
 31
0.0
  0
LINE
  8
0
  6
CONTINUOUS
 62
     2
 10
454.4999996
 20
376.0299852
 30
0.0
 11
454.4999996
 21
337.5299852
 31
0.0
  0
TEXT
  8
0
  6
CONTINUOUS
 62
     2
 10
315.9999996
 20
352.5299852
 30
1.2
 40
18.0
  1
２２５
 50
0.0
 41
0.9
 51
0.0
  7
KANJI38
  0
LINE
  8
0
  6
CONTINUOUS
 62
     2
 10
454.4999996
 20
346.5299852
 30
0.0
 11
468.988886994
 21
342.647699523
 31
0.0
  0
LINE
  8
0
  6
CONTINUOUS
 62
     2
 10
454.4999996
 20
346.5299852
 30
0.0
 11
468.988886994
 21
350.412270877
 31
0.0
  0
LINE
  8
0
  6
CONTINUOUS
 62
     2
 10
454.4999996
 20
346.5299852
 30
0.0
 11
1089.0999996
 21
346.5299852
 31
0.0
  0
TEXT
  8
0
  6
CONTINUOUS
 62
     2
 10
728.8999996
 20
352.5299852
 30
1.2
 40
18.0
  1
ｍｉｎ．Ｌ
 50
0.0
 41
0.9
 51
0.0
  7
KANJI38
  0
LINE
  8
0
  6
CONTINUOUS
 62
     2
 10
454.4999996
 20
385.0299852
 30
0.0
 11
468.988886994
 21
381.147699523
 31
0.0
  0
LINE
  8
0
  6
CONTINUOUS
 62
     2
 10
454.4999996
 20
385.0299852
 30
0.0
 11
468.988886994
 21
388.912270877
 31
0.0
  0
LINE
  8
0
  6
CONTINUOUS
 62
     2
 10
454.4999996
 20
385.0299852
 30
0.0
 11
930.0999996
 21
385.0299852
 31
0.0
  0
TEXT
  8
0
  6
CONTINUOUS
 62
     2
 10
684.1999996
 20
391.0299852
 30
1.2
 40
18.0
  1
Ｃ
 50
0.0
 41
0.9
 51
0.0
  7
KANJI38
  0
TEXT
  8
0
  6
CONTINUOUS
 62
     2
 10
607.1999996
 20
314.5299852
 30
1.2
 40
18.0
  1
ｍｉｎ．ＡＬ
 50
0.0
 41
0.9
 51
0.0
  7
KANJI38
  0
LINE
  8
0
  6
CONTINUOUS
 62
     1
 10
354.4999996
 20
527.7799852
 30
0.0
 11
354.4999996
 21
900.7799852
 31
0.0
  0
LINE
  8
0
  6
CONTINUOUS
 62
     1
 10
344.4999996
 20
900.7799852
 30
0.0
 11
334.4999996
 21
852.0299852
 31
0.0
  0
LINE
  8
0
  6
CONTINUOUS
 62
     1
 10
354.4999996
 20
900.7799852
 30
0.0
 11
344.4999996
 21
900.7799852
 31
0.0
  0
LINE
  8
0
  6
CONTINUOUS
 62
     1
 10
264.4999996
 20
852.0299852
 30
0.0
 11
264.4999996
 21
885.0299852
 31
0.0
  0
LINE
  8
0
  6
CONTINUOUS
 62
     1
 10
334.4999996
 20
852.0299852
 30
0.0
 11
246.4999996
 21
852.0299852
 31
0.0
  0
LINE
  8
0
  6
CONTINUOUS
 62
     1
 10
246.4999996
 20
527.7799852
 30
0.0
 11
246.4999996
 21
852.0299852
 31
0.0
  0
LINE
  8
0
  6
LTYPE2
 62
     2
 10
294.4999996
 20
855.9299852
 30
0.0
 11
294.4999996
 21
900.7799852
 31
0.0
  0
LINE
  8
0
  6
CONTINUOUS
 62
     1
 10
334.4999996
 20
758.7799852
 30
0.0
 11
334.4999996
 21
852.0299852
 31
0.0
  0
LINE
  8
0
  6
CONTINUOUS
 62
     1
 10
341.269230369
 20
885.0299852
 30
0.0
 11
264.4999996
 21
885.0299852
 31
0.0
  0
LINE
  8
0
  6
CONTINUOUS
 62
     1
 10
242.4999996
 20
789.5299852
 30
0.0
 11
242.4999996
 21
820.5299852
 31
0.0
  0
LINE
  8
0
  6
CONTINUOUS
 62
     1
 10
246.4999996
 20
789.5299852
 30
0.0
 11
242.4999996
 21
789.5299852
 31
0.0
  0
LINE
  8
0
  6
CONTINUOUS
 62
     1
 10
246.4999996
 20
820.5299852
 30
0.0
 11
242.4999996
 21
820.5299852
 31
0.0
  0
LINE
  8
0
  6
CONTINUOUS
 62
     1
 10
242.4999996
 20
820.0299852
 30
0.0
 11
214.4999996
 21
820.0299852
 31
0.0
  0
LINE
  8
0
  6
CONTINUOUS
 62
     1
 10
214.4999996
 20
820.0299852
 30
0.0
 11
212.4999996
 21
818.0299852
 31
0.0
  0
LINE
  8
0
  6
CONTINUOUS
 62
     1
 10
242.4999996
 20
790.0299852
 30
0.0
 11
214.4999996
 21
790.0299852
 31
0.0
  0
LINE
  8
0
  6
CONTINUOUS
 62
     1
 10
212.4999996
 20
792.0299852
 30
0.0
 11
212.4999996
 21
818.0299852
 31
0.0
  0
LINE
  8
0
  6
CONTINUOUS
 62
     1
 10
214.4999996
 20
790.0299852
 30
0.0
 11
212.4999996
 21
792.0299852
 31
0.0
  0
CIRCLE
  8
0
  6
CONTINUOUS
 62
     1
 10
294.4999996
 20
910.1299852
 30
0.0
 40
15.0
  0
LINE
  8
0
  6
CONTINUOUS
 62
     1
 10
305.901268563
 20
893.131515618
 30
0.0
 11
294.4999996
 21
895.1299852
 31
0.0
  0
LINE
  8
0
  6
CONTINUOUS
 62
     1
 10
294.4999996
 20
893.1299852
 30
0.0
 11
305.901455367
 21
893.1299852
 31
0.0
  0
ARC
  8
0
  6
CONTINUOUS
 62
     1
 10
294.4999996
 20
910.1299852
 30
0.0
 40
25.0
 50
300.714883545
 51
0.0
  0
LINE
  8
0
  6
CONTINUOUS
 62
     1
 10
306.617094746
 20
887.266994689
 30
0.0
 11
305.901455367
 21
893.1299852
 31
0.0
  0
LINE
  8
0
  6
CONTINUOUS
 62
     1
 10
306.9999996
 20
884.1299852
 30
0.0
 11
306.617094746
 21
887.266994689
 31
0.0
  0
ARC
  8
0
  6
CONTINUOUS
 62
     1
 10
308.005622315
 20
887.44611086
 30
0.0
 40
1.4
 50
121.733468281
 51
187.57738995
  0
LINE
  8
0
  6
CONTINUOUS
 62
     1
 10
283.098730637
 20
893.131515618
 30
0.0
 11
294.4999996
 21
895.1299852
 31
0.0
  0
LINE
  8
0
  6
CONTINUOUS
 62
     1
 10
294.4999996
 20
893.1299852
 30
0.0
 11
283.098543833
 21
893.1299852
 31
0.0
  0
LINE
  8
0
  6
CONTINUOUS
 62
     1
 10
282.382904454
 20
887.266994689
 30
0.0
 11
283.098543833
 21
893.1299852
 31
0.0
  0
LINE
  8
0
  6
CONTINUOUS
 62
     1
 10
281.9999996
 20
884.1299852
 30
0.0
 11
282.382904454
 21
887.266994689
 31
0.0
  0
ARC
  8
0
  6
CONTINUOUS
 62
     1
 10
280.994376885
 20
887.44611086
 30
0.0
 40
1.4
 50
352.42261005
 51
58.266531719
  0
ARC
  8
0
  6
CONTINUOUS
 62
     1
 10
294.4999996
 20
910.1299852
 30
0.0
 40
25.0
 50
0.0
 51
239.342761175
  0
LINE
  8
0
  6
CONTINUOUS
 62
     1
 10
354.4999996
 20
704.9299852
 30
0.0
 11
354.4999996
 21
904.9299852
 31
0.0
  0
LINE
  8
0
  6
CONTINUOUS
 62
     1
 10
1019.0999996
 20
659.5299852
 30
0.0
 11
1019.0999996
 21
584.5299852
 31
0.0
  0
CIRCLE
  8
0
  6
CONTINUOUS
 62
     1
 10
1089.0999996
 20
622.0299852
 30
0.0
 40
15.0
  0
LINE
  8
0
  6
CONTINUOUS
 62
     1
 10
1109.0999996
 20
659.5299852
 30
0.0
 11
1019.0999996
 21
659.5299852
 31
0.0
  0
LINE
  8
0
  6
CONTINUOUS
 62
     1
 10
1124.0999996
 20
644.5299852
 30
0.0
 11
1109.0999996
 21
659.5299852
 31
0.0
  0
LINE
  8
0
  6
CONTINUOUS
 62
     1
 10
1109.0999996
 20
584.5299852
 30
0.0
 11
1019.0999996
 21
584.5299852
 31
0.0
  0
LINE
  8
0
  6
CONTINUOUS
 62
     1
 10
1124.0999996
 20
644.5299852
 30
0.0
 11
1124.0999996
 21
599.5299852
 31
0.0
  0
LINE
  8
0
  6
CONTINUOUS
 62
     1
 10
1109.0999996
 20
584.5299852
 30
0.0
 11
1124.0999996
 21
599.5299852
 31
0.0
  0
LINE
  8
0
  6
LTYPE1
 62
     2
 10
1039.0999996
 20
659.5299852
 30
0.0
 11
1039.0999996
 21
584.5299852
 31
0.0
  0
LINE
  8
0
  6
LTYPE3
 62
     2
 10
1089.0999996
 20
670.2299852
 30
0.0
 11
1089.0999996
 21
576.2299852
 31
0.0
  0
LINE
  8
0
  6
CONTINUOUS
 62
     2
 10
1118.0999996
 20
659.5299852
 30
0.0
 11
1186.0999996
 21
659.5299852
 31
0.0
  0
LINE
  8
0
  6
CONTINUOUS
 62
     2
 10
1177.0999996
 20
659.5299852
 30
0.0
 11
1173.217713923
 21
645.041097806
 31
0.0
  0
LINE
  8
0
  6
CONTINUOUS
 62
     2
 10
1177.0999996
 20
659.5299852
 30
0.0
 11
1180.982285277
 21
645.041097806
 31
0.0
  0
LINE
  8
0
  6
CONTINUOUS
 62
     2
 10
1177.0999996
 20
659.5299852
 30
0.0
 11
1177.0999996
 21
584.5299852
 31
0.0
  0
LINE
  8
0
  6
CONTINUOUS
 62
     2
 10
1177.0999996
 20
584.5299852
 30
0.0
 11
1180.982285277
 21
599.018872594
 31
0.0
  0
LINE
  8
0
  6
CONTINUOUS
 62
     2
 10
1177.0999996
 20
584.5299852
 30
0.0
 11
1173.217713923
 21
599.018872594
 31
0.0
  0
LINE
  8
0
  6
CONTINUOUS
 62
     2
 10
1118.0999996
 20
584.5299852
 30
0.0
 11
1186.0999996
 21
584.5299852
 31
0.0
  0
TEXT
  8
0
  6
CONTINUOUS
 62
     2
 10
1171.0999996
 20
605.2299852
 30
1.2
 40
18.0
  1
７５
 50
90.0
 41
0.9
 51
0.0
  7
KANJI38
  0
LINE
  8
0
  6
CONTINUOUS
 62
     2
 10
1089.0999996
 20
346.5299852
 30
0.0
 11
1074.611112206
 21
350.412270877
 31
0.0
  0
LINE
  8
0
  6
CONTINUOUS
 62
     2
 10
1089.0999996
 20
346.5299852
 30
0.0
 11
1074.611112206
 21
342.647699523
 31
0.0
  0
LINE
  8
0
  6
CONTINUOUS
 62
     2
 10
1089.0999996
 20
561.9799852
 30
0.0
 11
1089.0999996
 21
337.5299852
 31
0.0
  0
LINE
  8
0
  6
CONTINUOUS
 62
     2
 10
930.0999996
 20
385.0299852
 30
0.0
 11
1019.0999996
 21
385.0299852
 31
0.0
  0
LINE
  8
0
  6
CONTINUOUS
 62
     2
 10
1019.0999996
 20
385.0299852
 30
0.0
 11
1004.611112206
 21
388.912270877
 31
0.0
  0
LINE
  8
0
  6
CONTINUOUS
 62
     2
 10
1019.0999996
 20
385.0299852
 30
0.0
 11
1004.611112206
 21
381.147699523
 31
0.0
  0
LINE
  8
0
  6
CONTINUOUS
 62
     2
 10
1019.0999996
 20
385.0299852
 30
0.0
 11
1033.588886994
 21
381.147699523
 31
0.0
  0
LINE
  8
0
  6
CONTINUOUS
 62
     2
 10
1019.0999996
 20
385.0299852
 30
0.0
 11
1033.588886994
 21
388.912270877
 31
0.0
  0
LINE
  8
0
  6
CONTINUOUS
 62
     2
 10
1019.0999996
 20
385.0299852
 30
0.0
 11
1089.0999996
 21
385.0299852
 31
0.0
  0
LINE
  8
0
  6
CONTINUOUS
 62
     2
 10
1089.0999996
 20
385.0299852
 30
0.0
 11
1074.611112206
 21
388.912270877
 31
0.0
  0
LINE
  8
0
  6
CONTINUOUS
 62
     2
 10
1089.0999996
 20
385.0299852
 30
0.0
 11
1074.611112206
 21
381.147699523
 31
0.0
  0
TEXT
  8
0
  6
CONTINUOUS
 62
     2
 10
1037.2999996
 20
391.0299852
 30
1.2
 40
18.0
  1
７０
 50
0.0
 41
0.9
 51
0.0
  7
KANJI38
  0
LINE
  8
0
  6
CONTINUOUS
 62
     2
 10
1089.0999996
 20
337.5299852
 30
0.0
 11
1089.0999996
 21
299.5299852
 31
0.0
  0
LINE
  8
0
  6
CONTINUOUS
 62
     2
 10
1124.0999996
 20
590.5299852
 30
0.0
 11
1124.0999996
 21
299.5299852
 31
0.0
  0
TEXT
  8
0
  6
CONTINUOUS
 62
     2
 10
1089.7999996
 20
314.5299852
 30
1.2
 40
18.0
  1
３５
 50
0.0
 41
0.9
 51
0.0
  7
KANJI38
  0
LINE
  8
0
  6
CONTINUOUS
 62
     2
 10
1089.0999996
 20
308.5299852
 30
0.0
 11
1074.611112206
 21
312.412270877
 31
0.0
  0
LINE
  8
0
  6
CONTINUOUS
 62
     2
 10
1089.0999996
 20
308.5299852
 30
0.0
 11
1074.611112206
 21
304.647699523
 31
0.0
  0
LINE
  8
0
  6
CONTINUOUS
 62
     2
 10
1089.0999996
 20
308.5299852
 30
0.0
 11
1103.588886994
 21
304.647699523
 31
0.0
  0
LINE
  8
0
  6
CONTINUOUS
 62
     2
 10
1089.0999996
 20
308.5299852
 30
0.0
 11
1103.588886994
 21
312.412270877
 31
0.0
  0
LINE
  8
0
  6
CONTINUOUS
 62
     2
 10
1089.0999996
 20
308.5299852
 30
0.0
 11
1124.0999996
 21
308.5299852
 31
0.0
  0
LINE
  8
0
  6
CONTINUOUS
 62
     2
 10
1124.0999996
 20
308.5299852
 30
0.0
 11
1109.611112206
 21
312.412270877
 31
0.0
  0
LINE
  8
0
  6
CONTINUOUS
 62
     2
 10
1124.0999996
 20
308.5299852
 30
0.0
 11
1109.611112206
 21
304.647699523
 31
0.0
  0
LINE
  8
0
  6
CONTINUOUS
 62
     1
 10
974.0999996
 20
565.0299852
 30
0.0
 11
974.0999996
 21
679.0299852
 31
0.0
  0
LINE
  8
0
  6
CONTINUOUS
 62
     2
 10
974.0999996
 20
556.0299852
 30
0.0
 11
974.0999996
 21
376.0299852
 31
0.0
  0
LINE
  8
0
  6
CONTINUOUS
 62
     2
 10
974.0999996
 20
385.0299852
 30
0.0
 11
959.611112206
 21
388.912270877
 31
0.0
  0
LINE
  8
0
  6
CONTINUOUS
 62
     2
 10
974.0999996
 20
385.0299852
 30
0.0
 11
988.588886994
 21
388.912270877
 31
0.0
  0
LINE
  8
0
  6
CONTINUOUS
 62
     2
 10
974.0999996
 20
385.0299852
 30
0.0
 11
959.611112206
 21
381.147699523
 31
0.0
  0
LINE
  8
0
  6
CONTINUOUS
 62
     2
 10
974.0999996
 20
385.0299852
 30
0.0
 11
988.588886994
 21
381.147699523
 31
0.0
  0
TEXT
  8
0
  6
CONTINUOUS
 62
     2
 10
931.6999996
 20
361.0299852
 30
1.2
 40
18.0
  1
ｍｉｎ．Ｐ
 50
0.0
 41
0.9
 51
0.0
  7
KANJI38
  0
TEXT
  8
0
  6
CONTINUOUS
 62
     2
 10
1274.5999996
 20
659.5299852
 30
1.2
 40
18.0
  1
φ３０Ｈ１０深３５
 50
90.0
 41
0.9
 51
0.0
  7
KANJI38
  0
LINE
  8
0
  6
LTYPE2
 62
     2
 10
1575.5999996
 20
622.0299852
 30
0.0
 11
1352.5999996
 21
622.0299852
 31
0.0
  0
LINE
  8
0
  6
LTYPE1
 62
     2
 10
1383.5999996
 20
607.0299852
 30
0.0
 11
1348.5999996
 21
607.0299852
 31
0.0
  0
LINE
  8
0
  6
LTYPE1
 62
     2
 10
1383.5999996
 20
637.0299852
 30
0.0
 11
1348.5999996
 21
637.0299852
 31
0.0
  0
LINE
  8
0
  6
CONTINUOUS
 62
     2
 10
1348.5999996
 20
578.0299852
 30
0.0
 11
1348.5999996
 21
382.5299852
 31
0.0
  0
LINE
  8
0
  6
CONTINUOUS
 62
     2
 10
1348.5999996
 20
391.5299852
 30
0.0
 11
1363.088886994
 21
387.647699523
 31
0.0
  0
LINE
  8
0
  6
CONTINUOUS
 62
     2
 10
1348.5999996
 20
391.5299852
 30
0.0
 11
1363.088886994
 21
395.412270877
 31
0.0
  0
LINE
  8
0
  6
CONTINUOUS
 62
     2
 10
1348.5999996
 20
391.5299852
 30
0.0
 11
1568.5999996
 21
391.5299852
 31
0.0
  0
LINE
  8
0
  6
LTYPE2
 62
     2
 10
1348.0999996
 20
805.0299852
 30
0.0
 11
1572.0999996
 21
805.0299852
 31
0.0
  0
LINE
  8
0
  6
LTYPE1
 62
     2
 10
1348.5999996
 20
652.0299852
 30
0.0
 11
1400.5999996
 21
655.839408258
 31
0.0
  0
LINE
  8
0
  6
CONTINUOUS
 62
     2
 10
1280.5999996
 20
637.0299852
 30
0.0
 11
1276.717713923
 21
651.518872594
 31
0.0
  0
LINE
  8
0
  6
CONTINUOUS
 62
     2
 10
1280.5999996
 20
637.0299852
 30
0.0
 11
1284.482285277
 21
651.518872594
 31
0.0
  0
LINE
  8
0
  6
CONTINUOUS
 62
     2
 10
1280.5999996
 20
584.5299852
 30
0.0
 11
1280.5999996
 21
819.0299852
 31
0.0
  0
LINE
  8
0
  6
CONTINUOUS
 62
     2
 10
1280.5999996
 20
607.0299852
 30
0.0
 11
1276.717713923
 21
592.541097806
 31
0.0
  0
LINE
  8
0
  6
CONTINUOUS
 62
     2
 10
1280.5999996
 20
607.0299852
 30
0.0
 11
1284.482285277
 21
592.541097806
 31
0.0
  0
LINE
  8
0
  6
CONTINUOUS
 62
     2
 10
1339.5999996
 20
607.0299852
 30
0.0
 11
1275.5999996
 21
607.0299852
 31
0.0
  0
LINE
  8
0
  6
CONTINUOUS
 62
     2
 10
1342.977633236
 20
637.0299852
 30
0.0
 11
1275.5999996
 21
637.0299852
 31
0.0
  0
LINE
  8
0
  6
CONTINUOUS
 62
     2
 10
354.4999996
 20
1015.7799852
 30
0.0
 11
340.011112206
 21
1019.662270877
 31
0.0
  0
LINE
  8
0
  6
CONTINUOUS
 62
     2
 10
354.4999996
 20
1015.7799852
 30
0.0
 11
340.011112206
 21
1011.897699523
 31
0.0
  0
LINE
  8
0
  6
CONTINUOUS
 62
     2
 10
354.4999996
 20
1015.7799852
 30
0.0
 11
212.4999996
 21
1015.7799852
 31
0.0
  0
LINE
  8
0
  6
CONTINUOUS
 62
     2
 10
212.4999996
 20
1015.7799852
 30
0.0
 11
226.988886994
 21
1011.897699523
 31
0.0
  0
LINE
  8
0
  6
CONTINUOUS
 62
     2
 10
212.4999996
 20
1015.7799852
 30
0.0
 11
226.988886994
 21
1019.662270877
 31
0.0
  0
TEXT
  8
0
  6
CONTINUOUS
 62
     2
 10
257.9999996
 20
1021.7799852
 30
1.2
 40
18.0
  1
１４８
 50
0.0
 41
0.9
 51
0.0
  7
KANJI38
  0
LINE
  8
0
  6
CONTINUOUS
 62
     2
 10
212.4999996
 20
820.0299852
 30
0.0
 11
212.4999996
 21
1024.7799852
 31
0.0
  0
ARC
  8
0
  6
CONTINUOUS
 62
     1
 10
1376.0999996
 20
805.0299852
 30
0.0
 40
20.0
 50
90.0
 51
180.0
  0
ARC
  8
0
  6
CONTINUOUS
 62
     1
 10
1376.0999996
 20
805.0299852
 30
0.0
 40
20.0
 50
180.0
 51
270.0
  0
ARC
  8
0
  6
CONTINUOUS
 62
     1
 10
294.4999996
 20
805.0299852
 30
0.0
 40
410.0
 50
349.054602904
 51
10.945397096
  0
LINE
  8
0
  6
CONTINUOUS
 62
     1
 10
711.241516874
 20
820.978086466
 30
0.0
 11
711.241516874
 21
751.978086466
 31
0.0
  0
LINE
  8
0
  6
CONTINUOUS
 62
     1
 10
716.241516874
 20
751.978086466
 30
0.0
 11
716.241516874
 21
820.978086466
 31
0.0
  0
LINE
  8
0
  6
CONTINUOUS
 62
     1
 10
721.041516874
 20
789.081883934
 30
0.0
 11
721.041516874
 21
820.978086466
 31
0.0
  0
LINE
  8
0
  6
CONTINUOUS
 62
     1
 10
724.4999996
 20
802.7299852
 30
0.0
 11
724.4999996
 21
807.3299852
 31
0.0
  0
LINE
  8
0
  6
CONTINUOUS
 62
     1
 10
711.241516874
 20
820.978086466
 30
0.0
 11
721.041516874
 21
820.978086466
 31
0.0
  0
LINE
  8
0
  6
CONTINUOUS
 62
     1
 10
711.241516874
 20
809.2299852
 30
0.0
 11
704.541516874
 21
809.2299852
 31
0.0
  0
LINE
  8
0
  6
CONTINUOUS
 62
     1
 10
721.041516874
 20
818.4299852
 30
0.0
 11
724.4999996
 21
818.4299852
 31
0.0
  0
LINE
  8
0
  6
CONTINUOUS
 62
     1
 10
724.4999996
 20
818.4299852
 30
0.0
 11
724.4999996
 21
813.8299852
 31
0.0
  0
LINE
  8
0
  6
CONTINUOUS
 62
     1
 10
721.041516874
 20
813.8299852
 30
0.0
 11
724.4999996
 21
813.8299852
 31
0.0
  0
LINE
  8
0
  6
CONTINUOUS
 62
     1
 10
721.041516874
 20
807.3299852
 30
0.0
 11
724.4999996
 21
807.3299852
 31
0.0
  0
LINE
  8
0
  6
CONTINUOUS
 62
     1
 10
716.241516874
 20
789.081883934
 30
0.0
 11
721.041516874
 21
789.081883934
 31
0.0
  0
LINE
  8
0
  6
CONTINUOUS
 62
     1
 10
711.241516874
 20
800.8299852
 30
0.0
 11
704.541516874
 21
800.8299852
 31
0.0
  0
LINE
  8
0
  6
CONTINUOUS
 62
     1
 10
716.241516874
 20
764.7799852
 30
0.0
 11
721.641516874
 21
764.7799852
 31
0.0
  0
POINT
  8
0
  6
CONTINUOUS
 62
     1
 10
721.641516874
 20
764.7799852
 30
0.0
  0
LINE
  8
0
  6
CONTINUOUS
 62
     1
 10
721.641516874
 20
764.7799852
 30
0.0
 11
721.641516874
 21
755.9799852
 31
0.0
  0
LINE
  8
0
  6
CONTINUOUS
 62
     1
 10
711.241516874
 20
761.9799852
 30
0.0
 11
702.341516874
 21
761.9799852
 31
0.0
  0
LINE
  8
0
  6
CONTINUOUS
 62
     1
 10
721.041516874
 20
791.6299852
 30
0.0
 11
724.4999996
 21
791.6299852
 31
0.0
  0
LINE
  8
0
  6
CONTINUOUS
 62
     1
 10
724.4999996
 20
791.6299852
 30
0.0
 11
724.4999996
 21
796.2299852
 31
0.0
  0
LINE
  8
0
  6
CONTINUOUS
 62
     1
 10
721.041516874
 20
796.2299852
 30
0.0
 11
724.4999996
 21
796.2299852
 31
0.0
  0
LINE
  8
0
  6
CONTINUOUS
 62
     1
 10
721.041516874
 20
802.7299852
 30
0.0
 11
724.4999996
 21
802.7299852
 31
0.0
  0
LINE
  8
0
  6
CONTINUOUS
 62
     1
 10
586.4999996
 20
715.0299852
 30
0.0
 11
586.4999996
 21
895.0299852
 31
0.0
  0
LINE
  8
0
  6
CONTINUOUS
 62
     1
 10
576.4999996
 20
765.0299852
 30
0.0
 11
429.4999996
 21
765.0299852
 31
0.0
  0
LINE
  8
0
  6
CONTINUOUS
 62
     1
 10
576.4999996
 20
745.0299852
 30
0.0
 11
429.4999996
 21
745.0299852
 31
0.0
  0
LINE
  8
0
  6
CONTINUOUS
 62
     1
 10
576.4999996
 20
725.0299852
 30
0.0
 11
429.4999996
 21
725.0299852
 31
0.0
  0
LINE
  8
0
  6
CONTINUOUS
 62
     1
 10
601.4999996
 20
715.0299852
 30
0.0
 11
601.4999996
 21
895.0299852
 31
0.0
  0
LINE
  8
0
  6
CONTINUOUS
 62
     1
 10
626.4999996
 20
715.0299852
 30
0.0
 11
626.4999996
 21
895.0299852
 31
0.0
  0
LINE
  8
0
  6
CONTINUOUS
 62
     1
 10
636.4999996
 20
715.0299852
 30
0.0
 11
636.4999996
 21
895.0299852
 31
0.0
  0
ARC
  8
0
  6
CONTINUOUS
 62
     1
 10
682.314388193
 20
730.0299852
 30
0.0
 40
15.0
 50
270.0
 51
349.054602904
  0
LINE
  8
0
  6
CONTINUOUS
 62
     1
 10
586.4999996
 20
715.0299852
 30
0.0
 11
682.314388193
 21
715.0299852
 31
0.0
  0
POINT
  8
0
  6
CONTINUOUS
 62
     1
 10
711.241516874
 20
751.978086466
 30
0.0
  0
LINE
  8
0
  6
CONTINUOUS
 62
     1
 10
711.241516874
 20
751.978086466
 30
0.0
 11
716.241516874
 21
751.978086466
 31
0.0
  0
POINT
  8
0
  6
CONTINUOUS
 62
     1
 10
716.241516874
 20
751.978086466
 30
0.0
  0
POINT
  8
0
  6
CONTINUOUS
 62
     1
 10
721.641516874
 20
755.9799852
 30
0.0
  0
LINE
  8
0
  6
CONTINUOUS
 62
     1
 10
721.641516874
 20
755.9799852
 30
0.0
 11
716.341516874
 21
755.9799852
 31
0.0
  0
LINE
  8
0
  6
CONTINUOUS
 62
     1
 10
711.241516874
 20
758.8799852
 30
0.0
 11
702.041516874
 21
758.8799852
 31
0.0
  0
LINE
  8
0
  6
LTYPE2
 62
     2
 10
697.341516874
 20
760.4799852
 30
0.0
 11
727.341516874
 21
760.4799852
 31
0.0
  0
LINE
  8
0
  6
CONTINUOUS
 62
     1
 10
586.4999996
 20
719.3299852
 30
0.0
 11
419.4999996
 21
719.3299852
 31
0.0
  0
LINE
  8
0
  6
CONTINUOUS
 62
     1
 10
576.4999996
 20
785.0299852
 30
0.0
 11
429.4999996
 21
785.0299852
 31
0.0
  0
LINE
  8
0
  6
CONTINUOUS
 62
     1
 10
586.4999996
 20
895.0299852
 30
0.0
 11
601.4999996
 21
895.0299852
 31
0.0
  0
LINE
  8
0
  6
CONTINUOUS
 62
     1
 10
576.4999996
 20
865.0299852
 30
0.0
 11
429.4999996
 21
865.0299852
 31
0.0
  0
LINE
  8
0
  6
CONTINUOUS
 62
     1
 10
576.4999996
 20
845.0299852
 30
0.0
 11
429.4999996
 21
845.0299852
 31
0.0
  0
LINE
  8
0
  6
CONTINUOUS
 62
     1
 10
576.4999996
 20
825.0299852
 30
0.0
 11
429.4999996
 21
825.0299852
 31
0.0
  0
LINE
  8
0
  6
CONTINUOUS
 62
     1
 10
586.4999996
 20
895.0299852
 30
0.0
 11
682.314388193
 21
895.0299852
 31
0.0
  0
LINE
  8
0
  6
CONTINUOUS
 62
     1
 10
576.4999996
 20
885.0299852
 30
0.0
 11
429.4999996
 21
885.0299852
 31
0.0
  0
LINE
  8
0
  6
CONTINUOUS
 62
     1
 10
586.4999996
 20
890.7299852
 30
0.0
 11
419.4999996
 21
890.7299852
 31
0.0
  0
LINE
  8
0
  6
CONTINUOUS
 62
     1
 10
592.9999996
 20
918.0299852
 30
0.0
 11
592.9999996
 21
958.0299852
 31
0.0
  0
LINE
  8
0
  6
CONTINUOUS
 62
     1
 10
573.9999996
 20
993.0299852
 30
0.0
 11
425.9999996
 21
919.0299852
 31
0.0
  0
LINE
  8
0
  6
CONTINUOUS
 62
     1
 10
578.472135555
 20
984.08571329
 30
0.0
 11
430.472135555
 21
910.08571329
 31
0.0
  0
LINE
  8
0
  6
CONTINUOUS
 62
     1
 10
574.212135555
 20
993.82571329
 30
0.0
 11
579.012135555
 21
984.62571329
 31
0.0
  0
LINE
  8
0
  6
CONTINUOUS
 62
     1
 10
592.9999996
 20
958.0299852
 30
0.0
 11
557.9999996
 21
958.0299852
 31
0.0
  0
LINE
  8
0
  6
CONTINUOUS
 62
     1
 10
592.9999996
 20
918.0299852
 30
0.0
 11
557.9999996
 21
918.0299852
 31
0.0
  0
LINE
  8
0
  6
LTYPE2
 62
     2
 10
599.152135555
 20
938.0299852
 30
0.0
 11
548.052135555
 21
938.0299852
 31
0.0
  0
LINE
  8
0
  6
CONTINUOUS
 62
     2
 10
592.9999996
 20
938.0299852
 30
0.0
 11
603.41991446
 21
948.820044251
 31
0.0
  0
LINE
  8
0
  6
CONTINUOUS
 62
     2
 10
592.9999996
 20
938.0299852
 30
0.0
 11
596.628881048
 21
952.584407876
 31
0.0
  0
ARC
  8
0
  6
CONTINUOUS
 62
     1
 10
682.314388193
 20
880.0299852
 30
0.0
 40
15.0
 50
10.945397096
 51
90.0
  0
ARC
  8
0
  6
CONTINUOUS
 62
     1
 10
547.9999996
 20
917.0299852
 30
0.0
 40
10.0
 50
270.0
 51
0.0
  0
ARC
  8
0
  6
CONTINUOUS
 62
     1
 10
547.9999996
 20
983.0299852
 30
0.0
 40
10.0
 50
0.0
 51
90.0
  0
LINE
  8
0
  6
CONTINUOUS
 62
     1
 10
547.9999996
 20
993.0299852
 30
0.0
 11
457.9999996
 21
993.0299852
 31
0.0
  0
LINE
  8
0
  6
CONTINUOUS
 62
     1
 10
547.9999996
 20
907.0299852
 30
0.0
 11
457.9999996
 21
907.0299852
 31
0.0
  0
LINE
  8
0
  6
CONTINUOUS
 62
     1
 10
557.9999996
 20
917.0299852
 30
0.0
 11
557.9999996
 21
972.94571329
 31
0.0
  0
LINE
  8
0
  6
CONTINUOUS
 62
     1
 10
537.8999996
 20
907.0299852
 30
0.0
 11
537.8999996
 21
890.7299852
 31
0.0
  0
LINE
  8
0
  6
CONTINUOUS
 62
     1
 10
468.0999996
 20
907.0299852
 30
0.0
 11
468.0999996
 21
890.7299852
 31
0.0
  0
LINE
  8
0
  6
LTYPE2
 62
     2
 10
502.9999996
 20
893.7799852
 30
0.0
 11
502.9999996
 21
1002.8299852
 31
0.0
  0
LINE
  8
0
  6
CONTINUOUS
 62
     1
 10
419.4999996
 20
719.3299852
 30
0.0
 11
419.4999996
 21
890.7299852
 31
0.0
  0
LINE
  8
0
  6
CONTINUOUS
 62
     1
 10
366.4999996
 20
705.0299852
 30
0.0
 11
366.4999996
 21
905.0299852
 31
0.0
  0
LINE
  8
0
  6
CONTINUOUS
 62
     1
 10
366.4999996
 20
887.70571329
 30
0.0
 11
419.172135555
 21
887.70571329
 31
0.0
  0
LINE
  8
0
  6
CONTINUOUS
 62
     1
 10
368.9999996
 20
863.3659852
 30
0.0
 11
368.9999996
 21
873.1659852
 31
0.0
  0
LINE
  8
0
  6
CONTINUOUS
 62
     1
 10
368.9999996
 20
873.1659852
 30
0.0
 11
374.614358954
 21
873.1659852
 31
0.0
  0
LINE
  8
0
  6
CONTINUOUS
 62
     1
 10
375.9999996
 20
870.7659852
 30
0.0
 11
374.614358954
 21
873.1659852
 31
0.0
  0
LINE
  8
0
  6
CONTINUOUS
 62
     1
 10
375.9999996
 20
863.3659852
 30
0.0
 11
375.9999996
 21
870.7659852
 31
0.0
  0
LINE
  8
0
  6
CONTINUOUS
 62
     1
 10
368.9999996
 20
868.2659852
 30
0.0
 11
374.614358954
 21
868.2659852
 31
0.0
  0
LINE
  8
0
  6
CONTINUOUS
 62
     1
 10
368.9999996
 20
863.3659852
 30
0.0
 11
368.9999996
 21
853.5659852
 31
0.0
  0
LINE
  8
0
  6
CONTINUOUS
 62
     1
 10
368.9999996
 20
853.5659852
 30
0.0
 11
374.614358954
 21
853.5659852
 31
0.0
  0
LINE
  8
0
  6
CONTINUOUS
 62
     1
 10
375.9999996
 20
855.9659852
 30
0.0
 11
374.614358954
 21
853.5659852
 31
0.0
  0
LINE
  8
0
  6
CONTINUOUS
 62
     1
 10
375.9999996
 20
863.3659852
 30
0.0
 11
375.9999996
 21
855.9659852
 31
0.0
  0
LINE
  8
0
  6
CONTINUOUS
 62
     1
 10
368.9999996
 20
858.4659852
 30
0.0
 11
374.614358954
 21
858.4659852
 31
0.0
  0
ARC
  8
0
  6
CONTINUOUS
 62
     1
 10
366.6433168
 20
863.3659852
 30
0.0
 40
9.3566828
 50
328.419912243
 51
31.580087757
  0
ARC
  8
0
  6
CONTINUOUS
 62
     1
 10
373.142115768
 20
870.7159852
 30
0.0
 40
2.858321186
 50
301.002313915
 51
2.989498403
  0
LINE
  8
0
  6
CONTINUOUS
 62
     1
 10
375.9999996
 20
855.9659852
 30
0.0
 11
374.614358954
 21
853.5659852
 31
0.0
  0
ARC
  8
0
  6
CONTINUOUS
 62
     1
 10
373.142115768
 20
856.0159852
 30
0.0
 40
2.858321186
 50
357.010501597
 51
58.997686085
  0
LINE
  8
0
  6
CONTINUOUS
 62
     1
 10
366.4999996
 20
872.5659852
 30
0.0
 11
368.9999996
 21
872.5659852
 31
0.0
  0
LINE
  8
0
  6
CONTINUOUS
 62
     1
 10
366.4999996
 20
863.3659852
 30
0.0
 11
368.999999596
 21
865.865985196
 31
0.0
  0
LINE
  8
0
  6
CONTINUOUS
 62
     1
 10
368.999999596
 20
863.3659852
 30
0.0
 11
366.4999996
 21
860.865985204
 31
0.0
  0
LINE
  8
0
  6
CONTINUOUS
 62
     1
 10
366.4999996
 20
854.1659852
 30
0.0
 11
368.9999996
 21
854.1659852
 31
0.0
  0
LINE
  8
0
  6
LTYPE2
 62
     2
 10
382.9999996
 20
863.3659852
 30
0.0
 11
339.9999996
 21
863.3659852
 31
0.0
  0
LINE
  8
0
  6
CONTINUOUS
 62
     1
 10
366.4999996
 20
905.0299852
 30
0.0
 11
354.4999996
 21
905.0299852
 31
0.0
  0
ARC
  8
0
  6
CONTINUOUS
 62
     1
 10
457.9999996
 20
983.0299852
 30
0.0
 40
10.0
 50
90.0
 51
180.0
  0
ARC
  8
0
  6
CONTINUOUS
 62
     1
 10
457.9999996
 20
917.0299852
 30
0.0
 40
10.0
 50
180.0
 51
270.0
  0
LINE
  8
0
  6
CONTINUOUS
 62
     1
 10
425.9999996
 20
919.0299852
 30
0.0
 11
430.472135555
 21
910.08571329
 31
0.0
  0
LINE
  8
0
  6
CONTINUOUS
 62
     1
 10
447.9999996
 20
929.94571329
 30
0.0
 11
447.9999996
 21
983.0299852
 31
0.0
  0
LINE
  8
0
  6
CONTINUOUS
 62
     1
 10
447.9999996
 20
917.0299852
 30
0.0
 11
447.9999996
 21
918.94571329
 31
0.0
  0
LINE
  8
0
  6
CONTINUOUS
 62
     1
 10
366.4999996
 20
722.35425711
 30
0.0
 11
419.172135555
 21
722.35425711
 31
0.0
  0
LINE
  8
0
  6
CONTINUOUS
 62
     1
 10
368.9999996
 20
746.6939852
 30
0.0
 11
368.9999996
 21
736.8939852
 31
0.0
  0
LINE
  8
0
  6
CONTINUOUS
 62
     1
 10
368.9999996
 20
736.8939852
 30
0.0
 11
374.614358954
 21
736.8939852
 31
0.0
  0
LINE
  8
0
  6
CONTINUOUS
 62
     1
 10
375.9999996
 20
739.2939852
 30
0.0
 11
374.614358954
 21
736.8939852
 31
0.0
  0
LINE
  8
0
  6
CONTINUOUS
 62
     1
 10
375.9999996
 20
746.6939852
 30
0.0
 11
375.9999996
 21
739.2939852
 31
0.0
  0
LINE
  8
0
  6
CONTINUOUS
 62
     1
 10
368.9999996
 20
741.7939852
 30
0.0
 11
374.614358954
 21
741.7939852
 31
0.0
  0
LINE
  8
0
  6
CONTINUOUS
 62
     1
 10
368.9999996
 20
746.6939852
 30
0.0
 11
368.9999996
 21
756.4939852
 31
0.0
  0
LINE
  8
0
  6
CONTINUOUS
 62
     1
 10
368.9999996
 20
756.4939852
 30
0.0
 11
374.614358954
 21
756.4939852
 31
0.0
  0
LINE
  8
0
  6
CONTINUOUS
 62
     1
 10
375.9999996
 20
754.0939852
 30
0.0
 11
374.614358954
 21
756.4939852
 31
0.0
  0
LINE
  8
0
  6
CONTINUOUS
 62
     1
 10
375.9999996
 20
746.6939852
 30
0.0
 11
375.9999996
 21
754.0939852
 31
0.0
  0
LINE
  8
0
  6
CONTINUOUS
 62
     1
 10
368.9999996
 20
751.5939852
 30
0.0
 11
374.614358954
 21
751.5939852
 31
0.0
  0
ARC
  8
0
  6
CONTINUOUS
 62
     1
 10
366.6433168
 20
746.6939852
 30
0.0
 40
9.3566828
 50
328.419912243
 51
31.580087757
  0
ARC
  8
0
  6
CONTINUOUS
 62
     1
 10
373.142115768
 20
739.3439852
 30
0.0
 40
2.858321186
 50
357.010501597
 51
58.997686085
  0
LINE
  8
0
  6
CONTINUOUS
 62
     1
 10
375.9999996
 20
754.0939852
 30
0.0
 11
374.614358954
 21
756.4939852
 31
0.0
  0
ARC
  8
0
  6
CONTINUOUS
 62
     1
 10
373.142115768
 20
754.0439852
 30
0.0
 40
2.858321186
 50
301.002313915
 51
2.989498403
  0
LINE
  8
0
  6
CONTINUOUS
 62
     1
 10
366.4999996
 20
737.4939852
 30
0.0
 11
368.9999996
 21
737.4939852
 31
0.0
  0
LINE
  8
0
  6
CONTINUOUS
 62
     1
 10
366.4999996
 20
746.6939852
 30
0.0
 11
368.999999596
 21
744.193985204
 31
0.0
  0
LINE
  8
0
  6
CONTINUOUS
 62
     1
 10
368.999999596
 20
746.6939852
 30
0.0
 11
366.4999996
 21
749.193985196
 31
0.0
  0
LINE
  8
0
  6
CONTINUOUS
 62
     1
 10
366.4999996
 20
755.8939852
 30
0.0
 11
368.9999996
 21
755.8939852
 31
0.0
  0
LINE
  8
0
  6
LTYPE2
 62
     2
 10
382.9999996
 20
746.6939852
 30
0.0
 11
339.9999996
 21
746.6939852
 31
0.0
  0
LINE
  8
0
  6
CONTINUOUS
 62
     1
 10
366.4999996
 20
705.0299852
 30
0.0
 11
354.4999996
 21
705.0299852
 31
0.0
  0
TEXT
  8
0
  6
CONTINUOUS
 62
     2
 10
612.9999996
 20
977.9549852
 30
1.8
 40
18.0
  1
ＰＦ３／４
 50
0.0
 41
0.9
 51
0.0
  7
KANJI39
  0
LINE
  8
0
  6
CONTINUOUS
 62
     2
 10
611.805095711
 20
971.9549852
 30
0.0
 11
701.1999996
 21
971.9549852
 31
0.0
  0
LINE
  8
0
  6
CONTINUOUS
 62
     2
 10
592.9999996
 20
938.0299852
 30
0.0
 11
611.805095711
 21
971.9549852
 31
0.0
  0
LINE
  8
7
  6
CONTINUOUS
 62
     2
 10
354.4999996
 20
1015.7799852
 30
0.0
 11
724.4999996
 21
1015.7799852
 31
0.0
  0
LINE
  8
7
  6
CONTINUOUS
 62
     2
 10
724.4999996
 20
1015.7799852
 30
0.0
 11
710.011112206
 21
1019.662270877
 31
0.0
  0
LINE
  8
7
  6
CONTINUOUS
 62
     2
 10
724.4999996
 20
1015.7799852
 30
0.0
 11
710.011112206
 21
1011.897699523
 31
0.0
  0
TEXT
  8
7
  6
CONTINUOUS
 62
     2
 10
513.9999996
 20
1021.7799852
 30
1.2
 40
18.0
  1
３７０
 50
0.0
 41
0.9
 51
0.0
  7
KANJI40
  0
LINE
  8
7
  6
CONTINUOUS
 62
     2
 10
354.4999996
 20
1015.7799852
 30
0.0
 11
368.988886994
 21
1011.897699523
 31
0.0
  0
LINE
  8
7
  6
CONTINUOUS
 62
     2
 10
354.4999996
 20
1015.7799852
 30
0.0
 11
368.988886994
 21
1019.662270877
 31
0.0
  0
LINE
  8
7
  6
CONTINUOUS
 62
     2
 10
724.4999996
 20
827.4299852
 30
0.0
 11
724.4999996
 21
1022.7799852
 31
0.0
  0
LINE
  8
0
  6
CONTINUOUS
 62
     2
 10
354.4999996
 20
905.0299852
 30
0.0
 11
354.4999996
 21
1024.7799852
 31
0.0
  0
LINE
  8
7
  6
CONTINUOUS
 62
     2
 10
724.9999996
 20
806.9549852
 30
0.0
 11
779.575115759
 21
946.803720357
 31
0.0
  0
LINE
  8
7
  6
CONTINUOUS
 62
     2
 10
724.9999996
 20
806.9549852
 30
0.0
 11
733.883976186
 21
819.041132643
 31
0.0
  0
LINE
  8
7
  6
CONTINUOUS
 62
     2
 10
724.9999996
 20
806.9549852
 30
0.0
 11
726.650675289
 21
821.863884213
 31
0.0
  0
TEXT
  8
7
  6
CONTINUOUS
 62
     2
 10
779.575115759
 20
952.803720357
 30
1.8
 40
18.0
  1
ブレーキ開放装置
 50
0.0
 41
0.9
 51
0.0
  7
KANJI39
  0
LINE
  8
7
  6
CONTINUOUS
 62
     2
 10
779.575115759
 20
946.803720357
 30
0.0
 11
921.775115759
 21
946.803720357
 31
0.0
  0
LINE
  8
0
  6
LTYPE2
 62
     2
 10
203.0999996
 20
805.0299852
 30
0.0
 11
728.98
 21
805.0299852
 31
0.0
  0
LINE
  8
0
  6
LTYPE2
 62
     2
 10
435.675007504
 20
517.0299852
 30
0.0
 11
822.935007504
 21
517.0299852
 31
0.0
  0
LINE
  8
0
  6
LTYPE3
 62
     2
 10
500.577780923
 20
489.0299852
 30
0.0
 11
1058.0999996
 21
489.0299852
 31
0.0
  0
LINE
  8
0
  6
LTYPE1
 62
     2
 10
690.175007504
 20
531.0299852
 30
0.0
 11
455.175007504
 21
531.0299852
 31
0.0
  0
LINE
  8
0
  6
LTYPE1
 62
     2
 10
690.175007504
 20
537.0299852
 30
0.0
 11
455.175007504
 21
537.0299852
 31
0.0
  0
LINE
  8
0
  6
LTYPE1
 62
     2
 10
518.175007504
 20
509.0299852
 30
0.0
 11
790.625007504
 21
509.0299852
 31
0.0
  0
LINE
  8
0
  6
LTYPE1
 62
     2
 10
518.175007504
 20
525.0299852
 30
0.0
 11
790.625007504
 21
525.0299852
 31
0.0
  0
LINE
  8
0
  6
CONTINUOUS
 62
     1
 10
560.175007504
 20
481.0299852
 30
0.0
 11
847.325007504
 21
481.0299852
 31
0.0
  0
LINE
  8
0
  6
LTYPE1
 62
     2
 10
689.675007504
 20
531.0299852
 30
0.0
 11
689.675007504
 21
526.4299852
 31
0.0
  0
LINE
  8
0
  6
LTYPE1
 62
     2
 10
674.675007504
 20
531.0299852
 30
0.0
 11
674.675007504
 21
526.4299852
 31
0.0
  0
LINE
  8
0
  6
LTYPE1
 62
     2
 10
678.375007504
 20
531.0299852
 30
0.0
 11
678.375007504
 21
526.4299852
 31
0.0
  0
LINE
  8
0
  6
LTYPE1
 62
     2
 10
685.975007504
 20
531.0299852
 30
0.0
 11
685.975007504
 21
526.4299852
 31
0.0
  0
ARC
  8
0
  6
LTYPE1
 62
     2
 10
676.475007504
 20
528.5299852
 30
0.0
 40
2.8
 50
228.5
 51
311.5
  0
ARC
  8
0
  6
LTYPE1
 62
     2
 10
682.175007504
 20
536.4299852
 30
0.0
 40
10.7
 50
249.1
 51
290.9
  0
ARC
  8
0
  6
LTYPE1
 62
     2
 10
687.875007504
 20
528.5299852
 30
0.0
 40
2.8
 50
228.5
 51
311.5
  0
LINE
  8
0
  6
LTYPE1
 62
     2
 10
682.175007504
 20
522.2299852
 30
0.0
 11
682.175007504
 21
534.0299852
 31
0.0
  0
LINE
  8
0
  6
LTYPE2
 62
     2
 10
682.175007504
 20
518.3799852
 30
0.0
 11
682.175007504
 21
542.6799852
 31
0.0
  0
LINE
  8
0
  6
LTYPE1
 62
     2
 10
687.875007504
 20
525.7299852
 30
0.0
 11
676.475007504
 21
525.7299852
 31
0.0
  0
LINE
  8
0
  6
LTYPE1
 62
     2
 10
682.175007504
 20
528.896010604
 30
0.0
 11
682.175007504
 21
661.896010604
 31
0.0
  0
LINE
  8
0
  6
LTYPE1
 62
     2
 10
690.175007504
 20
537.0299852
 30
0.0
 11
690.175007504
 21
531.0799852
 31
0.0
  0
LINE
  8
0
  6
LTYPE1
 62
     2
 10
689.175007504
 20
537.0299852
 30
0.0
 11
689.175007504
 21
596.6799852
 31
0.0
  0
LINE
  8
0
  6
LTYPE1
 62
     2
 10
675.175007504
 20
537.0299852
 30
0.0
 11
675.175007504
 21
596.6799852
 31
0.0
  0
LINE
  8
0
  6
CONTINUOUS
 62
     1
 10
560.175007504
 20
497.0299852
 30
0.0
 11
816.025007504
 21
497.0299852
 31
0.0
  0
LINE
  8
0
  6
LTYPE1
 62
     2
 10
678.175007504
 20
552.0299852
 30
0.0
 11
686.175007504
 21
552.0299852
 31
0.0
  0
LINE
  8
0
  6
LTYPE1
 62
     2
 10
685.475007504
 20
566.6299852
 30
0.0
 11
685.475007504
 21
552.0299852
 31
0.0
  0
LINE
  8
0
  6
LTYPE1
 62
     2
 10
686.175007504
 20
566.6799852
 30
0.0
 11
686.175007504
 21
552.0299852
 31
0.0
  0
LINE
  8
0
  6
LTYPE1
 62
     2
 10
678.875007504
 20
566.6299852
 30
0.0
 11
678.875007504
 21
552.0299852
 31
0.0
  0
LINE
  8
0
  6
LTYPE1
 62
     2
 10
678.175007504
 20
566.6299852
 30
0.0
 11
678.175007504
 21
552.0299852
 31
0.0
  0
LINE
  8
0
  6
LTYPE1
 62
     2
 10
675.175007504
 20
566.6799852
 30
0.0
 11
689.175007504
 21
566.6799852
 31
0.0
  0
LINE
  8
0
  6
LTYPE1
 62
     2
 10
675.175007504
 20
596.6799852
 30
0.0
 11
689.175007504
 21
596.6799852
 31
0.0
  0
LINE
  8
0
  6
LTYPE1
 62
     2
 10
678.175007504
 20
596.6799852
 30
0.0
 11
678.175007504
 21
683.5299852
 31
0.0
  0
LINE
  8
0
  6
LTYPE1
 62
     2
 10
686.175007504
 20
596.6799852
 30
0.0
 11
686.175007504
 21
683.5299852
 31
0.0
  0
ARC
  8
0
  6
LTYPE1
 62
     2
 10
682.175007504
 20
683.5299852
 30
0.0
 40
4.0
 50
0.0
 51
180.0
  0
LINE
  8
0
  6
LTYPE1
 62
     2
 10
486.175007504
 20
476.0299852
 30
0.0
 11
518.175007504
 21
476.0299852
 31
0.0
  0
LINE
  8
0
  6
LTYPE1
 62
     2
 10
486.175007504
 20
476.0299852
 30
0.0
 11
486.175007504
 21
529.0299852
 31
0.0
  0
ARC
  8
0
  6
LTYPE1
 62
     2
 10
486.031690304
 20
489.0299852
 30
0.0
 40
9.3566828
 50
148.419912243
 51
211.580087757
  0
LINE
  8
0
  6
LTYPE1
 62
     2
 10
483.675007504
 20
479.2299852
 30
0.0
 11
478.06064815
 21
479.2299852
 31
0.0
  0
LINE
  8
0
  6
LTYPE1
 62
     2
 10
476.675007504
 20
481.6299852
 30
0.0
 11
478.06064815
 21
479.2299852
 31
0.0
  0
LINE
  8
0
  6
LTYPE1
 62
     2
 10
483.675007504
 20
484.1299852
 30
0.0
 11
478.06064815
 21
484.1299852
 31
0.0
  0
ARC
  8
0
  6
LTYPE1
 62
     2
 10
479.532891336
 20
481.6799852
 30
0.0
 40
2.858321186
 50
121.002313915
 51
182.989498403
  0
LINE
  8
0
  6
LTYPE1
 62
     2
 10
483.675007504
 20
489.0299852
 30
0.0
 11
483.675007504
 21
479.2299852
 31
0.0
  0
LINE
  8
0
  6
LTYPE1
 62
     2
 10
486.175007504
 20
479.8299852
 30
0.0
 11
483.675007504
 21
479.8299852
 31
0.0
  0
LINE
  8
0
  6
LTYPE1
 62
     2
 10
476.675007504
 20
489.0299852
 30
0.0
 11
476.675007504
 21
481.6299852
 31
0.0
  0
LINE
  8
0
  6
LTYPE1
 62
     2
 10
468.175007504
 20
485.0299852
 30
0.0
 11
476.675007504
 21
485.0299852
 31
0.0
  0
LINE
  8
0
  6
LTYPE1
 62
     2
 10
468.175007504
 20
486.0299852
 30
0.0
 11
476.675007504
 21
486.0299852
 31
0.0
  0
LINE
  8
0
  6
LTYPE1
 62
     2
 10
486.175007504
 20
489.0299852
 30
0.0
 11
483.675007508
 21
486.529985204
 31
0.0
  0
LINE
  8
0
  6
LTYPE1
 62
     2
 10
476.675007504
 20
496.4299852
 30
0.0
 11
478.06064815
 21
498.8299852
 31
0.0
  0
LINE
  8
0
  6
LTYPE1
 62
     2
 10
476.675007504
 20
496.4299852
 30
0.0
 11
478.06064815
 21
498.8299852
 31
0.0
  0
LINE
  8
0
  6
LTYPE1
 62
     2
 10
476.675007504
 20
489.0299852
 30
0.0
 11
476.675007504
 21
496.4299852
 31
0.0
  0
LINE
  8
0
  6
LTYPE1
 62
     2
 10
483.675007504
 20
493.9299852
 30
0.0
 11
478.06064815
 21
493.9299852
 31
0.0
  0
ARC
  8
0
  6
LTYPE1
 62
     2
 10
479.532891336
 20
496.3799852
 30
0.0
 40
2.858321186
 50
177.010501597
 51
238.997686085
  0
LINE
  8
0
  6
LTYPE1
 62
     2
 10
468.175007504
 20
493.0299852
 30
0.0
 11
476.675007504
 21
493.0299852
 31
0.0
  0
LINE
  8
0
  6
LTYPE1
 62
     2
 10
468.175007504
 20
492.0299852
 30
0.0
 11
476.675007504
 21
492.0299852
 31
0.0
  0
LINE
  8
0
  6
LTYPE1
 62
     2
 10
483.675007504
 20
489.0299852
 30
0.0
 11
483.675007504
 21
498.8299852
 31
0.0
  0
LINE
  8
0
  6
LTYPE1
 62
     2
 10
483.675007508
 20
489.0299852
 30
0.0
 11
486.175007504
 21
491.529985196
 31
0.0
  0
LINE
  8
0
  6
LTYPE1
 62
     2
 10
468.175007504
 20
485.0299852
 30
0.0
 11
468.175007504
 21
493.0299852
 31
0.0
  0
LINE
  8
0
  6
LTYPE2
 62
     2
 10
539.175007504
 20
479.0299852
 30
0.0
 11
539.175007504
 21
499.0299852
 31
0.0
  0
CIRCLE
  8
0
  6
CONTINUOUS
 62
     2
 10
539.175007504
 20
489.0299852
 30
0.0
 40
5.0
  0
CIRCLE
  8
0
  6
CONTINUOUS
 62
     2
 10
539.175007504
 20
489.0299852
 30
0.0
 40
4.0
  0
LINE
  8
0
  6
LTYPE1
 62
     2
 10
518.175007504
 20
476.0299852
 30
0.0
 11
518.175007504
 21
529.0299852
 31
0.0
  0
LINE
  8
0
  6
CONTINUOUS
 62
     1
 10
504.675007504
 20
481.5799852
 30
0.0
 11
518.175007504
 21
481.5799852
 31
0.0
  0
LINE
  8
0
  6
CONTINUOUS
 62
     1
 10
551.525007504
 20
473.0299852
 30
0.0
 11
551.525007504
 21
505.0299852
 31
0.0
  0
LINE
  8
0
  6
CONTINUOUS
 62
     1
 10
560.175007504
 20
478.0299852
 30
0.0
 11
560.175007504
 21
500.0299852
 31
0.0
  0
LINE
  8
0
  6
CONTINUOUS
 62
     1
 10
526.825007504
 20
473.0299852
 30
0.0
 11
526.825007504
 21
505.0299852
 31
0.0
  0
LINE
  8
0
  6
CONTINUOUS
 62
     1
 10
518.175007504
 20
478.0299852
 30
0.0
 11
526.835261542
 21
473.0299852
 31
0.0
  0
LINE
  8
0
  6
CONTINUOUS
 62
     1
 10
526.825007504
 20
473.0299852
 30
0.0
 11
551.525007504
 21
473.0299852
 31
0.0
  0
LINE
  8
0
  6
CONTINUOUS
 62
     1
 10
560.175007504
 20
478.0299852
 30
0.0
 11
551.514753466
 21
473.0299852
 31
0.0
  0
LINE
  8
0
  6
CONTINUOUS
 62
     1
 10
518.175007504
 20
478.0299852
 30
0.0
 11
518.175007504
 21
500.0299852
 31
0.0
  0
LINE
  8
0
  6
LTYPE1
 62
     2
 10
483.675007504
 20
498.8299852
 30
0.0
 11
478.06064815
 21
498.8299852
 31
0.0
  0
LINE
  8
0
  6
LTYPE1
 62
     2
 10
486.175007504
 20
498.2299852
 30
0.0
 11
483.675007504
 21
498.2299852
 31
0.0
  0
LINE
  8
0
  6
LTYPE1
 62
     2
 10
486.175007504
 20
511.0299852
 30
0.0
 11
518.175007504
 21
511.0299852
 31
0.0
  0
LINE
  8
0
  6
LTYPE1
 62
     2
 10
518.175007504
 20
529.0299852
 30
0.0
 11
486.175007504
 21
529.0299852
 31
0.0
  0
LINE
  8
0
  6
LTYPE1
 62
     2
 10
518.175007504
 20
523.0299852
 30
0.0
 11
486.175007504
 21
523.0299852
 31
0.0
  0
LINE
  8
0
  6
LTYPE1
 62
     2
 10
486.175007504
 20
521.0299852
 30
0.0
 11
491.175007504
 21
521.0299852
 31
0.0
  0
LINE
  8
0
  6
LTYPE1
 62
     2
 10
486.175007504
 20
520.0299852
 30
0.0
 11
491.175007504
 21
520.0299852
 31
0.0
  0
LINE
  8
0
  6
LTYPE1
 62
     2
 10
486.175007504
 20
513.0299852
 30
0.0
 11
491.175007504
 21
513.0299852
 31
0.0
  0
LINE
  8
0
  6
LTYPE1
 62
     2
 10
486.175007504
 20
514.0299852
 30
0.0
 11
491.175007504
 21
514.0299852
 31
0.0
  0
LINE
  8
0
  6
LTYPE1
 62
     2
 10
491.175007504
 20
511.0299852
 30
0.0
 11
491.175007504
 21
523.0299852
 31
0.0
  0
LINE
  8
0
  6
LTYPE1
 62
     2
 10
455.175007504
 20
504.0299852
 30
0.0
 11
471.175007504
 21
504.0299852
 31
0.0
  0
LINE
  8
0
  6
LTYPE3
 62
     2
 10
474.175007504
 20
517.0299852
 30
0.0
 11
485.675007504
 21
517.0299852
 31
0.0
  0
LINE
  8
0
  6
LTYPE1
 62
     2
 10
478.675007504
 20
521.0299852
 30
0.0
 11
486.175007504
 21
521.0299852
 31
0.0
  0
LINE
  8
0
  6
LTYPE1
 62
     2
 10
478.675007504
 20
520.0299852
 30
0.0
 11
486.175007504
 21
520.0299852
 31
0.0
  0
LINE
  8
0
  6
LTYPE1
 62
     2
 10
471.175007504
 20
506.6299852
 30
0.0
 11
477.675007504
 21
506.6299852
 31
0.0
  0
ARC
  8
0
  6
LTYPE1
 62
     2
 10
474.775007504
 20
509.2299852
 30
0.0
 40
3.9
 50
317.9
 51
42.1
  0
LINE
  8
0
  6
LTYPE1
 62
     2
 10
471.175007504
 20
511.8299852
 30
0.0
 11
477.675007504
 21
511.8299852
 31
0.0
  0
LINE
  8
0
  6
LTYPE1
 62
     2
 10
478.675007504
 20
514.0299852
 30
0.0
 11
486.175007504
 21
514.0299852
 31
0.0
  0
LINE
  8
0
  6
LTYPE1
 62
     2
 10
478.675007504
 20
513.0299852
 30
0.0
 11
486.175007504
 21
513.0299852
 31
0.0
  0
LINE
  8
0
  6
LTYPE1
 62
     2
 10
471.175007504
 20
504.0299852
 30
0.0
 11
471.175007504
 21
531.0299852
 31
0.0
  0
LINE
  8
0
  6
LTYPE1
 62
     2
 10
471.175007504
 20
527.4299852
 30
0.0
 11
471.175007504
 21
506.6299852
 31
0.0
  0
ARC
  8
0
  6
LTYPE1
 62
     2
 10
464.675007504
 20
517.0299852
 30
0.0
 40
14.0
 50
338.2
 51
21.8
  0
LINE
  8
0
  6
LTYPE1
 62
     2
 10
478.675007504
 20
509.2299852
 30
0.0
 11
478.675007504
 21
524.8299852
 31
0.0
  0
LINE
  8
0
  6
LTYPE1
 62
     2
 10
471.175007504
 20
527.4299852
 30
0.0
 11
477.675007504
 21
527.4299852
 31
0.0
  0
ARC
  8
0
  6
LTYPE1
 62
     2
 10
474.775007504
 20
524.8299852
 30
0.0
 40
3.9
 50
317.9
 51
42.1
  0
LINE
  8
0
  6
LTYPE1
 62
     2
 10
477.675007504
 20
522.2299852
 30
0.0
 11
471.175007504
 21
522.2299852
 31
0.0
  0
LINE
  8
0
  6
LTYPE1
 62
     2
 10
441.175007504
 20
521.0299852
 30
0.0
 11
445.675007504
 21
521.0299852
 31
0.0
  0
LINE
  8
0
  6
LTYPE1
 62
     2
 10
441.175007504
 20
520.0299852
 30
0.0
 11
445.675007504
 21
520.0299852
 31
0.0
  0
LINE
  8
0
  6
LTYPE1
 62
     2
 10
441.175007504
 20
513.0299852
 30
0.0
 11
445.675007504
 21
513.0299852
 31
0.0
  0
LINE
  8
0
  6
LTYPE1
 62
     2
 10
441.175007504
 20
514.0299852
 30
0.0
 11
445.675007504
 21
514.0299852
 31
0.0
  0
LINE
  8
0
  6
LTYPE1
 62
     2
 10
441.175007504
 20
513.0299852
 30
0.0
 11
441.175007504
 21
521.0299852
 31
0.0
  0
LINE
  8
0
  6
LTYPE1
 62
     2
 10
452.675007504
 20
526.8299852
 30
0.0
 11
447.06064815
 21
526.8299852
 31
0.0
  0
LINE
  8
0
  6
LTYPE1
 62
     2
 10
452.675007504
 20
521.9299852
 30
0.0
 11
447.06064815
 21
521.9299852
 31
0.0
  0
LINE
  8
0
  6
LTYPE1
 62
     2
 10
452.675007504
 20
507.2299852
 30
0.0
 11
447.06064815
 21
507.2299852
 31
0.0
  0
LINE
  8
0
  6
LTYPE1
 62
     2
 10
452.675007504
 20
512.1299852
 30
0.0
 11
447.06064815
 21
512.1299852
 31
0.0
  0
LINE
  8
0
  6
LTYPE1
 62
     2
 10
445.675007504
 20
517.0299852
 30
0.0
 11
445.675007504
 21
524.4299852
 31
0.0
  0
LINE
  8
0
  6
LTYPE1
 62
     2
 10
445.675007504
 20
524.4299852
 30
0.0
 11
447.06064815
 21
526.8299852
 31
0.0
  0
LINE
  8
0
  6
LTYPE1
 62
     2
 10
445.675007504
 20
524.4299852
 30
0.0
 11
447.06064815
 21
526.8299852
 31
0.0
  0
ARC
  8
0
  6
LTYPE1
 62
     2
 10
448.532891336
 20
524.3799852
 30
0.0
 40
2.858321186
 50
177.010501597
 51
238.997686085
  0
LINE
  8
0
  6
LTYPE1
 62
     2
 10
445.675007504
 20
509.6299852
 30
0.0
 11
447.06064815
 21
507.2299852
 31
0.0
  0
LINE
  8
0
  6
LTYPE1
 62
     2
 10
445.675007504
 20
517.0299852
 30
0.0
 11
445.675007504
 21
509.6299852
 31
0.0
  0
ARC
  8
0
  6
LTYPE1
 62
     2
 10
448.532891336
 20
509.6799852
 30
0.0
 40
2.858321186
 50
121.002313915
 51
182.989498403
  0
ARC
  8
0
  6
LTYPE1
 62
     2
 10
455.031690304
 20
517.0299852
 30
0.0
 40
9.3566828
 50
148.419912243
 51
211.580087757
  0
LINE
  8
0
  6
CONTINUOUS
 62
     2
 10
454.4999996
 20
568.0299852
 30
0.0
 11
454.4999996
 21
376.0299852
 31
0.0
  0
LINE
  8
0
  6
LTYPE1
 62
     2
 10
466.922037504
 20
537.0299852
 30
0.0
 11
466.922037504
 21
541.470285798
 31
0.0
  0
LINE
  8
0
  6
LTYPE1
 62
     2
 10
470.669067504
 20
537.0299852
 30
0.0
 11
470.669067504
 21
541.470285798
 31
0.0
  0
ARC
  8
0
  6
LTYPE1
 62
     2
 10
463.175007504
 20
535.374829863
 30
0.0
 40
7.155055337
 50
58.419912243
 51
121.580087757
  0
LINE
  8
0
  6
LTYPE1
 62
     2
 10
468.833787504
 20
542.5298852
 30
0.0
 11
470.669067504
 21
541.470285798
 31
0.0
  0
LINE
  8
0
  6
LTYPE1
 62
     2
 10
463.175007504
 20
542.5298852
 30
0.0
 11
468.833787504
 21
542.5298852
 31
0.0
  0
LINE
  8
0
  6
LTYPE1
 62
     2
 10
468.833787504
 20
542.5298852
 30
0.0
 11
470.669067504
 21
541.470285798
 31
0.0
  0
ARC
  8
0
  6
LTYPE1
 62
     2
 10
468.795552504
 20
540.344461433
 30
0.0
 40
2.185758211
 50
87.010501597
 51
148.997686085
  0
LINE
  8
0
  6
LTYPE1
 62
     2
 10
463.175007504
 20
527.0299852
 30
0.0
 11
463.175007504
 21
543.0299852
 31
0.0
  0
LINE
  8
0
  6
LTYPE1
 62
     2
 10
463.175007504
 20
542.5298852
 30
0.0
 11
457.516227504
 21
542.5298852
 31
0.0
  0
ARC
  8
0
  6
LTYPE1
 62
     2
 10
457.554462504
 20
540.344461433
 30
0.0
 40
2.185758211
 50
31.002313915
 51
92.989498403
  0
LINE
  8
0
  6
LTYPE1
 62
     2
 10
459.427977504
 20
537.0299852
 30
0.0
 11
459.427977504
 21
541.470285798
 31
0.0
  0
LINE
  8
0
  6
LTYPE1
 62
     2
 10
452.675007504
 20
517.0299852
 30
0.0
 11
452.675007504
 21
526.8299852
 31
0.0
  0
LINE
  8
0
  6
LTYPE1
 62
     2
 10
455.175007504
 20
526.2299852
 30
0.0
 11
452.675007504
 21
526.2299852
 31
0.0
  0
LINE
  8
0
  6
LTYPE1
 62
     2
 10
452.675007508
 20
517.0299852
 30
0.0
 11
455.175007504
 21
519.529985196
 31
0.0
  0
LINE
  8
0
  6
LTYPE1
 62
     2
 10
452.675007504
 20
517.0299852
 30
0.0
 11
452.675007504
 21
507.2299852
 31
0.0
  0
LINE
  8
0
  6
LTYPE1
 62
     2
 10
455.175007504
 20
517.0299852
 30
0.0
 11
452.675007508
 21
514.529985204
 31
0.0
  0
LINE
  8
0
  6
LTYPE1
 62
     2
 10
455.175007504
 20
507.8299852
 30
0.0
 11
452.675007504
 21
507.8299852
 31
0.0
  0
LINE
  8
0
  6
LTYPE1
 62
     2
 10
455.175007504
 20
504.0299852
 30
0.0
 11
455.175007504
 21
537.0299852
 31
0.0
  0
LINE
  8
0
  6
LTYPE1
 62
     2
 10
457.516227504
 20
542.5298852
 30
0.0
 11
455.680947504
 21
541.470285798
 31
0.0
  0
LINE
  8
0
  6
LTYPE1
 62
     2
 10
455.680947504
 20
537.0299852
 30
0.0
 11
455.680947504
 21
541.470285798
 31
0.0
  0
LINE
  8
0
  6
CONTINUOUS
 62
     2
 10
837.325007504
 20
566.6799852
 30
0.0
 11
837.325007504
 21
552.0299852
 31
0.0
  0
LINE
  8
0
  6
CONTINUOUS
 62
     1
 10
840.325007504
 20
537.0299852
 30
0.0
 11
840.325007504
 21
596.6799852
 31
0.0
  0
LINE
  8
0
  6
CONTINUOUS
 62
     1
 10
826.325007504
 20
537.0299852
 30
0.0
 11
826.325007504
 21
596.6799852
 31
0.0
  0
LINE
  8
0
  6
CONTINUOUS
 62
     1
 10
829.325007504
 20
552.0299852
 30
0.0
 11
837.325007504
 21
552.0299852
 31
0.0
  0
LINE
  8
0
  6
CONTINUOUS
 62
     2
 10
829.325007504
 20
566.6299852
 30
0.0
 11
829.325007504
 21
552.0299852
 31
0.0
  0
LINE
  8
0
  6
CONTINUOUS
 62
     1
 10
836.625007504
 20
566.6299852
 30
0.0
 11
836.625007504
 21
552.0299852
 31
0.0
  0
LINE
  8
0
  6
CONTINUOUS
 62
     1
 10
830.025007504
 20
566.6299852
 30
0.0
 11
830.025007504
 21
552.0299852
 31
0.0
  0
LINE
  8
0
  6
CONTINUOUS
 62
     1
 10
798.325007504
 20
531.0299852
 30
0.0
 11
928.325007504
 21
531.0299852
 31
0.0
  0
LINE
  8
0
  6
CONTINUOUS
 62
     1
 10
798.325007504
 20
537.0299852
 30
0.0
 11
928.325007504
 21
537.0299852
 31
0.0
  0
LINE
  8
0
  6
CONTINUOUS
 62
     1
 10
816.025007504
 20
491.0299852
 30
0.0
 11
910.625007504
 21
491.0299852
 31
0.0
  0
LINE
  8
0
  6
CONTINUOUS
 62
     1
 10
816.025007504
 20
497.0299852
 30
0.0
 11
910.625007504
 21
497.0299852
 31
0.0
  0
LINE
  8
0
  6
CONTINUOUS
 62
     1
 10
816.025007504
 20
504.6299852
 30
0.0
 11
790.625007504
 21
504.6299852
 31
0.0
  0
LINE
  8
0
  6
CONTINUOUS
 62
     1
 10
816.025007504
 20
531.0299852
 30
0.0
 11
816.025007504
 21
491.0299852
 31
0.0
  0
LINE
  8
0
  6
CONTINUOUS
 62
     1
 10
798.325007504
 20
531.0299852
 30
0.0
 11
798.325007504
 21
537.0299852
 31
0.0
  0
LINE
  8
0
  6
CONTINUOUS
 62
     1
 10
790.625007504
 20
530.0299852
 30
0.0
 11
790.625007504
 21
504.6299852
 31
0.0
  0
LINE
  8
0
  6
CONTINUOUS
 62
     1
 10
816.025007504
 20
530.0299852
 30
0.0
 11
790.625007504
 21
530.0299852
 31
0.0
  0
LINE
  8
0
  6
CONTINUOUS
 62
     2
 10
830.425007504
 20
491.2299852
 30
0.0
 11
822.836252845
 21
481.297170759
 31
0.0
  0
LINE
  8
0
  6
CONTINUOUS
 62
     2
 10
830.425007504
 20
491.2299852
 30
0.0
 11
828.819360407
 21
478.833538233
 31
0.0
  0
LINE
  8
0
  6
CONTINUOUS
 62
     2
 10
830.425007504
 20
491.2299852
 30
0.0
 11
809.301478092
 21
439.9299852
 31
0.0
  0
TEXT
  8
0
  6
CONTINUOUS
 62
     2
 10
729.225007504
 20
444.9299852
 30
0.0
 40
15.0
  1
ＬＳユニット
 50
0.0
 41
0.9
 51
0.0
  7
KANJI24
  0
LINE
  8
0
  6
CONTINUOUS
 62
     2
 10
809.301478092
 20
439.9299852
 30
0.0
 11
729.225007504
 21
439.9299852
 31
0.0
  0
LINE
  8
0
  6
CONTINUOUS
 62
     1
 10
847.325007504
 20
476.0299852
 30
0.0
 11
879.325007504
 21
476.0299852
 31
0.0
  0
LINE
  8
0
  6
LTYPE1
 62
     2
 10
847.325007504
 20
483.0299852
 30
0.0
 11
879.625007504
 21
483.0299852
 31
0.0
  0
LINE
  8
0
  6
CONTINUOUS
 62
     1
 10
841.925007504
 20
531.0299852
 30
0.0
 11
841.925007504
 21
491.0299852
 31
0.0
  0
LINE
  8
0
  6
CONTINUOUS
 62
     1
 10
847.325007504
 20
476.0299852
 30
0.0
 11
847.325007504
 21
491.0299852
 31
0.0
  0
LINE
  8
0
  6
LTYPE1
 62
     2
 10
847.025007504
 20
500.2599852
 30
0.0
 11
842.025007504
 21
500.2599852
 31
0.0
  0
LINE
  8
0
  6
LTYPE1
 62
     2
 10
847.025007504
 20
501.4149852
 30
0.0
 11
842.025007504
 21
501.4149852
 31
0.0
  0
LINE
  8
0
  6
LTYPE1
 62
     2
 10
847.025007504
 20
521.1999852
 30
0.0
 11
842.025007504
 21
521.1999852
 31
0.0
  0
LINE
  8
0
  6
LTYPE1
 62
     2
 10
847.025007504
 20
520.0449852
 30
0.0
 11
842.025007504
 21
520.0449852
 31
0.0
  0
LINE
  8
0
  6
LTYPE1
 62
     2
 10
847.025007504
 20
521.1999852
 30
0.0
 11
842.025007504
 21
521.1999852
 31
0.0
  0
LINE
  8
0
  6
LTYPE2
 62
     2
 10
838.5999996
 20
510.7299852
 30
0.0
 11
851.5999996
 21
510.7299852
 31
0.0
  0
LINE
  8
0
  6
CONTINUOUS
 62
     1
 10
886.325007504
 20
537.0299852
 30
0.0
 11
886.325007504
 21
596.6799852
 31
0.0
  0
LINE
  8
0
  6
CONTINUOUS
 62
     1
 10
900.325007504
 20
537.0299852
 30
0.0
 11
900.325007504
 21
596.6799852
 31
0.0
  0
LINE
  8
0
  6
CONTINUOUS
 62
     1
 10
897.325007504
 20
552.0299852
 30
0.0
 11
889.325007504
 21
552.0299852
 31
0.0
  0
LINE
  8
0
  6
CONTINUOUS
 62
     2
 10
897.325007504
 20
566.6299852
 30
0.0
 11
897.325007504
 21
552.0299852
 31
0.0
  0
LINE
  8
0
  6
CONTINUOUS
 62
     2
 10
889.325007504
 20
566.6799852
 30
0.0
 11
889.325007504
 21
552.0299852
 31
0.0
  0
LINE
  8
0
  6
CONTINUOUS
 62
     1
 10
890.025007504
 20
566.6299852
 30
0.0
 11
890.025007504
 21
552.0299852
 31
0.0
  0
LINE
  8
0
  6
CONTINUOUS
 62
     1
 10
896.625007504
 20
566.6299852
 30
0.0
 11
896.625007504
 21
552.0299852
 31
0.0
  0
LINE
  8
0
  6
CONTINUOUS
 62
     1
 10
879.625007504
 20
483.0299852
 30
0.0
 11
945.5998996
 21
483.0299852
 31
0.0
  0
LINE
  8
0
  6
CONTINUOUS
 62
     1
 10
910.5999996
 20
495.0299852
 30
0.0
 11
945.5998996
 21
495.0299852
 31
0.0
  0
LINE
  8
0
  6
CONTINUOUS
 62
     1
 10
910.625007504
 20
504.6299852
 30
0.0
 11
936.025007504
 21
504.6299852
 31
0.0
  0
LINE
  8
0
  6
CONTINUOUS
 62
     1
 10
936.025007504
 20
530.0299852
 30
0.0
 11
936.025007504
 21
504.6299852
 31
0.0
  0
LINE
  8
0
  6
CONTINUOUS
 62
     1
 10
910.625007504
 20
530.0299852
 30
0.0
 11
936.025007504
 21
530.0299852
 31
0.0
  0
LINE
  8
0
  6
LTYPE1
 62
     2
 10
945.5998996
 20
483.0299852
 30
0.0
 11
987.5998996
 21
483.0299852
 31
0.0
  0
LINE
  8
0
  6
LTYPE1
 62
     2
 10
945.5998996
 20
495.0299852
 30
0.0
 11
987.5998996
 21
495.0299852
 31
0.0
  0
LINE
  8
0
  6
CONTINUOUS
 62
     1
 10
945.5998996
 20
500.0299852
 30
0.0
 11
954.260153638
 21
505.0299852
 31
0.0
  0
LINE
  8
0
  6
CONTINUOUS
 62
     1
 10
945.5998996
 20
478.0299852
 30
0.0
 11
945.5998996
 21
500.0299852
 31
0.0
  0
LINE
  8
0
  6
CONTINUOUS
 62
     1
 10
945.5998996
 20
478.0299852
 30
0.0
 11
954.260153638
 21
473.0299852
 31
0.0
  0
LINE
  8
0
  6
CONTINUOUS
 62
     1
 10
910.625007504
 20
531.0299852
 30
0.0
 11
910.625007504
 21
491.0299852
 31
0.0
  0
LINE
  8
0
  6
LTYPE3
 62
     2
 10
920.325007504
 20
516.2174852
 30
0.0
 11
920.325007504
 21
476.2299852
 31
0.0
  0
LINE
  8
0
  6
CONTINUOUS
 62
     1
 10
928.325007504
 20
531.0299852
 30
0.0
 11
928.325007504
 21
537.0299852
 31
0.0
  0
LINE
  8
0
  6
CONTINUOUS
 62
     1
 10
879.325007504
 20
476.0299852
 30
0.0
 11
879.325007504
 21
491.0299852
 31
0.0
  0
LINE
  8
0
  6
CONTINUOUS
 62
     1
 10
889.325007504
 20
596.6799852
 30
0.0
 11
889.325007504
 21
683.5299852
 31
0.0
  0
LINE
  8
0
  6
CONTINUOUS
 62
     1
 10
897.325007504
 20
596.6799852
 30
0.0
 11
897.325007504
 21
683.5299852
 31
0.0
  0
LINE
  8
0
  6
CONTINUOUS
 62
     1
 10
900.325007504
 20
596.6799852
 30
0.0
 11
886.325007504
 21
596.6799852
 31
0.0
  0
LINE
  8
0
  6
CONTINUOUS
 62
     1
 10
837.325007504
 20
596.6799852
 30
0.0
 11
837.325007504
 21
683.5299852
 31
0.0
  0
LINE
  8
0
  6
CONTINUOUS
 62
     1
 10
829.325007504
 20
596.6799852
 30
0.0
 11
829.325007504
 21
683.5299852
 31
0.0
  0
LINE
  8
0
  6
CONTINUOUS
 62
     1
 10
826.325007504
 20
596.6799852
 30
0.0
 11
840.325007504
 21
596.6799852
 31
0.0
  0
ARC
  8
0
  6
CONTINUOUS
 62
     1
 10
833.325007504
 20
683.5299852
 30
0.0
 40
4.0
 50
0.0
 51
180.0
  0
ARC
  8
0
  6
CONTINUOUS
 62
     1
 10
893.325007504
 20
683.5299852
 30
0.0
 40
4.0
 50
0.0
 51
180.0
  0
LINE
  8
0
  6
CONTINUOUS
 62
     1
 10
826.325007504
 20
566.6799852
 30
0.0
 11
840.325007504
 21
566.6799852
 31
0.0
  0
LINE
  8
0
  6
CONTINUOUS
 62
     1
 10
900.325007504
 20
566.6799852
 30
0.0
 11
886.325007504
 21
566.6799852
 31
0.0
  0
LINE
  8
0
  6
CONTINUOUS
 62
     1
 10
1019.0999996
 20
476.0299852
 30
0.0
 11
1019.0999996
 21
672.0299852
 31
0.0
  0
LINE
  8
0
  6
CONTINUOUS
 62
     1
 10
1019.0999996
 20
672.0299852
 30
0.0
 11
1003.0999996
 21
672.0299852
 31
0.0
  0
LINE
  8
0
  6
CONTINUOUS
 62
     1
 10
1003.0999996
 20
672.0299852
 30
0.0
 11
1003.0999996
 21
476.0299852
 31
0.0
  0
CIRCLE
  8
0
  6
CONTINUOUS
 62
     2
 10
966.5998996
 20
489.0299852
 30
0.0
 40
5.0
  0
CIRCLE
  8
0
  6
CONTINUOUS
 62
     2
 10
966.5998996
 20
489.0299852
 30
0.0
 40
4.0
  0
LINE
  8
0
  6
CONTINUOUS
 62
     1
 10
954.2498996
 20
505.0299852
 30
0.0
 11
978.9498996
 21
505.0299852
 31
0.0
  0
LINE
  8
0
  6
CONTINUOUS
 62
     1
 10
954.2498996
 20
473.0299852
 30
0.0
 11
954.2498996
 21
505.0299852
 31
0.0
  0
LINE
  8
0
  6
CONTINUOUS
 62
     1
 10
954.2498996
 20
473.0299852
 30
0.0
 11
978.9498996
 21
473.0299852
 31
0.0
  0
LINE
  8
0
  6
LTYPE3
 62
     2
 10
966.5998996
 20
479.0299852
 30
0.0
 11
966.5998996
 21
499.0299852
 31
0.0
  0
LINE
  8
0
  6
CONTINUOUS
 62
     1
 10
978.9498996
 20
473.0299852
 30
0.0
 11
978.9498996
 21
505.0299852
 31
0.0
  0
LINE
  8
0
  6
CONTINUOUS
 62
     1
 10
987.5998996
 20
500.0299852
 30
0.0
 11
978.939645562
 21
505.0299852
 31
0.0
  0
LINE
  8
0
  6
CONTINUOUS
 62
     1
 10
987.5998996
 20
483.0299852
 30
0.0
 11
1003.0999996
 21
483.0299852
 31
0.0
  0
LINE
  8
0
  6
CONTINUOUS
 62
     1
 10
987.5998996
 20
495.0299852
 30
0.0
 11
1003.0999996
 21
495.0299852
 31
0.0
  0
LINE
  8
0
  6
CONTINUOUS
 62
     1
 10
987.5998996
 20
478.0299852
 30
0.0
 11
987.5998996
 21
500.0299852
 31
0.0
  0
LINE
  8
0
  6
CONTINUOUS
 62
     2
 10
984.9498996
 20
473.0299852
 30
0.0
 11
1210.08
 21
473.0299852
 31
0.0
  0
LINE
  8
0
  6
CONTINUOUS
 62
     1
 10
987.5998996
 20
478.0299852
 30
0.0
 11
978.939645562
 21
473.0299852
 31
0.0
  0
LINE
  8
0
  6
CONTINUOUS
 62
     1
 10
1003.0999996
 20
476.0299852
 30
0.0
 11
1019.0999996
 21
476.0299852
 31
0.0
  0
LINE
  8
0
  6
CONTINUOUS
 62
     1
 10
1019.0999996
 20
499.8299852
 30
0.0
 11
1019.0999996
 21
478.2299852
 31
0.0
  0
LINE
  8
0
  6
LTYPE3
 62
     2
 10
1015.0999996
 20
489.0299852
 30
0.0
 11
1042.3999996
 21
489.0299852
 31
0.0
  0
LINE
  8
0
  6
CONTINUOUS
 62
     1
 10
1037.1999996
 20
495.0299852
 30
0.0
 11
1032.8999996
 21
495.0299852
 31
0.0
  0
LINE
  8
0
  6
CONTINUOUS
 62
     1
 10
1038.8999996
 20
484.7299852
 30
0.0
 11
1038.8999996
 21
493.3299852
 31
0.0
  0
LINE
  8
0
  6
CONTINUOUS
 62
     1
 10
1037.1999996
 20
495.0299852
 30
0.0
 11
1037.1999996
 21
483.0299852
 31
0.0
  0
LINE
  8
0
  6
CONTINUOUS
 62
     1
 10
1038.8999996
 20
493.3299852
 30
0.0
 11
1037.1999996
 21
495.0299852
 31
0.0
  0
LINE
  8
0
  6
CONTINUOUS
 62
     2
 10
1038.3999996
 20
493.8299852
 30
0.0
 11
1032.8999996
 21
493.8299852
 31
0.0
  0
LINE
  8
0
  6
CONTINUOUS
 62
     1
 10
1037.1999996
 20
483.0299852
 30
0.0
 11
1032.8999996
 21
483.0299852
 31
0.0
  0
LINE
  8
0
  6
CONTINUOUS
 62
     1
 10
1038.8999996
 20
484.7299852
 30
0.0
 11
1037.1999996
 21
483.0299852
 31
0.0
  0
LINE
  8
0
  6
CONTINUOUS
 62
     2
 10
1038.3999996
 20
484.2299852
 30
0.0
 11
1032.8999996
 21
484.2299852
 31
0.0
  0
LINE
  8
0
  6
CONTINUOUS
 62
     1
 10
1019.0999996
 20
478.2299852
 30
0.0
 11
1022.0999996
 21
478.2299852
 31
0.0
  0
LINE
  8
0
  6
CONTINUOUS
 62
     1
 10
1022.0999996
 20
478.2299852
 30
0.0
 11
1022.0999996
 21
499.8299852
 31
0.0
  0
LINE
  8
0
  6
CONTINUOUS
 62
     1
 10
1022.0999996
 20
499.8299852
 30
0.0
 11
1019.0999996
 21
499.8299852
 31
0.0
  0
LINE
  8
0
  6
CONTINUOUS
 62
     1
 10
1019.0999996
 20
489.0299852
 30
0.0
 11
1022.0999996
 21
486.0299852
 31
0.0
  0
LINE
  8
0
  6
CONTINUOUS
 62
     1
 10
1019.0999996
 20
492.0299852
 30
0.0
 11
1022.0999996
 21
489.0299852
 31
0.0
  0
LINE
  8
0
  6
CONTINUOUS
 62
     1
 10
1023.0999996
 20
499.4299852
 30
0.0
 11
1031.8999996
 21
499.4299852
 31
0.0
  0
LINE
  8
0
  6
CONTINUOUS
 62
     1
 10
1023.0999996
 20
478.6299852
 30
0.0
 11
1031.8999996
 21
478.6299852
 31
0.0
  0
LINE
  8
0
  6
CONTINUOUS
 62
     1
 10
1023.0999996
 20
483.8299852
 30
0.0
 11
1031.8999996
 21
483.8299852
 31
0.0
  0
LINE
  8
0
  6
CONTINUOUS
 62
     1
 10
1023.0999996
 20
494.2299852
 30
0.0
 11
1031.8999996
 21
494.2299852
 31
0.0
  0
LINE
  8
0
  6
CONTINUOUS
 62
     1
 10
1032.8999996
 20
496.8299852
 30
0.0
 11
1032.8999996
 21
481.2299852
 31
0.0
  0
ARC
  8
0
  6
CONTINUOUS
 62
     1
 10
1028.9999996
 20
481.2299852
 30
0.0
 40
3.9
 50
317.9
 51
42.1
  0
ARC
  8
0
  6
CONTINUOUS
 62
     1
 10
1018.8999996
 20
489.0299852
 30
0.0
 40
14.0
 50
338.2
 51
21.8
  0
ARC
  8
0
  6
CONTINUOUS
 62
     1
 10
1028.9999996
 20
496.8299852
 30
0.0
 40
3.9
 50
317.9
 51
42.1
  0
ARC
  8
0
  6
CONTINUOUS
 62
     1
 10
1025.9999996
 20
496.8299852
 30
0.0
 40
3.9
 50
137.9
 51
222.1
  0
ARC
  8
0
  6
CONTINUOUS
 62
     1
 10
1036.0999996
 20
489.0299852
 30
0.0
 40
14.0
 50
158.2
 51
201.8
  0
ARC
  8
0
  6
CONTINUOUS
 62
     1
 10
1025.9999996
 20
481.2299852
 30
0.0
 40
3.9
 50
137.9
 51
222.1
  0
LINE
  8
0
  6
CONTINUOUS
 62
     2
 10
1204.08
 20
622.0299852
 30
0.0
 11
1200.974171459
 21
610.438875285
 31
0.0
  0
LINE
  8
0
  6
CONTINUOUS
 62
     2
 10
1204.08
 20
622.0299852
 30
0.0
 11
1207.185828541
 21
610.438875285
 31
0.0
  0
LINE
  8
0
  6
CONTINUOUS
 62
     2
 10
1204.08
 20
622.0299852
 30
0.0
 11
1204.08
 21
473.0299852
 31
0.0
  0
LINE
  8
0
  6
CONTINUOUS
 62
     2
 10
1204.08
 20
473.0299852
 30
0.0
 11
1207.185828541
 21
484.621095115
 31
0.0
  0
LINE
  8
0
  6
CONTINUOUS
 62
     2
 10
1204.08
 20
473.0299852
 30
0.0
 11
1200.974171459
 21
484.621095115
 31
0.0
  0
TEXT
  8
0
  6
CONTINUOUS
 62
     3
 10
1195.08
 20
523.2299852
 30
0.0
 40
18.0
  1
１４９
 50
90.0
 41
0.9
 51
0.0
  7
KANJI41
  0
LINE
  8
0
  6
CONTINUOUS
 62
     2
 10
1177.0498996
 20
622.0299852
 30
0.0
 11
1210.08
 21
622.0299852
 31
0.0
  0
CIRCLE
  8
0
  6
CONTINUOUS
 62
     1
 10
1089.0999996
 20
622.0299852
 30
0.0
 40
28.0
  0
CIRCLE
  8
0
  6
CONTINUOUS
 62
     1
 10
1089.0999996
 20
639.5299852
 30
0.0
 40
2.5
  0
LINE
  8
0
  6
CONTINUOUS
 62
     1
 10
1093.2999996
 20
602.7299852
 30
0.0
 11
1091.2999996
 21
602.4299852
 31
0.0
  0
LINE
  8
0
  6
CONTINUOUS
 62
     1
 10
1091.035384215
 20
605.560754431
 30
0.0
 11
1093.2999996
 21
602.7299852
 31
0.0
  0
LINE
  8
0
  6
CONTINUOUS
 62
     1
 10
1089.0999996
 20
605.1299852
 30
0.0
 11
1091.2999996
 21
602.4299852
 31
0.0
  0
LINE
  8
0
  6
CONTINUOUS
 62
     1
 10
1090.7999996
 20
607.1299852
 30
0.0
 11
1091.035384215
 21
605.560754431
 31
0.0
  0
LINE
  8
0
  6
CONTINUOUS
 62
     1
 10
1089.0999996
 20
605.1299852
 30
0.0
 11
1086.8999996
 21
602.4299852
 31
0.0
  0
LINE
  8
0
  6
CONTINUOUS
 62
     1
 10
1087.3999996
 20
607.1299852
 30
0.0
 11
1087.164614985
 21
605.560754431
 31
0.0
  0
LINE
  8
0
  6
CONTINUOUS
 62
     1
 10
1084.8999996
 20
602.7299852
 30
0.0
 11
1086.8999996
 21
602.4299852
 31
0.0
  0
LINE
  8
0
  6
CONTINUOUS
 62
     1
 10
1087.164614985
 20
605.560754431
 30
0.0
 11
1084.8999996
 21
602.7299852
 31
0.0
  0
LINE
  8
0
  6
CONTINUOUS
 62
     1
 10
974.0999996
 20
659.5299852
 30
0.0
 11
1003.0999996
 21
659.5299852
 31
0.0
  0
LINE
  8
0
  6
CONTINUOUS
 62
     1
 10
974.0999996
 20
584.5299852
 30
0.0
 11
1003.0999996
 21
584.5299852
 31
0.0
  0
LINE
  8
0
  6
CONTINUOUS
 62
     1
 10
897.325007504
 20
679.0299852
 30
0.0
 11
974.0999996
 21
679.0299852
 31
0.0
  0
LINE
  8
0
  6
CONTINUOUS
 62
     1
 10
837.325007504
 20
679.0299852
 30
0.0
 11
889.325007504
 21
679.0299852
 31
0.0
  0
LINE
  8
0
  6
CONTINUOUS
 62
     1
 10
829.325007504
 20
679.0299852
 30
0.0
 11
607.4999996
 21
679.0299852
 31
0.0
  0
LINE
  8
0
  6
CONTINUOUS
 62
     1
 10
909.0999996
 20
565.0299852
 30
0.0
 11
909.0999996
 21
679.0299852
 31
0.0
  0
LINE
  8
0
  6
CONTINUOUS
 62
     1
 10
900.325007504
 20
565.0299852
 30
0.0
 11
974.0999996
 21
565.0299852
 31
0.0
  0
LINE
  8
0
  6
CONTINUOUS
 62
     1
 10
840.325007504
 20
565.0299852
 30
0.0
 11
886.325007504
 21
565.0299852
 31
0.0
  0
LINE
  8
0
  6
CONTINUOUS
 62
     1
 10
826.325007504
 20
565.0299852
 30
0.0
 11
607.4999996
 21
565.0299852
 31
0.0
  0
LINE
  8
2
  6
CONTINUOUS
 62
     2
 10
655.1999996
 20
565.0299852
 30
0.0
 11
655.1999996
 21
679.0299852
 31
0.0
  0
LINE
  8
2
  6
CONTINUOUS
 62
     2
 10
655.1999996
 20
679.0299852
 30
0.0
 11
651.317713923
 21
664.541097806
 31
0.0
  0
LINE
  8
2
  6
CONTINUOUS
 62
     2
 10
655.1999996
 20
679.0299852
 30
0.0
 11
659.082285277
 21
664.541097806
 31
0.0
  0
TEXT
  8
2
  6
CONTINUOUS
 62
     2
 10
649.1999996
 20
580.9299852
 30
1.8
 40
21.0
  1
φ１１４
 50
90.0
 41
0.914285714
 51
0.0
  7
KANJI42
  0
LINE
  8
2
  6
CONTINUOUS
 62
     2
 10
655.1999996
 20
565.0299852
 30
0.0
 11
659.082285277
 21
579.518872594
 31
0.0
  0
LINE
  8
2
  6
CONTINUOUS
 62
     2
 10
655.1999996
 20
565.0299852
 30
0.0
 11
651.317713923
 21
579.518872594
 31
0.0
  0
LINE
  8
0
  6
LTYPE2
 62
     2
 10
626.5399996
 20
622.0299852
 30
0.0
 11
217.0999996
 21
622.0299852
 31
0.0
  0
LINE
  8
0
  6
LTYPE2
 62
     2
 10
1137.4999996
 20
622.0299852
 30
0.0
 11
660.8099996
 21
622.0299852
 31
0.0
  0
LINE
  8
0
  6
CONTINUOUS
 62
     1
 10
518.175007504
 20
500.0299852
 30
0.0
 11
526.835261542
 21
505.0299852
 31
0.0
  0
LINE
  8
0
  6
CONTINUOUS
 62
     1
 10
526.825007504
 20
505.0299852
 30
0.0
 11
551.525007504
 21
505.0299852
 31
0.0
  0
LINE
  8
0
  6
CONTINUOUS
 62
     1
 10
560.175007504
 20
500.0299852
 30
0.0
 11
551.514753466
 21
505.0299852
 31
0.0
  0
LINE
  8
0
  6
CONTINUOUS
 62
     1
 10
504.675007504
 20
496.4799852
 30
0.0
 11
518.175007504
 21
496.4799852
 31
0.0
  0
LINE
  8
0
  6
CONTINUOUS
 62
     1
 10
504.675007504
 20
496.4799852
 30
0.0
 11
504.675007504
 21
481.5799852
 31
0.0
  0
LINE
  8
0
  6
CONTINUOUS
 62
     1
 10
521.639109119
 20
502.0299852
 30
0.0
 11
450.4999996
 21
502.0299852
 31
0.0
  0
LINE
  8
0
  6
CONTINUOUS
 62
     1
 10
577.4999996
 20
502.0299852
 30
0.0
 11
556.710905889
 21
502.0299852
 31
0.0
  0
LINE
  8
0
  6
CONTINUOUS
 62
     1
 10
519.907058311
 20
501.0299852
 30
0.0
 11
453.5999996
 21
501.0299852
 31
0.0
  0
LINE
  8
0
  6
CONTINUOUS
 62
     1
 10
574.4999996
 20
501.0299852
 30
0.0
 11
558.442956696
 21
501.0299852
 31
0.0
  0
LINE
  8
0
  6
CONTINUOUS
 62
     1
 10
465.2799996
 20
501.0299852
 30
0.0
 11
454.6799996
 21
501.0299852
 31
0.0
  0
ARC
  8
0
  6
CONTINUOUS
 62
     1
 10
460.3799996
 20
502.0299852
 30
0.0
 40
5.0
 50
272.3
 51
348.5
  0
ARC
  8
0
  6
CONTINUOUS
 62
     1
 10
459.5799996
 20
502.0299852
 30
0.0
 40
5.0
 50
191.5
 51
267.7
  0
LINE
  8
0
  6
CONTINUOUS
 62
     1
 10
460.5799996
 20
497.0299852
 30
0.0
 11
459.3799996
 21
497.0299852
 31
0.0
  0
LINE
  8
0
  6
LTYPE4
 62
     2
 10
459.9799996
 20
493.6299852
 30
0.0
 11
459.9799996
 21
507.0299852
 31
0.0
  0
LINE
  8
0
  6
CONTINUOUS
 62
     1
 10
574.2999996
 20
501.0299852
 30
0.0
 11
563.6999996
 21
501.0299852
 31
0.0
  0
ARC
  8
0
  6
CONTINUOUS
 62
     1
 10
569.3999996
 20
502.0299852
 30
0.0
 40
5.0
 50
272.3
 51
348.5
  0
ARC
  8
0
  6
CONTINUOUS
 62
     1
 10
568.5999996
 20
502.0299852
 30
0.0
 40
5.0
 50
191.5
 51
267.7
  0
LINE
  8
0
  6
CONTINUOUS
 62
     1
 10
569.5999996
 20
497.0299852
 30
0.0
 11
568.3999996
 21
497.0299852
 31
0.0
  0
LINE
  8
0
  6
LTYPE4
 62
     2
 10
568.9999996
 20
493.6299852
 30
0.0
 11
568.9999996
 21
507.0299852
 31
0.0
  0
LINE
  8
0
  6
CONTINUOUS
 62
     2
 10
1019.0999996
 20
466.3899852
 30
0.0
 11
1019.0999996
 21
376.0299852
 31
0.0
  0
LINE
  8
0
  6
CONTINUOUS
 62
     1
 10
1225.575007504
 20
239.663959796
 30
0.0
 11
1225.575007504
 21
174.963959796
 31
0.0
  0
LINE
  8
0
  6
CONTINUOUS
 62
     1
 10
1227.575007504
 20
172.963959796
 30
0.0
 11
1263.575007504
 21
172.963959796
 31
0.0
  0
ARC
  8
0
  6
CONTINUOUS
 62
     1
 10
1227.575007504
 20
174.963959796
 30
0.0
 40
2.0
 50
180.0
 51
270.0
  0
LINE
  8
0
  6
CONTINUOUS
 62
     1
 10
1265.575007504
 20
239.663959796
 30
0.0
 11
1265.575007504
 21
174.963959796
 31
0.0
  0
ARC
  8
0
  6
CONTINUOUS
 62
     1
 10
1263.575007504
 20
174.963959796
 30
0.0
 40
2.0
 50
270.0
 51
0.0
  0
ARC
  8
0
  6
CONTINUOUS
 62
     1
 10
1227.575007504
 20
239.663959796
 30
0.0
 40
2.0
 50
90.0
 51
180.0
  0
LINE
  8
0
  6
CONTINUOUS
 62
     1
 10
1232.875007504
 20
265.063959796
 30
0.0
 11
1232.875007504
 21
241.663959796
 31
0.0
  0
LINE
  8
0
  6
CONTINUOUS
 62
     1
 10
1227.575007504
 20
241.663959796
 30
0.0
 11
1263.575007504
 21
241.663959796
 31
0.0
  0
ARC
  8
0
  6
CONTINUOUS
 62
     1
 10
1263.575007504
 20
239.663959796
 30
0.0
 40
2.0
 50
0.0
 51
90.0
  0
ARC
  8
0
  6
CONTINUOUS
 62
     1
 10
1234.875007504
 20
265.063959796
 30
0.0
 40
2.0
 50
90.0
 51
180.0
  0
ARC
  8
0
  6
CONTINUOUS
 62
     1
 10
1245.575007504
 20
251.363959796
 30
0.0
 40
6.0
 50
131.983045121
 51
318.016954879
  0
LINE
  8
0
  6
LTYPE3
 62
     2
 10
1239.140335795
 20
244.929288087
 30
0.0
 11
1279.798975713
 21
285.587928006
 31
0.0
  0
LINE
  8
0
  6
CONTINUOUS
 62
     1
 10
1241.561544004
 20
255.824017053
 30
0.0
 11
1269.769422855
 21
281.207388986
 31
0.0
  0
LINE
  8
0
  6
CONTINUOUS
 62
     1
 10
1250.03506476
 20
247.350496296
 30
0.0
 11
1275.418436693
 21
275.558375148
 31
0.0
  0
LINE
  8
0
  6
LTYPE3
 62
     2
 10
1280.223239782
 20
270.455842888
 30
0.0
 11
1263.959783815
 21
286.719298856
 31
0.0
  0
ARC
  8
0
  6
CONTINUOUS
 62
     1
 10
1272.445065189
 20
278.234017481
 30
0.0
 40
8.75
 50
255.219855722
 51
194.780144278
  0
ARC
  8
0
  6
CONTINUOUS
 62
     1
 10
1272.445065189
 20
278.234017481
 30
0.0
 40
4.0
 50
311.983042101
 51
138.016952287
  0
LINE
  8
0
  6
CONTINUOUS
 62
     1
 10
1258.275007504
 20
256.507329646
 30
0.0
 11
1258.275007504
 21
241.663959796
 31
0.0
  0
LINE
  8
0
  6
CONTINUOUS
 62
     1
 10
1234.875007504
 20
267.063959796
 30
0.0
 11
1254.052199069
 21
267.063959796
 31
0.0
  0
LINE
  8
0
  6
LTYPE2
 62
     2
 10
1230.700007504
 20
218.163959796
 30
0.0
 11
1260.700007504
 21
218.163959796
 31
0.0
  0
LINE
  8
0
  6
LTYPE2
 62
     2
 10
1260.700007504
 20
218.163959796
 30
0.0
 11
1260.700007504
 21
227.663959796
 31
0.0
  0
LINE
  8
0
  6
LTYPE2
 62
     2
 10
1260.700007504
 20
227.663959796
 30
0.0
 11
1230.700007504
 21
227.663959796
 31
0.0
  0
LINE
  8
0
  6
LTYPE2
 62
     2
 10
1230.700007504
 20
227.663959796
 30
0.0
 11
1230.700007504
 21
218.163959796
 31
0.0
  0
LINE
  8
0
  6
CONTINUOUS
 62
     1
 10
1230.700007504
 20
188.163959796
 30
0.0
 11
1260.700007504
 21
188.163959796
 31
0.0
  0
LINE
  8
0
  6
CONTINUOUS
 62
     1
 10
1260.700007504
 20
188.163959796
 30
0.0
 11
1260.700007504
 21
197.663959796
 31
0.0
  0
LINE
  8
0
  6
CONTINUOUS
 62
     1
 10
1260.700007504
 20
197.663959796
 30
0.0
 11
1230.700007504
 21
197.663959796
 31
0.0
  0
LINE
  8
0
  6
CONTINUOUS
 62
     1
 10
1230.700007504
 20
197.663959796
 30
0.0
 11
1230.700007504
 21
188.163959796
 31
0.0
  0
TEXT
  8
0
  6
CONTINUOUS
 62
     2
 10
1229.475007504
 20
230.963959796
 30
0.0
 40
10.0
  1
４
 50
0.0
 41
0.85
 51
0.0
  7
KANJI43
  0
TEXT
  8
0
  6
CONTINUOUS
 62
     2
 10
1254.475007504
 20
230.963959796
 30
0.0
 40
10.0
  1
３
 50
0.0
 41
0.85
 51
0.0
  7
KANJI43
  0
POLYLINE
  8
0
  6
CONTINUOUS
 62
     2
 66
     1
 70
     1
  0
VERTEX
  8
0
  6
CONTINUOUS
 62
     2
 10
1240.475007504
 20
230.213959796
 30
0.0
 42
0.021820078
  0
VERTEX
  8
0
  6
CONTINUOUS
 62
     2
 10
1240.466445574
 20
230.410060217
 30
0.0
 42
0.021820078
  0
VERTEX
  8
0
  6
CONTINUOUS
 62
     2
 10
1240.440824948
 20
230.604668196
 30
0.0
 42
0.021820078
  0
VERTEX
  8
0
  6
CONTINUOUS
 62
     2
 10
1240.398340613
 20
230.796302648
 30
0.0
 42
0.021820078
  0
VERTEX
  8
0
  6
CONTINUOUS
 62
     2
 10
1240.3393159
 20
230.983505119
 30
0.0
 42
0.021820078
  0
VERTEX
  8
0
  6
CONTINUOUS
 62
     2
 10
1240.264200025
 20
231.164850885
 30
0.0
 42
0.021820078
  0
VERTEX
  8
0
  6
CONTINUOUS
 62
     2
 10
1240.173564662
 20
231.338959796
 30
0.0
 42
0.021820078
  0
VERTEX
  8
0
  6
CONTINUOUS
 62
     2
 10
1240.068099603
 20
231.504506778
 30
0.0
 42
0.021820078
  0
VERTEX
  8
0
  6
CONTINUOUS
 62
     2
 10
1239.948607501
 20
231.660231918
 30
0.0
 42
0.021820078
  0
VERTEX
  8
0
  6
CONTINUOUS
 62
     2
 10
1239.815997761
 20
231.804950054
 30
0.0
 42
0.021820078
  0
VERTEX
  8
0
  6
CONTINUOUS
 62
     2
 10
1239.671279626
 20
231.937559793
 30
0.0
 42
0.021820078
  0
VERTEX
  8
0
  6
CONTINUOUS
 62
     2
 10
1239.515554485
 20
232.057051896
 30
0.0
 42
0.021820078
  0
VERTEX
  8
0
  6
CONTINUOUS
 62
     2
 10
1239.350007504
 20
232.162516955
 30
0.0
 42
0.021820078
  0
VERTEX
  8
0
  6
CONTINUOUS
 62
     2
 10
1239.175898593
 20
232.253152317
 30
0.0
 42
0.021820078
  0
VERTEX
  8
0
  6
CONTINUOUS
 62
     2
 10
1238.994552826
 20
232.328268193
 30
0.0
 42
0.021820078
  0
VERTEX
  8
0
  6
CONTINUOUS
 62
     2
 10
1238.807350355
 20
232.387292905
 30
0.0
 42
0.021820078
  0
VERTEX
  8
0
  6
CONTINUOUS
 62
     2
 10
1238.615715903
 20
232.42977724
 30
0.0
 42
0.021820078
  0
VERTEX
  8
0
  6
CONTINUOUS
 62
     2
 10
1238.421107925
 20
232.455397867
 30
0.0
 42
0.021820078
  0
VERTEX
  8
0
  6
CONTINUOUS
 62
     2
 10
1238.225007504
 20
232.463959796
 30
0.0
 42
0.021820078
  0
VERTEX
  8
0
  6
CONTINUOUS
 62
     2
 10
1238.028907083
 20
232.455397867
 30
0.0
 42
0.021820078
  0
VERTEX
  8
0
  6
CONTINUOUS
 62
     2
 10
1237.834299104
 20
232.42977724
 30
0.0
 42
0.021820078
  0
VERTEX
  8
0
  6
CONTINUOUS
 62
     2
 10
1237.642664652
 20
232.387292905
 30
0.0
 42
0.021820078
  0
VERTEX
  8
0
  6
CONTINUOUS
 62
     2
 10
1237.455462181
 20
232.328268193
 30
0.0
 42
0.021820078
  0
VERTEX
  8
0
  6
CONTINUOUS
 62
     2
 10
1237.274116415
 20
232.253152317
 30
0.0
 42
0.021820078
  0
VERTEX
  8
0
  6
CONTINUOUS
 62
     2
 10
1237.100007504
 20
232.162516955
 30
0.0
 42
0.021820078
  0
VERTEX
  8
0
  6
CONTINUOUS
 62
     2
 10
1236.934460522
 20
232.057051896
 30
0.0
 42
0.021820078
  0
VERTEX
  8
0
  6
CONTINUOUS
 62
     2
 10
1236.778735382
 20
231.937559793
 30
0.0
 42
0.021820078
  0
VERTEX
  8
0
  6
CONTINUOUS
 62
     2
 10
1236.634017246
 20
231.804950054
 30
0.0
 42
0.021820078
  0
VERTEX
  8
0
  6
CONTINUOUS
 62
     2
 10
1236.501407507
 20
231.660231918
 30
0.0
 42
0.021820078
  0
VERTEX
  8
0
  6
CONTINUOUS
 62
     2
 10
1236.381915404
 20
231.504506778
 30
0.0
 42
0.021820078
  0
VERTEX
  8
0
  6
CONTINUOUS
 62
     2
 10
1236.276450345
 20
231.338959796
 30
0.0
 42
0.021820078
  0
VERTEX
  8
0
  6
CONTINUOUS
 62
     2
 10
1236.185814983
 20
231.164850885
 30
0.0
 42
0.021820078
  0
VERTEX
  8
0
  6
CONTINUOUS
 62
     2
 10
1236.110699107
 20
230.983505119
 30
0.0
 42
0.021820078
  0
VERTEX
  8
0
  6
CONTINUOUS
 62
     2
 10
1236.051674395
 20
230.796302648
 30
0.0
 42
0.021820078
  0
VERTEX
  8
0
  6
CONTINUOUS
 62
     2
 10
1236.009190059
 20
230.604668196
 30
0.0
 42
0.021820078
  0
VERTEX
  8
0
  6
CONTINUOUS
 62
     2
 10
1235.983569433
 20
230.410060217
 30
0.0
 42
0.021820078
  0
VERTEX
  8
0
  6
CONTINUOUS
 62
     2
 10
1235.975007504
 20
230.213959796
 30
0.0
 42
0.021820078
  0
VERTEX
  8
0
  6
CONTINUOUS
 62
     2
 10
1235.983569433
 20
230.017859375
 30
0.0
 42
0.021820078
  0
VERTEX
  8
0
  6
CONTINUOUS
 62
     2
 10
1236.009190059
 20
229.823251396
 30
0.0
 42
0.021820078
  0
VERTEX
  8
0
  6
CONTINUOUS
 62
     2
 10
1236.051674395
 20
229.631616945
 30
0.0
 42
0.021820078
  0
VERTEX
  8
0
  6
CONTINUOUS
 62
     2
 10
1236.110699107
 20
229.444414474
 30
0.0
 42
0.021820078
  0
VERTEX
  8
0
  6
CONTINUOUS
 62
     2
 10
1236.185814983
 20
229.263068707
 30
0.0
 42
0.021820078
  0
VERTEX
  8
0
  6
CONTINUOUS
 62
     2
 10
1236.276450345
 20
229.088959796
 30
0.0
 42
0.021820078
  0
VERTEX
  8
0
  6
CONTINUOUS
 62
     2
 10
1236.381915404
 20
228.923412814
 30
0.0
 42
0.021820078
  0
VERTEX
  8
0
  6
CONTINUOUS
 62
     2
 10
1236.501407507
 20
228.767687674
 30
0.0
 42
0.021820078
  0
VERTEX
  8
0
  6
CONTINUOUS
 62
     2
 10
1236.634017246
 20
228.622969539
 30
0.0
 42
0.021820078
  0
VERTEX
  8
0
  6
CONTINUOUS
 62
     2
 10
1236.778735382
 20
228.490359799
 30
0.0
 42
0.021820078
  0
VERTEX
  8
0
  6
CONTINUOUS
 62
     2
 10
1236.934460522
 20
228.370867697
 30
0.0
 42
0.021820078
  0
VERTEX
  8
0
  6
CONTINUOUS
 62
     2
 10
1237.100007504
 20
228.265402638
 30
0.0
 42
0.021820078
  0
VERTEX
  8
0
  6
CONTINUOUS
 62
     2
 10
1237.274116415
 20
228.174767275
 30
0.0
 42
0.021820078
  0
VERTEX
  8
0
  6
CONTINUOUS
 62
     2
 10
1237.455462181
 20
228.099651399
 30
0.0
 42
0.021820078
  0
VERTEX
  8
0
  6
CONTINUOUS
 62
     2
 10
1237.642664652
 20
228.040626687
 30
0.0
 42
0.021820078
  0
VERTEX
  8
0
  6
CONTINUOUS
 62
     2
 10
1237.834299104
 20
227.998142352
 30
0.0
 42
0.021820078
  0
VERTEX
  8
0
  6
CONTINUOUS
 62
     2
 10
1238.028907083
 20
227.972521726
 30
0.0
 42
0.021820078
  0
VERTEX
  8
0
  6
CONTINUOUS
 62
     2
 10
1238.225007504
 20
227.963959796
 30
0.0
 42
0.021820078
  0
VERTEX
  8
0
  6
CONTINUOUS
 62
     2
 10
1238.421107925
 20
227.972521726
 30
0.0
 42
0.021820078
  0
VERTEX
  8
0
  6
CONTINUOUS
 62
     2
 10
1238.615715903
 20
227.998142352
 30
0.0
 42
0.021820078
  0
VERTEX
  8
0
  6
CONTINUOUS
 62
     2
 10
1238.807350355
 20
228.040626687
 30
0.0
 42
0.021820078
  0
VERTEX
  8
0
  6
CONTINUOUS
 62
     2
 10
1238.994552826
 20
228.099651399
 30
0.0
 42
0.021820078
  0
VERTEX
  8
0
  6
CONTINUOUS
 62
     2
 10
1239.175898593
 20
228.174767275
 30
0.0
 42
0.021820078
  0
VERTEX
  8
0
  6
CONTINUOUS
 62
     2
 10
1239.350007504
 20
228.265402638
 30
0.0
 42
0.021820078
  0
VERTEX
  8
0
  6
CONTINUOUS
 62
     2
 10
1239.515554485
 20
228.370867697
 30
0.0
 42
0.021820078
  0
VERTEX
  8
0
  6
CONTINUOUS
 62
     2
 10
1239.671279626
 20
228.490359799
 30
0.0
 42
0.021820078
  0
VERTEX
  8
0
  6
CONTINUOUS
 62
     2
 10
1239.815997761
 20
228.622969539
 30
0.0
 42
0.021820078
  0
VERTEX
  8
0
  6
CONTINUOUS
 62
     2
 10
1239.948607501
 20
228.767687674
 30
0.0
 42
0.021820078
  0
VERTEX
  8
0
  6
CONTINUOUS
 62
     2
 10
1240.068099603
 20
228.923412814
 30
0.0
 42
0.021820078
  0
VERTEX
  8
0
  6
CONTINUOUS
 62
     2
 10
1240.173564662
 20
229.088959796
 30
0.0
 42
0.021820078
  0
VERTEX
  8
0
  6
CONTINUOUS
 62
     2
 10
1240.264200025
 20
229.263068707
 30
0.0
 42
0.021820078
  0
VERTEX
  8
0
  6
CONTINUOUS
 62
     2
 10
1240.3393159
 20
229.444414474
 30
0.0
 42
0.021820078
  0
VERTEX
  8
0
  6
CONTINUOUS
 62
     2
 10
1240.398340613
 20
229.631616945
 30
0.0
 42
0.021820078
  0
VERTEX
  8
0
  6
CONTINUOUS
 62
     2
 10
1240.440824948
 20
229.823251396
 30
0.0
 42
0.021820078
  0
VERTEX
  8
0
  6
CONTINUOUS
 62
     2
 10
1240.466445574
 20
230.017859375
 30
0.0
 42
0.021820078
  0
SEQEND
  8
0
  6
CONTINUOUS
 62
     2
  0
POLYLINE
  8
0
  6
CONTINUOUS
 62
     2
 66
     1
 70
     1
  0
VERTEX
  8
0
  6
CONTINUOUS
 62
     2
 10
1255.475007504
 20
230.213959796
 30
0.0
 42
0.021820078
  0
VERTEX
  8
0
  6
CONTINUOUS
 62
     2
 10
1255.466445574
 20
230.410060217
 30
0.0
 42
0.021820078
  0
VERTEX
  8
0
  6
CONTINUOUS
 62
     2
 10
1255.440824948
 20
230.604668196
 30
0.0
 42
0.021820078
  0
VERTEX
  8
0
  6
CONTINUOUS
 62
     2
 10
1255.398340613
 20
230.796302648
 30
0.0
 42
0.021820078
  0
VERTEX
  8
0
  6
CONTINUOUS
 62
     2
 10
1255.3393159
 20
230.983505119
 30
0.0
 42
0.021820078
  0
VERTEX
  8
0
  6
CONTINUOUS
 62
     2
 10
1255.264200025
 20
231.164850885
 30
0.0
 42
0.021820078
  0
VERTEX
  8
0
  6
CONTINUOUS
 62
     2
 10
1255.173564662
 20
231.338959796
 30
0.0
 42
0.021820078
  0
VERTEX
  8
0
  6
CONTINUOUS
 62
     2
 10
1255.068099603
 20
231.504506778
 30
0.0
 42
0.021820078
  0
VERTEX
  8
0
  6
CONTINUOUS
 62
     2
 10
1254.948607501
 20
231.660231918
 30
0.0
 42
0.021820078
  0
VERTEX
  8
0
  6
CONTINUOUS
 62
     2
 10
1254.815997761
 20
231.804950054
 30
0.0
 42
0.021820078
  0
VERTEX
  8
0
  6
CONTINUOUS
 62
     2
 10
1254.671279626
 20
231.937559793
 30
0.0
 42
0.021820078
  0
VERTEX
  8
0
  6
CONTINUOUS
 62
     2
 10
1254.515554485
 20
232.057051896
 30
0.0
 42
0.021820078
  0
VERTEX
  8
0
  6
CONTINUOUS
 62
     2
 10
1254.350007504
 20
232.162516955
 30
0.0
 42
0.021820078
  0
VERTEX
  8
0
  6
CONTINUOUS
 62
     2
 10
1254.175898593
 20
232.253152317
 30
0.0
 42
0.021820078
  0
VERTEX
  8
0
  6
CONTINUOUS
 62
     2
 10
1253.994552826
 20
232.328268193
 30
0.0
 42
0.021820078
  0
VERTEX
  8
0
  6
CONTINUOUS
 62
     2
 10
1253.807350355
 20
232.387292905
 30
0.0
 42
0.021820078
  0
VERTEX
  8
0
  6
CONTINUOUS
 62
     2
 10
1253.615715903
 20
232.42977724
 30
0.0
 42
0.021820078
  0
VERTEX
  8
0
  6
CONTINUOUS
 62
     2
 10
1253.421107925
 20
232.455397867
 30
0.0
 42
0.021820078
  0
VERTEX
  8
0
  6
CONTINUOUS
 62
     2
 10
1253.225007504
 20
232.463959796
 30
0.0
 42
0.021820078
  0
VERTEX
  8
0
  6
CONTINUOUS
 62
     2
 10
1253.028907083
 20
232.455397867
 30
0.0
 42
0.021820078
  0
VERTEX
  8
0
  6
CONTINUOUS
 62
     2
 10
1252.834299104
 20
232.42977724
 30
0.0
 42
0.021820078
  0
VERTEX
  8
0
  6
CONTINUOUS
 62
     2
 10
1252.642664652
 20
232.387292905
 30
0.0
 42
0.021820078
  0
VERTEX
  8
0
  6
CONTINUOUS
 62
     2
 10
1252.455462181
 20
232.328268193
 30
0.0
 42
0.021820078
  0
VERTEX
  8
0
  6
CONTINUOUS
 62
     2
 10
1252.274116415
 20
232.253152317
 30
0.0
 42
0.021820078
  0
VERTEX
  8
0
  6
CONTINUOUS
 62
     2
 10
1252.100007504
 20
232.162516955
 30
0.0
 42
0.021820078
  0
VERTEX
  8
0
  6
CONTINUOUS
 62
     2
 10
1251.934460522
 20
232.057051896
 30
0.0
 42
0.021820078
  0
VERTEX
  8
0
  6
CONTINUOUS
 62
     2
 10
1251.778735382
 20
231.937559793
 30
0.0
 42
0.021820078
  0
VERTEX
  8
0
  6
CONTINUOUS
 62
     2
 10
1251.634017246
 20
231.804950054
 30
0.0
 42
0.021820078
  0
VERTEX
  8
0
  6
CONTINUOUS
 62
     2
 10
1251.501407507
 20
231.660231918
 30
0.0
 42
0.021820078
  0
VERTEX
  8
0
  6
CONTINUOUS
 62
     2
 10
1251.381915404
 20
231.504506778
 30
0.0
 42
0.021820078
  0
VERTEX
  8
0
  6
CONTINUOUS
 62
     2
 10
1251.276450345
 20
231.338959796
 30
0.0
 42
0.021820078
  0
VERTEX
  8
0
  6
CONTINUOUS
 62
     2
 10
1251.185814983
 20
231.164850885
 30
0.0
 42
0.021820078
  0
VERTEX
  8
0
  6
CONTINUOUS
 62
     2
 10
1251.110699107
 20
230.983505119
 30
0.0
 42
0.021820078
  0
VERTEX
  8
0
  6
CONTINUOUS
 62
     2
 10
1251.051674395
 20
230.796302648
 30
0.0
 42
0.021820078
  0
VERTEX
  8
0
  6
CONTINUOUS
 62
     2
 10
1251.009190059
 20
230.604668196
 30
0.0
 42
0.021820078
  0
VERTEX
  8
0
  6
CONTINUOUS
 62
     2
 10
1250.983569433
 20
230.410060217
 30
0.0
 42
0.021820078
  0
VERTEX
  8
0
  6
CONTINUOUS
 62
     2
 10
1250.975007504
 20
230.213959796
 30
0.0
 42
0.021820078
  0
VERTEX
  8
0
  6
CONTINUOUS
 62
     2
 10
1250.983569433
 20
230.017859375
 30
0.0
 42
0.021820078
  0
VERTEX
  8
0
  6
CONTINUOUS
 62
     2
 10
1251.009190059
 20
229.823251396
 30
0.0
 42
0.021820078
  0
VERTEX
  8
0
  6
CONTINUOUS
 62
     2
 10
1251.051674395
 20
229.631616945
 30
0.0
 42
0.021820078
  0
VERTEX
  8
0
  6
CONTINUOUS
 62
     2
 10
1251.110699107
 20
229.444414474
 30
0.0
 42
0.021820078
  0
VERTEX
  8
0
  6
CONTINUOUS
 62
     2
 10
1251.185814983
 20
229.263068707
 30
0.0
 42
0.021820078
  0
VERTEX
  8
0
  6
CONTINUOUS
 62
     2
 10
1251.276450345
 20
229.088959796
 30
0.0
 42
0.021820078
  0
VERTEX
  8
0
  6
CONTINUOUS
 62
     2
 10
1251.381915404
 20
228.923412814
 30
0.0
 42
0.021820078
  0
VERTEX
  8
0
  6
CONTINUOUS
 62
     2
 10
1251.501407507
 20
228.767687674
 30
0.0
 42
0.021820078
  0
VERTEX
  8
0
  6
CONTINUOUS
 62
     2
 10
1251.634017246
 20
228.622969539
 30
0.0
 42
0.021820078
  0
VERTEX
  8
0
  6
CONTINUOUS
 62
     2
 10
1251.778735382
 20
228.490359799
 30
0.0
 42
0.021820078
  0
VERTEX
  8
0
  6
CONTINUOUS
 62
     2
 10
1251.934460522
 20
228.370867697
 30
0.0
 42
0.021820078
  0
VERTEX
  8
0
  6
CONTINUOUS
 62
     2
 10
1252.100007504
 20
228.265402638
 30
0.0
 42
0.021820078
  0
VERTEX
  8
0
  6
CONTINUOUS
 62
     2
 10
1252.274116415
 20
228.174767275
 30
0.0
 42
0.021820078
  0
VERTEX
  8
0
  6
CONTINUOUS
 62
     2
 10
1252.455462181
 20
228.099651399
 30
0.0
 42
0.021820078
  0
VERTEX
  8
0
  6
CONTINUOUS
 62
     2
 10
1252.642664652
 20
228.040626687
 30
0.0
 42
0.021820078
  0
VERTEX
  8
0
  6
CONTINUOUS
 62
     2
 10
1252.834299104
 20
227.998142352
 30
0.0
 42
0.021820078
  0
VERTEX
  8
0
  6
CONTINUOUS
 62
     2
 10
1253.028907083
 20
227.972521726
 30
0.0
 42
0.021820078
  0
VERTEX
  8
0
  6
CONTINUOUS
 62
     2
 10
1253.225007504
 20
227.963959796
 30
0.0
 42
0.021820078
  0
VERTEX
  8
0
  6
CONTINUOUS
 62
     2
 10
1253.421107925
 20
227.972521726
 30
0.0
 42
0.021820078
  0
VERTEX
  8
0
  6
CONTINUOUS
 62
     2
 10
1253.615715903
 20
227.998142352
 30
0.0
 42
0.021820078
  0
VERTEX
  8
0
  6
CONTINUOUS
 62
     2
 10
1253.807350355
 20
228.040626687
 30
0.0
 42
0.021820078
  0
VERTEX
  8
0
  6
CONTINUOUS
 62
     2
 10
1253.994552826
 20
228.099651399
 30
0.0
 42
0.021820078
  0
VERTEX
  8
0
  6
CONTINUOUS
 62
     2
 10
1254.175898593
 20
228.174767275
 30
0.0
 42
0.021820078
  0
VERTEX
  8
0
  6
CONTINUOUS
 62
     2
 10
1254.350007504
 20
228.265402638
 30
0.0
 42
0.021820078
  0
VERTEX
  8
0
  6
CONTINUOUS
 62
     2
 10
1254.515554485
 20
228.370867697
 30
0.0
 42
0.021820078
  0
VERTEX
  8
0
  6
CONTINUOUS
 62
     2
 10
1254.671279626
 20
228.490359799
 30
0.0
 42
0.021820078
  0
VERTEX
  8
0
  6
CONTINUOUS
 62
     2
 10
1254.815997761
 20
228.622969539
 30
0.0
 42
0.021820078
  0
VERTEX
  8
0
  6
CONTINUOUS
 62
     2
 10
1254.948607501
 20
228.767687674
 30
0.0
 42
0.021820078
  0
VERTEX
  8
0
  6
CONTINUOUS
 62
     2
 10
1255.068099603
 20
228.923412814
 30
0.0
 42
0.021820078
  0
VERTEX
  8
0
  6
CONTINUOUS
 62
     2
 10
1255.173564662
 20
229.088959796
 30
0.0
 42
0.021820078
  0
VERTEX
  8
0
  6
CONTINUOUS
 62
     2
 10
1255.264200025
 20
229.263068707
 30
0.0
 42
0.021820078
  0
VERTEX
  8
0
  6
CONTINUOUS
 62
     2
 10
1255.3393159
 20
229.444414474
 30
0.0
 42
0.021820078
  0
VERTEX
  8
0
  6
CONTINUOUS
 62
     2
 10
1255.398340613
 20
229.631616945
 30
0.0
 42
0.021820078
  0
VERTEX
  8
0
  6
CONTINUOUS
 62
     2
 10
1255.440824948
 20
229.823251396
 30
0.0
 42
0.021820078
  0
VERTEX
  8
0
  6
CONTINUOUS
 62
     2
 10
1255.466445574
 20
230.017859375
 30
0.0
 42
0.021820078
  0
SEQEND
  8
0
  6
CONTINUOUS
 62
     2
  0
POLYLINE
  8
0
  6
CONTINUOUS
 62
     2
 66
     1
 70
     1
  0
VERTEX
  8
0
  6
CONTINUOUS
 62
     2
 10
1240.475007504
 20
185.863959796
 30
0.0
 42
-0.021820078
  0
VERTEX
  8
0
  6
CONTINUOUS
 62
     2
 10
1240.466445574
 20
185.667859375
 30
0.0
 42
-0.021820078
  0
VERTEX
  8
0
  6
CONTINUOUS
 62
     2
 10
1240.440824948
 20
185.473251396
 30
0.0
 42
-0.021820078
  0
VERTEX
  8
0
  6
CONTINUOUS
 62
     2
 10
1240.398340613
 20
185.281616945
 30
0.0
 42
-0.021820078
  0
VERTEX
  8
0
  6
CONTINUOUS
 62
     2
 10
1240.3393159
 20
185.094414474
 30
0.0
 42
-0.021820078
  0
VERTEX
  8
0
  6
CONTINUOUS
 62
     2
 10
1240.264200025
 20
184.913068707
 30
0.0
 42
-0.021820078
  0
VERTEX
  8
0
  6
CONTINUOUS
 62
     2
 10
1240.173564662
 20
184.738959796
 30
0.0
 42
-0.021820078
  0
VERTEX
  8
0
  6
CONTINUOUS
 62
     2
 10
1240.068099603
 20
184.573412814
 30
0.0
 42
-0.021820078
  0
VERTEX
  8
0
  6
CONTINUOUS
 62
     2
 10
1239.948607501
 20
184.417687674
 30
0.0
 42
-0.021820078
  0
VERTEX
  8
0
  6
CONTINUOUS
 62
     2
 10
1239.815997761
 20
184.272969539
 30
0.0
 42
-0.021820078
  0
VERTEX
  8
0
  6
CONTINUOUS
 62
     2
 10
1239.671279626
 20
184.140359799
 30
0.0
 42
-0.021820078
  0
VERTEX
  8
0
  6
CONTINUOUS
 62
     2
 10
1239.515554485
 20
184.020867697
 30
0.0
 42
-0.021820078
  0
VERTEX
  8
0
  6
CONTINUOUS
 62
     2
 10
1239.350007504
 20
183.915402638
 30
0.0
 42
-0.021820078
  0
VERTEX
  8
0
  6
CONTINUOUS
 62
     2
 10
1239.175898593
 20
183.824767275
 30
0.0
 42
-0.021820078
  0
VERTEX
  8
0
  6
CONTINUOUS
 62
     2
 10
1238.994552826
 20
183.749651399
 30
0.0
 42
-0.021820078
  0
VERTEX
  8
0
  6
CONTINUOUS
 62
     2
 10
1238.807350355
 20
183.690626687
 30
0.0
 42
-0.021820078
  0
VERTEX
  8
0
  6
CONTINUOUS
 62
     2
 10
1238.615715903
 20
183.648142352
 30
0.0
 42
-0.021820078
  0
VERTEX
  8
0
  6
CONTINUOUS
 62
     2
 10
1238.421107925
 20
183.622521726
 30
0.0
 42
-0.021820078
  0
VERTEX
  8
0
  6
CONTINUOUS
 62
     2
 10
1238.225007504
 20
183.613959796
 30
0.0
 42
-0.021820078
  0
VERTEX
  8
0
  6
CONTINUOUS
 62
     2
 10
1238.028907083
 20
183.622521726
 30
0.0
 42
-0.021820078
  0
VERTEX
  8
0
  6
CONTINUOUS
 62
     2
 10
1237.834299104
 20
183.648142352
 30
0.0
 42
-0.021820078
  0
VERTEX
  8
0
  6
CONTINUOUS
 62
     2
 10
1237.642664652
 20
183.690626687
 30
0.0
 42
-0.021820078
  0
VERTEX
  8
0
  6
CONTINUOUS
 62
     2
 10
1237.455462181
 20
183.749651399
 30
0.0
 42
-0.021820078
  0
VERTEX
  8
0
  6
CONTINUOUS
 62
     2
 10
1237.274116415
 20
183.824767275
 30
0.0
 42
-0.021820078
  0
VERTEX
  8
0
  6
CONTINUOUS
 62
     2
 10
1237.100007504
 20
183.915402638
 30
0.0
 42
-0.021820078
  0
VERTEX
  8
0
  6
CONTINUOUS
 62
     2
 10
1236.934460522
 20
184.020867697
 30
0.0
 42
-0.021820078
  0
VERTEX
  8
0
  6
CONTINUOUS
 62
     2
 10
1236.778735382
 20
184.140359799
 30
0.0
 42
-0.021820078
  0
VERTEX
  8
0
  6
CONTINUOUS
 62
     2
 10
1236.634017246
 20
184.272969539
 30
0.0
 42
-0.021820078
  0
VERTEX
  8
0
  6
CONTINUOUS
 62
     2
 10
1236.501407507
 20
184.417687674
 30
0.0
 42
-0.021820078
  0
VERTEX
  8
0
  6
CONTINUOUS
 62
     2
 10
1236.381915404
 20
184.573412814
 30
0.0
 42
-0.021820078
  0
VERTEX
  8
0
  6
CONTINUOUS
 62
     2
 10
1236.276450345
 20
184.738959796
 30
0.0
 42
-0.021820078
  0
VERTEX
  8
0
  6
CONTINUOUS
 62
     2
 10
1236.185814983
 20
184.913068707
 30
0.0
 42
-0.021820078
  0
VERTEX
  8
0
  6
CONTINUOUS
 62
     2
 10
1236.110699107
 20
185.094414474
 30
0.0
 42
-0.021820078
  0
VERTEX
  8
0
  6
CONTINUOUS
 62
     2
 10
1236.051674395
 20
185.281616945
 30
0.0
 42
-0.021820078
  0
VERTEX
  8
0
  6
CONTINUOUS
 62
     2
 10
1236.009190059
 20
185.473251396
 30
0.0
 42
-0.021820078
  0
VERTEX
  8
0
  6
CONTINUOUS
 62
     2
 10
1235.983569433
 20
185.667859375
 30
0.0
 42
-0.021820078
  0
VERTEX
  8
0
  6
CONTINUOUS
 62
     2
 10
1235.975007504
 20
185.863959796
 30
0.0
 42
-0.021820078
  0
VERTEX
  8
0
  6
CONTINUOUS
 62
     2
 10
1235.983569433
 20
186.060060217
 30
0.0
 42
-0.021820078
  0
VERTEX
  8
0
  6
CONTINUOUS
 62
     2
 10
1236.009190059
 20
186.254668196
 30
0.0
 42
-0.021820078
  0
VERTEX
  8
0
  6
CONTINUOUS
 62
     2
 10
1236.051674395
 20
186.446302648
 30
0.0
 42
-0.021820078
  0
VERTEX
  8
0
  6
CONTINUOUS
 62
     2
 10
1236.110699107
 20
186.633505119
 30
0.0
 42
-0.021820078
  0
VERTEX
  8
0
  6
CONTINUOUS
 62
     2
 10
1236.185814983
 20
186.814850885
 30
0.0
 42
-0.021820078
  0
VERTEX
  8
0
  6
CONTINUOUS
 62
     2
 10
1236.276450345
 20
186.988959796
 30
0.0
 42
-0.021820078
  0
VERTEX
  8
0
  6
CONTINUOUS
 62
     2
 10
1236.381915404
 20
187.154506778
 30
0.0
 42
-0.021820078
  0
VERTEX
  8
0
  6
CONTINUOUS
 62
     2
 10
1236.501407507
 20
187.310231918
 30
0.0
 42
-0.021820078
  0
VERTEX
  8
0
  6
CONTINUOUS
 62
     2
 10
1236.634017246
 20
187.454950054
 30
0.0
 42
-0.021820078
  0
VERTEX
  8
0
  6
CONTINUOUS
 62
     2
 10
1236.778735382
 20
187.587559793
 30
0.0
 42
-0.021820078
  0
VERTEX
  8
0
  6
CONTINUOUS
 62
     2
 10
1236.934460522
 20
187.707051896
 30
0.0
 42
-0.021820078
  0
VERTEX
  8
0
  6
CONTINUOUS
 62
     2
 10
1237.100007504
 20
187.812516955
 30
0.0
 42
-0.021820078
  0
VERTEX
  8
0
  6
CONTINUOUS
 62
     2
 10
1237.274116415
 20
187.903152317
 30
0.0
 42
-0.021820078
  0
VERTEX
  8
0
  6
CONTINUOUS
 62
     2
 10
1237.455462181
 20
187.978268193
 30
0.0
 42
-0.021820078
  0
VERTEX
  8
0
  6
CONTINUOUS
 62
     2
 10
1237.642664652
 20
188.037292905
 30
0.0
 42
-0.021820078
  0
VERTEX
  8
0
  6
CONTINUOUS
 62
     2
 10
1237.834299104
 20
188.07977724
 30
0.0
 42
-0.021820078
  0
VERTEX
  8
0
  6
CONTINUOUS
 62
     2
 10
1238.028907083
 20
188.105397867
 30
0.0
 42
-0.021820078
  0
VERTEX
  8
0
  6
CONTINUOUS
 62
     2
 10
1238.225007504
 20
188.113959796
 30
0.0
 42
-0.021820078
  0
VERTEX
  8
0
  6
CONTINUOUS
 62
     2
 10
1238.421107925
 20
188.105397867
 30
0.0
 42
-0.021820078
  0
VERTEX
  8
0
  6
CONTINUOUS
 62
     2
 10
1238.615715903
 20
188.07977724
 30
0.0
 42
-0.021820078
  0
VERTEX
  8
0
  6
CONTINUOUS
 62
     2
 10
1238.807350355
 20
188.037292905
 30
0.0
 42
-0.021820078
  0
VERTEX
  8
0
  6
CONTINUOUS
 62
     2
 10
1238.994552826
 20
187.978268193
 30
0.0
 42
-0.021820078
  0
VERTEX
  8
0
  6
CONTINUOUS
 62
     2
 10
1239.175898593
 20
187.903152317
 30
0.0
 42
-0.021820078
  0
VERTEX
  8
0
  6
CONTINUOUS
 62
     2
 10
1239.350007504
 20
187.812516955
 30
0.0
 42
-0.021820078
  0
VERTEX
  8
0
  6
CONTINUOUS
 62
     2
 10
1239.515554485
 20
187.707051896
 30
0.0
 42
-0.021820078
  0
VERTEX
  8
0
  6
CONTINUOUS
 62
     2
 10
1239.671279626
 20
187.587559793
 30
0.0
 42
-0.021820078
  0
VERTEX
  8
0
  6
CONTINUOUS
 62
     2
 10
1239.815997761
 20
187.454950054
 30
0.0
 42
-0.021820078
  0
VERTEX
  8
0
  6
CONTINUOUS
 62
     2
 10
1239.948607501
 20
187.310231918
 30
0.0
 42
-0.021820078
  0
VERTEX
  8
0
  6
CONTINUOUS
 62
     2
 10
1240.068099603
 20
187.154506778
 30
0.0
 42
-0.021820078
  0
VERTEX
  8
0
  6
CONTINUOUS
 62
     2
 10
1240.173564662
 20
186.988959796
 30
0.0
 42
-0.021820078
  0
VERTEX
  8
0
  6
CONTINUOUS
 62
     2
 10
1240.264200025
 20
186.814850885
 30
0.0
 42
-0.021820078
  0
VERTEX
  8
0
  6
CONTINUOUS
 62
     2
 10
1240.3393159
 20
186.633505119
 30
0.0
 42
-0.021820078
  0
VERTEX
  8
0
  6
CONTINUOUS
 62
     2
 10
1240.398340613
 20
186.446302648
 30
0.0
 42
-0.021820078
  0
VERTEX
  8
0
  6
CONTINUOUS
 62
     2
 10
1240.440824948
 20
186.254668196
 30
0.0
 42
-0.021820078
  0
VERTEX
  8
0
  6
CONTINUOUS
 62
     2
 10
1240.466445574
 20
186.060060217
 30
0.0
 42
-0.021820078
  0
SEQEND
  8
0
  6
CONTINUOUS
 62
     2
  0
POLYLINE
  8
0
  6
CONTINUOUS
 62
     2
 66
     1
 70
     1
  0
VERTEX
  8
0
  6
CONTINUOUS
 62
     2
 10
1255.475007504
 20
185.863959796
 30
0.0
 42
-0.021820078
  0
VERTEX
  8
0
  6
CONTINUOUS
 62
     2
 10
1255.466445574
 20
185.667859375
 30
0.0
 42
-0.021820078
  0
VERTEX
  8
0
  6
CONTINUOUS
 62
     2
 10
1255.440824948
 20
185.473251396
 30
0.0
 42
-0.021820078
  0
VERTEX
  8
0
  6
CONTINUOUS
 62
     2
 10
1255.398340613
 20
185.281616945
 30
0.0
 42
-0.021820078
  0
VERTEX
  8
0
  6
CONTINUOUS
 62
     2
 10
1255.3393159
 20
185.094414474
 30
0.0
 42
-0.021820078
  0
VERTEX
  8
0
  6
CONTINUOUS
 62
     2
 10
1255.264200025
 20
184.913068707
 30
0.0
 42
-0.021820078
  0
VERTEX
  8
0
  6
CONTINUOUS
 62
     2
 10
1255.173564662
 20
184.738959796
 30
0.0
 42
-0.021820078
  0
VERTEX
  8
0
  6
CONTINUOUS
 62
     2
 10
1255.068099603
 20
184.573412814
 30
0.0
 42
-0.021820078
  0
VERTEX
  8
0
  6
CONTINUOUS
 62
     2
 10
1254.948607501
 20
184.417687674
 30
0.0
 42
-0.021820078
  0
VERTEX
  8
0
  6
CONTINUOUS
 62
     2
 10
1254.815997761
 20
184.272969539
 30
0.0
 42
-0.021820078
  0
VERTEX
  8
0
  6
CONTINUOUS
 62
     2
 10
1254.671279626
 20
184.140359799
 30
0.0
 42
-0.021820078
  0
VERTEX
  8
0
  6
CONTINUOUS
 62
     2
 10
1254.515554485
 20
184.020867697
 30
0.0
 42
-0.021820078
  0
VERTEX
  8
0
  6
CONTINUOUS
 62
     2
 10
1254.350007504
 20
183.915402638
 30
0.0
 42
-0.021820078
  0
VERTEX
  8
0
  6
CONTINUOUS
 62
     2
 10
1254.175898593
 20
183.824767275
 30
0.0
 42
-0.021820078
  0
VERTEX
  8
0
  6
CONTINUOUS
 62
     2
 10
1253.994552826
 20
183.749651399
 30
0.0
 42
-0.021820078
  0
VERTEX
  8
0
  6
CONTINUOUS
 62
     2
 10
1253.807350355
 20
183.690626687
 30
0.0
 42
-0.021820078
  0
VERTEX
  8
0
  6
CONTINUOUS
 62
     2
 10
1253.615715903
 20
183.648142352
 30
0.0
 42
-0.021820078
  0
VERTEX
  8
0
  6
CONTINUOUS
 62
     2
 10
1253.421107925
 20
183.622521726
 30
0.0
 42
-0.021820078
  0
VERTEX
  8
0
  6
CONTINUOUS
 62
     2
 10
1253.225007504
 20
183.613959796
 30
0.0
 42
-0.021820078
  0
VERTEX
  8
0
  6
CONTINUOUS
 62
     2
 10
1253.028907083
 20
183.622521726
 30
0.0
 42
-0.021820078
  0
VERTEX
  8
0
  6
CONTINUOUS
 62
     2
 10
1252.834299104
 20
183.648142352
 30
0.0
 42
-0.021820078
  0
VERTEX
  8
0
  6
CONTINUOUS
 62
     2
 10
1252.642664652
 20
183.690626687
 30
0.0
 42
-0.021820078
  0
VERTEX
  8
0
  6
CONTINUOUS
 62
     2
 10
1252.455462181
 20
183.749651399
 30
0.0
 42
-0.021820078
  0
VERTEX
  8
0
  6
CONTINUOUS
 62
     2
 10
1252.274116415
 20
183.824767275
 30
0.0
 42
-0.021820078
  0
VERTEX
  8
0
  6
CONTINUOUS
 62
     2
 10
1252.100007504
 20
183.915402638
 30
0.0
 42
-0.021820078
  0
VERTEX
  8
0
  6
CONTINUOUS
 62
     2
 10
1251.934460522
 20
184.020867697
 30
0.0
 42
-0.021820078
  0
VERTEX
  8
0
  6
CONTINUOUS
 62
     2
 10
1251.778735382
 20
184.140359799
 30
0.0
 42
-0.021820078
  0
VERTEX
  8
0
  6
CONTINUOUS
 62
     2
 10
1251.634017246
 20
184.272969539
 30
0.0
 42
-0.021820078
  0
VERTEX
  8
0
  6
CONTINUOUS
 62
     2
 10
1251.501407507
 20
184.417687674
 30
0.0
 42
-0.021820078
  0
VERTEX
  8
0
  6
CONTINUOUS
 62
     2
 10
1251.381915404
 20
184.573412814
 30
0.0
 42
-0.021820078
  0
VERTEX
  8
0
  6
CONTINUOUS
 62
     2
 10
1251.276450345
 20
184.738959796
 30
0.0
 42
-0.021820078
  0
VERTEX
  8
0
  6
CONTINUOUS
 62
     2
 10
1251.185814983
 20
184.913068707
 30
0.0
 42
-0.021820078
  0
VERTEX
  8
0
  6
CONTINUOUS
 62
     2
 10
1251.110699107
 20
185.094414474
 30
0.0
 42
-0.021820078
  0
VERTEX
  8
0
  6
CONTINUOUS
 62
     2
 10
1251.051674395
 20
185.281616945
 30
0.0
 42
-0.021820078
  0
VERTEX
  8
0
  6
CONTINUOUS
 62
     2
 10
1251.009190059
 20
185.473251396
 30
0.0
 42
-0.021820078
  0
VERTEX
  8
0
  6
CONTINUOUS
 62
     2
 10
1250.983569433
 20
185.667859375
 30
0.0
 42
-0.021820078
  0
VERTEX
  8
0
  6
CONTINUOUS
 62
     2
 10
1250.975007504
 20
185.863959796
 30
0.0
 42
-0.021820078
  0
VERTEX
  8
0
  6
CONTINUOUS
 62
     2
 10
1250.983569433
 20
186.060060217
 30
0.0
 42
-0.021820078
  0
VERTEX
  8
0
  6
CONTINUOUS
 62
     2
 10
1251.009190059
 20
186.254668196
 30
0.0
 42
-0.021820078
  0
VERTEX
  8
0
  6
CONTINUOUS
 62
     2
 10
1251.051674395
 20
186.446302648
 30
0.0
 42
-0.021820078
  0
VERTEX
  8
0
  6
CONTINUOUS
 62
     2
 10
1251.110699107
 20
186.633505119
 30
0.0
 42
-0.021820078
  0
VERTEX
  8
0
  6
CONTINUOUS
 62
     2
 10
1251.185814983
 20
186.814850885
 30
0.0
 42
-0.021820078
  0
VERTEX
  8
0
  6
CONTINUOUS
 62
     2
 10
1251.276450345
 20
186.988959796
 30
0.0
 42
-0.021820078
  0
VERTEX
  8
0
  6
CONTINUOUS
 62
     2
 10
1251.381915404
 20
187.154506778
 30
0.0
 42
-0.021820078
  0
VERTEX
  8
0
  6
CONTINUOUS
 62
     2
 10
1251.501407507
 20
187.310231918
 30
0.0
 42
-0.021820078
  0
VERTEX
  8
0
  6
CONTINUOUS
 62
     2
 10
1251.634017246
 20
187.454950054
 30
0.0
 42
-0.021820078
  0
VERTEX
  8
0
  6
CONTINUOUS
 62
     2
 10
1251.778735382
 20
187.587559793
 30
0.0
 42
-0.021820078
  0
VERTEX
  8
0
  6
CONTINUOUS
 62
     2
 10
1251.934460522
 20
187.707051896
 30
0.0
 42
-0.021820078
  0
VERTEX
  8
0
  6
CONTINUOUS
 62
     2
 10
1252.100007504
 20
187.812516955
 30
0.0
 42
-0.021820078
  0
VERTEX
  8
0
  6
CONTINUOUS
 62
     2
 10
1252.274116415
 20
187.903152317
 30
0.0
 42
-0.021820078
  0
VERTEX
  8
0
  6
CONTINUOUS
 62
     2
 10
1252.455462181
 20
187.978268193
 30
0.0
 42
-0.021820078
  0
VERTEX
  8
0
  6
CONTINUOUS
 62
     2
 10
1252.642664652
 20
188.037292905
 30
0.0
 42
-0.021820078
  0
VERTEX
  8
0
  6
CONTINUOUS
 62
     2
 10
1252.834299104
 20
188.07977724
 30
0.0
 42
-0.021820078
  0
VERTEX
  8
0
  6
CONTINUOUS
 62
     2
 10
1253.028907083
 20
188.105397867
 30
0.0
 42
-0.021820078
  0
VERTEX
  8
0
  6
CONTINUOUS
 62
     2
 10
1253.225007504
 20
188.113959796
 30
0.0
 42
-0.021820078
  0
VERTEX
  8
0
  6
CONTINUOUS
 62
     2
 10
1253.421107925
 20
188.105397867
 30
0.0
 42
-0.021820078
  0
VERTEX
  8
0
  6
CONTINUOUS
 62
     2
 10
1253.615715903
 20
188.07977724
 30
0.0
 42
-0.021820078
  0
VERTEX
  8
0
  6
CONTINUOUS
 62
     2
 10
1253.807350355
 20
188.037292905
 30
0.0
 42
-0.021820078
  0
VERTEX
  8
0
  6
CONTINUOUS
 62
     2
 10
1253.994552826
 20
187.978268193
 30
0.0
 42
-0.021820078
  0
VERTEX
  8
0
  6
CONTINUOUS
 62
     2
 10
1254.175898593
 20
187.903152317
 30
0.0
 42
-0.021820078
  0
VERTEX
  8
0
  6
CONTINUOUS
 62
     2
 10
1254.350007504
 20
187.812516955
 30
0.0
 42
-0.021820078
  0
VERTEX
  8
0
  6
CONTINUOUS
 62
     2
 10
1254.515554485
 20
187.707051896
 30
0.0
 42
-0.021820078
  0
VERTEX
  8
0
  6
CONTINUOUS
 62
     2
 10
1254.671279626
 20
187.587559793
 30
0.0
 42
-0.021820078
  0
VERTEX
  8
0
  6
CONTINUOUS
 62
     2
 10
1254.815997761
 20
187.454950054
 30
0.0
 42
-0.021820078
  0
VERTEX
  8
0
  6
CONTINUOUS
 62
     2
 10
1254.948607501
 20
187.310231918
 30
0.0
 42
-0.021820078
  0
VERTEX
  8
0
  6
CONTINUOUS
 62
     2
 10
1255.068099603
 20
187.154506778
 30
0.0
 42
-0.021820078
  0
VERTEX
  8
0
  6
CONTINUOUS
 62
     2
 10
1255.173564662
 20
186.988959796
 30
0.0
 42
-0.021820078
  0
VERTEX
  8
0
  6
CONTINUOUS
 62
     2
 10
1255.264200025
 20
186.814850885
 30
0.0
 42
-0.021820078
  0
VERTEX
  8
0
  6
CONTINUOUS
 62
     2
 10
1255.3393159
 20
186.633505119
 30
0.0
 42
-0.021820078
  0
VERTEX
  8
0
  6
CONTINUOUS
 62
     2
 10
1255.398340613
 20
186.446302648
 30
0.0
 42
-0.021820078
  0
VERTEX
  8
0
  6
CONTINUOUS
 62
     2
 10
1255.440824948
 20
186.254668196
 30
0.0
 42
-0.021820078
  0
VERTEX
  8
0
  6
CONTINUOUS
 62
     2
 10
1255.466445574
 20
186.060060217
 30
0.0
 42
-0.021820078
  0
SEQEND
  8
0
  6
CONTINUOUS
 62
     2
  0
TEXT
  8
0
  6
CONTINUOUS
 62
     2
 10
1229.475007504
 20
175.463959796
 30
0.0
 40
10.0
  1
１
 50
0.0
 41
0.85
 51
0.0
  7
KANJI43
  0
TEXT
  8
0
  6
CONTINUOUS
 62
     2
 10
1254.475007504
 20
175.463959796
 30
0.0
 40
10.0
  1
２
 50
0.0
 41
0.85
 51
0.0
  7
KANJI43
  0
TEXT
  8
0
  6
CONTINUOUS
 62
     2
 10
1197.575007504
 20
230.163959796
 30
0.0
 40
10.0
  1
（ＮＯ）
 50
0.0
 41
0.75
 51
0.0
  7
KANJI44
  0
TEXT
  8
0
  6
CONTINUOUS
 62
     2
 10
1263.575007504
 20
230.163959796
 30
0.0
 40
10.0
  1
（ＮＯ）
 50
0.0
 41
0.75
 51
0.0
  7
KANJI44
  0
TEXT
  8
0
  6
CONTINUOUS
 62
     2
 10
1197.575007504
 20
172.663959796
 30
0.0
 40
10.0
  1
（ＮＣ）
 50
0.0
 41
0.75
 51
0.0
  7
KANJI44
  0
TEXT
  8
0
  6
CONTINUOUS
 62
     2
 10
1263.575007504
 20
172.663959796
 30
0.0
 40
10.0
  1
（ＮＣ）
 50
0.0
 41
0.75
 51
0.0
  7
KANJI44
  0
TEXT
  8
0
  6
CONTINUOUS
 62
     2
 10
1181.450007504
 20
143.663959796
 30
0.0
 40
15.0
  1
外部ＬＳリミットＳＷ
 50
0.0
 41
0.9
 51
0.0
  7
KANJI24
  0
LINE
  8
0
  6
CONTINUOUS
 62
     2
 10
1323.200007504
 20
131.163959796
 30
0.0
 11
1323.200007504
 21
300.913959796
 31
0.0
  0
LINE
  8
0
  6
CONTINUOUS
 62
     2
 10
1323.200007504
 20
300.913959796
 30
0.0
 11
1169.950007504
 21
300.913959796
 31
0.0
  0
LINE
  8
0
  6
CONTINUOUS
 62
     2
 10
1169.950007504
 20
300.913959796
 30
0.0
 11
1169.950007504
 21
131.163959796
 31
0.0
  0
LINE
  8
0
  6
CONTINUOUS
 62
     1
 10
1344.755807829
 20
714.660973535
 30
0.0
 11
1396.728156246
 21
602.584548717
 31
0.0
  0
LINE
  8
0
  6
CONTINUOUS
 62
     1
 10
1369.089504234
 20
662.627137572
 30
0.0
 11
1338.391846798
 21
631.929480137
 31
0.0
  0
LINE
  8
0
  6
CONTINUOUS
 62
     1
 10
1335.209866283
 20
628.747499621
 30
0.0
 11
1369.089504234
 21
662.627137572
 31
0.0
  0
LINE
  8
0
  6
LTYPE3
 62
     2
 10
1344.260833082
 20
632.990140308
 30
0.0
 11
1311.026814366
 21
666.224159024
 31
0.0
  0
LINE
  8
0
  6
LTYPE3
 62
     2
 10
1333.300677974
 20
645.364508979
 30
0.0
 11
1353.382510559
 21
665.446341565
 31
0.0
  0
LINE
  8
0
  6
LTYPE3
 62
     2
 10
1312.511738607
 20
686.093859576
 30
0.0
 11
1353.523931916
 21
645.081666267
 31
0.0
  0
LINE
  8
0
  6
CONTINUOUS
 62
     1
 10
1309.75402216
 20
678.244974304
 30
0.0
 11
1328.987326609
 21
659.011669856
 31
0.0
  0
LINE
  8
0
  6
CONTINUOUS
 62
     1
 10
1322.481944222
 20
665.517052243
 30
0.0
 11
1313.643109457
 21
656.678217478
 31
0.0
  0
LINE
  8
0
  6
CONTINUOUS
 62
     1
 10
1341.856670026
 20
671.881013274
 30
0.0
 11
1326.724584909
 21
656.748928156
 31
0.0
  0
LINE
  8
0
  6
CONTINUOUS
 62
     1
 10
1344.601128221
 20
713.092080365
 30
0.0
 11
1309.75402216
 21
678.244974304
 31
0.0
  0
LINE
  8
0
  6
CONTINUOUS
 62
     1
 10
1327.43169169
 20
681.78050821
 30
0.0
 11
1316.825089972
 21
671.173906492
 31
0.0
  0
LINE
  8
0
  6
CONTINUOUS
 62
     1
 10
1320.360623878
 20
688.851576022
 30
0.0
 11
1339.593928326
 21
669.618271574
 31
0.0
  0
LINE
  8
0
  6
LTYPE3
 62
     2
 10
1333.088545939
 20
686.871677035
 30
0.0
 11
1366.322564655
 21
653.637658319
 31
0.0
  0
LINE
  8
0
  6
CONTINUOUS
 62
     1
 10
1366.676118046
 20
660.213751384
 30
0.0
 11
1338.391846798
 21
688.498022632
 31
0.0
  0
LINE
  8
0
  6
CONTINUOUS
 62
     1
 10
1336.270526455
 20
690.619342975
 30
0.0
 11
1327.43169169
 21
681.78050821
 31
0.0
  0
LINE
  8
0
  6
CONTINUOUS
 62
     1
 10
1341.927380704
 20
684.962488726
 30
0.0
 11
1333.017835261
 21
676.052943283
 31
0.0
  0
LINE
  8
0
  6
CONTINUOUS
 62
     1
 10
1338.391846798
 20
688.498022632
 30
0.0
 11
1329.553012033
 21
679.659187867
 31
0.0
  0
LINE
  8
0
  6
CONTINUOUS
 62
     1
 10
1341.32633994
 20
698.645004942
 30
0.0
 11
1336.270526455
 21
690.619342975
 31
0.0
  0
LINE
  8
0
  6
CONTINUOUS
 62
     1
 10
1318.875699638
 20
668.981875471
 30
0.0
 11
1310.107575551
 21
660.213751384
 31
0.0
  0
ARC
  8
0
  6
CONTINUOUS
 62
     1
 10
1343.270883588
 20
670.466799711
 30
0.0
 40
2.0
 50
45.0
 51
135.0
  0
LINE
  8
0
  6
CONTINUOUS
 62
     1
 10
1344.685097151
 20
671.881013274
 30
0.0
 11
1359.817182268
 21
656.748928156
 31
0.0
  0
LINE
  8
0
  6
LTYPE5
 62
     2
 10
1346.311442748
 20
697.831832143
 30
0.0
 11
1381.666781807
 21
733.187171203
 31
0.0
  0
ARC
  8
0
  6
LTYPE1
 62
     1
 10
1364.554797702
 20
716.075187098
 30
0.0
 40
16.0
 50
225.0
 51
99.340912304
  0
ARC
  8
0
  6
CONTINUOUS
 62
     1
 10
1364.554797702
 20
716.075187098
 30
0.0
 40
16.0
 50
99.340912304
 51
170.659087696
  0
LINE
  8
0
  6
CONTINUOUS
 62
     1
 10
1349.020545603
 20
706.197789248
 30
0.0
 11
1341.397050618
 21
698.574294263
 31
0.0
  0
LINE
  8
0
  6
LTYPE3
 62
     2
 10
1341.078852567
 20
711.266860986
 30
0.0
 11
1354.655302766
 21
697.690410787
 31
0.0
  0
LINE
  8
0
  6
LTYPE1
 62
     2
 10
1354.12497268
 20
710.595109544
 30
0.0
 11
1359.074720148
 21
705.645362075
 31
0.0
  0
ARC
  8
0
  6
LTYPE1
 62
     1
 10
1364.554797702
 20
716.075187098
 30
0.0
 40
16.0
 50
170.659087696
 51
225.0
  0
LINE
  8
0
  6
LTYPE1
 62
     1
 10
1345.46291461
 20
713.953866754
 30
0.0
 11
1344.601128221
 21
713.092080365
 31
0.0
  0
LINE
  8
0
  6
LTYPE1
 62
     1
 10
1351.11976886
 20
708.297012505
 30
0.0
 11
1349.020545603
 21
706.197789248
 31
0.0
  0
CIRCLE
  8
0
  6
CONTINUOUS
 62
     1
 10
1364.554797702
 20
716.075187098
 30
0.0
 40
6.49995
  0
LINE
  8
0
  6
CONTINUOUS
 62
     1
 10
1362.608189302
 20
708.829478053
 30
0.0
 11
1357.309088658
 21
714.128578698
 31
0.0
  0
LINE
  8
0
  6
CONTINUOUS
 62
     1
 10
1357.309088658
 20
714.128578698
 30
0.0
 11
1359.255697058
 21
721.374287742
 31
0.0
  0
LINE
  8
0
  6
CONTINUOUS
 62
     1
 10
1351.853776442
 20
708.323913306
 30
0.0
 11
1341.750604009
 21
698.220740873
 31
0.0
  0
LINE
  8
0
  6
LTYPE1
 62
     2
 10
1354.12497268
 20
710.595109544
 30
0.0
 11
1351.853776442
 21
708.323913306
 31
0.0
  0
LINE
  8
0
  6
CONTINUOUS
 62
     1
 10
1341.750604009
 20
698.220740873
 30
0.0
 11
1346.700351477
 21
693.270993405
 31
0.0
  0
LINE
  8
0
  6
LTYPE1
 62
     2
 10
1359.074720148
 20
705.645362075
 30
0.0
 11
1353.749322202
 21
700.319964129
 31
0.0
  0
LINE
  8
0
  6
CONTINUOUS
 62
     1
 10
1344.755807829
 20
714.660973535
 30
0.0
 11
1365.969011265
 21
735.874176971
 31
0.0
  0
LINE
  8
0
  6
LTYPE1
 62
     1
 10
1344.755807829
 20
714.660973535
 30
0.0
 11
1352.475056857
 21
706.941724507
 31
0.0
  0
LINE
  8
0
  6
LTYPE5
 62
     2
 10
1341.271179206
 20
739.358805594
 30
0.0
 11
1475.8887604
 21
604.7412244
 31
0.0
  0
LINE
  8
0
  6
CONTINUOUS
 62
     1
 10
1352.148426354
 20
698.719068281
 30
0.0
 11
1346.700351477
 21
693.270993405
 31
0.0
  0
LINE
  8
0
  6
CONTINUOUS
 62
     1
 10
1310.107575551
 20
660.213751384
 30
0.0
 11
1338.391846798
 21
631.929480137
 31
0.0
  0
LINE
  8
0
  6
CONTINUOUS
 62
     1
 10
1326.724584909
 20
653.920501032
 30
0.0
 11
1341.856670026
 21
638.788415914
 31
0.0
  0
ARC
  8
0
  6
CONTINUOUS
 62
     1
 10
1328.138798471
 20
655.334714594
 30
0.0
 40
2.0
 50
135.0
 51
225.0
  0
LINE
  8
0
  6
CONTINUOUS
 62
     1
 10
1371.764212493
 20
656.816564457
 30
0.0
 11
1339.45250697
 21
624.504858934
 31
0.0
  0
LINE
  8
0
  6
CONTINUOUS
 62
     1
 10
1359.817182268
 20
653.920501032
 30
0.0
 11
1344.685097151
 21
638.788415914
 31
0.0
  0
ARC
  8
0
  6
CONTINUOUS
 62
     1
 10
1343.270883588
 20
640.202629476
 30
0.0
 40
2.0
 50
225.0
 51
315.0
  0
LINE
  8
0
  6
CONTINUOUS
 62
     1
 10
1335.209866283
 20
628.747499621
 30
0.0
 11
1339.45250697
 21
624.504858934
 31
0.0
  0
LINE
  8
0
  6
CONTINUOUS
 62
     2
 10
1347.7899924
 20
732.8399924
 30
0.0
 11
1346.915518835
 21
744.808087319
 31
0.0
  0
LINE
  8
0
  6
CONTINUOUS
 62
     2
 10
1347.7899924
 20
732.8399924
 30
0.0
 11
1341.048628618
 21
742.767429852
 31
0.0
  0
LINE
  8
0
  6
LTYPE1
 62
     2
 10
1348.5999996
 20
633.652351564
 30
0.0
 11
1348.5999996
 21
652.0299852
 31
0.0
  0
LINE
  8
0
  6
CONTINUOUS
 62
     1
 10
1348.5999996
 20
592.0299852
 30
0.0
 11
1348.5999996
 21
633.652351564
 31
0.0
  0
LINE
  8
0
  6
CONTINUOUS
 62
     2
 10
1458.5999996
 20
470.397699523
 30
0.0
 11
1308.5999996
 21
470.397699523
 31
0.0
  0
LINE
  8
0
  6
CONTINUOUS
 62
     2
 10
1308.5999996
 20
470.397699523
 30
0.0
 11
1320.191109515
 21
467.291870982
 31
0.0
  0
LINE
  8
0
  6
CONTINUOUS
 62
     2
 10
1308.5999996
 20
470.397699523
 30
0.0
 11
1320.191109515
 21
473.503528065
 31
0.0
  0
LINE
  8
0
  6
CONTINUOUS
 62
     2
 10
1308.5999996
 20
653.587699523
 30
0.0
 11
1308.5999996
 21
464.397699523
 31
0.0
  0
LINE
  8
0
  6
CONTINUOUS
 62
     2
 10
229.4999996
 20
385.0299852
 30
0.0
 11
243.988886994
 21
388.912270877
 31
0.0
  0
LINE
  8
0
  6
CONTINUOUS
 62
     2
 10
229.4999996
 20
518.0299852
 30
0.0
 11
229.4999996
 21
376.0299852
 31
0.0
  0
LINE
  8
0
  6
CONTINUOUS
 62
     2
 10
229.4999996
 20
385.0299852
 30
0.0
 11
243.988886994
 21
381.147699523
 31
0.0
  0
LINE
  8
0
  6
CONTINUOUS
 62
     2
 10
229.4999996
 20
376.0299852
 30
0.0
 11
229.4999996
 21
337.5299852
 31
0.0
  0
LINE
  8
0
  6
CONTINUOUS
 62
     2
 10
229.4999996
 20
346.5299852
 30
0.0
 11
243.988886994
 21
350.412270877
 31
0.0
  0
LINE
  8
0
  6
CONTINUOUS
 62
     2
 10
229.4999996
 20
346.5299852
 30
0.0
 11
243.988886994
 21
342.647699523
 31
0.0
  0
LINE
  8
0
  6
CONTINUOUS
 62
     2
 10
229.4999996
 20
337.5299852
 30
0.0
 11
229.4999996
 21
299.5299852
 31
0.0
  0
LINE
  8
0
  6
CONTINUOUS
 62
     2
 10
229.4999996
 20
308.5299852
 30
0.0
 11
243.988886994
 21
312.412270877
 31
0.0
  0
LINE
  8
0
  6
CONTINUOUS
 62
     2
 10
229.4999996
 20
308.5299852
 30
0.0
 11
243.988886994
 21
304.647699523
 31
0.0
  0
LINE
  8
0
  6
LTYPE2
 62
     2
 10
263.1999996
 20
547.0299852
 30
0.0
 11
209.1999996
 21
547.0299852
 31
0.0
  0
LINE
  8
0
  6
CONTINUOUS
 62
     1
 10
229.4999996
 20
547.0299852
 30
0.0
 11
229.4999996
 21
533.198997102
 31
0.0
  0
LINE
  8
0
  6
CONTINUOUS
 62
     1
 10
229.4999996
 20
547.0299852
 30
0.0
 11
229.4999996
 21
560.860973298
 31
0.0
  0
LINE
  8
0
  6
CONTINUOUS
 62
     1
 10
219.500090987
 20
536.586177861
 30
0.0
 11
221.45568071
 21
533.198997102
 31
0.0
  0
LINE
  8
0
  6
CONTINUOUS
 62
     1
 10
219.500090987
 20
547.0299852
 30
0.0
 11
219.500090987
 21
536.586177861
 31
0.0
  0
LINE
  8
0
  6
CONTINUOUS
 62
     1
 10
219.500090987
 20
557.473792539
 30
0.0
 11
221.45568071
 21
560.860973298
 31
0.0
  0
LINE
  8
0
  6
CONTINUOUS
 62
     1
 10
219.500090987
 20
547.0299852
 30
0.0
 11
219.500090987
 21
557.473792539
 31
0.0
  0
ARC
  8
0
  6
CONTINUOUS
 62
     1
 10
232.705414298
 20
547.0299852
 30
0.0
 40
13.20532331
 50
148.419912243
 51
211.580087757
  0
ARC
  8
0
  6
CONTINUOUS
 62
     1
 10
223.533494791
 20
536.656744127
 30
0.0
 40
4.034021051
 50
121.002313915
 51
182.989498403
  0
LINE
  8
0
  6
CONTINUOUS
 62
     1
 10
219.500090987
 20
557.473792539
 30
0.0
 11
221.45568071
 21
560.860973298
 31
0.0
  0
ARC
  8
0
  6
CONTINUOUS
 62
     1
 10
223.533494791
 20
557.403226273
 30
0.0
 40
4.034021051
 50
177.010501597
 51
238.997686085
  0
LINE
  8
0
  6
CONTINUOUS
 62
     1
 10
229.4999996
 20
533.198997102
 30
0.0
 11
221.45568071
 21
533.198997102
 31
0.0
  0
LINE
  8
0
  6
CONTINUOUS
 62
     1
 10
229.4999996
 20
540.114491151
 30
0.0
 11
221.45568071
 21
540.114491151
 31
0.0
  0
LINE
  8
0
  6
CONTINUOUS
 62
     1
 10
229.4999996
 20
553.945479249
 30
0.0
 11
221.45568071
 21
553.945479249
 31
0.0
  0
LINE
  8
0
  6
CONTINUOUS
 62
     1
 10
229.4999996
 20
560.860973298
 30
0.0
 11
221.45568071
 21
560.860973298
 31
0.0
  0
LINE
  8
0
  6
LTYPE2
 62
     2
 10
261.1999996
 20
697.0299852
 30
0.0
 11
214.1999996
 21
697.0299852
 31
0.0
  0
LINE
  8
0
  6
CONTINUOUS
 62
     1
 10
229.4999996
 20
697.0299852
 30
0.0
 11
229.4999996
 21
683.198997102
 31
0.0
  0
LINE
  8
0
  6
CONTINUOUS
 62
     1
 10
229.4999996
 20
697.0299852
 30
0.0
 11
229.4999996
 21
710.860973298
 31
0.0
  0
LINE
  8
0
  6
CONTINUOUS
 62
     1
 10
219.500090987
 20
686.586177861
 30
0.0
 11
221.45568071
 21
683.198997102
 31
0.0
  0
LINE
  8
0
  6
CONTINUOUS
 62
     1
 10
219.500090987
 20
697.0299852
 30
0.0
 11
219.500090987
 21
686.586177861
 31
0.0
  0
LINE
  8
0
  6
CONTINUOUS
 62
     1
 10
219.500090987
 20
707.473792539
 30
0.0
 11
221.45568071
 21
710.860973298
 31
0.0
  0
LINE
  8
0
  6
CONTINUOUS
 62
     1
 10
219.500090987
 20
697.0299852
 30
0.0
 11
219.500090987
 21
707.473792539
 31
0.0
  0
ARC
  8
0
  6
CONTINUOUS
 62
     1
 10
232.705414298
 20
697.0299852
 30
0.0
 40
13.20532331
 50
148.419912243
 51
211.580087757
  0
ARC
  8
0
  6
CONTINUOUS
 62
     1
 10
223.533494791
 20
686.656744127
 30
0.0
 40
4.034021051
 50
121.002313915
 51
182.989498403
  0
LINE
  8
0
  6
CONTINUOUS
 62
     1
 10
219.500090987
 20
707.473792539
 30
0.0
 11
221.45568071
 21
710.860973298
 31
0.0
  0
ARC
  8
0
  6
CONTINUOUS
 62
     1
 10
223.533494791
 20
707.403226273
 30
0.0
 40
4.034021051
 50
177.010501597
 51
238.997686085
  0
LINE
  8
0
  6
CONTINUOUS
 62
     1
 10
229.4999996
 20
683.198997102
 30
0.0
 11
221.45568071
 21
683.198997102
 31
0.0
  0
LINE
  8
0
  6
CONTINUOUS
 62
     1
 10
229.4999996
 20
690.114491151
 30
0.0
 11
221.45568071
 21
690.114491151
 31
0.0
  0
LINE
  8
0
  6
CONTINUOUS
 62
     1
 10
229.4999996
 20
703.945479249
 30
0.0
 11
221.45568071
 21
703.945479249
 31
0.0
  0
LINE
  8
0
  6
CONTINUOUS
 62
     1
 10
229.4999996
 20
710.860973298
 30
0.0
 11
221.45568071
 21
710.860973298
 31
0.0
  0
LINE
  8
0
  6
CONTINUOUS
 62
     1
 10
334.4999996
 20
758.7799852
 30
0.0
 11
229.4999996
 21
758.7799852
 31
0.0
  0
LINE
  8
0
  6
CONTINUOUS
 62
     1
 10
229.4999996
 20
527.0299852
 30
0.0
 11
229.4999996
 21
758.7799852
 31
0.0
  0
LINE
  8
0
  6
CONTINUOUS
 62
     1
 10
354.4999996
 20
527.0299852
 30
0.0
 11
229.4999996
 21
527.0299852
 31
0.0
  0
LINE
  8
0
  6
CONTINUOUS
 62
     2
 10
354.4999996
 20
385.0299852
 30
0.0
 11
229.4999996
 21
385.0299852
 31
0.0
  0
LINE
  8
0
  6
CONTINUOUS
 62
     2
 10
229.4999996
 20
346.5299852
 30
0.0
 11
454.4999996
 21
346.5299852
 31
0.0
  0
LINE
  8
0
  6
CONTINUOUS
 62
     2
 10
1089.0999996
 20
308.5299852
 30
0.0
 11
229.4999996
 21
308.5299852
 31
0.0
  0
LINE
  8
7
  6
CONTINUOUS
 62
     2
 10
224.2299996
 20
819.7499852
 30
0.0
 11
225.760684844
 21
834.671680904
 31
0.0
  0
LINE
  8
7
  6
CONTINUOUS
 62
     2
 10
224.2299996
 20
819.7499852
 30
0.0
 11
218.094764054
 21
833.437895369
 31
0.0
  0
TEXT
  8
7
  6
CONTINUOUS
 62
     2
 10
102.2499996
 20
925.4499852
 30
1.8
 40
18.0
  1
手動軸カバー
 50
0.0
 41
0.9
 51
0.0
  7
KANJI37
  0
LINE
  8
7
  6
CONTINUOUS
 62
     2
 10
224.2299996
 20
819.7499852
 30
0.0
 11
208.183862261
 21
919.4499852
 31
0.0
  0
LINE
  8
7
  6
CONTINUOUS
 62
     2
 10
208.183862261
 20
919.4499852
 30
0.0
 11
102.2499996
 21
919.4499852
 31
0.0
  0
TEXT
  8
7
  6
CONTINUOUS
 62
     2
 10
102.2499996
 20
895.4499852
 30
1.8
 40
18.0
  1
手動軸□１０
 50
0.0
 41
0.9
 51
0.0
  7
KANJI37
  0
ARC
  8
0
  6
CONTINUOUS
 62
     2
 10
176.0999996
 20
804.3299852
 30
0.0
 40
20.0
 50
231.952957468
 51
156.801409486
  0
LINE
  8
0
  6
CONTINUOUS
 62
     2
 10
157.717099
 20
812.208371172
 30
0.0
 11
160.01179171
 21
822.045809949
 31
0.0
  0
TEXT
  8
0
  6
CONTINUOUS
 62
     2
 10
95.717099
 20
795.208371172
 30
0.0
 40
15.0
  1
前進方向
 50
0.0
 41
0.9
 51
0.0
  7
KANJI24
  0
LINE
  8
0
  6
CONTINUOUS
 62
     2
 10
157.717099
 20
812.208371172
 30
0.0
 11
165.985260378
 21
817.115707707
 31
0.0
  0
LINE
  8
0
  6
CONTINUOUS
 62
     1
 10
286.1999996
 20
697.0299852
 30
0.0
 11
286.1999996
 21
627.0299852
 31
0.0
  0
TEXT
  8
0
  6
CONTINUOUS
 62
     2
 10
291.1999996
 20
686.0299852
 30
5.0
 40
20.0
  1
銘板
 50
270.0
 41
0.925
 51
0.0
  7
KANJI45
  0
LINE
  8
0
  6
CONTINUOUS
 62
     1
 10
329.1999996
 20
697.0299852
 30
0.0
 11
286.1999996
 21
697.0299852
 31
0.0
  0
LINE
  8
0
  6
CONTINUOUS
 62
     1
 10
329.1999996
 20
627.0299852
 30
0.0
 11
286.1999996
 21
627.0299852
 31
0.0
  0
LINE
  8
0
  6
CONTINUOUS
 62
     1
 10
329.1999996
 20
697.0299852
 30
0.0
 11
329.1999996
 21
627.0299852
 31
0.0
  0
LINE
  8
0
  6
CONTINUOUS
 62
     2
 10
1444.6999518
 20
501.0299852
 30
0.0
 11
1317.0499518
 21
381.0799852
 31
0.0
  0
LINE
  8
0
  6
CONTINUOUS
 62
     2
 10
1327.6999996
 20
422.7299852
 30
0.0
 11
1242.599938
 21
422.7299852
 31
0.0
  0
TEXT
  8
0
  6
CONTINUOUS
 62
     3
 10
1219.8499518
 20
390.0799852
 30
0.0
 40
18.0
  1
推力リミッタ
 50
0.0
 41
0.9
 51
0.0
  7
KANJI41
  0
LINE
  8
0
  6
CONTINUOUS
 62
     2
 10
1317.0499518
 20
381.0799852
 30
0.0
 11
1219.8499518
 21
381.0799852
 31
0.0
  0
TEXT
  8
0
  6
CONTINUOUS
 62
     3
 10
1246.6999996
 20
431.7299852
 30
0.0
 40
18.0
  1
ＰＦ１／２
 50
0.0
 41
0.9
 51
0.0
  7
KANJI41
  0
LINE
  8
0
  6
CONTINUOUS
 62
     2
 10
196.322674524
 20
257.351526374
 30
0.0
 11
628.610083262
 21
257.351526374
 31
0.0
  0
TEXT
  8
0
  6
CONTINUOUS
 62
     2
 10
198.322674524
 20
265.351526374
 30
0.0
 40
20.0
  1
推力リミッタの作動値は、約４４００ｋｇ（設計値）
 50
0.0
 41
0.925
 51
0.0
  7
KANJI46
  0
TEXT
  8
0
  6
CONTINUOUS
 62
     2
 10
1218.700007504
 20
124.663959796
 30
0.0
 40
15.0
  1
端子符号
 50
0.0
 41
0.9
 51
0.0
  7
KANJI24
  0
LINE
  8
0
  6
CONTINUOUS
 62
     2
 10
1278.200007504
 20
131.163959796
 30
0.0
 11
1323.200007504
 21
131.163959796
 31
0.0
  0
LINE
  8
0
  6
CONTINUOUS
 62
     2
 10
1169.950007504
 20
131.163959796
 30
0.0
 11
1208.950007504
 21
131.163959796
 31
0.0
  0
LINE
  8
0
  6
CONTINUOUS
 62
     1
 10
1478.5999996
 20
607.0299852
 30
0.0
 11
1438.5999996
 21
607.0299852
 31
0.0
  0
LINE
  8
0
  6
CONTINUOUS
 62
     1
 10
1478.5999996
 20
637.0299852
 30
0.0
 11
1438.5999996
 21
637.0299852
 31
0.0
  0
LINE
  8
0
  6
LTYPE1
 62
     2
 10
1438.5999996
 20
607.0299852
 30
0.0
 11
1418.5999996
 21
607.0299852
 31
0.0
  0
LINE
  8
0
  6
LTYPE1
 62
     2
 10
1438.5999996
 20
637.0299852
 30
0.0
 11
1418.5999996
 21
637.0299852
 31
0.0
  0
LINE
  8
0
  6
CONTINUOUS
 62
     1
 10
1502.5999996
 20
594.0299852
 30
0.0
 11
1502.5999996
 21
650.0299852
 31
0.0
  0
LINE
  8
0
  6
CONTINUOUS
 62
     1
 10
1502.5999996
 20
594.0299852
 30
0.0
 11
1498.5999996
 21
594.0299852
 31
0.0
  0
LINE
  8
0
  6
CONTINUOUS
 62
     1
 10
1502.5999996
 20
650.0299852
 30
0.0
 11
1498.5999996
 21
650.0299852
 31
0.0
  0
LINE
  8
0
  6
CONTINUOUS
 62
     1
 10
1512.5999996
 20
607.0299852
 30
0.0
 11
1512.5999996
 21
637.0299852
 31
0.0
  0
LINE
  8
0
  6
CONTINUOUS
 62
     1
 10
1512.5999996
 20
607.0299852
 30
0.0
 11
1502.5999996
 21
607.0299852
 31
0.0
  0
LINE
  8
0
  6
CONTINUOUS
 62
     1
 10
1512.5999996
 20
637.0299852
 30
0.0
 11
1502.5999996
 21
637.0299852
 31
0.0
  0
LINE
  8
0
  6
LTYPE1
 62
     2
 10
1502.5999996
 20
637.0299852
 30
0.0
 11
1478.5999996
 21
637.0299852
 31
0.0
  0
LINE
  8
0
  6
LTYPE1
 62
     2
 10
1502.5999996
 20
607.0299852
 30
0.0
 11
1478.5999996
 21
607.0299852
 31
0.0
  0
LINE
  8
0
  6
CONTINUOUS
 62
     1
 10
1414.5999996
 20
594.0299852
 30
0.0
 11
1414.5999996
 21
650.0299852
 31
0.0
  0
LINE
  8
0
  6
CONTINUOUS
 62
     1
 10
1414.5999996
 20
594.0299852
 30
0.0
 11
1418.5999996
 21
594.0299852
 31
0.0
  0
LINE
  8
0
  6
CONTINUOUS
 62
     1
 10
1414.5999996
 20
650.0299852
 30
0.0
 11
1418.5999996
 21
650.0299852
 31
0.0
  0
LINE
  8
0
  6
CONTINUOUS
 62
     1
 10
1404.5999996
 20
607.0299852
 30
0.0
 11
1404.5999996
 21
637.0299852
 31
0.0
  0
LINE
  8
0
  6
CONTINUOUS
 62
     1
 10
1404.5999996
 20
607.0299852
 30
0.0
 11
1414.5999996
 21
607.0299852
 31
0.0
  0
LINE
  8
0
  6
CONTINUOUS
 62
     1
 10
1404.5999996
 20
637.0299852
 30
0.0
 11
1414.5999996
 21
637.0299852
 31
0.0
  0
LINE
  8
0
  6
LTYPE2
 62
     2
 10
1506.1999996
 20
615.0299852
 30
0.0
 11
1506.1999996
 21
631.0299852
 31
0.0
  0
CIRCLE
  8
0
  6
CONTINUOUS
 62
     1
 10
1506.1999996
 20
622.0299852
 30
0.0
 40
3.0
  0
LINE
  8
0
  6
LTYPE2
 62
     2
 10
1410.9999996
 20
615.0299852
 30
0.0
 11
1410.9999996
 21
631.0299852
 31
0.0
  0
CIRCLE
  8
0
  6
CONTINUOUS
 62
     1
 10
1410.9999996
 20
622.0299852
 30
0.0
 40
3.0
  0
LINE
  8
0
  6
CONTINUOUS
 62
     1
 10
1498.5999996
 20
659.5299852
 30
0.0
 11
1418.5999996
 21
659.5299852
 31
0.0
  0
LINE
  8
0
  6
CONTINUOUS
 62
     1
 10
1438.5999996
 20
584.5299852
 30
0.0
 11
1438.5999996
 21
659.5299852
 31
0.0
  0
LINE
  8
0
  6
CONTINUOUS
 62
     1
 10
1418.5999996
 20
584.5299852
 30
0.0
 11
1418.5999996
 21
659.5299852
 31
0.0
  0
LINE
  8
0
  6
CONTINUOUS
 62
     1
 10
1478.5999996
 20
584.5299852
 30
0.0
 11
1478.5999996
 21
659.5299852
 31
0.0
  0
LINE
  8
0
  6
CONTINUOUS
 62
     1
 10
1498.5999996
 20
584.5299852
 30
0.0
 11
1418.5999996
 21
584.5299852
 31
0.0
  0
LINE
  8
0
  6
CONTINUOUS
 62
     1
 10
1498.5999996
 20
584.5299852
 30
0.0
 11
1498.5999996
 21
659.5299852
 31
0.0
  0
LINE
  8
0
  6
LTYPE2
 62
     2
 10
1458.5999996
 20
578.4299852
 30
0.0
 11
1458.5999996
 21
662.2299852
 31
0.0
  0
LINE
  8
0
  6
LTYPE1
 62
     2
 10
1533.5999996
 20
607.0299852
 30
0.0
 11
1533.5999996
 21
637.0299852
 31
0.0
  0
LINE
  8
0
  6
LTYPE1
 62
     2
 10
1533.5999996
 20
637.0299852
 30
0.0
 11
1568.5999996
 21
637.0299852
 31
0.0
  0
LINE
  8
0
  6
LTYPE1
 62
     2
 10
1533.5999996
 20
607.0299852
 30
0.0
 11
1568.5999996
 21
607.0299852
 31
0.0
  0
LINE
  8
0
  6
LTYPE1
 62
     2
 10
1383.5999996
 20
607.0299852
 30
0.0
 11
1383.5999996
 21
637.0299852
 31
0.0
  0
ARC
  8
0
  6
CONTINUOUS
 62
     1
 10
1410.5999996
 20
549.5299852
 30
0.0
 40
3.0
 50
90.0
 51
180.0
  0
LINE
  8
0
  6
CONTINUOUS
 62
     1
 10
1407.5999996
 20
503.0299852
 30
0.0
 11
1407.5999996
 21
549.5299852
 31
0.0
  0
ARC
  8
0
  6
CONTINUOUS
 62
     1
 10
1408.5999996
 20
503.0299852
 30
0.0
 40
1.0
 50
180.0
 51
270.0
  0
ARC
  8
0
  6
CONTINUOUS
 62
     1
 10
1411.5999996
 20
502.0299852
 30
0.0
 40
1.0
 50
180.0
 51
270.0
  0
ARC
  8
0
  6
CONTINUOUS
 62
     1
 10
1506.5999996
 20
549.5299852
 30
0.0
 40
3.0
 50
0.0
 51
90.0
  0
LINE
  8
0
  6
CONTINUOUS
 62
     1
 10
1509.5999996
 20
503.0299852
 30
0.0
 11
1509.5999996
 21
549.5299852
 31
0.0
  0
ARC
  8
0
  6
CONTINUOUS
 62
     1
 10
1508.5999996
 20
503.0299852
 30
0.0
 40
1.0
 50
270.0
 51
0.0
  0
ARC
  8
0
  6
CONTINUOUS
 62
     1
 10
1505.5999996
 20
502.0299852
 30
0.0
 40
1.0
 50
270.0
 51
0.0
  0
LINE
  8
0
  6
CONTINUOUS
 62
     1
 10
1509.5999996
 20
508.0299852
 30
0.0
 11
1407.5999996
 21
508.0299852
 31
0.0
  0
LINE
  8
0
  6
CONTINUOUS
 62
     1
 10
1509.5999996
 20
509.5299852
 30
0.0
 11
1407.5999996
 21
509.5299852
 31
0.0
  0
LINE
  8
0
  6
CONTINUOUS
 62
     1
 10
1505.5999996
 20
501.0299852
 30
0.0
 11
1411.5999996
 21
501.0299852
 31
0.0
  0
LINE
  8
0
  6
CONTINUOUS
 62
     1
 10
1508.5999996
 20
502.0299852
 30
0.0
 11
1408.5999996
 21
502.0299852
 31
0.0
  0
LINE
  8
0
  6
LTYPE3
 62
     2
 10
1503.5999996
 20
497.3299852
 30
0.0
 11
1503.5999996
 21
516.0299852
 31
0.0
  0
LINE
  8
0
  6
LTYPE3
 62
     2
 10
1413.5999996
 20
497.3299852
 30
0.0
 11
1413.5999996
 21
516.0299852
 31
0.0
  0
LINE
  8
0
  6
LTYPE3
 62
     3
 10
1458.5999996
 20
496.5299852
 30
0.0
 11
1458.5999996
 21
555.6799852
 31
0.0
  0
CIRCLE
  8
0
  6
CONTINUOUS
 62
     2
 10
1458.5999996
 20
526.5299852
 30
0.0
 40
10.4775
  0
CIRCLE
  8
0
  6
CONTINUOUS
 62
     2
 10
1458.5999996
 20
526.5299852
 30
0.0
 40
9.3155
  0
LINE
  8
0
  6
LTYPE2
 62
     2
 10
1478.4999996
 20
526.5299852
 30
0.0
 11
1437.7999996
 21
526.5299852
 31
0.0
  0
LINE
  8
0
  6
LTYPE2
 62
     2
 10
1536.0999996
 20
562.0299852
 30
0.0
 11
1502.0999996
 21
562.0299852
 31
0.0
  0
LINE
  8
0
  6
LTYPE2
 62
     2
 10
1518.5999996
 20
543.5299852
 30
0.0
 11
1518.5999996
 21
579.5299852
 31
0.0
  0
LINE
  8
0
  6
CONTINUOUS
 62
     1
 10
1530.5999996
 20
542.0299852
 30
0.0
 11
1509.5999996
 21
542.0299852
 31
0.0
  0
ARC
  8
0
  6
CONTINUOUS
 62
     1
 10
1530.5999996
 20
550.0299852
 30
0.0
 40
8.0
 50
270.0
 51
0.0
  0
LINE
  8
0
  6
LTYPE2
 62
     2
 10
1381.0999996
 20
562.0299852
 30
0.0
 11
1415.0999996
 21
562.0299852
 31
0.0
  0
LINE
  8
0
  6
LTYPE2
 62
     2
 10
1398.5999996
 20
543.5299852
 30
0.0
 11
1398.5999996
 21
579.5299852
 31
0.0
  0
LINE
  8
0
  6
CONTINUOUS
 62
     1
 10
1386.5999996
 20
542.0299852
 30
0.0
 11
1407.5999996
 21
542.0299852
 31
0.0
  0
ARC
  8
0
  6
CONTINUOUS
 62
     1
 10
1386.5999996
 20
550.0299852
 30
0.0
 40
8.0
 50
180.0
 51
270.0
  0
LINE
  8
0
  6
LTYPE2
 62
     2
 10
1536.0999996
 20
682.0299852
 30
0.0
 11
1502.0999996
 21
682.0299852
 31
0.0
  0
LINE
  8
0
  6
LTYPE2
 62
     2
 10
1518.5999996
 20
700.5299852
 30
0.0
 11
1518.5999996
 21
664.5299852
 31
0.0
  0
ARC
  8
0
  6
CONTINUOUS
 62
     1
 10
1530.5999996
 20
694.0299852
 30
0.0
 40
8.0
 50
0.0
 51
90.0
  0
LINE
  8
0
  6
CONTINUOUS
 62
     2
 10
1584.5999996
 20
622.0299852
 30
0.0
 11
1629.0999996
 21
622.0299852
 31
0.0
  0
LINE
  8
0
  6
CONTINUOUS
 62
     2
 10
1620.0999996
 20
622.0299852
 30
0.0
 11
1616.217713923
 21
607.541097806
 31
0.0
  0
LINE
  8
0
  6
CONTINUOUS
 62
     2
 10
1620.0999996
 20
622.0299852
 30
0.0
 11
1623.982285277
 21
607.541097806
 31
0.0
  0
LINE
  8
0
  6
CONTINUOUS
 62
     2
 10
1620.0999996
 20
622.0299852
 30
0.0
 11
1620.0999996
 21
527.0299852
 31
0.0
  0
LINE
  8
0
  6
CONTINUOUS
 62
     2
 10
1620.0999996
 20
527.0299852
 30
0.0
 11
1623.982285277
 21
541.518872594
 31
0.0
  0
LINE
  8
0
  6
CONTINUOUS
 62
     2
 10
1620.0999996
 20
527.0299852
 30
0.0
 11
1616.217713923
 21
541.518872594
 31
0.0
  0
LINE
  8
0
  6
CONTINUOUS
 62
     2
 10
1556.5999996
 20
527.0299852
 30
0.0
 11
1629.0999996
 21
527.0299852
 31
0.0
  0
TEXT
  8
0
  6
CONTINUOUS
 62
     2
 10
1614.0999996
 20
557.7299852
 30
1.2
 40
18.0
  1
９５
 50
90.0
 41
0.9
 51
0.0
  7
KANJI38
  0
LINE
  8
0
  6
CONTINUOUS
 62
     2
 10
1620.0999996
 20
622.0299852
 30
0.0
 11
1623.982285277
 21
636.518872594
 31
0.0
  0
LINE
  8
0
  6
CONTINUOUS
 62
     2
 10
1620.0999996
 20
622.0299852
 30
0.0
 11
1616.217713923
 21
636.518872594
 31
0.0
  0
TEXT
  8
0
  6
CONTINUOUS
 62
     2
 10
1614.0999996
 20
687.6549852
 30
1.2
 40
18.0
  1
１８３
 50
90.0
 41
0.9
 51
0.0
  7
KANJI38
  0
LINE
  8
0
  6
CONTINUOUS
 62
     2
 10
1629.0999996
 20
622.0299852
 30
0.0
 11
1676.0999996
 21
622.0299852
 31
0.0
  0
LINE
  8
0
  6
CONTINUOUS
 62
     2
 10
1667.0999996
 20
622.0299852
 30
0.0
 11
1663.217713923
 21
607.541097806
 31
0.0
  0
LINE
  8
0
  6
CONTINUOUS
 62
     2
 10
1667.0999996
 20
622.0299852
 30
0.0
 11
1670.982285277
 21
607.541097806
 31
0.0
  0
LINE
  8
0
  6
CONTINUOUS
 62
     2
 10
1667.0999996
 20
622.0299852
 30
0.0
 11
1667.0999996
 21
501.0299852
 31
0.0
  0
LINE
  8
0
  6
CONTINUOUS
 62
     2
 10
1667.0999996
 20
501.0299852
 30
0.0
 11
1670.982285277
 21
515.518872594
 31
0.0
  0
LINE
  8
0
  6
CONTINUOUS
 62
     2
 10
1667.0999996
 20
501.0299852
 30
0.0
 11
1663.217713923
 21
515.518872594
 31
0.0
  0
LINE
  8
0
  6
CONTINUOUS
 62
     2
 10
1514.5999996
 20
501.0299852
 30
0.0
 11
1676.0999996
 21
501.0299852
 31
0.0
  0
TEXT
  8
0
  6
CONTINUOUS
 62
     2
 10
1661.0999996
 20
536.0299852
 30
1.2
 40
18.0
  1
１２１
 50
90.0
 41
0.9
 51
0.0
  7
KANJI38
  0
LINE
  8
0
  6
CONTINUOUS
 62
     2
 10
1568.5999996
 20
391.5299852
 30
0.0
 11
1554.111112206
 21
395.412270877
 31
0.0
  0
LINE
  8
0
  6
CONTINUOUS
 62
     2
 10
1568.5999996
 20
391.5299852
 30
0.0
 11
1554.111112206
 21
387.647699523
 31
0.0
  0
LINE
  8
0
  6
CONTINUOUS
 62
     2
 10
1568.5999996
 20
578.0299852
 30
0.0
 11
1568.5999996
 21
382.5299852
 31
0.0
  0
TEXT
  8
0
  6
CONTINUOUS
 62
     2
 10
1433.0999996
 20
397.5299852
 30
1.2
 40
18.0
  1
２２０
 50
0.0
 41
0.9
 51
0.0
  7
KANJI38
  0
LINE
  8
0
  6
CONTINUOUS
 62
     2
 10
1620.0999996
 20
622.7799852
 30
0.0
 11
1620.0999996
 21
805.0299852
 31
0.0
  0
LINE
  8
0
  6
CONTINUOUS
 62
     2
 10
1620.0999996
 20
805.0299852
 30
0.0
 11
1616.217713923
 21
790.541097806
 31
0.0
  0
LINE
  8
0
  6
CONTINUOUS
 62
     2
 10
1620.0999996
 20
805.0299852
 30
0.0
 11
1623.982285277
 21
790.541097806
 31
0.0
  0
LINE
  8
0
  6
CONTINUOUS
 62
     2
 10
1576.5999996
 20
805.0299852
 30
0.0
 11
1629.0999996
 21
805.0299852
 31
0.0
  0
LINE
  8
0
  6
LTYPE5
 62
     2
 10
1458.5999996
 20
669.7799852
 30
0.0
 11
1458.5999996
 21
954.0299852
 31
0.0
  0
LINE
  8
0
  6
CONTINUOUS
 62
     2
 10
1458.5999996
 20
491.5299852
 30
0.0
 11
1458.5999996
 21
466.5799852
 31
0.0
  0
LINE
  8
0
  6
CONTINUOUS
 62
     1
 10
1568.5999996
 20
592.0299852
 30
0.0
 11
1568.5999996
 21
652.0299852
 31
0.0
  0
LINE
  8
0
  6
CONTINUOUS
 62
     1
 10
1378.5999996
 20
550.0299852
 30
0.0
 11
1378.5999996
 21
589.832241128
 31
0.0
  0
LINE
  8
0
  6
CONTINUOUS
 62
     1
 10
1538.5999996
 20
550.0299852
 30
0.0
 11
1538.5999996
 21
589.832241128
 31
0.0
  0
LINE
  8
0
  6
CONTINUOUS
 62
     1
 10
1538.5999996
 20
654.227729272
 30
0.0
 11
1538.5999996
 21
694.0299852
 31
0.0
  0
CIRCLE
  8
0
  6
LTYPE1
 62
     2
 10
1458.5999996
 20
622.0299852
 30
0.0
 40
57.0
  0
LINE
  8
0
  6
LTYPE1
 62
     2
 10
1463.5999996
 20
685.5299852
 30
0.0
 11
1453.5999996
 21
685.5299852
 31
0.0
  0
LINE
  8
0
  6
LTYPE1
 62
     2
 10
1453.5999996
 20
685.5299852
 30
0.0
 11
1453.5999996
 21
689.344545289
 31
0.0
  0
ARC
  8
0
  6
LTYPE1
 62
     2
 10
1458.5999996
 20
622.0299852
 30
0.0
 40
67.5
 50
94.248022667
 51
205.751977333
  0
LINE
  8
0
  6
LTYPE1
 62
     2
 10
1463.5999996
 20
685.5299852
 30
0.0
 11
1463.5999996
 21
689.344545289
 31
0.0
  0
ARC
  8
0
  6
LTYPE1
 62
     2
 10
1458.5999996
 20
622.0299852
 30
0.0
 40
67.5
 50
334.248022667
 51
85.751977333
  0
LINE
  8
0
  6
LTYPE1
 62
     2
 10
1511.09261274
 20
585.949858181
 30
0.0
 11
1516.09261274
 21
594.610112219
 31
0.0
  0
LINE
  8
0
  6
LTYPE1
 62
     2
 10
1516.09261274
 20
594.610112219
 30
0.0
 11
1519.396118682
 21
592.702832174
 31
0.0
  0
ARC
  8
0
  6
LTYPE1
 62
     2
 10
1458.5999996
 20
622.0299852
 30
0.0
 40
67.5
 50
214.248022667
 51
325.751977333
  0
LINE
  8
0
  6
LTYPE1
 62
     2
 10
1511.09261274
 20
585.949858181
 30
0.0
 11
1514.396118682
 21
584.042578136
 31
0.0
  0
LINE
  8
0
  6
LTYPE1
 62
     2
 10
1401.10738646
 20
594.610112219
 30
0.0
 11
1406.10738646
 21
585.949858181
 31
0.0
  0
LINE
  8
0
  6
LTYPE1
 62
     2
 10
1401.10738646
 20
594.610112219
 30
0.0
 11
1397.803880518
 21
592.702832174
 31
0.0
  0
LINE
  8
0
  6
LTYPE1
 62
     2
 10
1406.10738646
 20
585.949858181
 30
0.0
 11
1402.803880518
 21
584.042578136
 31
0.0
  0
CIRCLE
  8
0
  6
CONTINUOUS
 62
     1
 10
1518.5999996
 20
562.0299852
 30
0.0
 40
12.0
  0
CIRCLE
  8
0
  6
CONTINUOUS
 62
     1
 10
1458.5999996
 20
943.5299852
 30
0.0
 40
12.055
  0
CIRCLE
  8
0
  6
CONTINUOUS
 62
     1
 10
1458.5999996
 20
943.5299852
 30
0.0
 40
20.0
  0
CIRCLE
  8
0
  6
CONTINUOUS
 62
     1
 10
1458.5999996
 20
943.5299852
 30
0.0
 40
25.0
  0
LINE
  8
0
  6
CONTINUOUS
 62
     1
 10
1458.5999996
 20
988.0299852
 30
0.0
 11
1428.5999996
 21
988.0299852
 31
0.0
  0
LINE
  8
0
  6
CONTINUOUS
 62
     1
 10
1418.5999996
 20
919.0299852
 30
0.0
 11
1418.5999996
 21
978.0299852
 31
0.0
  0
ARC
  8
0
  6
CONTINUOUS
 62
     1
 10
1428.5999996
 20
978.0299852
 30
0.0
 40
10.0
 50
90.0
 51
180.0
  0
LINE
  8
0
  6
CONTINUOUS
 62
     1
 10
1458.5999996
 20
993.0299852
 30
0.0
 11
1418.5999996
 21
993.0299852
 31
0.0
  0
ARC
  8
0
  6
CONTINUOUS
 62
     1
 10
1418.5999996
 20
983.0299852
 30
0.0
 40
10.0
 50
90.0
 51
180.0
  0
LINE
  8
0
  6
CONTINUOUS
 62
     1
 10
1408.5999996
 20
919.0299852
 30
0.0
 11
1408.5999996
 21
983.0299852
 31
0.0
  0
ARC
  8
0
  6
CONTINUOUS
 62
     1
 10
1428.5999996
 20
919.0299852
 30
0.0
 40
10.0
 50
180.0
 51
270.0
  0
LINE
  8
0
  6
CONTINUOUS
 62
     1
 10
1458.5999996
 20
909.0299852
 30
0.0
 11
1418.5999996
 21
909.0299852
 31
0.0
  0
ARC
  8
0
  6
CONTINUOUS
 62
     1
 10
1418.5999996
 20
919.0299852
 30
0.0
 40
10.0
 50
180.0
 51
270.0
  0
LINE
  8
0
  6
CONTINUOUS
 62
     1
 10
1428.239872993
 20
909.036471862
 30
0.0
 11
1428.239872993
 21
903.536471862
 31
0.0
  0
ARC
  8
0
  6
CONTINUOUS
 62
     1
 10
1458.5999996
 20
805.0299852
 30
0.0
 40
100.0
 50
66.110646249
 51
173.889353751
  0
LINE
  8
0
  6
LTYPE2
 62
     2
 10
1422.0999996
 20
943.5299852
 30
0.0
 11
1494.0999996
 21
943.5299852
 31
0.0
  0
CIRCLE
  8
0
  6
CONTINUOUS
 62
     2
 10
1458.5999996
 20
943.5299852
 30
0.0
 40
13.221
  0
LINE
  8
0
  6
CONTINUOUS
 62
     1
 10
1458.5999996
 20
988.0299852
 30
0.0
 11
1488.5999996
 21
988.0299852
 31
0.0
  0
LINE
  8
0
  6
CONTINUOUS
 62
     1
 10
1498.5999996
 20
919.0299852
 30
0.0
 11
1498.5999996
 21
978.0299852
 31
0.0
  0
ARC
  8
0
  6
CONTINUOUS
 62
     1
 10
1488.5999996
 20
978.0299852
 30
0.0
 40
10.0
 50
0.0
 51
90.0
  0
LINE
  8
0
  6
CONTINUOUS
 62
     1
 10
1458.5999996
 20
993.0299852
 30
0.0
 11
1498.5999996
 21
993.0299852
 31
0.0
  0
ARC
  8
0
  6
CONTINUOUS
 62
     1
 10
1498.5999996
 20
983.0299852
 30
0.0
 40
10.0
 50
0.0
 51
90.0
  0
ARC
  8
0
  6
CONTINUOUS
 62
     1
 10
1458.5999996
 20
805.0299852
 30
0.0
 40
100.0
 50
306.110646249
 51
53.889353751
  0
ARC
  8
0
  6
CONTINUOUS
 62
     1
 10
1488.5999996
 20
919.0299852
 30
0.0
 40
10.0
 50
270.0
 51
0.0
  0
LINE
  8
0
  6
CONTINUOUS
 62
     1
 10
1458.5999996
 20
909.0299852
 30
0.0
 11
1498.5999996
 21
909.0299852
 31
0.0
  0
LINE
  8
0
  6
CONTINUOUS
 62
     1
 10
1508.5999996
 20
919.0299852
 30
0.0
 11
1508.5999996
 21
983.0299852
 31
0.0
  0
ARC
  8
0
  6
CONTINUOUS
 62
     1
 10
1498.5999996
 20
919.0299852
 30
0.0
 40
10.0
 50
270.0
 51
0.0
  0
LINE
  8
0
  6
CONTINUOUS
 62
     1
 10
1488.960126207
 20
909.036471862
 30
0.0
 11
1488.960126207
 21
903.536471862
 31
0.0
  0
ARC
  8
0
  6
CONTINUOUS
 62
     1
 10
1499.8499996
 20
876.477081012
 30
0.0
 40
20.0
 50
330.0
 51
60.0
  0
ARC
  8
0
  6
CONTINUOUS
 62
     1
 10
1499.8499996
 20
876.477081012
 30
0.0
 40
20.0
 50
60.0
 51
150.0
  0
LINE
  8
0
  6
CONTINUOUS
 62
     1
 10
1482.529491524
 20
886.477081012
 30
0.0
 11
1447.052994216
 21
825.0299852
 31
0.0
  0
LINE
  8
0
  6
CONTINUOUS
 62
     2
 10
1620.0999996
 20
805.0299852
 30
0.0
 11
1620.0999996
 21
993.0299852
 31
0.0
  0
LINE
  8
0
  6
CONTINUOUS
 62
     2
 10
1620.0999996
 20
993.0299852
 30
0.0
 11
1616.217713923
 21
978.541097806
 31
0.0
  0
LINE
  8
0
  6
CONTINUOUS
 62
     2
 10
1620.0999996
 20
993.0299852
 30
0.0
 11
1623.982285277
 21
978.541097806
 31
0.0
  0
LINE
  8
0
  6
CONTINUOUS
 62
     2
 10
1504.600030118
 20
993.0299852
 30
0.0
 11
1626.0999996
 21
993.0299852
 31
0.0
  0
LINE
  8
0
  6
CONTINUOUS
 62
     2
 10
1620.0999996
 20
805.0299852
 30
0.0
 11
1623.982285277
 21
819.518872594
 31
0.0
  0
LINE
  8
0
  6
CONTINUOUS
 62
     2
 10
1620.0999996
 20
805.0299852
 30
0.0
 11
1616.217713923
 21
819.518872594
 31
0.0
  0
LINE
  8
0
  6
CONTINUOUS
 62
     2
 10
1667.0999996
 20
622.0299852
 30
0.0
 11
1667.0999996
 21
993.0299852
 31
0.0
  0
LINE
  8
0
  6
CONTINUOUS
 62
     2
 10
1667.0999996
 20
993.0299852
 30
0.0
 11
1663.217713923
 21
978.541097806
 31
0.0
  0
LINE
  8
0
  6
CONTINUOUS
 62
     2
 10
1667.0999996
 20
993.0299852
 30
0.0
 11
1670.982285277
 21
978.541097806
 31
0.0
  0
LINE
  8
0
  6
CONTINUOUS
 62
     2
 10
1611.0999996
 20
993.0299852
 30
0.0
 11
1673.0999996
 21
993.0299852
 31
0.0
  0
TEXT
  8
0
  6
CONTINUOUS
 62
     3
 10
1661.0999996
 20
783.2299852
 30
0.0
 40
18.0
  1
３７１
 50
90.0
 41
0.9
 51
0.0
  7
KANJI41
  0
LINE
  8
0
  6
CONTINUOUS
 62
     2
 10
1667.0999996
 20
622.0299852
 30
0.0
 11
1670.982285277
 21
636.518872594
 31
0.0
  0
LINE
  8
0
  6
CONTINUOUS
 62
     2
 10
1667.0999996
 20
622.0299852
 30
0.0
 11
1663.217713923
 21
636.518872594
 31
0.0
  0
LINE
  8
0
  6
CONTINUOUS
 62
     1
 10
1461.933332933
 20
824.750251144
 30
0.0
 11
1520.266666267
 21
814.890118172
 31
0.0
  0
CIRCLE
  8
0
  6
CONTINUOUS
 62
     1
 10
1518.5999996
 20
805.0299852
 30
0.0
 40
9.0
  0
LINE
  8
0
  6
CONTINUOUS
 62
     1
 10
1517.170507676
 20
866.477081012
 30
0.0
 11
1490.310211438
 21
819.953683223
 31
0.0
  0
ARC
  8
0
  6
CONTINUOUS
 62
     1
 10
1518.5999996
 20
805.0299852
 30
0.0
 40
10.0
 50
279.594068227
 51
80.405931773
  0
LINE
  8
0
  6
LTYPE2
 62
     2
 10
1518.5999996
 20
790.0299852
 30
0.0
 11
1518.5999996
 21
825.0299852
 31
0.0
  0
LINE
  8
0
  6
CONTINUOUS
 62
     1
 10
1461.933332933
 20
785.309719256
 30
0.0
 11
1520.266666267
 21
795.169852228
 31
0.0
  0
LINE
  8
0
  6
CONTINUOUS
 62
     1
 10
1517.170507676
 20
743.582889388
 30
0.0
 11
1490.310211438
 21
790.106287177
 31
0.0
  0
ARC
  8
0
  6
CONTINUOUS
 62
     1
 10
1499.8499996
 20
733.582889388
 30
0.0
 40
20.0
 50
210.0
 51
300.0
  0
ARC
  8
0
  6
CONTINUOUS
 62
     1
 10
1499.8499996
 20
733.582889388
 30
0.0
 40
20.0
 50
300.0
 51
30.0
  0
LINE
  8
0
  6
CONTINUOUS
 62
     1
 10
1482.529491524
 20
723.582889388
 30
0.0
 11
1447.052994216
 21
785.0299852
 31
0.0
  0
LINE
  8
0
  6
CONTINUOUS
 62
     1
 10
1376.0999996
 20
785.0299852
 30
0.0
 11
1447.052994216
 21
785.0299852
 31
0.0
  0
ARC
  8
0
  6
CONTINUOUS
 62
     1
 10
1458.5999996
 20
805.0299852
 30
0.0
 40
20.0
 50
80.405931773
 51
279.594068227
  0
CIRCLE
  8
0
  6
CONTINUOUS
 62
     1
 10
1458.5999996
 20
805.0299852
 30
0.0
 40
19.0
  0
CIRCLE
  8
0
  6
CONTINUOUS
 62
     1
 10
1445.4999996
 20
805.0299852
 30
0.0
 40
4.0
  0
CIRCLE
  8
0
  6
CONTINUOUS
 62
     1
 10
1458.5999996
 20
791.9299852
 30
0.0
 40
4.0
  0
CIRCLE
  8
0
  6
CONTINUOUS
 62
     1
 10
1458.5999996
 20
805.0299852
 30
0.0
 40
4.0
  0
CIRCLE
  8
0
  6
CONTINUOUS
 62
     1
 10
1471.6999996
 20
805.0299852
 30
0.0
 40
4.0
  0
CIRCLE
  8
0
  6
CONTINUOUS
 62
     1
 10
1458.5999996
 20
818.1299852
 30
0.0
 40
4.0
  0
LINE
  8
0
  6
CONTINUOUS
 62
     1
 10
1376.0999996
 20
825.0299852
 30
0.0
 11
1447.052994216
 21
825.0299852
 31
0.0
  0
TEXT
  8
0
  6
CONTINUOUS
 62
     2
 10
1615.0999996
 20
862.6549852
 30
1.2
 40
18.0
  1
１８８
 50
90.0
 41
0.9
 51
0.0
  7
KANJI38
  0
ARC
  8
0
  6
CONTINUOUS
 62
     1
 10
1458.5999996
 20
805.0299852
 30
0.0
 40
100.0
 50
186.110646249
 51
215.965622778
  0
LINE
  8
0
  6
CONTINUOUS
 62
     1
 10
1362.608189302
 20
708.829478053
 30
0.0
 11
1369.853898347
 21
710.776086453
 31
0.0
  0
CIRCLE
  8
0
  6
LTYPE1
 62
     2
 10
1364.554797702
 20
716.075187098
 30
0.0
 40
3.2
  0
CIRCLE
  8
0
  6
CONTINUOUS
 62
     1
 10
1364.554797702
 20
716.075187098
 30
0.0
 40
4.0
  0
LINE
  8
0
  6
CONTINUOUS
 62
     1
 10
1366.501406102
 20
723.320896142
 30
0.0
 11
1359.255697058
 21
721.374287742
 31
0.0
  0
LINE
  8
0
  6
CONTINUOUS
 62
     1
 10
1371.800506747
 20
718.021795498
 30
0.0
 11
1369.853898347
 21
710.776086453
 31
0.0
  0
LINE
  8
0
  6
CONTINUOUS
 62
     1
 10
1371.800506747
 20
718.021795498
 30
0.0
 11
1366.501406102
 21
723.320896142
 31
0.0
  0
LINE
  8
0
  6
LTYPE1
 62
     2
 10
1370.034875256
 20
726.50501212
 30
0.0
 11
1374.984622725
 21
721.555264652
 31
0.0
  0
ARC
  8
0
  6
CONTINUOUS
 62
     1
 10
1358.402968706
 20
655.334714594
 30
0.0
 40
2.0
 50
315.0
 51
45.0
  0
LINE
  8
0
  6
CONTINUOUS
 62
     1
 10
1362.893096766
 20
647.026209915
 30
0.0
 11
1382.69208664
 21
627.227220042
 31
0.0
  0
LINE
  8
0
  6
CONTINUOUS
 62
     1
 10
1362.893096766
 20
647.026209915
 30
0.0
 11
1371.929281376
 21
656.062394525
 31
0.0
  0
LINE
  8
0
  6
CONTINUOUS
 62
     1
 10
1369.964164578
 20
608.842443731
 30
0.0
 11
1388.348940889
 21
590.45766742
 31
0.0
  0
ARC
  8
0
  6
CONTINUOUS
 62
     1
 10
1381.277873077
 20
625.813006479
 30
0.0
 40
2.0
 50
315.0
 51
45.0
  0
LINE
  8
0
  6
CONTINUOUS
 62
     1
 10
1369.964164578
 20
611.670870856
 30
0.0
 11
1382.69208664
 21
624.398792917
 31
0.0
  0
ARC
  8
0
  6
CONTINUOUS
 62
     1
 10
1371.378378141
 20
610.256657293
 30
0.0
 40
2.0
 50
135.0
 51
225.0
  0
LINE
  8
0
  6
CONTINUOUS
 62
     1
 10
1391.177368014
 20
590.45766742
 30
0.0
 11
1400.016202779
 21
599.296502185
 31
0.0
  0
ARC
  8
0
  6
CONTINUOUS
 62
     1
 10
1389.763154451
 20
591.871880982
 30
0.0
 40
2.0
 50
225.0
 51
315.0
  0
LINE
  8
0
  6
CONTINUOUS
 62
     1
 10
1396.728156246
 20
602.584548717
 30
0.0
 11
1416.88069951
 21
582.432005454
 31
0.0
  0
LINE
  8
0
  6
CONTINUOUS
 62
     1
 10
1419.002019854
 20
580.31068511
 30
0.0
 11
1453.296698741
 21
546.016006222
 31
0.0
  0
LINE
  8
0
  6
CONTINUOUS
 62
     1
 10
1419.002019854
 20
580.31068511
 30
0.0
 11
1423.221319944
 21
584.5299852
 31
0.0
  0
LINE
  8
0
  6
CONTINUOUS
 62
     1
 10
1416.88069951
 20
582.432005454
 30
0.0
 11
1418.978679256
 21
584.5299852
 31
0.0
  0
ARC
  8
0
  6
CONTINUOUS
 62
     1
 10
1458.5999996
 20
622.0299852
 30
0.0
 40
65.5
 50
225.0
 51
253.614405251
  0
ARC
  8
0
  6
CONTINUOUS
 62
     1
 10
1458.5999996
 20
622.0299852
 30
0.0
 40
67.5
 50
214.248022667
 51
256.586338096
  0
LINE
  8
0
  6
CONTINUOUS
 62
     1
 10
1394.359348529
 20
593.639647935
 30
0.0
 11
1412.284505432
 21
575.714491032
 31
0.0
  0
ARC
  8
0
  6
CONTINUOUS
 62
     1
 10
1458.5999996
 20
622.0299852
 30
0.0
 40
57.5
 50
285.408154206
 51
344.591845794
  0
ARC
  8
0
  6
CONTINUOUS
 62
     1
 10
1458.5999996
 20
622.0299852
 30
0.0
 40
65.5
 50
274.761201874
 51
355.238798126
  0
ARC
  8
0
  6
CONTINUOUS
 62
     1
 10
1458.5999996
 20
622.0299852
 30
0.0
 40
67.5
 50
272.794553596
 51
325.751977333
  0
ARC
  8
0
  6
CONTINUOUS
 62
     1
 10
1458.5999996
 20
622.0299852
 30
0.0
 40
67.5
 50
334.248022667
 51
357.205446404
  0
ARC
  8
0
  6
CONTINUOUS
 62
     1
 10
1458.5999996
 20
622.0299852
 30
0.0
 40
67.5
 50
13.413661903
 51
54.006806579
  0
ARC
  8
0
  6
CONTINUOUS
 62
     1
 10
1458.5999996
 20
622.0299852
 30
0.0
 40
65.5
 50
16.385594749
 51
45.0
  0
LINE
  8
0
  6
CONTINUOUS
 62
     1
 10
1500.31929969
 20
661.627964946
 30
0.0
 11
1534.613978578
 21
627.333286059
 31
0.0
  0
LINE
  8
0
  6
CONTINUOUS
 62
     1
 10
1490.17231738
 20
689.452616786
 30
0.0
 11
1481.333482615
 21
680.613782021
 31
0.0
  0
LINE
  8
0
  6
CONTINUOUS
 62
     1
 10
1486.990336865
 20
686.270636271
 30
0.0
 11
1504.915493768
 21
668.345479368
 31
0.0
  0
ARC
  8
0
  6
CONTINUOUS
 62
     1
 10
1488.758103818
 20
690.866830349
 30
0.0
 40
2.0
 50
315.0
 51
45.0
  0
LINE
  8
0
  6
CONTINUOUS
 62
     1
 10
1471.78753028
 20
710.665831011
 30
0.0
 11
1490.17231738
 21
692.281043911
 31
0.0
  0
LINE
  8
0
  6
CONTINUOUS
 62
     1
 10
1468.959113944
 20
710.665820222
 30
0.0
 11
1456.231191883
 21
697.93789816
 31
0.0
  0
ARC
  8
0
  6
CONTINUOUS
 62
     1
 10
1470.373327507
 20
709.251606659
 30
0.0
 40
2.0
 50
45.000437132
 51
135.0
  0
LINE
  8
0
  6
CONTINUOUS
 62
     1
 10
1433.603774885
 20
717.736888034
 30
0.0
 11
1453.402764758
 21
697.93789816
 31
0.0
  0
ARC
  8
0
  6
CONTINUOUS
 62
     1
 10
1454.816978321
 20
699.352111723
 30
0.0
 40
2.0
 50
225.0
 51
315.0
  0
LINE
  8
0
  6
CONTINUOUS
 62
     1
 10
1415.466485948
 20
718.903614223
 30
0.0
 11
1424.305320712
 21
727.742448987
 31
0.0
  0
LINE
  8
0
  6
CONTINUOUS
 62
     1
 10
1445.872077539
 20
745.066565126
 30
0.0
 11
1417.587806291
 21
716.782293879
 31
0.0
  0
LINE
  8
0
  6
CONTINUOUS
 62
     1
 10
1456.125125866
 20
741.17747783
 30
0.0
 11
1423.939575826
 21
708.99192779
 31
0.0
  0
LINE
  8
0
  6
CONTINUOUS
 62
     1
 10
1418.14251937
 20
711.680152708
 30
0.0
 11
1451.882485179
 21
745.420118517
 31
0.0
  0
LINE
  8
0
  6
CONTINUOUS
 62
     1
 10
1392.131962168
 20
742.238138002
 30
0.0
 11
1420.416233416
 21
713.953866754
 31
0.0
  0
LINE
  8
0
  6
CONTINUOUS
 62
     1
 10
1433.603774885
 20
717.736888034
 30
0.0
 11
1424.567590275
 21
708.700703424
 31
0.0
  0
LINE
  8
0
  6
CONTINUOUS
 62
     1
 10
1448.700504663
 20
742.238138002
 30
0.0
 11
1420.416233416
 21
770.522409249
 31
0.0
  0
LINE
  8
0
  6
CONTINUOUS
 62
     1
 10
1451.882485179
 20
745.420118517
 30
0.0
 11
1456.125125866
 21
741.17747783
 31
0.0
  0
CIRCLE
  8
0
  6
CONTINUOUS
 62
     1
 10
1419.284862566
 20
743.369508852
 30
0.0
 40
9.36
  0
LINE
  8
0
  6
CONTINUOUS
 62
     1
 10
1417.234252901
 20
734.813516799
 30
0.0
 11
1426.426641056
 21
725.621128644
 31
0.0
  0
LINE
  8
0
  6
CONTINUOUS
 62
     1
 10
1427.840854618
 20
745.420118517
 30
0.0
 11
1437.033242774
 21
736.227730362
 31
0.0
  0
LINE
  8
0
  6
CONTINUOUS
 62
     1
 10
1423.951767322
 20
766.986875343
 30
0.0
 11
1395.667496074
 21
738.702604096
 31
0.0
  0
LINE
  8
0
  6
CONTINUOUS
 62
     1
 10
1420.416233416
 20
770.522409249
 30
0.0
 11
1392.131962168
 21
742.238138002
 31
0.0
  0
LINE
  8
0
  6
CONTINUOUS
 62
     1
 10
1420.366365308
 20
763.401473329
 30
0.0
 11
1395.667496074
 21
738.702604096
 31
0.0
  0
LINE
  8
0
  6
CONTINUOUS
 62
     1
 10
1402.385010496
 20
770.87596264
 30
0.0
 11
1411.577398651
 21
761.683574484
 31
0.0
  0
LINE
  8
0
  6
CONTINUOUS
 62
     1
 10
1367.537904435
 20
736.028856579
 30
0.0
 11
1402.385010496
 21
770.87596264
 31
0.0
  0
LINE
  8
0
  6
CONTINUOUS
 62
     1
 10
1381.984979858
 20
739.30364486
 30
0.0
 11
1390.010641825
 21
744.359458345
 31
0.0
  0
LINE
  8
0
  6
CONTINUOUS
 62
     1
 10
1390.010641825
 20
744.359458345
 30
0.0
 11
1398.84947659
 21
753.19829311
 31
0.0
  0
LINE
  8
0
  6
CONTINUOUS
 62
     1
 10
1391.778408778
 20
760.269360922
 30
0.0
 11
1400.970796933
 21
751.076972767
 31
0.0
  0
LINE
  8
0
  6
CONTINUOUS
 62
     1
 10
1365.969011265
 20
735.874176971
 30
0.0
 11
1478.045436083
 21
683.901828554
 31
0.0
  0
LINE
  8
0
  6
CONTINUOUS
 62
     1
 10
1374.432195552
 20
731.609439197
 30
0.0
 11
1382.055690537
 21
739.232934182
 31
0.0
  0
LINE
  8
0
  6
LTYPE1
 62
     1
 10
1372.332972295
 20
729.51021594
 30
0.0
 11
1374.432195552
 21
731.609439197
 31
0.0
  0
LINE
  8
0
  6
CONTINUOUS
 62
     1
 10
1382.409243927
 20
738.879380791
 30
0.0
 11
1372.306071494
 21
728.776208358
 31
0.0
  0
LINE
  8
0
  6
CONTINUOUS
 62
     1
 10
1387.358991395
 20
733.929633323
 30
0.0
 11
1381.910916519
 21
728.481558446
 31
0.0
  0
LINE
  8
0
  6
LTYPE1
 62
     1
 10
1375.868506201
 20
725.974682034
 30
0.0
 11
1376.730292591
 21
726.836468424
 31
0.0
  0
LINE
  8
0
  6
CONTINUOUS
 62
     1
 10
1382.409243927
 20
738.879380791
 30
0.0
 11
1387.358991395
 21
733.929633323
 31
0.0
  0
LINE
  8
0
  6
LTYPE1
 62
     1
 10
1365.969011265
 20
735.874176971
 30
0.0
 11
1373.688260293
 21
728.154927943
 31
0.0
  0
LINE
  8
0
  6
CONTINUOUS
 62
     1
 10
1478.045436083
 20
683.901828554
 30
0.0
 11
1498.197979346
 21
663.74928529
 31
0.0
  0
LINE
  8
0
  6
CONTINUOUS
 62
     1
 10
1493.978679256
 20
659.5299852
 30
0.0
 11
1498.197979346
 21
663.74928529
 31
0.0
  0
LINE
  8
0
  6
CONTINUOUS
 62
     1
 10
1498.5999996
 20
659.908664856
 30
0.0
 11
1500.31929969
 21
661.627964946
 31
0.0
  0
LINE
  8
0
  6
LTYPE3
 62
     2
 10
1426.2852197
 20
715.014526926
 30
0.0
 11
1393.051200984
 21
748.248545642
 31
0.0
  0
LINE
  8
0
  6
LTYPE3
 62
     2
 10
1393.121911662
 20
769.532459756
 30
0.0
 11
1434.134104971
 21
728.520266447
 31
0.0
  0
LINE
  8
0
  6
LTYPE3
 62
     2
 10
1428.477250721
 20
752.561897007
 30
0.0
 11
1410.092474411
 21
734.177120696
 31
0.0
  0
CIRCLE
  8
0
  6
CONTINUOUS
 62
     2
 10
1419.284862566
 20
743.369508852
 30
0.0
 40
10.47
  0
LINE
  8
0
  6
LTYPE3
 62
     2
 10
1415.112932557
 20
768.896063652
 30
0.0
 11
1448.346951273
 21
735.662044937
 31
0.0
  0
LINE
  8
0
  6
CONTINUOUS
 62
     2
 10
1430.1
 20
745.92
 30
0.0
 11
1442.063200407
 21
744.980938758
 31
0.0
  0
LINE
  8
0
  6
CONTINUOUS
 62
     2
 10
1430.1
 20
745.92
 30
0.0
 11
1440.929966084
 21
751.088349313
 31
0.0
  0
LINE
  8
0
  6
CONTINUOUS
 62
     2
 10
1430.1
 20
745.92
 30
0.0
 11
1639.91
 21
784.85039304
 31
0.0
  0
LINE
  8
0
  6
LTYPE1
 62
     2
 10
1380.310020671
 20
726.880662598
 30
0.0
 11
1374.984622725
 21
721.555264652
 31
0.0
  0
LINE
  8
0
  6
LTYPE3
 62
     2
 10
1367.666067539
 20
741.248188508
 30
0.0
 11
1382.939574013
 21
725.974682034
 31
0.0
  0
LINE
  8
0
  6
CONTINUOUS
 62
     2
 10
1669.81
 20
790.398359066
 30
0.0
 11
1720.91
 21
799.88
 31
0.0
  0
LINE
  8
0
  6
CONTINUOUS
 62
     1
 10
1453.296698741
 20
546.016006222
 30
0.0
 11
1491.810677719
 21
584.5299852
 31
0.0
  0
LINE
  8
0
  6
CONTINUOUS
 62
     1
 10
1502.5999996
 20
595.319307081
 30
0.0
 11
1534.613978578
 21
627.333286059
 31
0.0
  0
LINE
  8
0
  6
CONTINUOUS
 62
     1
 10
1498.5999996
 20
591.319307081
 30
0.0
 11
1502.5999996
 21
595.319307081
 31
0.0
  0
LINE
  8
0
  6
CONTINUOUS
 62
     1
 10
1369.5999996
 20
527.0299852
 30
0.0
 11
1407.5999996
 21
527.0299852
 31
0.0
  0
ARC
  8
0
  6
CONTINUOUS
 62
     1
 10
1369.5999996
 20
533.0299852
 30
0.0
 40
6.0
 50
180.0
 51
270.0
  0
LINE
  8
0
  6
CONTINUOUS
 62
     1
 10
1509.5999996
 20
527.0299852
 30
0.0
 11
1547.5999996
 21
527.0299852
 31
0.0
  0
ARC
  8
0
  6
CONTINUOUS
 62
     1
 10
1547.5999996
 20
533.0299852
 30
0.0
 40
6.0
 50
270.0
 51
0.0
  0
LINE
  8
0
  6
CONTINUOUS
 62
     1
 10
1363.5999996
 20
732.043783246
 30
0.0
 11
1363.5999996
 21
777.7099852
 31
0.0
  0
LINE
  8
0
  6
CONTINUOUS
 62
     1
 10
1363.5999996
 20
663.28986983
 30
0.0
 11
1363.5999996
 21
674.024179036
 31
0.0
  0
LINE
  8
0
  6
CONTINUOUS
 62
     1
 10
1363.5999996
 20
533.0299852
 30
0.0
 11
1363.5999996
 21
590.931113164
 31
0.0
  0
CIRCLE
  8
0
  6
CONTINUOUS
 62
     1
 10
1518.5999996
 20
682.0299852
 30
0.0
 40
12.0
  0
CIRCLE
  8
0
  6
CONTINUOUS
 62
     1
 10
1398.5999996
 20
562.0299852
 30
0.0
 40
12.0
  0
LINE
  8
0
  6
LTYPE2
 62
     2
 10
1381.0999996
 20
682.0299852
 30
0.0
 11
1415.0999996
 21
682.0299852
 31
0.0
  0
LINE
  8
0
  6
LTYPE2
 62
     2
 10
1398.5999996
 20
700.5299852
 30
0.0
 11
1398.5999996
 21
664.5299852
 31
0.0
  0
LINE
  8
0
  6
CONTINUOUS
 62
     1
 10
1530.5999996
 20
702.0299852
 30
0.0
 11
1480.423376091
 21
702.0299852
 31
0.0
  0
ARC
  8
0
  6
CONTINUOUS
 62
     1
 10
1458.5999996
 20
805.0299852
 30
0.0
 40
100.0
 50
262.438585238
 51
272.774486522
  0
ARC
  8
0
  6
CONTINUOUS
 62
     1
 10
1458.5999996
 20
805.0299852
 30
0.0
 40
100.0
 50
279.969989864
 51
293.570639008
  0
LINE
  8
0
  6
CONTINUOUS
 62
     1
 10
1553.5999996
 20
653.128857236
 30
0.0
 11
1553.5999996
 21
777.0899852
 31
0.0
  0
LINE
  8
0
  6
CONTINUOUS
 62
     1
 10
1553.5999996
 20
533.0299852
 30
0.0
 11
1553.5999996
 21
590.931113164
 31
0.0
  0
LINE
  8
0
  6
CONTINUOUS
 62
     2
 10
1458.5999996
 20
467.517699523
 30
0.0
 11
1458.5999996
 21
464.397699523
 31
0.0
  0
LINE
  8
0
  6
CONTINUOUS
 62
     2
 10
1458.5999996
 20
470.397699523
 30
0.0
 11
1447.008889685
 21
473.503528065
 31
0.0
  0
LINE
  8
0
  6
CONTINUOUS
 62
     2
 10
1458.5999996
 20
470.397699523
 30
0.0
 11
1447.008889685
 21
467.291870982
 31
0.0
  0
TEXT
  8
0
  6
CONTINUOUS
 62
     3
 10
1359.2999996
 20
479.397699523
 30
0.0
 40
18.0
  1
１５０
 50
0.0
 41
0.9
 51
0.0
  7
KANJI41
  0
LINE
  8
0
  6
CONTINUOUS
 62
     2
 10
1363.5999996
 20
527.029992829
 30
0.0
 11
1363.5999996
 21
423.907699523
 31
0.0
  0
LINE
  8
0
  6
CONTINUOUS
 62
     2
 10
1363.5999996
 20
429.907699523
 30
0.0
 11
1375.191109515
 21
426.801870982
 31
0.0
  0
LINE
  8
0
  6
CONTINUOUS
 62
     2
 10
1363.5999996
 20
429.907699523
 30
0.0
 11
1375.191109515
 21
433.013528065
 31
0.0
  0
LINE
  8
0
  6
CONTINUOUS
 62
     2
 10
1363.5999996
 20
429.907699523
 30
0.0
 11
1553.5999996
 21
429.907699523
 31
0.0
  0
LINE
  8
0
  6
CONTINUOUS
 62
     2
 10
1553.5999996
 20
429.907699523
 30
0.0
 11
1542.008889685
 21
433.013528065
 31
0.0
  0
LINE
  8
0
  6
CONTINUOUS
 62
     2
 10
1553.5999996
 20
429.907699523
 30
0.0
 11
1542.008889685
 21
426.801870982
 31
0.0
  0
LINE
  8
0
  6
CONTINUOUS
 62
     2
 10
1553.5999996
 20
527.030000459
 30
0.0
 11
1553.5999996
 21
423.907699523
 31
0.0
  0
TEXT
  8
0
  6
CONTINUOUS
 62
     3
 10
1434.2999996
 20
438.907699523
 30
0.0
 40
18.0
  1
１９０
 50
0.0
 41
0.9
 51
0.0
  7
KANJI41
  0
LINE
  8
0
  6
CONTINUOUS
 62
     2
 10
1458.5999996
 20
526.5299852
 30
0.0
 11
1451.44755816
 21
516.894499668
 31
0.0
  0
LINE
  8
0
  6
CONTINUOUS
 62
     2
 10
1458.5999996
 20
526.5299852
 30
0.0
 11
1447.588060848
 21
521.761630671
 31
0.0
  0
LINE
  8
0
  6
CONTINUOUS
 62
     2
 10
1444.6999518
 20
501.0299852
 30
0.0
 11
1438.379821651
 21
490.829203127
 31
0.0
  0
LINE
  8
0
  6
CONTINUOUS
 62
     2
 10
1444.6999518
 20
501.0299852
 30
0.0
 11
1434.1261675
 21
495.35591386
 31
0.0
  0
LINE
  8
0
  6
CONTINUOUS
 62
     2
 10
1720.91
 20
799.88
 30
0.0
 11
1834.31
 21
799.88
 31
0.0
  0
TEXT
  8
0
  6
CONTINUOUS
 62
     3
 10
1720.91
 20
808.88
 30
0.0
 40
18.0
  1
２－ＰＦ１／２
 50
0.0
 41
0.9
 51
0.0
  7
KANJI41
  0
LINE
  8
0
  6
CONTINUOUS
 62
     1
 10
847.745007504
 20
225.973959796
 30
0.0
 11
879.745007504
 21
225.973959796
 31
0.0
  0
LINE
  8
0
  6
CONTINUOUS
 62
     1
 10
847.745007504
 20
193.973959796
 30
0.0
 11
847.745007504
 21
225.973959796
 31
0.0
  0
ARC
  8
0
  6
CONTINUOUS
 62
     1
 10
808.745007504
 20
282.473959796
 30
0.0
 40
10.0
 50
90.0
 51
180.0
  0
LINE
  8
0
  6
CONTINUOUS
 62
     1
 10
808.745007504
 20
292.473959796
 30
0.0
 11
918.745007504
 21
292.473959796
 31
0.0
  0
LINE
  8
0
  6
LTYPE3
 62
     2
 10
930.006028721
 20
267.973959796
 30
0.0
 11
838.745007504
 21
267.973959796
 31
0.0
  0
LINE
  8
0
  6
CONTINUOUS
 62
     1
 10
879.745007504
 20
193.973959796
 30
0.0
 11
847.745007504
 21
193.973959796
 31
0.0
  0
LINE
  8
0
  6
LTYPE3
 62
     2
 10
816.445007504
 20
167.073959796
 30
0.0
 11
826.245007504
 21
167.073959796
 31
0.0
  0
LINE
  8
0
  6
LTYPE3
 62
     2
 10
821.445007504
 20
160.953959796
 30
0.0
 11
821.445007504
 21
170.973959796
 31
0.0
  0
LINE
  8
0
  6
LTYPE3
 62
     2
 10
817.745007504
 20
189.973959796
 30
0.0
 11
794.745007504
 21
189.973959796
 31
0.0
  0
LINE
  8
0
  6
CONTINUOUS
 62
     1
 10
791.045007504
 20
141.273959796
 30
0.0
 11
791.045007504
 21
162.673959796
 31
0.0
  0
ARC
  8
0
  6
CONTINUOUS
 62
     1
 10
793.045007504
 20
162.673959796
 30
0.0
 40
2.0
 50
90.0
 51
180.0
  0
LINE
  8
0
  6
CONTINUOUS
 62
     1
 10
816.445007504
 20
133.973959796
 30
0.0
 11
816.445007504
 21
169.973959796
 31
0.0
  0
ARC
  8
0
  6
CONTINUOUS
 62
     1
 10
818.445007504
 20
169.973959796
 30
0.0
 40
2.0
 50
90.0
 51
180.0
  0
LINE
  8
0
  6
CONTINUOUS
 62
     1
 10
818.445007504
 20
171.973959796
 30
0.0
 11
883.145007504
 21
171.973959796
 31
0.0
  0
LINE
  8
0
  6
CONTINUOUS
 62
     1
 10
800.753323516
 20
152.28974927
 30
0.0
 11
802.750551512
 21
190.184486112
 31
0.0
  0
LINE
  8
0
  6
CONTINUOUS
 62
     1
 10
812.736691491
 20
152.28974927
 30
0.0
 11
810.739463495
 21
190.184486112
 31
0.0
  0
ARC
  8
0
  6
CONTINUOUS
 62
     1
 10
806.745007504
 20
189.973959796
 30
0.0
 40
4.0
 50
356.983042101
 51
183.016952287
  0
ARC
  8
0
  6
CONTINUOUS
 62
     1
 10
806.745007504
 20
189.973959796
 30
0.0
 40
8.75
 50
300.219855722
 51
239.780144278
  0
LINE
  8
0
  6
CONTINUOUS
 62
     1
 10
812.083986287
 20
164.673959796
 30
0.0
 11
816.445007504
 21
164.673959796
 31
0.0
  0
LINE
  8
0
  6
CONTINUOUS
 62
     1
 10
793.045007504
 20
164.673959796
 30
0.0
 11
801.406028721
 21
164.673959796
 31
0.0
  0
LINE
  8
0
  6
LTYPE3
 62
     2
 10
806.745007504
 20
142.873959796
 30
0.0
 11
806.745007504
 21
200.373959796
 31
0.0
  0
LINE
  8
0
  6
CONTINUOUS
 62
     1
 10
798.745007504
 20
186.429598077
 30
0.0
 11
798.745007504
 21
164.623959796
 31
0.0
  0
LINE
  8
0
  6
CONTINUOUS
 62
     1
 10
798.745007504
 20
201.973959796
 30
0.0
 11
798.745007504
 21
193.518321516
 31
0.0
  0
LINE
  8
0
  6
CONTINUOUS
 62
     1
 10
782.365950487
 20
201.973959796
 30
0.0
 11
847.745007504
 21
201.973959796
 31
0.0
  0
LINE
  8
0
  6
CONTINUOUS
 62
     1
 10
847.745007504
 20
217.973959796
 30
0.0
 11
782.435585466
 21
217.973959796
 31
0.0
  0
ARC
  8
0
  6
CONTINUOUS
 62
     1
 10
787.990476082
 20
213.973959796
 30
0.0
 40
6.845203412
 50
144.242860688
 51
215.757139312
  0
ARC
  8
0
  6
CONTINUOUS
 62
     1
 10
776.880694851
 20
213.973959796
 30
0.0
 40
6.845203412
 50
324.242860688
 51
35.757139312
  0
ARC
  8
0
  6
CONTINUOUS
 62
     1
 10
776.880694851
 20
205.973959796
 30
0.0
 40
6.845203412
 50
324.242860688
 51
35.757139312
  0
LINE
  8
0
  6
LTYPE2
 62
     2
 10
1012.245007504
 20
209.973959796
 30
0.0
 11
777.400767977
 21
209.973959796
 31
0.0
  0
LINE
  8
7
  6
CONTINUOUS
 62
     2
 10
842.345007504
 20
267.973959796
 30
0.0
 11
834.036529614
 21
262.408962477
 31
0.0
  0
LINE
  8
7
  6
CONTINUOUS
 62
     2
 10
842.345007504
 20
267.973959796
 30
0.0
 11
837.932153244
 21
259.000291801
 31
0.0
  0
LINE
  8
7
  6
CONTINUOUS
 62
     2
 10
842.345007504
 20
267.973959796
 30
0.0
 11
831.145007504
 21
255.173959796
 31
0.0
  0
LINE
  8
7
  6
CONTINUOUS
 62
     2
 10
831.145007504
 20
255.173959796
 30
0.0
 11
772.345007504
 21
255.173959796
 31
0.0
  0
TEXT
  8
7
  6
CONTINUOUS
 62
     2
 10
772.345007504
 20
259.173959796
 30
1.2
 40
12.0
  1
ＰＦ１／２
 50
0.0
 41
0.9
 51
0.0
  7
KANJI47
  0
LINE
  8
0
  6
CONTINUOUS
 62
     1
 10
798.745007504
 20
272.173959796
 30
0.0
 11
798.745007504
 21
282.473959796
 31
0.0
  0
LINE
  8
0
  6
CONTINUOUS
 62
     1
 10
798.745007504
 20
217.973959796
 30
0.0
 11
798.745007504
 21
252.173959796
 31
0.0
  0
LINE
  8
0
  6
LTYPE3
 62
     2
 10
853.785007504
 20
283.073959796
 30
0.0
 11
842.345007504
 21
283.073959796
 31
0.0
  0
LINE
  8
0
  6
LTYPE3
 62
     2
 10
847.345007504
 20
286.973959796
 30
0.0
 11
847.345007504
 21
277.993959796
 31
0.0
  0
LINE
  8
0
  6
CONTINUOUS
 62
     1
 10
909.045007504
 20
287.973959796
 30
0.0
 11
844.345007504
 21
287.973959796
 31
0.0
  0
LINE
  8
0
  6
CONTINUOUS
 62
     1
 10
842.345007504
 20
285.973959796
 30
0.0
 11
842.345007504
 21
249.973959796
 31
0.0
  0
ARC
  8
0
  6
CONTINUOUS
 62
     1
 10
844.345007504
 20
285.973959796
 30
0.0
 40
2.0
 50
90.0
 51
180.0
  0
LINE
  8
0
  6
LTYPE3
 62
     2
 10
853.245007504
 20
252.873959796
 30
0.0
 11
842.345007504
 21
252.873959796
 31
0.0
  0
LINE
  8
0
  6
LTYPE3
 62
     2
 10
847.345007504
 20
258.893959796
 30
0.0
 11
847.345007504
 21
248.973959796
 31
0.0
  0
LINE
  8
0
  6
CONTINUOUS
 62
     1
 10
909.045007504
 20
247.973959796
 30
0.0
 11
844.345007504
 21
247.973959796
 31
0.0
  0
ARC
  8
0
  6
CONTINUOUS
 62
     1
 10
844.345007504
 20
249.973959796
 30
0.0
 40
2.0
 50
180.0
 51
270.0
  0
LINE
  8
0
  6
LTYPE3
 62
     2
 10
874.245007504
 20
167.073959796
 30
0.0
 11
885.145007504
 21
167.073959796
 31
0.0
  0
LINE
  8
0
  6
LTYPE3
 62
     2
 10
880.145007504
 20
161.053959796
 30
0.0
 11
880.145007504
 21
170.973959796
 31
0.0
  0
ARC
  8
0
  6
CONTINUOUS
 62
     1
 10
883.145007504
 20
169.973959796
 30
0.0
 40
2.0
 50
0.0
 51
90.0
  0
LINE
  8
0
  6
CONTINUOUS
 62
     1
 10
879.745007504
 20
193.973959796
 30
0.0
 11
879.745007504
 21
225.973959796
 31
0.0
  0
LINE
  8
0
  6
CONTINUOUS
 62
     1
 10
885.145007504
 20
133.973959796
 30
0.0
 11
885.145007504
 21
169.973959796
 31
0.0
  0
LINE
  8
7
  6
CONTINUOUS
 62
     2
 10
885.145007504
 20
151.973959796
 30
0.0
 11
889.653235946
 21
160.900094251
 31
0.0
  0
LINE
  8
7
  6
CONTINUOUS
 62
     2
 10
885.145007504
 20
151.973959796
 30
0.0
 11
897.795007504
 21
166.123959796
 31
0.0
  0
LINE
  8
7
  6
CONTINUOUS
 62
     2
 10
897.795007504
 20
166.123959796
 30
0.0
 11
956.595007504
 21
166.123959796
 31
0.0
  0
TEXT
  8
7
  6
CONTINUOUS
 62
     2
 10
897.795007504
 20
170.123959796
 30
1.2
 40
12.0
  1
ＰＦ１／２
 50
0.0
 41
0.9
 51
0.0
  7
KANJI47
  0
LINE
  8
0
  6
CONTINUOUS
 62
     1
 10
928.745007504
 20
163.173959796
 30
0.0
 11
928.745007504
 21
137.473959796
 31
0.0
  0
LINE
  8
0
  6
CONTINUOUS
 62
     1
 10
928.745007504
 20
280.673959796
 30
0.0
 11
928.745007504
 21
282.473959796
 31
0.0
  0
ARC
  8
0
  6
CONTINUOUS
 62
     1
 10
918.745007504
 20
282.473959796
 30
0.0
 40
10.0
 50
0.0
 51
90.0
  0
LINE
  8
0
  6
CONTINUOUS
 62
     1
 10
928.745007504
 20
233.518321516
 30
0.0
 11
928.745007504
 21
255.323959796
 31
0.0
  0
LINE
  8
0
  6
CONTINUOUS
 62
     1
 10
928.745007504
 20
217.973959796
 30
0.0
 11
928.745007504
 21
226.429598077
 31
0.0
  0
ARC
  8
0
  6
CONTINUOUS
 62
     1
 10
1013.109320156
 20
213.973959796
 30
0.0
 40
6.845203412
 50
144.242860688
 51
215.757139312
  0
ARC
  8
0
  6
CONTINUOUS
 62
     1
 10
1013.109320156
 20
205.973959796
 30
0.0
 40
6.845203412
 50
144.242860688
 51
215.757139312
  0
LINE
  8
0
  6
LTYPE2
 62
     2
 10
960.245007504
 20
199.973959796
 30
0.0
 11
960.245007504
 21
219.973959796
 31
0.0
  0
CIRCLE
  8
0
  6
CONTINUOUS
 62
     2
 10
960.245007504
 20
209.973959796
 30
0.0
 40
5.0
  0
CIRCLE
  8
0
  6
CONTINUOUS
 62
     2
 10
960.245007504
 20
209.973959796
 30
0.0
 40
4.0
  0
LINE
  8
0
  6
LTYPE3
 62
     2
 10
911.045007504
 20
283.073959796
 30
0.0
 11
901.085007504
 21
283.073959796
 31
0.0
  0
LINE
  8
0
  6
LTYPE3
 62
     2
 10
906.045007504
 20
286.973959796
 30
0.0
 11
906.045007504
 21
279.093959796
 31
0.0
  0
ARC
  8
0
  6
CONTINUOUS
 62
     1
 10
909.045007504
 20
285.973959796
 30
0.0
 40
2.0
 50
0.0
 51
90.0
  0
LINE
  8
0
  6
CONTINUOUS
 62
     1
 10
934.445007504
 20
280.673959796
 30
0.0
 11
911.045007504
 21
280.673959796
 31
0.0
  0
LINE
  8
0
  6
CONTINUOUS
 62
     1
 10
911.045007504
 20
285.973959796
 30
0.0
 11
911.045007504
 21
249.973959796
 31
0.0
  0
LINE
  8
0
  6
LTYPE3
 62
     2
 10
911.045007504
 20
252.873959796
 30
0.0
 11
901.245007504
 21
252.873959796
 31
0.0
  0
LINE
  8
0
  6
LTYPE3
 62
     2
 10
906.045007504
 20
258.993959796
 30
0.0
 11
906.045007504
 21
248.973959796
 31
0.0
  0
ARC
  8
0
  6
CONTINUOUS
 62
     1
 10
909.045007504
 20
249.973959796
 30
0.0
 40
2.0
 50
270.0
 51
0.0
  0
LINE
  8
0
  6
CONTINUOUS
 62
     1
 10
915.406028721
 20
255.273959796
 30
0.0
 11
911.045007504
 21
255.273959796
 31
0.0
  0
ARC
  8
0
  6
CONTINUOUS
 62
     1
 10
934.445007504
 20
278.673959796
 30
0.0
 40
2.0
 50
0.0
 51
90.0
  0
LINE
  8
0
  6
CONTINUOUS
 62
     1
 10
936.445007504
 20
278.673959796
 30
0.0
 11
936.445007504
 21
257.273959796
 31
0.0
  0
ARC
  8
0
  6
CONTINUOUS
 62
     1
 10
920.745007504
 20
267.973959796
 30
0.0
 40
6.0
 50
356.983045121
 51
183.016954879
  0
LINE
  8
0
  6
LTYPE3
 62
     2
 10
920.745007504
 20
277.073959796
 30
0.0
 11
920.745007504
 21
219.573959796
 31
0.0
  0
LINE
  8
0
  6
CONTINUOUS
 62
     1
 10
926.736691491
 20
267.658170323
 30
0.0
 11
924.739463495
 21
229.76343348
 31
0.0
  0
LINE
  8
0
  6
CONTINUOUS
 62
     1
 10
914.753323516
 20
267.658170323
 30
0.0
 11
916.750551512
 21
229.76343348
 31
0.0
  0
ARC
  8
0
  6
CONTINUOUS
 62
     1
 10
934.445007504
 20
257.273959796
 30
0.0
 40
2.0
 50
270.0
 51
0.0
  0
LINE
  8
0
  6
CONTINUOUS
 62
     1
 10
934.445007504
 20
255.273959796
 30
0.0
 11
926.083986287
 21
255.273959796
 31
0.0
  0
LINE
  8
0
  6
LTYPE3
 62
     2
 10
909.745007504
 20
229.973959796
 30
0.0
 11
932.745007504
 21
229.973959796
 31
0.0
  0
ARC
  8
0
  6
CONTINUOUS
 62
     1
 10
920.745007504
 20
229.973959796
 30
0.0
 40
8.75
 50
120.219855722
 51
59.780144278
  0
ARC
  8
0
  6
CONTINUOUS
 62
     1
 10
920.745007504
 20
229.973959796
 30
0.0
 40
4.0
 50
176.983042101
 51
3.016952287
  0
LINE
  8
0
  6
CONTINUOUS
 62
     1
 10
939.245007504
 20
220.973959796
 30
0.0
 11
947.905261542
 21
225.973959796
 31
0.0
  0
LINE
  8
0
  6
CONTINUOUS
 62
     1
 10
939.245007504
 20
198.973959796
 30
0.0
 11
939.245007504
 21
220.973959796
 31
0.0
  0
LINE
  8
0
  6
CONTINUOUS
 62
     1
 10
947.895007504
 20
225.973959796
 30
0.0
 11
972.595007504
 21
225.973959796
 31
0.0
  0
LINE
  8
0
  6
CONTINUOUS
 62
     1
 10
947.895007504
 20
193.973959796
 30
0.0
 11
947.895007504
 21
225.973959796
 31
0.0
  0
LINE
  8
0
  6
CONTINUOUS
 62
     1
 10
947.895007504
 20
193.973959796
 30
0.0
 11
972.595007504
 21
193.973959796
 31
0.0
  0
LINE
  8
0
  6
CONTINUOUS
 62
     1
 10
939.245007504
 20
198.973959796
 30
0.0
 11
947.905261542
 21
193.973959796
 31
0.0
  0
LINE
  8
0
  6
CONTINUOUS
 62
     1
 10
981.245007504
 20
198.973959796
 30
0.0
 11
981.245007504
 21
220.973959796
 31
0.0
  0
LINE
  8
0
  6
CONTINUOUS
 62
     1
 10
972.595007504
 20
193.973959796
 30
0.0
 11
972.595007504
 21
225.973959796
 31
0.0
  0
LINE
  8
0
  6
CONTINUOUS
 62
     1
 10
981.245007504
 20
198.973959796
 30
0.0
 11
972.584753466
 21
193.973959796
 31
0.0
  0
LINE
  8
0
  6
CONTINUOUS
 62
     1
 10
981.245007504
 20
220.973959796
 30
0.0
 11
972.584753466
 21
225.973959796
 31
0.0
  0
LINE
  8
0
  6
CONTINUOUS
 62
     1
 10
981.245007504
 20
217.973959796
 30
0.0
 11
1007.554429541
 21
217.973959796
 31
0.0
  0
LINE
  8
0
  6
CONTINUOUS
 62
     1
 10
1007.554429541
 20
201.973959796
 30
0.0
 11
981.245007504
 21
201.973959796
 31
0.0
  0
LINE
  8
0
  6
CONTINUOUS
 62
     1
 10
939.245007504
 20
201.973959796
 30
0.0
 11
879.745007504
 21
201.973959796
 31
0.0
  0
LINE
  8
0
  6
CONTINUOUS
 62
     1
 10
879.745007504
 20
217.973959796
 30
0.0
 11
939.245007504
 21
217.973959796
 31
0.0
  0
LINE
  8
0
  6
CONTINUOUS
 62
     2
 10
802.745007504
 20
292.473959796
 30
0.0
 11
742.4
 21
292.473959796
 31
0.0
  0
LINE
  8
0
  6
CONTINUOUS
 62
     2
 10
748.4
 20
292.473959796
 30
0.0
 11
745.294171459
 21
280.882849881
 31
0.0
  0
LINE
  8
0
  6
CONTINUOUS
 62
     2
 10
748.4
 20
292.473959796
 30
0.0
 11
751.505828541
 21
280.882849881
 31
0.0
  0
LINE
  8
0
  6
CONTINUOUS
 62
     2
 10
748.4
 20
292.473959796
 30
0.0
 11
748.4
 21
127.473959796
 31
0.0
  0
TEXT
  8
0
  6
CONTINUOUS
 62
     3
 10
739.4
 20
185.673959796
 30
0.0
 40
18.0
  1
１６５
 50
90.0
 41
0.9
 51
0.0
  7
KANJI41
  0
ARC
  8
0
  6
CONTINUOUS
 62
     1
 10
1001.999538926
 20
213.973959796
 30
0.0
 40
6.845203412
 50
324.242860688
 51
35.757139312
  0
LINE
  8
0
  6
LTYPE2
 62
     2
 10
863.745007504
 20
175.873959796
 30
0.0
 11
863.745007504
 21
553.1799852
 31
0.0
  0
LINE
  8
0
  6
LTYPE3
 62
     2
 10
816.445007504
 20
136.873959796
 30
0.0
 11
826.405007504
 21
136.873959796
 31
0.0
  0
LINE
  8
0
  6
LTYPE3
 62
     2
 10
821.445007504
 20
132.973959796
 30
0.0
 11
821.445007504
 21
140.853959796
 31
0.0
  0
ARC
  8
0
  6
CONTINUOUS
 62
     1
 10
818.445007504
 20
133.973959796
 30
0.0
 40
2.0
 50
180.0
 51
270.0
  0
LINE
  8
0
  6
CONTINUOUS
 62
     1
 10
793.045007504
 20
139.273959796
 30
0.0
 11
816.445007504
 21
139.273959796
 31
0.0
  0
ARC
  8
0
  6
CONTINUOUS
 62
     1
 10
793.045007504
 20
141.273959796
 30
0.0
 40
2.0
 50
180.0
 51
270.0
  0
LINE
  8
0
  6
CONTINUOUS
 62
     1
 10
818.445007504
 20
131.973959796
 30
0.0
 11
883.145007504
 21
131.973959796
 31
0.0
  0
LINE
  8
0
  6
CONTINUOUS
 62
     1
 10
798.745007504
 20
139.273959796
 30
0.0
 11
798.745007504
 21
137.473959796
 31
0.0
  0
LINE
  8
0
  6
CONTINUOUS
 62
     1
 10
918.745007504
 20
127.473959796
 30
0.0
 11
808.745007504
 21
127.473959796
 31
0.0
  0
ARC
  8
0
  6
CONTINUOUS
 62
     1
 10
808.745007504
 20
137.473959796
 30
0.0
 40
10.0
 50
180.0
 51
270.0
  0
ARC
  8
0
  6
CONTINUOUS
 62
     1
 10
806.745007504
 20
151.973959796
 30
0.0
 40
6.0
 50
176.983045121
 51
3.016954879
  0
LINE
  8
0
  6
LTYPE3
 62
     2
 10
797.483986287
 20
151.973959796
 30
0.0
 11
888.745007504
 21
151.973959796
 31
0.0
  0
LINE
  8
0
  6
LTYPE3
 62
     2
 10
873.705007504
 20
136.873959796
 30
0.0
 11
885.145007504
 21
136.873959796
 31
0.0
  0
LINE
  8
0
  6
LTYPE3
 62
     2
 10
880.145007504
 20
132.973959796
 30
0.0
 11
880.145007504
 21
141.953959796
 31
0.0
  0
ARC
  8
0
  6
CONTINUOUS
 62
     1
 10
883.145007504
 20
133.973959796
 30
0.0
 40
2.0
 50
270.0
 51
0.0
  0
ARC
  8
0
  6
CONTINUOUS
 62
     1
 10
918.745007504
 20
137.473959796
 30
0.0
 40
10.0
 50
270.0
 51
0.0
  0
LINE
  8
7
  6
CONTINUOUS
 62
     2
 10
885.145007504
 20
151.973959796
 30
0.0
 11
893.512315088
 21
157.450104771
 31
0.0
  0
LINE
  8
0
  6
CONTINUOUS
 62
     2
 10
798.745007504
 20
133.273959796
 30
0.0
 11
798.745007504
 21
78.573959796
 31
0.0
  0
LINE
  8
0
  6
CONTINUOUS
 62
     2
 10
798.745007504
 20
84.573959796
 30
0.0
 11
810.336117419
 21
81.468131255
 31
0.0
  0
LINE
  8
0
  6
CONTINUOUS
 62
     2
 10
798.745007504
 20
84.573959796
 30
0.0
 11
810.336117419
 21
87.679788337
 31
0.0
  0
LINE
  8
0
  6
CONTINUOUS
 62
     2
 10
798.745007504
 20
84.573959796
 30
0.0
 11
928.745007504
 21
84.573959796
 31
0.0
  0
LINE
  8
0
  6
CONTINUOUS
 62
     2
 10
928.745007504
 20
84.573959796
 30
0.0
 11
917.153897588
 21
87.679788337
 31
0.0
  0
LINE
  8
0
  6
CONTINUOUS
 62
     2
 10
928.745007504
 20
84.573959796
 30
0.0
 11
917.153897588
 21
81.468131255
 31
0.0
  0
LINE
  8
0
  6
CONTINUOUS
 62
     2
 10
928.745007504
 20
131.473970586
 30
0.0
 11
928.745007504
 21
78.573959796
 31
0.0
  0
TEXT
  8
0
  6
CONTINUOUS
 62
     3
 10
839.445007504
 20
93.573959796
 30
0.0
 40
18.0
  1
１３０
 50
0.0
 41
0.9
 51
0.0
  7
KANJI41
  0
LINE
  8
0
  6
CONTINUOUS
 62
     2
 10
748.4
 20
127.473959796
 30
0.0
 11
751.505828541
 21
139.065069712
 31
0.0
  0
LINE
  8
0
  6
CONTINUOUS
 62
     2
 10
748.4
 20
127.473959796
 30
0.0
 11
745.294171459
 21
139.065069712
 31
0.0
  0
LINE
  8
0
  6
CONTINUOUS
 62
     2
 10
802.745018293
 20
127.473959796
 30
0.0
 11
742.4
 21
127.473959796
 31
0.0
  0
LINE
  8
0
  6
CONTINUOUS
 62
     1
 10
1014.12
 20
1511.24
 30
0.0
 11
1791.72
 21
1511.24
 31
0.0
  0
LINE
  8
0
  6
CONTINUOUS
 62
     1
 10
1014.12
 20
1477.64
 30
0.0
 11
1791.72
 21
1477.64
 31
0.0
  0
TEXT
  8
0
  6
CONTINUOUS
 62
     2
 10
1062.12
 20
1487.24
 30
1.536
 40
15.36
  1
形
 50
0.0
 41
0.9
 51
0.0
  7
KANJI48
  0
TEXT
  8
0
  6
CONTINUOUS
 62
     2
 10
1155.72
 20
1487.24
 30
1.536
 40
15.36
  1
式
 50
0.0
 41
0.9
 51
0.0
  7
KANJI48
  0
TEXT
  8
0
  6
CONTINUOUS
 62
     2
 10
1228.2
 20
1486.28
 30
1.44
 40
14.4
  1
ストローク
 50
0.0
 41
0.9
 51
0.0
  7
KANJI49
  0
TEXT
  8
0
  6
CONTINUOUS
 62
     2
 10
1320.36
 20
1485.32
 30
0.0
 40
14.4
  1
ｍｉｎ　
 50
0.0
 41
0.9
 51
0.0
  7
KANJI50
  0
TEXT
  8
0
  6
CONTINUOUS
 62
     2
 10
1416.36
 20
1485.32
 30
0.0
 40
14.4
  1
ｍｉｎ　
 50
0.0
 41
0.9
 51
0.0
  7
KANJI50
  0
TEXT
  8
0
  6
CONTINUOUS
 62
     2
 10
1608.36
 20
1485.32
 30
0.0
 40
14.4
  1
ｍｉｎ　
 50
0.0
 41
0.9
 51
0.0
  7
KANJI50
  0
TEXT
  8
0
  6
CONTINUOUS
 62
     2
 10
1369.32
 20
1486.28
 30
1.68
 40
16.8
  1
ＡＬ
 50
0.0
 41
0.9
 51
0.0
  7
KANJI51
  0
TEXT
  8
0
  6
CONTINUOUS
 62
     2
 10
1465.32
 20
1486.28
 30
1.68
 40
16.8
  1
Ｌ
 50
0.0
 41
0.9
 51
0.0
  7
KANJI51
  0
TEXT
  8
0
  6
CONTINUOUS
 62
     2
 10
1546.92
 20
1486.28
 30
1.68
 40
16.8
  1
Ｃ
 50
0.0
 41
0.9
 51
0.0
  7
KANJI51
  0
TEXT
  8
0
  6
CONTINUOUS
 62
     2
 10
1657.32
 20
1486.28
 30
1.68
 40
16.8
  1
Ｐ
 50
0.0
 41
0.9
 51
0.0
  7
KANJI51
  0
TEXT
  8
0
  6
CONTINUOUS
 62
     2
 10
1756.08
 20
1485.92
 30
0.0
 40
12.96
  1
（ｋｇ）
 50
0.0
 41
0.740740741
 51
0.0
  7
KANJI52
  0
TEXT
  8
0
  6
CONTINUOUS
 62
     2
 10
1698.48
 20
1485.68
 30
1.44
 40
16.8
  1
概算重量
 50
0.0
 41
0.857142857
 51
0.0
  7
KANJI53
  0
TEXT
  8
0
  6
CONTINUOUS
 62
     2
 10
1237.32
 20
1454.08
 30
1.44
 40
14.4
  1
　２００
 50
0.0
 41
0.9
 51
0.0
  7
KANJI49
  0
TEXT
  8
0
  6
CONTINUOUS
 62
     2
 10
1621.32
 20
1454.08
 30
1.44
 40
14.4
  1
　　４５
 50
0.0
 41
0.9
 51
0.0
  7
KANJI49
  0
LINE
  8
0
  6
CONTINUOUS
 62
     2
 10
1014.12
 20
1446.04
 30
0.0
 11
1791.72
 21
1446.04
 31
0.0
  0
TEXT
  8
0
  6
CONTINUOUS
 62
     2
 10
1525.32
 20
1454.08
 30
1.44
 40
14.4
  1
　５１０
 50
0.0
 41
0.9
 51
0.0
  7
KANJI49
  0
TEXT
  8
0
  6
CONTINUOUS
 62
     2
 10
1429.32
 20
1454.08
 30
1.44
 40
14.4
  1
　６２５
 50
0.0
 41
0.9
 51
0.0
  7
KANJI49
  0
TEXT
  8
0
  6
CONTINUOUS
 62
     2
 10
1333.32
 20
1454.08
 30
1.44
 40
14.4
  1
　８５０
 50
0.0
 41
0.9
 51
0.0
  7
KANJI49
  0
TEXT
  8
0
  6
CONTINUOUS
 62
     2
 10
1237.32
 20
1422.48
 30
1.44
 40
14.4
  1
　３００
 50
0.0
 41
0.9
 51
0.0
  7
KANJI49
  0
TEXT
  8
0
  6
CONTINUOUS
 62
     2
 10
1621.32
 20
1422.48
 30
1.44
 40
14.4
  1
　　４５
 50
0.0
 41
0.9
 51
0.0
  7
KANJI49
  0
LINE
  8
0
  6
CONTINUOUS
 62
     2
 10
1014.12
 20
1414.44
 30
0.0
 11
1791.72
 21
1414.44
 31
0.0
  0
TEXT
  8
0
  6
CONTINUOUS
 62
     2
 10
1525.32
 20
1422.48
 30
1.44
 40
14.4
  1
　６１０
 50
0.0
 41
0.9
 51
0.0
  7
KANJI49
  0
TEXT
  8
0
  6
CONTINUOUS
 62
     2
 10
1429.32
 20
1422.48
 30
1.44
 40
14.4
  1
　７２５
 50
0.0
 41
0.9
 51
0.0
  7
KANJI49
  0
TEXT
  8
0
  6
CONTINUOUS
 62
     2
 10
1333.32
 20
1422.48
 30
1.44
 40
14.4
  1
　９５０
 50
0.0
 41
0.9
 51
0.0
  7
KANJI49
  0
TEXT
  8
0
  6
CONTINUOUS
 62
     2
 10
1237.32
 20
1390.88
 30
1.44
 40
14.4
  1
　４００
 50
0.0
 41
0.9
 51
0.0
  7
KANJI49
  0
TEXT
  8
0
  6
CONTINUOUS
 62
     2
 10
1621.32
 20
1390.88
 30
1.44
 40
14.4
  1
　　４５
 50
0.0
 41
0.9
 51
0.0
  7
KANJI49
  0
LINE
  8
0
  6
CONTINUOUS
 62
     2
 10
1014.12
 20
1382.84
 30
0.0
 11
1791.72
 21
1382.84
 31
0.0
  0
TEXT
  8
0
  6
CONTINUOUS
 62
     2
 10
1525.32
 20
1390.88
 30
1.44
 40
14.4
  1
　７１０
 50
0.0
 41
0.9
 51
0.0
  7
KANJI49
  0
TEXT
  8
0
  6
CONTINUOUS
 62
     2
 10
1429.32
 20
1390.88
 30
1.44
 40
14.4
  1
　８２５
 50
0.0
 41
0.9
 51
0.0
  7
KANJI49
  0
TEXT
  8
0
  6
CONTINUOUS
 62
     2
 10
1333.32
 20
1390.88
 30
1.44
 40
14.4
  1
１０５０
 50
0.0
 41
0.9
 51
0.0
  7
KANJI49
  0
TEXT
  8
0
  6
CONTINUOUS
 62
     2
 10
1237.32
 20
1359.28
 30
1.44
 40
14.4
  1
　５００
 50
0.0
 41
0.9
 51
0.0
  7
KANJI49
  0
TEXT
  8
0
  6
CONTINUOUS
 62
     2
 10
1621.32
 20
1359.28
 30
1.44
 40
14.4
  1
　　４５
 50
0.0
 41
0.9
 51
0.0
  7
KANJI49
  0
LINE
  8
0
  6
CONTINUOUS
 62
     2
 10
1014.12
 20
1351.24
 30
0.0
 11
1791.72
 21
1351.24
 31
0.0
  0
TEXT
  8
0
  6
CONTINUOUS
 62
     2
 10
1525.32
 20
1359.28
 30
1.44
 40
14.4
  1
　８１０
 50
0.0
 41
0.9
 51
0.0
  7
KANJI49
  0
TEXT
  8
0
  6
CONTINUOUS
 62
     2
 10
1429.32
 20
1359.28
 30
1.44
 40
14.4
  1
　９２５
 50
0.0
 41
0.9
 51
0.0
  7
KANJI49
  0
TEXT
  8
0
  6
CONTINUOUS
 62
     2
 10
1333.32
 20
1359.28
 30
1.44
 40
14.4
  1
１１５０
 50
0.0
 41
0.9
 51
0.0
  7
KANJI49
  0
LINE
  8
0
  6
CONTINUOUS
 62
     2
 10
1014.12
 20
1319.64
 30
0.0
 11
1791.72
 21
1319.64
 31
0.0
  0
TEXT
  8
0
  6
CONTINUOUS
 62
     2
 10
1237.32
 20
1327.68
 30
1.44
 40
14.4
  1
　６００
 50
0.0
 41
0.9
 51
0.0
  7
KANJI49
  0
TEXT
  8
0
  6
CONTINUOUS
 62
     2
 10
1333.32
 20
1327.68
 30
1.44
 40
14.4
  1
１２９０
 50
0.0
 41
0.9
 51
0.0
  7
KANJI49
  0
TEXT
  8
0
  6
CONTINUOUS
 62
     2
 10
1429.32
 20
1327.68
 30
1.44
 40
14.4
  1
１０６５
 50
0.0
 41
0.9
 51
0.0
  7
KANJI49
  0
TEXT
  8
0
  6
CONTINUOUS
 62
     2
 10
1525.32
 20
1327.68
 30
1.44
 40
14.4
  1
　９５０
 50
0.0
 41
0.9
 51
0.0
  7
KANJI49
  0
TEXT
  8
0
  6
CONTINUOUS
 62
     2
 10
1621.32
 20
1327.68
 30
1.44
 40
14.4
  1
　　４５
 50
0.0
 41
0.9
 51
0.0
  7
KANJI49
  0
LINE
  8
0
  6
CONTINUOUS
 62
     2
 10
1014.12
 20
1288.04
 30
0.0
 11
1791.72
 21
1288.04
 31
0.0
  0
TEXT
  8
0
  6
CONTINUOUS
 62
     2
 10
1237.32
 20
1296.08
 30
1.44
 40
14.4
  1
　７００
 50
0.0
 41
0.9
 51
0.0
  7
KANJI49
  0
TEXT
  8
0
  6
CONTINUOUS
 62
     2
 10
1333.32
 20
1296.08
 30
1.44
 40
14.4
  1
１３９０
 50
0.0
 41
0.9
 51
0.0
  7
KANJI49
  0
TEXT
  8
0
  6
CONTINUOUS
 62
     2
 10
1429.32
 20
1296.08
 30
1.44
 40
14.4
  1
１１６５
 50
0.0
 41
0.9
 51
0.0
  7
KANJI49
  0
TEXT
  8
0
  6
CONTINUOUS
 62
     2
 10
1525.32
 20
1296.08
 30
1.44
 40
14.4
  1
１０５０
 50
0.0
 41
0.9
 51
0.0
  7
KANJI49
  0
TEXT
  8
0
  6
CONTINUOUS
 62
     2
 10
1621.32
 20
1296.08
 30
1.44
 40
14.4
  1
　　４５
 50
0.0
 41
0.9
 51
0.0
  7
KANJI49
  0
LINE
  8
0
  6
CONTINUOUS
 62
     2
 10
1014.12
 20
1256.44
 30
0.0
 11
1791.72
 21
1256.44
 31
0.0
  0
TEXT
  8
0
  6
CONTINUOUS
 62
     2
 10
1237.32
 20
1264.48
 30
1.44
 40
14.4
  1
　８００
 50
0.0
 41
0.9
 51
0.0
  7
KANJI49
  0
TEXT
  8
0
  6
CONTINUOUS
 62
     2
 10
1333.32
 20
1264.48
 30
1.44
 40
14.4
  1
１４９０
 50
0.0
 41
0.9
 51
0.0
  7
KANJI49
  0
TEXT
  8
0
  6
CONTINUOUS
 62
     2
 10
1429.32
 20
1264.48
 30
1.44
 40
14.4
  1
１２６５
 50
0.0
 41
0.9
 51
0.0
  7
KANJI49
  0
TEXT
  8
0
  6
CONTINUOUS
 62
     2
 10
1525.32
 20
1264.48
 30
1.44
 40
14.4
  1
１１５０
 50
0.0
 41
0.9
 51
0.0
  7
KANJI49
  0
TEXT
  8
0
  6
CONTINUOUS
 62
     2
 10
1621.32
 20
1264.48
 30
1.44
 40
14.4
  1
　　４５
 50
0.0
 41
0.9
 51
0.0
  7
KANJI49
  0
LINE
  8
0
  6
CONTINUOUS
 62
     2
 10
1014.12
 20
1224.84
 30
0.0
 11
1791.72
 21
1224.84
 31
0.0
  0
TEXT
  8
0
  6
CONTINUOUS
 62
     2
 10
1237.32
 20
1232.88
 30
1.44
 40
14.4
  1
　９００
 50
0.0
 41
0.9
 51
0.0
  7
KANJI49
  0
TEXT
  8
0
  6
CONTINUOUS
 62
     2
 10
1333.32
 20
1232.88
 30
1.44
 40
14.4
  1
１５９０
 50
0.0
 41
0.9
 51
0.0
  7
KANJI49
  0
TEXT
  8
0
  6
CONTINUOUS
 62
     2
 10
1429.32
 20
1232.88
 30
1.44
 40
14.4
  1
１３６５
 50
0.0
 41
0.9
 51
0.0
  7
KANJI49
  0
TEXT
  8
0
  6
CONTINUOUS
 62
     2
 10
1525.32
 20
1232.88
 30
1.44
 40
14.4
  1
１２５０
 50
0.0
 41
0.9
 51
0.0
  7
KANJI49
  0
TEXT
  8
0
  6
CONTINUOUS
 62
     2
 10
1621.32
 20
1232.88
 30
1.44
 40
14.4
  1
　　４５
 50
0.0
 41
0.9
 51
0.0
  7
KANJI49
  0
TEXT
  8
0
  6
CONTINUOUS
 62
     2
 10
1237.32
 20
1201.28
 30
1.44
 40
14.4
  1
１０００
 50
0.0
 41
0.9
 51
0.0
  7
KANJI49
  0
TEXT
  8
0
  6
CONTINUOUS
 62
     2
 10
1333.32
 20
1201.28
 30
1.44
 40
14.4
  1
１６９０
 50
0.0
 41
0.9
 51
0.0
  7
KANJI49
  0
TEXT
  8
0
  6
CONTINUOUS
 62
     2
 10
1429.32
 20
1201.28
 30
1.44
 40
14.4
  1
１４６５
 50
0.0
 41
0.9
 51
0.0
  7
KANJI49
  0
TEXT
  8
0
  6
CONTINUOUS
 62
     2
 10
1525.32
 20
1201.28
 30
1.44
 40
14.4
  1
１３５０
 50
0.0
 41
0.9
 51
0.0
  7
KANJI49
  0
TEXT
  8
0
  6
CONTINUOUS
 62
     2
 10
1621.32
 20
1201.28
 30
1.44
 40
14.4
  1
　　４５
 50
0.0
 41
0.9
 51
0.0
  7
KANJI49
  0
LINE
  8
0
  6
CONTINUOUS
 62
     2
 10
1014.12
 20
1193.24
 30
0.0
 11
1791.72
 21
1193.24
 31
0.0
  0
LINE
  8
0
  6
CONTINUOUS
 62
     2
 10
1014.12
 20
1161.64
 30
0.0
 11
1791.72
 21
1161.64
 31
0.0
  0
TEXT
  8
0
  6
CONTINUOUS
 62
     2
 10
1621.32
 20
1169.68
 30
1.44
 40
14.4
  1
　　４５
 50
0.0
 41
0.9
 51
0.0
  7
KANJI49
  0
LINE
  8
0
  6
CONTINUOUS
 62
     2
 10
1014.12
 20
1130.04
 30
0.0
 11
1791.72
 21
1130.04
 31
0.0
  0
TEXT
  8
0
  6
CONTINUOUS
 62
     2
 10
1621.32
 20
1138.08
 30
1.44
 40
14.4
  1
　　４５
 50
0.0
 41
0.9
 51
0.0
  7
KANJI49
  0
LINE
  8
0
  6
CONTINUOUS
 62
     2
 10
1014.12
 20
1098.44
 30
0.0
 11
1791.72
 21
1098.44
 31
0.0
  0
TEXT
  8
0
  6
CONTINUOUS
 62
     2
 10
1621.32
 20
1106.48
 30
1.44
 40
14.4
  1
　　４５
 50
0.0
 41
0.9
 51
0.0
  7
KANJI49
  0
LINE
  8
0
  6
CONTINUOUS
 62
     2
 10
1014.12
 20
1066.84
 30
0.0
 11
1791.72
 21
1066.84
 31
0.0
  0
TEXT
  8
0
  6
CONTINUOUS
 62
     2
 10
1621.32
 20
1074.88
 30
1.44
 40
14.4
  1
　　４５
 50
0.0
 41
0.9
 51
0.0
  7
KANJI49
  0
LINE
  8
0
  6
CONTINUOUS
 62
     2
 10
1014.12
 20
1035.24
 30
0.0
 11
1791.72
 21
1035.24
 31
0.0
  0
TEXT
  8
0
  6
CONTINUOUS
 62
     2
 10
1621.32
 20
1043.28
 30
1.44
 40
14.4
  1
　　４５
 50
0.0
 41
0.9
 51
0.0
  7
KANJI49
  0
LINE
  8
0
  6
CONTINUOUS
 62
     1
 10
1014.12
 20
1003.64
 30
0.0
 11
1791.72
 21
1003.64
 31
0.0
  0
LINE
  8
0
  6
CONTINUOUS
 62
     1
 10
1791.72
 20
1511.24
 30
0.0
 11
1791.72
 21
1003.64
 31
0.0
  0
LINE
  8
0
  6
CONTINUOUS
 62
     1
 10
1014.12
 20
1511.24
 30
0.0
 11
1014.12
 21
1003.64
 31
0.0
  0
LINE
  8
0
  6
CONTINUOUS
 62
     1
 10
1215.72
 20
1511.24
 30
0.0
 11
1215.72
 21
1003.64
 31
0.0
  0
LINE
  8
0
  6
CONTINUOUS
 62
     2
 10
1311.72
 20
1511.24
 30
0.0
 11
1311.72
 21
1003.64
 31
0.0
  0
LINE
  8
0
  6
CONTINUOUS
 62
     2
 10
1407.72
 20
1511.24
 30
0.0
 11
1407.72
 21
1003.64
 31
0.0
  0
LINE
  8
0
  6
CONTINUOUS
 62
     2
 10
1503.72
 20
1511.24
 30
0.0
 11
1503.72
 21
1003.64
 31
0.0
  0
LINE
  8
0
  6
CONTINUOUS
 62
     2
 10
1599.72
 20
1511.24
 30
0.0
 11
1599.72
 21
1003.64
 31
0.0
  0
LINE
  8
0
  6
CONTINUOUS
 62
     2
 10
1695.72
 20
1511.24
 30
0.0
 11
1695.72
 21
1003.64
 31
0.0
  0
TEXT
  8
0
  6
CONTINUOUS
 62
     2
 10
1237.32
 20
1169.68
 30
1.44
 40
14.4
  1
１１００
 50
0.0
 41
0.9
 51
0.0
  7
KANJI49
  0
TEXT
  8
0
  6
CONTINUOUS
 62
     2
 10
1237.32
 20
1138.08
 30
1.44
 40
14.4
  1
１２００
 50
0.0
 41
0.9
 51
0.0
  7
KANJI49
  0
TEXT
  8
0
  6
CONTINUOUS
 62
     2
 10
1237.32
 20
1106.48
 30
1.44
 40
14.4
  1
１３００
 50
0.0
 41
0.9
 51
0.0
  7
KANJI49
  0
TEXT
  8
0
  6
CONTINUOUS
 62
     2
 10
1237.32
 20
1074.88
 30
1.44
 40
14.4
  1
１４００
 50
0.0
 41
0.9
 51
0.0
  7
KANJI49
  0
TEXT
  8
0
  6
CONTINUOUS
 62
     2
 10
1237.32
 20
1043.28
 30
1.44
 40
14.4
  1
１５００
 50
0.0
 41
0.9
 51
0.0
  7
KANJI49
  0
TEXT
  8
0
  6
CONTINUOUS
 62
     2
 10
1525.32
 20
1169.68
 30
1.44
 40
14.4
  1
１４８０
 50
0.0
 41
0.9
 51
0.0
  7
KANJI49
  0
TEXT
  8
0
  6
CONTINUOUS
 62
     2
 10
1525.32
 20
1138.08
 30
1.44
 40
14.4
  1
１５８０
 50
0.0
 41
0.9
 51
0.0
  7
KANJI49
  0
TEXT
  8
0
  6
CONTINUOUS
 62
     2
 10
1525.32
 20
1106.48
 30
1.44
 40
14.4
  1
１６８０
 50
0.0
 41
0.9
 51
0.0
  7
KANJI49
  0
TEXT
  8
0
  6
CONTINUOUS
 62
     2
 10
1525.32
 20
1074.88
 30
1.44
 40
14.4
  1
１７８０
 50
0.0
 41
0.9
 51
0.0
  7
KANJI49
  0
TEXT
  8
0
  6
CONTINUOUS
 62
     2
 10
1525.32
 20
1043.28
 30
1.44
 40
14.4
  1
１８８０
 50
0.0
 41
0.9
 51
0.0
  7
KANJI49
  0
TEXT
  8
0
  6
CONTINUOUS
 62
     2
 10
1429.32
 20
1043.28
 30
1.44
 40
14.4
  1
１９９５
 50
0.0
 41
0.9
 51
0.0
  7
KANJI49
  0
TEXT
  8
0
  6
CONTINUOUS
 62
     2
 10
1333.32
 20
1043.28
 30
1.44
 40
14.4
  1
２２２０
 50
0.0
 41
0.9
 51
0.0
  7
KANJI49
  0
TEXT
  8
0
  6
CONTINUOUS
 62
     2
 10
1429.32
 20
1074.88
 30
1.44
 40
14.4
  1
１８９５
 50
0.0
 41
0.9
 51
0.0
  7
KANJI49
  0
TEXT
  8
0
  6
CONTINUOUS
 62
     2
 10
1429.32
 20
1106.48
 30
1.44
 40
14.4
  1
１７９５
 50
0.0
 41
0.9
 51
0.0
  7
KANJI49
  0
TEXT
  8
0
  6
CONTINUOUS
 62
     2
 10
1429.32
 20
1138.08
 30
1.44
 40
14.4
  1
１６９５
 50
0.0
 41
0.9
 51
0.0
  7
KANJI49
  0
TEXT
  8
0
  6
CONTINUOUS
 62
     2
 10
1429.32
 20
1169.68
 30
1.44
 40
14.4
  1
１５９５
 50
0.0
 41
0.9
 51
0.0
  7
KANJI49
  0
TEXT
  8
0
  6
CONTINUOUS
 62
     2
 10
1333.32
 20
1169.68
 30
1.44
 40
14.4
  1
１８２０
 50
0.0
 41
0.9
 51
0.0
  7
KANJI49
  0
TEXT
  8
0
  6
CONTINUOUS
 62
     2
 10
1333.32
 20
1138.08
 30
1.44
 40
14.4
  1
１９２０
 50
0.0
 41
0.9
 51
0.0
  7
KANJI49
  0
TEXT
  8
0
  6
CONTINUOUS
 62
     2
 10
1333.32
 20
1106.48
 30
1.44
 40
14.4
  1
２０２０
 50
0.0
 41
0.9
 51
0.0
  7
KANJI49
  0
TEXT
  8
0
  6
CONTINUOUS
 62
     2
 10
1333.32
 20
1074.88
 30
1.44
 40
14.4
  1
２１２０
 50
0.0
 41
0.9
 51
0.0
  7
KANJI49
  0
LINE
  8
0
  6
LTYPE2
 62
     2
 10
1089.0999996
 20
774.7499852
 30
0.0
 11
1089.0999996
 21
897.7499852
 31
0.0
  0
LINE
  8
0
  6
CONTINUOUS
 62
     1
 10
1039.0999996
 20
817.7499852
 30
0.0
 11
1124.0999996
 21
817.7499852
 31
0.0
  0
LINE
  8
0
  6
CONTINUOUS
 62
     1
 10
1124.0999996
 20
797.7499852
 30
0.0
 11
1124.0999996
 21
817.7499852
 31
0.0
  0
LINE
  8
0
  6
CONTINUOUS
 62
     1
 10
1039.0999996
 20
857.7499852
 30
0.0
 11
1124.0999996
 21
857.7499852
 31
0.0
  0
LINE
  8
0
  6
CONTINUOUS
 62
     1
 10
1124.0999996
 20
877.7499852
 30
0.0
 11
1124.0999996
 21
857.7499852
 31
0.0
  0
LINE
  8
0
  6
CONTINUOUS
 62
     1
 10
1039.0999996
 20
817.7499852
 30
0.0
 11
1039.0999996
 21
857.7499852
 31
0.0
  0
LINE
  8
0
  6
CONTINUOUS
 62
     1
 10
1074.0999996
 20
817.7499852
 30
0.0
 11
1074.0999996
 21
857.7499852
 31
0.0
  0
LINE
  8
0
  6
CONTINUOUS
 62
     1
 10
1104.0999996
 20
817.7499852
 30
0.0
 11
1104.0999996
 21
857.7499852
 31
0.0
  0
LINE
  8
0
  6
LTYPE1
 62
     2
 10
1074.0999996
 20
857.7499852
 30
0.0
 11
1074.0999996
 21
877.7499852
 31
0.0
  0
LINE
  8
0
  6
LTYPE1
 62
     2
 10
1104.0999996
 20
857.7499852
 30
0.0
 11
1104.0999996
 21
877.7499852
 31
0.0
  0
LINE
  8
0
  6
CONTINUOUS
 62
     1
 10
1061.0999996
 20
793.7499852
 30
0.0
 11
1117.0999996
 21
793.7499852
 31
0.0
  0
LINE
  8
0
  6
CONTINUOUS
 62
     1
 10
1061.0999996
 20
793.7499852
 30
0.0
 11
1061.0999996
 21
797.7499852
 31
0.0
  0
LINE
  8
0
  6
CONTINUOUS
 62
     1
 10
1117.0999996
 20
793.7499852
 30
0.0
 11
1117.0999996
 21
797.7499852
 31
0.0
  0
LINE
  8
0
  6
CONTINUOUS
 62
     1
 10
1074.0999996
 20
783.7499852
 30
0.0
 11
1104.0999996
 21
783.7499852
 31
0.0
  0
LINE
  8
0
  6
CONTINUOUS
 62
     1
 10
1074.0999996
 20
783.7499852
 30
0.0
 11
1074.0999996
 21
793.7499852
 31
0.0
  0
LINE
  8
0
  6
CONTINUOUS
 62
     1
 10
1104.0999996
 20
783.7499852
 30
0.0
 11
1104.0999996
 21
793.7499852
 31
0.0
  0
LINE
  8
0
  6
LTYPE1
 62
     2
 10
1104.0999996
 20
793.7499852
 30
0.0
 11
1104.0999996
 21
817.7499852
 31
0.0
  0
LINE
  8
0
  6
LTYPE1
 62
     2
 10
1074.0999996
 20
793.7499852
 30
0.0
 11
1074.0999996
 21
817.7499852
 31
0.0
  0
LINE
  8
0
  6
CONTINUOUS
 62
     1
 10
1061.0999996
 20
881.7499852
 30
0.0
 11
1117.0999996
 21
881.7499852
 31
0.0
  0
LINE
  8
0
  6
CONTINUOUS
 62
     1
 10
1061.0999996
 20
881.7499852
 30
0.0
 11
1061.0999996
 21
877.7499852
 31
0.0
  0
LINE
  8
0
  6
CONTINUOUS
 62
     1
 10
1117.0999996
 20
881.7499852
 30
0.0
 11
1117.0999996
 21
877.7499852
 31
0.0
  0
LINE
  8
0
  6
CONTINUOUS
 62
     1
 10
1074.0999996
 20
891.7499852
 30
0.0
 11
1104.0999996
 21
891.7499852
 31
0.0
  0
LINE
  8
0
  6
CONTINUOUS
 62
     1
 10
1074.0999996
 20
891.7499852
 30
0.0
 11
1074.0999996
 21
881.7499852
 31
0.0
  0
LINE
  8
0
  6
CONTINUOUS
 62
     1
 10
1104.0999996
 20
891.7499852
 30
0.0
 11
1104.0999996
 21
881.7499852
 31
0.0
  0
LINE
  8
0
  6
LTYPE2
 62
     2
 10
1082.0999996
 20
790.1499852
 30
0.0
 11
1098.0999996
 21
790.1499852
 31
0.0
  0
CIRCLE
  8
0
  6
CONTINUOUS
 62
     1
 10
1089.0999996
 20
790.1499852
 30
0.0
 40
3.0
  0
LINE
  8
0
  6
LTYPE2
 62
     2
 10
1082.0999996
 20
885.3499852
 30
0.0
 11
1098.0999996
 21
885.3499852
 31
0.0
  0
CIRCLE
  8
0
  6
CONTINUOUS
 62
     1
 10
1089.0999996
 20
885.3499852
 30
0.0
 40
3.0
  0
LINE
  8
0
  6
CONTINUOUS
 62
     2
 10
1133.0999996
 20
857.7499852
 30
0.0
 11
1185.5999996
 21
857.7499852
 31
0.0
  0
LINE
  8
0
  6
CONTINUOUS
 62
     2
 10
1176.5999996
 20
857.7499852
 30
0.0
 11
1172.717713923
 21
843.261097806
 31
0.0
  0
LINE
  8
0
  6
CONTINUOUS
 62
     2
 10
1176.5999996
 20
857.7499852
 30
0.0
 11
1180.482285277
 21
843.261097806
 31
0.0
  0
LINE
  8
0
  6
CONTINUOUS
 62
     2
 10
1176.5999996
 20
857.7499852
 30
0.0
 11
1176.5999996
 21
817.7499852
 31
0.0
  0
LINE
  8
0
  6
CONTINUOUS
 62
     2
 10
1176.5999996
 20
817.7499852
 30
0.0
 11
1180.482285277
 21
832.238872594
 31
0.0
  0
LINE
  8
0
  6
CONTINUOUS
 62
     2
 10
1176.5999996
 20
817.7499852
 30
0.0
 11
1172.717713923
 21
832.238872594
 31
0.0
  0
LINE
  8
0
  6
CONTINUOUS
 62
     2
 10
1133.0999996
 20
817.7499852
 30
0.0
 11
1185.5999996
 21
817.7499852
 31
0.0
  0
TEXT
  8
0
  6
CONTINUOUS
 62
     2
 10
1170.5999996
 20
820.9499852
 30
1.2
 40
18.0
  1
４０
 50
90.0
 41
0.9
 51
0.0
  7
KANJI38
  0
LINE
  8
0
  6
CONTINUOUS
 62
     2
 10
1133.0999996
 20
797.7499852
 30
0.0
 11
1226.0999996
 21
797.7499852
 31
0.0
  0
LINE
  8
0
  6
CONTINUOUS
 62
     2
 10
1217.0999996
 20
797.7499852
 30
0.0
 11
1220.982285277
 21
812.238872594
 31
0.0
  0
LINE
  8
0
  6
CONTINUOUS
 62
     2
 10
1217.0999996
 20
797.7499852
 30
0.0
 11
1213.217713923
 21
812.238872594
 31
0.0
  0
LINE
  8
0
  6
CONTINUOUS
 62
     2
 10
1217.0999996
 20
797.7499852
 30
0.0
 11
1217.0999996
 21
877.7499852
 31
0.0
  0
LINE
  8
0
  6
CONTINUOUS
 62
     2
 10
1217.0999996
 20
877.7499852
 30
0.0
 11
1213.217713923
 21
863.261097806
 31
0.0
  0
LINE
  8
0
  6
CONTINUOUS
 62
     2
 10
1217.0999996
 20
877.7499852
 30
0.0
 11
1220.982285277
 21
863.261097806
 31
0.0
  0
LINE
  8
0
  6
CONTINUOUS
 62
     2
 10
1133.0999996
 20
877.7499852
 30
0.0
 11
1226.0999996
 21
877.7499852
 31
0.0
  0
TEXT
  8
0
  6
CONTINUOUS
 62
     2
 10
1211.0999996
 20
820.9499852
 30
1.2
 40
18.0
  1
８０
 50
90.0
 41
0.9
 51
0.0
  7
KANJI38
  0
LINE
  8
0
  6
CONTINUOUS
 62
     2
 10
1074.0999996
 20
784.7499852
 30
0.0
 11
1074.0999996
 21
728.7499852
 31
0.0
  0
LINE
  8
0
  6
CONTINUOUS
 62
     2
 10
1074.0999996
 20
737.7499852
 30
0.0
 11
1059.611112206
 21
741.632270877
 31
0.0
  0
LINE
  8
0
  6
CONTINUOUS
 62
     2
 10
1074.0999996
 20
737.7499852
 30
0.0
 11
1059.611112206
 21
733.867699523
 31
0.0
  0
LINE
  8
0
  6
CONTINUOUS
 62
     2
 10
1051.5999996
 20
737.7499852
 30
0.0
 11
1212.3999996
 21
737.7499852
 31
0.0
  0
LINE
  8
0
  6
CONTINUOUS
 62
     2
 10
1104.0999996
 20
737.7499852
 30
0.0
 11
1118.588886994
 21
733.867699523
 31
0.0
  0
LINE
  8
0
  6
CONTINUOUS
 62
     2
 10
1104.0999996
 20
737.7499852
 30
0.0
 11
1118.588886994
 21
741.632270877
 31
0.0
  0
LINE
  8
0
  6
CONTINUOUS
 62
     2
 10
1104.0999996
 20
774.7499852
 30
0.0
 11
1104.0999996
 21
728.7499852
 31
0.0
  0
TEXT
  8
0
  6
CONTINUOUS
 62
     2
 10
1181.5999996
 20
715.2499852
 30
1.8
 40
18.0
  1
ｄ９
 50
0.0
 41
0.9
 51
0.0
  7
KANJI37
  0
TEXT
  8
0
  6
CONTINUOUS
 62
     2
 10
1126.5999996
 20
743.7499852
 30
1.2
 40
18.0
  1
φ３０Ｈ１０
 50
0.0
 41
0.9
 51
0.0
  7
KANJI38
  0
LINE
  8
0
  6
CONTINUOUS
 62
     2
 10
1039.0999996
 20
808.7499852
 30
0.0
 11
1039.0999996
 21
692.7499852
 31
0.0
  0
LINE
  8
0
  6
CONTINUOUS
 62
     2
 10
1039.0999996
 20
701.7499852
 30
0.0
 11
1053.588886994
 21
697.867699523
 31
0.0
  0
LINE
  8
0
  6
CONTINUOUS
 62
     2
 10
1039.0999996
 20
701.7499852
 30
0.0
 11
1053.588886994
 21
705.632270877
 31
0.0
  0
LINE
  8
0
  6
CONTINUOUS
 62
     2
 10
1039.0999996
 20
701.7499852
 30
0.0
 11
1089.0999996
 21
701.7499852
 31
0.0
  0
LINE
  8
0
  6
CONTINUOUS
 62
     2
 10
1089.0999996
 20
701.7499852
 30
0.0
 11
1074.611112206
 21
705.632270877
 31
0.0
  0
LINE
  8
0
  6
CONTINUOUS
 62
     2
 10
1089.0999996
 20
701.7499852
 30
0.0
 11
1074.611112206
 21
697.867699523
 31
0.0
  0
LINE
  8
0
  6
CONTINUOUS
 62
     2
 10
1089.0999996
 20
765.7499852
 30
0.0
 11
1089.0999996
 21
692.7499852
 31
0.0
  0
TEXT
  8
0
  6
CONTINUOUS
 62
     2
 10
1047.2999996
 20
707.7499852
 30
1.2
 40
18.0
  1
５０
 50
0.0
 41
0.9
 51
0.0
  7
KANJI38
  0
LINE
  8
0
  6
LTYPE2
 62
     2
 10
1006.8999996
 20
837.7499852
 30
0.0
 11
1129.2999996
 21
837.7499852
 31
0.0
  0
LINE
  8
0
  6
LTYPE2
 62
     2
 10
938.5999996
 20
837.7499852
 30
0.0
 11
1116.0999996
 21
837.7499852
 31
0.0
  0
LINE
  8
0
  6
CONTINUOUS
 62
     1
 10
1019.0999996
 20
877.7499852
 30
0.0
 11
1124.0999996
 21
877.7499852
 31
0.0
  0
LINE
  8
0
  6
CONTINUOUS
 62
     1
 10
1019.0999996
 20
797.7499852
 30
0.0
 11
1124.0999996
 21
797.7499852
 31
0.0
  0
LINE
  8
0
  6
CONTINUOUS
 62
     1
 10
1003.0999996
 20
895.2499852
 30
0.0
 11
1019.0999996
 21
895.2499852
 31
0.0
  0
LINE
  8
0
  6
CONTINUOUS
 62
     1
 10
1003.0999996
 20
895.2499852
 30
0.0
 11
1003.0999996
 21
780.2499852
 31
0.0
  0
LINE
  8
0
  6
CONTINUOUS
 62
     1
 10
1003.0999996
 20
780.2499852
 30
0.0
 11
1019.0999996
 21
780.2499852
 31
0.0
  0
LINE
  8
0
  6
CONTINUOUS
 62
     1
 10
1019.0999996
 20
895.2499852
 30
0.0
 11
1019.0999996
 21
780.2499852
 31
0.0
  0
LINE
  8
0
  6
CONTINUOUS
 62
     2
 10
1100.47
 20
919.81
 30
0.0
 11
1088.395927171
 21
923.045238064
 31
0.0
  0
LINE
  8
0
  6
CONTINUOUS
 62
     2
 10
1100.47
 20
919.81
 30
0.0
 11
1088.395927171
 21
916.574761936
 31
0.0
  0
LINE
  8
0
  6
CONTINUOUS
 62
     2
 10
1100.47
 20
919.81
 30
0.0
 11
1059.47
 21
919.81
 31
0.0
  0
TEXT
  8
0
  6
CONTINUOUS
 62
     3
 10
1066.47
 20
929.81
 30
0.0
 40
20.0
  1
前進
 50
0.0
 41
0.925
 51
0.0
  7
KANJI46
  0
TEXT
  8
0
  6
CONTINUOUS
 62
     3
 10
1156.4799924
 20
922.3399924
 30
0.0
 40
18.0
  1
ＬＳユニット組付位置
 50
0.0
 41
0.9
 51
0.0
  7
KANJI41
  0
LINE
  8
0
  6
CONTINUOUS
 62
     2
 10
1322.0799924
 20
913.3399924
 30
0.0
 11
1156.4799924
 21
913.3399924
 31
0.0
  0
LINE
  8
0
  6
CONTINUOUS
 62
     2
 10
1347.7899924
 20
732.8399924
 30
0.0
 11
1285.007383704
 21
913.3399924
 31
0.0
  0
TEXT
  8
0
  6
CONTINUOUS
 62
     2
 10
1029.72
 20
1453.72
 30
0.96
 40
14.4
  1
ＭＤ４－　　２Ｌ
 50
0.0
 41
0.833333333
 51
0.0
  7
KANJI54
  0
TEXT
  8
0
  6
CONTINUOUS
 62
     2
 10
1029.72
 20
1422.12
 30
0.96
 40
14.4
  1
ＭＤ４－　　３Ｌ
 50
0.0
 41
0.833333333
 51
0.0
  7
KANJI54
  0
TEXT
  8
0
  6
CONTINUOUS
 62
     2
 10
1029.72
 20
1390.52
 30
0.96
 40
14.4
  1
ＭＤ４－　　４Ｌ
 50
0.0
 41
0.833333333
 51
0.0
  7
KANJI54
  0
TEXT
  8
0
  6
CONTINUOUS
 62
     2
 10
1029.72
 20
1358.92
 30
0.96
 40
14.4
  1
ＭＤ４－　　５Ｌ
 50
0.0
 41
0.833333333
 51
0.0
  7
KANJI54
  0
TEXT
  8
0
  6
CONTINUOUS
 62
     2
 10
1029.72
 20
1327.32
 30
0.96
 40
14.4
  1
ＭＤ４－　　６Ｌ
 50
0.0
 41
0.833333333
 51
0.0
  7
KANJI54
  0
TEXT
  8
0
  6
CONTINUOUS
 62
     2
 10
1029.72
 20
1295.72
 30
0.96
 40
14.4
  1
ＭＤ４－　　７Ｌ
 50
0.0
 41
0.833333333
 51
0.0
  7
KANJI54
  0
TEXT
  8
0
  6
CONTINUOUS
 62
     2
 10
1029.72
 20
1264.12
 30
0.96
 40
14.4
  1
ＭＤ４－　　８Ｌ
 50
0.0
 41
0.833333333
 51
0.0
  7
KANJI54
  0
TEXT
  8
0
  6
CONTINUOUS
 62
     2
 10
1029.72
 20
1232.52
 30
0.96
 40
14.4
  1
ＭＤ４－　　９Ｌ
 50
0.0
 41
0.833333333
 51
0.0
  7
KANJI54
  0
TEXT
  8
0
  6
CONTINUOUS
 62
     2
 10
1029.72
 20
1200.92
 30
0.96
 40
14.4
  1
ＭＤ４－　１０Ｌ
 50
0.0
 41
0.833333333
 51
0.0
  7
KANJI54
  0
TEXT
  8
0
  6
CONTINUOUS
 62
     2
 10
1029.72
 20
1169.32
 30
0.96
 40
14.4
  1
ＭＤ４－　１１Ｌ
 50
0.0
 41
0.833333333
 51
0.0
  7
KANJI54
  0
TEXT
  8
0
  6
CONTINUOUS
 62
     2
 10
1029.72
 20
1137.72
 30
0.96
 40
14.4
  1
ＭＤ４－　１２Ｌ
 50
0.0
 41
0.833333333
 51
0.0
  7
KANJI54
  0
TEXT
  8
0
  6
CONTINUOUS
 62
     2
 10
1029.72
 20
1106.12
 30
0.96
 40
14.4
  1
ＭＤ４－　１３Ｌ
 50
0.0
 41
0.833333333
 51
0.0
  7
KANJI54
  0
TEXT
  8
0
  6
CONTINUOUS
 62
     2
 10
1029.72
 20
1074.52
 30
0.96
 40
14.4
  1
ＭＤ４－　１４Ｌ
 50
0.0
 41
0.833333333
 51
0.0
  7
KANJI54
  0
TEXT
  8
0
  6
CONTINUOUS
 62
     2
 10
1029.72
 20
1042.92
 30
0.96
 40
14.4
  1
ＭＤ４－　１５Ｌ
 50
0.0
 41
0.833333333
 51
0.0
  7
KANJI54
  0
TEXT
  8
0
  6
CONTINUOUS
 62
     2
 10
1029.72
 20
1011.32
 30
0.96
 40
14.4
  1
ＭＤ４－　　　Ｌ
 50
0.0
 41
0.833333333
 51
0.0
  7
KANJI54
  0
TEXT
  8
0
  6
CONTINUOUS
 62
     2
 10
1717.32
 20
1454.08
 30
1.44
 40
14.4
  1
１１０
 50
0.0
 41
0.9
 51
0.0
  7
KANJI49
  0
TEXT
  8
0
  6
CONTINUOUS
 62
     2
 10
1717.32
 20
1422.48
 30
1.44
 40
14.4
  1
１１２
 50
0.0
 41
0.9
 51
0.0
  7
KANJI49
  0
TEXT
  8
0
  6
CONTINUOUS
 62
     2
 10
1717.32
 20
1390.88
 30
1.44
 40
14.4
  1
１１６
 50
0.0
 41
0.9
 51
0.0
  7
KANJI49
  0
TEXT
  8
0
  6
CONTINUOUS
 62
     2
 10
1717.32
 20
1359.28
 30
1.44
 40
14.4
  1
１２０
 50
0.0
 41
0.9
 51
0.0
  7
KANJI49
  0
TEXT
  8
0
  6
CONTINUOUS
 62
     2
 10
1717.32
 20
1327.68
 30
1.44
 40
14.4
  1
１２５
 50
0.0
 41
0.9
 51
0.0
  7
KANJI49
  0
TEXT
  8
0
  6
CONTINUOUS
 62
     2
 10
1717.32
 20
1296.08
 30
1.44
 40
14.4
  1
１３０
 50
0.0
 41
0.9
 51
0.0
  7
KANJI49
  0
TEXT
  8
0
  6
CONTINUOUS
 62
     2
 10
1717.32
 20
1264.48
 30
1.44
 40
14.4
  1
１３３
 50
0.0
 41
0.9
 51
0.0
  7
KANJI49
  0
TEXT
  8
0
  6
CONTINUOUS
 62
     2
 10
1717.32
 20
1232.88
 30
1.44
 40
14.4
  1
１３７
 50
0.0
 41
0.9
 51
0.0
  7
KANJI49
  0
TEXT
  8
0
  6
CONTINUOUS
 62
     2
 10
1717.32
 20
1201.28
 30
1.44
 40
14.4
  1
１４１
 50
0.0
 41
0.9
 51
0.0
  7
KANJI49
  0
TEXT
  8
0
  6
CONTINUOUS
 62
     2
 10
1717.32
 20
1169.68
 30
1.44
 40
14.4
  1
１４４
 50
0.0
 41
0.9
 51
0.0
  7
KANJI49
  0
TEXT
  8
0
  6
CONTINUOUS
 62
     2
 10
1717.32
 20
1138.08
 30
1.44
 40
14.4
  1
１４８
 50
0.0
 41
0.9
 51
0.0
  7
KANJI49
  0
TEXT
  8
0
  6
CONTINUOUS
 62
     2
 10
1717.32
 20
1106.48
 30
1.44
 40
14.4
  1
１５２
 50
0.0
 41
0.9
 51
0.0
  7
KANJI49
  0
TEXT
  8
0
  6
CONTINUOUS
 62
     2
 10
1717.32
 20
1074.88
 30
1.44
 40
14.4
  1
１５６
 50
0.0
 41
0.9
 51
0.0
  7
KANJI49
  0
TEXT
  8
0
  6
CONTINUOUS
 62
     2
 10
1717.32
 20
1043.28
 30
1.44
 40
14.4
  1
１６１
 50
0.0
 41
0.9
 51
0.0
  7
KANJI49
  0
TEXT
  8
0
  6
CONTINUOUS
 62
     2
 10
430.690009055
 20
786.8799852
 30
0.0
 40
16.8
  1
日本電産
 50
0.0
 41
0.964285714
 51
0.0
  7
KANJI55
  0
TEXT
  8
0
  6
CONTINUOUS
 62
     2
 10
422.490009055
 20
764.5299852
 30
0.0
 40
16.8
  1
クイックブレーキモータ
 50
0.0
 41
0.892857143
 51
0.0
  7
KANJI56
  0
LINE
  8
0
  6
CONTINUOUS
 62
     2
 10
1398.0
 20
478.475898428
 30
0.0
 11
1327.6999996
 21
422.7299852
 31
0.0
  0
LINE
  8
0
  6
CONTINUOUS
 62
     2
 10
1458.5999996
 20
526.5299852
 30
0.0
 11
1408.0
 21
486.405615769
 31
0.0
  0
TEXT
  8
0
  6
CONTINUOUS
 62
     6
 10
92.112
 20
1327.584
 30
1.296
 40
12.96
  1
Ｕ
 50
0.0
 41
0.9
 51
0.0
  7
KANJI34
  0
LINE
  8
0
  6
CONTINUOUS
 62
     1
 10
928.745007504
 20
201.973959796
 30
0.0
 11
928.745007504
 21
184.0
 31
0.0
  0
TEXT
  8
0
  6
CONTINUOUS
 62
     2
 10
1648.5200334
 20
126.899994
 30
1.8
 40
21.0
  1
０７．１０．０５
 50
0.0
 41
0.571428571
 51
0.0
  7
KANJI57
  0
LINE
  8
0
  6
CONTINUOUS
 62
     2
 10
1873.92
 20
896.7
 30
0.0
 11
2398.92
 21
896.7
 31
0.0
  0
LINE
  8
0
  6
CONTINUOUS
 62
     2
 10
1873.92
 20
854.7
 30
0.0
 11
2398.92
 21
854.7
 31
0.0
  0
LINE
  8
0
  6
CONTINUOUS
 62
     2
 10
1921.92
 20
1232.7
 30
0.0
 11
1921.92
 21
896.7
 31
0.0
  0
TEXT
  8
0
  6
CONTINUOUS
 62
     2
 10
1906.92
 20
865.5
 30
79.962857143
 40
22.8
  1
付属品
 50
0.0
 41
0.9
 51
0.0
  7
KANJI58
  0
TEXT
  8
0
  6
CONTINUOUS
 62
     2
 10
1906.92
 20
823.5
 30
180.445714286
 40
22.8
  1
台数
 50
0.0
 41
0.9
 51
0.0
  7
KANJI59
  0
LINE
  8
0
  6
CONTINUOUS
 62
     1
 10
1873.92
 20
1628.7
 30
0.0
 11
2398.92
 21
1628.7
 31
0.0
  0
TEXT
  8
0
  6
CONTINUOUS
 62
     2
 10
1948.92
 20
1584.9
 30
17.09964
 40
27.0
  1
マイティシリンダ仕様
 50
0.0
 41
0.9
 51
0.0
  7
KANJI60
  0
LINE
  8
0
  6
CONTINUOUS
 62
     2
 10
1921.92
 20
938.7
 30
0.0
 11
2398.92
 21
938.7
 31
0.0
  0
LINE
  8
0
  6
CONTINUOUS
 62
     2
 10
1921.92
 20
1064.7
 30
0.0
 11
2398.92
 21
1064.7
 31
0.0
  0
LINE
  8
0
  6
CONTINUOUS
 62
     2
 10
1921.92
 20
1106.7
 30
0.0
 11
2398.92
 21
1106.7
 31
0.0
  0
LINE
  8
0
  6
CONTINUOUS
 62
     2
 10
1873.92
 20
1316.7
 30
0.0
 11
2398.92
 21
1316.7
 31
0.0
  0
LINE
  8
0
  6
CONTINUOUS
 62
     2
 10
1873.92
 20
1274.7
 30
0.0
 11
2398.92
 21
1274.7
 31
0.0
  0
LINE
  8
0
  6
CONTINUOUS
 62
     2
 10
1873.92
 20
1232.7
 30
0.0
 11
2398.92
 21
1232.7
 31
0.0
  0
LINE
  8
0
  6
CONTINUOUS
 62
     2
 10
1921.92
 20
1148.7
 30
0.0
 11
2398.92
 21
1148.7
 31
0.0
  0
LINE
  8
0
  6
CONTINUOUS
 62
     2
 10
1921.92
 20
1190.7
 30
0.0
 11
2398.92
 21
1190.7
 31
0.0
  0
LINE
  8
0
  6
CONTINUOUS
 62
     2
 10
1873.92
 20
1526.7
 30
0.0
 11
2398.92
 21
1526.7
 31
0.0
  0
LINE
  8
0
  6
CONTINUOUS
 62
     2
 10
1873.92
 20
1484.7
 30
0.0
 11
2398.92
 21
1484.7
 31
0.0
  0
LINE
  8
0
  6
CONTINUOUS
 62
     2
 10
1873.92
 20
1442.7
 30
0.0
 11
2398.92
 21
1442.7
 31
0.0
  0
LINE
  8
0
  6
CONTINUOUS
 62
     2
 10
1873.92
 20
1400.7
 30
0.0
 11
2398.92
 21
1400.7
 31
0.0
  0
LINE
  8
0
  6
CONTINUOUS
 62
     2
 10
1873.92
 20
1358.7
 30
0.0
 11
2398.92
 21
1358.7
 31
0.0
  0
LINE
  8
0
  6
CONTINUOUS
 62
     2
 10
1873.92
 20
1568.7
 30
0.0
 11
2398.92
 21
1568.7
 31
0.0
  0
TEXT
  8
0
  6
CONTINUOUS
 62
     2
 10
1948.92
 20
1159.5
 30
33.439782857
 40
22.8
  1
電源電圧
 50
0.0
 41
0.9
 51
0.0
  7
KANJI61
  0
TEXT
  8
0
  6
CONTINUOUS
 62
     2
 10
1948.92
 20
1117.5
 30
60.42
 40
22.8
  1
周波数
 50
0.0
 41
0.9
 51
0.0
  7
KANJI62
  0
TEXT
  8
0
  6
CONTINUOUS
 62
     2
 10
1948.92
 20
1075.5
 30
141.36
 40
22.8
  1
電流
 50
0.0
 41
0.9
 51
0.0
  7
KANJI63
  0
TEXT
  8
0
  6
CONTINUOUS
 62
     2
 10
1948.92
 20
1033.5
 30
60.42
 40
22.8
  1
絶縁級
 50
0.0
 41
0.9
 51
0.0
  7
KANJI62
  0
TEXT
  8
0
  6
CONTINUOUS
 62
     2
 10
1906.92
 20
1537.5
 30
180.445714286
 40
22.8
  1
形式
 50
0.0
 41
0.9
 51
0.0
  7
KANJI59
  0
TEXT
  8
0
  6
CONTINUOUS
 62
     2
 10
1906.92
 20
1495.5
 30
180.445714286
 40
22.8
  1
推力
 50
0.0
 41
0.9
 51
0.0
  7
KANJI59
  0
TEXT
  8
0
  6
CONTINUOUS
 62
     2
 10
1906.92
 20
1453.5
 30
29.721428571
 40
22.8
  1
ストローク
 50
0.0
 41
0.9
 51
0.0
  7
KANJI64
  0
TEXT
  8
0
  6
CONTINUOUS
 62
     2
 10
1906.92
 20
1327.5
 30
180.445714286
 40
22.8
  1
構造
 50
0.0
 41
0.9
 51
0.0
  7
KANJI59
  0
TEXT
  8
0
  6
CONTINUOUS
 62
     2
 10
1906.92
 20
1285.5
 30
12.973851429
 40
22.8
  1
過負荷安全装置
 50
0.0
 41
0.9
 51
0.0
  7
KANJI65
  0
TEXT
  8
0
  6
CONTINUOUS
 62
     2
 10
1906.92
 20
1243.5
 30
79.962857143
 40
22.8
  1
塗装色
 50
0.0
 41
0.9
 51
0.0
  7
KANJI58
  0
TEXT
  8
0
  6
CONTINUOUS
 62
     2
 10
1882.92
 20
1369.5
 30
1.954285714
 40
22.8
  1
ピストンロッド回転トルク
 50
0.0
 41
0.9
 51
0.0
  7
KANJI66
  0
LINE
  8
0
  6
CONTINUOUS
 62
     2
 10
1873.92
 20
1022.7
 30
0.0
 11
2398.92
 21
1022.7
 31
0.0
  0
LINE
  8
0
  6
CONTINUOUS
 62
     2
 10
1921.92
 20
980.7
 30
0.0
 11
2398.92
 21
980.7
 31
0.0
  0
TEXT
  8
0
  6
CONTINUOUS
 62
     2
 10
1898.37
 20
1226.7
 30
13.2
 40
21.0
  1
モ　トル仕様
 50
0.0
 41
0.9
 51
0.0
  7
KANJI67
  0
TEXT
  8
0
  6
CONTINUOUS
 62
     2
 10
1898.37
 20
1004.7
 30
1.2
 40
21.0
  1
ブレ　キ
 50
0.0
 41
0.9
 51
0.0
  7
KANJI68
  0
LINE
  8
0
  6
CONTINUOUS
 62
     2
 10
1896.72
 20
954.9
 30
0.0
 11
1896.72
 21
942.3
 31
0.0
  0
TEXT
  8
0
  6
CONTINUOUS
 62
     2
 10
2208.42
 20
1286.7
 30
9.0
 40
21.0
  1
推力リミッタ
 50
0.0
 41
0.9
 51
0.0
  7
KANJI69
  0
TEXT
  8
0
  6
CONTINUOUS
 62
     2
 10
2265.42
 20
1034.7
 30
1.8
 40
18.0
  1
Ｅ
 50
0.0
 41
0.9
 51
0.0
  7
KANJI70
  0
TEXT
  8
0
  6
CONTINUOUS
 62
     2
 10
2221.92
 20
949.5
 30
12.0
 40
21.0
  1
同時切り
 50
0.0
 41
0.9
 51
0.0
  7
KANJI71
  0
TEXT
  8
0
  6
CONTINUOUS
 62
     2
 10
1948.92
 20
991.5
 30
141.36
 40
22.8
  1
形式
 50
0.0
 41
0.9
 51
0.0
  7
KANJI63
  0
TEXT
  8
0
  6
CONTINUOUS
 62
     2
 10
1948.92
 20
949.5
 30
33.439782857
 40
22.8
  1
操作方式
 50
0.0
 41
0.9
 51
0.0
  7
KANJI61
  0
LINE
  8
0
  6
CONTINUOUS
 62
     2
 10
1896.72
 20
1190.1
 30
0.0
 11
1896.72
 21
1176.3
 31
0.0
  0
TEXT
  8
0
  6
CONTINUOUS
 62
     2
 10
1948.92
 20
1201.5
 30
3.0
 40
22.8
  1
出力　相数　極数
 50
0.0
 41
0.9
 51
0.0
  7
KANJI72
  0
TEXT
  8
0
  6
CONTINUOUS
 62
     2
 10
1906.92
 20
1411.5
 30
12.0
 40
22.8
  1
公称速度
 50
0.0
 41
0.9
 51
0.0
  7
KANJI73
  0
TEXT
  8
0
  6
CONTINUOUS
 62
     2
 10
2030.82
 20
1410.3
 30
0.0
 40
21.0
  1
（５０／６０Ｈｚ）
 50
0.0
 41
0.628571429
 51
0.0
  7
KANJI74
  0
TEXT
  8
0
  6
CONTINUOUS
 62
     2
 10
2151.42
 20
991.95
 30
3.3
 40
20.4
  1
スプリング制動式電磁ブレーキ
 50
0.0
 41
0.705882353
 51
0.0
  7
KANJI75
  0
TEXT
  8
0
  6
CONTINUOUS
 62
     2
 10
2370.42
 20
1159.5
 30
0.216
 40
18.0
  1
Ｖ
 50
0.0
 41
0.8
 51
0.0
  7
KANJI76
  0
TEXT
  8
0
  6
CONTINUOUS
 62
     2
 10
2359.62
 20
1117.5
 30
0.216
 40
18.0
  1
Ｈｚ
 50
0.0
 41
0.8
 51
0.0
  7
KANJI76
  0
TEXT
  8
0
  6
CONTINUOUS
 62
     2
 10
2370.42
 20
1075.5
 30
0.216
 40
18.0
  1
Ａ
 50
0.0
 41
0.8
 51
0.0
  7
KANJI76
  0
TEXT
  8
0
  6
CONTINUOUS
 62
     2
 10
2291.52
 20
1202.7
 30
1.8
 40
18.0
  1
３φ
 50
0.0
 41
0.9
 51
0.0
  7
KANJI70
  0
TEXT
  8
0
  6
CONTINUOUS
 62
     2
 10
2351.52
 20
1202.7
 30
1.8
 40
18.0
  1
４Ｐ
 50
0.0
 41
0.9
 51
0.0
  7
KANJI70
  0
TEXT
  8
0
  6
CONTINUOUS
 62
     2
 10
2149.92
 20
1244.7
 30
1.2
 40
19.2
  1
マンセル　７．５ＧＹ　５／４．５
 50
0.0
 41
0.71875
 51
0.0
  7
KANJI77
  0
TEXT
  8
0
  6
CONTINUOUS
 62
     2
 10
2149.92
 20
1160.7
 30
1.8
 40
18.0
  1
　　　　　　　／　　　
 50
0.0
 41
0.9
 51
0.0
  7
KANJI70
  0
TEXT
  8
0
  6
CONTINUOUS
 62
     2
 10
2149.92
 20
1118.7
 30
1.8
 40
18.0
  1
　　　　５０／　６０
 50
0.0
 41
0.9
 51
0.0
  7
KANJI70
  0
TEXT
  8
0
  6
CONTINUOUS
 62
     2
 10
2149.92
 20
1076.7
 30
1.8
 40
18.0
  1
　　　　　　　／　　　
 50
0.0
 41
0.9
 51
0.0
  7
KANJI70
  0
TEXT
  8
0
  6
CONTINUOUS
 62
     2
 10
2354.52
 20
1455.9
 30
0.1536
 40
19.2
  1
ｍｍ
 50
0.0
 41
0.8
 51
0.0
  7
KANJI78
  0
TEXT
  8
0
  6
CONTINUOUS
 62
     2
 10
2208.42
 20
1328.7
 30
9.0
 40
21.0
  1
全閉屋内形
 50
0.0
 41
0.9
 51
0.0
  7
KANJI69
  0
TEXT
  8
0
  6
CONTINUOUS
 62
     2
 10
2315.52
 20
1412.7
 30
0.0
 40
21.0
  1
ｍｍ／ｓｅｃ
 50
0.0
 41
0.571428571
 51
0.0
  7
KANJI79
  0
TEXT
  8
0
  6
CONTINUOUS
 62
     2
 10
2193.72
 20
1496.7
 30
1.8
 40
18.0
  1
３９．２ＫＮ（４ｔｏｎ）
 50
0.0
 41
0.9
 51
0.0
  7
KANJI70
  0
TEXT
  8
0
  6
CONTINUOUS
 62
     2
 10
2152.92
 20
1412.7
 30
1.8
 40
18.0
  1
　１２．５／１５
 50
0.0
 41
0.9
 51
0.0
  7
KANJI70
  0
TEXT
  8
0
  6
CONTINUOUS
 62
     2
 10
2163.42
 20
1536.6
 30
1.2
 40
18.0
  1
ＭＤ４－　Ｌ
 50
0.0
 41
0.833333333
 51
0.0
  7
KANJI80
  0
TEXT
  8
0
  6
CONTINUOUS
 62
     2
 10
2155.92
 20
1202.7
 30
1.8
 40
18.0
  1
　２．０ＫＷ
 50
0.0
 41
0.9
 51
0.0
  7
KANJI70
  0
LINE
  8
0
  6
CONTINUOUS
 62
     1
 10
1873.92
 20
770.7
 30
0.0
 11
2398.92
 21
770.7
 31
0.0
  0
LINE
  8
0
  6
CONTINUOUS
 62
     2
 10
1873.92
 20
812.7
 30
0.0
 11
2398.92
 21
812.7
 31
0.0
  0
TEXT
  8
0
  6
CONTINUOUS
 62
     2
 10
2343.72
 20
782.88
 30
0.0
 40
21.0
  1
ｋｇ
 50
0.0
 41
0.9
 51
0.0
  7
KANJI81
  0
TEXT
  8
0
  6
CONTINUOUS
 62
     2
 10
1905.72
 20
781.5
 30
6.0
 40
21.0
  1
概算重量（１台当り）
 50
0.0
 41
0.857142857
 51
0.0
  7
KANJI82
  0
TEXT
  8
0
  6
CONTINUOUS
 62
     2
 10
2182.92
 20
1370.7
 30
0.0
 40
18.0
  1
１５６Ｎ・ｍ（１６ｋｇ・ｍ）
 50
0.0
 41
0.833333333
 51
0.0
  7
KANJI83
  0
LINE
  8
0
  6
CONTINUOUS
 62
     1
 10
1873.92
 20
1628.7
 30
0.0
 11
1873.92
 21
770.7
 31
0.0
  0
LINE
  8
0
  6
CONTINUOUS
 62
     2
 10
2149.92
 20
1568.7
 30
0.0
 11
2149.92
 21
770.7
 31
0.0
  0
LINE
  8
0
  6
CONTINUOUS
 62
     1
 10
2398.92
 20
1628.7
 30
0.0
 11
2398.92
 21
770.7
 31
0.0
  0
LINE
  8
0
  6
CONTINUOUS
 62
     1
 10
1445.282719764
 20
554.0299852
 30
0.0
 11
1412.5999996
 21
554.0299852
 31
0.0
  0
LINE
  8
0
  6
CONTINUOUS
 62
     1
 10
1410.5999996
 20
552.5299852
 30
0.0
 11
1446.782719764
 21
552.5299852
 31
0.0
  0
LINE
  8
0
  6
CONTINUOUS
 62
     1
 10
1461.310677719
 20
554.0299852
 30
0.0
 11
1504.5999996
 21
554.0299852
 31
0.0
  0
LINE
  8
0
  6
CONTINUOUS
 62
     1
 10
1459.810677719
 20
552.5299852
 30
0.0
 11
1506.5999996
 21
552.5299852
 31
0.0
  0
LINE
  8
0
  6
CONTINUOUS
 62
     1
 10
1568.5999996
 20
592.0299852
 30
0.0
 11
1515.5
 21
588.139978222
 31
0.0
  0
LINE
  8
0
  6
CONTINUOUS
 62
     1
 10
1568.5999996
 20
652.0299852
 30
0.0
 11
1518.0
 21
655.736846838
 31
0.0
  0
LINE
  8
0
  6
CONTINUOUS
 62
     1
 10
1348.5999996
 20
592.0299852
 30
0.0
 11
1399.0
 21
588.33777513
 31
0.0
  0
LINE
  8
0
  6
CONTINUOUS
 62
     1
 10
1418.8999996
 20
501.0299852
 30
0.0
 11
1408.2999996
 21
501.0299852
 31
0.0
  0
ARC
  8
0
  6
CONTINUOUS
 62
     1
 10
1411.5999996
 20
502.0299852
 30
0.0
 40
1.0
 50
180.0
 51
270.0
  0
ARC
  8
0
  6
CONTINUOUS
 62
     1
 10
1413.1999996
 20
502.0299852
 30
0.0
 40
5.0
 50
191.5
 51
267.7
  0
ARC
  8
0
  6
CONTINUOUS
 62
     1
 10
1413.9999996
 20
502.0299852
 30
0.0
 40
5.0
 50
272.3
 51
348.5
  0
LINE
  8
0
  6
CONTINUOUS
 62
     1
 10
1414.1999996
 20
497.0299852
 30
0.0
 11
1412.9999996
 21
497.0299852
 31
0.0
  0
ARC
  8
0
  6
CONTINUOUS
 62
     1
 10
1503.9999996
 20
502.0299852
 30
0.0
 40
5.0
 50
272.3
 51
348.5
  0
ARC
  8
0
  6
CONTINUOUS
 62
     1
 10
1503.1999996
 20
502.0299852
 30
0.0
 40
5.0
 50
191.5
 51
267.7
  0
LINE
  8
0
  6
CONTINUOUS
 62
     1
 10
1508.8999996
 20
501.0299852
 30
0.0
 11
1498.2999996
 21
501.0299852
 31
0.0
  0
ENDSEC
  0
EOF
